  0
SECTION
  2
HEADER
  9
$ACADVER
  1
AC1014
  9
$ACADMAINTVER
 70
     9
  9
$DWGCODEPAGE
  3
ANSI_1252
  9
$INSBASE
 10
0.0
 20
0.0
 30
0.0
  9
$EXTMIN
 10
1.000000000000000E+20
 20
1.000000000000000E+20
 30
1.000000000000000E+20
  9
$EXTMAX
 10
-1.000000000000000E+20
 20
-1.000000000000000E+20
 30
-1.000000000000000E+20
  9
$LIMMIN
 10
0.0
 20
0.0
  9
$LIMMAX
 10
12.0
 20
9.0
  9
$ORTHOMODE
 70
     0
  9
$REGENMODE
 70
     1
  9
$FILLMODE
 70
     1
  9
$QTEXTMODE
 70
     0
  9
$MIRRTEXT
 70
     1
  9
$DRAGMODE
 70
     2
  9
$LTSCALE
 40
1.0
  9
$OSMODE
 70
    37
  9
$ATTMODE
 70
     1
  9
$TEXTSIZE
 40
0.2
  9
$TRACEWID
 40
0.05
  9
$TEXTSTYLE
  7
STANDARD
  9
$CLAYER
  8
DEFAULT
  9
$CELTYPE
  6
BYLAYER
  9
$CECOLOR
 62
   256
  9
$CELTSCALE
 40
1.0
  9
$DELOBJ
 70
     1
  9
$DISPSILH
 70
     0
  9
$DIMSCALE
 40
1.0
  9
$DIMASZ
 40
0.18
  9
$DIMEXO
 40
0.0625
  9
$DIMDLI
 40
0.38
  9
$DIMRND
 40
0.0
  9
$DIMDLE
 40
0.0
  9
$DIMEXE
 40
0.18
  9
$DIMTP
 40
0.0
  9
$DIMTM
 40
0.0
  9
$DIMTXT
 40
0.18
  9
$DIMCEN
 40
0.09
  9
$DIMTSZ
 40
0.0
  9
$DIMTOL
 70
     0
  9
$DIMLIM
 70
     0
  9
$DIMTIH
 70
     1
  9
$DIMTOH
 70
     1
  9
$DIMSE1
 70
     0
  9
$DIMSE2
 70
     0
  9
$DIMTAD
 70
     0
  9
$DIMZIN
 70
     0
  9
$DIMBLK
  1

  9
$DIMASO
 70
     1
  9
$DIMSHO
 70
     1
  9
$DIMPOST
  1

  9
$DIMAPOST
  1

  9
$DIMALT
 70
     0
  9
$DIMALTD
 70
     2
  9
$DIMALTF
 40
25.4
  9
$DIMLFAC
 40
1.0
  9
$DIMTOFL
 70
     0
  9
$DIMTVP
 40
0.0
  9
$DIMTIX
 70
     0
  9
$DIMSOXD
 70
     0
  9
$DIMSAH
 70
     0
  9
$DIMBLK1
  1

  9
$DIMBLK2
  1

  9
$DIMSTYLE
  2
STANDARD
  9
$DIMCLRD
 70
     0
  9
$DIMCLRE
 70
     0
  9
$DIMCLRT
 70
     0
  9
$DIMTFAC
 40
1.0
  9
$DIMGAP
 40
0.09
  9
$DIMJUST
 70
     0
  9
$DIMSD1
 70
     0
  9
$DIMSD2
 70
     0
  9
$DIMTOLJ
 70
     1
  9
$DIMTZIN
 70
     0
  9
$DIMALTZ
 70
     0
  9
$DIMALTTZ
 70
     0
  9
$DIMFIT
 70
     3
  9
$DIMUPT
 70
     0
  9
$DIMUNIT
 70
     2
  9
$DIMDEC
 70
     4
  9
$DIMTDEC
 70
     4
  9
$DIMALTU
 70
     2
  9
$DIMALTTD
 70
     2
  9
$DIMTXSTY
  7
STANDARD
  9
$DIMAUNIT
 70
     0
  9
$LUNITS
 70
     2
  9
$LUPREC
 70
     3
  9
$SKETCHINC
 40
0.1
  9
$FILLETRAD
 40
0.5
  9
$AUNITS
 70
     0
  9
$AUPREC
 70
     0
  9
$MENU
  1
.
  9
$ELEVATION
 40
0.0
  9
$PELEVATION
 40
0.0
  9
$THICKNESS
 40
0.0
  9
$LIMCHECK
 70
     0
  9
$CHAMFERA
 40
0.5
  9
$CHAMFERB
 40
0.5
  9
$CHAMFERC
 40
1.0
  9
$CHAMFERD
 40
0.0
  9
$SKPOLY
 70
     0
  9
$TDCREATE
 40
2453721.600847778
  9
$TDUPDATE
 40
2453721.60084779
  9
$TDINDWG
 40
0.0000000116
  9
$TDUSRTIMER
 40
0.0000000116
  9
$USRTIMER
 70
     1
  9
$ANGBASE
 50
0.0
  9
$ANGDIR
 70
     0
  9
$PDMODE
 70
     0
  9
$PDSIZE
 40
0.0
  9
$PLINEWID
 40
0.0
  9
$COORDS
 70
     1
  9
$SPLFRAME
 70
     0
  9
$SPLINETYPE
 70
     6
  9
$SPLINESEGS
 70
     8
  9
$ATTDIA
 70
     0
  9
$ATTREQ
 70
     1
  9
$HANDLING
 70
     1
  9
$HANDSEED
  5
3FD
  9
$SURFTAB1
 70
     6
  9
$SURFTAB2
 70
     6
  9
$SURFTYPE
 70
     6
  9
$SURFU
 70
     6
  9
$SURFV
 70
     6
  9
$UCSNAME
  2

  9
$UCSORG
 10
0.0
 20
0.0
 30
0.0
  9
$UCSXDIR
 10
1.0
 20
0.0
 30
0.0
  9
$UCSYDIR
 10
0.0
 20
1.0
 30
0.0
  9
$PUCSNAME
  2

  9
$PUCSORG
 10
0.0
 20
0.0
 30
0.0
  9
$PUCSXDIR
 10
1.0
 20
0.0
 30
0.0
  9
$PUCSYDIR
 10
0.0
 20
1.0
 30
0.0
  9
$USERI1
 70
     0
  9
$USERI2
 70
     0
  9
$USERI3
 70
     0
  9
$USERI4
 70
     0
  9
$USERI5
 70
     0
  9
$USERR1
 40
0.0
  9
$USERR2
 40
0.0
  9
$USERR3
 40
0.0
  9
$USERR4
 40
0.0
  9
$USERR5
 40
0.0
  9
$WORLDVIEW
 70
     1
  9
$SHADEDGE
 70
     3
  9
$SHADEDIF
 70
    70
  9
$TILEMODE
 70
     1
  9
$MAXACTVP
 70
    64
  9
$PINSBASE
 10
0.0
 20
0.0
 30
0.0
  9
$PLIMCHECK
 70
     0
  9
$PEXTMIN
 10
1.000000000000000E+20
 20
1.000000000000000E+20
 30
1.000000000000000E+20
  9
$PEXTMAX
 10
-1.000000000000000E+20
 20
-1.000000000000000E+20
 30
-1.000000000000000E+20
  9
$PLIMMIN
 10
0.0
 20
0.0
  9
$PLIMMAX
 10
12.0
 20
9.0
  9
$UNITMODE
 70
     0
  9
$VISRETAIN
 70
     1
  9
$PLINEGEN
 70
     0
  9
$PSLTSCALE
 70
     1
  9
$TREEDEPTH
 70
  3020
  9
$PICKSTYLE
 70
     1
  9
$CMLSTYLE
  2
STANDARD
  9
$CMLJUST
 70
     0
  9
$CMLSCALE
 40
1.0
  9
$PROXYGRAPHICS
 70
     1
  9
$MEASUREMENT
 70
     0
  0
ENDSEC
  0
SECTION
  2
CLASSES
  0
CLASS
  1
ACDBDICTIONARYWDFLT
  2
AcDbDictionaryWithDefault
  3
ObjectDBX Classes
 90
        0
280
     0
281
     0
  0
CLASS
  1
XRECORD
  2
AcDbXrecord
  3
AutoCAD 2000
 90
        0
280
     0
281
     0
  0
CLASS
  1
LWPOLYLINE
  2
AcDbPolyline
  3
AutoCAD 2000
 90
        0
280
     0
281
     1
  0
CLASS
  1
HATCH
  2
AcDbHatch
  3
AutoCAD 2000
 90
        0
280
     0
281
     1
  0
CLASS
  1
ACDBPLACEHOLDER
  2
AcDbPlaceHolder
  3
ObjectDBX Classes
 90
        0
280
     0
281
     0
  0
CLASS
  1
LAYOUT
  2
AcDbLayout
  3
ObjectDBX Classes
 90
        0
280
     0
281
     0
  0
ENDSEC
  0
SECTION
  2
TABLES
  0
TABLE
  2
VPORT
  5
8
330
0
100
AcDbSymbolTable
 70
     2
  0
VPORT
  5
29
102
{ACAD_XDICTIONARY
360
3FB
102
}
330
8
100
AcDbSymbolTableRecord
100
AcDbViewportTableRecord
  2
*ACTIVE
 70
     0
 10
0.0
 20
0.0
 11
1.0
 21
1.0
 12
33.28110776605119
 22
38.65756758869022
 13
0.0
 23
0.0
 14
0.5
 24
0.5
 15
0.5
 25
0.5
 16
0.0
 26
0.0
 36
80.21230066091221
 17
0.0
 27
0.0
 37
0.0
 40
77.28814768784824
 41
1.972972972850329
 42
50.0
 43
0.0
 44
0.0
 50
0.0
 51
0.0
 71
     0
 72
   100
 73
     1
 74
     3
 75
     0
 76
     0
 77
     0
 78
     0
  0
ENDTAB
  0
TABLE
  2
LTYPE
  5
5
330
0
100
AcDbSymbolTable
 70
     1
  0
LTYPE
  5
14
330
5
100
AcDbSymbolTableRecord
100
AcDbLinetypeTableRecord
  2
BYBLOCK
 70
     0
  3

 72
    65
 73
     0
 40
0.0
  0
LTYPE
  5
15
330
5
100
AcDbSymbolTableRecord
100
AcDbLinetypeTableRecord
  2
BYLAYER
 70
     0
  3

 72
    65
 73
     0
 40
0.0
  0
LTYPE
  5
16
330
5
100
AcDbSymbolTableRecord
100
AcDbLinetypeTableRecord
  2
CONTINUOUS
 70
     0
  3
Solid line
 72
    65
 73
     0
 40
0.0
  0
ENDTAB
  0
TABLE
  2
LAYER
  5
2
330
0
100
AcDbSymbolTable
 70
     3
  0
LAYER
  5
10
330
2
100
AcDbSymbolTableRecord
100
AcDbLayerTableRecord
  2
0
 70
     0
 62
     7
  6
CONTINUOUS
  0
LAYER
  5
2A
330
2
100
AcDbSymbolTableRecord
100
AcDbLayerTableRecord
  2
DEFAULT
 70
     0
 62
     7
  6
CONTINUOUS
  0
LAYER
  5
2C
330
2
100
AcDbSymbolTableRecord
100
AcDbLayerTableRecord
  2
IGES_LEVEL_0
 70
     0
 62
   255
  6
CONTINUOUS
  0
ENDTAB
  0
TABLE
  2
STYLE
  5
3
330
0
100
AcDbSymbolTable
 70
     1
  0
STYLE
  5
11
330
3
100
AcDbSymbolTableRecord
100
AcDbTextStyleTableRecord
  2
STANDARD
 70
     0
 40
0.0
 41
1.0
 50
0.0
 71
     0
 42
0.2
  3
txt
  4

  0
ENDTAB
  0
TABLE
  2
VIEW
  5
6
330
0
100
AcDbSymbolTable
 70
     0
  0
ENDTAB
  0
TABLE
  2
UCS
  5
7
330
0
100
AcDbSymbolTable
 70
     0
  0
ENDTAB
  0
TABLE
  2
APPID
  5
9
330
0
100
AcDbSymbolTable
 70
     1
  0
APPID
  5
12
330
9
100
AcDbSymbolTableRecord
100
AcDbRegAppTableRecord
  2
ACAD
 70
     0
  0
ENDTAB
  0
TABLE
  2
DIMSTYLE
  5
A
330
0
100
AcDbSymbolTable
 70
     1
  0
DIMSTYLE
105
27
330
A
100
AcDbSymbolTableRecord
100
AcDbDimStyleTableRecord
  2
STANDARD
 70
     0
  3

  4

  5

  6

  7

 40
1.0
 41
0.18
 42
0.0625
 43
0.38
 44
0.18
 45
0.0
 46
0.0
 47
0.0
 48
0.0
140
0.18
141
0.09
142
0.0
143
25.4
144
1.0
145
0.0
146
1.0
147
0.09
 71
     0
 72
     0
 73
     1
 74
     1
 75
     0
 76
     0
 77
     0
 78
     0
170
     0
171
     2
172
     0
173
     0
174
     0
175
     0
176
     0
177
     0
178
     0
270
     2
271
     4
272
     4
273
     2
274
     2
340
11
275
     0
280
     0
281
     0
282
     0
283
     1
284
     0
285
     0
286
     0
287
     3
288
     0
  0
ENDTAB
  0
TABLE
  2
BLOCK_RECORD
  5
1
330
0
100
AcDbSymbolTable
 70
     1
  0
BLOCK_RECORD
  5
1F
330
1
100
AcDbSymbolTableRecord
100
AcDbBlockTableRecord
  2
*MODEL_SPACE
  0
BLOCK_RECORD
  5
1B
330
1
100
AcDbSymbolTableRecord
100
AcDbBlockTableRecord
  2
*PAPER_SPACE
  0
ENDTAB
  0
ENDSEC
  0
SECTION
  2
BLOCKS
  0
BLOCK
  5
20
330
1F
100
AcDbEntity
  8
0
100
AcDbBlockBegin
  2
*MODEL_SPACE
 70
     0
 71
     0
 10
0.0
 20
0.0
 30
0.0
  3
*MODEL_SPACE
  1

  0
ENDBLK
  5
21
330
1F
100
AcDbEntity
  8
0
100
AcDbBlockEnd
  0
BLOCK
  5
1C
330
1B
100
AcDbEntity
 67
     1
  8
0
100
AcDbBlockBegin
  2
*PAPER_SPACE
 70
     0
 71
     0
 10
0.0
 20
0.0
 30
0.0
  3
*PAPER_SPACE
  1

  0
ENDBLK
  5
1D
330
1B
100
AcDbEntity
 67
     1
  8
0
100
AcDbBlockEnd
  0
ENDSEC
  0
SECTION
  2
ENTITIES
  0
SPLINE
  5
2B
330
1F
100
AcDbEntity
  8
DEFAULT
 62
     7
100
AcDbSpline
210
0.0
220
0.0
230
1.0
 70
     8
 71
     5
 72
    12
 73
     6
 74
     0
 42
0.0000000001
 43
0.0000000001
 40
0.0
 40
0.0
 40
0.0
 40
0.0
 40
0.0
 40
0.0
 40
1.0
 40
1.0
 40
1.0
 40
1.0
 40
1.0
 40
1.0
 10
41.85371946286118
 20
17.71976544236718
 30
0.0
 10
42.32451835171793
 20
17.96059638020655
 30
0.0
 10
42.80197089042166
 20
18.18842013972032
 30
0.0
 10
43.23017289245509
 20
18.52030653067272
 30
0.0
 10
43.75580746914191
 20
18.64530813148589
 30
0.0
 10
44.23427627438118
 20
18.87051633911218
 30
0.0
  0
LINE
  5
2D
330
1F
100
AcDbEntity
  8
IGES_LEVEL_0
 62
     7
100
AcDbLine
 10
18.75871976605118
 20
18.20329718164018
 30
0.0
 11
18.75755176605118
 21
17.54549318164018
 31
0.0
  0
SPLINE
  5
2E
330
1F
100
AcDbEntity
  8
IGES_LEVEL_0
 62
     7
100
AcDbSpline
210
0.0
220
0.0
230
1.0
 70
     8
 71
     3
 72
    27
 73
    23
 74
     0
 42
0.0000000001
 43
0.0000000001
 40
0.0
 40
0.0
 40
0.0
 40
0.0
 40
0.03082522988027
 40
0.09732867966862
 40
0.1626024222729
 40
0.2265354702876
 40
0.2890187385512
 40
0.3499457379505
 40
0.4092134011441
 40
0.4667230821068
 40
0.5223817843896
 40
0.5761097532221
 40
0.6278589205052
 40
0.6775942165865
 40
0.7252891466758
 40
0.7709281085498
 40
0.814509302518
 40
0.8560483856138
 40
0.8955830381321001
 40
0.9331844744042001
 40
0.9689769461156
 40
1.0
 40
1.0
 40
1.0
 40
1.0
 10
19.56006789558418
 20
17.06320090301918
 30
0.0
 10
19.55131219065718
 20
17.06459883764818
 30
0.0
 10
19.52368953305918
 20
17.06915668984518
 30
0.0
 10
19.47767277837018
 20
17.07754923128818
 30
0.0
 10
19.42254359069618
 20
17.08896970905818
 30
0.0
 10
19.36883878666618
 20
17.10148484425318
 30
0.0
 10
19.31668277537818
 20
17.11506028694818
 30
0.0
 10
19.26619965372318
 20
17.12966175845818
 30
0.0
 10
19.21751345608718
 20
17.14525496980018
 30
0.0
 10
19.17074811054318
 20
17.16180572264018
 30
0.0
 10
19.12602558463418
 20
17.17928035105918
 30
0.0
 10
19.08346076073718
 20
17.19764943058818
 30
0.0
 10
19.04314680839218
 20
17.21685849831518
 30
0.0
 10
19.00516734020818
 20
17.23685587062318
 30
0.0
 10
18.96960425823618
 20
17.25759096738318
 30
0.0
 10
18.93653926007718
 20
17.27901353798818
 30
0.0
 10
18.90605385367618
 20
17.30107384814918
 30
0.0
 10
18.87822962514518
 20
17.32372292497718
 30
0.0
 10
18.85314654343018
 20
17.34691379264118
 30
0.0
 10
18.83088241652418
 20
17.37060669070118
 30
0.0
 10
18.81204073175118
 20
17.39403789962618
 30
0.0
 10
18.80123104318718
 20
17.40995503891918
 30
0.0
 10
18.79653308551518
 20
17.41754523561518
 30
0.0
  0
ARC
  5
2F
330
1F
100
AcDbEntity
  8
IGES_LEVEL_0
 62
     7
100
AcDbCircle
 10
18.99930114547275
 20
17.5492341173587
 30
0.0
 40
0.2417785096194719
100
AcDbArc
 50
180.8865520094674
 51
213.0019405366419
  0
ARC
  5
30
330
1F
100
AcDbEntity
  8
DEFAULT
 62
     7
100
AcDbCircle
 10
19.24341486745036
 20
18.27869332696451
 30
0.0
 40
1.543870470293638
100
AcDbArc
 50
176.9579385145145
 51
182.3171542173656
  0
LINE
  5
31
330
1F
100
AcDbEntity
  8
IGES_LEVEL_0
 62
     7
100
AcDbLine
 10
18.64035076605118
 20
23.09146818164018
 30
0.0
 11
18.64035076605118
 21
17.54511618164018
 31
0.0
  0
LINE
  5
32
330
1F
100
AcDbEntity
  8
IGES_LEVEL_0
 62
     7
100
AcDbLine
 10
0.44035076605118
 20
2.54588018164018
 30
0.0
 11
0.44035076605118
 21
2.076475399290179
 31
0.0
  0
LINE
  5
33
330
1F
100
AcDbEntity
  8
IGES_LEVEL_0
 62
     7
100
AcDbLine
 10
1.34035076605118
 20
2.54588018164018
 30
0.0
 11
1.34035076605118
 21
2.076475399291179
 31
0.0
  0
LINE
  5
34
330
1F
100
AcDbEntity
  8
IGES_LEVEL_0
 62
     7
100
AcDbLine
 10
20.31535076605118
 20
2.54588018164018
 30
0.0
 11
20.31535076605118
 21
2.076475399290179
 31
0.0
  0
LINE
  5
35
330
1F
100
AcDbEntity
  8
IGES_LEVEL_0
 62
     7
100
AcDbLine
 10
21.21535076605118
 20
2.54588018164018
 30
0.0
 11
21.21535076605118
 21
2.076475399291179
 31
0.0
  0
LINE
  5
36
330
1F
100
AcDbEntity
  8
DEFAULT
 62
     7
100
AcDbLine
 10
20.31535110414118
 20
2.076475399290179
 30
0.0
 11
21.21535112430118
 21
2.076475399291179
 31
0.0
  0
LINE
  5
37
330
1F
100
AcDbEntity
  8
DEFAULT
 62
     7
100
AcDbLine
 10
0.4403511041431806
 20
2.076475399290179
 30
0.0
 11
1.34035112430018
 21
2.076475399291179
 31
0.0
  0
ARC
  5
38
330
1F
100
AcDbEntity
  8
DEFAULT
 62
     7
100
AcDbCircle
 10
2.070458684194311
 20
18.27496912017422
 30
0.0
 40
1.88534998337297
100
AcDbArc
 50
358.2159423533466
 51
3.010782221203587
  0
LINE
  5
39
330
1F
100
AcDbEntity
  8
IGES_LEVEL_0
 62
     7
100
AcDbLine
 10
2.35299164721118
 20
18.30399694493518
 30
0.0
 11
2.35329446512018
 21
18.29625365840118
 31
0.0
  0
ARC
  5
3A
330
1F
100
AcDbEntity
  8
IGES_LEVEL_0
 62
     7
100
AcDbCircle
 10
4.803691067613597
 20
53.13804979293681
 30
0.0
 40
0.4124976349284499
100
AcDbArc
 50
246.673021931228
 51
268.9451681275696
  0
LINE
  5
3B
330
1F
100
AcDbEntity
  8
IGES_LEVEL_0
 62
     7
100
AcDbLine
 10
0.9212540779021797
 20
67.45159819861019
 30
0.0
 11
0.8903511142731798
 21
67.44192235065017
 31
0.0
  0
LINE
  5
3C
330
1F
100
AcDbEntity
  8
IGES_LEVEL_0
 62
     7
100
AcDbLine
 10
0.9516369233811798
 20
67.46405057016018
 30
0.0
 11
0.9212540779021797
 21
67.45159819861019
 31
0.0
  0
ARC
  5
3D
330
1F
100
AcDbEntity
  8
IGES_LEVEL_0
 62
     7
100
AcDbCircle
 10
20.58039376190076
 20
72.19981696503241
 30
0.0
 40
0.3060504252077738
100
AcDbArc
 50
254.4080867240008
 51
280.7059416897771
  0
ARC
  5
3E
330
1F
100
AcDbEntity
  8
IGES_LEVEL_0
 62
     7
100
AcDbCircle
 10
20.6820796174016
 20
67.75290875690669
 30
0.0
 40
0.3219420554498049
100
AcDbArc
 50
270.073135097117
 51
284.9901911747803
  0
ARC
  5
3F
330
1F
100
AcDbEntity
  8
IGES_LEVEL_0
 62
     7
100
AcDbCircle
 10
17.17869106733897
 20
53.13804979207681
 30
0.0
 40
0.4124976340306341
100
AcDbArc
 50
246.6730219187509
 51
268.945168109982
  0
ARC
  5
40
330
1F
100
AcDbEntity
  8
IGES_LEVEL_0
 62
     7
100
AcDbCircle
 10
1.075308466632222
 20
72.19981696466235
 30
0.0
 40
0.3060504248414797
100
AcDbArc
 50
259.2940582999978
 51
285.5919133715925
  0
ARC
  5
41
330
1F
100
AcDbEntity
  8
IGES_LEVEL_0
 62
     7
100
AcDbCircle
 10
0.5735756940706175
 20
72.44265590667551
 30
0.0
 40
0.7024075865041654
100
AcDbArc
 50
309.2985991135521
 51
340.7696940836892
  0
ARC
  5
42
330
1F
100
AcDbEntity
  8
IGES_LEVEL_0
 62
     7
100
AcDbCircle
 10
0.754610878056199
 20
72.37982570183056
 30
0.0
 40
0.5107797004820361
100
AcDbArc
 50
340.7357692724585
 51
359.2877612115299
  0
SPLINE
  5
43
330
1F
100
AcDbEntity
  8
IGES_LEVEL_0
 62
     7
100
AcDbSpline
210
0.0
220
0.0
230
1.0
 70
     8
 71
     3
 72
    11
 73
     7
 74
     0
 42
0.0000000001
 43
0.0000000001
 40
0.0
 40
0.0
 40
0.0
 40
0.0
 40
0.1155297364358
 40
0.3476899648411
 40
0.6440205271151001
 40
1.0
 40
1.0
 40
1.0
 40
1.0
 10
3.08599157389218
 20
49.93452804390018
 30
0.0
 10
3.07222527026718
 20
49.92537314279018
 30
0.0
 10
3.03270930951318
 20
49.89744250136018
 30
0.0
 10
2.96188579214418
 20
49.83844593510018
 30
0.0
 10
2.86860638738418
 20
49.75491661407018
 30
0.0
 10
2.80102341668918
 20
49.69146514547018
 30
0.0
 10
2.76535111427318
 20
49.65569088621017
 30
0.0
  0
ARC
  5
44
330
1F
100
AcDbEntity
  8
IGES_LEVEL_0
 62
     7
100
AcDbCircle
 10
3.157229871613794
 20
49.84821326485817
 30
0.0
 40
0.1119157546699472
100
AcDbArc
 50
102.4300117379309
 51
129.5339276209545
  0
ARC
  5
45
330
1F
100
AcDbEntity
  8
IGES_LEVEL_0
 62
     7
100
AcDbCircle
 10
4.477010500542722
 20
53.13805190172148
 30
0.0
 40
0.4124998328407454
100
AcDbArc
 50
271.0550823776569
 51
293.3269463132705
  0
ARC
  5
46
330
1F
100
AcDbEntity
  8
IGES_LEVEL_0
 62
     7
100
AcDbCircle
 10
16.85201050048505
 20
53.13805190187004
 30
0.0
 40
0.412499832999371
100
AcDbArc
 50
271.0550823779137
 51
293.3269463122512
  0
ARC
  5
47
330
1F
100
AcDbEntity
  8
IGES_LEVEL_0
 62
     7
100
AcDbCircle
 10
20.86377245937809
 20
67.81043984539747
 30
0.0
 40
0.3814340114718076
100
AcDbArc
 50
245.2473384237782
 51
255.0468099675725
  0
SPLINE
  5
48
330
1F
100
AcDbEntity
  8
IGES_LEVEL_0
 62
     7
100
AcDbSpline
210
0.0
220
0.0
230
1.0
 70
     8
 71
     3
 72
    12
 73
     8
 74
     0
 42
0.0000000001
 43
0.0000000001
 40
0.0
 40
0.0
 40
0.0
 40
0.0
 40
0.2141965548009
 40
0.4277271474786
 40
0.6346044844011
 40
0.8269324665155
 40
1.0
 40
1.0
 40
1.0
 40
1.0
 10
20.70406530516118
 20
67.46405057016018
 30
0.0
 10
20.66568607945118
 20
67.48164031277018
 30
0.0
 10
20.59421256374118
 20
67.52856692935018
 30
0.0
 10
20.50750640695118
 20
67.61981517698018
 30
0.0
 10
20.44247403684118
 20
67.72250308109018
 30
0.0
 10
20.40125653694118
 20
67.82822895204018
 30
0.0
 10
20.39035111427118
 20
67.90035811799018
 30
0.0
 10
20.39035111427118
 20
67.93446965790018
 30
0.0
  0
SPLINE
  5
49
330
1F
100
AcDbEntity
  8
IGES_LEVEL_0
 62
     7
100
AcDbSpline
210
0.0
220
0.0
230
1.0
 70
     8
 71
     3
 72
    11
 73
     7
 74
     0
 42
0.0000000001
 43
0.0000000001
 40
0.0
 40
0.0
 40
0.0
 40
0.0
 40
0.1833008826685
 40
0.4161862224206
 40
0.6914360769954
 40
1.0
 40
1.0
 40
1.0
 40
1.0
 10
18.56178545862118
 20
49.29553266597018
 30
0.0
 10
18.57924568328118
 20
49.31927868699017
 30
0.0
 10
18.62261844264118
 20
49.37200861731018
 30
0.0
 10
18.69671169392118
 20
49.45621846051018
 30
0.0
 10
18.78754857191118
 20
49.55328921946018
 30
0.0
 10
18.85489694353118
 20
49.62018176171018
 30
0.0
 10
18.89035111427118
 20
49.65569088621017
 30
0.0
  0
LINE
  5
4A
330
1F
100
AcDbEntity
  8
IGES_LEVEL_0
 62
     7
100
AcDbLine
 10
18.53646666048118
 20
49.25902663118018
 30
0.0
 11
18.56178545862118
 21
49.29553266597018
 31
0.0
  0
ARC
  5
4B
330
1F
100
AcDbEntity
  8
IGES_LEVEL_0
 62
     7
100
AcDbCircle
 10
18.61598615163175
 20
49.19394618328504
 30
0.0
 40
0.1027560906763056
100
AcDbArc
 50
140.7023737991286
 51
168.3383628309965
  0
SPLINE
  5
4C
330
1F
100
AcDbEntity
  8
IGES_LEVEL_0
 62
     7
100
AcDbSpline
210
0.0
220
0.0
230
1.0
 70
     8
 71
     3
 72
    12
 73
     8
 74
     0
 42
0.0000000001
 43
0.0000000001
 40
0.0
 40
0.0
 40
0.0
 40
0.0
 40
0.3170403211725
 40
0.5809564843018
 40
0.7877216462943
 40
0.9291878435709
 40
1.0
 40
1.0
 40
1.0
 40
1.0
 10
18.89035111427118
 20
49.65569088621017
 30
0.0
 10
18.85467881185118
 20
49.69146514547018
 30
0.0
 10
18.78709584116118
 20
49.75491661407018
 30
0.0
 10
18.69381643640118
 20
49.83844593510018
 30
0.0
 10
18.61822991932118
 20
49.90141011888018
 30
0.0
 10
18.56453921647118
 20
49.93854638769017
 30
0.0
 10
18.53384415231118
 20
49.95731303788018
 30
0.0
 10
18.52256187419118
 20
49.95750567677018
 30
0.0
  0
ARC
  5
4D
330
1F
100
AcDbEntity
  8
IGES_LEVEL_0
 62
     7
100
AcDbCircle
 10
3.0397160769001
 20
49.19394618328806
 30
0.0
 40
0.1027560906879462
100
AcDbArc
 50
11.66163716594859
 51
39.29762619338505
  0
SPLINE
  5
4E
330
1F
100
AcDbEntity
  8
IGES_LEVEL_0
 62
     7
100
AcDbSpline
210
0.0
220
0.0
230
1.0
 70
     8
 71
     3
 72
    12
 73
     8
 74
     0
 42
0.0000000001
 43
0.0000000001
 40
0.0
 40
0.0
 40
0.0
 40
0.0
 40
0.2826230881144
 40
0.5347328070521
 40
0.7480395775146
 40
0.9159304346486
 40
1.0
 40
1.0
 40
1.0
 40
1.0
 10
2.76535111427318
 20
49.65569088621017
 30
0.0
 10
2.80080528501818
 20
49.62018176171018
 30
0.0
 10
2.86815365663418
 20
49.55328921946018
 30
0.0
 10
2.95899053462118
 20
49.45621846051018
 30
0.0
 10
3.03308378590718
 20
49.37200861731018
 30
0.0
 10
3.08602200098718
 20
49.30764959488018
 30
0.0
 10
3.11099098955518
 20
49.27162059851018
 30
0.0
 10
3.11923556806818
 20
49.25902663118018
 30
0.0
  0
SPLINE
  5
4F
330
1F
100
AcDbEntity
  8
IGES_LEVEL_0
 62
     7
100
AcDbSpline
210
0.0
220
0.0
230
1.0
 70
     8
 71
     3
 72
    12
 73
     8
 74
     0
 42
0.0000000001
 43
0.0000000001
 40
0.0
 40
0.0
 40
0.0
 40
0.0
 40
0.1245935147583
 40
0.3282292934113
 40
0.5472260468074
 40
0.7732744616803
 40
1.0
 40
1.0
 40
1.0
 40
1.0
 10
1.26381198911018
 20
67.90165185908018
 30
0.0
 10
1.26167764017818
 20
67.87851185025018
 30
0.0
 10
1.25043146169418
 20
67.81791397573018
 30
0.0
 10
1.21319282922018
 20
67.72243598591018
 30
0.0
 10
1.14815780488118
 20
67.61976872943018
 30
0.0
 10
1.06146363374518
 20
67.52854768234018
 30
0.0
 10
0.9900050052911805
 20
67.48163520541019
 30
0.0
 10
0.9516369233811798
 20
67.46405057016018
 30
0.0
  0
LINE
  5
50
330
1F
100
AcDbEntity
  8
IGES_LEVEL_0
 62
     7
100
AcDbLine
 10
1.26535111427318
 20
67.93446965790018
 30
0.0
 11
1.26381198911018
 21
67.90165185908018
 31
0.0
  0
ARC
  5
51
330
1F
100
AcDbEntity
  8
IGES_LEVEL_0
 62
     7
100
AcDbCircle
 10
20.90109135065375
 20
72.37982570185675
 30
0.0
 40
0.5107797006479412
100
AcDbArc
 50
180.7122387911769
 51
199.2642307241494
  0
ARC
  5
52
330
1F
100
AcDbEntity
  8
IGES_LEVEL_0
 62
     7
100
AcDbCircle
 10
21.0821265344493
 20
72.44265590666483
 30
0.0
 40
0.702407586478515
100
AcDbArc
 50
199.2303059161174
 51
230.7014008876281
  0
ARC
  5
53
330
1F
100
AcDbEntity
  8
IGES_LEVEL_0
 62
     7
100
AcDbCircle
 10
0.9736262356277905
 20
67.75286081684108
 30
0.0
 40
0.3218966846579466
100
AcDbArc
 50
255.0069785343316
 51
269.9033638449127
  0
SPLINE
  5
54
330
1F
100
AcDbEntity
  8
IGES_LEVEL_0
 62
     7
100
AcDbSpline
210
0.0
220
0.0
230
1.0
 70
     8
 71
     3
 72
    14
 73
    10
 74
     0
 42
0.0000000001
 43
0.0000000001
 40
0.0
 40
0.0
 40
0.0
 40
0.0
 40
0.02966356049065
 40
0.1054546257731
 40
0.2320656517738
 40
0.399532349508
 40
0.5985212426989
 40
0.8182475939601001
 40
1.0
 40
1.0
 40
1.0
 40
1.0
 10
1.26591952776618
 20
76.03321786959019
 30
0.0
 10
1.26676004312318
 20
76.04890266442018
 30
0.0
 10
1.27900118309418
 20
76.10148258256018
 30
0.0
 10
1.36013996205518
 20
76.19574403477019
 30
0.0
 10
1.51310118461918
 20
76.30718028354019
 30
0.0
 10
1.74535361236918
 20
76.41309307818018
 30
0.0
 10
2.03525644481118
 20
76.49575478806018
 30
0.0
 10
2.34081485100618
 20
76.54185766816019
 30
0.0
 10
2.54703961775618
 20
76.55122125637018
 30
0.0
 10
2.64035111450818
 20
76.55122834837019
 30
0.0
  0
SPLINE
  5
55
330
1F
100
AcDbEntity
  8
IGES_LEVEL_0
 62
     7
100
AcDbSpline
210
0.0
220
0.0
230
1.0
 70
     8
 71
     3
 72
    14
 73
    10
 74
     0
 42
0.0000000001
 43
0.0000000001
 40
0.0
 40
0.0
 40
0.0
 40
0.0
 40
0.1394333210963
 40
0.3115424109978
 40
0.479494308402
 40
0.6384971002597
 40
0.7832386752612
 40
0.9143456399579
 40
1.0
 40
1.0
 40
1.0
 40
1.0
 10
2.64035112164218
 20
77.30125177420018
 30
0.0
 10
2.51434581360718
 20
77.30129742778019
 30
0.0
 10
2.23261581870218
 20
77.28726233665019
 30
0.0
 10
1.80402026128618
 20
77.21661498825019
 30
0.0
 10
1.37259769382918
 20
77.07915304513018
 30
0.0
 10
0.9942371693011799
 20
76.87636879095018
 30
0.0
 10
0.7006677139691805
 20
76.60673842248018
 30
0.0
 10
0.5439415490341798
 20
76.31156080337019
 30
0.0
 10
0.5157011331221805
 20
76.11388874843019
 30
0.0
 10
0.5154408177951805
 20
76.03615673112019
 30
0.0
  0
SPLINE
  5
56
330
1F
100
AcDbEntity
  8
IGES_LEVEL_0
 62
     7
100
AcDbSpline
210
0.0
220
0.0
230
1.0
 70
     8
 71
     3
 72
    14
 73
    10
 74
     0
 42
0.0000000001
 43
0.0000000001
 40
0.0
 40
0.0
 40
0.0
 40
0.0
 40
0.1776380929245
 40
0.3976735286563
 40
0.5971885268106
 40
0.7653441230601
 40
0.8928319820937
 40
0.9696001538702
 40
1.0
 40
1.0
 40
1.0
 40
1.0
 10
19.01535111397118
 20
76.55122776164018
 30
0.0
 10
19.10654557392118
 20
76.55122032066018
 30
0.0
 10
19.31079970598118
 20
76.54215682858019
 30
0.0
 10
19.61476281640118
 20
76.49697308711018
 30
0.0
 10
19.90559997768118
 20
76.41482064375019
 30
0.0
 10
20.13912106408118
 20
76.30918324027019
 30
0.0
 10
20.29356686785118
 20
76.19758418762018
 30
0.0
 10
20.37606957574118
 20
76.10275741429018
 30
0.0
 10
20.38886737427118
 20
76.04939396589019
 30
0.0
 10
20.38981583496118
 20
76.03331416942018
 30
0.0
  0
SPLINE
  5
57
330
1F
100
AcDbEntity
  8
IGES_LEVEL_0
 62
     7
100
AcDbSpline
210
0.0
220
0.0
230
1.0
 70
     8
 71
     3
 72
    14
 73
    10
 74
     0
 42
0.0000000001
 43
0.0000000001
 40
0.0
 40
0.0
 40
0.0
 40
0.0
 40
0.08806173006082
 40
0.2193081269072
 40
0.3643568177462
 40
0.5236300186121
 40
0.6915599282972
 40
0.863518954209
 40
1.0
 40
1.0
 40
1.0
 40
1.0
 10
21.14027141608118
 20
76.03608829425018
 30
0.0
 10
21.14000825380118
 20
76.11598045608018
 30
0.0
 10
21.11060930151118
 20
76.31598180890019
 30
0.0
 10
20.95056957151118
 20
76.61232526322019
 30
0.0
 10
20.65509236081118
 20
76.88076639704019
 30
0.0
 10
20.27550410461118
 20
77.08227602215018
 30
0.0
 10
19.84359785809118
 20
77.21849044120019
 30
0.0
 10
19.41762804583118
 20
77.28768194527018
 30
0.0
 10
19.13869563980118
 20
77.30130115397019
 30
0.0
 10
19.01535110545118
 20
77.30125499574018
 30
0.0
  0
SPLINE
  5
58
330
1F
100
AcDbEntity
  8
IGES_LEVEL_0
 62
     7
100
AcDbSpline
210
0.0
220
0.0
230
1.0
 70
     8
 71
     3
 72
    13
 73
     9
 74
     0
 42
0.0000000001
 43
0.0000000001
 40
0.0
 40
0.0
 40
0.0
 40
0.0
 40
0.1482497072232
 40
0.323890542829
 40
0.5000069869393
 40
0.676121356647
 40
0.851755692833
 40
1.0
 40
1.0
 40
1.0
 40
1.0
 10
20.39133993529118
 20
72.72407703444019
 30
0.0
 10
19.47447931892118
 20
73.00478452159018
 30
0.0
 10
17.44265843418118
 20
73.52822864531018
 30
0.0
 10
14.24282414625818
 20
74.02957954402018
 30
0.0
 10
10.82772858864818
 20
74.20636988070018
 30
0.0
 10
7.41267655712918
 20
74.02955573706018
 30
0.0
 10
4.21293470370918
 20
73.52820246334018
 30
0.0
 10
2.18118955975718
 20
73.00477431037018
 30
0.0
 10
1.26436234549118
 20
72.72407705064018
 30
0.0
  0
ARC
  5
59
330
1F
100
AcDbEntity
  8
IGES_LEVEL_0
 62
     7
100
AcDbCircle
 10
1.639175900840147
 20
65.88669231294028
 30
0.0
 40
2.294262574390451
100
AcDbArc
 50
83.1227364441731
 51
89.99562430632457
  0
ARC
  5
5A
330
1F
100
AcDbEntity
  8
IGES_LEVEL_0
 62
     7
100
AcDbCircle
 10
1.6392652926263
 20
65.88769566380087
 30
0.0
 40
1.543259219225616
100
AcDbArc
 50
83.63329670491122
 51
89.99681374451009
  0
SPLINE
  5
5B
330
1F
100
AcDbEntity
  8
IGES_LEVEL_0
 62
     7
100
AcDbSpline
210
0.0
220
0.0
230
1.0
 70
     8
 71
     3
 72
    12
 73
     8
 74
     0
 42
0.0000000001
 43
0.0000000001
 40
0.0
 40
0.0
 40
0.0
 40
0.0
 40
0.1950843279605
 40
0.3885046677472
 40
0.5861481042242001
 40
0.7906365162417
 40
1.0
 40
1.0
 40
1.0
 40
1.0
 10
3.76535111427318
 20
53.89842289730018
 30
0.0
 10
3.76535111427318
 20
53.85144533936018
 30
0.0
 10
3.78484949693418
 20
53.75696201359018
 30
0.0
 10
3.86347982291918
 20
53.63657109726018
 30
0.0
 10
3.97713145287518
 20
53.54561957299018
 30
0.0
 10
4.114774968315181
 20
53.48860964063018
 30
0.0
 10
4.21493504400018
 20
53.47564617284018
 30
0.0
 10
4.26535111427318
 20
53.47564617284018
 30
0.0
  0
SPLINE
  5
5C
330
1F
100
AcDbEntity
  8
IGES_LEVEL_0
 62
     7
100
AcDbSpline
210
0.0
220
0.0
230
1.0
 70
     8
 71
     3
 72
    13
 73
     9
 74
     0
 42
0.0000000001
 43
0.0000000001
 40
0.0
 40
0.0
 40
0.0
 40
0.0
 40
0.15956648407
 40
0.321331111156
 40
0.4864414010548
 40
0.6552821672589
 40
0.826945050461
 40
1.0
 40
1.0
 40
1.0
 40
1.0
 10
3.01535111427318
 20
53.89842289730018
 30
0.0
 10
3.01535111427318
 20
53.79746425689018
 30
0.0
 10
3.04369583060718
 20
53.59307294417017
 30
0.0
 10
3.16868102106918
 20
53.30781767395018
 30
0.0
 10
3.36881089427618
 20
53.06146383124018
 30
0.0
 10
3.63098359970018
 20
52.87191774389018
 30
0.0
 10
3.93678418436318
 20
52.75269567318018
 30
0.0
 10
4.15585824348918
 20
52.72564617284018
 30
0.0
 10
4.26535111427318
 20
52.72564617284018
 30
0.0
  0
SPLINE
  5
5D
330
1F
100
AcDbEntity
  8
IGES_LEVEL_0
 62
     7
100
AcDbSpline
210
0.0
220
0.0
230
1.0
 70
     8
 71
     3
 72
    12
 73
     8
 74
     0
 42
0.0000000001
 43
0.0000000001
 40
0.0
 40
0.0
 40
0.0
 40
0.0
 40
0.2093189308434
 40
0.4140246463506
 40
0.6118369798231
 40
0.805163801475
 40
1.0
 40
1.0
 40
1.0
 40
1.0
 10
17.39035111427118
 20
53.47564617284018
 30
0.0
 10
17.44075654232118
 20
53.47564617284018
 30
0.0
 10
17.54095795134118
 20
53.48861216405017
 30
0.0
 10
17.67867809005118
 20
53.54566635496018
 30
0.0
 10
17.79235510830118
 20
53.63670910256018
 30
0.0
 10
17.87089665251118
 20
53.75710665535018
 30
0.0
 10
17.89035111427118
 20
53.85150501010018
 30
0.0
 10
17.89035111427118
 20
53.89842289730018
 30
0.0
  0
SPLINE
  5
5E
330
1F
100
AcDbEntity
  8
IGES_LEVEL_0
 62
     7
100
AcDbSpline
210
0.0
220
0.0
230
1.0
 70
     8
 71
     3
 72
    13
 73
     9
 74
     0
 42
0.0000000001
 43
0.0000000001
 40
0.0
 40
0.0
 40
0.0
 40
0.0
 40
0.1735310361598
 40
0.3451781612049
 40
0.5136805309584001
 40
0.678408015885
 40
0.8400502942955
 40
1.0
 40
1.0
 40
1.0
 40
1.0
 10
17.39035111427118
 20
52.72564617284018
 30
0.0
 10
17.50014521819118
 20
52.72564617284018
 30
0.0
 10
17.71951873269118
 20
52.75280803311018
 30
0.0
 10
18.02530821887118
 20
52.87227005134018
 30
0.0
 10
18.28700123861118
 20
53.06165086182018
 30
0.0
 10
18.48680488084118
 20
53.30755052211018
 30
0.0
 10
18.61191228536118
 20
53.59265784576018
 30
0.0
 10
18.64035111427118
 20
53.79722178078018
 30
0.0
 10
18.64035111427118
 20
53.89842289730018
 30
0.0
  0
ARC
  5
5F
330
1F
100
AcDbEntity
  8
IGES_LEVEL_0
 62
     7
100
AcDbCircle
 10
20.01652544518445
 20
65.88668520634178
 30
0.0
 40
2.294269680921705
100
AcDbArc
 50
90.00435364057739
 51
96.87736800144417
  0
ARC
  5
60
330
1F
100
AcDbEntity
  8
IGES_LEVEL_0
 62
     7
100
AcDbCircle
 10
20.01643736818993
 20
65.88770259526967
 30
0.0
 40
1.543252287780923
100
AcDbArc
 50
90.00320231860485
 51
96.36699532722487
  0
ARC
  5
61
330
1F
100
AcDbEntity
  8
IGES_LEVEL_0
 62
     7
100
AcDbCircle
 10
1.317057722513143
 20
66.28298701835674
 30
0.0
 40
1.073293576291665
100
AcDbArc
 50
0.0335980271098289
 51
17.69639923352182
  0
ARC
  5
62
330
1F
100
AcDbEntity
  8
IGES_LEVEL_0
 62
     7
100
AcDbCircle
 10
1.26883811095389
 20
66.23852209321636
 30
0.0
 40
1.140744816537566
100
AcDbArc
 50
62.61526560490903
 51
70.56118346958954
  0
ARC
  5
63
330
1F
100
AcDbEntity
  8
IGES_LEVEL_0
 62
     7
100
AcDbCircle
 10
1.265291409271258
 20
66.22669722361424
 30
0.0
 40
1.153076131851677
100
AcDbArc
 50
70.59053937757044
 51
89.99703328814728
  0
SPLINE
  5
64
330
1F
100
AcDbEntity
  8
IGES_LEVEL_0
 62
     7
100
AcDbSpline
210
0.0
220
0.0
230
1.0
 70
     8
 71
     3
 72
    13
 73
     9
 74
     0
 42
0.0000000001
 43
0.0000000001
 40
0.0
 40
0.0
 40
0.0
 40
0.0
 40
0.1654139203809
 40
0.331121652502
 40
0.4973984425572
 40
0.6643578637756
 40
0.8319766294884
 40
1.0
 40
1.0
 40
1.0
 40
1.0
 10
3.14035111427318
 20
47.62100958056018
 30
0.0
 10
3.14035111427318
 20
47.52508923410018
 30
0.0
 10
3.16656273029918
 20
47.33208096438018
 30
0.0
 10
3.28145333874518
 20
47.06391185905018
 30
0.0
 10
3.46329671589618
 20
46.83451285655018
 30
0.0
 10
3.69911444902218
 20
46.65938341552018
 30
0.0
 10
3.97242748522418
 20
46.54968957192018
 30
0.0
 10
4.167965027505181
 20
46.52480610268017
 30
0.0
 10
4.265398543843181
 20
46.52480610268017
 30
0.0
  0
SPLINE
  5
65
330
1F
100
AcDbEntity
  8
IGES_LEVEL_0
 62
     7
100
AcDbSpline
210
0.0
220
0.0
230
1.0
 70
     8
 71
     3
 72
    14
 73
    10
 74
     0
 42
0.0000000001
 43
0.0000000001
 40
0.0
 40
0.0
 40
0.0
 40
0.0
 40
0.1414889396541
 40
0.2832751462353
 40
0.4255611486568
 40
0.5684477143823
 40
0.7119171616858
 40
0.8558396064562001
 40
1.0
 40
1.0
 40
1.0
 40
1.0
 10
2.39035111427318
 20
47.62100958056018
 30
0.0
 10
2.39035111427318
 20
47.48345448369017
 30
0.0
 10
2.42189227236118
 20
47.20703586544018
 30
0.0
 10
2.56147630328918
 20
46.81395284318018
 30
0.0
 10
2.78650427179818
 20
46.46089687321017
 30
0.0
 10
3.08579197680618
 20
46.16591897848018
 30
0.0
 10
3.44444765408718
 20
45.94385340018017
 30
0.0
 10
3.84418575294918
 20
45.80596377834018
 30
0.0
 10
4.12524626799318
 20
45.77480610268017
 30
0.0
 10
4.265398543843181
 20
45.77480610268017
 30
0.0
  0
SPLINE
  5
66
330
1F
100
AcDbEntity
  8
IGES_LEVEL_0
 62
     7
100
AcDbSpline
210
0.0
220
0.0
230
1.0
 70
     8
 71
     3
 72
    13
 73
     9
 74
     0
 42
0.0000000001
 43
0.0000000001
 40
0.0
 40
0.0
 40
0.0
 40
0.0
 40
0.1679731664658
 40
0.3355994235547
 40
0.5026000124257
 40
0.6689183992943
 40
0.8346347687057
 40
1.0
 40
1.0
 40
1.0
 40
1.0
 10
17.39030368470118
 20
46.52480610268017
 30
0.0
 10
17.48770808882118
 20
46.52480610268017
 30
0.0
 10
17.68322004653118
 20
46.54967875514018
 30
0.0
 10
17.95654050581118
 20
46.65935276966017
 30
0.0
 10
18.19240817633118
 20
46.83450651486018
 30
0.0
 10
18.37427899218118
 20
47.06395446038017
 30
0.0
 10
18.48915067381118
 20
47.33213328757018
 30
0.0
 10
18.51535111427118
 20
47.52511746782017
 30
0.0
 10
18.51535111427118
 20
47.62100958056018
 30
0.0
  0
SPLINE
  5
67
330
1F
100
AcDbEntity
  8
IGES_LEVEL_0
 62
     7
100
AcDbSpline
210
0.0
220
0.0
230
1.0
 70
     8
 71
     3
 72
    14
 73
    10
 74
     0
 42
0.0000000001
 43
0.0000000001
 40
0.0
 40
0.0
 40
0.0
 40
0.0
 40
0.1442135472119
 40
0.2881396875801
 40
0.4315778809389
 40
0.5744200103232
 40
0.7166729332704001
 40
0.8584601307939
 40
1.0
 40
1.0
 40
1.0
 40
1.0
 10
17.39030368470118
 20
45.77480610268017
 30
0.0
 10
17.53050763644118
 20
45.77480610268017
 30
0.0
 10
17.81162451431118
 20
45.80598166126018
 30
0.0
 10
18.21137454607118
 20
45.94391365817018
 30
0.0
 10
18.56995458846118
 20
46.16596442682018
 30
0.0
 10
18.86916310555118
 20
46.46086753111018
 30
0.0
 10
19.09416971606118
 20
46.81384610966018
 30
0.0
 10
19.23379253915118
 20
47.20693478123017
 30
0.0
 10
19.26535111427118
 20
47.48340497008018
 30
0.0
 10
19.26535111427118
 20
47.62100958056018
 30
0.0
  0
ARC
  5
68
330
1F
100
AcDbEntity
  8
IGES_LEVEL_0
 62
     7
100
AcDbCircle
 10
20.39041109802067
 20
66.22669624990634
 30
0.0
 40
1.15307710557404
100
AcDbArc
 50
90.00298056016389
 51
109.4140963847398
  0
ARC
  5
69
330
1F
100
AcDbEntity
  8
IGES_LEVEL_0
 62
     7
100
AcDbCircle
 10
20.38686327841582
 20
66.23852412916396
 30
0.0
 40
1.14074262795454
100
AcDbArc
 50
109.4434997509962
 51
117.3837400564992
  0
ARC
  5
6A
330
1F
100
AcDbEntity
  8
IGES_LEVEL_0
 62
     7
100
AcDbCircle
 10
20.33864600485999
 20
66.28298647384901
 30
0.0
 40
1.073295075439612
100
AcDbArc
 50
162.2798317980759
 51
179.9663729523232
  0
LINE
  5
6B
330
1F
100
AcDbEntity
  8
IGES_LEVEL_0
 62
     7
100
AcDbLine
 10
1.29664714216118
 20
71.94895364423019
 30
0.0
 11
1.157582727323181
 21
71.90506127817018
 31
0.0
  0
SPLINE
  5
6C
330
1F
100
AcDbEntity
  8
IGES_LEVEL_0
 62
     7
100
AcDbSpline
210
0.0
220
0.0
230
1.0
 70
     8
 71
     3
 72
    13
 73
     9
 74
     0
 42
0.0000000001
 43
0.0000000001
 40
0.0
 40
0.0
 40
0.0
 40
0.0
 40
0.1553592061239
 40
0.3274331333773
 40
0.4999931574595
 40
0.6725552139373
 40
0.8446355065147
 40
1.0
 40
1.0
 40
1.0
 40
1.0
 10
20.35905503222118
 20
71.94895366126018
 30
0.0
 10
19.40281029402118
 20
72.24830905132018
 30
0.0
 10
17.35572897607118
 20
72.78238344304018
 30
0.0
 10
14.16478514473618
 20
73.28227862743019
 30
0.0
 10
10.82797077033618
 20
73.45500936075018
 30
0.0
 10
7.49111388595718
 20
73.28230187226018
 30
0.0
 10
4.300079719670181
 20
72.78240933822018
 30
0.0
 10
2.25292442723418
 20
72.24831922460018
 30
0.0
 10
1.29664714216118
 20
71.94895364423019
 30
0.0
  0
LINE
  5
6D
330
1F
100
AcDbEntity
  8
IGES_LEVEL_0
 62
     7
100
AcDbLine
 10
20.49811950161118
 20
71.90506127807018
 30
0.0
 11
20.35905503222118
 21
71.94895366126018
 31
0.0
  0
ARC
  5
6E
330
1F
100
AcDbEntity
  8
IGES_LEVEL_0
 62
     7
100
AcDbCircle
 10
3.368412947707379
 20
63.09292741329262
 30
0.0
 40
0.1916753764392806
100
AcDbArc
 50
169.42358185108
 51
179.8934833621411
  0
SPLINE
  5
6F
330
1F
100
AcDbEntity
  8
IGES_LEVEL_0
 62
     7
100
AcDbSpline
210
0.0
220
0.0
230
1.0
 70
     8
 71
     3
 72
    18
 73
    14
 74
     0
 42
0.0000000001
 43
0.0000000001
 40
0.0
 40
0.0
 40
0.0
 40
0.0
 40
0.03202376706267
 40
0.1335402398905
 40
0.2407021397034
 40
0.3471371200684
 40
0.4496890933767
 40
0.5502912751936
 40
0.652843453518
 40
0.7592824574622
 40
0.8664512766798
 40
0.9679744312102
 40
1.0
 40
1.0
 40
1.0
 40
1.0
 10
3.61103601546118
 20
63.12782189113018
 30
0.0
 10
3.60985661688218
 20
63.13425378181018
 30
0.0
 10
3.60363599684318
 20
63.16085083896018
 30
0.0
 10
3.58334334918518
 20
63.20598117486018
 30
0.0
 10
3.54192345242318
 20
63.25588279349018
 30
0.0
 10
3.48810326011018
 20
63.29255985365018
 30
0.0
 10
3.42718583755418
 20
63.31168482451017
 30
0.0
 10
3.36411132961718
 20
63.31172700284018
 30
0.0
 10
3.30316753821718
 20
63.29268349267018
 30
0.0
 10
3.24929595973118
 20
63.25607809221017
 30
0.0
 10
3.20780468286818
 20
63.20623149150018
 30
0.0
 10
3.18744501462518
 20
63.16112831890018
 30
0.0
 10
3.18118334435618
 20
63.13453921510018
 30
0.0
 10
3.17999394869218
 20
63.12810881098018
 30
0.0
  0
LINE
  5
70
330
1F
100
AcDbEntity
  8
IGES_LEVEL_0
 62
     7
100
AcDbLine
 10
3.61357272064418
 20
63.10890374631018
 30
0.0
 11
3.61103601546118
 21
63.12782189113018
 31
0.0
  0
LINE
  5
71
330
1F
100
AcDbEntity
  8
IGES_LEVEL_0
 62
     7
100
AcDbLine
 10
3.61423743528118
 20
63.09328046382018
 30
0.0
 11
3.61357272064418
 21
63.10890374631018
 31
0.0
  0
SPLINE
  5
72
330
1F
100
AcDbEntity
  8
IGES_LEVEL_0
 62
     7
100
AcDbSpline
210
0.0
220
0.0
230
1.0
 70
     8
 71
     3
 72
    19
 73
    15
 74
     0
 42
0.0000000001
 43
0.0000000001
 40
0.0
 40
0.0
 40
0.0
 40
0.0
 40
0.02665874942136
 40
0.1084736274504
 40
0.1950059789755
 40
0.2885225222148
 40
0.3896543452816
 40
0.4952809110587
 40
0.5990307004437
 40
0.6963006470457001
 40
0.7847378902867001
 40
0.8654626495109
 40
0.9440443834465
 40
1.0
 40
1.0
 40
1.0
 40
1.0
 10
3.21527790733818
 20
67.51746900992018
 30
0.0
 10
3.21426828693318
 20
67.52283246300019
 30
0.0
 10
3.20893790178518
 20
67.54443705572018
 30
0.0
 10
3.19120438726518
 20
67.58041842045019
 30
0.0
 10
3.15644030256918
 20
67.62131339649018
 30
0.0
 10
3.11085849143018
 20
67.65642447221018
 30
0.0
 10
3.05567653366818
 20
67.68349261406019
 30
0.0
 10
2.99384617486918
 20
67.69870664387018
 30
0.0
 10
2.93076125797518
 20
67.69833085005018
 30
0.0
 10
2.87355903449318
 20
67.68098452689019
 30
0.0
 10
2.82845933444418
 20
67.64933687362019
 30
0.0
 10
2.79783275986118
 20
67.60836411655018
 30
0.0
 10
2.78294165169218
 20
67.56659203505018
 30
0.0
 10
2.78023239155618
 20
67.53909867305018
 30
0.0
 10
2.78021876124218
 20
67.52768983046018
 30
0.0
  0
LINE
  5
73
330
1F
100
AcDbEntity
  8
IGES_LEVEL_0
 62
     7
100
AcDbLine
 10
3.21737118803018
 20
67.50137047673019
 30
0.0
 11
3.21527790733818
 21
67.51746900992018
 31
0.0
  0
LINE
  5
74
330
1F
100
AcDbEntity
  8
IGES_LEVEL_0
 62
     7
100
AcDbLine
 10
3.21770892087018
 20
67.49223786503018
 30
0.0
 11
3.21737118803018
 21
67.50137047673019
 31
0.0
  0
SPLINE
  5
75
330
1F
100
AcDbEntity
  8
IGES_LEVEL_0
 62
     7
100
AcDbSpline
210
0.0
220
0.0
230
1.0
 70
     8
 71
     3
 72
    16
 73
    12
 74
     0
 42
0.0000000001
 43
0.0000000001
 40
0.0
 40
0.0
 40
0.0
 40
0.0
 40
0.1085159945637
 40
0.2183470413316
 40
0.3300670352865
 40
0.4433329497275
 40
0.5571760781346
 40
0.6704247861836
 40
0.7821188948196
 40
0.8919279825853
 40
1.0
 40
1.0
 40
1.0
 40
1.0
 10
2.89896444335918
 20
67.45787941201019
 30
0.0
 10
2.89897317180818
 20
67.46879065391018
 30
0.0
 10
2.90326529101218
 20
67.49095748777017
 30
0.0
 10
2.92144544871518
 20
67.51956680590018
 30
0.0
 10
2.94872329106618
 20
67.54041788210019
 30
0.0
 10
2.98163862803718
 20
67.55132038263018
 30
0.0
 10
3.01644710770118
 20
67.55129595118018
 30
0.0
 10
3.04934283381518
 20
67.54034794776018
 30
0.0
 10
3.07658469802618
 20
67.51946042992019
 30
0.0
 10
3.09469343691618
 20
67.49086527954017
 30
0.0
 10
3.09895611428218
 20
67.46874519837019
 30
0.0
 10
3.09896439266018
 20
67.45787774250019
 30
0.0
  0
LINE
  5
76
330
1F
100
AcDbEntity
  8
IGES_LEVEL_0
 62
     7
100
AcDbLine
 10
3.95628281742618
 20
64.66867291109018
 30
0.0
 11
3.95618199517118
 21
64.67641048918019
 31
0.0
  0
LINE
  5
77
330
1F
100
AcDbEntity
  8
IGES_LEVEL_0
 62
     7
100
AcDbLine
 10
3.95626037098318
 20
64.68174896914019
 30
0.0
 11
3.95628415910318
 21
64.68329419116019
 31
0.0
  0
LINE
  5
78
330
1F
100
AcDbEntity
  8
IGES_LEVEL_0
 62
     7
100
AcDbLine
 10
3.95606690867018
 20
64.68003611833018
 30
0.0
 11
3.95626037098318
 21
64.68174896914019
 31
0.0
  0
ARC
  5
79
330
1F
100
AcDbEntity
  8
IGES_LEVEL_0
 62
     7
100
AcDbCircle
 10
3.429565673154762
 20
63.08037042344956
 30
0.0
 40
0.1846716647751873
100
AcDbArc
 50
4.002187504958437
 51
17.77169907650675
  0
SPLINE
  5
7A
330
1F
100
AcDbEntity
  8
IGES_LEVEL_0
 62
     7
100
AcDbSpline
210
0.0
220
0.0
230
1.0
 70
     8
 71
     3
 72
    16
 73
    12
 74
     0
 42
0.0000000001
 43
0.0000000001
 40
0.0
 40
0.0
 40
0.0
 40
0.0
 40
0.1066974693694
 40
0.2160535280314
 40
0.328226470565
 40
0.4425009018388
 40
0.5575462828413
 40
0.6718130077204
 40
0.7839727425938
 40
0.8933140618156999
 40
1.0
 40
1.0
 40
1.0
 40
1.0
 10
3.18564041017818
 20
63.13701597544018
 30
0.0
 10
3.19157435721718
 20
63.15542723614018
 30
0.0
 10
3.20944783342218
 20
63.19071656469018
 30
0.0
 10
3.25101069825318
 20
63.23406146635018
 30
0.0
 10
3.30405822235618
 20
63.26486426990018
 30
0.0
 10
3.36430257952818
 20
63.28083713227018
 30
0.0
 10
3.42699084495518
 20
63.28079573860018
 30
0.0
 10
3.48721025856618
 20
63.26474313048018
 30
0.0
 10
3.54020951756418
 20
63.23386955088018
 30
0.0
 10
3.58170391512718
 20
63.19046843019018
 30
0.0
 10
3.59952051955118
 20
63.15515542629018
 30
0.0
 10
3.60542485650918
 20
63.13673682657018
 30
0.0
  0
ARC
  5
7B
330
1F
100
AcDbEntity
  8
IGES_LEVEL_0
 62
     7
100
AcDbCircle
 10
3.361647283483693
 20
63.08031083798087
 30
0.0
 40
0.1849159053869142
100
AcDbArc
 50
162.1423208118241
 51
173.8452978993781
  0
LINE
  5
7C
330
1F
100
AcDbEntity
  8
IGES_LEVEL_0
 62
     7
100
AcDbLine
 10
2.39209485631918
 20
64.67224466525018
 30
0.0
 11
2.40286536705018
 21
64.67423056214018
 31
0.0
  0
LINE
  5
7D
330
1F
100
AcDbEntity
  8
IGES_LEVEL_0
 62
     7
100
AcDbLine
 10
2.38771535585418
 20
64.67203267021019
 30
0.0
 11
2.39209485631918
 21
64.67224466525018
 31
0.0
  0
SPLINE
  5
7E
330
1F
100
AcDbEntity
  8
IGES_LEVEL_0
 62
     7
100
AcDbSpline
210
0.0
220
0.0
230
1.0
 70
     8
 71
     3
 72
    16
 73
    12
 74
     0
 42
0.0000000001
 43
0.0000000001
 40
0.0
 40
0.0
 40
0.0
 40
0.0
 40
0.1085159945639
 40
0.2183470413318
 40
0.3300670352867
 40
0.4433329497276
 40
0.5571760781347001
 40
0.6704247861837001
 40
0.7821188948196
 40
0.8919279825853
 40
1.0
 40
1.0
 40
1.0
 40
1.0
 10
3.29548771874718
 20
63.08076290441018
 30
0.0
 10
3.29549644719718
 20
63.09167414631018
 30
0.0
 10
3.29978856640018
 20
63.11384098017017
 30
0.0
 10
3.31796872410418
 20
63.14245029830018
 30
0.0
 10
3.34524656645418
 20
63.16330137449018
 30
0.0
 10
3.37816190342518
 20
63.17420387502018
 30
0.0
 10
3.41297038309018
 20
63.17417944357018
 30
0.0
 10
3.44586610920418
 20
63.16323144016018
 30
0.0
 10
3.47310797341418
 20
63.14234392231018
 30
0.0
 10
3.49121671230418
 20
63.11374877193018
 30
0.0
 10
3.49547938967118
 20
63.09162869077018
 30
0.0
 10
3.49548766804918
 20
63.08076123490018
 30
0.0
  0
ARC
  5
7F
330
1F
100
AcDbEntity
  8
IGES_LEVEL_0
 62
     7
100
AcDbCircle
 10
3.032772643091229
 20
67.45742417376067
 30
0.0
 40
0.184948178881177
100
AcDbArc
 50
6.064258905369859
 51
23.68978768800379
  0
SPLINE
  5
80
330
1F
100
AcDbEntity
  8
IGES_LEVEL_0
 62
     7
100
AcDbSpline
210
0.0
220
0.0
230
1.0
 70
     8
 71
     3
 72
    16
 73
    12
 74
     0
 42
0.0000000001
 43
0.0000000001
 40
0.0
 40
0.0
 40
0.0
 40
0.0
 40
0.0399711429952
 40
0.1623145453759
 40
0.2878093703771
 40
0.4156552611142
 40
0.5443636611082
 40
0.6722009302238
 40
0.7976809789967
 40
0.920007891452
 40
1.0
 40
1.0
 40
1.0
 40
1.0
 10
2.80462694893918
 20
67.54936987943017
 30
0.0
 10
2.80781671047018
 20
67.55499832494019
 30
0.0
 10
2.82191132232918
 20
67.57720515038018
 30
0.0
 10
2.85448742286518
 20
67.61117797395018
 30
0.0
 10
2.90753494696818
 20
67.64198077751018
 30
0.0
 10
2.96777930413918
 20
67.65795363987019
 30
0.0
 10
3.03046756956718
 20
67.65791224621017
 30
0.0
 10
3.09068698317718
 20
67.64185963808018
 30
0.0
 10
3.14368624217618
 20
67.61098605849018
 30
0.0
 10
3.18073196831618
 20
67.57223803163018
 30
0.0
 10
3.19694156117818
 20
67.54359620687018
 30
0.0
 10
3.20213601966918
 20
67.53173349717018
 30
0.0
  0
LINE
  5
81
330
1F
100
AcDbEntity
  8
IGES_LEVEL_0
 62
     7
100
AcDbLine
 10
2.79591125640918
 20
67.53200358722017
 30
0.0
 11
2.80462694893918
 21
67.54936987943017
 31
0.0
  0
ARC
  5
82
330
1F
100
AcDbEntity
  8
IGES_LEVEL_0
 62
     7
100
AcDbCircle
 10
2.965188751987131
 20
67.45741647812001
 30
0.0
 40
0.1849813702864777
100
AcDbArc
 50
156.2207340399041
 51
173.9334489233671
  0
LINE
  5
83
330
1F
100
AcDbEntity
  8
IGES_LEVEL_0
 62
     7
100
AcDbLine
 10
3.17675132143518
 20
63.08898999389017
 30
0.0
 11
3.17675774668418
 21
63.09061921254018
 31
0.0
  0
SPLINE
  5
84
330
1F
100
AcDbEntity
  8
IGES_LEVEL_0
 62
     7
100
AcDbSpline
210
0.0
220
0.0
230
1.0
 70
     8
 71
     3
 72
    14
 73
    10
 74
     0
 42
0.0000000001
 43
0.0000000001
 40
0.0
 40
0.0
 40
0.0
 40
0.0
 40
0.03487428642147
 40
0.1944648556093
 40
0.3561866670738
 40
0.5202873021069
 40
0.6868977054778001
 40
0.8558914006714
 40
1.0
 40
1.0
 40
1.0
 40
1.0
 10
3.85845169721618
 20
66.84963709181018
 30
0.0
 10
3.84960424026818
 20
66.87674786135018
 30
0.0
 10
3.79715093940818
 20
67.02690251619018
 30
0.0
 10
3.66960243267718
 20
67.28991613502018
 30
0.0
 10
3.43316992205818
 20
67.61055113237018
 30
0.0
 10
3.13884153467618
 20
67.88735999610019
 30
0.0
 10
2.79529814086818
 20
68.11100992695018
 30
0.0
 10
2.43371170869718
 20
68.26590571405018
 30
0.0
 10
2.18470588770818
 20
68.32831451228019
 30
0.0
 10
2.06881416538918
 20
68.34878552216019
 30
0.0
  0
LINE
  5
85
330
1F
100
AcDbEntity
  8
IGES_LEVEL_0
 62
     7
100
AcDbLine
 10
3.85942092064818
 20
66.84665953316018
 30
0.0
 11
3.85845169721618
 21
66.84963709181018
 31
0.0
  0
SPLINE
  5
86
330
1F
100
AcDbEntity
  8
IGES_LEVEL_0
 62
     7
100
AcDbSpline
210
0.0
220
0.0
230
1.0
 70
     8
 71
     3
 72
    36
 73
    32
 74
     0
 42
0.0000000001
 43
0.0000000001
 40
0.0
 40
0.0
 40
0.0
 40
0.0
 40
0.01912625965187
 40
0.05118811345749
 40
0.08057661280003
 40
0.1061624893868
 40
0.1258224081529
 40
0.141507821533
 40
0.1569911521536
 40
0.1737010817587
 40
0.1926432219142
 40
0.2142873995851
 40
0.2389073446062
 40
0.2666274799604
 40
0.2974686597054
 40
0.3313530966942
 40
0.3681892875414
 40
0.4078809070431
 40
0.4502257150825
 40
0.4949433909989
 40
0.5418276686654
 40
0.590604637565
 40
0.6408240438379
 40
0.6920132997977
 40
0.7439551764573
 40
0.7959860310665
 40
0.8472639438358
 40
0.8973732562303
 40
0.945045838761
 40
0.9891315851097
 40
1.0
 40
1.0
 40
1.0
 40
1.0
 10
2.06881347620218
 20
68.34876499768018
 30
0.0
 10
2.06132836799018
 20
68.35008492154019
 30
0.0
 10
2.04089256226118
 20
68.35157391746019
 30
0.0
 10
2.00920623078118
 20
68.34485990904018
 30
0.0
 10
1.97927352240618
 20
68.32688924453018
 30
0.0
 10
1.95923870677218
 20
68.30485514972018
 30
0.0
 10
1.94730272693418
 20
68.28386787455018
 30
0.0
 10
1.93975029381418
 20
68.26527082023019
 30
0.0
 10
1.93390631340018
 20
68.24730649970019
 30
0.0
 10
1.92849289390018
 20
68.22787599951018
 30
0.0
 10
1.92305939951218
 20
68.20594026864018
 30
0.0
 10
1.91740105971818
 20
68.18085309374018
 30
0.0
 10
1.91143500819218
 20
68.15229071005018
 30
0.0
 10
1.90513935400518
 20
68.12009476957019
 30
0.0
 10
1.89852629842518
 20
68.08424024255018
 30
0.0
 10
1.89162955573818
 20
68.04478409191017
 30
0.0
 10
1.88448016965418
 20
68.00183029545018
 30
0.0
 10
1.87711677503718
 20
67.95553090891018
 30
0.0
 10
1.86959354440518
 20
67.90611072170019
 30
0.0
 10
1.86197582067118
 20
67.85383669724018
 30
0.0
 10
1.85432322515518
 20
67.79900529041018
 30
0.0
 10
1.84670035105718
 20
67.74197991224018
 30
0.0
 10
1.83919270206918
 20
67.68322720655019
 30
0.0
 10
1.83188929205118
 20
67.62319116393019
 30
0.0
 10
1.82487360565818
 20
67.56240159009018
 30
0.0
 10
1.81825670321318
 20
67.50153204913018
 30
0.0
 10
1.81217780080118
 20
67.44133257875018
 30
0.0
 10
1.80679261234818
 20
67.38279284727018
 30
0.0
 10
1.80228777470718
 20
67.32702290591018
 30
0.0
 10
1.79966167472718
 20
67.28663299201018
 30
0.0
 10
1.79858438349218
 20
67.26498498299019
 30
0.0
 10
1.79838751667718
 20
67.26070288863018
 30
0.0
  0
LINE
  5
87
330
1F
100
AcDbEntity
  8
IGES_LEVEL_0
 62
     7
100
AcDbLine
 10
3.95678215722818
 20
64.68341540831018
 30
0.0
 11
3.95630371849618
 21
64.68517678954018
 31
0.0
  0
LINE
  5
88
330
1F
100
AcDbEntity
  8
IGES_LEVEL_0
 62
     7
100
AcDbLine
 10
3.95726853614318
 20
64.68144189747018
 30
0.0
 11
3.95678215722818
 21
64.68341540831018
 31
0.0
  0
ARC
  5
89
330
1F
100
AcDbEntity
  8
IGES_LEVEL_0
 62
     7
100
AcDbCircle
 10
3.873538962299285
 20
64.66218631670581
 30
0.0
 40
0.085915184494087
100
AcDbArc
 50
355.1311230258343
 51
12.95132090077223
  0
LINE
  5
8A
330
1F
100
AcDbEntity
  8
IGES_LEVEL_0
 62
     7
100
AcDbLine
 10
3.61412513782618
 20
63.08146660469018
 30
0.0
 11
3.61423273883318
 21
63.08774329310018
 31
0.0
  0
LINE
  5
8B
330
1F
100
AcDbEntity
  8
IGES_LEVEL_0
 62
     7
100
AcDbLine
 10
3.61083652739418
 20
63.05298338848018
 30
0.0
 11
3.61412513782618
 21
63.08146660469018
 31
0.0
  0
LINE
  5
8C
330
1F
100
AcDbEntity
  8
IGES_LEVEL_0
 62
     7
100
AcDbLine
 10
3.60623900391818
 20
63.03494317036018
 30
0.0
 11
3.61083652739418
 21
63.05298338848018
 31
0.0
  0
SPLINE
  5
8D
330
1F
100
AcDbEntity
  8
IGES_LEVEL_0
 62
     7
100
AcDbSpline
210
0.0
220
0.0
230
1.0
 70
     8
 71
     3
 72
    16
 73
    12
 74
     0
 42
0.0000000001
 43
0.0000000001
 40
0.0
 40
0.0
 40
0.0
 40
0.0
 40
0.1083922031883
 40
0.2211864772024
 40
0.3342552895542
 40
0.44511405459
 40
0.5548009252271
 40
0.66567976011
 40
0.7787735527117
 40
0.8915921438512
 40
1.0
 40
1.0
 40
1.0
 40
1.0
 10
3.18464279807518
 20
63.03521793687018
 30
0.0
 10
3.19043805060518
 20
63.01663393122018
 30
0.0
 10
3.20880178040218
 20
62.98080363970018
 30
0.0
 10
3.25262981769218
 20
62.93874091545018
 30
0.0
 10
3.30684418771418
 20
62.91103147915018
 30
0.0
 10
3.36547535650018
 20
62.89763953187018
 30
0.0
 10
3.42516704134518
 20
62.89760076739018
 30
0.0
 10
3.48382358963118
 20
62.91091702288018
 30
0.0
 10
3.53808727456518
 20
62.93855608515018
 30
0.0
 10
3.58198746944218
 20
62.98055933168018
 30
0.0
 10
3.60041289132018
 20
63.01636587894018
 30
0.0
 10
3.60623900391818
 20
63.03494317036018
 30
0.0
  0
LINE
  5
8E
330
1F
100
AcDbEntity
  8
IGES_LEVEL_0
 62
     7
100
AcDbLine
 10
3.18007448465018
 20
63.05326539378018
 30
0.0
 11
3.18464279807518
 21
63.03521793687018
 31
0.0
  0
LINE
  5
8F
330
1F
100
AcDbEntity
  8
IGES_LEVEL_0
 62
     7
100
AcDbLine
 10
3.17744542691618
 20
63.07171921505018
 30
0.0
 11
3.18007448465018
 21
63.05326539378018
 31
0.0
  0
LINE
  5
90
330
1F
100
AcDbEntity
  8
IGES_LEVEL_0
 62
     7
100
AcDbLine
 10
3.17673369724018
 20
63.08750402705018
 30
0.0
 11
3.17744542691618
 21
63.07171921505018
 31
0.0
  0
LINE
  5
91
330
1F
100
AcDbEntity
  8
IGES_LEVEL_0
 62
     7
100
AcDbLine
 10
3.21728009624718
 20
67.46699046186018
 30
0.0
 11
3.21769609259718
 21
67.47823453483018
 31
0.0
  0
LINE
  5
92
330
1F
100
AcDbEntity
  8
IGES_LEVEL_0
 62
     7
100
AcDbLine
 10
3.21484406226118
 20
67.44888102900018
 30
0.0
 11
3.21728009624718
 21
67.46699046186018
 31
0.0
  0
SPLINE
  5
93
330
1F
100
AcDbEntity
  8
IGES_LEVEL_0
 62
     7
100
AcDbSpline
210
0.0
220
0.0
230
1.0
 70
     8
 71
     3
 72
    18
 73
    14
 74
     0
 42
0.0000000001
 43
0.0000000001
 40
0.0
 40
0.0
 40
0.0
 40
0.0
 40
0.06297362801499
 40
0.1605836753752
 40
0.2605175974949
 40
0.3605187230696
 40
0.4598999150931
 40
0.5606988915129
 40
0.6631328812595
 40
0.7651574166675
 40
0.8666569910246
 40
0.9672101828028
 40
1.0
 40
1.0
 40
1.0
 40
1.0
 10
2.78782871377718
 20
67.44430176783018
 30
0.0
 10
2.79118782148618
 20
67.43306036751018
 30
0.0
 10
2.80248571697818
 20
67.40522500054019
 30
0.0
 10
2.83111293768118
 20
67.36542431937018
 30
0.0
 10
2.87489818449818
 20
67.33065350750019
 30
0.0
 10
2.92624711131418
 20
67.30799252335018
 30
0.0
 10
2.98149308351618
 20
67.29771603798018
 30
0.0
 10
3.03808519650218
 20
67.29961003876018
 30
0.0
 10
3.09344291360218
 20
67.31383301920018
 30
0.0
 10
3.14421436476018
 20
67.34057436627018
 30
0.0
 10
3.18606068854318
 20
67.37966789630018
 30
0.0
 10
3.20740654506018
 20
67.41867216281018
 30
0.0
 10
3.21366605632118
 20
67.44286279033018
 30
0.0
 10
3.21484406226118
 20
67.44888102900018
 30
0.0
  0
LINE
  5
94
330
1F
100
AcDbEntity
  8
IGES_LEVEL_0
 62
     7
100
AcDbLine
 10
2.78365772420218
 20
67.46112063854018
 30
0.0
 11
2.78782871377718
 21
67.44430176783018
 31
0.0
  0
LINE
  5
95
330
1F
100
AcDbEntity
  8
IGES_LEVEL_0
 62
     7
100
AcDbLine
 10
2.78027946374118
 20
67.49086698108017
 30
0.0
 11
2.78365772420218
 21
67.46112063854018
 31
0.0
  0
LINE
  5
96
330
1F
100
AcDbEntity
  8
IGES_LEVEL_0
 62
     7
100
AcDbLine
 10
2.78019424230118
 20
67.49621084381018
 30
0.0
 11
2.78027946374118
 21
67.49086698108017
 31
0.0
  0
LINE
  5
97
330
1F
100
AcDbEntity
  8
IGES_LEVEL_0
 62
     7
100
AcDbLine
 10
2.92053666957518
 20
61.97574158490018
 30
0.0
 11
2.92364177422618
 21
61.97153864410018
 31
0.0
  0
ARC
  5
98
330
1F
100
AcDbEntity
  8
IGES_LEVEL_0
 62
     7
100
AcDbCircle
 10
3.14553345233651
 20
62.13643028026042
 30
0.0
 40
0.2764858207386524
100
AcDbArc
 50
205.1621438363871
 51
215.5337500331164
  0
SPLINE
  5
99
330
1F
100
AcDbEntity
  8
IGES_LEVEL_0
 62
     7
100
AcDbSpline
210
0.0
220
0.0
230
1.0
 70
     8
 71
     3
 72
    12
 73
     8
 74
     0
 42
0.0000000001
 43
0.0000000001
 40
0.0
 40
0.0
 40
0.0
 40
0.0
 40
0.2441155130185
 40
0.479932113566
 40
0.7080785716989
 40
0.9281818729337
 40
1.0
 40
1.0
 40
1.0
 40
1.0
 10
2.84015832940218
 20
62.32081921048017
 30
0.0
 10
2.84079764760518
 20
62.29568983451018
 30
0.0
 10
2.84318290964918
 20
62.24631090457018
 30
0.0
 10
2.85103687428318
 20
62.17377322973018
 30
0.0
 10
2.86418206790818
 20
62.10447795268018
 30
0.0
 10
2.88006899536718
 20
62.05316684954018
 30
0.0
 10
2.89210113177218
 20
62.02555947688018
 30
0.0
 10
2.89528387610618
 20
62.01887366128018
 30
0.0
  0
LINE
  5
9A
330
1F
100
AcDbEntity
  8
IGES_LEVEL_0
 62
     7
100
AcDbLine
 10
2.83959941628418
 20
62.36747004187018
 30
0.0
 11
2.84015832940218
 21
62.32081921048017
 31
0.0
  0
LINE
  5
9B
330
1F
100
AcDbEntity
  8
IGES_LEVEL_0
 62
     7
100
AcDbLine
 10
2.84108578620318
 20
64.41317328473018
 30
0.0
 11
2.84118179123018
 21
64.40742029551018
 31
0.0
  0
ARC
  5
9C
330
1F
100
AcDbEntity
  8
IGES_LEVEL_0
 62
     7
100
AcDbCircle
 10
2.645898609332603
 20
64.40672195606878
 30
0.0
 40
0.1952937624610768
100
AcDbArc
 50
1.893051573580133
 51
11.90351329506843
  0
SPLINE
  5
9D
330
1F
100
AcDbEntity
  8
IGES_LEVEL_0
 62
     7
100
AcDbSpline
210
0.0
220
0.0
230
1.0
 70
     8
 71
     3
 72
    12
 73
     8
 74
     0
 42
0.0000000001
 43
0.0000000001
 40
0.0
 40
0.0
 40
0.0
 40
0.0
 40
0.1365071548074
 40
0.3648841211351
 40
0.5936837366687
 40
0.8088498227393
 40
1.0
 40
1.0
 40
1.0
 40
1.0
 10
2.52015885938018
 20
64.67246020937019
 30
0.0
 10
2.53916190324918
 20
64.67239069548018
 30
0.0
 10
2.59004245085118
 20
64.66790353835017
 30
0.0
 10
2.66966264703518
 20
64.64351697316018
 30
0.0
 10
2.75000030606418
 20
64.59351017900018
 30
0.0
 10
2.80877467669718
 20
64.52593919158018
 30
0.0
 10
2.83150359239718
 20
64.47313835646018
 30
0.0
 10
2.83699284095318
 20
64.44700406497019
 30
0.0
  0
LINE
  5
9E
330
1F
100
AcDbEntity
  8
IGES_LEVEL_0
 62
     7
100
AcDbLine
 10
2.46231359225618
 20
64.67241674062018
 30
0.0
 11
2.52015899304918
 21
64.67246098472018
 31
0.0
  0
LINE
  5
9F
330
1F
100
AcDbEntity
  8
IGES_LEVEL_0
 62
     7
100
AcDbLine
 10
2.44077826147718
 20
64.67230996741019
 30
0.0
 11
2.46231358728618
 21
64.67241673060018
 31
0.0
  0
LINE
  5
A0
330
1F
100
AcDbEntity
  8
IGES_LEVEL_0
 62
     7
100
AcDbLine
 10
2.38771582336418
 20
64.67203384657019
 30
0.0
 11
2.44077826147718
 21
64.67230996741019
 31
0.0
  0
LINE
  5
A1
330
1F
100
AcDbEntity
  8
IGES_LEVEL_0
 62
     7
100
AcDbLine
 10
2.35530381636718
 20
64.78249034822018
 30
0.0
 11
2.35297334157418
 21
64.72223843688018
 31
0.0
  0
LINE
  5
A2
330
1F
100
AcDbEntity
  8
IGES_LEVEL_0
 62
     7
100
AcDbLine
 10
2.36233571383418
 20
64.88255636741017
 30
0.0
 11
2.35530381636718
 21
64.78249034822018
 31
0.0
  0
LINE
  5
A3
330
1F
100
AcDbEntity
  8
IGES_LEVEL_0
 62
     7
100
AcDbLine
 10
2.36425055792018
 20
64.91761061481019
 30
0.0
 11
2.36233571383418
 21
64.88255636741017
 31
0.0
  0
LINE
  5
A4
330
1F
100
AcDbEntity
  8
IGES_LEVEL_0
 62
     7
100
AcDbLine
 10
2.36439556728718
 20
64.92117780256018
 30
0.0
 11
2.36425055792018
 21
64.91761061481019
 31
0.0
  0
ARC
  5
A5
330
1F
100
AcDbEntity
  8
IGES_LEVEL_0
 62
     7
100
AcDbCircle
 10
2.415512968361727
 20
64.71946808264104
 30
0.0
 40
0.0623425962623968
100
AcDbArc
 50
190.4778655387663
 51
225.6376052197215
  0
LINE
  5
A6
330
1F
100
AcDbEntity
  8
IGES_LEVEL_0
 62
     7
100
AcDbLine
 10
2.35296712985218
 20
64.72211431428018
 30
0.0
 11
2.35420992022418
 21
64.70813072855017
 31
0.0
  0
LINE
  5
A7
330
1F
100
AcDbEntity
  8
IGES_LEVEL_0
 62
     7
100
AcDbLine
 10
2.36442121097618
 20
64.92456602307018
 30
0.0
 11
2.36429123357418
 21
64.92121150409018
 31
0.0
  0
LINE
  5
A8
330
1F
100
AcDbEntity
  8
IGES_LEVEL_0
 62
     7
100
AcDbLine
 10
2.41551892643618
 20
66.24318841237017
 30
0.0
 11
2.36442121097618
 21
64.92456602307018
 31
0.0
  0
LINE
  5
A9
330
1F
100
AcDbEntity
  8
IGES_LEVEL_0
 62
     7
100
AcDbLine
 10
2.41568945597718
 20
66.24661381365019
 30
0.0
 11
2.41556099474818
 21
66.24319985199018
 31
0.0
  0
LINE
  5
AA
330
1F
100
AcDbEntity
  8
IGES_LEVEL_0
 62
     7
100
AcDbLine
 10
2.41614864903318
 20
66.27762345459018
 30
0.0
 11
2.41568945597718
 21
66.24661381365019
 31
0.0
  0
SPLINE
  5
AB
330
1F
100
AcDbEntity
  8
IGES_LEVEL_0
 62
     7
100
AcDbSpline
210
0.0
220
0.0
230
1.0
 70
     8
 71
     3
 72
    12
 73
     8
 74
     0
 42
0.0000000001
 43
0.0000000001
 40
0.0
 40
0.0
 40
0.0
 40
0.0
 40
0.1592692762663
 40
0.394663634271
 40
0.6250519206223
 40
0.8509497548198
 40
1.0
 40
1.0
 40
1.0
 40
1.0
 10
1.98094028516618
 20
66.98623050820018
 30
0.0
 10
2.02110023355718
 20
66.96335410549018
 30
0.0
 10
2.11661211834518
 20
66.89934312853018
 30
0.0
 10
2.24657608297518
 20
66.77107694089018
 30
0.0
 10
2.35299299812018
 20
66.59891916556018
 30
0.0
 10
2.40598172209018
 20
66.42991869307018
 30
0.0
 10
2.41590348405518
 20
66.32090052255018
 30
0.0
 10
2.41614864903318
 20
66.27762345459018
 30
0.0
  0
LINE
  5
AC
330
1F
100
AcDbEntity
  8
IGES_LEVEL_0
 62
     7
100
AcDbLine
 10
1.95147997871118
 20
67.00233172404018
 30
0.0
 11
1.98094028516618
 21
66.98623050820018
 31
0.0
  0
LINE
  5
AD
330
1F
100
AcDbEntity
  8
IGES_LEVEL_0
 62
     7
100
AcDbLine
 10
1.94396462118518
 20
67.00642645786019
 30
0.0
 11
1.95148664847318
 21
67.00235039117018
 31
0.0
  0
LINE
  5
AE
330
1F
100
AcDbEntity
  8
IGES_LEVEL_0
 62
     7
100
AcDbLine
 10
1.90927273261618
 20
67.02912915189017
 30
0.0
 11
1.94396462118518
 21
67.00642645786019
 31
0.0
  0
ARC
  5
AF
330
1F
100
AcDbEntity
  8
IGES_LEVEL_0
 62
     7
100
AcDbCircle
 10
2.073304762765067
 20
67.24999203367207
 30
0.0
 40
0.2751125578081997
100
AcDbArc
 50
177.6843891660407
 51
233.3992010572085
  0
LINE
  5
B0
330
1F
100
AcDbEntity
  8
IGES_LEVEL_0
 62
     7
100
AcDbLine
 10
3.954806283897181
 20
64.87820487054017
 30
0.0
 11
3.95489295161818
 21
64.91959994283018
 31
0.0
  0
LINE
  5
B1
330
1F
100
AcDbEntity
  8
IGES_LEVEL_0
 62
     7
100
AcDbLine
 10
3.95566368991018
 20
64.70693625190017
 30
0.0
 11
3.954806283897181
 21
64.87820487054017
 31
0.0
  0
LINE
  5
B2
330
1F
100
AcDbEntity
  8
IGES_LEVEL_0
 62
     7
100
AcDbLine
 10
3.95628879539418
 20
64.68327872790017
 30
0.0
 11
3.95566368991018
 21
64.70693625190017
 31
0.0
  0
LINE
  5
B3
330
1F
100
AcDbEntity
  8
IGES_LEVEL_0
 62
     7
100
AcDbLine
 10
3.95489766046518
 20
64.92344913005019
 30
0.0
 11
3.95578509909018
 21
66.24160198042019
 31
0.0
  0
LINE
  5
B4
330
1F
100
AcDbEntity
  8
IGES_LEVEL_0
 62
     7
100
AcDbLine
 10
3.95489505266718
 20
64.91959233397019
 30
0.0
 11
3.95489766046518
 21
64.92344913005019
 31
0.0
  0
LINE
  5
B5
330
1F
100
AcDbEntity
  8
IGES_LEVEL_0
 62
     7
100
AcDbLine
 10
3.85932099233118
 20
66.84694136033018
 30
0.0
 11
3.85844317829618
 21
66.84963566799019
 31
0.0
  0
LINE
  5
B6
330
1F
100
AcDbEntity
  8
IGES_LEVEL_0
 62
     7
100
AcDbLine
 10
3.86235731371818
 20
66.83751933539018
 30
0.0
 11
3.85932099233118
 21
66.84694136033018
 31
0.0
  0
ARC
  5
B7
330
1F
100
AcDbEntity
  8
IGES_LEVEL_0
 62
     7
100
AcDbCircle
 10
1.996215089061937
 20
66.23978017824665
 30
0.0
 40
1.959535379274284
100
AcDbArc
 50
0.1702905537359493
 51
17.76064671570624
  0
LINE
  5
B8
330
1F
100
AcDbEntity
  8
IGES_LEVEL_0
 62
     7
100
AcDbLine
 10
3.95574540627118
 20
66.24160908189018
 30
0.0
 11
3.95574181350418
 21
66.24560416522019
 31
0.0
  0
LINE
  5
B9
330
1F
100
AcDbEntity
  8
IGES_LEVEL_0
 62
     7
100
AcDbLine
 10
3.955977022128181
 20
64.66132077223018
 30
0.0
 11
3.95629209632618
 21
64.66878096588017
 31
0.0
  0
LINE
  5
BA
330
1F
100
AcDbEntity
  8
IGES_LEVEL_0
 62
     7
100
AcDbLine
 10
3.95549932863218
 20
64.64930999684017
 30
0.0
 11
3.955977022128181
 21
64.66132077223018
 31
0.0
  0
LINE
  5
BB
330
1F
100
AcDbEntity
  8
IGES_LEVEL_0
 62
     7
100
AcDbLine
 10
3.95513709933518
 20
64.63955799278018
 30
0.0
 11
3.95549932863218
 21
64.64930999684017
 31
0.0
  0
LINE
  5
BC
330
1F
100
AcDbEntity
  8
IGES_LEVEL_0
 62
     7
100
AcDbLine
 10
3.95482102892018
 20
64.63052611503018
 30
0.0
 11
3.95513709933518
 21
64.63955799278018
 31
0.0
  0
LINE
  5
BD
330
1F
100
AcDbEntity
  8
IGES_LEVEL_0
 62
     7
100
AcDbLine
 10
3.95469646237018
 20
64.62723557696018
 30
0.0
 11
3.95480498915318
 21
64.63053967260018
 31
0.0
  0
LINE
  5
BE
330
1F
100
AcDbEntity
  8
IGES_LEVEL_0
 62
     7
100
AcDbLine
 10
3.95410983312118
 20
64.60795351789018
 30
0.0
 11
3.95469646237018
 21
64.62723557696018
 31
0.0
  0
LINE
  5
BF
330
1F
100
AcDbEntity
  8
IGES_LEVEL_0
 62
     7
100
AcDbLine
 10
3.95359677536818
 20
64.58925763692018
 30
0.0
 11
3.95410375667018
 21
64.60793242913019
 31
0.0
  0
LINE
  5
C0
330
1F
100
AcDbEntity
  8
IGES_LEVEL_0
 62
     7
100
AcDbLine
 10
3.95297637377218
 20
64.56145379258018
 30
0.0
 11
3.95359677536818
 21
64.58925763692018
 31
0.0
  0
LINE
  5
C1
330
1F
100
AcDbEntity
  8
IGES_LEVEL_0
 62
     7
100
AcDbLine
 10
3.95205673863718
 20
64.44080000713018
 30
0.0
 11
3.95297637377218
 21
64.56145379258018
 31
0.0
  0
LINE
  5
C2
330
1F
100
AcDbEntity
  8
IGES_LEVEL_0
 62
     7
100
AcDbLine
 10
3.95204626579018
 20
64.41249647480018
 30
0.0
 11
3.95205673863718
 21
64.44080000713018
 31
0.0
  0
LINE
  5
C3
330
1F
100
AcDbEntity
  8
IGES_LEVEL_0
 62
     7
100
AcDbLine
 10
3.95203959961518
 20
64.40666116737017
 30
0.0
 11
3.95204626579018
 21
64.41249647480018
 31
0.0
  0
LINE
  5
C4
330
1F
100
AcDbEntity
  8
IGES_LEVEL_0
 62
     7
100
AcDbLine
 10
3.94994619185518
 20
62.32306990097018
 30
0.0
 11
3.95050057886518
 21
62.36670892964018
 31
0.0
  0
SPLINE
  5
C5
330
1F
100
AcDbEntity
  8
IGES_LEVEL_0
 62
     7
100
AcDbSpline
210
0.0
220
0.0
230
1.0
 70
     8
 71
     3
 72
    12
 73
     8
 74
     0
 42
0.0000000001
 43
0.0000000001
 40
0.0
 40
0.0
 40
0.0
 40
0.0
 40
0.07181122668901
 40
0.292064962217
 40
0.5202530787094
 40
0.7559699875179
 40
1.0
 40
1.0
 40
1.0
 40
1.0
 10
3.89581591974818
 20
62.02149440847018
 30
0.0
 10
3.89893297876418
 20
62.02819270886018
 30
0.0
 10
3.91072800365218
 20
62.05584575154018
 30
0.0
 10
3.926303516848181
 20
62.10715485512018
 30
0.0
 10
3.93922645806518
 20
62.17635177724018
 30
0.0
 10
3.946960241684181
 20
62.24873860904017
 30
0.0
 10
3.94931431023918
 20
62.29799979169017
 30
0.0
 10
3.94994619185518
 20
62.32306990097018
 30
0.0
  0
LINE
  5
C6
330
1F
100
AcDbEntity
  8
IGES_LEVEL_0
 62
     7
100
AcDbLine
 10
3.88585078554418
 20
62.00185876752018
 30
0.0
 11
3.89581591974818
 21
62.02149440847018
 31
0.0
  0
LINE
  5
C7
330
1F
100
AcDbEntity
  8
IGES_LEVEL_0
 62
     7
100
AcDbLine
 10
3.86584286340418
 20
61.97093207661018
 30
0.0
 11
3.88585078554418
 21
62.00185876752018
 31
0.0
  0
ARC
  5
C8
330
1F
100
AcDbEntity
  8
IGES_LEVEL_0
 62
     7
100
AcDbCircle
 10
2.387026478555009
 20
64.71319484299855
 30
0.0
 40
0.0411679368027137
100
AcDbArc
 50
248.4775664857309
 51
270.9587948072368
  0
LINE
  5
C9
330
1F
100
AcDbEntity
  8
IGES_LEVEL_0
 62
     7
100
AcDbLine
 10
3.95828457850718
 20
64.64818917121018
 30
0.0
 11
3.95928810672318
 21
64.65488145871018
 31
0.0
  0
LINE
  5
CA
330
1F
100
AcDbEntity
  8
IGES_LEVEL_0
 62
     7
100
AcDbLine
 10
3.95527549112418
 20
64.63949466670019
 30
0.0
 11
3.95828457850718
 21
64.64818917121018
 31
0.0
  0
ARC
  5
CB
330
1F
100
AcDbEntity
  8
IGES_LEVEL_0
 62
     7
100
AcDbCircle
 10
3.825141170164315
 20
62.00138651299101
 30
0.0
 40
0.0508789563799649
100
AcDbArc
 50
256.1787094401149
 51
323.1992016997483
  0
ARC
  5
CC
330
1F
100
AcDbEntity
  8
IGES_LEVEL_0
 62
     7
100
AcDbCircle
 10
3.825752536883602
 20
62.00251441205699
 30
0.0
 40
0.0521212581969614
100
AcDbArc
 50
205.9809235815837
 51
255.8223031447317
  0
LINE
  5
CD
330
1F
100
AcDbEntity
  8
IGES_LEVEL_0
 62
     7
100
AcDbLine
 10
2.89910443219318
 20
67.41763525476019
 30
0.0
 11
2.89893656735418
 21
67.42290402688018
 31
0.0
  0
LINE
  5
CE
330
1F
100
AcDbEntity
  8
IGES_LEVEL_0
 62
     7
100
AcDbLine
 10
2.89966187325718
 20
67.41185876982019
 30
0.0
 11
2.89910443219318
 21
67.41763525476019
 31
0.0
  0
SPLINE
  5
CF
330
1F
100
AcDbEntity
  8
IGES_LEVEL_0
 62
     7
100
AcDbSpline
210
0.0
220
0.0
230
1.0
 70
     8
 71
     3
 72
    16
 73
    12
 74
     0
 42
0.0000000001
 43
0.0000000001
 40
0.0
 40
0.0
 40
0.0
 40
0.0
 40
0.1126395521772
 40
0.2266441247544
 40
0.3426094207193
 40
0.4601793820857
 40
0.5783484964929
 40
0.6959006112618
 40
0.8118390604893
 40
0.9258208605905
 40
1.0
 40
1.0
 40
1.0
 40
1.0
 10
3.09893651665518
 20
67.42290235802018
 30
0.0
 10
3.09892778821718
 20
67.41199112993019
 30
0.0
 10
3.09463568023818
 20
67.38982432495018
 30
0.0
 10
3.07645556725918
 20
67.36121503233018
 30
0.0
 10
3.04917778469818
 20
67.34036395427017
 30
0.0
 10
3.01626250766918
 20
67.32946142032019
 30
0.0
 10
2.98145407327318
 20
67.32948578803018
 30
0.0
 10
2.94855836337018
 20
67.34043370266018
 30
0.0
 10
2.92131647321118
 20
67.36132111876017
 30
0.0
 10
2.90521914273018
 20
67.38673989567018
 30
0.0
 10
2.90059498512918
 20
67.40469376466018
 30
0.0
 10
2.89966187325718
 20
67.41185876982019
 30
0.0
  0
LINE
  5
D0
330
1F
100
AcDbEntity
  8
IGES_LEVEL_0
 62
     7
100
AcDbLine
 10
3.01527723182018
 20
61.98821484559018
 30
0.0
 11
3.01083733046618
 21
61.98072442867018
 31
0.0
  0
SPLINE
  5
D1
330
1F
100
AcDbEntity
  8
IGES_LEVEL_0
 62
     7
100
AcDbSpline
210
0.0
220
0.0
230
1.0
 70
     8
 71
     3
 72
    18
 73
    14
 74
     0
 42
0.0000000001
 43
0.0000000001
 40
0.0
 40
0.0
 40
0.0
 40
0.0
 40
0.0144575575692
 40
0.08287697453751
 40
0.1773441705611
 40
0.2931787391442
 40
0.4228002379805
 40
0.5572612338651
 40
0.6872717777235
 40
0.803810559406
 40
0.8991273798585
 40
0.9681903203755
 40
1.0
 40
1.0
 40
1.0
 40
1.0
 10
3.76546596304318
 20
61.99817111723018
 30
0.0
 10
3.76275883479718
 20
62.00094520408018
 30
0.0
 10
3.74628285025318
 20
62.01603637089018
 30
0.0
 10
3.70594988204518
 20
62.04037072176018
 30
0.0
 10
3.63646672802618
 20
62.06649885140018
 30
0.0
 10
3.54843007229818
 20
62.08623062417018
 30
0.0
 10
3.44816878351118
 20
62.09690505463018
 30
0.0
 10
3.34361665766018
 20
62.09709789301018
 30
0.0
 10
3.24302786695918
 20
62.08676607217018
 30
0.0
 10
3.15441449793518
 20
62.06725508309017
 30
0.0
 10
3.08428446534818
 20
62.04117975433018
 30
0.0
 10
3.03957633138018
 20
62.01440908338018
 30
0.0
 10
3.02007209789718
 20
61.99514121154018
 30
0.0
 10
3.01527723182018
 20
61.98821484559018
 30
0.0
  0
ARC
  5
D2
330
1F
100
AcDbEntity
  8
IGES_LEVEL_0
 62
     7
100
AcDbCircle
 10
3.715137492654857
 20
61.94741676661516
 30
0.0
 40
0.071476982574675
100
AcDbArc
 50
27.27049276520954
 51
45.24139606459504
  0
ARC
  5
D3
330
1F
100
AcDbEntity
  8
IGES_LEVEL_0
 62
     7
100
AcDbCircle
 10
2.963783264906539
 20
62.00302677040722
 30
0.0
 40
0.0520671818115461
100
AcDbArc
 50
284.555832956234
 51
333.8175266770423
  0
ARC
  5
D4
330
1F
100
AcDbEntity
  8
IGES_LEVEL_0
 62
     7
100
AcDbCircle
 10
2.964360266017688
 20
62.00176120394194
 30
0.0
 40
0.0506977921975668
100
AcDbArc
 50
249.0942944047875
 51
284.2841286517231
  0
LINE
  5
D5
330
1F
100
AcDbEntity
  8
IGES_LEVEL_0
 62
     7
100
AcDbLine
 10
2.94082002198218
 20
61.95685658235018
 30
0.0
 11
2.94626972076318
 21
61.95440090088017
 31
0.0
  0
ARC
  5
D6
330
1F
100
AcDbEntity
  8
IGES_LEVEL_0
 62
     7
100
AcDbCircle
 10
2.964686503635406
 20
62.00231235785336
 30
0.0
 40
0.0513403980613676
100
AcDbArc
 50
216.8636208704427
 51
242.2983538471486
  0
LINE
  5
D7
330
1F
100
AcDbEntity
  8
IGES_LEVEL_0
 62
     7
100
AcDbLine
 10
3.61421308423518
 20
63.09032831286018
 30
0.0
 11
3.61422545081718
 21
63.08729978976017
 31
0.0
  0
LINE
  5
D8
330
1F
100
AcDbEntity
  8
IGES_LEVEL_0
 62
     7
100
AcDbLine
 10
3.29558926426218
 20
63.05525769478017
 30
0.0
 11
3.29547094706518
 21
63.05966878856017
 31
0.0
  0
LINE
  5
D9
330
1F
100
AcDbEntity
  8
IGES_LEVEL_0
 62
     7
100
AcDbLine
 10
3.29619623233118
 20
63.04862368619018
 30
0.0
 11
3.29558926426218
 21
63.05525769478017
 31
0.0
  0
LINE
  5
DA
330
1F
100
AcDbEntity
  8
IGES_LEVEL_0
 62
     7
100
AcDbLine
 10
3.30080081339518
 20
63.02976892365017
 30
0.0
 11
3.29619623233118
 21
63.04862368619018
 31
0.0
  0
ARC
  5
DB
330
1F
100
AcDbEntity
  8
IGES_LEVEL_0
 62
     7
100
AcDbCircle
 10
3.393222361439079
 20
63.06609751897891
 30
0.0
 40
0.0993051327041558
100
AcDbArc
 50
201.4585464096832
 51
267.9068109641325
  0
LINE
  5
DC
330
1F
100
AcDbEntity
  8
IGES_LEVEL_0
 62
     7
100
AcDbLine
 10
3.40118824374218
 20
62.96685041343018
 30
0.0
 11
3.38959524995418
 21
62.96685864835018
 31
0.0
  0
ARC
  5
DD
330
1F
100
AcDbEntity
  8
IGES_LEVEL_0
 62
     7
100
AcDbCircle
 10
3.399208782599263
 20
63.06315536738894
 30
0.0
 40
0.0963252948265276
100
AcDbArc
 50
271.177497076824
 51
357.9246820113123
  0
LINE
  5
DE
330
1F
100
AcDbEntity
  8
IGES_LEVEL_0
 62
     7
100
AcDbLine
 10
19.26798900654118
 20
64.67203252643019
 30
0.0
 11
19.25284068457118
 21
64.67423122644019
 31
0.0
  0
SPLINE
  5
DF
330
1F
100
AcDbEntity
  8
IGES_LEVEL_0
 62
     7
100
AcDbSpline
210
0.0
220
0.0
230
1.0
 70
     8
 71
     3
 72
    19
 73
    15
 74
     0
 42
0.0000000001
 43
0.0000000001
 40
0.0
 40
0.0
 40
0.0
 40
0.0
 40
0.06537032430177
 40
0.1439312738698
 40
0.2270220743107
 40
0.3168192923396
 40
0.413928916479
 40
0.5153545191164
 40
0.6149779882184
 40
0.7083793298836
 40
0.7932992610638
 40
0.8708134478445
 40
0.9462698414149
 40
1.0
 40
1.0
 40
1.0
 40
1.0
 10
18.43799330767118
 20
67.49223786503018
 30
0.0
 10
18.43802432908118
 20
67.50610185896018
 30
0.0
 10
18.44299773839118
 20
67.53679463437018
 30
0.0
 10
18.46449784127118
 20
67.58041842043018
 30
0.0
 10
18.49926192596118
 20
67.62131339648018
 30
0.0
 10
18.54484373709118
 20
67.65642447220019
 30
0.0
 10
18.60002569486118
 20
67.68349261405018
 30
0.0
 10
18.66185605365118
 20
67.69870664387018
 30
0.0
 10
18.72494097056118
 20
67.69833085006017
 30
0.0
 10
18.78214319406118
 20
67.68098452689019
 30
0.0
 10
18.82724289412118
 20
67.64933687360018
 30
0.0
 10
18.85786946869118
 20
67.60836411654019
 30
0.0
 10
18.87276057685118
 20
67.56659203505018
 30
0.0
 10
18.87546983699118
 20
67.53909867306018
 30
0.0
 10
18.87548346730118
 20
67.52768983046018
 30
0.0
  0
SPLINE
  5
E0
330
1F
100
AcDbEntity
  8
IGES_LEVEL_0
 62
     7
100
AcDbSpline
210
0.0
220
0.0
230
1.0
 70
     8
 71
     3
 72
    18
 73
    14
 74
     0
 42
0.0000000001
 43
0.0000000001
 40
0.0
 40
0.0
 40
0.0
 40
0.0
 40
0.03237866452182
 40
0.1321668894911
 40
0.2344415455632
 40
0.3393506768778
 40
0.446225214049
 40
0.5538207777396
 40
0.6606881075473
 40
0.7655848864699
 40
0.8678457575612
 40
0.9676231980527
 40
1.0
 40
1.0
 40
1.0
 40
1.0
 10
18.47491615699118
 20
63.11882205178018
 30
0.0
 10
18.47360807332118
 20
63.12496446297018
 30
0.0
 10
18.46699192675118
 20
63.14977245519017
 30
0.0
 10
18.44625439512118
 20
63.19071656469018
 30
0.0
 10
18.40469153029118
 20
63.23406146635018
 30
0.0
 10
18.35164400619118
 20
63.26486426990018
 30
0.0
 10
18.29139964902118
 20
63.28083713227018
 30
0.0
 10
18.22871138359118
 20
63.28079573860018
 30
0.0
 10
18.16849196998118
 20
63.26474313048018
 30
0.0
 10
18.11549271098118
 20
63.23386955088018
 30
0.0
 10
18.07399831342118
 20
63.19046843019018
 30
0.0
 10
18.05332658380118
 20
63.14949648901018
 30
0.0
 10
18.04675034257118
 20
63.12468041991018
 30
0.0
 10
18.04545208870118
 20
63.11853628988018
 30
0.0
  0
LINE
  5
E1
330
1F
100
AcDbEntity
  8
IGES_LEVEL_0
 62
     7
100
AcDbLine
 10
18.47790500206118
 20
63.10013629144018
 30
0.0
 11
18.47491615699118
 21
63.11882205178018
 31
0.0
  0
LINE
  5
E2
330
1F
100
AcDbEntity
  8
IGES_LEVEL_0
 62
     7
100
AcDbLine
 10
18.47827458641118
 20
63.10919391979018
 30
0.0
 11
18.47896432605118
 21
63.09328375027017
 31
0.0
  0
SPLINE
  5
E3
330
1F
100
AcDbEntity
  8
IGES_LEVEL_0
 62
     7
100
AcDbSpline
210
0.0
220
0.0
230
1.0
 70
     8
 71
     3
 72
    18
 73
    14
 74
     0
 42
0.0000000001
 43
0.0000000001
 40
0.0
 40
0.0
 40
0.0
 40
0.0
 40
0.05950883022617
 40
0.1550629327918
 40
0.2559308892979
 40
0.3561146205393
 40
0.4526434055023
 40
0.5473369161404
 40
0.6438658940783
 40
0.744053412582
 40
0.8449278820951
 40
0.9404882739267
 40
1.0
 40
1.0
 40
1.0
 40
1.0
 10
18.04212950790118
 20
63.10890374631018
 30
0.0
 10
18.04321398802118
 20
63.12174123728018
 30
0.0
 10
18.04943602730118
 20
63.15500133081018
 30
0.0
 10
18.07235887936118
 20
63.20598117486018
 30
0.0
 10
18.11377877612118
 20
63.25588279349018
 30
0.0
 10
18.16759896843118
 20
63.29255985365018
 30
0.0
 10
18.22851639099118
 20
63.31168482451017
 30
0.0
 10
18.29159089893118
 20
63.31172700284018
 30
0.0
 10
18.35253469033118
 20
63.29268349267018
 30
0.0
 10
18.40640626881118
 20
63.25607809221017
 30
0.0
 10
18.44789754568118
 20
63.20623149150018
 30
0.0
 10
18.47089604407118
 20
63.15528246669017
 30
0.0
 10
18.47716984604118
 20
63.12203028315017
 30
0.0
 10
18.47827458641118
 20
63.10919391979018
 30
0.0
  0
LINE
  5
E4
330
1F
100
AcDbEntity
  8
IGES_LEVEL_0
 62
     7
100
AcDbLine
 10
18.04146479326118
 20
63.09328046382018
 30
0.0
 11
18.04212950790118
 21
63.10890374631018
 31
0.0
  0
SPLINE
  5
E5
330
1F
100
AcDbEntity
  8
IGES_LEVEL_0
 62
     7
100
AcDbSpline
210
0.0
220
0.0
230
1.0
 70
     8
 71
     3
 72
    16
 73
    12
 74
     0
 42
0.0000000001
 43
0.0000000001
 40
0.0
 40
0.0
 40
0.0
 40
0.0
 40
0.1085159945638
 40
0.2183470413316
 40
0.3300670352866
 40
0.4433329497275
 40
0.5571760781346
 40
0.6704247861837001
 40
0.7821188948196
 40
0.8919279825853
 40
1.0
 40
1.0
 40
1.0
 40
1.0
 10
18.75673778519118
 20
67.45787941201019
 30
0.0
 10
18.75672905674118
 20
67.46879065391018
 30
0.0
 10
18.75243693753118
 20
67.49095748777017
 30
0.0
 10
18.73425677983118
 20
67.51956680590018
 30
0.0
 10
18.70697893748118
 20
67.54041788210019
 30
0.0
 10
18.67406360051118
 20
67.55132038263018
 30
0.0
 10
18.63925512084118
 20
67.55129595118018
 30
0.0
 10
18.60635939473118
 20
67.54034794776018
 30
0.0
 10
18.57911753052118
 20
67.51946042992019
 30
0.0
 10
18.56100879163118
 20
67.49086527954017
 30
0.0
 10
18.55674611426118
 20
67.46874519837019
 30
0.0
 10
18.55673783588118
 20
67.45787774250019
 30
0.0
  0
SPLINE
  5
E6
330
1F
100
AcDbEntity
  8
IGES_LEVEL_0
 62
     7
100
AcDbSpline
210
0.0
220
0.0
230
1.0
 70
     8
 71
     3
 72
    16
 73
    12
 74
     0
 42
0.0000000001
 43
0.0000000001
 40
0.0
 40
0.0
 40
0.0
 40
0.0
 40
0.1085159945637
 40
0.2183470413316
 40
0.3300670352865
 40
0.4433329497274
 40
0.5571760781346
 40
0.6704247861835
 40
0.7821188948195
 40
0.8919279825852
 40
1.0
 40
1.0
 40
1.0
 40
1.0
 10
18.36021450980118
 20
63.08076290441018
 30
0.0
 10
18.36020578135118
 20
63.09167414631018
 30
0.0
 10
18.35591366214118
 20
63.11384098017017
 30
0.0
 10
18.33773350444118
 20
63.14245029830018
 30
0.0
 10
18.31045566209118
 20
63.16330137449018
 30
0.0
 10
18.27754032512118
 20
63.17420387502018
 30
0.0
 10
18.24273184545118
 20
63.17417944357018
 30
0.0
 10
18.20983611934118
 20
63.16323144016018
 30
0.0
 10
18.18259425513118
 20
63.14234392231018
 30
0.0
 10
18.16448551624118
 20
63.11374877193018
 30
0.0
 10
18.16022283887118
 20
63.09162869077018
 30
0.0
 10
18.16021456050118
 20
63.08076123490018
 30
0.0
  0
LINE
  5
E7
330
1F
100
AcDbEntity
  8
IGES_LEVEL_0
 62
     7
100
AcDbLine
 10
17.69945459534118
 20
64.68156414333018
 30
0.0
 11
17.69941764815118
 21
64.68326622024019
 31
0.0
  0
LINE
  5
E8
330
1F
100
AcDbEntity
  8
IGES_LEVEL_0
 62
     7
100
AcDbLine
 10
17.69963505779118
 20
64.68004118542018
 30
0.0
 11
17.69945459534118
 21
64.68156414333018
 31
0.0
  0
LINE
  5
E9
330
1F
100
AcDbEntity
  8
IGES_LEVEL_0
 62
     7
100
AcDbLine
 10
17.69942974704118
 20
64.66864728368019
 30
0.0
 11
17.69952697099118
 21
64.67640575578018
 31
0.0
  0
SPLINE
  5
EA
330
1F
100
AcDbEntity
  8
IGES_LEVEL_0
 62
     7
100
AcDbSpline
210
0.0
220
0.0
230
1.0
 70
     8
 71
     3
 72
    17
 73
    13
 74
     0
 42
0.0000000001
 43
0.0000000001
 40
0.0
 40
0.0
 40
0.0
 40
0.0
 40
0.08483017118438
 40
0.1887843658714
 40
0.2954162987466
 40
0.4040459130699
 40
0.513408394499
 40
0.6220306831006
 40
0.7286500607347
 40
0.8325902440661001
 40
0.9340062142836
 40
1.0
 40
1.0
 40
1.0
 40
1.0
 10
18.86344232237118
 20
67.52308861290018
 30
0.0
 10
18.85770056280118
 20
67.53820306279017
 30
0.0
 10
18.84056680762118
 20
67.57013868680018
 30
0.0
 10
18.80121481447118
 20
67.61117797693018
 30
0.0
 10
18.74816727910118
 20
67.64198077670018
 30
0.0
 10
18.68792292524118
 20
67.65795364004018
 30
0.0
 10
18.62523465814118
 20
67.65791224637017
 30
0.0
 10
18.56501524782118
 20
67.64185963728018
 30
0.0
 10
18.51201597763118
 20
67.61098606143018
 30
0.0
 10
18.47052162015118
 20
67.56758492719018
 30
0.0
 10
18.44697929706118
 20
67.52092368830019
 30
0.0
 10
18.44034223295118
 20
67.48946784242018
 30
0.0
 10
18.43901699723118
 20
67.47696544606018
 30
0.0
  0
LINE
  5
EB
330
1F
100
AcDbEntity
  8
IGES_LEVEL_0
 62
     7
100
AcDbLine
 10
18.86658509376118
 20
67.51413248305018
 30
0.0
 11
18.86344232237118
 21
67.52308861290018
 31
0.0
  0
LINE
  5
EC
330
1F
100
AcDbEntity
  8
IGES_LEVEL_0
 62
     7
100
AcDbLine
 10
18.87143909540118
 20
67.49593959890018
 30
0.0
 11
18.86658509376118
 21
67.51413248305018
 31
0.0
  0
LINE
  5
ED
330
1F
100
AcDbEntity
  8
IGES_LEVEL_0
 62
     7
100
AcDbLine
 10
18.87442764106118
 20
67.47725546385018
 30
0.0
 11
18.87143909540118
 21
67.49593959890018
 31
0.0
  0
LINE
  5
EE
330
1F
100
AcDbEntity
  8
IGES_LEVEL_0
 62
     7
100
AcDbLine
 10
17.79734830345118
 20
66.84992117471018
 30
0.0
 11
17.79625379190118
 21
66.84655898494017
 31
0.0
  0
SPLINE
  5
EF
330
1F
100
AcDbEntity
  8
IGES_LEVEL_0
 62
     7
100
AcDbSpline
210
0.0
220
0.0
230
1.0
 70
     8
 71
     3
 72
    15
 73
    11
 74
     0
 42
0.0000000001
 43
0.0000000001
 40
0.0
 40
0.0
 40
0.0
 40
0.0
 40
0.1244471743266
 40
0.2653356178541
 40
0.4046275299317
 40
0.5421814594799
 40
0.6780183058705001
 40
0.8122372702125
 40
0.9449993261236001
 40
1.0
 40
1.0
 40
1.0
 40
1.0
 10
19.58688807071118
 20
68.34878441600019
 30
0.0
 10
19.48680675667118
 20
68.33110419163018
 30
0.0
 10
19.27550007254118
 20
68.28029173803019
 30
0.0
 10
18.96651834702118
 20
68.16041901589018
 30
0.0
 10
18.66852431751118
 20
67.99216217588018
 30
0.0
 10
18.40109311114118
 20
67.78525948403018
 30
0.0
 10
18.17042031229118
 20
67.54368829139018
 30
0.0
 10
17.98065513122118
 20
67.27356646062017
 30
0.0
 10
17.86367550029118
 20
67.03704356738018
 30
0.0
 10
17.81130148147118
 20
66.89265994587018
 30
0.0
 10
17.79734830345118
 20
66.84992117471018
 30
0.0
  0
SPLINE
  5
F0
330
1F
100
AcDbEntity
  8
IGES_LEVEL_0
 62
     7
100
AcDbSpline
210
0.0
220
0.0
230
1.0
 70
     8
 71
     3
 72
    37
 73
    33
 74
     0
 42
0.0000000001
 43
0.0000000001
 40
0.0
 40
0.0
 40
0.0
 40
0.0
 40
0.01805688653472
 40
0.06333222315551
 40
0.1120839899599
 40
0.1630243934831
 40
0.2150259123349
 40
0.2676074268139
 40
0.3199214721392
 40
0.3714328994871
 40
0.421934434223
 40
0.47090731945
 40
0.5178253500402
 40
0.5623964858933001
 40
0.6042823408402001
 40
0.6431716431539
 40
0.6788476174494
 40
0.7111979420059
 40
0.7401668307312
 40
0.7657855391699
 40
0.7882188084042
 40
0.8077768017531
 40
0.8248463910052
 40
0.839899630497
 40
0.8537731091256
 40
0.8671813303068
 40
0.8820233836483
 40
0.9013895843003
 40
0.9249351749747
 40
0.9510808648563
 40
0.9794006371373
 40
1.0
 40
1.0
 40
1.0
 40
1.0
 10
19.85731730983118
 20
67.26066276294019
 30
0.0
 10
19.85699132447118
 20
67.26777807162019
 30
0.0
 10
19.85568904503118
 20
67.29272743168018
 30
0.0
 10
19.85267991535118
 20
67.33683686251018
 30
0.0
 10
19.84794217598118
 20
67.39382323139019
 30
0.0
 10
19.84234890622118
 20
67.45339632317018
 30
0.0
 10
19.83608259877118
 20
67.51442103560018
 30
0.0
 10
19.82930178800118
 20
67.57593565564018
 30
0.0
 10
19.82214168862118
 20
67.63721257811018
 30
0.0
 10
19.81470316385118
 20
67.69762975524019
 30
0.0
 10
19.80706830682118
 20
67.75669379015018
 30
0.0
 10
19.79933143600118
 20
67.81391671840018
 30
0.0
 10
19.79158453444118
 20
67.86877685337018
 30
0.0
 10
19.78390405528118
 20
67.92082220059018
 30
0.0
 10
19.77636904567118
 20
67.96968681019018
 30
0.0
 10
19.76905898959118
 20
68.01503495332018
 30
0.0
 10
19.76203924266118
 20
68.05661900975018
 30
0.0
 10
19.75535550315118
 20
68.09429011486019
 30
0.0
 10
19.74904735337118
 20
68.12799742431018
 30
0.0
 10
19.74314041575118
 20
68.15779854921019
 30
0.0
 10
19.73762855898118
 20
68.18389175085018
 30
0.0
 10
19.73246933514118
 20
68.20661045755018
 30
0.0
 10
19.72757316475118
 20
68.22640044872018
 30
0.0
 10
19.72277155360118
 20
68.24389897592018
 30
0.0
 10
19.71778872980118
 20
68.25984191277019
 30
0.0
 10
19.71199168026118
 20
68.27542550559018
 30
0.0
 10
19.70392601554118
 20
68.29242657231018
 30
0.0
 10
19.69117549362118
 20
68.31145876849018
 30
0.0
 10
19.67128805326118
 20
68.33047886854018
 30
0.0
 10
19.64388670935118
 20
68.34537154156018
 30
0.0
 10
19.61445636661118
 20
68.35144739594018
 30
0.0
 10
19.59492922030118
 20
68.35019048599018
 30
0.0
 10
19.58688784422118
 20
68.34877481173018
 30
0.0
  0
LINE
  5
F1
330
1F
100
AcDbEntity
  8
IGES_LEVEL_0
 62
     7
100
AcDbLine
 10
18.47895090711118
 20
63.08898999389017
 30
0.0
 11
18.47894448186118
 21
63.09061921254018
 31
0.0
  0
LINE
  5
F2
330
1F
100
AcDbEntity
  8
IGES_LEVEL_0
 62
     7
100
AcDbLine
 10
17.69623697975118
 20
64.66525294589017
 30
0.0
 11
17.69648658699118
 21
64.65458733185018
 31
0.0
  0
LINE
  5
F3
330
1F
100
AcDbEntity
  8
IGES_LEVEL_0
 62
     7
100
AcDbLine
 10
17.69800996563118
 20
64.67954570775018
 30
0.0
 11
17.69623697975118
 21
64.66525294589017
 31
0.0
  0
LINE
  5
F4
330
1F
100
AcDbEntity
  8
IGES_LEVEL_0
 62
     7
100
AcDbLine
 10
17.69938539646118
 20
64.68506665285018
 30
0.0
 11
17.69800996563118
 21
64.67954570775018
 31
0.0
  0
LINE
  5
F5
330
1F
100
AcDbEntity
  8
IGES_LEVEL_0
 62
     7
100
AcDbLine
 10
18.04157709072118
 20
63.08146660469018
 30
0.0
 11
18.04146948971118
 21
63.08774329310018
 31
0.0
  0
LINE
  5
F6
330
1F
100
AcDbEntity
  8
IGES_LEVEL_0
 62
     7
100
AcDbLine
 10
18.04220704011118
 20
63.07143180612017
 30
0.0
 11
18.04157709072118
 21
63.08146660469018
 31
0.0
  0
SPLINE
  5
F7
330
1F
100
AcDbEntity
  8
IGES_LEVEL_0
 62
     7
100
AcDbSpline
210
0.0
220
0.0
230
1.0
 70
     8
 71
     3
 72
    18
 73
    14
 74
     0
 42
0.0000000001
 43
0.0000000001
 40
0.0
 40
0.0
 40
0.0
 40
0.0
 40
0.06077201119395
 40
0.1559899678907
 40
0.2550749572412
 40
0.3544011168863
 40
0.4517858436298
 40
0.5481411108099
 40
0.6455434680624
 40
0.7448915717975
 40
0.8439979227135001
 40
0.9392296298731
 40
1.0
 40
1.0
 40
1.0
 40
1.0
 10
18.47825680163118
 20
63.07171921505018
 30
0.0
 10
18.47715186340118
 20
63.05935779031018
 30
0.0
 10
18.47100779025118
 20
63.02784054914018
 30
0.0
 10
18.44690044814118
 20
62.98080363970018
 30
0.0
 10
18.40307241085118
 20
62.93874091545018
 30
0.0
 10
18.34885804083118
 20
62.91103147915018
 30
0.0
 10
18.29022687205118
 20
62.89763953187018
 30
0.0
 10
18.23053518720118
 20
62.89760076739018
 30
0.0
 10
18.17187863891118
 20
62.91091702288018
 30
0.0
 10
18.11761495398118
 20
62.93855608515018
 30
0.0
 10
18.07371475910118
 20
62.98055933168018
 30
0.0
 10
18.04952762633118
 20
63.02756274460018
 30
0.0
 10
18.04333183752118
 20
63.05907250923018
 30
0.0
 10
18.04220704011118
 20
63.07143180612017
 30
0.0
  0
LINE
  5
F8
330
1F
100
AcDbEntity
  8
IGES_LEVEL_0
 62
     7
100
AcDbLine
 10
18.47896853130118
 20
63.08750402705018
 30
0.0
 11
18.47825680163118
 21
63.07171921505018
 31
0.0
  0
SPLINE
  5
F9
330
1F
100
AcDbEntity
  8
IGES_LEVEL_0
 62
     7
100
AcDbSpline
210
0.0
220
0.0
230
1.0
 70
     8
 71
     3
 72
    14
 73
    10
 74
     0
 42
0.0000000001
 43
0.0000000001
 40
0.0
 40
0.0
 40
0.0
 40
0.0
 40
0.05003130123232
 40
0.2021482249757
 40
0.3550805880971
 40
0.513205313924
 40
0.6762292817262
 40
0.8385804013829
 40
1.0
 40
1.0
 40
1.0
 40
1.0
 10
18.87481640677118
 20
67.48057621853018
 30
0.0
 10
18.87436269663118
 20
67.47539662312018
 30
0.0
 10
18.87163164647118
 20
67.45454284269017
 30
0.0
 10
18.86051774138118
 20
67.41909554967018
 30
0.0
 10
18.83489840782118
 20
67.37796722831018
 30
0.0
 10
18.79919809072118
 20
67.34358355468018
 30
0.0
 10
18.75558883062118
 20
67.31809964862018
 30
0.0
 10
18.70722387391118
 20
67.30270506517019
 30
0.0
 10
18.67363487933118
 20
67.29916803275017
 30
0.0
 10
18.65692406869118
 20
67.29903005788017
 30
0.0
  0
LINE
  5
FA
330
1F
100
AcDbEntity
  8
IGES_LEVEL_0
 62
     7
100
AcDbLine
 10
18.87542061395118
 20
67.49074642357019
 30
0.0
 11
18.87481640677118
 21
67.48057621853018
 31
0.0
  0
LINE
  5
FB
330
1F
100
AcDbEntity
  8
IGES_LEVEL_0
 62
     7
100
AcDbLine
 10
18.87550904287118
 20
67.49623456648018
 30
0.0
 11
18.87542061395118
 21
67.49074642357019
 31
0.0
  0
LINE
  5
FC
330
1F
100
AcDbEntity
  8
IGES_LEVEL_0
 62
     7
100
AcDbLine
 10
18.81606561333118
 20
62.35375228301017
 30
0.0
 11
18.81610374159118
 21
62.36747252132017
 31
0.0
  0
SPLINE
  5
FD
330
1F
100
AcDbEntity
  8
IGES_LEVEL_0
 62
     7
100
AcDbSpline
210
0.0
220
0.0
230
1.0
 70
     8
 71
     3
 72
    12
 73
     8
 74
     0
 42
0.0000000001
 43
0.0000000001
 40
0.0
 40
0.0
 40
0.0
 40
0.0
 40
0.1742064713072
 40
0.3690072737861
 40
0.5896578433631
 40
0.8310313367276
 40
1.0
 40
1.0
 40
1.0
 40
1.0
 10
18.74754701731118
 20
61.99472692582017
 30
0.0
 10
18.75851949226118
 20
62.01323807210018
 30
0.0
 10
18.77715014961118
 20
62.05485213627018
 30
0.0
 10
18.79638651709118
 20
62.12503672129018
 30
0.0
 10
18.80898721987118
 20
62.20498072930018
 30
0.0
 10
18.81474448277118
 20
62.28246953886018
 30
0.0
 10
18.81593119434118
 20
62.33296029938018
 30
0.0
 10
18.81606561333118
 20
62.35375228301017
 30
0.0
  0
LINE
  5
FE
330
1F
100
AcDbEntity
  8
IGES_LEVEL_0
 62
     7
100
AcDbLine
 10
18.73624574939118
 20
61.97724511877018
 30
0.0
 11
18.74754701731118
 21
61.99472692582017
 31
0.0
  0
LINE
  5
FF
330
1F
100
AcDbEntity
  8
IGES_LEVEL_0
 62
     7
100
AcDbLine
 10
18.73208319486118
 20
61.97153357862018
 30
0.0
 11
18.73624574939118
 21
61.97724511877018
 31
0.0
  0
LINE
  5
100
330
1F
100
AcDbEntity
  8
IGES_LEVEL_0
 62
     7
100
AcDbLine
 10
19.10627722287118
 20
64.67109943743019
 30
0.0
 11
19.13554331491118
 21
64.67245814610018
 31
0.0
  0
SPLINE
  5
101
330
1F
100
AcDbEntity
  8
IGES_LEVEL_0
 62
     7
100
AcDbSpline
210
0.0
220
0.0
230
1.0
 70
     8
 71
     3
 72
    13
 73
     9
 74
     0
 42
0.0000000001
 43
0.0000000001
 40
0.0
 40
0.0
 40
0.0
 40
0.0
 40
0.1624870443302
 40
0.3437886405068
 40
0.5378151822675
 40
0.7384292284755
 40
0.9363753856571
 40
1.0
 40
1.0
 40
1.0
 40
1.0
 10
18.81848897414118
 20
64.44595150240018
 30
0.0
 10
18.82275004651118
 20
64.46667053947019
 30
0.0
 10
18.83870664463118
 20
64.50888701104019
 30
0.0
 10
18.87966483552118
 20
64.56622769630017
 30
0.0
 10
18.93711105919118
 20
64.61506141489018
 30
0.0
 10
19.00605512810118
 20
64.65036250587018
 30
0.0
 10
19.06427334474118
 20
64.66616347900018
 30
0.0
 10
19.09803997491118
 20
64.67036763784019
 30
0.0
 10
19.10627722287118
 20
64.67109943743019
 30
0.0
  0
LINE
  5
102
330
1F
100
AcDbEntity
  8
IGES_LEVEL_0
 62
     7
100
AcDbLine
 10
18.81458857126118
 20
64.41315945852018
 30
0.0
 11
18.81848897414118
 21
64.44595150240018
 31
0.0
  0
LINE
  5
103
330
1F
100
AcDbEntity
  8
IGES_LEVEL_0
 62
     7
100
AcDbLine
 10
18.81449405931118
 20
64.40744661189018
 30
0.0
 11
18.81458857126118
 21
64.41315945852018
 31
0.0
  0
LINE
  5
104
330
1F
100
AcDbEntity
  8
IGES_LEVEL_0
 62
     7
100
AcDbLine
 10
19.16759673903118
 20
64.67249668509018
 30
0.0
 11
19.19338863717118
 21
64.67241673283019
 31
0.0
  0
LINE
  5
105
330
1F
100
AcDbEntity
  8
IGES_LEVEL_0
 62
     7
100
AcDbLine
 10
19.14550400838118
 20
64.67248859938017
 30
0.0
 11
19.16759673903118
 21
64.67249668509018
 31
0.0
  0
LINE
  5
106
330
1F
100
AcDbEntity
  8
IGES_LEVEL_0
 62
     7
100
AcDbLine
 10
19.13554323522118
 20
64.67246098266018
 30
0.0
 11
19.14550400838118
 21
64.67248859938017
 31
0.0
  0
LINE
  5
107
330
1F
100
AcDbEntity
  8
IGES_LEVEL_0
 62
     7
100
AcDbLine
 10
19.23484968867118
 20
64.67220885477018
 30
0.0
 11
19.26798877098118
 21
64.67203383220019
 31
0.0
  0
LINE
  5
108
330
1F
100
AcDbEntity
  8
IGES_LEVEL_0
 62
     7
100
AcDbLine
 10
19.21964295472118
 20
64.67228625171018
 30
0.0
 11
19.23484968867118
 21
64.67220885477018
 31
0.0
  0
LINE
  5
109
330
1F
100
AcDbEntity
  8
IGES_LEVEL_0
 62
     7
100
AcDbLine
 10
19.20397682338118
 20
64.67236450962018
 30
0.0
 11
19.21964295472118
 21
64.67228625171018
 31
0.0
  0
LINE
  5
10A
330
1F
100
AcDbEntity
  8
IGES_LEVEL_0
 62
     7
100
AcDbLine
 10
19.19338864039118
 20
64.67241672705018
 30
0.0
 11
19.20397682338118
 21
64.67236450962018
 31
0.0
  0
LINE
  5
10B
330
1F
100
AcDbEntity
  8
IGES_LEVEL_0
 62
     7
100
AcDbLine
 10
17.69950135420118
 20
64.68617919024018
 30
0.0
 11
17.69941393433118
 21
64.68324918500018
 31
0.0
  0
ARC
  5
10C
330
1F
100
AcDbEntity
  8
IGES_LEVEL_0
 62
     7
100
AcDbCircle
 10
10.79876745386406
 20
64.83732549088201
 30
0.0
 40
6.902388975380888
100
AcDbArc
 50
358.745255100796
 51
0.5596344174182713
  0
LINE
  5
10D
330
1F
100
AcDbEntity
  8
IGES_LEVEL_0
 62
     7
100
AcDbLine
 10
17.70080902897118
 20
64.91959809740018
 30
0.0
 11
17.70082717639118
 21
64.90474324914018
 31
0.0
  0
LINE
  5
10E
330
1F
100
AcDbEntity
  8
IGES_LEVEL_0
 62
     7
100
AcDbLine
 10
17.70080456782118
 20
64.92344951219017
 30
0.0
 11
17.70080717588118
 21
64.91959233530018
 31
0.0
  0
LINE
  5
10F
330
1F
100
AcDbEntity
  8
IGES_LEVEL_0
 62
     7
100
AcDbLine
 10
17.69991712945118
 20
66.24160198040018
 30
0.0
 11
17.70080456782118
 21
64.92344951219017
 31
0.0
  0
LINE
  5
110
330
1F
100
AcDbEntity
  8
IGES_LEVEL_0
 62
     7
100
AcDbLine
 10
17.69995971311118
 20
66.24562335354018
 30
0.0
 11
17.69995618070118
 21
66.24160882425018
 31
0.0
  0
ARC
  5
111
330
1F
100
AcDbEntity
  8
IGES_LEVEL_0
 62
     7
100
AcDbCircle
 10
19.65988974644174
 20
66.23972830225821
 30
0.0
 40
1.95993889883862
100
AcDbArc
 50
161.9638751735856
 51
179.8276670420985
  0
LINE
  5
112
330
1F
100
AcDbEntity
  8
IGES_LEVEL_0
 62
     7
100
AcDbLine
 10
17.79735411089118
 20
66.84991942020018
 30
0.0
 11
17.79625931903118
 21
66.84655786417018
 31
0.0
  0
LINE
  5
113
330
1F
100
AcDbEntity
  8
IGES_LEVEL_0
 62
     7
100
AcDbLine
 10
17.70074924493118
 20
64.63490931236018
 30
0.0
 11
17.70089605946118
 21
64.63054085828019
 31
0.0
  0
LINE
  5
114
330
1F
100
AcDbEntity
  8
IGES_LEVEL_0
 62
     7
100
AcDbLine
 10
17.70058904465118
 20
64.63950626725018
 30
0.0
 11
17.70074924493118
 21
64.63490931236018
 31
0.0
  0
LINE
  5
115
330
1F
100
AcDbEntity
  8
IGES_LEVEL_0
 62
     7
100
AcDbLine
 10
17.70031595357118
 20
64.64696056306018
 30
0.0
 11
17.70058904465118
 21
64.63950626725018
 31
0.0
  0
LINE
  5
116
330
1F
100
AcDbEntity
  8
IGES_LEVEL_0
 62
     7
100
AcDbLine
 10
17.69958673591118
 20
64.66500052824019
 30
0.0
 11
17.70031595357118
 21
64.64696056306018
 31
0.0
  0
LINE
  5
117
330
1F
100
AcDbEntity
  8
IGES_LEVEL_0
 62
     7
100
AcDbLine
 10
17.69942548933118
 20
64.66869564301018
 30
0.0
 11
17.69958673591118
 21
64.66500052824019
 31
0.0
  0
LINE
  5
118
330
1F
100
AcDbEntity
  8
IGES_LEVEL_0
 62
     7
100
AcDbLine
 10
17.70148282229118
 20
64.61173532360019
 30
0.0
 11
17.70159238807118
 21
64.60795350679018
 31
0.0
  0
LINE
  5
119
330
1F
100
AcDbEntity
  8
IGES_LEVEL_0
 62
     7
100
AcDbLine
 10
17.70127385091118
 20
64.61872135848019
 30
0.0
 11
17.70148282229118
 21
64.61173532360019
 31
0.0
  0
LINE
  5
11A
330
1F
100
AcDbEntity
  8
IGES_LEVEL_0
 62
     7
100
AcDbLine
 10
17.70106193725118
 20
64.62549367455019
 30
0.0
 11
17.70127385091118
 21
64.61872135848019
 31
0.0
  0
LINE
  5
11B
330
1F
100
AcDbEntity
  8
IGES_LEVEL_0
 62
     7
100
AcDbLine
 10
17.70089725743118
 20
64.63053945869018
 30
0.0
 11
17.70106193725118
 21
64.62549367455019
 31
0.0
  0
LINE
  5
11C
330
1F
100
AcDbEntity
  8
IGES_LEVEL_0
 62
     7
100
AcDbLine
 10
17.70364708703118
 20
64.41801231842018
 30
0.0
 11
17.70365833236118
 21
64.40668750535018
 31
0.0
  0
LINE
  5
11D
330
1F
100
AcDbEntity
  8
IGES_LEVEL_0
 62
     7
100
AcDbLine
 10
17.70231797777118
 20
64.58048745950018
 30
0.0
 11
17.70364708703118
 21
64.41801231842018
 31
0.0
  0
LINE
  5
11E
330
1F
100
AcDbEntity
  8
IGES_LEVEL_0
 62
     7
100
AcDbLine
 10
17.70168871816118
 20
64.60465335831019
 30
0.0
 11
17.70231797777118
 21
64.58048745950018
 31
0.0
  0
LINE
  5
11F
330
1F
100
AcDbEntity
  8
IGES_LEVEL_0
 62
     7
100
AcDbLine
 10
17.70159489642118
 20
64.60793906639019
 30
0.0
 11
17.70168871816118
 21
64.60465335831019
 31
0.0
  0
LINE
  5
120
330
1F
100
AcDbEntity
  8
IGES_LEVEL_0
 62
     7
100
AcDbLine
 10
17.78675151998118
 20
61.97508315495018
 30
0.0
 11
17.78982378623118
 21
61.97091387531017
 31
0.0
  0
LINE
  5
121
330
1F
100
AcDbEntity
  8
IGES_LEVEL_0
 62
     7
100
AcDbLine
 10
17.77322387211118
 20
61.99597262099018
 30
0.0
 11
17.78675151998118
 21
61.97508315495018
 31
0.0
  0
SPLINE
  5
122
330
1F
100
AcDbEntity
  8
IGES_LEVEL_0
 62
     7
100
AcDbSpline
210
0.0
220
0.0
230
1.0
 70
     8
 71
     3
 72
    12
 73
     8
 74
     0
 42
0.0000000001
 43
0.0000000001
 40
0.0
 40
0.0
 40
0.0
 40
0.0
 40
0.1689259701175
 40
0.4101980743379
 40
0.630828956846
 40
0.8257393325349
 40
1.0
 40
1.0
 40
1.0
 40
1.0
 10
17.70524784464118
 20
62.35469836867018
 30
0.0
 10
17.70539613695118
 20
62.33393953475018
 30
0.0
 10
17.70660838646118
 20
62.28353481389018
 30
0.0
 10
17.71236532828118
 20
62.20617139558018
 30
0.0
 10
17.72489185150118
 20
62.12632922093017
 30
0.0
 10
17.74395845970118
 20
62.05618640347018
 30
0.0
 10
17.76238530175118
 20
62.01453406755018
 30
0.0
 10
17.77322387211118
 20
61.99597262099018
 30
0.0
  0
LINE
  5
123
330
1F
100
AcDbEntity
  8
IGES_LEVEL_0
 62
     7
100
AcDbLine
 10
17.70520064027118
 20
62.36671172407018
 30
0.0
 11
17.70524784464118
 21
62.35469836867018
 31
0.0
  0
LINE
  5
124
330
1F
100
AcDbEntity
  8
IGES_LEVEL_0
 62
     7
100
AcDbLine
 10
19.29191718345118
 20
64.90766935362018
 30
0.0
 11
19.29131240547118
 21
64.92119397686018
 31
0.0
  0
LINE
  5
125
330
1F
100
AcDbEntity
  8
IGES_LEVEL_0
 62
     7
100
AcDbLine
 10
19.30174114876118
 20
64.75666612001018
 30
0.0
 11
19.29191718345118
 21
64.90766935362018
 31
0.0
  0
LINE
  5
126
330
1F
100
AcDbEntity
  8
IGES_LEVEL_0
 62
     7
100
AcDbLine
 10
19.30273411453118
 20
64.72219793963018
 30
0.0
 11
19.30174114876118
 21
64.75666612001018
 31
0.0
  0
ARC
  5
127
330
1F
100
AcDbEntity
  8
IGES_LEVEL_0
 62
     7
100
AcDbCircle
 10
19.23949039615189
 20
64.71992108862906
 30
0.0
 40
0.0631560200378901
100
AcDbArc
 50
314.5285436069415
 51
354.9091617552804
  0
LINE
  5
128
330
1F
100
AcDbEntity
  8
IGES_LEVEL_0
 62
     7
100
AcDbLine
 10
19.30273526157118
 20
64.72209154615018
 30
0.0
 11
19.30239728256118
 21
64.71431693755018
 31
0.0
  0
LINE
  5
129
330
1F
100
AcDbEntity
  8
IGES_LEVEL_0
 62
     7
100
AcDbLine
 10
19.29128323600118
 20
64.92450876883018
 30
0.0
 11
19.24018330211118
 21
66.24318841227019
 31
0.0
  0
LINE
  5
12A
330
1F
100
AcDbEntity
  8
IGES_LEVEL_0
 62
     7
100
AcDbLine
 10
19.29141097963118
 20
64.92121189995018
 30
0.0
 11
19.29128323600118
 21
64.92450876883018
 31
0.0
  0
SPLINE
  5
12B
330
1F
100
AcDbEntity
  8
IGES_LEVEL_0
 62
     7
100
AcDbSpline
210
0.0
220
0.0
230
1.0
 70
     8
 71
     3
 72
    13
 73
     9
 74
     0
 42
0.0000000001
 43
0.0000000001
 40
0.0
 40
0.0
 40
0.0
 40
0.0
 40
0.1165202693271
 40
0.2923367297038
 40
0.4705910747561
 40
0.6518556492232001
 40
0.8363423919315
 40
1.0
 40
1.0
 40
1.0
 40
1.0
 10
19.23955423588118
 20
66.27804230165017
 30
0.0
 10
19.23977235714118
 20
66.31316480465019
 30
0.0
 10
19.24643505851118
 20
66.40135380535018
 30
0.0
 10
19.28137000508118
 20
66.53958820948019
 30
0.0
 10
19.35231756540118
 20
66.68546281691017
 30
0.0
 10
19.45195373138118
 20
66.81667198968017
 30
0.0
 10
19.57131725067118
 20
66.92354241485018
 30
0.0
 10
19.66057013334118
 20
66.97946235288018
 30
0.0
 10
19.70422120837118
 20
67.00233265091018
 30
0.0
  0
LINE
  5
12C
330
1F
100
AcDbEntity
  8
IGES_LEVEL_0
 62
     7
100
AcDbLine
 10
19.24001156135118
 20
66.24661362841017
 30
0.0
 11
19.23955423588118
 21
66.27804230165017
 31
0.0
  0
LINE
  5
12D
330
1F
100
AcDbEntity
  8
IGES_LEVEL_0
 62
     7
100
AcDbLine
 10
19.24014001548118
 20
66.24320289854018
 30
0.0
 11
19.24001156135118
 21
66.24661362841017
 31
0.0
  0
ARC
  5
12E
330
1F
100
AcDbEntity
  8
IGES_LEVEL_0
 62
     7
100
AcDbCircle
 10
19.58128011393867
 20
67.25031392835915
 30
0.0
 40
0.2762136052088713
100
AcDbArc
 50
303.0447367387511
 51
2.249242506197871
  0
LINE
  5
12F
330
1F
100
AcDbEntity
  8
IGES_LEVEL_0
 62
     7
100
AcDbLine
 10
19.71198019540118
 20
67.00655943556018
 30
0.0
 11
19.73189765430118
 21
67.01877923930019
 31
0.0
  0
LINE
  5
130
330
1F
100
AcDbEntity
  8
IGES_LEVEL_0
 62
     7
100
AcDbLine
 10
19.70421610963118
 20
67.00234626243018
 30
0.0
 11
19.71198019540118
 21
67.00655943556018
 31
0.0
  0
ARC
  5
131
330
1F
100
AcDbEntity
  8
IGES_LEVEL_0
 62
     7
100
AcDbCircle
 10
19.26867724772311
 20
64.71319227100868
 30
0.0
 40
0.0411654982927609
100
AcDbArc
 50
269.0420338887703
 51
291.5224674597779
  0
LINE
  5
132
330
1F
100
AcDbEntity
  8
IGES_LEVEL_0
 62
     7
100
AcDbLine
 10
17.69744436848118
 20
64.64808122182018
 30
0.0
 11
17.69643709863118
 21
64.65458238335017
 31
0.0
  0
LINE
  5
133
330
1F
100
AcDbEntity
  8
IGES_LEVEL_0
 62
     7
100
AcDbLine
 10
17.69948940761118
 20
64.64165342803018
 30
0.0
 11
17.69744436848118
 21
64.64808122182018
 31
0.0
  0
LINE
  5
134
330
1F
100
AcDbEntity
  8
IGES_LEVEL_0
 62
     7
100
AcDbLine
 10
17.70045384419118
 20
64.63944351207019
 30
0.0
 11
17.69948940761118
 21
64.64165342803018
 31
0.0
  0
LINE
  5
135
330
1F
100
AcDbEntity
  8
IGES_LEVEL_0
 62
     7
100
AcDbLine
 10
18.36019836504118
 20
63.05737495431018
 30
0.0
 11
18.36023128148118
 21
63.05966878856017
 31
0.0
  0
LINE
  5
136
330
1F
100
AcDbEntity
  8
IGES_LEVEL_0
 62
     7
100
AcDbLine
 10
18.36011296428118
 20
63.05525769478017
 30
0.0
 11
18.36019836504118
 21
63.05737495431018
 31
0.0
  0
LINE
  5
137
330
1F
100
AcDbEntity
  8
IGES_LEVEL_0
 62
     7
100
AcDbLine
 10
18.35950599621118
 20
63.04862368619018
 30
0.0
 11
18.36011296428118
 21
63.05525769478017
 31
0.0
  0
SPLINE
  5
138
330
1F
100
AcDbEntity
  8
IGES_LEVEL_0
 62
     7
100
AcDbSpline
210
0.0
220
0.0
230
1.0
 70
     8
 71
     3
 72
    16
 73
    12
 74
     0
 42
0.0000000001
 43
0.0000000001
 40
0.0
 40
0.0
 40
0.0
 40
0.0
 40
0.1071947350318
 40
0.2218989356543
 40
0.3385758952163
 40
0.4568673670708
 40
0.5757616636133
 40
0.6940351656135
 40
0.8106850912926
 40
0.9253663585516
 40
1.0
 40
1.0
 40
1.0
 40
1.0
 10
18.16025139880118
 20
63.05789403485018
 30
0.0
 10
18.16047664932118
 20
63.04756527409018
 30
0.0
 10
18.16485579691118
 20
63.02607978097018
 30
0.0
 10
18.18271233818118
 20
62.99797972437018
 30
0.0
 10
18.20999018122118
 20
62.97712864819017
 30
0.0
 10
18.24290551888118
 20
62.96622614805018
 30
0.0
 10
18.27771399909118
 20
62.96625058023017
 30
0.0
 10
18.31060972542118
 20
62.97719858469018
 30
0.0
 10
18.33785158936118
 20
62.99808610377018
 30
0.0
 10
18.35394881223118
 20
63.02350491146018
 30
0.0
 10
18.35857290550118
 20
63.04145874044018
 30
0.0
 10
18.35950599621118
 20
63.04862368619018
 30
0.0
  0
LINE
  5
139
330
1F
100
AcDbEntity
  8
IGES_LEVEL_0
 62
     7
100
AcDbLine
 10
18.16023133218118
 20
63.05966711904018
 30
0.0
 11
18.16025139880118
 21
63.05789403485018
 31
0.0
  0
LINE
  5
13A
330
1F
100
AcDbEntity
  8
IGES_LEVEL_0
 62
     7
100
AcDbLine
 10
18.75659779635118
 20
67.41763525476019
 30
0.0
 11
18.75676566119118
 21
67.42290402688018
 31
0.0
  0
LINE
  5
13B
330
1F
100
AcDbEntity
  8
IGES_LEVEL_0
 62
     7
100
AcDbLine
 10
18.75604035529118
 20
67.41185876982019
 30
0.0
 11
18.75659779635118
 21
67.41763525476019
 31
0.0
  0
SPLINE
  5
13C
330
1F
100
AcDbEntity
  8
IGES_LEVEL_0
 62
     7
100
AcDbSpline
210
0.0
220
0.0
230
1.0
 70
     8
 71
     3
 72
    16
 73
    12
 74
     0
 42
0.0000000001
 43
0.0000000001
 40
0.0
 40
0.0
 40
0.0
 40
0.0
 40
0.1126395521773
 40
0.2266441247544
 40
0.3426094207193
 40
0.4601793820857
 40
0.5783484964929
 40
0.6959006112618
 40
0.8118390604893
 40
0.9258208605905
 40
1.0
 40
1.0
 40
1.0
 40
1.0
 10
18.55676571189118
 20
67.42290235802018
 30
0.0
 10
18.55677444033118
 20
67.41199112993019
 30
0.0
 10
18.56106654831118
 20
67.38982432495018
 30
0.0
 10
18.57924666129118
 20
67.36121503233018
 30
0.0
 10
18.60652444385118
 20
67.34036395427017
 30
0.0
 10
18.63943972088118
 20
67.32946142032019
 30
0.0
 10
18.67424815527118
 20
67.32948578803018
 30
0.0
 10
18.70714386517118
 20
67.34043370266018
 30
0.0
 10
18.73438575533118
 20
67.36132111876017
 30
0.0
 10
18.75048308581118
 20
67.38673989567018
 30
0.0
 10
18.75510724342118
 20
67.40469376466018
 30
0.0
 10
18.75604035529118
 20
67.41185876982019
 30
0.0
  0
ARC
  5
13D
330
1F
100
AcDbEntity
  8
IGES_LEVEL_0
 62
     7
100
AcDbCircle
 10
18.6912155288241
 20
62.00209499479046
 30
0.0
 40
0.0510489360506752
100
AcDbArc
 50
282.5066135700839
 51
323.2116449833594
  0
ARC
  5
13E
330
1F
100
AcDbEntity
  8
IGES_LEVEL_0
 62
     7
100
AcDbCircle
 10
18.69143359582416
 20
62.00252660552098
 30
0.0
 40
0.0514239947615023
100
AcDbArc
 50
205.5523757974035
 51
282.1652715637186
  0
LINE
  5
13F
330
1F
100
AcDbEntity
  8
IGES_LEVEL_0
 62
     7
100
AcDbLine
 10
18.64040471381118
 20
61.98822540116018
 30
0.0
 11
18.64486488562118
 21
61.98072445383018
 31
0.0
  0
SPLINE
  5
140
330
1F
100
AcDbEntity
  8
IGES_LEVEL_0
 62
     7
100
AcDbSpline
210
0.0
220
0.0
230
1.0
 70
     8
 71
     3
 72
    19
 73
    15
 74
     0
 42
0.0000000001
 43
0.0000000001
 40
0.0
 40
0.0
 40
0.0
 40
0.0
 40
0.01021870544168
 40
0.06989668618067
 40
0.1517362508124
 40
0.2528608266734
 40
0.3678159847157
 40
0.4900581638497
 40
0.6124679970435
 40
0.7278972257319
 40
0.8297342953441
 40
0.9123384690700001
 40
0.9725642042007
 40
1.0
 40
1.0
 40
1.0
 40
1.0
 10
17.89022488191118
 20
61.99811825344018
 30
0.0
 10
17.89213696333118
 20
62.00007949350017
 30
0.0
 10
17.90575608083118
 20
62.01301164414018
 30
0.0
 10
17.93959646931118
 20
62.03496273390018
 30
0.0
 10
17.99921456497118
 20
62.05987750498018
 30
0.0
 10
18.07566792695118
 20
62.08014065587017
 30
0.0
 10
18.16448590291118
 20
62.09337009369018
 30
0.0
 10
18.25978193432118
 20
62.09805936245018
 30
0.0
 10
18.35522025205118
 20
62.09371742178018
 30
0.0
 10
18.44444274089118
 20
62.08076884716018
 30
0.0
 10
18.52147305948118
 20
62.06066384807018
 30
0.0
 10
18.58168184761118
 20
62.03576038478018
 30
0.0
 10
18.61973373750118
 20
62.01125037814018
 30
0.0
 10
18.63625063619118
 20
61.99419749619018
 30
0.0
 10
18.64040471381118
 20
61.98822540116018
 30
0.0
  0
ARC
  5
141
330
1F
100
AcDbEntity
  8
IGES_LEVEL_0
 62
     7
100
AcDbCircle
 10
17.94052826964241
 20
61.94732608647692
 30
0.0
 40
0.0714861877712167
100
AcDbArc
 50
134.7229871383963
 51
152.6513689966926
  0
ARC
  5
142
330
1F
100
AcDbEntity
  8
IGES_LEVEL_0
 62
     7
100
AcDbCircle
 10
17.83044246714301
 20
62.00199262270754
 30
0.0
 40
0.051455174009968
100
AcDbArc
 50
258.7488056657417
 51
334.5627346666572
  0
ARC
  5
143
330
1F
100
AcDbEntity
  8
IGES_LEVEL_0
 62
     7
100
AcDbCircle
 10
17.83062166336558
 20
62.00141973473919
 30
0.0
 40
0.0509290710190869
100
AcDbArc
 50
237.9428713271224
 51
258.4253306915743
  0
LINE
  5
144
330
1F
100
AcDbEntity
  8
IGES_LEVEL_0
 62
     7
100
AcDbLine
 10
17.79445382475118
 20
61.96556435229018
 30
0.0
 11
17.80359031661118
 21
61.95825636407017
 31
0.0
  0
LINE
  5
145
330
1F
100
AcDbEntity
  8
IGES_LEVEL_0
 62
     7
100
AcDbLine
 10
17.78982196093118
 20
61.97091241227017
 30
0.0
 11
17.79445382475118
 21
61.96556435229018
 31
0.0
  0
LINE
  5
146
330
1F
100
AcDbEntity
  8
IGES_LEVEL_0
 62
     7
100
AcDbLine
 10
18.43809722754118
 20
67.47281655199018
 30
0.0
 11
18.43800432974118
 21
67.47808876478018
 31
0.0
  0
LINE
  5
147
330
1F
100
AcDbEntity
  8
IGES_LEVEL_0
 62
     7
100
AcDbLine
 10
18.43823659111118
 20
67.46973145055019
 30
0.0
 11
18.43809722754118
 21
67.47281655199018
 31
0.0
  0
LINE
  5
148
330
1F
100
AcDbEntity
  8
IGES_LEVEL_0
 62
     7
100
AcDbLine
 10
18.43987669900118
 20
67.45433040865018
 30
0.0
 11
18.43823659111118
 21
67.46973145055019
 31
0.0
  0
SPLINE
  5
149
330
1F
100
AcDbEntity
  8
IGES_LEVEL_0
 62
     7
100
AcDbSpline
210
0.0
220
0.0
230
1.0
 70
     8
 71
     3
 72
    13
 73
     9
 74
     0
 42
0.0000000001
 43
0.0000000001
 40
0.0
 40
0.0
 40
0.0
 40
0.0
 40
0.1942842797973
 40
0.3918904058855
 40
0.5861380211992
 40
0.7712411477337
 40
0.9458772969642
 40
1.0
 40
1.0
 40
1.0
 40
1.0
 10
18.65692406869118
 20
67.29903005788017
 30
0.0
 10
18.63820334930118
 20
67.29887548796017
 30
0.0
 10
18.60028414294118
 20
67.30267497299018
 30
0.0
 10
18.54623029523118
 20
67.32062780213018
 30
0.0
 10
18.49863178186118
 20
67.35051899155018
 30
0.0
 10
18.46219993497118
 20
67.39057499261018
 30
0.0
 10
18.44529130224118
 20
67.42743933692019
 30
0.0
 10
18.44069601649118
 20
67.44915216847018
 30
0.0
 10
18.43987669900118
 20
67.45433040865018
 30
0.0
  0
SPLINE
  5
14A
330
1F
100
AcDbEntity
  8
IGES_LEVEL_0
 62
     7
100
AcDbSpline
210
0.0
220
0.0
230
1.0
 70
     8
 71
     3
 72
    23
 73
    19
 74
     0
 42
0.0000000001
 43
0.0000000001
 40
0.0
 40
0.0
 40
0.0
 40
0.0
 40
0.05766632651516
 40
0.1206192915801
 40
0.183375631422
 40
0.2462769922953
 40
0.3102816606885
 40
0.3749590759935
 40
0.4402334860536
 40
0.5054092559796
 40
0.5702713380435001
 40
0.6342174665889
 40
0.6969583393904
 40
0.7589366819905
 40
0.8205296177222
 40
0.8822072212783
 40
0.9436437828217
 40
1.0
 40
1.0
 40
1.0
 40
1.0
 10
12.48410111427318
 20
53.32162839909018
 30
0.0
 10
12.48410111427318
 20
53.33510997949018
 30
0.0
 10
12.48724444431218
 20
53.36336402308018
 30
0.0
 10
12.50009576297118
 20
53.40450096881018
 30
0.0
 10
12.52027870594618
 20
53.44392322751018
 30
0.0
 10
12.54651752132018
 20
53.47988610340018
 30
0.0
 10
12.57844677086818
 20
53.51158577495018
 30
0.0
 10
12.61592384247118
 20
53.53758486255018
 30
0.0
 10
12.65832203860518
 20
53.55547099507017
 30
0.0
 10
12.70400441818018
 20
53.56238850900018
 30
0.0
 10
12.74956427548118
 20
53.55681942484018
 30
0.0
 10
12.79162796599418
 20
53.54031425987018
 30
0.0
 10
12.82861347778618
 20
53.51578406618017
 30
0.0
 10
12.86016066602118
 20
53.48544746320017
 30
0.0
 10
12.88615132835318
 20
53.45056994591018
 30
0.0
 10
12.90606640294318
 20
53.41202361363018
 30
0.0
 10
12.91859691269918
 20
53.37173875440018
 30
0.0
 10
12.92160111427318
 20
53.34414376775018
 30
0.0
 10
12.92160111427318
 20
53.33096847259018
 30
0.0
  0
LINE
  5
14B
330
1F
100
AcDbEntity
  8
IGES_LEVEL_0
 62
     7
100
AcDbLine
 10
12.91823622751418
 20
53.33364146627018
 30
0.0
 11
12.92074068453918
 21
53.31643633926018
 31
0.0
  0
SPLINE
  5
14C
330
1F
100
AcDbEntity
  8
IGES_LEVEL_0
 62
     7
100
AcDbSpline
210
0.0
220
0.0
230
1.0
 70
     8
 71
     3
 72
    19
 73
    15
 74
     0
 42
0.0000000001
 43
0.0000000001
 40
0.0
 40
0.0
 40
0.0
 40
0.0
 40
0.02943315148191
 40
0.1196650935563
 40
0.2118687349599
 40
0.306297897008
 40
0.4026128738427
 40
0.5
 40
0.5973871261573001
 40
0.693702102992
 40
0.7881312650401
 40
0.8803349064437001
 40
0.9705668485181
 40
1.0
 40
1.0
 40
1.0
 40
1.0
 10
12.48746600103118
 20
53.33364146627018
 30
0.0
 10
12.48856531502118
 20
53.33930662834018
 30
0.0
 10
12.49411426463418
 20
53.36213538578018
 30
0.0
 10
12.51154363912818
 20
53.40020502463018
 30
0.0
 10
12.54689261805718
 20
53.44193699944018
 30
0.0
 10
12.59272707277618
 20
53.47379798202018
 30
0.0
 10
12.64590077622918
 20
53.49375874875017
 30
0.0
 10
12.70285111427318
 20
53.50055409877017
 30
0.0
 10
12.75980145231618
 20
53.49375874875017
 30
0.0
 10
12.81297515577018
 20
53.47379798202018
 30
0.0
 10
12.85880961048818
 20
53.44193699944018
 30
0.0
 10
12.89415858941818
 20
53.40020502463018
 30
0.0
 10
12.91158796391118
 20
53.36213538578018
 30
0.0
 10
12.91713691352418
 20
53.33930662834018
 30
0.0
 10
12.91823622751418
 20
53.33364146627018
 30
0.0
  0
LINE
  5
14D
330
1F
100
AcDbEntity
  8
IGES_LEVEL_0
 62
     7
100
AcDbLine
 10
12.48496154400618
 20
53.31643633926018
 30
0.0
 11
12.48746600103118
 21
53.33364146627018
 31
0.0
  0
SPLINE
  5
14E
330
1F
100
AcDbEntity
  8
IGES_LEVEL_0
 62
     7
100
AcDbSpline
210
0.0
220
0.0
230
1.0
 70
     8
 71
     3
 72
    17
 73
    13
 74
     0
 42
0.0000000001
 43
0.0000000001
 40
0.0
 40
0.0
 40
0.0
 40
0.0
 40
0.09556919041031
 40
0.1928755074679
 40
0.292928694855
 40
0.3956553285647
 40
0.5
 40
0.6043446714353
 40
0.7070713051450001
 40
0.8071244925321
 40
0.9044308095897
 40
1.0
 40
1.0
 40
1.0
 40
1.0
 10
12.60285111427318
 20
53.29883645803018
 30
0.0
 10
12.60285111427318
 20
53.30836859726018
 30
0.0
 10
12.60624420918918
 20
53.32776229857018
 30
0.0
 10
12.62087310469518
 20
53.35364892829018
 30
0.0
 10
12.64344972422518
 20
53.37404633120018
 30
0.0
 10
12.67168216170818
 20
53.38704325951018
 30
0.0
 10
12.70285111427318
 20
53.39150637609018
 30
0.0
 10
12.73402006683718
 20
53.38704325951018
 30
0.0
 10
12.76225250432018
 20
53.37404633120018
 30
0.0
 10
12.78482912385018
 20
53.35364892829018
 30
0.0
 10
12.79945801935718
 20
53.32776229857018
 30
0.0
 10
12.80285111427318
 20
53.30836859726018
 30
0.0
 10
12.80285111427318
 20
53.29883645803018
 30
0.0
  0
LINE
  5
14F
330
1F
100
AcDbEntity
  8
IGES_LEVEL_0
 62
     7
100
AcDbLine
 10
8.73746600103118
 20
53.33364146627018
 30
0.0
 11
8.734961544006181
 21
53.31643633926018
 31
0.0
  0
SPLINE
  5
150
330
1F
100
AcDbEntity
  8
IGES_LEVEL_0
 62
     7
100
AcDbSpline
210
0.0
220
0.0
230
1.0
 70
     8
 71
     3
 72
    19
 73
    15
 74
     0
 42
0.0000000001
 43
0.0000000001
 40
0.0
 40
0.0
 40
0.0
 40
0.0
 40
0.02943315148191
 40
0.1196650935563
 40
0.2118687349599
 40
0.306297897008
 40
0.4026128738427
 40
0.5
 40
0.5973871261573001
 40
0.693702102992
 40
0.7881312650401
 40
0.8803349064437001
 40
0.9705668485181
 40
1.0
 40
1.0
 40
1.0
 40
1.0
 10
9.16823622751418
 20
53.33364146627018
 30
0.0
 10
9.16713691352418
 20
53.33930662834018
 30
0.0
 10
9.161587963911181
 20
53.36213538578018
 30
0.0
 10
9.144158589418181
 20
53.40020502463018
 30
0.0
 10
9.10880961048818
 20
53.44193699944018
 30
0.0
 10
9.062975155770181
 20
53.47379798202018
 30
0.0
 10
9.009801452316181
 20
53.49375874875017
 30
0.0
 10
8.95285111427318
 20
53.50055409877017
 30
0.0
 10
8.89590077622918
 20
53.49375874875017
 30
0.0
 10
8.842727072776182
 20
53.47379798202018
 30
0.0
 10
8.79689261805718
 20
53.44193699944018
 30
0.0
 10
8.761543639128181
 20
53.40020502463018
 30
0.0
 10
8.744114264634181
 20
53.36213538578018
 30
0.0
 10
8.73856531502118
 20
53.33930662834018
 30
0.0
 10
8.73746600103118
 20
53.33364146627018
 30
0.0
  0
LINE
  5
151
330
1F
100
AcDbEntity
  8
IGES_LEVEL_0
 62
     7
100
AcDbLine
 10
9.17074068453918
 20
53.31643633926018
 30
0.0
 11
9.16823622751418
 21
53.33364146627018
 31
0.0
  0
SPLINE
  5
152
330
1F
100
AcDbEntity
  8
IGES_LEVEL_0
 62
     7
100
AcDbSpline
210
0.0
220
0.0
230
1.0
 70
     8
 71
     3
 72
    17
 73
    13
 74
     0
 42
0.0000000001
 43
0.0000000001
 40
0.0
 40
0.0
 40
0.0
 40
0.0
 40
0.09556919041031
 40
0.1928755074679
 40
0.292928694855
 40
0.3956553285647
 40
0.5
 40
0.6043446714353
 40
0.7070713051450001
 40
0.8071244925321
 40
0.9044308095897
 40
1.0
 40
1.0
 40
1.0
 40
1.0
 10
9.052851114273182
 20
53.29883645803018
 30
0.0
 10
9.052851114273182
 20
53.30836859726018
 30
0.0
 10
9.04945801935718
 20
53.32776229857018
 30
0.0
 10
9.03482912385018
 20
53.35364892829018
 30
0.0
 10
9.01225250432018
 20
53.37404633120018
 30
0.0
 10
8.98402006683718
 20
53.38704325951018
 30
0.0
 10
8.95285111427318
 20
53.39150637609018
 30
0.0
 10
8.92168216170818
 20
53.38704325951018
 30
0.0
 10
8.893449724225182
 20
53.37404633120018
 30
0.0
 10
8.87087310469518
 20
53.35364892829018
 30
0.0
 10
8.85624420918918
 20
53.32776229857018
 30
0.0
 10
8.852851114273181
 20
53.30836859726018
 30
0.0
 10
8.852851114273181
 20
53.29883645803018
 30
0.0
  0
SPLINE
  5
153
330
1F
100
AcDbEntity
  8
IGES_LEVEL_0
 62
     7
100
AcDbSpline
210
0.0
220
0.0
230
1.0
 70
     8
 71
     3
 72
    23
 73
    19
 74
     0
 42
0.0000000001
 43
0.0000000001
 40
0.0
 40
0.0
 40
0.0
 40
0.0
 40
0.05635621717833
 40
0.1177927787217
 40
0.1794703822778
 40
0.2410633180095
 40
0.3030416606096
 40
0.3657825334111
 40
0.4297286619566
 40
0.4945907440204
 40
0.5597665139464
 40
0.6250409240065
 40
0.6897183393115
 40
0.7537230077047
 40
0.816624368578
 40
0.8793807084199
 40
0.9423336734848
 40
1.0
 40
1.0
 40
1.0
 40
1.0
 10
8.73410111427318
 20
53.33096847259018
 30
0.0
 10
8.73410111427318
 20
53.34414376775018
 30
0.0
 10
8.737105315846181
 20
53.37173875440018
 30
0.0
 10
8.74963582560218
 20
53.41202361363018
 30
0.0
 10
8.769550900192181
 20
53.45056994591018
 30
0.0
 10
8.79554156252418
 20
53.48544746320017
 30
0.0
 10
8.827088750759181
 20
53.51578406618017
 30
0.0
 10
8.864074262551181
 20
53.54031425987018
 30
0.0
 10
8.906137953064182
 20
53.55681942484018
 30
0.0
 10
8.951697810365181
 20
53.56238850900018
 30
0.0
 10
8.997380189940181
 20
53.55547099507017
 30
0.0
 10
9.039778386074181
 20
53.53758486255018
 30
0.0
 10
9.077255457677181
 20
53.51158577495018
 30
0.0
 10
9.109184707225181
 20
53.47988610340018
 30
0.0
 10
9.135423522600181
 20
53.44392322751018
 30
0.0
 10
9.155606465574181
 20
53.40450096881018
 30
0.0
 10
9.16845778423318
 20
53.36336402308018
 30
0.0
 10
9.17160111427318
 20
53.33510997949018
 30
0.0
 10
9.17160111427318
 20
53.32162839909018
 30
0.0
  0
SPLINE
  5
154
330
1F
100
AcDbEntity
  8
IGES_LEVEL_0
 62
     7
100
AcDbSpline
210
0.0
220
0.0
230
1.0
 70
     8
 71
     3
 72
    23
 73
    19
 74
     0
 42
0.0000000001
 43
0.0000000001
 40
0.0
 40
0.0
 40
0.0
 40
0.0
 40
0.06205974743355
 40
0.1238836741329
 40
0.1824601301076
 40
0.2404863163941
 40
0.3009559406419
 40
0.3656061052406
 40
0.4357748850942
 40
0.50927702755
 40
0.5823442452335
 40
0.6505152890423001
 40
0.7124578876928001
 40
0.7696006884592
 40
0.8243631857088
 40
0.8798771465756
 40
0.9391762162975
 40
1.0
 40
1.0
 40
1.0
 40
1.0
 10
12.92160111427318
 20
53.33096847259018
 30
0.0
 10
12.92160111427318
 20
53.31822237073018
 30
0.0
 10
12.91890777439218
 20
53.29266400040018
 30
0.0
 10
12.90590487961818
 20
53.25707728184018
 30
0.0
 10
12.88467981680418
 20
53.22671930074018
 30
0.0
 10
12.85703492156518
 20
53.20260769474018
 30
0.0
 10
12.82389982793818
 20
53.18430839380018
 30
0.0
 10
12.78576669432218
 20
53.17134402612017
 30
0.0
 10
12.74358934929718
 20
53.16347688576018
 30
0.0
 10
12.69908296790118
 20
53.16050797475018
 30
0.0
 10
12.65492422054418
 20
53.16238938275018
 30
0.0
 10
12.61363449751118
 20
53.16924951801018
 30
0.0
 10
12.57689243155818
 20
53.18119364803017
 30
0.0
 10
12.54531199587818
 20
53.19835990688018
 30
0.0
 10
12.51914084207418
 20
53.22113857141018
 30
0.0
 10
12.49904629850718
 20
53.25005256766018
 30
0.0
 10
12.48665703518518
 20
53.28435174692018
 30
0.0
 10
12.48410111427318
 20
53.30913614486018
 30
0.0
 10
12.48410111427318
 20
53.32162839909018
 30
0.0
  0
ARC
  5
155
330
1F
100
AcDbEntity
  8
IGES_LEVEL_0
 62
     7
100
AcDbCircle
 10
10.82785123152091
 20
163.3369817691093
 30
0.0
 40
109.5045787095189
100
AcDbArc
 50
268.8273968660779
 51
271.1726030119639
  0
ARC
  5
156
330
1F
100
AcDbEntity
  8
IGES_LEVEL_0
 62
     7
100
AcDbCircle
 10
10.82785110849652
 20
487.3122292784485
 30
0.0
 40
434.6511132133129
100
AcDbArc
 50
269.6757102164182
 51
270.3242897854451
  0
LINE
  5
157
330
1F
100
AcDbEntity
  8
IGES_LEVEL_0
 62
     7
100
AcDbLine
 10
13.09486609986818
 20
53.14384832946018
 30
0.0
 11
13.08811453220718
 21
53.14461564830017
 31
0.0
  0
SPLINE
  5
158
330
1F
100
AcDbEntity
  8
IGES_LEVEL_0
 62
     7
100
AcDbSpline
210
0.0
220
0.0
230
1.0
 70
     8
 71
     3
 72
    10
 73
     6
 74
     0
 42
0.0000000001
 43
0.0000000001
 40
0.0
 40
0.0
 40
0.0
 40
0.0
 40
0.3327196020436
 40
0.6677150871594
 40
1.0
 40
1.0
 40
1.0
 40
1.0
 10
13.08816709723918
 20
53.14461626006018
 30
0.0
 10
12.58689527470618
 20
53.13398480908018
 30
0.0
 10
11.58063916152218
 20
53.12769737243018
 30
0.0
 10
10.07375299121218
 20
53.12770038822018
 30
0.0
 10
9.06815202051518
 20
53.13399759549018
 30
0.0
 10
8.567535141854179
 20
53.14461622625018
 30
0.0
  0
LINE
  5
159
330
1F
100
AcDbEntity
  8
IGES_LEVEL_0
 62
     7
100
AcDbLine
 10
8.560894191701181
 20
53.14386136878018
 30
0.0
 11
8.567586393487181
 21
53.14461291600018
 31
0.0
  0
ARC
  5
15A
330
1F
100
AcDbEntity
  8
IGES_LEVEL_0
 62
     7
100
AcDbCircle
 10
8.586977278094834
 20
53.82344764258538
 30
0.0
 40
0.0318859175689765
100
AcDbArc
 50
90.12397559974815
 51
144.0155591478334
  0
LINE
  5
15B
330
1F
100
AcDbEntity
  8
IGES_LEVEL_0
 62
     7
100
AcDbLine
 10
8.55324353243318
 20
53.83213998508018
 30
0.0
 11
8.35613689786018
 21
53.58232832722018
 31
0.0
  0
LINE
  5
15C
330
1F
100
AcDbEntity
  8
IGES_LEVEL_0
 62
     7
100
AcDbLine
 10
8.561181179615181
 20
53.84218798685018
 30
0.0
 11
8.55324353243318
 21
53.83213998508018
 31
0.0
  0
LINE
  5
15D
330
1F
100
AcDbEntity
  8
IGES_LEVEL_0
 62
     7
100
AcDbLine
 10
8.33322545771718
 20
53.48586989336017
 30
0.0
 11
8.333229757200181
 21
53.48475556137018
 31
0.0
  0
LINE
  5
15E
330
1F
100
AcDbEntity
  8
IGES_LEVEL_0
 62
     7
100
AcDbLine
 10
8.333231296988181
 20
53.48765387222018
 30
0.0
 11
8.33322545771718
 21
53.48586989336017
 31
0.0
  0
LINE
  5
15F
330
1F
100
AcDbEntity
  8
IGES_LEVEL_0
 62
     7
100
AcDbLine
 10
8.33344115366218
 20
53.49574671033017
 30
0.0
 11
8.333231296988181
 21
53.48765387222018
 31
0.0
  0
ARC
  5
160
330
1F
100
AcDbEntity
  8
IGES_LEVEL_0
 62
     7
100
AcDbCircle
 10
8.57424048677724
 20
53.48647396873673
 30
0.0
 40
0.2409778051300907
100
AcDbArc
 50
162.3570587300183
 51
177.7947340139205
  0
LINE
  5
161
330
1F
100
AcDbEntity
  8
IGES_LEVEL_0
 62
     7
100
AcDbLine
 10
8.346374135457181
 20
53.56435445946018
 30
0.0
 11
8.34459736574218
 21
53.55951053168018
 31
0.0
  0
LINE
  5
162
330
1F
100
AcDbEntity
  8
IGES_LEVEL_0
 62
     7
100
AcDbLine
 10
8.356161222744181
 20
53.58235203461017
 30
0.0
 11
8.346374135457181
 21
53.56435445946018
 31
0.0
  0
SPLINE
  5
163
330
1F
100
AcDbEntity
  8
IGES_LEVEL_0
 62
     7
100
AcDbSpline
210
0.0
220
0.0
230
1.0
 70
     8
 71
     3
 72
    20
 73
    16
 74
     0
 42
0.0000000001
 43
0.0000000001
 40
0.0
 40
0.0
 40
0.0
 40
0.0
 40
0.005056929549032
 40
0.04914937520658
 40
0.1128266814081
 40
0.191482010176
 40
0.2810993056413
 40
0.3790470531098
 40
0.4828429304165
 40
0.5891225446939
 40
0.6933012391456001
 40
0.7908654085368
 40
0.8777553046945
 40
0.9506250840761
 40
1.0
 40
1.0
 40
1.0
 40
1.0
 10
8.411396048299181
 20
53.47570363406017
 30
0.0
 10
8.412007611438181
 20
53.47462211729017
 30
0.0
 10
8.41765857377918
 20
53.46396037261017
 30
0.0
 10
8.426998062148181
 20
53.43680473653018
 30
0.0
 10
8.435659643451182
 20
53.39111035062017
 30
0.0
 10
8.441219092031179
 20
53.33326580007018
 30
0.0
 10
8.442923821646181
 20
53.26671770220018
 30
0.0
 10
8.44070579419518
 20
53.19387762880018
 30
0.0
 10
8.434524605012181
 20
53.11709841189018
 30
0.0
 10
8.424506633082181
 20
53.03915245548018
 30
0.0
 10
8.41099864764718
 20
52.96331354328018
 30
0.0
 10
8.39461341581918
 20
52.89301062565018
 30
0.0
 10
8.37617912039218
 20
52.83132042492018
 30
0.0
 10
8.35733605882518
 20
52.78250990806018
 30
0.0
 10
8.343467840049181
 20
52.75514555846018
 30
0.0
 10
8.336980418540181
 20
52.74464598501018
 30
0.0
  0
ARC
  5
164
330
1F
100
AcDbEntity
  8
IGES_LEVEL_0
 62
     7
100
AcDbCircle
 10
8.385093389948327
 20
53.46309938882757
 30
0.0
 40
0.0291667076339714
100
AcDbArc
 50
25.6037608750349
 51
59.33304799434595
  0
LINE
  5
165
330
1F
100
AcDbEntity
  8
IGES_LEVEL_0
 62
     7
100
AcDbLine
 10
8.33551686309918
 20
52.74192270109018
 30
0.0
 11
8.336995453456181
 21
52.74468158355018
 31
0.0
  0
LINE
  5
166
330
1F
100
AcDbEntity
  8
IGES_LEVEL_0
 62
     7
100
AcDbLine
 10
8.33432741835318
 20
52.73877244901018
 30
0.0
 11
8.33551686309918
 21
52.74192270109018
 31
0.0
  0
LINE
  5
167
330
1F
100
AcDbEntity
  8
IGES_LEVEL_0
 62
     7
100
AcDbLine
 10
8.33354698312618
 20
52.73536503679018
 30
0.0
 11
8.33432741835318
 21
52.73877244901018
 31
0.0
  0
LINE
  5
168
330
1F
100
AcDbEntity
  8
IGES_LEVEL_0
 62
     7
100
AcDbLine
 10
8.333243572973181
 20
52.73166403192018
 30
0.0
 11
8.33354698312618
 21
52.73536503679018
 31
0.0
  0
LINE
  5
169
330
1F
100
AcDbEntity
  8
IGES_LEVEL_0
 62
     7
100
AcDbLine
 10
13.32018536544618
 20
52.74192270109018
 30
0.0
 11
13.31870677394918
 21
52.74468158539018
 31
0.0
  0
LINE
  5
16A
330
1F
100
AcDbEntity
  8
IGES_LEVEL_0
 62
     7
100
AcDbLine
 10
13.32137481019218
 20
52.73877244901018
 30
0.0
 11
13.32018536544618
 21
52.74192270109018
 31
0.0
  0
LINE
  5
16B
330
1F
100
AcDbEntity
  8
IGES_LEVEL_0
 62
     7
100
AcDbLine
 10
13.32215524541918
 20
52.73536503679018
 30
0.0
 11
13.32137481019218
 21
52.73877244901018
 31
0.0
  0
LINE
  5
16C
330
1F
100
AcDbEntity
  8
IGES_LEVEL_0
 62
     7
100
AcDbLine
 10
13.32245865557218
 20
52.73166403192018
 30
0.0
 11
13.32215524541918
 21
52.73536503679018
 31
0.0
  0
ARC
  5
16D
330
1F
100
AcDbEntity
  8
IGES_LEVEL_0
 62
     7
100
AcDbCircle
 10
13.27059554454853
 20
53.46311529352393
 30
0.0
 40
0.0291480865339437
100
AcDbArc
 50
120.6644038162973
 51
154.4132310272118
  0
SPLINE
  5
16E
330
1F
100
AcDbEntity
  8
IGES_LEVEL_0
 62
     7
100
AcDbSpline
210
0.0
220
0.0
230
1.0
 70
     8
 71
     3
 72
    20
 73
    16
 74
     0
 42
0.0000000001
 43
0.0000000001
 40
0.0
 40
0.0
 40
0.0
 40
0.0
 40
0.04861896535175
 40
0.1213907824086
 40
0.2082540087616
 40
0.3058543007025
 40
0.4101157394135
 40
0.5165032536101
 40
0.6204134436018
 40
0.7184938045514
 40
0.8082738053645
 40
0.8871133475897
 40
0.9509215204239
 40
0.9950373376572
 40
1.0
 40
1.0
 40
1.0
 40
1.0
 10
13.31871972384818
 20
52.74464788242018
 30
0.0
 10
13.31233085064518
 20
52.75498620484018
 30
0.0
 10
13.29853245148918
 20
52.78214585730018
 30
0.0
 10
13.27972106219718
 20
52.83073204394017
 30
0.0
 10
13.26125173556518
 20
52.89238862116018
 30
0.0
 10
13.24482666196918
 20
52.96270539799018
 30
0.0
 10
13.23127968091418
 20
53.03859441775018
 30
0.0
 10
13.22122735161318
 20
53.11661220556018
 30
0.0
 10
13.21501772116418
 20
53.19347754101018
 30
0.0
 10
13.21277795625218
 20
53.26641873716018
 30
0.0
 10
13.21447027437118
 20
53.33308689096018
 30
0.0
 10
13.22003119368418
 20
53.39105021460018
 30
0.0
 10
13.22870660670618
 20
53.43683047930018
 30
0.0
 10
13.23805825255818
 20
53.46399339644017
 30
0.0
 10
13.24370595271218
 20
53.47464189617018
 30
0.0
 10
13.24430594435218
 20
53.47570369573018
 30
0.0
  0
LINE
  5
16F
330
1F
100
AcDbEntity
  8
IGES_LEVEL_0
 62
     7
100
AcDbLine
 10
13.30161134018918
 20
53.57952899679017
 30
0.0
 11
13.29953685841318
 21
53.58235687289018
 31
0.0
  0
LINE
  5
170
330
1F
100
AcDbEntity
  8
IGES_LEVEL_0
 62
     7
100
AcDbLine
 10
13.31143628649118
 20
53.55853515607018
 30
0.0
 11
13.30161134018918
 21
53.57952899679017
 31
0.0
  0
ARC
  5
171
330
1F
100
AcDbEntity
  8
IGES_LEVEL_0
 62
     7
100
AcDbCircle
 10
13.08336627938827
 20
53.48702006741006
 30
0.0
 40
0.239019530678949
100
AcDbArc
 50
3.420917899283773
 51
17.40967142844006
  0
LINE
  5
172
330
1F
100
AcDbEntity
  8
IGES_LEVEL_0
 62
     7
100
AcDbLine
 10
13.32230883642318
 20
53.49457313743018
 30
0.0
 11
13.32195990342618
 21
53.50128255718018
 31
0.0
  0
LINE
  5
173
330
1F
100
AcDbEntity
  8
IGES_LEVEL_0
 62
     7
100
AcDbLine
 10
13.32246690713718
 20
53.48808889594018
 30
0.0
 11
13.32230883642318
 21
53.49457313743018
 31
0.0
  0
LINE
  5
174
330
1F
100
AcDbEntity
  8
IGES_LEVEL_0
 62
     7
100
AcDbLine
 10
13.32247248116718
 20
53.48475641829018
 30
0.0
 11
13.32246690713718
 21
53.48808889594018
 31
0.0
  0
LINE
  5
175
330
1F
100
AcDbEntity
  8
IGES_LEVEL_0
 62
     7
100
AcDbLine
 10
13.10245869981918
 20
53.83213998039017
 30
0.0
 11
13.09452105137318
 21
53.84218798376018
 31
0.0
  0
LINE
  5
176
330
1F
100
AcDbEntity
  8
IGES_LEVEL_0
 62
     7
100
AcDbLine
 10
13.29956533289118
 20
53.58232832442018
 30
0.0
 11
13.10245869981918
 21
53.83213998039017
 31
0.0
  0
ARC
  5
177
330
1F
100
AcDbEntity
  8
IGES_LEVEL_0
 62
     7
100
AcDbCircle
 10
13.06872295669381
 20
53.8234432405267
 30
0.0
 40
0.03189030984346
100
AcDbArc
 50
35.98584121342467
 51
89.8714221744617
  0
LINE
  5
178
330
1F
100
AcDbEntity
  8
IGES_LEVEL_0
 62
     7
100
AcDbLine
 10
13.32231328826118
 20
52.72053924988018
 30
0.0
 11
13.32247138260118
 21
52.72982549712017
 31
0.0
  0
LINE
  5
179
330
1F
100
AcDbEntity
  8
IGES_LEVEL_0
 62
     7
100
AcDbLine
 10
13.31917005058618
 20
52.69691751981018
 30
0.0
 11
13.32231328826118
 21
52.72053924988018
 31
0.0
  0
LINE
  5
17A
330
1F
100
AcDbEntity
  8
IGES_LEVEL_0
 62
     7
100
AcDbLine
 10
13.31663593472918
 20
52.68928584567018
 30
0.0
 11
13.31917005058618
 21
52.69691751981018
 31
0.0
  0
ARC
  5
17B
330
1F
100
AcDbEntity
  8
IGES_LEVEL_0
 62
     7
100
AcDbCircle
 10
13.28686678501144
 20
52.69955209937912
 30
0.0
 40
0.0314896529058953
100
AcDbArc
 50
271.9400691864342
 51
340.9726228125905
  0
ARC
  5
17C
330
1F
100
AcDbEntity
  8
IGES_LEVEL_0
 62
     7
100
AcDbCircle
 10
8.368866614166183
 20
52.69962364812386
 30
0.0
 40
0.0315622055805233
100
AcDbArc
 50
198.5530875171849
 51
268.0065353405542
  0
LINE
  5
17D
330
1F
100
AcDbEntity
  8
IGES_LEVEL_0
 62
     7
100
AcDbLine
 10
8.33643788218218
 20
52.69728274725018
 30
0.0
 11
8.33894472011518
 21
52.68958108483017
 31
0.0
  0
LINE
  5
17E
330
1F
100
AcDbEntity
  8
IGES_LEVEL_0
 62
     7
100
AcDbLine
 10
8.333363975046181
 20
52.72116240469018
 30
0.0
 11
8.33643788218218
 21
52.69728274725018
 31
0.0
  0
LINE
  5
17F
330
1F
100
AcDbEntity
  8
IGES_LEVEL_0
 62
     7
100
AcDbLine
 10
8.33323323578318
 20
52.72687775869018
 30
0.0
 11
8.333363975046181
 21
52.72116240469018
 31
0.0
  0
LINE
  5
180
330
1F
100
AcDbEntity
  8
IGES_LEVEL_0
 62
     7
100
AcDbLine
 10
8.333230856693181
 20
52.72982523200017
 30
0.0
 11
8.33323323578318
 21
52.72687775869018
 31
0.0
  0
LINE
  5
181
330
1F
100
AcDbEntity
  8
IGES_LEVEL_0
 62
     7
100
AcDbLine
 10
8.855226699003181
 20
53.27911278344018
 30
0.0
 11
8.852851114273181
 21
53.29883645803018
 31
0.0
  0
SPLINE
  5
182
330
1F
100
AcDbEntity
  8
IGES_LEVEL_0
 62
     7
100
AcDbSpline
210
0.0
220
0.0
230
1.0
 70
     8
 71
     3
 72
    17
 73
    13
 74
     0
 42
0.0000000001
 43
0.0000000001
 40
0.0
 40
0.0
 40
0.0
 40
0.0
 40
0.03378794543029
 40
0.1459606946694
 40
0.2612999803265
 40
0.3797211606953
 40
0.5000075821455
 40
0.6202940035957
 40
0.7387151839645
 40
0.8540544696216
 40
0.9662272188607
 40
1.0
 40
1.0
 40
1.0
 40
1.0
 10
9.050476462630181
 20
53.27911663403017
 30
0.0
 10
9.04978351695018
 20
53.27625675532018
 30
0.0
 10
9.046149025911181
 20
53.26405517284018
 30
0.0
 10
9.03482912385018
 20
53.24402398777018
 30
0.0
 10
9.01225250432018
 20
53.22362658486018
 30
0.0
 10
8.98402006683718
 20
53.21062965655018
 30
0.0
 10
8.95285111427318
 20
53.20616653997018
 30
0.0
 10
8.92168216170818
 20
53.21062965655018
 30
0.0
 10
8.893449724225182
 20
53.22362658486018
 30
0.0
 10
8.87087310469518
 20
53.24402398777018
 30
0.0
 10
8.859553859574181
 20
53.26405401035018
 30
0.0
 10
8.855919466820181
 20
53.27625422001018
 30
0.0
 10
8.855226699003181
 20
53.27911278344018
 30
0.0
  0
LINE
  5
183
330
1F
100
AcDbEntity
  8
IGES_LEVEL_0
 62
     7
100
AcDbLine
 10
9.052851114273182
 20
53.29883645803018
 30
0.0
 11
9.050476462630181
 21
53.27911663403017
 31
0.0
  0
LINE
  5
184
330
1F
100
AcDbEntity
  8
IGES_LEVEL_0
 62
     7
100
AcDbLine
 10
12.80047552954318
 20
53.27911278344018
 30
0.0
 11
12.80285111427318
 21
53.29883645803018
 31
0.0
  0
SPLINE
  5
185
330
1F
100
AcDbEntity
  8
IGES_LEVEL_0
 62
     7
100
AcDbSpline
210
0.0
220
0.0
230
1.0
 70
     8
 71
     3
 72
    17
 73
    13
 74
     0
 42
0.0000000001
 43
0.0000000001
 40
0.0
 40
0.0
 40
0.0
 40
0.0
 40
0.03378794542681
 40
0.1459606946651
 40
0.2612999803214
 40
0.3797211606893
 40
0.5000075821387
 40
0.6202940035881001
 40
0.738715183956
 40
0.8540544696123
 40
0.9662272188506
 40
1.0
 40
1.0
 40
1.0
 40
1.0
 10
12.60522576591518
 20
53.27911663403017
 30
0.0
 10
12.60591871159518
 20
53.27625675532018
 30
0.0
 10
12.60955320263518
 20
53.26405517284018
 30
0.0
 10
12.62087310469518
 20
53.24402398777018
 30
0.0
 10
12.64344972422518
 20
53.22362658486018
 30
0.0
 10
12.67168216170818
 20
53.21062965655018
 30
0.0
 10
12.70285111427318
 20
53.20616653997018
 30
0.0
 10
12.73402006683718
 20
53.21062965655018
 30
0.0
 10
12.76225250432018
 20
53.22362658486018
 30
0.0
 10
12.78482912385018
 20
53.24402398777018
 30
0.0
 10
12.79614836897218
 20
53.26405401035018
 30
0.0
 10
12.79978276172618
 20
53.27625422001018
 30
0.0
 10
12.80047552954318
 20
53.27911278344018
 30
0.0
  0
LINE
  5
186
330
1F
100
AcDbEntity
  8
IGES_LEVEL_0
 62
     7
100
AcDbLine
 10
12.60285111427318
 20
53.29883645803018
 30
0.0
 11
12.60522576591518
 21
53.27911663403017
 31
0.0
  0
SPLINE
  5
187
330
1F
100
AcDbEntity
  8
IGES_LEVEL_0
 62
     7
100
AcDbSpline
210
0.0
220
0.0
230
1.0
 70
     8
 71
     3
 72
    23
 73
    19
 74
     0
 42
0.0000000001
 43
0.0000000001
 40
0.0
 40
0.0
 40
0.0
 40
0.0
 40
0.06082603792023
 40
0.1201276958697
 40
0.1756446490784
 40
0.2304077858443
 40
0.2875459766934
 40
0.3494793386825
 40
0.4176391647644
 40
0.4906991780009
 40
0.5642025168305
 40
0.634377503466
 40
0.6990317762623
 40
0.7595042111232
 40
0.8175327293244
 40
0.876111471687
 40
0.9379377553588
 40
1.0
 40
1.0
 40
1.0
 40
1.0
 10
9.17160111427318
 20
53.32162839909018
 30
0.0
 10
9.17160111427318
 20
53.30913568252018
 30
0.0
 10
9.16904499488318
 20
53.28435027697018
 30
0.0
 10
9.15665464458618
 20
53.25004971917018
 30
0.0
 10
9.136558488618181
 20
53.22113522039017
 30
0.0
 10
9.11038669532218
 20
53.19835761234018
 30
0.0
 10
9.07880835413218
 20
53.18119333978018
 30
0.0
 10
9.04207130456218
 20
53.16925068248018
 30
0.0
 10
9.000787391325181
 20
53.16239052867018
 30
0.0
 10
8.956632256736182
 20
53.16050787638018
 30
0.0
 10
8.91212573698918
 20
53.16347523811018
 30
0.0
 10
8.869945772243181
 20
53.17134127365018
 30
0.0
 10
8.83180961299618
 20
53.18430514421018
 30
0.0
 10
8.798672195455181
 20
53.20260419063018
 30
0.0
 10
8.771025333173181
 20
53.22671589751018
 30
0.0
 10
8.749798629367181
 20
53.25707453158018
 30
0.0
 10
8.73679466949018
 20
53.29266247688017
 30
0.0
 10
8.73410111427318
 20
53.31822185849018
 30
0.0
 10
8.73410111427318
 20
53.33096847259018
 30
0.0
  0
SPLINE
  5
188
330
1F
100
AcDbEntity
  8
IGES_LEVEL_0
 62
     7
100
AcDbSpline
210
0.0
220
0.0
230
1.0
 70
     8
 71
     3
 72
    35
 73
    31
 74
     0
 42
0.0000000001
 43
0.0000000001
 40
0.0
 40
0.0
 40
0.0
 40
0.0
 40
0.07028924718307
 40
0.104311396154
 40
0.1376323838376
 40
0.2023246079714
 40
0.2337956442893
 40
0.2647429618648
 40
0.2952171966862
 40
0.3252713760202
 40
0.3549607779605
 40
0.3843427395073
 40
0.4134764129071
 40
0.4424224726014
 40
0.4712427779872
 40
0.5
 40
0.5287572220128
 40
0.5575775273986
 40
0.5865235870929
 40
0.6156572604927
 40
0.6450392220396
 40
0.6747286239798001
 40
0.7047828033138001
 40
0.7352570381352001
 40
0.7662043557107
 40
0.7976753920286001
 40
0.8623676161624
 40
0.895688603846
 40
0.9297107528169
 40
1.0
 40
1.0
 40
1.0
 40
1.0
 10
4.14035111427318
 20
43.08994640513018
 30
0.0
 10
4.16072528614118
 20
43.10522703403018
 30
0.0
 10
4.191639200225181
 20
43.12702755675018
 30
0.0
 10
4.23377572022018
 20
43.15371293709018
 30
0.0
 10
4.27504930957218
 20
43.17791675837017
 30
0.0
 10
4.316763305634181
 20
43.19950007788017
 30
0.0
 10
4.358838358319781
 20
43.21825364270018
 30
0.0
 10
4.390110230370881
 20
43.23072541506018
 30
0.0
 10
4.421383965332581
 20
43.24173083854018
 30
0.0
 10
4.452660069615281
 20
43.25126988095018
 30
0.0
 10
4.483938246860181
 20
43.25934210830017
 30
0.0
 10
4.515218325500681
 20
43.26594720568018
 30
0.0
 10
4.546500015686281
 20
43.27108486086018
 30
0.0
 10
4.577782979009981
 20
43.27475481553018
 30
0.0
 10
4.609066821838781
 20
43.27695687123018
 30
0.0
 10
4.640351114272781
 20
43.27769090391018
 30
0.0
 10
4.67163540670668
 20
43.27695687123018
 30
0.0
 10
4.70291924953558
 20
43.27475481553018
 30
0.0
 10
4.73420221285928
 20
43.27108486086018
 30
0.0
 10
4.76548390304488
 20
43.26594720568018
 30
0.0
 10
4.796763981685281
 20
43.25934210830017
 30
0.0
 10
4.82804215893028
 20
43.25126988095018
 30
0.0
 10
4.85931826321298
 20
43.24173083854018
 30
0.0
 10
4.89059199817468
 20
43.23072541506018
 30
0.0
 10
4.92186387022578
 20
43.21825364270018
 30
0.0
 10
4.963938922911881
 20
43.19950007788017
 30
0.0
 10
5.005652918973181
 20
43.17791675837017
 30
0.0
 10
5.046926508325781
 20
43.15371293709018
 30
0.0
 10
5.089063028320581
 20
43.12702755675018
 30
0.0
 10
5.11997694240398
 20
43.10522703403018
 30
0.0
 10
5.140351114272781
 20
43.08994640513018
 30
0.0
  0
SPLINE
  5
189
330
1F
100
AcDbEntity
  8
IGES_LEVEL_0
 62
     7
100
AcDbSpline
210
0.0
220
0.0
230
1.0
 70
     8
 71
     3
 72
    35
 73
    31
 74
     0
 42
0.0000000001
 43
0.0000000001
 40
0.0
 40
0.0
 40
0.0
 40
0.0
 40
0.07028924718307
 40
0.104311396154
 40
0.1376323838376
 40
0.2023246079714
 40
0.2337956442893
 40
0.2647429618648
 40
0.2952171966862
 40
0.3252713760202
 40
0.3549607779605
 40
0.3843427395073
 40
0.4134764129071
 40
0.4424224726014
 40
0.4712427779872
 40
0.5
 40
0.5287572220128
 40
0.5575775273986
 40
0.5865235870929
 40
0.6156572604927
 40
0.6450392220396
 40
0.6747286239798001
 40
0.7047828033138001
 40
0.7352570381352001
 40
0.7662043557107
 40
0.7976753920286001
 40
0.8623676161624
 40
0.895688603846
 40
0.9297107528169
 40
1.0
 40
1.0
 40
1.0
 40
1.0
 10
16.51535111427118
 20
43.08994640513018
 30
0.0
 10
16.53572528614118
 20
43.10522703403018
 30
0.0
 10
16.56663920022118
 20
43.12702755675018
 30
0.0
 10
16.60877572022118
 20
43.15371293709018
 30
0.0
 10
16.65004930957118
 20
43.17791675837017
 30
0.0
 10
16.69176330563118
 20
43.19950007788017
 30
0.0
 10
16.73383835832118
 20
43.21825364270018
 30
0.0
 10
16.76511023037118
 20
43.23072541506018
 30
0.0
 10
16.79638396533118
 20
43.24173083854018
 30
0.0
 10
16.82766006961118
 20
43.25126988095018
 30
0.0
 10
16.85893824686118
 20
43.25934210830017
 30
0.0
 10
16.89021832550118
 20
43.26594720568018
 30
0.0
 10
16.92150001569118
 20
43.27108486086018
 30
0.0
 10
16.95278297901118
 20
43.27475481553018
 30
0.0
 10
16.98406682184118
 20
43.27695687123018
 30
0.0
 10
17.01535111427118
 20
43.27769090391018
 30
0.0
 10
17.04663540671118
 20
43.27695687123018
 30
0.0
 10
17.07791924953118
 20
43.27475481553018
 30
0.0
 10
17.10920221286118
 20
43.27108486086018
 30
0.0
 10
17.14048390304118
 20
43.26594720568018
 30
0.0
 10
17.17176398168118
 20
43.25934210830017
 30
0.0
 10
17.20304215893118
 20
43.25126988095018
 30
0.0
 10
17.23431826321118
 20
43.24173083854018
 30
0.0
 10
17.26559199817118
 20
43.23072541506018
 30
0.0
 10
17.29686387022118
 20
43.21825364270018
 30
0.0
 10
17.33893892291118
 20
43.19950007788017
 30
0.0
 10
17.38065291897118
 20
43.17791675837017
 30
0.0
 10
17.42192650832118
 20
43.15371293709018
 30
0.0
 10
17.46406302832118
 20
43.12702755675018
 30
0.0
 10
17.49497694240118
 20
43.10522703403018
 30
0.0
 10
17.51535111427118
 20
43.08994640513018
 30
0.0
  0
ARC
  5
18A
330
1F
100
AcDbEntity
  8
IGES_LEVEL_0
 62
     7
100
AcDbCircle
 10
20.95339577702354
 20
70.09196757672113
 30
0.0
 40
1.142586433515398
100
AcDbArc
 50
232.9736879132998
 51
240.4751515914434
  0
ARC
  5
18B
330
1F
100
AcDbEntity
  8
IGES_LEVEL_0
 62
     7
100
AcDbCircle
 10
20.57730645151622
 20
70.09196757672508
 30
0.0
 40
1.142586433520116
100
AcDbArc
 50
299.5248484085723
 51
307.0263120866848
  0
ARC
  5
18C
330
1F
100
AcDbEntity
  8
IGES_LEVEL_0
 62
     7
100
AcDbCircle
 10
1.078395777060415
 20
70.09196757678799
 30
0.0
 40
1.142586433589778
100
AcDbArc
 50
232.9736879139227
 51
240.4751515916613
  0
ARC
  5
18D
330
1F
100
AcDbEntity
  8
IGES_LEVEL_0
 62
     7
100
AcDbCircle
 10
0.7023064513875852
 20
70.09196757693786
 30
0.0
 40
1.142586433768657
100
AcDbArc
 50
299.5248484089266
 51
307.0263120854896
  0
ARC
  5
18E
330
1F
100
AcDbEntity
  8
IGES_LEVEL_0
 62
     7
100
AcDbCircle
 10
37.19355576608027
 20
25.70173867125759
 30
0.0
 40
0.394172400722173
100
AcDbArc
 50
207.5819253786659
 51
226.4874552794751
  0
ARC
  5
18F
330
1F
100
AcDbEntity
  8
IGES_LEVEL_0
 62
     7
100
AcDbCircle
 10
37.31308293776236
 20
25.46744402055695
 30
0.0
 40
0.3943068188065274
100
AcDbArc
 50
187.5148213066606
 51
206.3782741643413
  0
LINE
  5
190
330
1F
100
AcDbEntity
  8
IGES_LEVEL_0
 62
     7
100
AcDbLine
 10
33.74887428856118
 20
33.24612565256018
 30
0.0
 11
32.85836631803118
 21
34.99383228608018
 31
0.0
  0
LINE
  5
191
330
1F
100
AcDbEntity
  8
IGES_LEVEL_0
 62
     7
100
AcDbLine
 10
32.22391892542118
 20
34.58700860061018
 30
0.0
 11
33.08062404300118
 21
32.90563514582018
 31
0.0
  0
LINE
  5
192
330
1F
100
AcDbEntity
  8
IGES_LEVEL_0
 62
     7
100
AcDbLine
 10
32.19165297024118
 20
34.65035080148018
 30
0.0
 11
32.22391892542118
 21
34.58700860061018
 31
0.0
  0
LINE
  5
193
330
1F
100
AcDbEntity
  8
IGES_LEVEL_0
 62
     7
100
AcDbLine
 10
32.19011653084118
 20
34.65336786308018
 30
0.0
 11
32.19165297024118
 21
34.65035080148018
 31
0.0
  0
LINE
  5
194
330
1F
100
AcDbEntity
  8
IGES_LEVEL_0
 62
     7
100
AcDbLine
 10
32.85989074117118
 20
34.99084204970018
 30
0.0
 11
32.85836710260118
 21
34.99383071981018
 31
0.0
  0
LINE
  5
195
330
1F
100
AcDbEntity
  8
IGES_LEVEL_0
 62
     7
100
AcDbLine
 10
33.69562205409118
 20
33.35063517417018
 30
0.0
 11
32.85989074117118
 21
34.99084204970018
 31
0.0
  0
LINE
  5
196
330
1F
100
AcDbEntity
  8
IGES_LEVEL_0
 62
     7
100
AcDbLine
 10
33.74887462893118
 20
33.24612582601018
 30
0.0
 11
33.69562205409118
 21
33.35063517417018
 31
0.0
  0
LINE
  5
197
330
1F
100
AcDbEntity
  8
IGES_LEVEL_0
 62
     7
100
AcDbLine
 10
33.02737624449118
 20
33.01014370728018
 30
0.0
 11
33.08062370262118
 21
32.90563497241018
 31
0.0
  0
LINE
  5
198
330
1F
100
AcDbEntity
  8
IGES_LEVEL_0
 62
     7
100
AcDbLine
 10
32.22391909374118
 20
34.58700868637018
 30
0.0
 11
33.02737624449118
 21
33.01014370728018
 31
0.0
  0
LINE
  5
199
330
1F
100
AcDbEntity
  8
IGES_LEVEL_0
 62
     7
100
AcDbLine
 10
32.19165296865118
 20
34.65035080067018
 30
0.0
 11
32.22372315994118
 21
34.58739324676018
 31
0.0
  0
LINE
  5
19A
330
1F
100
AcDbEntity
  8
IGES_LEVEL_0
 62
     7
100
AcDbLine
 10
32.19054627610118
 20
34.65252395544018
 30
0.0
 11
32.19164013394119
 21
34.65037600325018
 31
0.0
  0
LINE
  5
19B
330
1F
100
AcDbEntity
  8
IGES_LEVEL_0
 62
     7
100
AcDbLine
 10
32.19011574360118
 20
34.65336938252018
 30
0.0
 11
32.19054627610118
 21
34.65252395544018
 31
0.0
  0
LINE
  5
19C
330
1F
100
AcDbEntity
  8
IGES_LEVEL_0
 62
     7
100
AcDbLine
 10
44.75576758929118
 20
18.28445745399718
 30
0.0
 11
44.77441369211118
 21
18.26900254769418
 31
0.0
  0
LINE
  5
19D
330
1F
100
AcDbEntity
  8
IGES_LEVEL_0
 62
     7
100
AcDbLine
 10
44.72240836934118
 20
18.30915970628118
 30
0.0
 11
44.75576758929118
 21
18.28445745399718
 31
0.0
  0
SPLINE
  5
19E
330
1F
100
AcDbEntity
  8
IGES_LEVEL_0
 62
     7
100
AcDbSpline
210
0.0
220
0.0
230
1.0
 70
     8
 71
     3
 72
    11
 73
     7
 74
     0
 42
0.0000000001
 43
0.0000000001
 40
0.0
 40
0.0
 40
0.0
 40
0.0
 40
0.327428526829
 40
0.6548570536581
 40
0.9822855804872001
 40
1.0
 40
1.0
 40
1.0
 40
1.0
 10
46.88485463888118
 20
19.80421649605618
 30
0.0
 10
46.93479781763118
 20
19.82671677577018
 30
0.0
 10
47.03334249109118
 20
19.86695931668718
 30
0.0
 10
47.17538502901118
 20
19.90684509823318
 30
0.0
 10
47.26667472634118
 20
19.91299445661118
 30
0.0
 10
47.31034134625118
 20
19.90487131822418
 30
0.0
 10
47.31257359844118
 20
19.90442272448418
 30
0.0
  0
LINE
  5
19F
330
1F
100
AcDbEntity
  8
IGES_LEVEL_0
 62
     7
100
AcDbLine
 10
46.32122036561118
 20
19.50322130317018
 30
0.0
 11
46.35869186144118
 21
19.51861788676918
 31
0.0
  0
ARC
  5
1A0
330
1F
100
AcDbEntity
  8
IGES_LEVEL_0
 62
     7
100
AcDbCircle
 10
46.11760040941556
 20
20.07103312542854
 30
0.0
 40
0.6032174997937818
100
AcDbArc
 50
273.9467530098805
 51
289.7280693821781
  0
ARC
  5
1A1
330
1F
100
AcDbEntity
  8
IGES_LEVEL_0
 62
     7
100
AcDbCircle
 10
46.1415559693021
 20
19.54465853122558
 30
0.0
 40
0.0774306063171758
100
AcDbArc
 50
268.4014349807111
 51
283.1104646595462
  0
ARC
  5
1A2
330
1F
100
AcDbEntity
  8
IGES_LEVEL_0
 62
     7
100
AcDbCircle
 10
41.78551979963603
 20
16.88582002226291
 30
0.0
 40
0.6866807180138225
100
AcDbArc
 50
172.2878416065335
 51
196.1082247987
  0
ARC
  5
1A3
330
1F
100
AcDbEntity
  8
IGES_LEVEL_0
 62
     7
100
AcDbCircle
 10
41.80870275519925
 20
16.88381272472964
 30
0.0
 40
0.7099242366038444
100
AcDbArc
 50
163.5837087566683
 51
172.3783891171616
  0
LINE
  5
1A4
330
1F
100
AcDbEntity
  8
IGES_LEVEL_0
 62
     7
100
AcDbLine
 10
41.13292940992118
 20
17.10136165601718
 30
0.0
 11
41.12771953426118
 21
17.08444740398118
 31
0.0
  0
ARC
  5
1A5
330
1F
100
AcDbEntity
  8
IGES_LEVEL_0
 62
     7
100
AcDbCircle
 10
44.69480330770271
 20
18.29128240688622
 30
0.0
 40
0.0826692532401406
100
AcDbArc
 50
294.2115109555523
 51
344.3651273152599
  0
ARC
  5
1A6
330
1F
100
AcDbEntity
  8
IGES_LEVEL_0
 62
     7
100
AcDbCircle
 10
48.10678234899235
 20
11.17602461621978
 30
0.0
 40
8.614029612879214
100
AcDbArc
 50
114.3250946149558
 51
116.7153303425128
  0
LINE
  5
1A7
330
1F
100
AcDbEntity
  8
IGES_LEVEL_0
 62
     7
100
AcDbLine
 10
44.77240553303118
 20
18.32076022363218
 30
0.0
 11
44.77508051183118
 21
18.30923154779318
 31
0.0
  0
LINE
  5
1A8
330
1F
100
AcDbEntity
  8
IGES_LEVEL_0
 62
     7
100
AcDbLine
 10
44.65379850485118
 20
18.83835345660118
 30
0.0
 11
44.77240553303118
 21
18.32076022363218
 31
0.0
  0
LINE
  5
1A9
330
1F
100
AcDbEntity
  8
IGES_LEVEL_0
 62
     7
100
AcDbLine
 10
44.64218442480118
 20
18.89463687379018
 30
0.0
 11
44.65379850485118
 21
18.83835345660118
 31
0.0
  0
LINE
  5
1AA
330
1F
100
AcDbEntity
  8
IGES_LEVEL_0
 62
     7
100
AcDbLine
 10
44.63269928285118
 20
18.98052261500118
 30
0.0
 11
44.63175420470118
 21
18.98291910933018
 31
0.0
  0
LINE
  5
1AB
330
1F
100
AcDbEntity
  8
IGES_LEVEL_0
 62
     7
100
AcDbLine
 10
44.64421819119118
 20
18.95662711126818
 30
0.0
 11
44.63269928285118
 21
18.98052261500118
 31
0.0
  0
LINE
  5
1AC
330
1F
100
AcDbEntity
  8
IGES_LEVEL_0
 62
     7
100
AcDbLine
 10
44.65232074377118
 20
18.94367472440518
 30
0.0
 11
44.64421974514118
 21
18.95662544188118
 31
0.0
  0
ARC
  5
1AD
330
1F
100
AcDbEntity
  8
IGES_LEVEL_0
 62
     7
100
AcDbCircle
 10
44.79838140908166
 20
19.04403174789076
 30
0.0
 40
0.1772152649007096
100
AcDbArc
 50
214.4926218527247
 51
228.5939525395109
  0
LINE
  5
1AE
330
1F
100
AcDbEntity
  8
IGES_LEVEL_0
 62
     7
100
AcDbLine
 10
44.69157479494118
 20
18.90265776708018
 30
0.0
 11
44.68117282171118
 21
18.91111298638418
 31
0.0
  0
ARC
  5
1AF
330
1F
100
AcDbEntity
  8
IGES_LEVEL_0
 62
     7
100
AcDbCircle
 10
44.78276726135572
 20
19.02139715395192
 30
0.0
 40
0.1497167589999293
100
AcDbArc
 50
232.4755500277032
 51
294.4840666129048
  0
ARC
  5
1B0
330
1F
100
AcDbEntity
  8
IGES_LEVEL_0
 62
     7
100
AcDbCircle
 10
44.57804717713152
 20
18.97847768575624
 30
0.0
 40
0.0507439911765083
100
AcDbArc
 50
39.00302620235821
 51
112.6057119393001
  0
ARC
  5
1B1
330
1F
100
AcDbEntity
  8
IGES_LEVEL_0
 62
     7
100
AcDbCircle
 10
44.54641217036146
 20
18.9564099670179
 30
0.0
 40
0.0892592331276604
100
AcDbArc
 50
18.60199985135873
 51
37.23061057500032
  0
LINE
  5
1B2
330
1F
100
AcDbEntity
  8
IGES_LEVEL_0
 62
     7
100
AcDbLine
 10
44.63851005300118
 20
18.91570752740818
 30
0.0
 11
44.64218442480118
 21
18.89463687379018
 31
0.0
  0
LINE
  5
1B3
330
1F
100
AcDbEntity
  8
IGES_LEVEL_0
 62
     7
100
AcDbLine
 10
44.63467366080118
 20
18.93605270946718
 30
0.0
 11
44.63851005300118
 21
18.91570752740818
 31
0.0
  0
SPLINE
  5
1B4
330
1F
100
AcDbEntity
  8
IGES_LEVEL_0
 62
     7
100
AcDbSpline
210
0.0
220
0.0
230
1.0
 70
     8
 71
     3
 72
    11
 73
     7
 74
     0
 42
0.0000000001
 43
0.0000000001
 40
0.0
 40
0.0
 40
0.0
 40
0.0
 40
0.1602249019387
 40
0.2620194908546
 40
0.7412458647629
 40
1.0
 40
1.0
 40
1.0
 40
1.0
 10
44.63126621625118
 20
18.98494660767318
 30
0.0
 10
44.62964697721118
 20
18.98999271011118
 30
0.0
 10
44.62672355131118
 20
18.99833104263218
 30
0.0
 10
44.62371835840118
 20
18.97434435794618
 30
0.0
 10
44.62963455470118
 20
18.95832284854718
 30
0.0
 10
44.63344208182118
 20
18.94196521488318
 30
0.0
 10
44.63467366080118
 20
18.93605270946718
 30
0.0
  0
SPLINE
  5
1B5
330
1F
100
AcDbEntity
  8
IGES_LEVEL_0
 62
     7
100
AcDbSpline
210
0.0
220
0.0
230
1.0
 70
     8
 71
     3
 72
    13
 73
     9
 74
     0
 42
0.0000000001
 43
0.0000000001
 40
0.0
 40
0.0
 40
0.0
 40
0.0
 40
0.2678238431219
 40
0.6188465760463
 40
0.8628783157526
 40
0.9833734828663
 40
0.9836489051138
 40
1.0
 40
1.0
 40
1.0
 40
1.0
 10
46.43203417622118
 20
19.55808942602118
 30
0.0
 10
46.44360510519118
 20
19.56541515653818
 30
0.0
 10
46.46972836981118
 20
19.58329390211618
 30
0.0
 10
46.50360515237118
 20
19.61174824423218
 30
0.0
 10
46.53265482362118
 20
19.63353996385218
 30
0.0
 10
46.54385841125118
 20
19.64978616882918
 30
0.0
 10
46.55027972990118
 20
19.65263644377218
 30
0.0
 10
46.55074161434118
 20
19.65277011862518
 30
0.0
 10
46.55093858505118
 20
19.65272965289918
 30
0.0
  0
LINE
  5
1B6
330
1F
100
AcDbEntity
  8
IGES_LEVEL_0
 62
     7
100
AcDbLine
 10
46.41409313710118
 20
19.54717038829918
 30
0.0
 11
46.43203417622118
 21
19.55808942602118
 31
0.0
  0
ARC
  5
1B7
330
1F
100
AcDbEntity
  8
IGES_LEVEL_0
 62
     7
100
AcDbCircle
 10
46.13247748223385
 20
20.02557306579966
 30
0.0
 40
0.5551364687227699
100
AcDbArc
 50
294.04746339764
 51
300.4835429685106
  0
LINE
  5
1B8
330
1F
100
AcDbEntity
  8
IGES_LEVEL_0
 62
     7
100
AcDbLine
 10
44.63193658234118
 20
18.98283966643218
 30
0.0
 11
44.63126621625118
 21
18.98494660767318
 31
0.0
  0
ARC
  5
1B9
330
1F
100
AcDbEntity
  8
IGES_LEVEL_0
 62
     7
100
AcDbCircle
 10
46.38255615096077
 20
19.82394526388582
 30
0.0
 40
0.2401404459852085
100
AcDbArc
 50
307.3230692148051
 51
314.5220089312842
  0
ARC
  5
1BA
330
1F
100
AcDbEntity
  8
IGES_LEVEL_0
 62
     7
100
AcDbCircle
 10
44.69573056837155
 20
18.29042679401329
 30
0.0
 40
0.0815477301447931
100
AcDbArc
 50
344.768461856025
 51
13.33228849321479
  0
ARC
  5
1BB
330
1F
100
AcDbEntity
  8
IGES_LEVEL_0
 62
     7
100
AcDbCircle
 10
47.424800145917
 20
19.52677948127211
 30
0.0
 40
0.073472283506595
100
AcDbArc
 50
343.8973221204396
 51
23.78880412912957
  0
SPLINE
  5
1BC
330
1F
100
AcDbEntity
  8
IGES_LEVEL_0
 62
     7
100
AcDbSpline
210
0.0
220
0.0
230
1.0
 70
     8
 71
     3
 72
    11
 73
     7
 74
     0
 42
0.0000000001
 43
0.0000000001
 40
0.0
 40
0.0
 40
0.0
 40
0.0
 40
0.1113089354648
 40
0.4295412989378
 40
0.7243716195627
 40
1.0
 40
1.0
 40
1.0
 40
1.0
 10
47.40739533340118
 20
19.42267629241318
 30
0.0
 10
47.41162852863118
 20
19.42458467786118
 30
0.0
 10
47.42781561989118
 20
19.43228482563318
 30
0.0
 10
47.45392967189118
 20
19.44775704900418
 30
0.0
 10
47.48106100764118
 20
19.47367129008918
 30
0.0
 10
47.49232055604118
 20
19.49525277073318
 30
0.0
 10
47.49538983196118
 20
19.50640124121418
 30
0.0
  0
SPLINE
  5
1BD
330
1F
100
AcDbEntity
  8
IGES_LEVEL_0
 62
     7
100
AcDbSpline
210
0.0
220
0.0
230
1.0
 70
     8
 71
     3
 72
    13
 73
     9
 74
     0
 42
0.0000000001
 43
0.0000000001
 40
0.0
 40
0.0
 40
0.0
 40
0.0
 40
0.04423460053211
 40
0.2472021172434
 40
0.4187220424867
 40
0.613888637474
 40
0.819540007481
 40
1.0
 40
1.0
 40
1.0
 40
1.0
 10
41.97248156933118
 20
17.05390657259018
 30
0.0
 10
41.97335640894118
 20
17.05265861980618
 30
0.0
 10
41.97828616559118
 20
17.04571293822718
 30
0.0
 10
41.98695965742118
 20
17.03418622876518
 30
0.0
 10
42.00050271152118
 20
17.01986505532118
 30
0.0
 10
42.01776106385118
 20
17.00952333479718
 30
0.0
 10
42.03809791219118
 20
17.00644140734118
 30
0.0
 10
42.05140946703118
 20
17.00972942204218
 30
0.0
 10
42.05710775987118
 20
17.01228826983618
 30
0.0
  0
LINE
  5
1BE
330
1F
100
AcDbEntity
  8
IGES_LEVEL_0
 62
     7
100
AcDbLine
 10
41.96542817200118
 20
17.06366073286118
 30
0.0
 11
41.97247884964118
 21
17.05390370652918
 31
0.0
  0
SPLINE
  5
1BF
330
1F
100
AcDbEntity
  8
IGES_LEVEL_0
 62
     7
100
AcDbSpline
210
0.0
220
0.0
230
1.0
 70
     8
 71
     3
 72
    12
 73
     8
 74
     0
 42
0.0000000001
 43
0.0000000001
 40
0.0
 40
0.0
 40
0.0
 40
0.0
 40
0.3274291388233
 40
0.6548582776466
 40
0.8185728470582
 40
0.9822874164698
 40
1.0
 40
1.0
 40
1.0
 40
1.0
 10
46.88485463888118
 20
19.80421649605618
 30
0.0
 10
46.93479781763118
 20
19.82671677577018
 30
0.0
 10
47.03332721985118
 20
19.86690516026518
 30
0.0
 10
47.15175326858118
 20
19.90034639813518
 30
0.0
 10
47.24197644899118
 20
19.91107840107118
 30
0.0
 10
47.28737935939118
 20
19.90911355790318
 30
0.0
 10
47.31034305949118
 20
19.90487915907818
 30
0.0
 10
47.31257586002118
 20
19.90443339251918
 30
0.0
  0
LINE
  5
1C0
330
1F
100
AcDbEntity
  8
IGES_LEVEL_0
 62
     7
100
AcDbLine
 10
41.85371946286118
 20
17.71976544236718
 30
0.0
 11
41.70035762557118
 21
17.64046586437018
 31
0.0
  0
LINE
  5
1C1
330
1F
100
AcDbEntity
  8
IGES_LEVEL_0
 62
     7
100
AcDbLine
 10
41.12043155519118
 20
16.71490765359918
 30
0.0
 11
41.12579819715118
 21
16.69529839130818
 31
0.0
  0
LINE
  5
1C2
330
1F
100
AcDbEntity
  8
IGES_LEVEL_0
 62
     7
100
AcDbLine
 10
44.55854906165118
 20
19.02532681869218
 30
0.0
 11
44.53673427221118
 21
19.01602200287618
 31
0.0
  0
LINE
  5
1C3
330
1F
100
AcDbEntity
  8
IGES_LEVEL_0
 62
     7
100
AcDbLine
 10
44.64287240155118
 20
18.95904284178318
 30
0.0
 11
44.63270733349118
 21
18.98052584900118
 31
0.0
  0
LINE
  5
1C4
330
1F
100
AcDbEntity
  8
IGES_LEVEL_0
 62
     7
100
AcDbLine
 10
44.67923949122118
 20
18.91284165919218
 30
0.0
 11
44.66052020706118
 21
18.93268006814218
 31
0.0
  0
ARC
  5
1C5
330
1F
100
AcDbEntity
  8
IGES_LEVEL_0
 62
     7
100
AcDbCircle
 10
44.57800570063307
 20
18.9784202458898
 30
0.0
 40
0.050808827547141
100
AcDbArc
 50
39.02389140123776
 51
105.6860805469368
  0
LINE
  5
1C6
330
1F
100
AcDbEntity
  8
IGES_LEVEL_0
 62
     7
100
AcDbLine
 10
44.62018924269118
 20
19.00684064481718
 30
0.0
 11
44.61814325956118
 21
19.00958909395718
 31
0.0
  0
LINE
  5
1C7
330
1F
100
AcDbEntity
  8
IGES_LEVEL_0
 62
     7
100
AcDbLine
 10
56.77749828682118
 20
23.71676130645018
 30
0.0
 11
56.77692415990118
 21
23.71815256893018
 31
0.0
  0
LINE
  5
1C8
330
1F
100
AcDbEntity
  8
IGES_LEVEL_0
 62
     7
100
AcDbLine
 10
56.77814620254118
 20
23.71518963096018
 30
0.0
 11
56.77749828682118
 21
23.71676130645018
 31
0.0
  0
LINE
  5
1C9
330
1F
100
AcDbEntity
  8
IGES_LEVEL_0
 62
     7
100
AcDbLine
 10
56.77865549799118
 20
23.71395299401018
 30
0.0
 11
56.77814620254118
 21
23.71518963096018
 31
0.0
  0
LINE
  5
1CA
330
1F
100
AcDbEntity
  8
IGES_LEVEL_0
 62
     7
100
AcDbLine
 10
56.77922211641118
 20
23.71257588314018
 30
0.0
 11
56.77865549799118
 21
23.71395299401018
 31
0.0
  0
LINE
  5
1CB
330
1F
100
AcDbEntity
  8
IGES_LEVEL_0
 62
     7
100
AcDbLine
 10
56.77963529854118
 20
23.71157081513018
 30
0.0
 11
56.77922211641118
 21
23.71257588314018
 31
0.0
  0
LINE
  5
1CC
330
1F
100
AcDbEntity
  8
IGES_LEVEL_0
 62
     7
100
AcDbLine
 10
56.78011517044118
 20
23.71040258811018
 30
0.0
 11
56.77963529854118
 21
23.71157081513018
 31
0.0
  0
LINE
  5
1CD
330
1F
100
AcDbEntity
  8
IGES_LEVEL_0
 62
     7
100
AcDbLine
 10
56.78043734900118
 20
23.70961768646018
 30
0.0
 11
56.78011517044118
 21
23.71040258811018
 31
0.0
  0
LINE
  5
1CE
330
1F
100
AcDbEntity
  8
IGES_LEVEL_0
 62
     7
100
AcDbLine
 10
56.77615887540118
 20
23.72000503162018
 30
0.0
 11
56.77479656167118
 21
23.72329713403018
 31
0.0
  0
LINE
  5
1CF
330
1F
100
AcDbEntity
  8
IGES_LEVEL_0
 62
     7
100
AcDbLine
 10
56.78183155257118
 20
23.70621565113018
 30
0.0
 11
56.77615887540118
 21
23.72000503162018
 31
0.0
  0
ARC
  5
1D0
330
1F
100
AcDbEntity
  8
IGES_LEVEL_0
 62
     7
100
AcDbCircle
 10
56.39410731768916
 20
24.25550580727128
 30
0.0
 40
0.0850526796893498
100
AcDbArc
 50
28.15453016690291
 51
114.247008995762
  0
LINE
  5
1D1
330
1F
100
AcDbEntity
  8
IGES_LEVEL_0
 62
     7
100
AcDbLine
 10
56.77125954839118
 20
23.73077701662018
 30
0.0
 11
56.46909870400118
 21
24.29563924035018
 31
0.0
  0
LINE
  5
1D2
330
1F
100
AcDbEntity
  8
IGES_LEVEL_0
 62
     7
100
AcDbLine
 10
56.77633581310118
 20
23.71929377688018
 30
0.0
 11
56.77479533669118
 21
23.72329575302018
 31
0.0
  0
LINE
  5
1D3
330
1F
100
AcDbEntity
  8
IGES_LEVEL_0
 62
     7
100
AcDbLine
 10
56.77479533669118
 20
23.72329575302018
 30
0.0
 11
56.77125873990118
 21
23.73077658495018
 31
0.0
  0
ARC
  5
1D4
330
1F
100
AcDbEntity
  8
IGES_LEVEL_0
 62
     7
100
AcDbCircle
 10
55.97279897179844
 20
24.26268007599992
 30
0.0
 40
0.315763515169662
100
AcDbArc
 50
206.7061375298789
 51
216.9833347261866
  0
ARC
  5
1D5
330
1F
100
AcDbEntity
  8
IGES_LEVEL_0
 62
     7
100
AcDbCircle
 10
55.97872050837023
 20
24.27264957438728
 30
0.0
 40
0.3265208454109981
100
AcDbArc
 50
217.7556956167987
 51
3.175114582882447
  0
ARC
  5
1D6
330
1F
100
AcDbEntity
  8
IGES_LEVEL_0
 62
     7
100
AcDbCircle
 10
55.66838320570868
 20
24.10954269027542
 30
0.0
 40
0.0249999980592571
100
AcDbArc
 50
26.6814199018437
 51
112.5790833897869
  0
ARC
  5
1D7
330
1F
100
AcDbEntity
  8
IGES_LEVEL_0
 62
     7
100
AcDbCircle
 10
55.67870618740755
 20
24.04918631481182
 30
0.0
 40
0.0846797455445312
100
AcDbArc
 50
114.3805217776318
 51
200.089083762912
  0
LINE
  5
1D8
330
1F
100
AcDbEntity
  8
IGES_LEVEL_0
 62
     7
100
AcDbLine
 10
55.64653445688118
 20
24.12753008161018
 30
0.0
 11
55.64375082787118
 21
24.12631466333018
 31
0.0
  0
LINE
  5
1D9
330
1F
100
AcDbEntity
  8
IGES_LEVEL_0
 62
     7
100
AcDbLine
 10
55.59918558918118
 20
24.02008084841018
 30
0.0
 11
55.75665016076118
 21
23.59546672294018
 31
0.0
  0
ARC
  5
1DA
330
1F
100
AcDbEntity
  8
IGES_LEVEL_0
 62
     7
100
AcDbCircle
 10
56.32968052470014
 20
24.29236111452426
 30
0.0
 40
0.0249863434844831
100
AcDbArc
 50
114.2450763039248
 51
184.0526812252916
  0
SPLINE
  5
1DB
330
1F
100
AcDbEntity
  8
IGES_LEVEL_0
 62
     7
100
AcDbSpline
210
0.0
220
0.0
230
1.0
 70
     8
 71
     3
 72
    13
 73
     9
 74
     0
 42
0.0000000001
 43
0.0000000001
 40
0.0
 40
0.0
 40
0.0
 40
0.0
 40
0.234838722459
 40
0.4519008801281
 40
0.6436759382427
 40
0.8018843694336
 40
0.9210665513332
 40
1.0
 40
1.0
 40
1.0
 40
1.0
 10
4.640351114272781
 20
23.60608060581018
 30
0.0
 10
4.67681751808428
 20
23.57285821521018
 30
0.0
 10
4.744977536838981
 20
23.50669152164018
 30
0.0
 10
4.836317307631781
 20
23.40686203155018
 30
0.0
 10
4.91111042155108
 20
23.31413080848018
 30
0.0
 10
4.96713761244138
 20
23.23265519761018
 30
0.0
 10
5.002315028800981
 20
23.16687234243018
 30
0.0
 10
5.015351114272781
 20
23.12608487464018
 30
0.0
 10
5.015351114272781
 20
23.10950392692018
 30
0.0
  0
SPLINE
  5
1DC
330
1F
100
AcDbEntity
  8
IGES_LEVEL_0
 62
     7
100
AcDbSpline
210
0.0
220
0.0
230
1.0
 70
     8
 71
     3
 72
    13
 73
     9
 74
     0
 42
0.0000000001
 43
0.0000000001
 40
0.0
 40
0.0
 40
0.0
 40
0.0
 40
0.07888963662608
 40
0.1980164418302
 40
0.3561940696955
 40
0.5479712495334
 40
0.7652012177021
 40
1.0
 40
1.0
 40
1.0
 40
1.0
 10
4.26535111427318
 20
23.10950392692018
 30
0.0
 10
4.26535111427318
 20
23.12607567760018
 30
0.0
 10
4.27837548181718
 20
23.16684361721018
 30
0.0
 10
4.313534732908181
 20
23.23260601877018
 30
0.0
 10
4.36954649772678
 20
23.31407063613018
 30
0.0
 10
4.44435394376078
 20
23.40682804259018
 30
0.0
 10
4.53571127359738
 20
23.50667877676018
 30
0.0
 10
4.60389089879588
 20
23.57286385304018
 30
0.0
 10
4.640351114272781
 20
23.60608060581018
 30
0.0
  0
SPLINE
  5
1DD
330
1F
100
AcDbEntity
  8
IGES_LEVEL_0
 62
     7
100
AcDbSpline
210
0.0
220
0.0
230
1.0
 70
     8
 71
     3
 72
     9
 73
     5
 74
     0
 42
0.0000000001
 43
0.0000000001
 40
0.0
 40
0.0
 40
0.0
 40
0.0
 40
0.6901490573385
 40
1.0
 40
1.0
 40
1.0
 40
1.0
 10
1.21798962116718
 20
16.52941897876318
 30
0.0
 10
1.22980039098918
 20
16.51308031077018
 30
0.0
 10
1.24571999372918
 20
16.48919735000818
 30
0.0
 10
1.26535111427318
 20
16.46349940828918
 30
0.0
 10
1.26535111427318
 20
16.45429735142018
 30
0.0
  0
ARC
  5
1DE
330
1F
100
AcDbEntity
  8
IGES_LEVEL_0
 62
     7
100
AcDbCircle
 10
-3.193317583018998
 20
13.12195765714067
 30
0.0
 40
5.574085028779008
100
AcDbArc
 50
37.68386149703542
 51
42.89377397994679
  0
ARC
  5
1DF
330
1F
100
AcDbEntity
  8
IGES_LEVEL_0
 62
     7
100
AcDbCircle
 10
18.81720916654939
 20
9.290987742744152
 30
0.0
 40
0.3726735129856894
100
AcDbArc
 50
269.8866198841332
 51
281.3185023880381
  0
SPLINE
  5
1E0
330
1F
100
AcDbEntity
  8
IGES_LEVEL_0
 62
     7
100
AcDbSpline
210
0.0
220
0.0
230
1.0
 70
     8
 71
     3
 72
    13
 73
     9
 74
     0
 42
0.0000000001
 43
0.0000000001
 40
0.0
 40
0.0
 40
0.0
 40
0.0
 40
0.2348386537392
 40
0.4519007554389
 40
0.6436757778342001
 40
0.8018842009188
 40
0.9210664022482
 40
1.0
 40
1.0
 40
1.0
 40
1.0
 10
17.01535111427118
 20
23.60608060581018
 30
0.0
 10
17.05181750737118
 20
23.57285822497018
 30
0.0
 10
17.11997750779118
 20
23.50669155038018
 30
0.0
 10
17.21131725841118
 20
23.40686208763018
 30
0.0
 10
17.28611036314118
 20
23.31413088477018
 30
0.0
 10
17.34213755939118
 20
23.23265528307018
 30
0.0
 10
17.37731500008118
 20
23.16687240564018
 30
0.0
 10
17.39035111427118
 20
23.12608490594018
 30
0.0
 10
17.39035111427118
 20
23.10950392692018
 30
0.0
  0
SPLINE
  5
1E1
330
1F
100
AcDbEntity
  8
IGES_LEVEL_0
 62
     7
100
AcDbSpline
210
0.0
220
0.0
230
1.0
 70
     8
 71
     3
 72
    13
 73
     9
 74
     0
 42
0.0000000001
 43
0.0000000001
 40
0.0
 40
0.0
 40
0.0
 40
0.0
 40
0.07888961419195
 40
0.198016416453
 40
0.3561940455422
 40
0.5479712307324
 40
0.7652012073489
 40
1.0
 40
1.0
 40
1.0
 40
1.0
 10
16.64035111427118
 20
23.10950392692018
 30
0.0
 10
16.64035111427118
 20
23.12607567289018
 30
0.0
 10
16.65337547749118
 20
23.16684360770018
 30
0.0
 10
16.68853472492118
 20
23.23260600590018
 30
0.0
 10
16.74454648893118
 20
23.31407062464018
 30
0.0
 10
16.81935393634118
 20
23.40682803414018
 30
0.0
 10
16.91071126922118
 20
23.50667877243018
 30
0.0
 10
16.97889089718118
 20
23.57286385157018
 30
0.0
 10
17.01535111427118
 20
23.60608060581018
 30
0.0
  0
SPLINE
  5
1E2
330
1F
100
AcDbEntity
  8
IGES_LEVEL_0
 62
     7
100
AcDbSpline
210
0.0
220
0.0
230
1.0
 70
     8
 71
     3
 72
    10
 73
     6
 74
     0
 42
0.0000000001
 43
0.0000000001
 40
0.0
 40
0.0
 40
0.0
 40
0.0
 40
0.1764730425411
 40
0.5353577150502
 40
1.0
 40
1.0
 40
1.0
 40
1.0
 10
1.21055797304318
 20
25.87286263269018
 30
0.0
 10
1.19889555556218
 20
25.86552906728018
 30
0.0
 10
1.16118859857218
 20
25.84482740027018
 30
0.0
 10
1.09897369211118
 20
25.79749224669018
 30
0.0
 10
1.04712151636718
 20
25.75850957845018
 30
0.0
 10
1.018453934146181
 20
25.73588527086018
 30
0.0
  0
SPLINE
  5
1E3
330
1F
100
AcDbEntity
  8
IGES_LEVEL_0
 62
     7
100
AcDbSpline
210
0.0
220
0.0
230
1.0
 70
     8
 71
     3
 72
    10
 73
     6
 74
     0
 42
0.0000000001
 43
0.0000000001
 40
0.0
 40
0.0
 40
0.0
 40
0.0
 40
0.08475820851429
 40
0.6900269537522
 40
1.0
 40
1.0
 40
1.0
 40
1.0
 10
1.26081453533618
 20
25.89470428452018
 30
0.0
 10
1.25902805835618
 20
25.89514158037018
 30
0.0
 10
1.24199378826618
 20
25.89641340133018
 30
0.0
 10
1.22904633127318
 20
25.88497916177018
 30
0.0
 10
1.21533143671718
 20
25.87586428378018
 30
0.0
 10
1.21055797304318
 20
25.87286263269018
 30
0.0
  0
LINE
  5
1E4
330
1F
100
AcDbEntity
  8
IGES_LEVEL_0
 62
     7
100
AcDbLine
 10
18.53025285493118
 20
9.260983144528181
 30
0.0
 11
18.52256187419118
 21
9.293351473638181
 31
0.0
  0
LINE
  5
1E5
330
1F
100
AcDbEntity
  8
IGES_LEVEL_0
 62
     7
100
AcDbLine
 10
18.54071884328118
 20
9.228623288437181
 30
0.0
 11
18.53025285493118
 21
9.260983144528181
 31
0.0
  0
ARC
  5
1E6
330
1F
100
AcDbEntity
  8
IGES_LEVEL_0
 62
     7
100
AcDbCircle
 10
18.99960859592371
 20
9.402053826104247
 30
0.0
 40
0.4905690129592494
100
AcDbArc
 50
200.7033377071471
 51
243.4852644090915
  0
ARC
  5
1E7
330
1F
100
AcDbEntity
  8
IGES_LEVEL_0
 62
     7
100
AcDbCircle
 10
18.97850334043939
 20
9.362663398086324
 30
0.0
 40
0.4459016068721264
100
AcDbArc
 50
243.6523594675773
 51
258.5978371038132
  0
LINE
  5
1E8
330
1F
100
AcDbEntity
  8
IGES_LEVEL_0
 62
     7
100
AcDbLine
 10
18.51554743704118
 20
9.354601301030181
 30
0.0
 11
18.51535111427118
 21
9.366536683076181
 31
0.0
  0
ARC
  5
1E9
330
1F
100
AcDbEntity
  8
IGES_LEVEL_0
 62
     7
100
AcDbCircle
 10
18.90128060941267
 20
9.367749570772633
 30
0.0
 40
0.385957196156507
100
AcDbArc
 50
181.9522531539796
 51
191.1140481182194
  0
ARC
  5
1EA
330
1F
100
AcDbEntity
  8
IGES_LEVEL_0
 62
     7
100
AcDbCircle
 10
2.838493061997491
 20
9.29098774276944
 30
0.0
 40
0.3726735130109805
100
AcDbArc
 50
258.6814976123449
 51
270.1133801160868
  0
LINE
  5
1EB
330
1F
100
AcDbEntity
  8
IGES_LEVEL_0
 62
     7
100
AcDbLine
 10
2.80319435938618
 20
8.934916822074181
 30
0.0
 11
2.76535111427318
 21
8.92556223355718
 31
0.0
  0
ARC
  5
1EC
330
1F
100
AcDbEntity
  8
IGES_LEVEL_0
 62
     7
100
AcDbCircle
 10
2.659070881920076
 20
9.40059727691386
 30
0.0
 40
0.4874729354298701
100
AcDbArc
 50
287.1967771835746
 51
335.2507297304544
  0
LINE
  5
1ED
330
1F
100
AcDbEntity
  8
IGES_LEVEL_0
 62
     7
100
AcDbLine
 10
3.11498338526918
 20
9.228623288437181
 30
0.0
 11
3.10176869989018
 21
9.196517623981181
 31
0.0
  0
ARC
  5
1EE
330
1F
100
AcDbEntity
  8
IGES_LEVEL_0
 62
     7
100
AcDbCircle
 10
2.717882687862272
 20
9.374925116611825
 30
0.0
 40
0.4231940321038285
100
AcDbArc
 50
339.7749409571352
 51
348.8862722604869
  0
LINE
  5
1EF
330
1F
100
AcDbEntity
  8
IGES_LEVEL_0
 62
     7
100
AcDbLine
 10
3.13536165652818
 20
9.30576663585718
 30
0.0
 11
3.13314035435418
 21
9.293351473638181
 31
0.0
  0
ARC
  5
1F0
330
1F
100
AcDbEntity
  8
IGES_LEVEL_0
 62
     7
100
AcDbCircle
 10
2.761682529196948
 20
9.367036999304222
 30
0.0
 40
0.3786689155977339
100
AcDbArc
 50
350.6883441752602
 51
359.9242979408969
  0
LINE
  5
1F1
330
1F
100
AcDbEntity
  8
IGES_LEVEL_0
 62
     7
100
AcDbLine
 10
0.9516369233811798
 20
16.97991429971518
 30
0.0
 11
0.8903511142731798
 21
16.91590993396418
 31
0.0
  0
ARC
  5
1F2
330
1F
100
AcDbEntity
  8
IGES_LEVEL_0
 62
     7
100
AcDbCircle
 10
2.331030529815207
 20
15.64511938634529
 30
0.0
 40
1.919480185422396
100
AcDbArc
 50
129.1627698149922
 51
135.941381530504
  0
SPLINE
  5
1F3
330
1F
100
AcDbEntity
  8
IGES_LEVEL_0
 62
     7
100
AcDbSpline
210
0.0
220
0.0
230
1.0
 70
     8
 71
     3
 72
    10
 73
     6
 74
     0
 42
0.0000000001
 43
0.0000000001
 40
0.0
 40
0.0
 40
0.0
 40
0.0
 40
0.2293523838391
 40
0.7611832378025
 40
1.0
 40
1.0
 40
1.0
 40
1.0
 10
1.24393270725618
 20
17.20223074347818
 30
0.0
 10
1.23356924091218
 20
17.20342146040118
 30
0.0
 10
1.19475722175818
 20
17.18501982752018
 30
0.0
 10
1.15675849342718
 20
17.16198342676818
 30
0.0
 10
1.12776318565218
 20
17.14036707898918
 30
0.0
 10
1.11882961827518
 20
17.13339796654818
 30
0.0
  0
ARC
  5
1F4
330
1F
100
AcDbEntity
  8
IGES_LEVEL_0
 62
     7
100
AcDbCircle
 10
0.9935495407837154
 20
25.25953201955849
 30
0.0
 40
0.2718064804930221
100
AcDbArc
 50
0.3442837831136976
 51
10.3847425160996
  0
SPLINE
  5
1F5
330
1F
100
AcDbEntity
  8
IGES_LEVEL_0
 62
     7
100
AcDbSpline
210
0.0
220
0.0
230
1.0
 70
     8
 71
     3
 72
    12
 73
     8
 74
     0
 42
0.0000000001
 43
0.0000000001
 40
0.0
 40
0.0
 40
0.0
 40
0.0
 40
0.2780081580883
 40
0.5334487856527
 40
0.7579873515424001
 40
0.94606571193
 40
1.0
 40
1.0
 40
1.0
 40
1.0
 10
1.018453934146181
 20
25.73588527086018
 30
0.0
 10
1.04909586170218
 20
25.70159016748018
 30
0.0
 10
1.10469792890518
 20
25.63284110052018
 30
0.0
 10
1.17380864531218
 20
25.52799000258018
 30
0.0
 10
1.22458106117218
 20
25.42950608829018
 30
0.0
 10
1.25076299395318
 20
25.35669143119018
 30
0.0
 10
1.25934156420018
 20
25.31734721586018
 30
0.0
 10
1.26090369712118
 20
25.30852710020018
 30
0.0
  0
LINE
  5
1F6
330
1F
100
AcDbEntity
  8
IGES_LEVEL_0
 62
     7
100
AcDbLine
 10
20.76535111427118
 20
16.91590993396418
 30
0.0
 11
20.70406530516118
 21
16.97991429971518
 31
0.0
  0
ARC
  5
1F7
330
1F
100
AcDbEntity
  8
IGES_LEVEL_0
 62
     7
100
AcDbCircle
 10
25.00010041087421
 20
12.98697773710609
 30
0.0
 40
5.7766434728645
100
AcDbArc
 50
137.1453359968006
 51
141.2695313952056
  0
ARC
  5
1F8
330
1F
100
AcDbEntity
  8
IGES_LEVEL_0
 62
     7
100
AcDbCircle
 10
21.53508314669686
 20
15.73220008018721
 30
0.0
 40
1.356278352774493
100
AcDbArc
 50
140.1553631187844
 51
145.0043334573031
  0
LINE
  5
1F9
330
1F
100
AcDbEntity
  8
IGES_LEVEL_0
 62
     7
100
AcDbLine
 10
20.41232584601118
 20
16.49336941488218
 30
0.0
 11
20.42402612737118
 21
16.51004535401218
 31
0.0
  0
ARC
  5
1FA
330
1F
100
AcDbEntity
  8
IGES_LEVEL_0
 62
     7
100
AcDbCircle
 10
20.53873828010762
 20
16.38931978060565
 30
0.0
 40
0.1637266926535358
100
AcDbArc
 50
140.542322818927
 51
154.3395280843729
  0
LINE
  5
1FB
330
1F
100
AcDbEntity
  8
IGES_LEVEL_0
 62
     7
100
AcDbLine
 10
20.39035111427118
 20
16.45429735142018
 30
0.0
 11
20.39115897105118
 21
16.46021955088518
 31
0.0
  0
SPLINE
  5
1FC
330
1F
100
AcDbEntity
  8
IGES_LEVEL_0
 62
     7
100
AcDbSpline
210
0.0
220
0.0
230
1.0
 70
     8
 71
     3
 72
     9
 73
     5
 74
     0
 42
0.0000000001
 43
0.0000000001
 40
0.0
 40
0.0
 40
0.0
 40
0.0
 40
0.6989701749178
 40
1.0
 40
1.0
 40
1.0
 40
1.0
 10
20.50990479223118
 20
17.15341915712018
 30
0.0
 10
20.48983465072118
 20
17.16750967878718
 30
0.0
 10
20.46092637948118
 20
17.18503771634618
 30
0.0
 10
20.42211991276118
 20
17.20341368596818
 30
0.0
 10
20.41176989205118
 20
17.20223113476118
 30
0.0
  0
ARC
  5
1FD
330
1F
100
AcDbEntity
  8
IGES_LEVEL_0
 62
     7
100
AcDbCircle
 10
19.50593788850114
 20
15.83454052410872
 30
0.0
 40
1.657525382128269
100
AcDbArc
 50
43.71045484715649
 51
52.72060561129027
  0
SPLINE
  5
1FE
330
1F
100
AcDbEntity
  8
IGES_LEVEL_0
 62
     7
100
AcDbSpline
210
0.0
220
0.0
230
1.0
 70
     8
 71
     3
 72
    11
 73
     7
 74
     0
 42
0.0000000001
 43
0.0000000001
 40
0.0
 40
0.0
 40
0.0
 40
0.0
 40
0.06833099482712
 40
0.3053342089119
 40
0.6196906712819
 40
1.0
 40
1.0
 40
1.0
 40
1.0
 10
20.43929025349118
 20
6.00769435763518
 30
0.0
 10
20.44540243788118
 20
6.00071386572318
 30
0.0
 10
20.46358421443118
 20
5.97330036945118
 30
0.0
 10
20.54738310091118
 20
5.89818266912018
 30
0.0
 10
20.64411014479118
 20
5.797852125045179
 30
0.0
 10
20.72247595953118
 20
5.71896550170818
 30
0.0
 10
20.76535111427118
 20
5.67730980906518
 30
0.0
  0
SPLINE
  5
1FF
330
1F
100
AcDbEntity
  8
IGES_LEVEL_0
 62
     7
100
AcDbSpline
210
0.0
220
0.0
230
1.0
 70
     8
 71
     3
 72
     9
 73
     5
 74
     0
 42
0.0000000001
 43
0.0000000001
 40
0.0
 40
0.0
 40
0.0
 40
0.0
 40
0.3816232453694
 40
1.0
 40
1.0
 40
1.0
 40
1.0
 10
20.39035111427118
 20
6.05230980906518
 30
0.0
 10
20.38287409986118
 20
6.05230831746918
 30
0.0
 10
20.41704132805118
 20
6.03004223675118
 30
0.0
 10
20.43239553035118
 20
6.01556855711318
 30
0.0
 10
20.43929025349118
 20
6.00769435763518
 30
0.0
  0
SPLINE
  5
200
330
1F
100
AcDbEntity
  8
IGES_LEVEL_0
 62
     7
100
AcDbSpline
210
0.0
220
0.0
230
1.0
 70
     8
 71
     3
 72
     9
 73
     5
 74
     0
 42
0.0000000001
 43
0.0000000001
 40
0.0
 40
0.0
 40
0.0
 40
0.0
 40
0.5960847132876
 40
1.0
 40
1.0
 40
1.0
 40
1.0
 10
1.21832355291218
 20
6.00982916626818
 30
0.0
 10
1.22505891292318
 20
6.01718921252618
 30
0.0
 10
1.24054668114918
 20
6.03127059748418
 30
0.0
 10
1.27282810255318
 20
6.05230946729718
 30
0.0
 10
1.26535111427318
 20
6.05230980906518
 30
0.0
  0
SPLINE
  5
201
330
1F
100
AcDbEntity
  8
IGES_LEVEL_0
 62
     7
100
AcDbSpline
210
0.0
220
0.0
230
1.0
 70
     8
 71
     3
 72
    11
 73
     7
 74
     0
 42
0.0000000001
 43
0.0000000001
 40
0.0
 40
0.0
 40
0.0
 40
0.0
 40
0.3777109361085
 40
0.6899195807222001
 40
0.9253034308935
 40
1.0
 40
1.0
 40
1.0
 40
1.0
 10
0.8903511142731798
 20
5.67730980906518
 30
0.0
 10
0.9332262866171798
 20
5.71896551791718
 30
0.0
 10
1.01159213004718
 20
5.797852349965179
 30
0.0
 10
1.10831919359618
 20
5.898182278636179
 30
0.0
 10
1.19304839538418
 20
5.974135274929179
 30
0.0
 10
1.21110744365218
 20
6.001943782583179
 30
0.0
 10
1.21832355291218
 20
6.00982916626818
 30
0.0
  0
ARC
  5
202
330
1F
100
AcDbEntity
  8
IGES_LEVEL_0
 62
     7
100
AcDbCircle
 10
21.56594535228119
 20
24.89514926277164
 30
0.0
 40
1.252723138052311
100
AcDbArc
 50
137.8459124355404
 51
153.4460072050809
  0
SPLINE
  5
203
330
1F
100
AcDbEntity
  8
IGES_LEVEL_0
 62
     7
100
AcDbSpline
210
0.0
220
0.0
230
1.0
 70
     8
 71
     3
 72
    10
 73
     6
 74
     0
 42
0.0000000001
 43
0.0000000001
 40
0.0
 40
0.0
 40
0.0
 40
0.0
 40
0.3663092619312
 40
0.8263193843981
 40
1.0
 40
1.0
 40
1.0
 40
1.0
 10
20.39035111427118
 20
25.26116526377018
 30
0.0
 10
20.39035111427118
 20
25.28594093272018
 30
0.0
 10
20.39956122991118
 20
25.34173464516018
 30
0.0
 10
20.42250547754118
 20
25.40554496570018
 30
0.0
 10
20.44027956672118
 20
25.44457346126018
 30
0.0
 10
20.44536760746118
 20
25.45516781463018
 30
0.0
  0
SPLINE
  5
204
330
1F
100
AcDbEntity
  8
IGES_LEVEL_0
 62
     7
100
AcDbSpline
210
0.0
220
0.0
230
1.0
 70
     8
 71
     3
 72
    12
 73
     8
 74
     0
 42
0.0000000001
 43
0.0000000001
 40
0.0
 40
0.0
 40
0.0
 40
0.0
 40
0.3768316930814
 40
0.6678924147228
 40
0.8695950038397
 40
0.9839819379331
 40
1.0
 40
1.0
 40
1.0
 40
1.0
 10
20.63724829440118
 20
25.73588527086018
 30
0.0
 10
20.60858071218118
 20
25.75850957845018
 30
0.0
 10
20.55672853643118
 20
25.79749224669018
 30
0.0
 10
20.49001978730118
 20
25.84824646405018
 30
0.0
 10
20.43646125337118
 20
25.87631979409018
 30
0.0
 10
20.41370844020118
 20
25.89641340141018
 30
0.0
 10
20.39667416988118
 20
25.89514158035018
 30
0.0
 10
20.39488769281118
 20
25.89470428442018
 30
0.0
  0
SPLINE
  5
205
330
1F
100
AcDbEntity
  8
IGES_LEVEL_0
 62
     7
100
AcDbSpline
210
0.0
220
0.0
230
1.0
 70
     8
 71
     3
 72
     9
 73
     5
 74
     0
 42
0.0000000001
 43
0.0000000001
 40
0.0
 40
0.0
 40
0.0
 40
0.0
 40
0.7261997938981
 40
1.0
 40
1.0
 40
1.0
 40
1.0
 10
1.21867556515818
 20
5.34846877704718
 30
0.0
 10
1.22830243531618
 20
5.33660263710218
 30
0.0
 10
1.24045000364018
 20
5.31980364921718
 30
0.0
 10
1.26535111427318
 20
5.308287109656179
 30
0.0
 10
1.26535111427318
 20
5.30230980906518
 30
0.0
  0
SPLINE
  5
206
330
1F
100
AcDbEntity
  8
IGES_LEVEL_0
 62
     7
100
AcDbSpline
210
0.0
220
0.0
230
1.0
 70
     8
 71
     3
 72
    12
 73
     8
 74
     0
 42
0.0000000001
 43
0.0000000001
 40
0.0
 40
0.0
 40
0.0
 40
0.0
 40
0.3163908841739
 40
0.5924210540773
 40
0.8198327848044
 40
0.9917035736738
 40
1.0
 40
1.0
 40
1.0
 40
1.0
 10
0.8903511142731798
 20
5.67730980906518
 30
0.0
 10
0.9246582512411804
 20
5.64229098219018
 30
0.0
 10
0.9898765078361805
 20
5.57780160094718
 30
0.0
 10
1.08025524105818
 20
5.48810722479318
 30
0.0
 10
1.15228735630618
 20
5.413327369728179
 30
0.0
 10
1.20082828146418
 20
5.37027813450718
 30
0.0
 10
1.21789496512018
 20
5.34943094950218
 30
0.0
 10
1.21867556515818
 20
5.34846877704718
 30
0.0
  0
SPLINE
  5
207
330
1F
100
AcDbEntity
  8
IGES_LEVEL_0
 62
     7
100
AcDbSpline
210
0.0
220
0.0
230
1.0
 70
     8
 71
     3
 72
    11
 73
     7
 74
     0
 42
0.0000000001
 43
0.0000000001
 40
0.0
 40
0.0
 40
0.0
 40
0.0
 40
0.170698228627
 40
0.398613486741
 40
0.6772883252329
 40
1.0
 40
1.0
 40
1.0
 40
1.0
 10
20.43712383893118
 20
5.34908253372718
 30
0.0
 10
20.45342046871118
 20
5.368744315032179
 30
0.0
 10
20.50088817502118
 20
5.41076196358918
 30
0.0
 10
20.57298900783118
 20
5.485671789854179
 30
0.0
 10
20.66429941069118
 20
5.57626810219918
 30
0.0
 10
20.73041090890118
 20
5.64163861553918
 30
0.0
 10
20.76535111427118
 20
5.67730980906518
 30
0.0
  0
SPLINE
  5
208
330
1F
100
AcDbEntity
  8
IGES_LEVEL_0
 62
     7
100
AcDbSpline
210
0.0
220
0.0
230
1.0
 70
     8
 71
     3
 72
     9
 73
     5
 74
     0
 42
0.0000000001
 43
0.0000000001
 40
0.0
 40
0.0
 40
0.0
 40
0.0
 40
0.2539222287986
 40
1.0
 40
1.0
 40
1.0
 40
1.0
 10
20.39035111427118
 20
5.30230981039618
 30
0.0
 10
20.39035111528118
 20
5.30790850905718
 30
0.0
 10
20.41546473613118
 20
5.31955501205218
 30
0.0
 10
20.42697372589118
 20
5.33683648619218
 30
0.0
 10
20.43712383893118
 20
5.34908253372718
 30
0.0
  0
ARC
  5
209
330
1F
100
AcDbEntity
  8
IGES_LEVEL_0
 62
     7
100
AcDbCircle
 10
2.640381822444411
 20
33.07586256705851
 30
0.0
 40
2.125020029173551
100
AcDbArc
 50
90.000827965558
 51
179.9987856018746
  0
ARC
  5
20A
330
1F
100
AcDbEntity
  8
IGES_LEVEL_0
 62
     7
100
AcDbCircle
 10
2.640356244075827
 20
33.07587062547606
 30
0.0
 40
1.375002329803679
100
AcDbArc
 50
90.00021370083825
 51
180.0001832414218
  0
ARC
  5
20B
330
1F
100
AcDbEntity
  8
IGES_LEVEL_0
 62
     7
100
AcDbCircle
 10
19.01531802799475
 20
33.07585905490231
 30
0.0
 40
2.125023886935443
100
AcDbArc
 50
0.0013142079886803
 51
89.99910791699389
  0
ARC
  5
20C
330
1F
100
AcDbEntity
  8
IGES_LEVEL_0
 62
     7
100
AcDbCircle
 10
19.01535767797203
 20
33.07587623088372
 30
0.0
 40
1.374990852815159
100
AcDbArc
 50
359.9994385762344
 51
88.77157126345118
  0
LINE
  5
20D
330
1F
100
AcDbEntity
  8
IGES_LEVEL_0
 62
     7
100
AcDbLine
 10
19.01535111279118
 20
34.45087205392018
 30
0.0
 11
19.04483539671118
 21
34.45055106859018
 31
0.0
  0
SPLINE
  5
20E
330
1F
100
AcDbEntity
  8
IGES_LEVEL_0
 62
     7
100
AcDbSpline
210
0.0
220
0.0
230
1.0
 70
     8
 71
     3
 72
    13
 73
     9
 74
     0
 42
0.0000000001
 43
0.0000000001
 40
0.0
 40
0.0
 40
0.0
 40
0.0
 40
0.1526169829783
 40
0.3253472185219
 40
0.4999916637336
 40
0.6746382579874
 40
0.8473748643247
 40
1.0
 40
1.0
 40
1.0
 40
1.0
 10
20.39468422147118
 20
25.89568781092018
 30
0.0
 10
19.42964438194118
 20
25.74205121808018
 30
0.0
 10
17.36340287278118
 20
25.46869892464018
 30
0.0
 10
14.17074088937918
 20
25.21483975965018
 30
0.0
 10
10.82799760885618
 20
25.12701849771018
 30
0.0
 10
7.485213085241181
 20
25.21482509998018
 30
0.0
 10
4.29244364315518
 20
25.46868138972018
 30
0.0
 10
2.22610939932218
 20
25.74204300912018
 30
0.0
 10
1.26101800661018
 20
25.89568781075018
 30
0.0
  0
ARC
  5
20F
330
1F
100
AcDbEntity
  8
IGES_LEVEL_0
 62
     7
100
AcDbCircle
 10
1.641098087404145
 20
21.19468187117772
 30
0.0
 40
3.993801853949997
100
AcDbArc
 50
269.9749376172932
 51
272.229871454969
  0
SPLINE
  5
210
330
1F
100
AcDbEntity
  8
IGES_LEVEL_0
 62
     7
100
AcDbSpline
210
0.0
220
0.0
230
1.0
 70
     8
 71
     3
 72
    14
 73
    10
 74
     0
 42
0.0000000001
 43
0.0000000001
 40
0.0
 40
0.0
 40
0.0
 40
0.0
 40
0.1822758007743
 40
0.3592579041158
 40
0.5272203296495001
 40
0.6779509311061001
 40
0.8001729026141
 40
0.9048690726871
 40
1.0
 40
1.0
 40
1.0
 40
1.0
 10
1.63935111427318
 20
16.45088039930918
 30
0.0
 10
1.79789264873818
 20
16.45088039930918
 30
0.0
 10
2.11062483361318
 20
16.46674157403118
 30
0.0
 10
2.56444655247118
 20
16.53898997531418
 30
0.0
 10
2.97955276072118
 20
16.66078765651218
 30
0.0
 10
3.32634676099118
 20
16.83071835441218
 30
0.0
 10
3.58137401770518
 20
17.04449763044718
 30
0.0
 10
3.73200583270118
 20
17.28704813134218
 30
0.0
 10
3.76535111427318
 20
17.46237216575818
 30
0.0
 10
3.76535111427318
 20
17.54511602493818
 30
0.0
  0
SPLINE
  5
211
330
1F
100
AcDbEntity
  8
IGES_LEVEL_0
 62
     7
100
AcDbSpline
210
0.0
220
0.0
230
1.0
 70
     8
 71
     3
 72
    13
 73
     9
 74
     0
 42
0.0000000001
 43
0.0000000001
 40
0.0
 40
0.0
 40
0.0
 40
0.0
 40
0.04572538602517
 40
0.1922818349803
 40
0.3581674569929
 40
0.5586724906545
 40
0.7784058840629
 40
1.0
 40
1.0
 40
1.0
 40
1.0
 10
3.03154287959618
 20
23.22050388660018
 30
0.0
 10
3.03704932401718
 20
23.24235470356018
 30
0.0
 10
3.06594820631718
 20
23.33283014411018
 30
0.0
 10
3.16280682363418
 20
23.48337494691018
 30
0.0
 10
3.36491261130818
 20
23.63851411911018
 30
0.0
 10
3.63237657283518
 20
23.74806864828018
 30
0.0
 10
3.94088449918818
 20
23.81208102842018
 30
0.0
 10
4.156989024659181
 20
23.82588039931018
 30
0.0
 10
4.26535111427318
 20
23.82588039931018
 30
0.0
  0
ARC
  5
212
330
1F
100
AcDbEntity
  8
IGES_LEVEL_0
 62
     7
100
AcDbCircle
 10
3.54467738718053
 20
23.09058057158986
 30
0.0
 40
0.5293270167458908
100
AcDbArc
 50
165.7915712587007
 51
179.90394610306
  0
SPLINE
  5
213
330
1F
100
AcDbEntity
  8
IGES_LEVEL_0
 62
     7
100
AcDbSpline
210
0.0
220
0.0
230
1.0
 70
     8
 71
     3
 72
    10
 73
     6
 74
     0
 42
0.0000000001
 43
0.0000000001
 40
0.0
 40
0.0
 40
0.0
 40
0.0
 40
0.190281493508
 40
0.5651108890999
 40
1.0
 40
1.0
 40
1.0
 40
1.0
 10
3.81971622366218
 20
23.00990857378018
 30
0.0
 10
3.84650423935718
 20
23.01923392994018
 30
0.0
 10
3.93033973131718
 20
23.04473776420018
 30
0.0
 10
4.07760470181718
 20
23.06879571121018
 30
0.0
 10
4.19993490291918
 20
23.07588039931018
 30
0.0
 10
4.26535111427318
 20
23.07588039931018
 30
0.0
  0
ARC
  5
214
330
1F
100
AcDbEntity
  8
IGES_LEVEL_0
 62
     7
100
AcDbCircle
 10
3.926394963640041
 20
22.65789189230818
 30
0.0
 40
0.3678261785107498
100
AcDbArc
 50
106.8594450193886
 51
122.7624163710917
  0
SPLINE
  5
215
330
1F
100
AcDbEntity
  8
IGES_LEVEL_0
 62
     7
100
AcDbSpline
210
0.0
220
0.0
230
1.0
 70
     8
 71
     3
 72
    14
 73
    10
 74
     0
 42
0.0000000001
 43
0.0000000001
 40
0.0
 40
0.0
 40
0.0
 40
0.0
 40
0.178712437823
 40
0.3552978889319
 40
0.5219762137598
 40
0.6614751788313
 40
0.7834907936276
 40
0.8942248967288
 40
1.0
 40
1.0
 40
1.0
 40
1.0
 10
17.39035111427118
 20
23.82588039931018
 30
0.0
 10
17.48554690704118
 20
23.82588039931018
 30
0.0
 10
17.67499927023118
 20
23.81521473009018
 30
0.0
 10
17.94942443469118
 20
23.76601030108018
 30
0.0
 10
18.19422632567118
 20
23.68303334860018
 30
0.0
 10
18.39315583374118
 20
23.56759693676018
 30
0.0
 10
18.53568371929118
 20
23.42592136140018
 30
0.0
 10
18.62125495635118
 20
23.26396248961018
 30
0.0
 10
18.64035111427118
 20
23.14781180395018
 30
0.0
 10
18.64035111427118
 20
23.09146796503018
 30
0.0
  0
SPLINE
  5
216
330
1F
100
AcDbEntity
  8
IGES_LEVEL_0
 62
     7
100
AcDbSpline
210
0.0
220
0.0
230
1.0
 70
     8
 71
     3
 72
    12
 73
     8
 74
     0
 42
0.0000000001
 43
0.0000000001
 40
0.0
 40
0.0
 40
0.0
 40
0.0
 40
0.324851931758
 40
0.6143940296794
 40
0.8376972987539
 40
0.9775369702655
 40
1.0
 40
1.0
 40
1.0
 40
1.0
 10
17.39035111427118
 20
23.07588039931018
 30
0.0
 10
17.44911942273118
 20
23.07588039931018
 30
0.0
 10
17.56153667474118
 20
23.06924260036018
 30
0.0
 10
17.70715092899118
 20
23.05056554182018
 30
0.0
 10
17.83247480563118
 20
23.00904347459018
 30
0.0
 10
17.87790502260118
 20
23.00085659516018
 30
0.0
 10
17.91890165559118
 20
22.97190510032018
 30
0.0
 10
17.92367648100118
 20
22.96860287319018
 30
0.0
  0
ARC
  5
217
330
1F
100
AcDbEntity
  8
IGES_LEVEL_0
 62
     7
100
AcDbCircle
 10
20.0146025847644
 20
21.19445721683629
 30
0.0
 40
3.993577200311198
100
AcDbArc
 50
267.7699968232574
 51
270.0250861218573
  0
SPLINE
  5
218
330
1F
100
AcDbEntity
  8
IGES_LEVEL_0
 62
     7
100
AcDbSpline
210
0.0
220
0.0
230
1.0
 70
     8
 71
     3
 72
    14
 73
    10
 74
     0
 42
0.0000000001
 43
0.0000000001
 40
0.0
 40
0.0
 40
0.0
 40
0.0
 40
0.09520779162334
 40
0.2011351104879
 40
0.3247840694473
 40
0.4767420310232
 40
0.6439650729192
 40
0.8195711285341
 40
1.0
 40
1.0
 40
1.0
 40
1.0
 10
17.89035111427118
 20
17.54511602493818
 30
0.0
 10
17.89035111427118
 20
17.46230664944218
 30
0.0
 10
17.92393707398118
 20
17.28583754890518
 30
0.0
 10
18.07653880002118
 20
17.04151097031518
 30
0.0
 10
18.33526752387118
 20
16.82678778313618
 30
0.0
 10
18.68432515304118
 20
16.65774689993018
 30
0.0
 10
19.09900316905118
 20
16.53742623524418
 30
0.0
 10
19.54950325134118
 20
16.46644308283418
 30
0.0
 10
19.85941855746118
 20
16.45088039930918
 30
0.0
 10
20.01635111427118
 20
16.45088039930918
 30
0.0
  0
SPLINE
  5
219
330
1F
100
AcDbEntity
  8
IGES_LEVEL_0
 62
     7
100
AcDbSpline
210
0.0
220
0.0
230
1.0
 70
     8
 71
     3
 72
    12
 73
     8
 74
     0
 42
0.0000000001
 43
0.0000000001
 40
0.0
 40
0.0
 40
0.0
 40
0.0
 40
0.3105025888323
 40
0.5827005277372001
 40
0.7919173731239
 40
0.943399535681
 40
1.0
 40
1.0
 40
1.0
 40
1.0
 10
1.26535111427318
 20
6.05230980906518
 30
0.0
 10
1.38254470228718
 20
6.05230980906518
 30
0.0
 10
1.60258323025418
 20
6.05751235818818
 30
0.0
 10
1.90056912954018
 20
6.079148547130179
 30
0.0
 10
2.13834484030718
 20
6.10884065210918
 30
0.0
 10
2.29195610147918
 20
6.13779801407718
 30
0.0
 10
2.36980760223218
 20
6.15658510104318
 30
0.0
 10
2.39046247193318
 20
6.162263633615179
 30
0.0
  0
SPLINE
  5
21A
330
1F
100
AcDbEntity
  8
IGES_LEVEL_0
 62
     7
100
AcDbSpline
210
0.0
220
0.0
230
1.0
 70
     8
 71
     3
 72
    16
 73
    12
 74
     0
 42
0.0000000001
 43
0.0000000001
 40
0.0
 40
0.0
 40
0.0
 40
0.0
 40
0.1850146593744
 40
0.3616911684094
 40
0.5075577406068
 40
0.6190761444634
 40
0.706487472193
 40
0.7814867934762
 40
0.8539836795369
 40
0.9268337152546
 40
1.0
 40
1.0
 40
1.0
 40
1.0
 10
1.26535111427318
 20
5.30230980906518
 30
0.0
 10
1.39850525658118
 20
5.30230980906518
 30
0.0
 10
1.65886196317518
 20
5.308670195464179
 30
0.0
 10
2.02326938504618
 20
5.336587604088179
 30
0.0
 10
2.33295275665618
 20
5.37940858095618
 30
0.0
 10
2.57578398535918
 20
5.43192736115618
 30
0.0
 10
2.76368504948918
 20
5.49309299234418
 30
0.0
 10
2.91545821881918
 20
5.56976486510018
 30
0.0
 10
3.03762644951018
 20
5.67419410311118
 30
0.0
 10
3.12061741660718
 20
5.811318977089179
 30
0.0
 10
3.14035111427318
 20
5.91739323078318
 30
0.0
 10
3.14035111427318
 20
5.97005064681718
 30
0.0
  0
SPLINE
  5
21B
330
1F
100
AcDbEntity
  8
IGES_LEVEL_0
 62
     7
100
AcDbSpline
210
0.0
220
0.0
230
1.0
 70
     8
 71
     3
 72
    16
 73
    12
 74
     0
 42
0.0000000001
 43
0.0000000001
 40
0.0
 40
0.0
 40
0.0
 40
0.0
 40
0.07271453864911
 40
0.1474406837355
 40
0.2214512380713
 40
0.297954178486
 40
0.3873509342689
 40
0.5014550052784
 40
0.6501567320775
 40
0.8215926964416001
 40
1.0
 40
1.0
 40
1.0
 40
1.0
 10
2.39035111427318
 20
9.68366333426018
 30
0.0
 10
2.39035111427318
 20
9.73599547990718
 30
0.0
 10
2.41013282244518
 20
9.84308211895018
 30
0.0
 10
2.49469019971718
 20
9.981999653188181
 30
0.0
 10
2.62057474058718
 20
10.08762814447888
 30
0.0
 10
2.77631318935718
 20
10.16442254192568
 30
0.0
 10
2.96883042224018
 20
10.22548942456368
 30
0.0
 10
3.21717772255218
 20
10.27768284171798
 30
0.0
 10
3.52718326489418
 20
10.31905325411428
 30
0.0
 10
3.88517520117418
 20
10.34547714147158
 30
0.0
 10
4.137000053420181
 20
10.35141342839308
 30
0.0
 10
4.265398543843181
 20
10.35141342839308
 30
0.0
  0
SPLINE
  5
21C
330
1F
100
AcDbEntity
  8
IGES_LEVEL_0
 62
     7
100
AcDbSpline
210
0.0
220
0.0
230
1.0
 70
     8
 71
     3
 72
    12
 73
     8
 74
     0
 42
0.0000000001
 43
0.0000000001
 40
0.0
 40
0.0
 40
0.0
 40
0.0
 40
0.09837541702563
 40
0.2462619591986
 40
0.4489432326523
 40
0.7097983579456
 40
1.0
 40
1.0
 40
1.0
 40
1.0
 10
3.09979025182418
 20
9.479179150649181
 30
0.0
 10
3.13471641899218
 20
9.48985518349318
 30
0.0
 10
3.23137864825818
 20
9.51552804822718
 30
0.0
 10
3.40267821302618
 20
9.546101931884181
 30
0.0
 10
3.64133046654118
 20
9.575751734869181
 30
0.0
 10
3.93570286942018
 20
9.596404088881181
 30
0.0
 10
4.151706592045181
 20
9.601413428393181
 30
0.0
 10
4.265398543843181
 20
9.601413428393181
 30
0.0
  0
ARC
  5
21D
330
1F
100
AcDbEntity
  8
IGES_LEVEL_0
 62
     7
100
AcDbCircle
 10
3.216993954262074
 20
9.075821049858327
 30
0.0
 40
0.4200410281612438
100
AcDbArc
 50
106.2022715175034
 51
114.8781512693578
  0
SPLINE
  5
21E
330
1F
100
AcDbEntity
  8
IGES_LEVEL_0
 62
     7
100
AcDbSpline
210
0.0
220
0.0
230
1.0
 70
     8
 71
     3
 72
    16
 73
    12
 74
     0
 42
0.0000000001
 43
0.0000000001
 40
0.0
 40
0.0
 40
0.0
 40
0.0
 40
0.1850153370194
 40
0.3616925020932
 40
0.5075598648553999
 40
0.6190786833487
 40
0.7064900241689001
 40
0.7814889239254
 40
0.8539850726116
 40
0.9268344345639
 40
1.0
 40
1.0
 40
1.0
 40
1.0
 10
17.39030368470118
 20
10.35141342839298
 30
0.0
 10
17.52346137838118
 20
10.35141342839298
 30
0.0
 10
17.78382503509118
 20
10.34505289392418
 30
0.0
 10
18.14824237262118
 20
10.31713482886728
 30
0.0
 10
18.45793421942118
 20
10.27431285644728
 30
0.0
 10
18.70077194146118
 20
10.22179292291898
 30
0.0
 10
18.88867743912118
 20
10.16062624063888
 30
0.0
 10
19.04045362558118
 20
10.08395355549738
 30
0.0
 10
19.16262421983118
 20
9.979523474975181
 30
0.0
 10
19.24561696150118
 20
9.84239714323018
 30
0.0
 10
19.26535111427118
 20
9.736321444160181
 30
0.0
 10
19.26535111427118
 20
9.683663334259181
 30
0.0
  0
LINE
  5
21F
330
1F
100
AcDbEntity
  8
IGES_LEVEL_0
 62
     7
100
AcDbLine
 10
18.58510368094118
 20
9.468799096616181
 30
0.0
 11
18.62246382427118
 21
9.454556027610181
 31
0.0
  0
SPLINE
  5
220
330
1F
100
AcDbEntity
  8
IGES_LEVEL_0
 62
     7
100
AcDbSpline
210
0.0
220
0.0
230
1.0
 70
     8
 71
     3
 72
    13
 73
     9
 74
     0
 42
0.0000000001
 43
0.0000000001
 40
0.0
 40
0.0
 40
0.0
 40
0.0
 40
0.29124407345
 40
0.5465619737951
 40
0.7428048436058
 40
0.8848936248732
 40
0.9782616385397001
 40
1.0
 40
1.0
 40
1.0
 40
1.0
 10
17.39030368470118
 20
9.601413428393181
 30
0.0
 10
17.50750013925118
 20
9.601413428393181
 30
0.0
 10
17.72754513481118
 20
9.59621070601318
 30
0.0
 10
18.02554035247118
 20
9.574574218038181
 30
0.0
 10
18.26332485425118
 20
9.54488054594718
 30
0.0
 10
18.43274899772118
 20
9.512943783552181
 30
0.0
 10
18.53568232743118
 20
9.48700158019318
 30
0.0
 10
18.57710698417118
 20
9.47184412030818
 30
0.0
 10
18.58510368094118
 20
9.468799096616181
 30
0.0
  0
SPLINE
  5
221
330
1F
100
AcDbEntity
  8
IGES_LEVEL_0
 62
     7
100
AcDbSpline
210
0.0
220
0.0
230
1.0
 70
     8
 71
     3
 72
    12
 73
     8
 74
     0
 42
0.0000000001
 43
0.0000000001
 40
0.0
 40
0.0
 40
0.0
 40
0.0
 40
0.06386058549707
 40
0.2174074014454
 40
0.4278466226687
 40
0.6986872597655
 40
1.0
 40
1.0
 40
1.0
 40
1.0
 10
19.26538615583118
 20
6.162766607329179
 30
0.0
 10
19.28858848758118
 20
6.15637676996718
 30
0.0
 10
19.37043192673118
 20
6.13568216017518
 30
0.0
 10
19.52765809209118
 20
6.10761952332318
 30
0.0
 10
19.76630163746118
 20
6.077970926770179
 30
0.0
 10
20.06066481942118
 20
6.05731900797218
 30
0.0
 10
20.27666213410118
 20
6.05230980906518
 30
0.0
 10
20.39035111427118
 20
6.05230980906518
 30
0.0
  0
SPLINE
  5
222
330
1F
100
AcDbEntity
  8
IGES_LEVEL_0
 62
     7
100
AcDbSpline
210
0.0
220
0.0
230
1.0
 70
     8
 71
     3
 72
    16
 73
    12
 74
     0
 42
0.0000000001
 43
0.0000000001
 40
0.0
 40
0.0
 40
0.0
 40
0.0
 40
0.07271521050187
 40
0.1474420990063
 40
0.2214534120554
 40
0.2979568348847
 40
0.3873536118987
 40
0.5014573054509
 40
0.6501583226518
 40
0.8215935455863
 40
1.0
 40
1.0
 40
1.0
 40
1.0
 10
18.51535111427118
 20
5.97005064681718
 30
0.0
 10
18.51535111427118
 20
5.917719221733179
 30
0.0
 10
18.53513235478118
 20
5.81063403727718
 30
0.0
 10
18.61968792031118
 20
5.671717955717179
 30
0.0
 10
18.74557010675118
 20
5.56609025832118
 30
0.0
 10
18.90130554828118
 20
5.48929667147618
 30
0.0
 10
19.09381834703118
 20
5.428230848936179
 30
0.0
 10
19.34215914301118
 20
5.376038588986179
 30
0.0
 10
19.65215623196118
 20
5.33466917378718
 30
0.0
 10
20.01013827576118
 20
5.30824594632618
 30
0.0
 10
20.26195618920118
 20
5.30230980906518
 30
0.0
 10
20.39035111427118
 20
5.30230980906518
 30
0.0
  0
SPLINE
  5
223
330
1F
100
AcDbEntity
  8
IGES_LEVEL_0
 62
     7
100
AcDbSpline
210
0.0
220
0.0
230
1.0
 70
     8
 71
     3
 72
    13
 73
     9
 74
     0
 42
0.0000000001
 43
0.0000000001
 40
0.0
 40
0.0
 40
0.0
 40
0.0
 40
0.1482930312513
 40
0.323230047446
 40
0.5000084459671
 40
0.6767846733901
 40
0.8517152428329
 40
1.0
 40
1.0
 40
1.0
 40
1.0
 10
20.39046236239118
 20
25.13570789050018
 30
0.0
 10
19.45293960345118
 20
24.98855731750018
 30
0.0
 10
17.40104994564118
 20
24.71922315527018
 30
0.0
 10
14.21002659442118
 20
24.46551619514018
 30
0.0
 10
10.82770273805218
 20
24.37667876924018
 30
0.0
 10
7.445420594215181
 20
24.46553104446018
 30
0.0
 10
4.25450604414818
 20
24.71924078092018
 30
0.0
 10
2.20271032328618
 20
24.98856552896018
 30
0.0
 10
1.26523987584118
 20
25.13570788942018
 30
0.0
  0
SPLINE
  5
224
330
1F
100
AcDbEntity
  8
IGES_LEVEL_0
 62
     7
100
AcDbSpline
210
0.0
220
0.0
230
1.0
 70
     8
 71
     3
 72
     9
 73
     5
 74
     0
 42
0.0000000001
 43
0.0000000001
 40
0.0
 40
0.0
 40
0.0
 40
0.0
 40
0.5
 40
1.0
 40
1.0
 40
1.0
 40
1.0
 10
4.14035111427318
 20
0.2013803993101791
 30
0.0
 10
4.30701778093918
 20
0.4517137326401804
 30
0.0
 10
4.640351114272781
 20
0.702047065980179
 30
0.0
 10
4.973684447606081
 20
0.4517137326401804
 30
0.0
 10
5.140351114272781
 20
0.2013803993101791
 30
0.0
  0
LINE
  5
225
330
1F
100
AcDbEntity
  8
IGES_LEVEL_0
 62
     7
100
AcDbLine
 10
5.140351114272781
 20
2.076380399309179
 30
0.0
 11
4.14035111427318
 21
2.076380399309179
 31
0.0
  0
SPLINE
  5
226
330
1F
100
AcDbEntity
  8
IGES_LEVEL_0
 62
     7
100
AcDbSpline
210
0.0
220
0.0
230
1.0
 70
     8
 71
     3
 72
     9
 73
     5
 74
     0
 42
0.0000000001
 43
0.0000000001
 40
0.0
 40
0.0
 40
0.0
 40
0.0
 40
0.5
 40
1.0
 40
1.0
 40
1.0
 40
1.0
 10
16.51535111427118
 20
0.2013803993101791
 30
0.0
 10
16.68201778094118
 20
0.4517137326401804
 30
0.0
 10
17.01535111427118
 20
0.702047065980179
 30
0.0
 10
17.34868444760118
 20
0.4517137326401804
 30
0.0
 10
17.51535111427118
 20
0.2013803993101791
 30
0.0
  0
LINE
  5
227
330
1F
100
AcDbEntity
  8
IGES_LEVEL_0
 62
     7
100
AcDbLine
 10
17.51535111427118
 20
2.076380399309179
 30
0.0
 11
16.51535111427118
 21
2.076380399309179
 31
0.0
  0
ARC
  5
228
330
1F
100
AcDbEntity
  8
IGES_LEVEL_0
 62
     7
100
AcDbCircle
 10
2.656400386629611
 20
17.5492341173587
 30
0.0
 40
0.2417785096194772
100
AcDbArc
 50
326.9980594633589
 51
359.1134479905326
  0
SPLINE
  5
229
330
1F
100
AcDbEntity
  8
IGES_LEVEL_0
 62
     7
100
AcDbSpline
210
0.0
220
0.0
230
1.0
 70
     8
 71
     3
 72
    27
 73
    23
 74
     0
 42
0.0000000001
 43
0.0000000001
 40
0.0
 40
0.0
 40
0.0
 40
0.0
 40
0.03082522988027
 40
0.09732867966862
 40
0.1626024222729
 40
0.2265354702876
 40
0.2890187385512
 40
0.3499457379505
 40
0.4092134011441
 40
0.4667230821068
 40
0.5223817843896
 40
0.5761097532221
 40
0.6278589205052
 40
0.6775942165865
 40
0.7252891466758
 40
0.7709281085498
 40
0.814509302518
 40
0.8560483856138
 40
0.8955830381321001
 40
0.9331844744042001
 40
0.9689769461156
 40
1.0
 40
1.0
 40
1.0
 40
1.0
 10
2.09563363651818
 20
17.06320090301918
 30
0.0
 10
2.10438934144518
 20
17.06459883764818
 30
0.0
 10
2.13201199904318
 20
17.06915668984518
 30
0.0
 10
2.17802875373218
 20
17.07754923128818
 30
0.0
 10
2.23315794140618
 20
17.08896970905818
 30
0.0
 10
2.28686274543618
 20
17.10148484425318
 30
0.0
 10
2.33901875672418
 20
17.11506028694818
 30
0.0
 10
2.38950187837918
 20
17.12966175845818
 30
0.0
 10
2.43818807601518
 20
17.14525496980018
 30
0.0
 10
2.48495342155918
 20
17.16180572264018
 30
0.0
 10
2.52967594746818
 20
17.17928035105918
 30
0.0
 10
2.57224077136518
 20
17.19764943058818
 30
0.0
 10
2.61255472371018
 20
17.21685849831518
 30
0.0
 10
2.65053419189418
 20
17.23685587062318
 30
0.0
 10
2.68609727386618
 20
17.25759096738318
 30
0.0
 10
2.71916227202518
 20
17.27901353798818
 30
0.0
 10
2.74964767842618
 20
17.30107384814918
 30
0.0
 10
2.77747190695718
 20
17.32372292497718
 30
0.0
 10
2.80255498867218
 20
17.34691379264118
 30
0.0
 10
2.82481911557818
 20
17.37060669070118
 30
0.0
 10
2.84366080035118
 20
17.39403789962618
 30
0.0
 10
2.85447048891518
 20
17.40995503891918
 30
0.0
 10
2.85916844658718
 20
17.41754523561518
 30
0.0
  0
SPLINE
  5
22A
330
1F
100
AcDbEntity
  8
IGES_LEVEL_0
 62
     7
100
AcDbSpline
210
0.0
220
0.0
230
1.0
 70
     8
 71
     3
 72
    13
 73
     9
 74
     0
 42
0.0000000001
 43
0.0000000001
 40
0.0
 40
0.0
 40
0.0
 40
0.0
 40
0.03043085039474
 40
0.2499293388717
 40
0.4661474354663
 40
0.6790442792347
 40
0.8882583465613
 40
1.0
 40
1.0
 40
1.0
 40
1.0
 10
2.84007595838818
 20
18.96864478018818
 30
0.0
 10
2.83193160990118
 20
18.96534337830518
 30
0.0
 10
2.76548144567918
 20
18.93714340349518
 30
0.0
 10
2.64884805561118
 20
18.86800821845418
 30
0.0
 10
2.51372154516718
 20
18.73639979198818
 30
0.0
 10
2.41493004449918
 20
18.57907122683218
 30
0.0
 10
2.36694361315618
 20
18.43139161955718
 30
0.0
 10
2.35503686152218
 20
18.33912657738118
 30
0.0
 10
2.35301251370118
 20
18.30690578093818
 30
0.0
  0
LINE
  5
22B
330
1F
100
AcDbEntity
  8
IGES_LEVEL_0
 62
     7
100
AcDbLine
 10
2.35302429963118
 20
18.30718189829118
 30
0.0
 11
2.35297662421818
 21
18.30412177188118
 31
0.0
  0
SPLINE
  5
22C
330
1F
100
AcDbEntity
  8
IGES_LEVEL_0
 62
     7
100
AcDbSpline
210
0.0
220
0.0
230
1.0
 70
     8
 71
     3
 72
    16
 73
    12
 74
     0
 42
0.0000000001
 43
0.0000000001
 40
0.0
 40
0.0
 40
0.0
 40
0.0
 40
0.128905710639
 40
0.2559843650868
 40
0.3749822080674
 40
0.4835178889311
 40
0.5844574072117
 40
0.6877682217499
 40
0.8031962338889001
 40
0.9369195501492
 40
1.0
 40
1.0
 40
1.0
 40
1.0
 10
2.02786429990218
 20
17.61265891194118
 30
0.0
 10
2.00494296818018
 20
17.60797218910718
 30
0.0
 10
1.96085586796818
 20
17.59216281728518
 30
0.0
 10
1.90523175876818
 20
17.55199949963718
 30
0.0
 10
1.86449525385618
 20
17.50172829801318
 30
0.0
 10
1.83818952786618
 20
17.44813983330218
 30
0.0
 10
1.82188467144018
 20
17.39389196886918
 30
0.0
 10
1.81119415306318
 20
17.33709239247618
 30
0.0
 10
1.80370670169218
 20
17.27384573490418
 30
0.0
 10
1.79992727425018
 20
17.21756532000118
 30
0.0
 10
1.79852815999118
 20
17.18204640052218
 30
0.0
 10
1.79817056294618
 20
17.17065894404218
 30
0.0
  0
ARC
  5
22D
330
1F
100
AcDbEntity
  8
IGES_LEVEL_0
 62
     7
100
AcDbCircle
 10
1.708701874908888
 20
19.286714455138
 30
0.0
 40
1.704219491774446
100
AcDbArc
 50
280.7940747612799
 51
294.1413361902814
  0
ARC
  5
22E
330
1F
100
AcDbEntity
  8
IGES_LEVEL_0
 62
     7
100
AcDbCircle
 10
3.487805276694531
 20
19.31552303724708
 30
0.0
 40
0.6533435936120262
100
AcDbArc
 50
158.7438020673044
 51
169.2631259262872
  0
LINE
  5
22F
330
1F
100
AcDbEntity
  8
IGES_LEVEL_0
 62
     7
100
AcDbLine
 10
2.89622728108918
 20
19.59239482357518
 30
0.0
 11
2.87890952497618
 21
19.55238547591818
 31
0.0
  0
ARC
  5
230
330
1F
100
AcDbEntity
  8
IGES_LEVEL_0
 62
     7
100
AcDbCircle
 10
3.40606379847954
 20
19.3511865985627
 30
0.0
 40
0.5640165620603725
100
AcDbArc
 50
133.8972143278836
 51
154.6807493537202
  0
ARC
  5
231
330
1F
100
AcDbEntity
  8
IGES_LEVEL_0
 62
     7
100
AcDbCircle
 10
3.384980042139678
 20
19.35192518641691
 30
0.0
 40
0.5626320260306229
100
AcDbArc
 50
25.7018149589941
 51
47.42054570454963
  0
LINE
  5
232
330
1F
100
AcDbEntity
  8
IGES_LEVEL_0
 62
     7
100
AcDbLine
 10
3.90954132465018
 20
19.55602824053318
 30
0.0
 11
3.89194710311218
 21
19.59593173510818
 31
0.0
  0
ARC
  5
233
330
1F
100
AcDbEntity
  8
IGES_LEVEL_0
 62
     7
100
AcDbCircle
 10
3.301877239760735
 20
19.31504510164457
 30
0.0
 40
0.6537036892148719
100
AcDbArc
 50
10.72649035611935
 51
21.63193773542074
  0
ARC
  5
234
330
1F
100
AcDbEntity
  8
IGES_LEVEL_0
 62
     7
100
AcDbCircle
 10
3.215329570901225
 20
19.36868085297975
 30
0.0
 40
0.3757402584608347
100
AcDbArc
 50
169.4472896616279
 51
180.4328778665681
  0
LINE
  5
235
330
1F
100
AcDbEntity
  8
IGES_LEVEL_0
 62
     7
100
AcDbLine
 10
2.36325369539018
 20
18.22209856612018
 30
0.0
 11
2.36464534434818
 21
18.21014130719418
 31
0.0
  0
LINE
  5
236
330
1F
100
AcDbEntity
  8
IGES_LEVEL_0
 62
     7
100
AcDbLine
 10
2.35893613489318
 20
18.24886509590018
 30
0.0
 11
2.36325369539018
 21
18.22209856612018
 31
0.0
  0
LINE
  5
237
330
1F
100
AcDbEntity
  8
IGES_LEVEL_0
 62
     7
100
AcDbLine
 10
2.35329446512018
 20
18.29625365840118
 30
0.0
 11
2.35893613489318
 21
18.24886509590018
 31
0.0
  0
LINE
  5
238
330
1F
100
AcDbEntity
  8
IGES_LEVEL_0
 62
     7
100
AcDbLine
 10
2.41578904484018
 20
17.61425639128618
 30
0.0
 11
2.41535577263118
 21
17.59431654694218
 31
0.0
  0
ARC
  5
239
330
1F
100
AcDbEntity
  8
IGES_LEVEL_0
 62
     7
100
AcDbCircle
 10
1.918044114407377
 20
17.16682033410254
 30
0.0
 40
0.1199104676651387
100
AcDbArc
 50
178.1484980647156
 51
198.9833644348959
  0
SPLINE
  5
23A
330
1F
100
AcDbEntity
  8
IGES_LEVEL_0
 62
     7
100
AcDbSpline
210
0.0
220
0.0
230
1.0
 70
     8
 71
     3
 72
    11
 73
     7
 74
     0
 42
0.0000000001
 43
0.0000000001
 40
0.0
 40
0.0
 40
0.0
 40
0.0
 40
0.1382137394155
 40
0.4827194165831
 40
0.7754302454579
 40
1.0
 40
1.0
 40
1.0
 40
1.0
 10
3.57796956532418
 20
17.06465088420818
 30
0.0
 10
3.60487511558918
 20
17.08231452401218
 30
0.0
 10
3.69681771913118
 20
17.14711665265618
 30
0.0
 10
3.83062599887618
 20
17.27075707971318
 30
0.0
 10
3.93415092159718
 20
17.44678447252918
 30
0.0
 10
3.95566525174818
 20
17.56813704962518
 30
0.0
 10
3.95573321987618
 20
17.62045451455318
 30
0.0
  0
LINE
  5
23B
330
1F
100
AcDbEntity
  8
IGES_LEVEL_0
 62
     7
100
AcDbLine
 10
3.95320625906218
 20
18.37399502150118
 30
0.0
 11
3.95204192049818
 21
18.44728156379318
 31
0.0
  0
ARC
  5
23C
330
1F
100
AcDbEntity
  8
IGES_LEVEL_0
 62
     7
100
AcDbCircle
 10
3.573338035406496
 20
19.36784774387272
 30
0.0
 40
0.3771645732802526
100
AcDbArc
 50
359.7830015231136
 51
10.5363151560264
  0
ARC
  5
23D
330
1F
100
AcDbEntity
  8
IGES_LEVEL_0
 62
     7
100
AcDbCircle
 10
1.662010535138432
 20
19.96713870348067
 30
0.0
 40
2.969440721508911
100
AcDbArc
 50
274.7822955433577
 51
278.4984089319314
  0
SPLINE
  5
23E
330
1F
100
AcDbEntity
  8
IGES_LEVEL_0
 62
     7
100
AcDbSpline
210
0.0
220
0.0
230
1.0
 70
     8
 71
     3
 72
    12
 73
     8
 74
     0
 42
0.0000000001
 43
0.0000000001
 40
0.0
 40
0.0
 40
0.0
 40
0.0
 40
0.1874799583434
 40
0.4066508111325
 40
0.6548327194289
 40
0.9271198351984
 40
1.0
 40
1.0
 40
1.0
 40
1.0
 10
2.91146268835518
 20
17.36096088152118
 30
0.0
 10
2.87330993259818
 20
17.32025535525418
 30
0.0
 10
2.77731134226018
 20
17.24566432672918
 30
0.0
 10
2.60324531463618
 20
17.15812292069118
 30
0.0
 10
2.39514339581018
 20
17.08775595163018
 30
0.0
 10
2.22320377724518
 20
17.04985350717918
 30
0.0
 10
2.12220259987218
 20
17.03350767881618
 30
0.0
 10
2.10084026562918
 20
17.03030253743518
 30
0.0
  0
LINE
  5
23F
330
1F
100
AcDbEntity
  8
IGES_LEVEL_0
 62
     7
100
AcDbLine
 10
2.94320228259918
 20
17.39836547296118
 30
0.0
 11
2.91146268835518
 21
17.36096088152118
 31
0.0
  0
ARC
  5
240
330
1F
100
AcDbEntity
  8
IGES_LEVEL_0
 62
     7
100
AcDbCircle
 10
2.652684896160319
 20
17.62259204827049
 30
0.0
 40
0.3669848891960119
100
AcDbArc
 50
322.3383904349541
 51
336.3660501602722
  0
LINE
  5
241
330
1F
100
AcDbEntity
  8
IGES_LEVEL_0
 62
     7
100
AcDbLine
 10
3.00262973678918
 20
17.51421836803918
 30
0.0
 11
2.98888905522918
 21
17.47547076387218
 31
0.0
  0
LINE
  5
242
330
1F
100
AcDbEntity
  8
IGES_LEVEL_0
 62
     7
100
AcDbLine
 10
3.01080428746918
 20
17.55285050018118
 30
0.0
 11
3.00262973678918
 21
17.51421836803918
 31
0.0
  0
LINE
  5
243
330
1F
100
AcDbEntity
  8
IGES_LEVEL_0
 62
     7
100
AcDbLine
 10
3.01143624231318
 20
17.55760282937918
 30
0.0
 11
3.01080428746918
 21
17.55285050018118
 31
0.0
  0
LINE
  5
244
330
1F
100
AcDbEntity
  8
IGES_LEVEL_0
 62
     7
100
AcDbLine
 10
1.90563861762818
 20
17.00779680311518
 30
0.0
 11
1.90957437105718
 21
17.00803686807318
 31
0.0
  0
ARC
  5
245
330
1F
100
AcDbEntity
  8
IGES_LEVEL_0
 62
     7
100
AcDbCircle
 10
1.902067175595675
 20
17.08838002968654
 30
0.0
 40
0.0806623307550875
100
AcDbArc
 50
232.1705564463228
 51
272.5376835939921
  0
ARC
  5
246
330
1F
100
AcDbEntity
  8
IGES_LEVEL_0
 62
     7
100
AcDbCircle
 10
1.897794295625523
 20
17.08237773402432
 30
0.0
 40
0.0733015053155479
100
AcDbArc
 50
198.7771828632395
 51
231.9310636637321
  0
LINE
  5
247
330
1F
100
AcDbEntity
  8
IGES_LEVEL_0
 62
     7
100
AcDbLine
 10
19.30272501814118
 20
18.30411445752218
 30
0.0
 11
19.30149288612118
 21
18.29545098008618
 31
0.0
  0
LINE
  5
248
330
1F
100
AcDbEntity
  8
IGES_LEVEL_0
 62
     7
100
AcDbLine
 10
19.30267483190118
 20
18.30723087377518
 30
0.0
 11
19.30272501814118
 21
18.30411445752218
 31
0.0
  0
SPLINE
  5
249
330
1F
100
AcDbEntity
  8
IGES_LEVEL_0
 62
     7
100
AcDbSpline
210
0.0
220
0.0
230
1.0
 70
     8
 71
     3
 72
    13
 73
     9
 74
     0
 42
0.0000000001
 43
0.0000000001
 40
0.0
 40
0.0
 40
0.0
 40
0.0
 40
0.1021215269498
 40
0.2845432938594
 40
0.4696633303896
 40
0.6571861183815
 40
0.8471714240278
 40
1.0
 40
1.0
 40
1.0
 40
1.0
 10
19.30268000100118
 20
18.30699686609418
 30
0.0
 10
19.30082514024118
 20
18.33643890290918
 30
0.0
 10
19.29072546534118
 20
18.41823775329618
 30
0.0
 10
19.25209094549118
 20
18.54902979699818
 30
0.0
 10
19.17437943571118
 20
18.69034263131018
 30
0.0
 10
19.06759746636118
 20
18.81396901832818
 30
0.0
 10
18.94522758728118
 20
18.90746308712018
 30
0.0
 10
18.85647522547118
 20
18.95208438671218
 30
0.0
 10
18.81556588931118
 20
18.96866246222018
 30
0.0
  0
SPLINE
  5
24A
330
1F
100
AcDbEntity
  8
IGES_LEVEL_0
 62
     7
100
AcDbSpline
210
0.0
220
0.0
230
1.0
 70
     8
 71
     3
 72
    18
 73
    14
 74
     0
 42
0.0000000001
 43
0.0000000001
 40
0.0
 40
0.0
 40
0.0
 40
0.0
 40
0.06354273266893
 40
0.1824171944932
 40
0.2867459002197
 40
0.3797273916138
 40
0.4681336334577
 40
0.5584821304014001
 40
0.6560204733802
 40
0.7624584156591
 40
0.8749418786835
 40
0.9957132063098
 40
1.0
 40
1.0
 40
1.0
 40
1.0
 10
19.85753067342118
 20
17.17066636760618
 30
0.0
 10
19.85717058776118
 20
17.18214052751718
 30
0.0
 10
19.85587248867118
 20
17.21507228265318
 30
0.0
 10
19.85249765453118
 20
17.26677673094818
 30
0.0
 10
19.84628196316118
 20
17.32357961120018
 30
0.0
 10
19.83782175009118
 20
17.37453240340418
 30
0.0
 10
19.82596105134118
 20
17.42224262271618
 30
0.0
 10
19.80826286847118
 20
17.46908365047118
 30
0.0
 10
19.78140072346118
 20
17.51532876237718
 30
0.0
 10
19.74279029469118
 20
17.55814472663318
 30
0.0
 10
19.69164828448118
 20
17.59318675272518
 30
0.0
 10
19.65080908097118
 20
17.60785147187018
 30
0.0
 10
19.62860338015118
 20
17.61249986878818
 30
0.0
 10
19.62784141666118
 20
17.61265559844218
 30
0.0
  0
SPLINE
  5
24B
330
1F
100
AcDbEntity
  8
IGES_LEVEL_0
 62
     7
100
AcDbSpline
210
0.0
220
0.0
230
1.0
 70
     8
 71
     3
 72
    11
 73
     7
 74
     0
 42
0.0000000001
 43
0.0000000001
 40
0.0
 40
0.0
 40
0.0
 40
0.0
 40
0.3556281279028
 40
0.6765370654236
 40
0.9359086280985
 40
1.0
 40
1.0
 40
1.0
 40
1.0
 10
19.62784125555118
 20
17.61265240031318
 30
0.0
 10
19.58189543319118
 20
17.62203618045318
 30
0.0
 10
19.49506738975118
 20
17.64231055912518
 30
0.0
 10
19.37618478135118
 20
17.67918288009818
 30
0.0
 10
19.29847495995118
 20
17.70839911154118
 30
0.0
 10
19.25805785424118
 20
17.72792255252418
 30
0.0
 10
19.25018394734118
 20
17.73182145018518
 30
0.0
  0
ARC
  5
24C
330
1F
100
AcDbEntity
  8
IGES_LEVEL_0
 62
     7
100
AcDbCircle
 10
18.2931432709723
 20
19.33474202384701
 30
0.0
 40
0.5904731814923053
100
AcDbArc
 50
133.0230455638834
 51
170.0508623293196
  0
ARC
  5
24D
330
1F
100
AcDbEntity
  8
IGES_LEVEL_0
 62
     7
100
AcDbCircle
 10
18.22710286832929
 20
19.33448179974302
 30
0.0
 40
0.5916931053017357
100
AcDbArc
 50
10.00665819538354
 51
45.67092929360771
  0
ARC
  5
24E
330
1F
100
AcDbEntity
  8
IGES_LEVEL_0
 62
     7
100
AcDbCircle
 10
18.43998700334385
 20
19.36864872979186
 30
0.0
 40
0.3761266123682386
100
AcDbArc
 50
359.571788742128
 51
10.54133743480412
  0
SPLINE
  5
24F
330
1F
100
AcDbEntity
  8
IGES_LEVEL_0
 62
     7
100
AcDbSpline
210
0.0
220
0.0
230
1.0
 70
     8
 71
     3
 72
    11
 73
     7
 74
     0
 42
0.0000000001
 43
0.0000000001
 40
0.0
 40
0.0
 40
0.0
 40
0.0
 40
0.2053337610032
 40
0.4571774735782
 40
0.7479106596075
 40
1.0
 40
1.0
 40
1.0
 40
1.0
 10
17.69995953859118
 20
17.62053362679318
 30
0.0
 10
17.69997961039118
 20
17.57274414830118
 30
0.0
 10
17.71724242810118
 20
17.46570804665218
 30
0.0
 10
17.79873110056118
 20
17.30907209093318
 30
0.0
 10
17.92634901795118
 20
17.17298791969618
 30
0.0
 10
18.02790327240118
 20
17.09736483746618
 30
0.0
 10
18.07699141976118
 20
17.06517366898818
 30
0.0
  0
ARC
  5
250
330
1F
100
AcDbEntity
  8
IGES_LEVEL_0
 62
     7
100
AcDbCircle
 10
16.50117625648137
 20
18.43083063829782
 30
0.0
 40
1.202594687307499
100
AcDbArc
 50
356.6532601861692
 51
0.7865958941833974
  0
ARC
  5
251
330
1F
100
AcDbEntity
  8
IGES_LEVEL_0
 62
     7
100
AcDbCircle
 10
18.08278352412333
 20
19.36781217932241
 30
0.0
 40
0.3775848246225366
100
AcDbArc
 50
169.4770749897814
 51
180.2121106288968
  0
ARC
  5
252
330
1F
100
AcDbEntity
  8
IGES_LEVEL_0
 62
     7
100
AcDbCircle
 10
18.85221928436093
 20
18.32366570476802
 30
0.0
 40
0.4509213488473817
100
AcDbArc
 50
349.2238665169202
 51
357.5008811693962
  0
LINE
  5
253
330
1F
100
AcDbEntity
  8
IGES_LEVEL_0
 62
     7
100
AcDbLine
 10
19.29107308860118
 20
18.21002549302918
 30
0.0
 11
19.29518873400118
 21
18.23935598094118
 31
0.0
  0
LINE
  5
254
330
1F
100
AcDbEntity
  8
IGES_LEVEL_0
 62
     7
100
AcDbLine
 10
19.24035610694118
 20
17.59419740605318
 30
0.0
 11
19.23988961200118
 21
17.61413463908918
 31
0.0
  0
ARC
  5
255
330
1F
100
AcDbEntity
  8
IGES_LEVEL_0
 62
     7
100
AcDbCircle
 10
19.73674619875946
 20
17.16698111393328
 30
0.0
 40
0.1208378109213691
100
AcDbArc
 50
340.9747551737841
 51
1.736369955575226
  0
ARC
  5
256
330
1F
100
AcDbEntity
  8
IGES_LEVEL_0
 62
     7
100
AcDbCircle
 10
19.75657539320372
 20
17.08325368398034
 30
0.0
 40
0.074850592459139
100
AcDbArc
 50
290.0013466501807
 51
340.912929418713
  0
LINE
  5
257
330
1F
100
AcDbEntity
  8
IGES_LEVEL_0
 62
     7
100
AcDbLine
 10
19.76266277422118
 20
17.00825805144318
 30
0.0
 11
19.78217745671118
 21
17.01291773630318
 31
0.0
  0
LINE
  5
258
330
1F
100
AcDbEntity
  8
IGES_LEVEL_0
 62
     7
100
AcDbLine
 10
19.74613147717118
 20
17.00803849602018
 30
0.0
 11
19.76266277422118
 21
17.00825805144318
 31
0.0
  0
ARC
  5
259
330
1F
100
AcDbEntity
  8
IGES_LEVEL_0
 62
     7
100
AcDbCircle
 10
19.99120474612473
 20
19.94353721085916
 30
0.0
 40
2.945714101151685
100
AcDbArc
 50
260.8765016460623
 51
265.227636090741
  0
LINE
  5
25A
330
1F
100
AcDbEntity
  8
IGES_LEVEL_0
 62
     7
100
AcDbLine
 10
19.52193478075118
 20
17.03544388548918
 30
0.0
 11
19.52412343488118
 21
17.03508975312318
 31
0.0
  0
SPLINE
  5
25B
330
1F
100
AcDbEntity
  8
IGES_LEVEL_0
 62
     7
100
AcDbSpline
210
0.0
220
0.0
230
1.0
 70
     8
 71
     3
 72
    12
 73
     8
 74
     0
 42
0.0000000001
 43
0.0000000001
 40
0.0
 40
0.0
 40
0.0
 40
0.0
 40
0.111322585407
 40
0.2995796096408
 40
0.5123557043602
 40
0.7471382544665
 40
1.0
 40
1.0
 40
1.0
 40
1.0
 10
18.74853517648118
 20
17.35639776275718
 30
0.0
 10
18.77040667462118
 20
17.33361151201918
 30
0.0
 10
18.83480856182118
 20
17.27761059791518
 30
0.0
 10
18.95933500884118
 20
17.20191168256618
 30
0.0
 10
19.12543893686118
 20
17.13128028703918
 30
0.0
 10
19.31574735390118
 20
17.07431564167118
 30
0.0
 10
19.45123698162118
 20
17.04691206699718
 30
0.0
 10
19.52193478075118
 20
17.03544388548918
 30
0.0
  0
LINE
  5
25C
330
1F
100
AcDbEntity
  8
IGES_LEVEL_0
 62
     7
100
AcDbLine
 10
18.71979033929118
 20
17.38907888126218
 30
0.0
 11
18.74853517648118
 21
17.35639776275718
 31
0.0
  0
ARC
  5
25D
330
1F
100
AcDbEntity
  8
IGES_LEVEL_0
 62
     7
100
AcDbCircle
 10
19.02750507277132
 20
17.63827582522085
 30
0.0
 40
0.3959639807849823
100
AcDbArc
 50
207.4022978639008
 51
219.0016267403306
  0
LINE
  5
25E
330
1F
100
AcDbEntity
  8
IGES_LEVEL_0
 62
     7
100
AcDbLine
 10
18.66093721872118
 20
17.48998543956718
 30
0.0
 11
18.67596946704118
 21
17.45603918789718
 31
0.0
  0
ARC
  5
25F
330
1F
100
AcDbEntity
  8
IGES_LEVEL_0
 62
     7
100
AcDbCircle
 10
18.93882040193135
 20
17.59447021662067
 30
0.0
 40
0.2968773015017038
100
AcDbArc
 50
187.1936994823386
 51
200.6063870969599
  0
ARC
  5
260
330
1F
100
AcDbEntity
  8
IGES_LEVEL_0
 62
     7
100
AcDbCircle
 10
10.82785074366864
 20
1888.015092844824
 30
0.0
 40
1863.675906997898
100
AcDbArc
 50
269.930449972378
 51
270.069550050416
  0
ARC
  5
261
330
1F
100
AcDbEntity
  8
IGES_LEVEL_0
 62
     7
100
AcDbCircle
 10
8.358229100557843
 20
23.63493770118982
 30
0.0
 40
0.0249587132543035
100
AcDbArc
 50
235.7476052816144
 51
269.2945555313594
  0
ARC
  5
262
330
1F
100
AcDbEntity
  8
IGES_LEVEL_0
 62
     7
100
AcDbCircle
 10
8.358224213009224
 20
23.6349593353675
 30
0.0
 40
0.0249738496945685
100
AcDbArc
 50
196.1754202217882
 51
235.7848095702953
  0
LINE
  5
263
330
1F
100
AcDbEntity
  8
IGES_LEVEL_0
 62
     7
100
AcDbLine
 10
8.333245851821181
 20
23.63460352087018
 30
0.0
 11
8.33423899601118
 21
23.62800214239018
 31
0.0
  0
LINE
  5
264
330
1F
100
AcDbEntity
  8
IGES_LEVEL_0
 62
     7
100
AcDbLine
 10
8.357909059206181
 20
23.60997868482018
 30
0.0
 11
9.13820303452618
 21
23.60113922006018
 31
0.0
  0
ARC
  5
265
330
1F
100
AcDbEntity
  8
IGES_LEVEL_0
 62
     7
100
AcDbCircle
 10
10.82785110323766
 20
206.071735978687
 30
0.0
 40
182.4784228277004
100
AcDbArc
 50
269.4694655633055
 51
270.5305344597531
  0
LINE
  5
266
330
1F
100
AcDbEntity
  8
IGES_LEVEL_0
 62
     7
100
AcDbLine
 10
12.51749924531818
 20
23.60113922579018
 30
0.0
 11
13.29779316933518
 21
23.60997868562018
 31
0.0
  0
ARC
  5
267
330
1F
100
AcDbEntity
  8
IGES_LEVEL_0
 62
     7
100
AcDbCircle
 10
13.29747312800633
 20
23.63493770113173
 30
0.0
 40
0.024958713195705
100
AcDbArc
 50
270.7054443743176
 51
304.2523947577497
  0
ARC
  5
268
330
1F
100
AcDbEntity
  8
IGES_LEVEL_0
 62
     7
100
AcDbCircle
 10
13.29747801553615
 20
23.63495933536749
 30
0.0
 40
0.024973849694559
100
AcDbArc
 50
304.215190429689
 51
343.8245797782139
  0
LINE
  5
269
330
1F
100
AcDbEntity
  8
IGES_LEVEL_0
 62
     7
100
AcDbLine
 10
13.32245637672418
 20
23.63460352087018
 30
0.0
 11
13.32146323253418
 21
23.62800214239018
 31
0.0
  0
ARC
  5
26A
330
1F
100
AcDbEntity
  8
IGES_LEVEL_0
 62
     7
100
AcDbCircle
 10
12.91166329530152
 20
23.59867074753948
 30
0.0
 40
0.4124267969633985
100
AcDbArc
 50
5.087952587367478
 51
18.04697507420539
  0
LINE
  5
26B
330
1F
100
AcDbEntity
  8
IGES_LEVEL_0
 62
     7
100
AcDbLine
 10
13.30380042286218
 20
23.72643231271018
 30
0.0
 11
13.12796022907418
 21
24.29128779082018
 31
0.0
  0
SPLINE
  5
26C
330
1F
100
AcDbEntity
  8
IGES_LEVEL_0
 62
     7
100
AcDbSpline
210
0.0
220
0.0
230
1.0
 70
     8
 71
     3
 72
    15
 73
    11
 74
     0
 42
0.0000000001
 43
0.0000000001
 40
0.0
 40
0.0
 40
0.0
 40
0.0
 40
0.08991756441858
 40
0.2680705181473
 40
0.4117904713149
 40
0.5288995760463
 40
0.6408681652916
 40
0.776494418557
 40
0.9308987686464
 40
1.0
 40
1.0
 40
1.0
 40
1.0
 10
13.12796169683418
 20
24.29128343881018
 30
0.0
 10
13.12736729935918
 20
24.29319219498018
 30
0.0
 10
13.12555636462218
 20
24.29887068821018
 30
0.0
 10
13.12257469561318
 20
24.30752879149018
 30
0.0
 10
13.11898506313618
 20
24.31660908636018
 30
0.0
 10
13.11541588603718
 20
24.32410015435018
 30
0.0
 10
13.11098850812218
 20
24.33094087684018
 30
0.0
 10
13.10429154324118
 20
24.33708439211018
 30
0.0
 10
13.09667235779418
 20
24.34011809611018
 30
0.0
 10
13.09166900053118
 20
24.34056013267018
 30
0.0
 10
13.09012171896218
 20
24.34055812044018
 30
0.0
  0
ARC
  5
26D
330
1F
100
AcDbEntity
  8
IGES_LEVEL_0
 62
     7
100
AcDbCircle
 10
8.744079491706929
 20
23.59865985746805
 30
0.0
 40
0.4124686807376394
100
AcDbArc
 50
161.9532515499111
 51
174.9094229112349
  0
LINE
  5
26E
330
1F
100
AcDbEntity
  8
IGES_LEVEL_0
 62
     7
100
AcDbLine
 10
8.527741999280181
 20
24.29128779021018
 30
0.0
 11
8.35190180505718
 21
23.72643231070018
 31
0.0
  0
SPLINE
  5
26F
330
1F
100
AcDbEntity
  8
IGES_LEVEL_0
 62
     7
100
AcDbSpline
210
0.0
220
0.0
230
1.0
 70
     8
 71
     3
 72
    16
 73
    12
 74
     0
 42
0.0000000001
 43
0.0000000001
 40
0.0
 40
0.0
 40
0.0
 40
0.0
 40
0.0426413031644
 40
0.1864281630592
 40
0.3156996413075
 40
0.4227596637487
 40
0.522486722327
 40
0.6363976961163
 40
0.7748188199131
 40
0.9411444856619
 40
1.0
 40
1.0
 40
1.0
 40
1.0
 10
8.56558051155718
 20
24.34055852650018
 30
0.0
 10
8.564626565704181
 20
24.34055994629018
 30
0.0
 10
8.56045628014018
 20
24.34033494351018
 30
0.0
 10
8.55358385436918
 20
24.33823393843018
 30
0.0
 10
8.546703685026181
 20
24.33307984153018
 30
0.0
 10
8.54209120502418
 20
24.32713260692018
 30
0.0
 10
8.538668894848181
 20
24.32085907272018
 30
0.0
 10
8.53551629991118
 20
24.31368645931018
 30
0.0
 10
8.53222023727718
 20
24.30497534446018
 30
0.0
 10
8.529640803342181
 20
24.29730980964018
 30
0.0
 10
8.528130403194179
 20
24.29253468345018
 30
0.0
 10
8.52774117939218
 20
24.29128488684018
 30
0.0
  0
SPLINE
  5
270
330
1F
100
AcDbEntity
  8
IGES_LEVEL_0
 62
     7
100
AcDbSpline
210
0.0
220
0.0
230
1.0
 70
     8
 71
     3
 72
     9
 73
     5
 74
     0
 42
0.0000000001
 43
0.0000000001
 40
0.0
 40
0.0
 40
0.0
 40
0.0
 40
0.5
 40
1.0
 40
1.0
 40
1.0
 40
1.0
 10
0.3903511142731798
 20
0.2013803993101791
 30
0.0
 10
0.5570177809391798
 20
0.4517137326401804
 30
0.0
 10
0.8903511142731798
 20
0.702047065980179
 30
0.0
 10
1.22368444760618
 20
0.4517137326401804
 30
0.0
 10
1.39035111427318
 20
0.2013803993101791
 30
0.0
  0
LINE
  5
271
330
1F
100
AcDbEntity
  8
IGES_LEVEL_0
 62
     7
100
AcDbLine
 10
0.4403511041431806
 20
2.076475399290179
 30
0.0
 11
0.3903511142731798
 21
2.076380399309179
 31
0.0
  0
LINE
  5
272
330
1F
100
AcDbEntity
  8
IGES_LEVEL_0
 62
     7
100
AcDbLine
 10
1.39035111427318
 20
2.076380399309179
 30
0.0
 11
1.34035112430018
 21
2.076475399291179
 31
0.0
  0
SPLINE
  5
273
330
1F
100
AcDbEntity
  8
IGES_LEVEL_0
 62
     7
100
AcDbSpline
210
0.0
220
0.0
230
1.0
 70
     8
 71
     3
 72
     9
 73
     5
 74
     0
 42
0.0000000001
 43
0.0000000001
 40
0.0
 40
0.0
 40
0.0
 40
0.0
 40
0.5
 40
1.0
 40
1.0
 40
1.0
 40
1.0
 10
20.26535111427118
 20
0.2013803993101791
 30
0.0
 10
20.43201778094118
 20
0.4517137326401804
 30
0.0
 10
20.76535111427118
 20
0.702047065980179
 30
0.0
 10
21.09868444760118
 20
0.4517137326401804
 30
0.0
 10
21.26535111427118
 20
0.2013803993101791
 30
0.0
  0
LINE
  5
274
330
1F
100
AcDbEntity
  8
IGES_LEVEL_0
 62
     7
100
AcDbLine
 10
20.31535110414118
 20
2.076475399290179
 30
0.0
 11
20.26535111427118
 21
2.076380399309179
 31
0.0
  0
LINE
  5
275
330
1F
100
AcDbEntity
  8
IGES_LEVEL_0
 62
     7
100
AcDbLine
 10
21.26535111427118
 20
2.076380399309179
 30
0.0
 11
21.21535112430118
 21
2.076475399291179
 31
0.0
  0
ARC
  5
276
330
1F
100
AcDbEntity
  8
IGES_LEVEL_0
 62
     7
100
AcDbCircle
 10
0.8903507660511801
 20
67.75477318164018
 30
0.0
 40
0.3749997720538615
100
AcDbArc
 50
180.0
 51
300.0000402155111
  0
ARC
  5
277
330
1F
100
AcDbEntity
  8
IGES_LEVEL_0
 62
     7
100
AcDbCircle
 10
20.76535076605118
 20
67.75477318164018
 30
0.0
 40
0.3749997720538615
100
AcDbArc
 50
239.9999597844889
 51
0.0
  0
ARC
  5
278
330
1F
100
AcDbEntity
  8
IGES_LEVEL_0
 62
     7
100
AcDbCircle
 10
17.01535076605118
 20
44.51494618164018
 30
0.0
 40
0.375
100
AcDbArc
 50
180.0
 51
0.0
  0
ARC
  5
279
330
1F
100
AcDbEntity
  8
IGES_LEVEL_0
 62
     7
100
AcDbCircle
 10
4.640350766051181
 20
44.51494618164018
 30
0.0
 40
0.375
100
AcDbArc
 50
180.0
 51
0.0
  0
ARC
  5
27A
330
1F
100
AcDbEntity
  8
IGES_LEVEL_0
 62
     7
100
AcDbCircle
 10
4.640350766051181
 20
44.51494618164018
 30
0.0
 40
0.4499997907881569
100
AcDbArc
 50
146.4536226627956
 51
33.55457026302722
  0
ARC
  5
27B
330
1F
100
AcDbEntity
  8
IGES_LEVEL_0
 62
     7
100
AcDbCircle
 10
3.81535076605118
 20
45.10244618164018
 30
0.0
 40
0.0500000000000022
100
AcDbArc
 50
90.0
 51
180.0
  0
ARC
  5
27C
330
1F
100
AcDbEntity
  8
IGES_LEVEL_0
 62
     7
100
AcDbCircle
 10
3.81535076605118
 20
42.95244618164018
 30
0.0
 40
0.0500000000000004
100
AcDbArc
 50
180.0
 51
270.0
  0
ARC
  5
27D
330
1F
100
AcDbEntity
  8
IGES_LEVEL_0
 62
     7
100
AcDbCircle
 10
4.090350766051181
 20
45.10244618164018
 30
0.0
 40
0.0500000000000022
100
AcDbArc
 50
0.0
 51
90.0
  0
ARC
  5
27E
330
1F
100
AcDbEntity
  8
IGES_LEVEL_0
 62
     7
100
AcDbCircle
 10
4.090350766051181
 20
42.95244618164018
 30
0.0
 40
0.0500000000000004
100
AcDbArc
 50
270.0
 51
0.0
  0
ARC
  5
27F
330
1F
100
AcDbEntity
  8
IGES_LEVEL_0
 62
     7
100
AcDbCircle
 10
5.19035076605118
 20
45.10244618164018
 30
0.0
 40
0.0500000000000021
100
AcDbArc
 50
90.0
 51
180.0
  0
ARC
  5
280
330
1F
100
AcDbEntity
  8
IGES_LEVEL_0
 62
     7
100
AcDbCircle
 10
5.19035076605118
 20
42.95244618164018
 30
0.0
 40
0.0500000000000004
100
AcDbArc
 50
180.0
 51
270.0
  0
ARC
  5
281
330
1F
100
AcDbEntity
  8
IGES_LEVEL_0
 62
     7
100
AcDbCircle
 10
5.465350766051181
 20
45.10244618164018
 30
0.0
 40
0.0500000000000021
100
AcDbArc
 50
0.0
 51
90.0
  0
ARC
  5
282
330
1F
100
AcDbEntity
  8
IGES_LEVEL_0
 62
     7
100
AcDbCircle
 10
5.465350766051181
 20
42.95244618164018
 30
0.0
 40
0.0500000000000004
100
AcDbArc
 50
270.0
 51
0.0
  0
ARC
  5
283
330
1F
100
AcDbEntity
  8
IGES_LEVEL_0
 62
     7
100
AcDbCircle
 10
17.01535076605118
 20
44.51494618164018
 30
0.0
 40
0.4499997907881571
100
AcDbArc
 50
146.4536226627956
 51
33.55457026302734
  0
ARC
  5
284
330
1F
100
AcDbEntity
  8
IGES_LEVEL_0
 62
     7
100
AcDbCircle
 10
16.19035076605118
 20
45.10244618164018
 30
0.0
 40
0.0500000000000025
100
AcDbArc
 50
90.0
 51
180.0
  0
ARC
  5
285
330
1F
100
AcDbEntity
  8
IGES_LEVEL_0
 62
     7
100
AcDbCircle
 10
16.19035076605118
 20
42.95244618164018
 30
0.0
 40
0.0500000000000007
100
AcDbArc
 50
180.0
 51
270.0
  0
ARC
  5
286
330
1F
100
AcDbEntity
  8
IGES_LEVEL_0
 62
     7
100
AcDbCircle
 10
16.46535076605118
 20
45.10244618164018
 30
0.0
 40
0.0500000000000025
100
AcDbArc
 50
0.0
 51
90.0
  0
ARC
  5
287
330
1F
100
AcDbEntity
  8
IGES_LEVEL_0
 62
     7
100
AcDbCircle
 10
16.46535076605118
 20
42.95244618164018
 30
0.0
 40
0.0500000000000007
100
AcDbArc
 50
270.0
 51
0.0
  0
ARC
  5
288
330
1F
100
AcDbEntity
  8
IGES_LEVEL_0
 62
     7
100
AcDbCircle
 10
17.56535076605118
 20
45.10244618164018
 30
0.0
 40
0.0500000000000025
100
AcDbArc
 50
90.0
 51
180.0
  0
ARC
  5
289
330
1F
100
AcDbEntity
  8
IGES_LEVEL_0
 62
     7
100
AcDbCircle
 10
17.56535076605118
 20
42.95244618164018
 30
0.0
 40
0.0500000000000007
100
AcDbArc
 50
180.0
 51
270.0
  0
ARC
  5
28A
330
1F
100
AcDbEntity
  8
IGES_LEVEL_0
 62
     7
100
AcDbCircle
 10
17.84035076605118
 20
45.10244618164018
 30
0.0
 40
0.0500000000000025
100
AcDbArc
 50
0.0
 51
90.0
  0
ARC
  5
28B
330
1F
100
AcDbEntity
  8
IGES_LEVEL_0
 62
     7
100
AcDbCircle
 10
17.84035076605118
 20
42.95244618164018
 30
0.0
 40
0.0500000000000007
100
AcDbArc
 50
270.0
 51
0.0
  0
ARC
  5
28C
330
1F
100
AcDbEntity
  8
IGES_LEVEL_0
 62
     7
100
AcDbCircle
 10
20.76535076605118
 20
67.75477318164018
 30
0.0
 40
0.4499999678783024
100
AcDbArc
 50
236.4574717147087
 51
33.55457026302783
  0
ARC
  5
28D
330
1F
100
AcDbEntity
  8
IGES_LEVEL_0
 62
     7
100
AcDbCircle
 10
21.59035076605118
 20
67.16727318164018
 30
0.0
 40
0.0499999999999989
100
AcDbArc
 50
270.0
 51
0.0
  0
ARC
  5
28E
330
1F
100
AcDbEntity
  8
IGES_LEVEL_0
 62
     7
100
AcDbCircle
 10
21.59035076605118
 20
69.31727318164018
 30
0.0
 40
0.0500000000000025
100
AcDbArc
 50
0.0
 51
90.0
  0
ARC
  5
28F
330
1F
100
AcDbEntity
  8
IGES_LEVEL_0
 62
     7
100
AcDbCircle
 10
21.31535076605118
 20
67.16727318164018
 30
0.0
 40
0.0499999999999989
100
AcDbArc
 50
180.0
 51
270.0
  0
ARC
  5
290
330
1F
100
AcDbEntity
  8
IGES_LEVEL_0
 62
     7
100
AcDbCircle
 10
21.31535076605118
 20
69.31727318164018
 30
0.0
 40
0.0500000000000025
100
AcDbArc
 50
90.0
 51
180.0
  0
ARC
  5
291
330
1F
100
AcDbEntity
  8
IGES_LEVEL_0
 62
     7
100
AcDbCircle
 10
20.21535076605118
 20
67.16727318164018
 30
0.0
 40
0.0499999999999989
100
AcDbArc
 50
270.0
 51
0.0
  0
ARC
  5
292
330
1F
100
AcDbEntity
  8
IGES_LEVEL_0
 62
     7
100
AcDbCircle
 10
20.21535076605118
 20
69.31727318164018
 30
0.0
 40
0.0500000000000025
100
AcDbArc
 50
0.0
 51
90.0
  0
ARC
  5
293
330
1F
100
AcDbEntity
  8
IGES_LEVEL_0
 62
     7
100
AcDbCircle
 10
19.94035076605118
 20
67.16727318164018
 30
0.0
 40
0.0499999999999989
100
AcDbArc
 50
180.0
 51
270.0
  0
ARC
  5
294
330
1F
100
AcDbEntity
  8
IGES_LEVEL_0
 62
     7
100
AcDbCircle
 10
19.94035076605118
 20
69.31727318164018
 30
0.0
 40
0.0500000000000025
100
AcDbArc
 50
90.0
 51
180.0
  0
ARC
  5
295
330
1F
100
AcDbEntity
  8
IGES_LEVEL_0
 62
     7
100
AcDbCircle
 10
0.8903507660511801
 20
67.75477318164018
 30
0.0
 40
0.4499995845502922
100
AcDbArc
 50
146.8331778593859
 51
303.5552058175679
  0
ARC
  5
296
330
1F
100
AcDbEntity
  8
IGES_LEVEL_0
 62
     7
100
AcDbCircle
 10
1.71535076605118
 20
67.16727318164018
 30
0.0
 40
0.0499999999999985
100
AcDbArc
 50
270.0
 51
0.0
  0
ARC
  5
297
330
1F
100
AcDbEntity
  8
IGES_LEVEL_0
 62
     7
100
AcDbCircle
 10
1.71535076605118
 20
69.31727318164018
 30
0.0
 40
0.050000000000002
100
AcDbArc
 50
0.0
 51
90.0
  0
ARC
  5
298
330
1F
100
AcDbEntity
  8
IGES_LEVEL_0
 62
     7
100
AcDbCircle
 10
1.44035076605118
 20
67.16727318164018
 30
0.0
 40
0.0499999999999985
100
AcDbArc
 50
180.0
 51
270.0
  0
ARC
  5
299
330
1F
100
AcDbEntity
  8
IGES_LEVEL_0
 62
     7
100
AcDbCircle
 10
1.44035076605118
 20
69.31727318164018
 30
0.0
 40
0.050000000000002
100
AcDbArc
 50
90.0
 51
180.0
  0
ARC
  5
29A
330
1F
100
AcDbEntity
  8
IGES_LEVEL_0
 62
     7
100
AcDbCircle
 10
0.3403507660511803
 20
67.16727318164018
 30
0.0
 40
0.0499999999999985
100
AcDbArc
 50
270.0
 51
0.0
  0
ARC
  5
29B
330
1F
100
AcDbEntity
  8
IGES_LEVEL_0
 62
     7
100
AcDbCircle
 10
0.3403507660511803
 20
69.31727318164018
 30
0.0
 40
0.050000000000002
100
AcDbArc
 50
0.0
 51
90.0
  0
ARC
  5
29C
330
1F
100
AcDbEntity
  8
IGES_LEVEL_0
 62
     7
100
AcDbCircle
 10
0.06535076605118
 20
67.16727318164018
 30
0.0
 40
0.0499999999999985
100
AcDbArc
 50
180.0
 51
270.0
  0
ARC
  5
29D
330
1F
100
AcDbEntity
  8
IGES_LEVEL_0
 62
     7
100
AcDbCircle
 10
0.06535076605118
 20
69.31727318164018
 30
0.0
 40
0.050000000000002
100
AcDbArc
 50
90.0
 51
180.0
  0
ARC
  5
29E
330
1F
100
AcDbEntity
  8
IGES_LEVEL_0
 62
     7
100
AcDbCircle
 10
32.52307976605118
 20
34.82588018164018
 30
0.0
 40
0.3749997735219172
100
AcDbArc
 50
26.60707365474123
 51
207.3891988618756
  0
ARC
  5
29F
330
1F
100
AcDbEntity
  8
IGES_LEVEL_0
 62
     7
100
AcDbCircle
 10
39.94453776605118
 20
16.40574218164018
 30
0.0
 40
2.125000103320116
100
AcDbArc
 50
0.0
 51
27.00000285181646
  0
ARC
  5
2A0
330
1F
100
AcDbEntity
  8
IGES_LEVEL_0
 62
     7
100
AcDbCircle
 10
35.67692876605118
 20
24.78139718164018
 30
0.0
 40
0.3750000760252618
100
AcDbArc
 50
117.0001075659181
 51
296.9999020655469
  0
ARC
  5
2A1
330
1F
100
AcDbEntity
  8
IGES_LEVEL_0
 62
     7
100
AcDbCircle
 10
63.43436476605118
 20
4.24091118164018
 30
0.0
 40
1.874999828523318
100
AcDbArc
 50
0.0
 51
24.44800367382994
  0
ARC
  5
2A2
330
1F
100
AcDbEntity
  8
IGES_LEVEL_0
 62
     7
100
AcDbCircle
 10
63.43436476605118
 20
4.24091118164018
 30
0.0
 40
1.124999888853765
100
AcDbArc
 50
0.0
 51
24.44802643468989
  0
ARC
  5
2A3
330
1F
100
AcDbEntity
  8
IGES_LEVEL_0
 62
     7
100
AcDbCircle
 10
56.34866476605118
 20
23.45088018164018
 30
0.0
 40
0.3750002137016633
100
AcDbArc
 50
294.2524348485809
 51
114.252372089554
  0
ARC
  5
2A4
330
1F
100
AcDbEntity
  8
IGES_LEVEL_0
 62
     7
100
AcDbCircle
 10
63.29950476605118
 20
9.976413181640181
 30
0.0
 40
0.374999723661232
100
AcDbArc
 50
281.2540788975471
 51
101.2540788975471
  0
ARC
  5
2A5
330
1F
100
AcDbEntity
  8
IGES_LEVEL_0
 62
     7
100
AcDbCircle
 10
39.94453776605118
 20
16.40574218164018
 30
0.0
 40
1.375000027295456
100
AcDbArc
 50
0.0
 51
27.00000178062199
  0
ARC
  5
2A6
330
1F
100
AcDbEntity
  8
IGES_LEVEL_0
 62
     7
100
AcDbCircle
 10
41.20455576605118
 20
16.71813018164018
 30
0.0
 40
0.0820003234159423
100
AcDbArc
 50
196.1669112203623
 51
294.2523725889103
  0
ARC
  5
2A7
330
1F
100
AcDbEntity
  8
IGES_LEVEL_0
 62
     7
100
AcDbCircle
 10
47.30278576605118
 20
19.85540218164018
 30
0.0
 40
0.0499998256846934
100
AcDbArc
 50
24.25266829234773
 51
78.70849566387967
  0
CIRCLE
  5
2A8
330
1F
100
AcDbEntity
  8
IGES_LEVEL_0
 62
     7
100
AcDbCircle
 10
41.20703776605118
 20
1.13888018164018
 30
0.0
 40
1.125
  0
ARC
  5
2A9
330
1F
100
AcDbEntity
  8
IGES_LEVEL_0
 62
     7
100
AcDbCircle
 10
41.27453776605118
 20
2.54588018164018
 30
0.0
 40
0.0300000000000002
100
AcDbArc
 50
90.0
 51
180.0
  0
ARC
  5
2AA
330
1F
100
AcDbEntity
  8
IGES_LEVEL_0
 62
     7
100
AcDbCircle
 10
42.11453776605118
 20
2.54588018164018
 30
0.0
 40
0.0300000000000002
100
AcDbArc
 50
0.0
 51
90.0
  0
CIRCLE
  5
2AB
330
1F
100
AcDbEntity
  8
IGES_LEVEL_0
 62
     7
100
AcDbCircle
 10
65.42186476605119
 20
1.13888018164018
 30
0.0
 40
1.125
  0
ARC
  5
2AC
330
1F
100
AcDbEntity
  8
IGES_LEVEL_0
 62
     7
100
AcDbCircle
 10
64.51436476605119
 20
2.54588018164018
 30
0.0
 40
0.0300000000000002
100
AcDbArc
 50
90.0
 51
180.0
  0
ARC
  5
2AD
330
1F
100
AcDbEntity
  8
IGES_LEVEL_0
 62
     7
100
AcDbCircle
 10
65.35436476605118
 20
2.54588018164018
 30
0.0
 40
0.0300000000000002
100
AcDbArc
 50
0.0
 51
90.0
  0
ARC
  5
2AE
330
1F
100
AcDbEntity
  8
IGES_LEVEL_0
 62
     7
100
AcDbCircle
 10
56.34866476605118
 20
23.45088018164018
 30
0.0
 40
0.3875002589715078
100
AcDbArc
 50
23.94731093104958
 51
128.8100440418101
  0
ARC
  5
2AF
330
1F
100
AcDbEntity
  8
IGES_LEVEL_0
 62
     7
100
AcDbCircle
 10
56.70319376605118
 20
23.67394918164018
 30
0.0
 40
0.0849998429639099
100
AcDbArc
 50
291.9859133402936
 51
22.30885945990042
  0
ARC
  5
2B0
330
1F
100
AcDbEntity
  8
IGES_LEVEL_0
 62
     7
100
AcDbCircle
 10
56.72565676605118
 20
23.61831318164018
 30
0.0
 40
0.0250003435321259
100
AcDbArc
 50
203.9629543588094
 51
290.074547857146
  0
ARC
  5
2B1
330
1F
100
AcDbEntity
  8
IGES_LEVEL_0
 62
     7
100
AcDbCircle
 10
3.81535076605118
 20
2.213880181640179
 30
0.0
 40
0.0500000000000004
100
AcDbArc
 50
90.0
 51
180.0
  0
ARC
  5
2B2
330
1F
100
AcDbEntity
  8
IGES_LEVEL_0
 62
     7
100
AcDbCircle
 10
3.81535076605118
 20
0.0638801816401804
 30
0.0
 40
0.0500000000000004
100
AcDbArc
 50
180.0
 51
270.0
  0
ARC
  5
2B3
330
1F
100
AcDbEntity
  8
IGES_LEVEL_0
 62
     7
100
AcDbCircle
 10
4.090350766051181
 20
2.213880181640179
 30
0.0
 40
0.0500000000000004
100
AcDbArc
 50
0.0
 51
90.0
  0
ARC
  5
2B4
330
1F
100
AcDbEntity
  8
IGES_LEVEL_0
 62
     7
100
AcDbCircle
 10
4.090350766051181
 20
0.0638801816401804
 30
0.0
 40
0.0500000000000004
100
AcDbArc
 50
270.0
 51
360.0
  0
ARC
  5
2B5
330
1F
100
AcDbEntity
  8
IGES_LEVEL_0
 62
     7
100
AcDbCircle
 10
5.19035076605118
 20
2.213880181640179
 30
0.0
 40
0.0500000000000004
100
AcDbArc
 50
90.0
 51
180.0
  0
ARC
  5
2B6
330
1F
100
AcDbEntity
  8
IGES_LEVEL_0
 62
     7
100
AcDbCircle
 10
5.19035076605118
 20
0.0638801816401804
 30
0.0
 40
0.0500000000000004
100
AcDbArc
 50
180.0
 51
270.0
  0
ARC
  5
2B7
330
1F
100
AcDbEntity
  8
IGES_LEVEL_0
 62
     7
100
AcDbCircle
 10
5.465350766051181
 20
2.213880181640179
 30
0.0
 40
0.0500000000000004
100
AcDbArc
 50
0.0
 51
90.0
  0
ARC
  5
2B8
330
1F
100
AcDbEntity
  8
IGES_LEVEL_0
 62
     7
100
AcDbCircle
 10
5.465350766051181
 20
0.0638801816401804
 30
0.0
 40
0.0500000000000004
100
AcDbArc
 50
270.0
 51
360.0
  0
ARC
  5
2B9
330
1F
100
AcDbEntity
  8
IGES_LEVEL_0
 62
     7
100
AcDbCircle
 10
4.220350766051181
 20
2.54588018164018
 30
0.0
 40
0.0299999999999997
100
AcDbArc
 50
90.0
 51
180.0
  0
ARC
  5
2BA
330
1F
100
AcDbEntity
  8
IGES_LEVEL_0
 62
     7
100
AcDbCircle
 10
5.06035076605118
 20
2.54588018164018
 30
0.0
 40
0.0299999999999997
100
AcDbArc
 50
0.0
 51
90.0
  0
ARC
  5
2BB
330
1F
100
AcDbEntity
  8
IGES_LEVEL_0
 62
     7
100
AcDbCircle
 10
16.19035076605118
 20
2.213880181640179
 30
0.0
 40
0.0500000000000007
100
AcDbArc
 50
90.0
 51
180.0
  0
ARC
  5
2BC
330
1F
100
AcDbEntity
  8
IGES_LEVEL_0
 62
     7
100
AcDbCircle
 10
16.19035076605118
 20
0.0638801816401804
 30
0.0
 40
0.0500000000000007
100
AcDbArc
 50
180.0
 51
270.0
  0
ARC
  5
2BD
330
1F
100
AcDbEntity
  8
IGES_LEVEL_0
 62
     7
100
AcDbCircle
 10
16.46535076605118
 20
2.213880181640179
 30
0.0
 40
0.0500000000000007
100
AcDbArc
 50
0.0
 51
90.0
  0
ARC
  5
2BE
330
1F
100
AcDbEntity
  8
IGES_LEVEL_0
 62
     7
100
AcDbCircle
 10
16.46535076605118
 20
0.0638801816401804
 30
0.0
 40
0.0500000000000007
100
AcDbArc
 50
270.0
 51
360.0
  0
ARC
  5
2BF
330
1F
100
AcDbEntity
  8
IGES_LEVEL_0
 62
     7
100
AcDbCircle
 10
17.56535076605118
 20
2.213880181640179
 30
0.0
 40
0.0500000000000007
100
AcDbArc
 50
90.0
 51
180.0
  0
ARC
  5
2C0
330
1F
100
AcDbEntity
  8
IGES_LEVEL_0
 62
     7
100
AcDbCircle
 10
17.56535076605118
 20
0.0638801816401804
 30
0.0
 40
0.0500000000000007
100
AcDbArc
 50
180.0
 51
270.0
  0
ARC
  5
2C1
330
1F
100
AcDbEntity
  8
IGES_LEVEL_0
 62
     7
100
AcDbCircle
 10
17.84035076605118
 20
2.213880181640179
 30
0.0
 40
0.0500000000000007
100
AcDbArc
 50
0.0
 51
90.0
  0
ARC
  5
2C2
330
1F
100
AcDbEntity
  8
IGES_LEVEL_0
 62
     7
100
AcDbCircle
 10
17.84035076605118
 20
0.0638801816401804
 30
0.0
 40
0.0500000000000007
100
AcDbArc
 50
270.0
 51
360.0
  0
ARC
  5
2C3
330
1F
100
AcDbEntity
  8
IGES_LEVEL_0
 62
     7
100
AcDbCircle
 10
16.59535076605118
 20
2.54588018164018
 30
0.0
 40
0.0299999999999994
100
AcDbArc
 50
90.0
 51
180.0
  0
ARC
  5
2C4
330
1F
100
AcDbEntity
  8
IGES_LEVEL_0
 62
     7
100
AcDbCircle
 10
17.43535076605118
 20
2.54588018164018
 30
0.0
 40
0.0299999999999994
100
AcDbArc
 50
0.0
 51
90.0
  0
ARC
  5
2C5
330
1F
100
AcDbEntity
  8
IGES_LEVEL_0
 62
     7
100
AcDbCircle
 10
1.71535076605118
 20
2.213880181640179
 30
0.0
 40
0.0500000000000003
100
AcDbArc
 50
0.0
 51
90.0
  0
ARC
  5
2C6
330
1F
100
AcDbEntity
  8
IGES_LEVEL_0
 62
     7
100
AcDbCircle
 10
1.71535076605118
 20
0.0638801816401804
 30
0.0
 40
0.0500000000000003
100
AcDbArc
 50
270.0
 51
360.0
  0
ARC
  5
2C7
330
1F
100
AcDbEntity
  8
IGES_LEVEL_0
 62
     7
100
AcDbCircle
 10
1.44035076605118
 20
2.213880181640179
 30
0.0
 40
0.0500000000000003
100
AcDbArc
 50
90.0
 51
180.0
  0
ARC
  5
2C8
330
1F
100
AcDbEntity
  8
IGES_LEVEL_0
 62
     7
100
AcDbCircle
 10
1.44035076605118
 20
0.0638801816401804
 30
0.0
 40
0.0500000000000003
100
AcDbArc
 50
180.0
 51
270.0
  0
ARC
  5
2C9
330
1F
100
AcDbEntity
  8
IGES_LEVEL_0
 62
     7
100
AcDbCircle
 10
0.3403507660511803
 20
2.213880181640179
 30
0.0
 40
0.0500000000000003
100
AcDbArc
 50
0.0
 51
90.0
  0
ARC
  5
2CA
330
1F
100
AcDbEntity
  8
IGES_LEVEL_0
 62
     7
100
AcDbCircle
 10
0.3403507660511803
 20
0.0638801816401804
 30
0.0
 40
0.0500000000000003
100
AcDbArc
 50
270.0
 51
360.0
  0
ARC
  5
2CB
330
1F
100
AcDbEntity
  8
IGES_LEVEL_0
 62
     7
100
AcDbCircle
 10
0.06535076605118
 20
2.213880181640179
 30
0.0
 40
0.0500000000000003
100
AcDbArc
 50
90.0
 51
180.0
  0
ARC
  5
2CC
330
1F
100
AcDbEntity
  8
IGES_LEVEL_0
 62
     7
100
AcDbCircle
 10
0.06535076605118
 20
0.0638801816401804
 30
0.0
 40
0.0500000000000003
100
AcDbArc
 50
180.0
 51
270.0
  0
ARC
  5
2CD
330
1F
100
AcDbEntity
  8
IGES_LEVEL_0
 62
     7
100
AcDbCircle
 10
1.31035076605118
 20
2.54588018164018
 30
0.0
 40
0.0299999999999998
100
AcDbArc
 50
0.0
 51
90.0
  0
ARC
  5
2CE
330
1F
100
AcDbEntity
  8
IGES_LEVEL_0
 62
     7
100
AcDbCircle
 10
0.4703507660511802
 20
2.54588018164018
 30
0.0
 40
0.0299999999999998
100
AcDbArc
 50
90.0
 51
180.0
  0
ARC
  5
2CF
330
1F
100
AcDbEntity
  8
IGES_LEVEL_0
 62
     7
100
AcDbCircle
 10
21.59035076605118
 20
2.213880181640179
 30
0.0
 40
0.0500000000000007
100
AcDbArc
 50
0.0
 51
90.0
  0
ARC
  5
2D0
330
1F
100
AcDbEntity
  8
IGES_LEVEL_0
 62
     7
100
AcDbCircle
 10
21.59035076605118
 20
0.0638801816401804
 30
0.0
 40
0.0500000000000007
100
AcDbArc
 50
270.0
 51
360.0
  0
ARC
  5
2D1
330
1F
100
AcDbEntity
  8
IGES_LEVEL_0
 62
     7
100
AcDbCircle
 10
21.31535076605118
 20
2.213880181640179
 30
0.0
 40
0.0500000000000007
100
AcDbArc
 50
90.0
 51
180.0
  0
ARC
  5
2D2
330
1F
100
AcDbEntity
  8
IGES_LEVEL_0
 62
     7
100
AcDbCircle
 10
21.31535076605118
 20
0.0638801816401804
 30
0.0
 40
0.0500000000000007
100
AcDbArc
 50
180.0
 51
270.0
  0
ARC
  5
2D3
330
1F
100
AcDbEntity
  8
IGES_LEVEL_0
 62
     7
100
AcDbCircle
 10
20.21535076605118
 20
2.213880181640179
 30
0.0
 40
0.0500000000000007
100
AcDbArc
 50
0.0
 51
90.0
  0
ARC
  5
2D4
330
1F
100
AcDbEntity
  8
IGES_LEVEL_0
 62
     7
100
AcDbCircle
 10
20.21535076605118
 20
0.0638801816401804
 30
0.0
 40
0.0500000000000007
100
AcDbArc
 50
270.0
 51
360.0
  0
ARC
  5
2D5
330
1F
100
AcDbEntity
  8
IGES_LEVEL_0
 62
     7
100
AcDbCircle
 10
19.94035076605118
 20
2.213880181640179
 30
0.0
 40
0.0500000000000007
100
AcDbArc
 50
90.0
 51
180.0
  0
ARC
  5
2D6
330
1F
100
AcDbEntity
  8
IGES_LEVEL_0
 62
     7
100
AcDbCircle
 10
19.94035076605118
 20
0.0638801816401804
 30
0.0
 40
0.0500000000000007
100
AcDbArc
 50
180.0
 51
270.0
  0
ARC
  5
2D7
330
1F
100
AcDbEntity
  8
IGES_LEVEL_0
 62
     7
100
AcDbCircle
 10
21.18535076605118
 20
2.54588018164018
 30
0.0
 40
0.0299999999999994
100
AcDbArc
 50
0.0
 51
90.0
  0
ARC
  5
2D8
330
1F
100
AcDbEntity
  8
IGES_LEVEL_0
 62
     7
100
AcDbCircle
 10
20.34535076605118
 20
2.54588018164018
 30
0.0
 40
0.0299999999999994
100
AcDbArc
 50
90.0
 51
180.0
  0
LINE
  5
2D9
330
1F
100
AcDbEntity
  8
IGES_LEVEL_0
 62
     7
100
AcDbLine
 10
2.64035076605118
 20
77.30123118164019
 30
0.0
 11
19.01535076605118
 21
77.30123118164019
 31
0.0
  0
LINE
  5
2DA
330
1F
100
AcDbEntity
  8
IGES_LEVEL_0
 62
     7
100
AcDbLine
 10
2.64035076605118
 20
76.55123118164019
 30
0.0
 11
19.01535076605118
 21
76.55123118164019
 31
0.0
  0
LINE
  5
2DB
330
1F
100
AcDbEntity
  8
IGES_LEVEL_0
 62
     7
100
AcDbLine
 10
21.64035076605118
 20
69.31727318164018
 30
0.0
 11
21.64035076605118
 21
67.16727318164018
 31
0.0
  0
LINE
  5
2DC
330
1F
100
AcDbEntity
  8
IGES_LEVEL_0
 62
     7
100
AcDbLine
 10
21.26535076605118
 20
67.16727318164018
 30
0.0
 11
21.26535076605118
 21
69.31727318164018
 31
0.0
  0
LINE
  5
2DD
330
1F
100
AcDbEntity
  8
IGES_LEVEL_0
 62
     7
100
AcDbLine
 10
21.14035076605118
 20
76.03456218164018
 30
0.0
 11
21.14035076605118
 21
67.75477318164018
 31
0.0
  0
LINE
  5
2DE
330
1F
100
AcDbEntity
  8
IGES_LEVEL_0
 62
     7
100
AcDbLine
 10
20.39035076605118
 20
71.93757118164018
 30
0.0
 11
20.39035076605118
 21
67.93446918164018
 31
0.0
  0
LINE
  5
2DF
330
1F
100
AcDbEntity
  8
IGES_LEVEL_0
 62
     7
100
AcDbLine
 10
20.39035076605118
 20
76.03456218164018
 30
0.0
 11
20.39035076605118
 21
72.37347618164019
 31
0.0
  0
LINE
  5
2E0
330
1F
100
AcDbEntity
  8
IGES_LEVEL_0
 62
     7
100
AcDbLine
 10
20.26535076605118
 20
67.37214018164018
 30
0.0
 11
20.26535076605118
 21
67.16727318164018
 31
0.0
  0
LINE
  5
2E1
330
1F
100
AcDbEntity
  8
IGES_LEVEL_0
 62
     7
100
AcDbLine
 10
20.26535076605118
 20
69.31727318164018
 30
0.0
 11
20.26535076605118
 21
68.18095518164019
 31
0.0
  0
LINE
  5
2E2
330
1F
100
AcDbEntity
  8
IGES_LEVEL_0
 62
     7
100
AcDbLine
 10
19.89035076605118
 20
67.26456518164018
 30
0.0
 11
19.89035076605118
 21
67.16727318164018
 31
0.0
  0
LINE
  5
2E3
330
1F
100
AcDbEntity
  8
IGES_LEVEL_0
 62
     7
100
AcDbLine
 10
19.89035076605118
 20
69.31727318164018
 30
0.0
 11
19.89035076605118
 21
68.17656318164018
 31
0.0
  0
LINE
  5
2E4
330
1F
100
AcDbEntity
  8
IGES_LEVEL_0
 62
     7
100
AcDbLine
 10
21.31535076605118
 20
69.36727318164019
 30
0.0
 11
21.59035076605118
 21
69.36727318164019
 31
0.0
  0
LINE
  5
2E5
330
1F
100
AcDbEntity
  8
IGES_LEVEL_0
 62
     7
100
AcDbLine
 10
19.94035076605118
 20
69.36727318164019
 30
0.0
 11
20.21535076605118
 21
69.36727318164019
 31
0.0
  0
LINE
  5
2E6
330
1F
100
AcDbEntity
  8
IGES_LEVEL_0
 62
     7
100
AcDbLine
 10
1.44035076605118
 20
69.36727318164019
 30
0.0
 11
1.71535076605118
 21
69.36727318164019
 31
0.0
  0
LINE
  5
2E7
330
1F
100
AcDbEntity
  8
IGES_LEVEL_0
 62
     7
100
AcDbLine
 10
0.06535076605118
 20
69.36727318164019
 30
0.0
 11
0.3403507660511803
 21
69.36727318164019
 31
0.0
  0
LINE
  5
2E8
330
1F
100
AcDbEntity
  8
IGES_LEVEL_0
 62
     7
100
AcDbLine
 10
18.87548776605118
 20
67.52769018164018
 30
0.0
 11
18.87481476605118
 21
67.51217118164018
 31
0.0
  0
LINE
  5
2E9
330
1F
100
AcDbEntity
  8
IGES_LEVEL_0
 62
     7
100
AcDbLine
 10
18.75676376605118
 20
67.42290418164018
 30
0.0
 11
18.75676576605118
 21
67.42303518164017
 31
0.0
  0
LINE
  5
2EA
330
1F
100
AcDbEntity
  8
IGES_LEVEL_0
 62
     7
100
AcDbLine
 10
18.55673976605118
 20
67.45787818164018
 30
0.0
 11
18.55673776605118
 21
67.45774618164018
 31
0.0
  0
LINE
  5
2EB
330
1F
100
AcDbEntity
  8
IGES_LEVEL_0
 62
     7
100
AcDbLine
 10
18.36022976605118
 20
63.05966918164017
 30
0.0
 11
18.36023176605118
 21
63.05980018164018
 31
0.0
  0
LINE
  5
2EC
330
1F
100
AcDbEntity
  8
IGES_LEVEL_0
 62
     7
100
AcDbLine
 10
18.47896476605118
 20
63.09328418164018
 30
0.0
 11
18.47894476605118
 21
63.09061918164018
 31
0.0
  0
LINE
  5
2ED
330
1F
100
AcDbEntity
  8
IGES_LEVEL_0
 62
     7
100
AcDbLine
 10
19.26535076605118
 20
65.59371018164018
 30
0.0
 11
19.26535076605118
 21
66.28361618164018
 31
0.0
  0
LINE
  5
2EE
330
1F
100
AcDbEntity
  8
IGES_LEVEL_0
 62
     7
100
AcDbLine
 10
19.26535076605118
 20
47.62100918164018
 30
0.0
 11
19.26535076605118
 21
64.67489718164018
 31
0.0
  0
LINE
  5
2EF
330
1F
100
AcDbEntity
  8
IGES_LEVEL_0
 62
     7
100
AcDbLine
 10
18.64035076605118
 20
53.89842318164018
 30
0.0
 11
18.64035076605118
 21
61.98818818164018
 31
0.0
  0
LINE
  5
2F0
330
1F
100
AcDbEntity
  8
IGES_LEVEL_0
 62
     7
100
AcDbLine
 10
18.51535076605118
 20
49.95750618164018
 30
0.0
 11
18.51535076605118
 21
53.38848218164018
 31
0.0
  0
LINE
  5
2F1
330
1F
100
AcDbEntity
  8
IGES_LEVEL_0
 62
     7
100
AcDbLine
 10
18.51535076605118
 20
47.62100918164018
 30
0.0
 11
18.51535076605118
 21
49.21471618164018
 31
0.0
  0
LINE
  5
2F2
330
1F
100
AcDbEntity
  8
IGES_LEVEL_0
 62
     7
100
AcDbLine
 10
18.81610376605118
 20
62.36746818164018
 30
0.0
 11
18.81447176605118
 21
64.40749818164018
 31
0.0
  0
LINE
  5
2F3
330
1F
100
AcDbEntity
  8
IGES_LEVEL_0
 62
     7
100
AcDbLine
 10
18.75676576605118
 20
67.42303518164017
 30
0.0
 11
18.75673776605118
 21
67.45787918164018
 31
0.0
  0
LINE
  5
2F4
330
1F
100
AcDbEntity
  8
IGES_LEVEL_0
 62
     7
100
AcDbLine
 10
18.55673776605118
 20
67.45774618164018
 30
0.0
 11
18.55676576605118
 21
67.42290218164018
 31
0.0
  0
LINE
  5
2F5
330
1F
100
AcDbEntity
  8
IGES_LEVEL_0
 62
     7
100
AcDbLine
 10
18.36023176605118
 20
63.05980018164018
 30
0.0
 11
18.36021476605118
 21
63.08076318164018
 31
0.0
  0
LINE
  5
2F6
330
1F
100
AcDbEntity
  8
IGES_LEVEL_0
 62
     7
100
AcDbLine
 10
18.47894476605118
 20
63.09061918164018
 30
0.0
 11
18.47898176605118
 21
63.08750418164018
 31
0.0
  0
LINE
  5
2F7
330
1F
100
AcDbEntity
  8
IGES_LEVEL_0
 62
     7
100
AcDbLine
 10
18.43817076605118
 20
67.48520918164019
 30
0.0
 11
18.43798776605118
 21
67.49223818164018
 31
0.0
  0
LINE
  5
2F8
330
1F
100
AcDbEntity
  8
IGES_LEVEL_0
 62
     7
100
AcDbLine
 10
18.87481476605118
 20
67.51217118164018
 30
0.0
 11
18.87547876605118
 21
67.49623418164018
 31
0.0
  0
LINE
  5
2F9
330
1F
100
AcDbEntity
  8
IGES_LEVEL_0
 62
     7
100
AcDbLine
 10
19.30250876605118
 20
64.72690318164018
 30
0.0
 11
19.30273776605118
 21
64.72209118164018
 31
0.0
  0
LINE
  5
2FA
330
1F
100
AcDbEntity
  8
IGES_LEVEL_0
 62
     7
100
AcDbLine
 10
20.01635076605118
 20
68.18095518164019
 30
0.0
 11
20.39035076605118
 21
68.18095518164019
 31
0.0
  0
LINE
  5
2FB
330
1F
100
AcDbEntity
  8
IGES_LEVEL_0
 62
     7
100
AcDbLine
 10
1.26535076605118
 20
68.18095518164019
 30
0.0
 11
1.63935076605118
 21
68.18095518164019
 31
0.0
  0
LINE
  5
2FC
330
1F
100
AcDbEntity
  8
IGES_LEVEL_0
 62
     7
100
AcDbLine
 10
18.43793376605118
 20
67.47808918164019
 30
0.0
 11
18.43817076605118
 21
67.48520918164019
 31
0.0
  0
LINE
  5
2FD
330
1F
100
AcDbEntity
  8
IGES_LEVEL_0
 62
     7
100
AcDbLine
 10
18.16021576605118
 20
63.08076118164018
 30
0.0
 11
18.16021476605118
 21
63.08063018164017
 31
0.0
  0
LINE
  5
2FE
330
1F
100
AcDbEntity
  8
IGES_LEVEL_0
 62
     7
100
AcDbLine
 10
18.04145876605118
 20
63.08774318164018
 30
0.0
 11
18.04148876605118
 21
63.09032818164017
 31
0.0
  0
LINE
  5
2FF
330
1F
100
AcDbEntity
  8
IGES_LEVEL_0
 62
     7
100
AcDbLine
 10
17.89035076605118
 20
53.89842318164018
 30
0.0
 11
17.89035076605118
 21
61.99799518164018
 31
0.0
  0
LINE
  5
300
330
1F
100
AcDbEntity
  8
IGES_LEVEL_0
 62
     7
100
AcDbLine
 10
17.89035076605118
 20
42.95244618164018
 30
0.0
 11
17.89035076605118
 21
45.10244618164018
 31
0.0
  0
LINE
  5
301
330
1F
100
AcDbEntity
  8
IGES_LEVEL_0
 62
     7
100
AcDbLine
 10
17.51535076605118
 20
42.95244618164018
 30
0.0
 11
17.51535076605118
 21
45.10244618164018
 31
0.0
  0
LINE
  5
302
330
1F
100
AcDbEntity
  8
IGES_LEVEL_0
 62
     7
100
AcDbLine
 10
17.39035076605118
 20
46.52480618164018
 30
0.0
 11
17.39035076605118
 21
52.72564618164018
 31
0.0
  0
LINE
  5
303
330
1F
100
AcDbEntity
  8
IGES_LEVEL_0
 62
     7
100
AcDbLine
 10
17.39035076605118
 20
44.51494618164018
 30
0.0
 11
17.39035076605118
 21
45.77480618164018
 31
0.0
  0
LINE
  5
304
330
1F
100
AcDbEntity
  8
IGES_LEVEL_0
 62
     7
100
AcDbLine
 10
18.16021476605118
 20
63.08063018164017
 30
0.0
 11
18.16023176605118
 21
63.05966718164018
 31
0.0
  0
LINE
  5
305
330
1F
100
AcDbEntity
  8
IGES_LEVEL_0
 62
     7
100
AcDbLine
 10
17.70356876605118
 20
64.40673718164018
 30
0.0
 11
17.70520076605118
 21
62.36670718164018
 31
0.0
  0
LINE
  5
306
330
1F
100
AcDbEntity
  8
IGES_LEVEL_0
 62
     7
100
AcDbLine
 10
18.04148876605118
 20
63.09032818164017
 30
0.0
 11
18.04146476605118
 21
63.09328018164018
 31
0.0
  0
LINE
  5
307
330
1F
100
AcDbEntity
  8
IGES_LEVEL_0
 62
     7
100
AcDbLine
 10
20.01635076605118
 20
67.43095518164019
 30
0.0
 11
20.68388976605118
 21
67.43095518164019
 31
0.0
  0
LINE
  5
308
330
1F
100
AcDbEntity
  8
IGES_LEVEL_0
 62
     7
100
AcDbLine
 10
0.9718457660511805
 20
67.43095518164019
 30
0.0
 11
1.63935076605118
 21
67.43095518164019
 31
0.0
  0
LINE
  5
309
330
1F
100
AcDbEntity
  8
IGES_LEVEL_0
 62
     7
100
AcDbLine
 10
20.39035076605118
 20
67.37977318164018
 30
0.0
 11
20.76535076605118
 21
67.37977318164018
 31
0.0
  0
LINE
  5
30A
330
1F
100
AcDbEntity
  8
IGES_LEVEL_0
 62
     7
100
AcDbLine
 10
0.8903507660511801
 20
67.37977318164018
 30
0.0
 11
1.26535076605118
 21
67.37977318164018
 31
0.0
  0
LINE
  5
30B
330
1F
100
AcDbEntity
  8
IGES_LEVEL_0
 62
     7
100
AcDbLine
 10
20.26535076605118
 20
67.30477318164019
 30
0.0
 11
21.26535076605118
 21
67.30477318164019
 31
0.0
  0
LINE
  5
30C
330
1F
100
AcDbEntity
  8
IGES_LEVEL_0
 62
     7
100
AcDbLine
 10
0.3903507660511801
 20
67.30477318164019
 30
0.0
 11
1.39035076605118
 21
67.30477318164019
 31
0.0
  0
LINE
  5
30D
330
1F
100
AcDbEntity
  8
IGES_LEVEL_0
 62
     7
100
AcDbLine
 10
21.31535076605118
 20
67.11727318164019
 30
0.0
 11
21.59035076605118
 21
67.11727318164019
 31
0.0
  0
LINE
  5
30E
330
1F
100
AcDbEntity
  8
IGES_LEVEL_0
 62
     7
100
AcDbLine
 10
19.94035076605118
 20
67.11727318164019
 30
0.0
 11
20.21535076605118
 21
67.11727318164019
 31
0.0
  0
LINE
  5
30F
330
1F
100
AcDbEntity
  8
IGES_LEVEL_0
 62
     7
100
AcDbLine
 10
1.44035076605118
 20
67.11727318164019
 30
0.0
 11
1.71535076605118
 21
67.11727318164019
 31
0.0
  0
LINE
  5
310
330
1F
100
AcDbEntity
  8
IGES_LEVEL_0
 62
     7
100
AcDbLine
 10
0.06535076605118
 20
67.11727318164019
 30
0.0
 11
0.3403507660511803
 21
67.11727318164019
 31
0.0
  0
LINE
  5
311
330
1F
100
AcDbEntity
  8
IGES_LEVEL_0
 62
     7
100
AcDbLine
 10
16.64035076605118
 20
46.52480618164018
 30
0.0
 11
16.64035076605118
 21
52.72564618164018
 31
0.0
  0
LINE
  5
312
330
1F
100
AcDbEntity
  8
IGES_LEVEL_0
 62
     7
100
AcDbLine
 10
16.64035076605118
 20
44.51494618164018
 30
0.0
 11
16.64035076605118
 21
45.77480618164018
 31
0.0
  0
LINE
  5
313
330
1F
100
AcDbEntity
  8
IGES_LEVEL_0
 62
     7
100
AcDbLine
 10
16.51535076605118
 20
45.10244618164018
 30
0.0
 11
16.51535076605118
 21
42.95244618164018
 31
0.0
  0
LINE
  5
314
330
1F
100
AcDbEntity
  8
IGES_LEVEL_0
 62
     7
100
AcDbLine
 10
16.14035076605118
 20
42.95244618164018
 30
0.0
 11
16.14035076605118
 21
45.10244618164018
 31
0.0
  0
LINE
  5
315
330
1F
100
AcDbEntity
  8
IGES_LEVEL_0
 62
     7
100
AcDbLine
 10
13.32245876605118
 20
53.48295118164018
 30
0.0
 11
13.32247076605118
 21
53.48476418164018
 31
0.0
  0
LINE
  5
316
330
1F
100
AcDbEntity
  8
IGES_LEVEL_0
 62
     7
100
AcDbLine
 10
13.32247076605118
 20
52.72981618164017
 30
0.0
 11
13.32245876605118
 21
52.73166418164018
 31
0.0
  0
LINE
  5
317
330
1F
100
AcDbEntity
  8
IGES_LEVEL_0
 62
     7
100
AcDbLine
 10
8.333243766051181
 20
52.73166418164018
 30
0.0
 11
8.333231766051181
 21
52.72981618164017
 31
0.0
  0
LINE
  5
318
330
1F
100
AcDbEntity
  8
IGES_LEVEL_0
 62
     7
100
AcDbLine
 10
8.333231766051181
 20
53.48476418164018
 30
0.0
 11
8.333243766051181
 21
53.48295118164018
 31
0.0
  0
LINE
  5
319
330
1F
100
AcDbEntity
  8
IGES_LEVEL_0
 62
     7
100
AcDbLine
 10
5.515350766051181
 20
42.95244618164018
 30
0.0
 11
5.515350766051181
 21
45.10244618164018
 31
0.0
  0
LINE
  5
31A
330
1F
100
AcDbEntity
  8
IGES_LEVEL_0
 62
     7
100
AcDbLine
 10
3.95050176605118
 20
62.36670718164018
 30
0.0
 11
3.95213276605118
 21
64.40673718164018
 31
0.0
  0
LINE
  5
31B
330
1F
100
AcDbEntity
  8
IGES_LEVEL_0
 62
     7
100
AcDbLine
 10
5.140350766051181
 20
42.95244618164018
 30
0.0
 11
5.140350766051181
 21
45.10244618164018
 31
0.0
  0
LINE
  5
31C
330
1F
100
AcDbEntity
  8
IGES_LEVEL_0
 62
     7
100
AcDbLine
 10
5.015350766051181
 20
46.52480618164018
 30
0.0
 11
5.015350766051181
 21
52.72564618164018
 31
0.0
  0
LINE
  5
31D
330
1F
100
AcDbEntity
  8
IGES_LEVEL_0
 62
     7
100
AcDbLine
 10
5.015350766051181
 20
44.51494618164018
 30
0.0
 11
5.015350766051181
 21
45.77480618164018
 31
0.0
  0
LINE
  5
31E
330
1F
100
AcDbEntity
  8
IGES_LEVEL_0
 62
     7
100
AcDbLine
 10
4.265350766051181
 20
46.52480618164018
 30
0.0
 11
4.265350766051181
 21
52.72564618164018
 31
0.0
  0
LINE
  5
31F
330
1F
100
AcDbEntity
  8
IGES_LEVEL_0
 62
     7
100
AcDbLine
 10
4.265350766051181
 20
44.51494618164018
 30
0.0
 11
4.265350766051181
 21
45.77480618164018
 31
0.0
  0
LINE
  5
320
330
1F
100
AcDbEntity
  8
IGES_LEVEL_0
 62
     7
100
AcDbLine
 10
4.140350766051181
 20
45.10244618164018
 30
0.0
 11
4.140350766051181
 21
42.95244618164018
 31
0.0
  0
LINE
  5
321
330
1F
100
AcDbEntity
  8
IGES_LEVEL_0
 62
     7
100
AcDbLine
 10
13.24440776605118
 20
53.47564618164018
 30
0.0
 11
17.39035076605118
 21
53.47564618164018
 31
0.0
  0
LINE
  5
322
330
1F
100
AcDbEntity
  8
IGES_LEVEL_0
 62
     7
100
AcDbLine
 10
4.265350766051181
 20
53.47564618164018
 30
0.0
 11
8.411294766051181
 21
53.47564618164018
 31
0.0
  0
LINE
  5
323
330
1F
100
AcDbEntity
  8
IGES_LEVEL_0
 62
     7
100
AcDbLine
 10
2.78088776605118
 20
67.51217118164018
 30
0.0
 11
2.78018876605118
 21
67.49621118164018
 31
0.0
  0
LINE
  5
324
330
1F
100
AcDbEntity
  8
IGES_LEVEL_0
 62
     7
100
AcDbLine
 10
3.21753076605118
 20
67.48520918164019
 30
0.0
 11
3.21771476605118
 21
67.49223818164018
 31
0.0
  0
LINE
  5
325
330
1F
100
AcDbEntity
  8
IGES_LEVEL_0
 62
     7
100
AcDbLine
 10
3.17675776605118
 20
63.09061918164018
 30
0.0
 11
3.17672076605118
 21
63.08750418164018
 31
0.0
  0
LINE
  5
326
330
1F
100
AcDbEntity
  8
IGES_LEVEL_0
 62
     7
100
AcDbLine
 10
3.61421276605118
 20
63.09032818164017
 30
0.0
 11
3.61423776605118
 21
63.09328018164018
 31
0.0
  0
LINE
  5
327
330
1F
100
AcDbEntity
  8
IGES_LEVEL_0
 62
     7
100
AcDbLine
 10
3.49548776605118
 20
63.08063018164017
 30
0.0
 11
3.49547076605118
 21
63.05966718164018
 31
0.0
  0
LINE
  5
328
330
1F
100
AcDbEntity
  8
IGES_LEVEL_0
 62
     7
100
AcDbLine
 10
3.29547076605118
 20
63.05980018164018
 30
0.0
 11
3.29548776605118
 21
63.08076318164018
 31
0.0
  0
LINE
  5
329
330
1F
100
AcDbEntity
  8
IGES_LEVEL_0
 62
     7
100
AcDbLine
 10
3.09896476605118
 20
67.45774618164018
 30
0.0
 11
3.09893676605118
 21
67.42290218164018
 31
0.0
  0
LINE
  5
32A
330
1F
100
AcDbEntity
  8
IGES_LEVEL_0
 62
     7
100
AcDbLine
 10
2.89893676605118
 20
67.42303518164017
 30
0.0
 11
2.89896476605118
 21
67.45787918164018
 31
0.0
  0
LINE
  5
32B
330
1F
100
AcDbEntity
  8
IGES_LEVEL_0
 62
     7
100
AcDbLine
 10
2.84123076605118
 20
64.40749918164018
 30
0.0
 11
2.83959876605118
 21
62.36746818164018
 31
0.0
  0
LINE
  5
32C
330
1F
100
AcDbEntity
  8
IGES_LEVEL_0
 62
     7
100
AcDbLine
 10
3.76535076605118
 20
42.95244618164018
 30
0.0
 11
3.76535076605118
 21
45.10244618164018
 31
0.0
  0
LINE
  5
32D
330
1F
100
AcDbEntity
  8
IGES_LEVEL_0
 62
     7
100
AcDbLine
 10
3.76535076605118
 20
61.99805918164018
 30
0.0
 11
3.76535076605118
 21
53.89842318164018
 31
0.0
  0
LINE
  5
32E
330
1F
100
AcDbEntity
  8
IGES_LEVEL_0
 62
     7
100
AcDbLine
 10
3.14035076605118
 20
49.21471618164018
 30
0.0
 11
3.14035076605118
 21
47.62100918164018
 31
0.0
  0
LINE
  5
32F
330
1F
100
AcDbEntity
  8
IGES_LEVEL_0
 62
     7
100
AcDbLine
 10
3.14035076605118
 20
53.38852118164018
 30
0.0
 11
3.14035076605118
 21
49.95750618164018
 31
0.0
  0
LINE
  5
330
330
1F
100
AcDbEntity
  8
IGES_LEVEL_0
 62
     7
100
AcDbLine
 10
3.01535076605118
 20
61.98816418164018
 30
0.0
 11
3.01535076605118
 21
53.89842318164018
 31
0.0
  0
LINE
  5
331
330
1F
100
AcDbEntity
  8
IGES_LEVEL_0
 62
     7
100
AcDbLine
 10
2.39035076605118
 20
64.67489718164018
 30
0.0
 11
2.39035076605118
 21
47.62100918164018
 31
0.0
  0
LINE
  5
332
330
1F
100
AcDbEntity
  8
IGES_LEVEL_0
 62
     7
100
AcDbLine
 10
2.39035076605118
 20
66.28361618164018
 30
0.0
 11
2.39035076605118
 21
65.59371018164018
 31
0.0
  0
LINE
  5
333
330
1F
100
AcDbEntity
  8
IGES_LEVEL_0
 62
     7
100
AcDbLine
 10
3.17673776605118
 20
63.09328418164018
 30
0.0
 11
3.17675776605118
 21
63.09061918164018
 31
0.0
  0
LINE
  5
334
330
1F
100
AcDbEntity
  8
IGES_LEVEL_0
 62
     7
100
AcDbLine
 10
3.61424376605118
 20
63.08774318164018
 30
0.0
 11
3.61421276605118
 21
63.09032818164017
 31
0.0
  0
LINE
  5
335
330
1F
100
AcDbEntity
  8
IGES_LEVEL_0
 62
     7
100
AcDbLine
 10
3.49548576605118
 20
63.08076118164018
 30
0.0
 11
3.49548776605118
 21
63.08063018164017
 31
0.0
  0
LINE
  5
336
330
1F
100
AcDbEntity
  8
IGES_LEVEL_0
 62
     7
100
AcDbLine
 10
3.29547276605118
 20
63.05966918164017
 30
0.0
 11
3.29547076605118
 21
63.05980018164018
 31
0.0
  0
LINE
  5
337
330
1F
100
AcDbEntity
  8
IGES_LEVEL_0
 62
     7
100
AcDbLine
 10
3.09896276605118
 20
67.45787818164018
 30
0.0
 11
3.09896476605118
 21
67.45774618164018
 31
0.0
  0
LINE
  5
338
330
1F
100
AcDbEntity
  8
IGES_LEVEL_0
 62
     7
100
AcDbLine
 10
2.89893776605118
 20
67.42290418164018
 30
0.0
 11
2.89893676605118
 21
67.42303518164017
 31
0.0
  0
LINE
  5
339
330
1F
100
AcDbEntity
  8
IGES_LEVEL_0
 62
     7
100
AcDbLine
 10
3.21770076605118
 20
67.47823418164018
 30
0.0
 11
3.21753076605118
 21
67.48520918164019
 31
0.0
  0
LINE
  5
33A
330
1F
100
AcDbEntity
  8
IGES_LEVEL_0
 62
     7
100
AcDbLine
 10
2.78021476605118
 20
67.52769018164018
 30
0.0
 11
2.78088776605118
 21
67.51217118164018
 31
0.0
  0
LINE
  5
33B
330
1F
100
AcDbEntity
  8
IGES_LEVEL_0
 62
     7
100
AcDbLine
 10
17.16914676605118
 20
52.72564618164018
 30
0.0
 11
17.39035076605118
 21
52.72564618164018
 31
0.0
  0
LINE
  5
33C
330
1F
100
AcDbEntity
  8
IGES_LEVEL_0
 62
     7
100
AcDbLine
 10
13.32247076605118
 20
52.72564618164018
 30
0.0
 11
16.86155876605118
 21
52.72564618164018
 31
0.0
  0
LINE
  5
33D
330
1F
100
AcDbEntity
  8
IGES_LEVEL_0
 62
     7
100
AcDbLine
 10
4.79414676605118
 20
52.72564618164018
 30
0.0
 11
8.333231766051181
 21
52.72564618164018
 31
0.0
  0
LINE
  5
33E
330
1F
100
AcDbEntity
  8
IGES_LEVEL_0
 62
     7
100
AcDbLine
 10
4.265350766051181
 20
52.72564618164018
 30
0.0
 11
4.48655876605118
 21
52.72564618164018
 31
0.0
  0
LINE
  5
33F
330
1F
100
AcDbEntity
  8
IGES_LEVEL_0
 62
     7
100
AcDbLine
 10
2.35319276605118
 20
64.72690318164018
 30
0.0
 11
2.35296476605118
 21
64.72211418164018
 31
0.0
  0
LINE
  5
340
330
1F
100
AcDbEntity
  8
IGES_LEVEL_0
 62
     7
100
AcDbLine
 10
1.76535076605118
 20
67.26456318164019
 30
0.0
 11
1.76535076605118
 21
67.16727318164018
 31
0.0
  0
LINE
  5
341
330
1F
100
AcDbEntity
  8
IGES_LEVEL_0
 62
     7
100
AcDbLine
 10
1.76535076605118
 20
69.31727318164018
 30
0.0
 11
1.76535076605118
 21
68.17655418164019
 31
0.0
  0
LINE
  5
342
330
1F
100
AcDbEntity
  8
IGES_LEVEL_0
 62
     7
100
AcDbLine
 10
1.39035076605118
 20
68.18095518164019
 30
0.0
 11
1.39035076605118
 21
69.31727318164018
 31
0.0
  0
LINE
  5
343
330
1F
100
AcDbEntity
  8
IGES_LEVEL_0
 62
     7
100
AcDbLine
 10
1.39035076605118
 20
67.16727318164018
 30
0.0
 11
1.39035076605118
 21
67.37213918164018
 31
0.0
  0
LINE
  5
344
330
1F
100
AcDbEntity
  8
IGES_LEVEL_0
 62
     7
100
AcDbLine
 10
1.26535076605118
 20
72.37347618164019
 30
0.0
 11
1.26535076605118
 21
76.03456218164018
 31
0.0
  0
LINE
  5
345
330
1F
100
AcDbEntity
  8
IGES_LEVEL_0
 62
     7
100
AcDbLine
 10
1.26535076605118
 20
67.93446918164018
 30
0.0
 11
1.26535076605118
 21
71.93757118164018
 31
0.0
  0
LINE
  5
346
330
1F
100
AcDbEntity
  8
IGES_LEVEL_0
 62
     7
100
AcDbLine
 10
0.5153507660511801
 20
67.75477318164018
 30
0.0
 11
0.5153507660511801
 21
76.03456218164018
 31
0.0
  0
LINE
  5
347
330
1F
100
AcDbEntity
  8
IGES_LEVEL_0
 62
     7
100
AcDbLine
 10
0.3903507660511801
 20
69.31727318164018
 30
0.0
 11
0.3903507660511801
 21
67.16727318164018
 31
0.0
  0
LINE
  5
348
330
1F
100
AcDbEntity
  8
IGES_LEVEL_0
 62
     7
100
AcDbLine
 10
0.0153507660511801
 20
69.31727318164018
 30
0.0
 11
0.0153507660511801
 21
67.16727318164018
 31
0.0
  0
LINE
  5
349
330
1F
100
AcDbEntity
  8
IGES_LEVEL_0
 62
     7
100
AcDbLine
 10
17.39035076605118
 20
49.95750618164018
 30
0.0
 11
18.52256176605118
 21
49.95750618164018
 31
0.0
  0
LINE
  5
34A
330
1F
100
AcDbEntity
  8
IGES_LEVEL_0
 62
     7
100
AcDbLine
 10
5.015350766051181
 20
49.95750618164018
 30
0.0
 11
16.64035076605118
 21
49.95750618164018
 31
0.0
  0
LINE
  5
34B
330
1F
100
AcDbEntity
  8
IGES_LEVEL_0
 62
     7
100
AcDbLine
 10
3.13314076605118
 20
49.95750618164018
 30
0.0
 11
4.265350766051181
 21
49.95750618164018
 31
0.0
  0
LINE
  5
34C
330
1F
100
AcDbEntity
  8
IGES_LEVEL_0
 62
     7
100
AcDbLine
 10
17.39035076605118
 20
49.20750618164018
 30
0.0
 11
18.51535076605118
 21
49.20750618164018
 31
0.0
  0
LINE
  5
34D
330
1F
100
AcDbEntity
  8
IGES_LEVEL_0
 62
     7
100
AcDbLine
 10
5.015350766051181
 20
49.20750618164018
 30
0.0
 11
16.64035076605118
 21
49.20750618164018
 31
0.0
  0
LINE
  5
34E
330
1F
100
AcDbEntity
  8
IGES_LEVEL_0
 62
     7
100
AcDbLine
 10
3.14035076605118
 20
49.20750618164018
 30
0.0
 11
4.265350766051181
 21
49.20750618164018
 31
0.0
  0
LINE
  5
34F
330
1F
100
AcDbEntity
  8
IGES_LEVEL_0
 62
     7
100
AcDbLine
 10
4.265398766051181
 20
46.52480618164018
 30
0.0
 11
17.39030376605118
 21
46.52480618164018
 31
0.0
  0
LINE
  5
350
330
1F
100
AcDbEntity
  8
IGES_LEVEL_0
 62
     7
100
AcDbLine
 10
4.265398766051181
 20
45.77480618164018
 30
0.0
 11
17.39030376605118
 21
45.77480618164018
 31
0.0
  0
LINE
  5
351
330
1F
100
AcDbEntity
  8
IGES_LEVEL_0
 62
     7
100
AcDbLine
 10
4.090350766051181
 20
45.15244618164018
 30
0.0
 11
3.81535076605118
 21
45.15244618164018
 31
0.0
  0
LINE
  5
352
330
1F
100
AcDbEntity
  8
IGES_LEVEL_0
 62
     7
100
AcDbLine
 10
5.465350766051181
 20
45.15244618164018
 30
0.0
 11
5.19035076605118
 21
45.15244618164018
 31
0.0
  0
LINE
  5
353
330
1F
100
AcDbEntity
  8
IGES_LEVEL_0
 62
     7
100
AcDbLine
 10
16.46535076605118
 20
45.15244618164018
 30
0.0
 11
16.19035076605118
 21
45.15244618164018
 31
0.0
  0
LINE
  5
354
330
1F
100
AcDbEntity
  8
IGES_LEVEL_0
 62
     7
100
AcDbLine
 10
17.84035076605118
 20
45.15244618164018
 30
0.0
 11
17.56535076605118
 21
45.15244618164018
 31
0.0
  0
LINE
  5
355
330
1F
100
AcDbEntity
  8
IGES_LEVEL_0
 62
     7
100
AcDbLine
 10
4.265350766051181
 20
44.96494618164018
 30
0.0
 11
4.140350766051181
 21
44.96494618164018
 31
0.0
  0
LINE
  5
356
330
1F
100
AcDbEntity
  8
IGES_LEVEL_0
 62
     7
100
AcDbLine
 10
5.140350766051181
 20
44.96494618164018
 30
0.0
 11
5.015350766051181
 21
44.96494618164018
 31
0.0
  0
LINE
  5
357
330
1F
100
AcDbEntity
  8
IGES_LEVEL_0
 62
     7
100
AcDbLine
 10
16.64035076605118
 20
44.96494618164018
 30
0.0
 11
16.51535076605118
 21
44.96494618164018
 31
0.0
  0
LINE
  5
358
330
1F
100
AcDbEntity
  8
IGES_LEVEL_0
 62
     7
100
AcDbLine
 10
17.51535076605118
 20
44.96494618164018
 30
0.0
 11
17.39035076605118
 21
44.96494618164018
 31
0.0
  0
LINE
  5
359
330
1F
100
AcDbEntity
  8
IGES_LEVEL_0
 62
     7
100
AcDbLine
 10
4.090350766051181
 20
42.90244618164018
 30
0.0
 11
3.81535076605118
 21
42.90244618164018
 31
0.0
  0
LINE
  5
35A
330
1F
100
AcDbEntity
  8
IGES_LEVEL_0
 62
     7
100
AcDbLine
 10
5.465350766051181
 20
42.90244618164018
 30
0.0
 11
5.19035076605118
 21
42.90244618164018
 31
0.0
  0
LINE
  5
35B
330
1F
100
AcDbEntity
  8
IGES_LEVEL_0
 62
     7
100
AcDbLine
 10
16.46535076605118
 20
42.90244618164018
 30
0.0
 11
16.19035076605118
 21
42.90244618164018
 31
0.0
  0
LINE
  5
35C
330
1F
100
AcDbEntity
  8
IGES_LEVEL_0
 62
     7
100
AcDbLine
 10
17.84035076605118
 20
42.90244618164018
 30
0.0
 11
17.56535076605118
 21
42.90244618164018
 31
0.0
  0
LINE
  5
35D
330
1F
100
AcDbEntity
  8
IGES_LEVEL_0
 62
     7
100
AcDbLine
 10
65.38436476605118
 20
2.54588018164018
 30
0.0
 11
65.38436476605118
 21
2.262967181640179
 31
0.0
  0
LINE
  5
35E
330
1F
100
AcDbEntity
  8
IGES_LEVEL_0
 62
     7
100
AcDbLine
 10
65.30936476605119
 20
2.575880181640179
 30
0.0
 11
65.30936476605119
 21
4.24091118164018
 31
0.0
  0
LINE
  5
35F
330
1F
100
AcDbEntity
  8
IGES_LEVEL_0
 62
     7
100
AcDbLine
 10
64.55936476605119
 20
2.575880181640179
 30
0.0
 11
64.55936476605119
 21
4.24091118164018
 31
0.0
  0
LINE
  5
360
330
1F
100
AcDbEntity
  8
IGES_LEVEL_0
 62
     7
100
AcDbLine
 10
64.48436476605119
 20
2.54588018164018
 30
0.0
 11
64.48436476605119
 21
1.760437181640179
 31
0.0
  0
LINE
  5
361
330
1F
100
AcDbEntity
  8
IGES_LEVEL_0
 62
     7
100
AcDbLine
 10
62.76136076605118
 20
10.25168218164018
 30
0.0
 11
56.69004176605118
 21
23.60608018164018
 31
0.0
  0
LINE
  5
362
330
1F
100
AcDbEntity
  8
IGES_LEVEL_0
 62
     7
100
AcDbLine
 10
65.14124676605118
 20
5.01691218164018
 30
0.0
 11
63.08017676605118
 21
9.550418181640181
 31
0.0
  0
LINE
  5
363
330
1F
100
AcDbEntity
  8
IGES_LEVEL_0
 62
     7
100
AcDbLine
 10
62.00583876605118
 20
10.10134318164018
 30
0.0
 11
56.16195976605118
 21
22.95546718164018
 31
0.0
  0
LINE
  5
364
330
1F
100
AcDbEntity
  8
IGES_LEVEL_0
 62
     7
100
AcDbLine
 10
64.45849376605118
 20
4.706512181640179
 30
0.0
 11
62.32465476605118
 21
9.40007918164018
 31
0.0
  0
LINE
  5
365
330
1F
100
AcDbEntity
  8
IGES_LEVEL_0
 62
     7
100
AcDbLine
 10
42.05948576605118
 20
16.60205418164018
 30
0.0
 11
56.50269876605118
 21
23.10897618164018
 31
0.0
  0
LINE
  5
366
330
1F
100
AcDbEntity
  8
IGES_LEVEL_0
 62
     7
100
AcDbLine
 10
42.05708376605118
 20
17.01227218164018
 30
0.0
 11
47.40742676605118
 21
19.42269618164018
 31
0.0
  0
LINE
  5
367
330
1F
100
AcDbEntity
  8
IGES_LEVEL_0
 62
     7
100
AcDbLine
 10
41.23823676605118
 20
16.64336718164018
 30
0.0
 11
41.29304876605118
 21
16.66806118164018
 31
0.0
  0
LINE
  5
368
330
1F
100
AcDbEntity
  8
IGES_LEVEL_0
 62
     7
100
AcDbLine
 10
47.37408076605118
 20
19.81897218164018
 30
0.0
 11
56.19463076605118
 21
23.79278518164018
 31
0.0
  0
LINE
  5
369
330
1F
100
AcDbEntity
  8
IGES_LEVEL_0
 62
     7
100
AcDbLine
 10
46.54919176605118
 20
19.65299418164018
 30
0.0
 11
46.88485476605118
 21
19.80421618164018
 31
0.0
  0
LINE
  5
36A
330
1F
100
AcDbEntity
  8
IGES_LEVEL_0
 62
     7
100
AcDbLine
 10
44.84481676605118
 20
18.88514318164018
 30
0.0
 11
46.14033276605118
 21
19.46879618164018
 31
0.0
  0
LINE
  5
36B
330
1F
100
AcDbEntity
  8
IGES_LEVEL_0
 62
     7
100
AcDbLine
 10
47.34980076605118
 20
19.87286618164018
 30
0.0
 11
47.35499976605118
 21
19.86101918164018
 31
0.0
  0
LINE
  5
36C
330
1F
100
AcDbEntity
  8
IGES_LEVEL_0
 62
     7
100
AcDbLine
 10
47.35499976605118
 20
19.86101918164018
 30
0.0
 11
47.49198676605118
 21
19.55640118164018
 31
0.0
  0
LINE
  5
36D
330
1F
100
AcDbEntity
  8
IGES_LEVEL_0
 62
     7
100
AcDbLine
 10
47.37419476605118
 20
19.81902318164018
 30
0.0
 11
47.34980076605118
 21
19.87286618164018
 31
0.0
  0
LINE
  5
36E
330
1F
100
AcDbEntity
  8
IGES_LEVEL_0
 62
     7
100
AcDbLine
 10
55.65878376605118
 20
24.13262618164018
 30
0.0
 11
55.64653376605118
 21
24.12753218164018
 31
0.0
  0
LINE
  5
36F
330
1F
100
AcDbEntity
  8
IGES_LEVEL_0
 62
     7
100
AcDbLine
 10
56.35917876605118
 20
24.33305518164018
 30
0.0
 11
56.31941976605118
 21
24.31514318164018
 31
0.0
  0
LINE
  5
370
330
1F
100
AcDbEntity
  8
IGES_LEVEL_0
 62
     7
100
AcDbLine
 10
41.83792676605118
 20
17.37047218164018
 30
0.0
 11
33.74887676605118
 21
33.24612718164018
 31
0.0
  0
LINE
  5
371
330
1F
100
AcDbEntity
  8
IGES_LEVEL_0
 62
     7
100
AcDbLine
 10
42.14453776605118
 20
2.54588018164018
 30
0.0
 11
42.14453776605118
 21
1.760266181640179
 31
0.0
  0
LINE
  5
372
330
1F
100
AcDbEntity
  8
IGES_LEVEL_0
 62
     7
100
AcDbLine
 10
42.06953776605118
 20
2.575880181640179
 30
0.0
 11
42.06953776605118
 21
16.40574218164018
 31
0.0
  0
LINE
  5
373
330
1F
100
AcDbEntity
  8
IGES_LEVEL_0
 62
     7
100
AcDbLine
 10
41.31953776605118
 20
2.575880181640179
 30
0.0
 11
41.31953776605118
 21
16.40574218164018
 31
0.0
  0
LINE
  5
374
330
1F
100
AcDbEntity
  8
IGES_LEVEL_0
 62
     7
100
AcDbLine
 10
41.24453776605118
 20
2.54588018164018
 30
0.0
 11
41.24453776605118
 21
2.262988181640179
 31
0.0
  0
LINE
  5
375
330
1F
100
AcDbEntity
  8
IGES_LEVEL_0
 62
     7
100
AcDbLine
 10
36.84437076605119
 20
25.51886018164018
 30
0.0
 11
33.08062176605118
 21
32.90563418164018
 31
0.0
  0
LINE
  5
376
330
1F
100
AcDbEntity
  8
IGES_LEVEL_0
 62
     7
100
AcDbLine
 10
41.16967176605118
 20
17.02997918164018
 30
0.0
 11
36.95980276605118
 21
25.29231218164018
 31
0.0
  0
LINE
  5
377
330
1F
100
AcDbEntity
  8
IGES_LEVEL_0
 62
     7
100
AcDbLine
 10
35.86661876605118
 20
24.45717718164018
 30
0.0
 11
37.07230876605118
 21
25.07150618164018
 31
0.0
  0
LINE
  5
378
330
1F
100
AcDbEntity
  8
IGES_LEVEL_0
 62
     7
100
AcDbLine
 10
35.52612576605118
 20
25.12543118164018
 30
0.0
 11
36.73181576605118
 21
25.73976118164018
 31
0.0
  0
LINE
  5
379
330
1F
100
AcDbEntity
  8
IGES_LEVEL_0
 62
     7
100
AcDbLine
 10
42.06953776605118
 20
6.13428218164018
 30
0.0
 11
63.22631976605118
 21
10.34420218164018
 31
0.0
  0
LINE
  5
37A
330
1F
100
AcDbEntity
  8
IGES_LEVEL_0
 62
     7
100
AcDbLine
 10
42.06953776605118
 20
5.36957818164018
 30
0.0
 11
63.37268976605118
 21
9.608624181640181
 31
0.0
  0
LINE
  5
37B
330
1F
100
AcDbEntity
  8
IGES_LEVEL_0
 62
     7
100
AcDbLine
 10
41.27453776605118
 20
2.575880181640179
 30
0.0
 11
42.11444976605118
 21
2.575880181640179
 31
0.0
  0
LINE
  5
37C
330
1F
100
AcDbEntity
  8
IGES_LEVEL_0
 62
     7
100
AcDbLine
 10
65.35436476605118
 20
2.575880181640179
 30
0.0
 11
64.51436476605119
 21
2.575880181640179
 31
0.0
  0
LINE
  5
37D
330
1F
100
AcDbEntity
  8
IGES_LEVEL_0
 62
     7
100
AcDbLine
 10
2.64035076605118
 20
35.20088018164018
 30
0.0
 11
19.01535076605118
 21
35.20088018164018
 31
0.0
  0
LINE
  5
37E
330
1F
100
AcDbEntity
  8
IGES_LEVEL_0
 62
     7
100
AcDbLine
 10
2.64035076605118
 20
34.45088018164018
 30
0.0
 11
19.01535076605118
 21
34.45088018164018
 31
0.0
  0
LINE
  5
37F
330
1F
100
AcDbEntity
  8
IGES_LEVEL_0
 62
     7
100
AcDbLine
 10
19.82720576605118
 20
17.05843518164018
 30
0.0
 11
19.85092476605118
 21
17.12739518164018
 31
0.0
  0
LINE
  5
380
330
1F
100
AcDbEntity
  8
IGES_LEVEL_0
 62
     7
100
AcDbLine
 10
21.64035076605118
 20
2.21087418164018
 30
0.0
 11
21.64035076605118
 21
0.0668861816401796
 31
0.0
  0
LINE
  5
381
330
1F
100
AcDbEntity
  8
IGES_LEVEL_0
 62
     7
100
AcDbLine
 10
21.26535076605118
 20
2.213880181640179
 30
0.0
 11
21.26535076605118
 21
0.0638801816401804
 31
0.0
  0
LINE
  5
382
330
1F
100
AcDbEntity
  8
IGES_LEVEL_0
 62
     7
100
AcDbLine
 10
21.14035076605118
 20
33.07588018164018
 30
0.0
 11
21.14035076605118
 21
2.57588018164018
 31
0.0
  0
LINE
  5
383
330
1F
100
AcDbEntity
  8
IGES_LEVEL_0
 62
     7
100
AcDbLine
 10
19.23994276605118
 20
17.61427418164018
 30
0.0
 11
19.29117076605118
 21
18.20984918164018
 31
0.0
  0
LINE
  5
384
330
1F
100
AcDbEntity
  8
IGES_LEVEL_0
 62
     7
100
AcDbLine
 10
20.39035076605118
 20
5.30231018164018
 30
0.0
 11
20.39035076605118
 21
2.575880181640179
 31
0.0
  0
LINE
  5
385
330
1F
100
AcDbEntity
  8
IGES_LEVEL_0
 62
     7
100
AcDbLine
 10
20.39035076605118
 20
16.45429718164018
 30
0.0
 11
20.39035076605118
 21
6.052310181640181
 31
0.0
  0
LINE
  5
386
330
1F
100
AcDbEntity
  8
IGES_LEVEL_0
 62
     7
100
AcDbLine
 10
20.39035076605118
 20
25.26116518164018
 30
0.0
 11
20.39035076605118
 21
17.20022618164018
 31
0.0
  0
LINE
  5
387
330
1F
100
AcDbEntity
  8
IGES_LEVEL_0
 62
     7
100
AcDbLine
 10
20.39035076605118
 20
33.07588018164018
 30
0.0
 11
20.39035076605118
 21
25.89059518164018
 31
0.0
  0
LINE
  5
388
330
1F
100
AcDbEntity
  8
IGES_LEVEL_0
 62
     7
100
AcDbLine
 10
20.26535076605118
 20
2.21087418164018
 30
0.0
 11
20.26535076605118
 21
0.0668861816401796
 31
0.0
  0
LINE
  5
389
330
1F
100
AcDbEntity
  8
IGES_LEVEL_0
 62
     7
100
AcDbLine
 10
19.89035076605118
 20
2.213880181640179
 30
0.0
 11
19.89035076605118
 21
0.0638801816401804
 31
0.0
  0
LINE
  5
38A
330
1F
100
AcDbEntity
  8
IGES_LEVEL_0
 62
     7
100
AcDbLine
 10
19.26535076605118
 20
9.683663181640181
 30
0.0
 11
19.26535076605118
 21
5.97005018164018
 31
0.0
  0
LINE
  5
38B
330
1F
100
AcDbEntity
  8
IGES_LEVEL_0
 62
     7
100
AcDbLine
 10
18.81610376605118
 20
19.36583518164018
 30
0.0
 11
18.81447176605118
 21
18.44676618164018
 31
0.0
  0
LINE
  5
38C
330
1F
100
AcDbEntity
  8
IGES_LEVEL_0
 62
     7
100
AcDbLine
 10
17.70356876605118
 20
18.44734118164018
 30
0.0
 11
17.70520076605118
 21
19.36641018164018
 31
0.0
  0
LINE
  5
38D
330
1F
100
AcDbEntity
  8
IGES_LEVEL_0
 62
     7
100
AcDbLine
 10
17.70080676605118
 20
18.21627318164018
 30
0.0
 11
17.69991676605118
 21
17.62068318164018
 31
0.0
  0
LINE
  5
38E
330
1F
100
AcDbEntity
  8
IGES_LEVEL_0
 62
     7
100
AcDbLine
 10
18.51535076605118
 20
8.918351181640182
 30
0.0
 11
18.51535076605118
 21
5.97005018164018
 31
0.0
  0
LINE
  5
38F
330
1F
100
AcDbEntity
  8
IGES_LEVEL_0
 62
     7
100
AcDbLine
 10
18.51535076605118
 20
9.491048181640181
 30
0.0
 11
18.51535076605118
 21
9.36653618164018
 31
0.0
  0
LINE
  5
390
330
1F
100
AcDbEntity
  8
IGES_LEVEL_0
 62
     7
100
AcDbLine
 10
17.89035076605118
 20
22.98827218164018
 30
0.0
 11
17.89035076605118
 21
17.54511618164018
 31
0.0
  0
LINE
  5
391
330
1F
100
AcDbEntity
  8
IGES_LEVEL_0
 62
     7
100
AcDbLine
 10
17.89035076605118
 20
0.0638801816401804
 30
0.0
 11
17.89035076605118
 21
2.213880181640179
 31
0.0
  0
LINE
  5
392
330
1F
100
AcDbEntity
  8
IGES_LEVEL_0
 62
     7
100
AcDbLine
 10
17.51535076605118
 20
0.0668861816401796
 30
0.0
 11
17.51535076605118
 21
2.21087418164018
 31
0.0
  0
LINE
  5
393
330
1F
100
AcDbEntity
  8
IGES_LEVEL_0
 62
     7
100
AcDbLine
 10
17.46535076605118
 20
2.54588018164018
 30
0.0
 11
17.46535076605118
 21
2.07647018164018
 31
0.0
  0
LINE
  5
394
330
1F
100
AcDbEntity
  8
IGES_LEVEL_0
 62
     7
100
AcDbLine
 10
17.39035076605118
 20
10.35141318164018
 30
0.0
 11
17.39035076605118
 21
23.10950418164018
 31
0.0
  0
LINE
  5
395
330
1F
100
AcDbEntity
  8
IGES_LEVEL_0
 62
     7
100
AcDbLine
 10
17.39035076605118
 20
2.575880181640179
 30
0.0
 11
17.39035076605118
 21
9.601413181640181
 31
0.0
  0
LINE
  5
396
330
1F
100
AcDbEntity
  8
IGES_LEVEL_0
 62
     7
100
AcDbLine
 10
16.64035076605118
 20
10.35141318164018
 30
0.0
 11
16.64035076605118
 21
23.10950418164018
 31
0.0
  0
LINE
  5
397
330
1F
100
AcDbEntity
  8
IGES_LEVEL_0
 62
     7
100
AcDbLine
 10
16.64035076605118
 20
2.575880181640179
 30
0.0
 11
16.64035076605118
 21
9.601413181640181
 31
0.0
  0
LINE
  5
398
330
1F
100
AcDbEntity
  8
IGES_LEVEL_0
 62
     7
100
AcDbLine
 10
16.56535076605118
 20
2.54588018164018
 30
0.0
 11
16.56535076605118
 21
2.07647018164018
 31
0.0
  0
LINE
  5
399
330
1F
100
AcDbEntity
  8
IGES_LEVEL_0
 62
     7
100
AcDbLine
 10
16.51535076605118
 20
0.0638801816401804
 30
0.0
 11
16.51535076605118
 21
2.213880181640179
 31
0.0
  0
LINE
  5
39A
330
1F
100
AcDbEntity
  8
IGES_LEVEL_0
 62
     7
100
AcDbLine
 10
16.14035076605118
 20
0.0668861816401796
 30
0.0
 11
16.14035076605118
 21
2.21087418164018
 31
0.0
  0
LINE
  5
39B
330
1F
100
AcDbEntity
  8
IGES_LEVEL_0
 62
     7
100
AcDbLine
 10
13.27284676605118
 20
23.82588018164018
 30
0.0
 11
17.39035076605118
 21
23.82588018164018
 31
0.0
  0
LINE
  5
39C
330
1F
100
AcDbEntity
  8
IGES_LEVEL_0
 62
     7
100
AcDbLine
 10
4.265350766051181
 20
23.82588018164018
 30
0.0
 11
8.382855766051181
 21
23.82588018164018
 31
0.0
  0
LINE
  5
39D
330
1F
100
AcDbEntity
  8
IGES_LEVEL_0
 62
     7
100
AcDbLine
 10
5.015350766051181
 20
23.07588018164018
 30
0.0
 11
16.64035076605118
 21
23.07588018164018
 31
0.0
  0
LINE
  5
39E
330
1F
100
AcDbEntity
  8
IGES_LEVEL_0
 62
     7
100
AcDbLine
 10
13.32245676605118
 20
23.63460318164018
 30
0.0
 11
13.32246776605118
 21
23.63538918164018
 31
0.0
  0
LINE
  5
39F
330
1F
100
AcDbEntity
  8
IGES_LEVEL_0
 62
     7
100
AcDbLine
 10
8.33323376605118
 20
23.63538918164018
 30
0.0
 11
8.333245766051181
 21
23.63460318164018
 31
0.0
  0
LINE
  5
3A0
330
1F
100
AcDbEntity
  8
IGES_LEVEL_0
 62
     7
100
AcDbLine
 10
20.01635076605118
 20
17.20088018164018
 30
0.0
 11
20.41440576605118
 21
17.20088018164018
 31
0.0
  0
LINE
  5
3A1
330
1F
100
AcDbEntity
  8
IGES_LEVEL_0
 62
     7
100
AcDbLine
 10
1.24130176605118
 20
17.20088018164018
 30
0.0
 11
1.63935076605118
 21
17.20088018164018
 31
0.0
  0
LINE
  5
3A2
330
1F
100
AcDbEntity
  8
IGES_LEVEL_0
 62
     7
100
AcDbLine
 10
20.01635076605118
 20
16.45088018164018
 30
0.0
 11
20.39035076605118
 21
16.45088018164018
 31
0.0
  0
LINE
  5
3A3
330
1F
100
AcDbEntity
  8
IGES_LEVEL_0
 62
     7
100
AcDbLine
 10
1.26535076605118
 20
16.45088018164018
 30
0.0
 11
1.63935076605118
 21
16.45088018164018
 31
0.0
  0
LINE
  5
3A4
330
1F
100
AcDbEntity
  8
IGES_LEVEL_0
 62
     7
100
AcDbLine
 10
5.515350766051181
 20
0.0638801816401804
 30
0.0
 11
5.515350766051181
 21
2.213880181640179
 31
0.0
  0
LINE
  5
3A5
330
1F
100
AcDbEntity
  8
IGES_LEVEL_0
 62
     7
100
AcDbLine
 10
5.140350766051181
 20
0.0668861816401796
 30
0.0
 11
5.140350766051181
 21
2.21087418164018
 31
0.0
  0
LINE
  5
3A6
330
1F
100
AcDbEntity
  8
IGES_LEVEL_0
 62
     7
100
AcDbLine
 10
5.090350766051181
 20
2.54588018164018
 30
0.0
 11
5.090350766051181
 21
2.07647018164018
 31
0.0
  0
LINE
  5
3A7
330
1F
100
AcDbEntity
  8
IGES_LEVEL_0
 62
     7
100
AcDbLine
 10
5.015350766051181
 20
10.35141318164018
 30
0.0
 11
5.015350766051181
 21
23.10950418164018
 31
0.0
  0
LINE
  5
3A8
330
1F
100
AcDbEntity
  8
IGES_LEVEL_0
 62
     7
100
AcDbLine
 10
5.015350766051181
 20
2.575880181640179
 30
0.0
 11
5.015350766051181
 21
9.601413181640181
 31
0.0
  0
LINE
  5
3A9
330
1F
100
AcDbEntity
  8
IGES_LEVEL_0
 62
     7
100
AcDbLine
 10
4.265350766051181
 20
10.35141318164018
 30
0.0
 11
4.265350766051181
 21
23.10950418164018
 31
0.0
  0
LINE
  5
3AA
330
1F
100
AcDbEntity
  8
IGES_LEVEL_0
 62
     7
100
AcDbLine
 10
4.265350766051181
 20
2.575880181640179
 30
0.0
 11
4.265350766051181
 21
9.601413181640181
 31
0.0
  0
LINE
  5
3AB
330
1F
100
AcDbEntity
  8
IGES_LEVEL_0
 62
     7
100
AcDbLine
 10
4.19035076605118
 20
2.54588018164018
 30
0.0
 11
4.19035076605118
 21
2.07647018164018
 31
0.0
  0
LINE
  5
3AC
330
1F
100
AcDbEntity
  8
IGES_LEVEL_0
 62
     7
100
AcDbLine
 10
4.140350766051181
 20
0.0638801816401804
 30
0.0
 11
4.140350766051181
 21
2.213880181640179
 31
0.0
  0
LINE
  5
3AD
330
1F
100
AcDbEntity
  8
IGES_LEVEL_0
 62
     7
100
AcDbLine
 10
3.76535076605118
 20
17.54511618164018
 30
0.0
 11
3.76535076605118
 21
22.98819318164018
 31
0.0
  0
LINE
  5
3AE
330
1F
100
AcDbEntity
  8
IGES_LEVEL_0
 62
     7
100
AcDbLine
 10
3.76535076605118
 20
0.0668861816401796
 30
0.0
 11
3.76535076605118
 21
2.21087418164018
 31
0.0
  0
LINE
  5
3AF
330
1F
100
AcDbEntity
  8
IGES_LEVEL_0
 62
     7
100
AcDbLine
 10
3.95578476605118
 20
17.62068318164018
 30
0.0
 11
3.95489476605118
 21
18.21627318164018
 31
0.0
  0
LINE
  5
3B0
330
1F
100
AcDbEntity
  8
IGES_LEVEL_0
 62
     7
100
AcDbLine
 10
3.95050076605118
 20
19.36641018164018
 30
0.0
 11
3.95213276605118
 21
18.44734118164018
 31
0.0
  0
LINE
  5
3B1
330
1F
100
AcDbEntity
  8
IGES_LEVEL_0
 62
     7
100
AcDbLine
 10
3.14035076605118
 20
9.36653618164018
 30
0.0
 11
3.14035076605118
 21
9.491077181640181
 31
0.0
  0
LINE
  5
3B2
330
1F
100
AcDbEntity
  8
IGES_LEVEL_0
 62
     7
100
AcDbLine
 10
3.14035076605118
 20
5.97005018164018
 30
0.0
 11
3.14035076605118
 21
8.918351181640182
 31
0.0
  0
LINE
  5
3B3
330
1F
100
AcDbEntity
  8
IGES_LEVEL_0
 62
     7
100
AcDbLine
 10
3.01535076605118
 20
17.54511618164018
 30
0.0
 11
3.01535076605118
 21
23.09146818164018
 31
0.0
  0
LINE
  5
3B4
330
1F
100
AcDbEntity
  8
IGES_LEVEL_0
 62
     7
100
AcDbLine
 10
2.39035076605118
 20
5.97005018164018
 30
0.0
 11
2.39035076605118
 21
9.683663181640181
 31
0.0
  0
LINE
  5
3B5
330
1F
100
AcDbEntity
  8
IGES_LEVEL_0
 62
     7
100
AcDbLine
 10
1.76535076605118
 20
2.21087418164018
 30
0.0
 11
1.76535076605118
 21
0.0668861816401796
 31
0.0
  0
LINE
  5
3B6
330
1F
100
AcDbEntity
  8
IGES_LEVEL_0
 62
     7
100
AcDbLine
 10
2.89698176605118
 20
18.20329718164018
 30
0.0
 11
2.89814976605118
 21
17.54549318164018
 31
0.0
  0
LINE
  5
3B7
330
1F
100
AcDbEntity
  8
IGES_LEVEL_0
 62
     7
100
AcDbLine
 10
2.84123076605118
 20
18.44676618164018
 30
0.0
 11
2.83959876605118
 21
19.36583518164018
 31
0.0
  0
LINE
  5
3B8
330
1F
100
AcDbEntity
  8
IGES_LEVEL_0
 62
     7
100
AcDbLine
 10
2.36453176605118
 20
18.20984918164018
 30
0.0
 11
2.41575876605118
 21
17.61427418164018
 31
0.0
  0
LINE
  5
3B9
330
1F
100
AcDbEntity
  8
IGES_LEVEL_0
 62
     7
100
AcDbLine
 10
1.80477676605118
 20
17.12739518164018
 30
0.0
 11
1.82849676605118
 21
17.05843618164018
 31
0.0
  0
LINE
  5
3BA
330
1F
100
AcDbEntity
  8
IGES_LEVEL_0
 62
     7
100
AcDbLine
 10
4.265398766051181
 20
10.35141318164018
 30
0.0
 11
17.39030376605118
 21
10.35141318164018
 31
0.0
  0
LINE
  5
3BB
330
1F
100
AcDbEntity
  8
IGES_LEVEL_0
 62
     7
100
AcDbLine
 10
1.39035076605118
 20
2.213880181640179
 30
0.0
 11
1.39035076605118
 21
0.0638801816401804
 31
0.0
  0
LINE
  5
3BC
330
1F
100
AcDbEntity
  8
IGES_LEVEL_0
 62
     7
100
AcDbLine
 10
1.26535076605118
 20
25.89059518164018
 30
0.0
 11
1.26535076605118
 21
33.07588018164018
 31
0.0
  0
LINE
  5
3BD
330
1F
100
AcDbEntity
  8
IGES_LEVEL_0
 62
     7
100
AcDbLine
 10
1.26535076605118
 20
17.20022618164018
 30
0.0
 11
1.26535076605118
 21
25.26116518164018
 31
0.0
  0
LINE
  5
3BE
330
1F
100
AcDbEntity
  8
IGES_LEVEL_0
 62
     7
100
AcDbLine
 10
1.26535076605118
 20
6.05231018164018
 30
0.0
 11
1.26535076605118
 21
16.45429718164018
 31
0.0
  0
LINE
  5
3BF
330
1F
100
AcDbEntity
  8
IGES_LEVEL_0
 62
     7
100
AcDbLine
 10
1.26535076605118
 20
2.575880181640179
 30
0.0
 11
1.26535076605118
 21
5.30231018164018
 31
0.0
  0
LINE
  5
3C0
330
1F
100
AcDbEntity
  8
IGES_LEVEL_0
 62
     7
100
AcDbLine
 10
0.5153507660511801
 20
2.575880181640179
 30
0.0
 11
0.5153507660511801
 21
33.07588018164018
 31
0.0
  0
LINE
  5
3C1
330
1F
100
AcDbEntity
  8
IGES_LEVEL_0
 62
     7
100
AcDbLine
 10
0.3903507660511801
 20
2.21087418164018
 30
0.0
 11
0.3903507660511801
 21
0.0668861816401796
 31
0.0
  0
LINE
  5
3C2
330
1F
100
AcDbEntity
  8
IGES_LEVEL_0
 62
     7
100
AcDbLine
 10
4.265398766051181
 20
9.601413181640181
 30
0.0
 11
17.39030376605118
 21
9.601413181640181
 31
0.0
  0
LINE
  5
3C3
330
1F
100
AcDbEntity
  8
IGES_LEVEL_0
 62
     7
100
AcDbLine
 10
17.39035076605118
 20
8.918351181640182
 30
0.0
 11
18.81769676605118
 21
8.918351181640182
 31
0.0
  0
LINE
  5
3C4
330
1F
100
AcDbEntity
  8
IGES_LEVEL_0
 62
     7
100
AcDbLine
 10
5.015350766051181
 20
8.918351181640182
 30
0.0
 11
16.64035076605118
 21
8.918351181640182
 31
0.0
  0
LINE
  5
3C5
330
1F
100
AcDbEntity
  8
IGES_LEVEL_0
 62
     7
100
AcDbLine
 10
2.83800576605118
 20
8.918351181640182
 30
0.0
 11
4.265350766051181
 21
8.918351181640182
 31
0.0
  0
LINE
  5
3C6
330
1F
100
AcDbEntity
  8
IGES_LEVEL_0
 62
     7
100
AcDbLine
 10
0.0153507660511801
 20
2.213880181640179
 30
0.0
 11
0.0153507660511801
 21
0.0638801816401804
 31
0.0
  0
LINE
  5
3C7
330
1F
100
AcDbEntity
  8
IGES_LEVEL_0
 62
     7
100
AcDbLine
 10
1.31035076605118
 20
2.575880181640179
 30
0.0
 11
0.4703507660511802
 21
2.575880181640179
 31
0.0
  0
LINE
  5
3C8
330
1F
100
AcDbEntity
  8
IGES_LEVEL_0
 62
     7
100
AcDbLine
 10
5.06035076605118
 20
2.575880181640179
 30
0.0
 11
4.220350766051181
 21
2.575880181640179
 31
0.0
  0
LINE
  5
3C9
330
1F
100
AcDbEntity
  8
IGES_LEVEL_0
 62
     7
100
AcDbLine
 10
17.43535076605118
 20
2.575880181640179
 30
0.0
 11
16.59535076605118
 21
2.575880181640179
 31
0.0
  0
LINE
  5
3CA
330
1F
100
AcDbEntity
  8
IGES_LEVEL_0
 62
     7
100
AcDbLine
 10
21.18535076605118
 20
2.575880181640179
 30
0.0
 11
20.34535076605118
 21
2.575880181640179
 31
0.0
  0
LINE
  5
3CB
330
1F
100
AcDbEntity
  8
IGES_LEVEL_0
 62
     7
100
AcDbLine
 10
21.31535076605118
 20
2.26388018164018
 30
0.0
 11
21.59035076605118
 21
2.26388018164018
 31
0.0
  0
LINE
  5
3CC
330
1F
100
AcDbEntity
  8
IGES_LEVEL_0
 62
     7
100
AcDbLine
 10
19.94035076605118
 20
2.26388018164018
 30
0.0
 11
20.21535076605118
 21
2.26388018164018
 31
0.0
  0
LINE
  5
3CD
330
1F
100
AcDbEntity
  8
IGES_LEVEL_0
 62
     7
100
AcDbLine
 10
4.090350766051181
 20
2.26388018164018
 30
0.0
 11
3.81535076605118
 21
2.26388018164018
 31
0.0
  0
LINE
  5
3CE
330
1F
100
AcDbEntity
  8
IGES_LEVEL_0
 62
     7
100
AcDbLine
 10
5.465350766051181
 20
2.26388018164018
 30
0.0
 11
5.19035076605118
 21
2.26388018164018
 31
0.0
  0
LINE
  5
3CF
330
1F
100
AcDbEntity
  8
IGES_LEVEL_0
 62
     7
100
AcDbLine
 10
1.44035076605118
 20
2.26388018164018
 30
0.0
 11
1.71535076605118
 21
2.26388018164018
 31
0.0
  0
LINE
  5
3D0
330
1F
100
AcDbEntity
  8
IGES_LEVEL_0
 62
     7
100
AcDbLine
 10
0.06535076605118
 20
2.26388018164018
 30
0.0
 11
0.3403507660511803
 21
2.26388018164018
 31
0.0
  0
LINE
  5
3D1
330
1F
100
AcDbEntity
  8
IGES_LEVEL_0
 62
     7
100
AcDbLine
 10
16.46535076605118
 20
2.26388018164018
 30
0.0
 11
16.19035076605118
 21
2.26388018164018
 31
0.0
  0
LINE
  5
3D2
330
1F
100
AcDbEntity
  8
IGES_LEVEL_0
 62
     7
100
AcDbLine
 10
17.84035076605118
 20
2.26388018164018
 30
0.0
 11
17.56535076605118
 21
2.26388018164018
 31
0.0
  0
LINE
  5
3D3
330
1F
100
AcDbEntity
  8
IGES_LEVEL_0
 62
     7
100
AcDbLine
 10
21.31535076605118
 20
0.0138801816401797
 30
0.0
 11
21.59035076605118
 21
0.0138801816401797
 31
0.0
  0
LINE
  5
3D4
330
1F
100
AcDbEntity
  8
IGES_LEVEL_0
 62
     7
100
AcDbLine
 10
19.94035076605118
 20
0.0138801816401797
 30
0.0
 11
20.21535076605118
 21
0.0138801816401797
 31
0.0
  0
LINE
  5
3D5
330
1F
100
AcDbEntity
  8
IGES_LEVEL_0
 62
     7
100
AcDbLine
 10
4.090350766051181
 20
0.0138801816401797
 30
0.0
 11
3.81535076605118
 21
0.0138801816401797
 31
0.0
  0
LINE
  5
3D6
330
1F
100
AcDbEntity
  8
IGES_LEVEL_0
 62
     7
100
AcDbLine
 10
5.465350766051181
 20
0.0138801816401797
 30
0.0
 11
5.19035076605118
 21
0.0138801816401797
 31
0.0
  0
LINE
  5
3D7
330
1F
100
AcDbEntity
  8
IGES_LEVEL_0
 62
     7
100
AcDbLine
 10
1.44035076605118
 20
0.0138801816401797
 30
0.0
 11
1.71535076605118
 21
0.0138801816401797
 31
0.0
  0
LINE
  5
3D8
330
1F
100
AcDbEntity
  8
IGES_LEVEL_0
 62
     7
100
AcDbLine
 10
0.06535076605118
 20
0.0138801816401797
 30
0.0
 11
0.3403507660511803
 21
0.0138801816401797
 31
0.0
  0
LINE
  5
3D9
330
1F
100
AcDbEntity
  8
IGES_LEVEL_0
 62
     7
100
AcDbLine
 10
16.46535076605118
 20
0.0138801816401797
 30
0.0
 11
16.19035076605118
 21
0.0138801816401797
 31
0.0
  0
LINE
  5
3DA
330
1F
100
AcDbEntity
  8
IGES_LEVEL_0
 62
     7
100
AcDbLine
 10
17.84035076605118
 20
0.0138801816401797
 30
0.0
 11
17.56535076605118
 21
0.0138801816401797
 31
0.0
  0
ENDSEC
  0
SECTION
  2
OBJECTS
  0
DICTIONARY
  5
C
330
0
100
AcDbDictionary
  3
ACAD_GROUP
350
D
  3
ACAD_LAYOUT
350
1A
  3
ACAD_MLINESTYLE
350
17
  3
ACAD_PLOTSETTINGS
350
19
  3
ACDBHEADERROUNDTRIPXREC
350
3DB
  0
DICTIONARY
  5
3FB
330
29
100
AcDbDictionary
280
     1
  3
ACAD_XREC_ROUNDTRIP
360
3FC
  0
DICTIONARY
  5
D
102
{ACAD_REACTORS
330
C
102
}
330
C
100
AcDbDictionary
  0
DICTIONARY
  5
1A
102
{ACAD_REACTORS
330
C
102
}
330
C
100
AcDbDictionary
  0
DICTIONARY
  5
17
102
{ACAD_REACTORS
330
C
102
}
330
C
100
AcDbDictionary
  3
STANDARD
350
18
  0
DICTIONARY
  5
19
102
{ACAD_REACTORS
330
C
102
}
330
C
100
AcDbDictionary
  0
DICTIONARY
  5
3DB
102
{ACAD_REACTORS
330
C
102
}
330
C
100
AcDbDictionary
  3
CEPSNTYPE
350
3E4
  3
DIMSTYLEDATA
350
3FA
  3
FINGERPRINTGUID
350
3E5
  3
HYPERLINKBASE
350
3DE
  3
INSUNITS
350
3E3
  3
LAYOUTDICT
350
3E0
  3
LWETCUNION
350
3E2
  3
PLOTSETDICT
350
3E1
  3
PSVPSCALE
350
3E7
  3
PUCSBASE
350
3EA
  3
PUCSORGBACK
350
3F0
  3
PUCSORGBOTTOM
350
3EC
  3
PUCSORGFRONT
350
3EF
  3
PUCSORGLEFT
350
3ED
  3
PUCSORGRIGHT
350
3EE
  3
PUCSORGTOP
350
3EB
  3
PUCSORTHOREF
350
3E8
  3
PUCSORTHOVIEW
350
3E9
  3
STYLESHEET
350
3DF
  3
TSTACKALIGN
350
3DC
  3
TSTACKSIZE
350
3DD
  3
UCSBASE
350
3F3
  3
UCSORGBACK
350
3F9
  3
UCSORGBOTTOM
350
3F5
  3
UCSORGFRONT
350
3F8
  3
UCSORGLEFT
350
3F6
  3
UCSORGRIGHT
350
3F7
  3
UCSORGTOP
350
3F4
  3
UCSORTHOREF
350
3F1
  3
UCSORTHOVIEW
350
3F2
  3
VERSIONGUID
350
3E6
  0
XRECORD
  5
3FC
102
{ACAD_REACTORS
330
3FB
102
}
330
3FB
100
AcDbXrecord
102
UCS
 74
     0
 71
     1
 10
0.0
 20
0.0
 30
0.0
 10
1.0
 20
0.0
 30
0.0
 10
0.0
 20
1.0
 30
0.0
146
0.0
 79
     0
102
VIEW
281
     0
  0
MLINESTYLE
  5
18
102
{ACAD_REACTORS
330
17
102
}
330
17
100
AcDbMlineStyle
  2
Standard
 70
     0
  3

 62
   256
 51
90.0
 52
90.0
 71
     2
 49
0.5
 62
   256
  6
BYLAYER
 49
-0.5
 62
   256
  6
BYLAYER
  0
XRECORD
  5
3E4
102
{ACAD_REACTORS
330
3DB
102
}
330
3DB
100
AcDbXrecord
 90
        0
  0
XRECORD
  5
3FA
102
{ACAD_REACTORS
330
3DB
102
}
330
3DB
100
AcDbXrecord
1000
DSTYLE
1002
{
1070
   340
340
11
1002
}
  0
XRECORD
  5
3E5
102
{ACAD_REACTORS
330
3DB
102
}
330
3DB
100
AcDbXrecord
  1
{FAEB1C30-E019-11D5-929B-00C0DF256EC4}
  0
XRECORD
  5
3DE
102
{ACAD_REACTORS
330
3DB
102
}
330
3DB
100
AcDbXrecord
  1

  0
XRECORD
  5
3E3
102
{ACAD_REACTORS
330
3DB
102
}
330
3DB
100
AcDbXrecord
 90
        1
  0
XRECORD
  5
3E0
102
{ACAD_REACTORS
330
3DB
102
}
330
3DB
100
AcDbXrecord
340
1A
  0
XRECORD
  5
3E2
102
{ACAD_REACTORS
330
3DB
102
}
330
3DB
100
AcDbXrecord
 90
     2560
  0
XRECORD
  5
3E1
102
{ACAD_REACTORS
330
3DB
102
}
330
3DB
100
AcDbXrecord
340
19
  0
XRECORD
  5
3E7
102
{ACAD_REACTORS
330
3DB
102
}
330
3DB
100
AcDbXrecord
 40
0.0
  0
XRECORD
  5
3EA
102
{ACAD_REACTORS
330
3DB
102
}
330
3DB
100
AcDbXrecord
340
0
  0
XRECORD
  5
3F0
102
{ACAD_REACTORS
330
3DB
102
}
330
3DB
100
AcDbXrecord
 10
0.0
 20
0.0
 30
0.0
  0
XRECORD
  5
3EC
102
{ACAD_REACTORS
330
3DB
102
}
330
3DB
100
AcDbXrecord
 10
0.0
 20
0.0
 30
0.0
  0
XRECORD
  5
3EF
102
{ACAD_REACTORS
330
3DB
102
}
330
3DB
100
AcDbXrecord
 10
0.0
 20
0.0
 30
0.0
  0
XRECORD
  5
3ED
102
{ACAD_REACTORS
330
3DB
102
}
330
3DB
100
AcDbXrecord
 10
0.0
 20
0.0
 30
0.0
  0
XRECORD
  5
3EE
102
{ACAD_REACTORS
330
3DB
102
}
330
3DB
100
AcDbXrecord
 10
0.0
 20
0.0
 30
0.0
  0
XRECORD
  5
3EB
102
{ACAD_REACTORS
330
3DB
102
}
330
3DB
100
AcDbXrecord
 10
0.0
 20
0.0
 30
0.0
  0
XRECORD
  5
3E8
102
{ACAD_REACTORS
330
3DB
102
}
330
3DB
100
AcDbXrecord
340
0
  0
XRECORD
  5
3E9
102
{ACAD_REACTORS
330
3DB
102
}
330
3DB
100
AcDbXrecord
 70
     0
  0
XRECORD
  5
3DF
102
{ACAD_REACTORS
330
3DB
102
}
330
3DB
100
AcDbXrecord
  1

  0
XRECORD
  5
3DC
102
{ACAD_REACTORS
330
3DB
102
}
330
3DB
100
AcDbXrecord
 90
        1
  0
XRECORD
  5
3DD
102
{ACAD_REACTORS
330
3DB
102
}
330
3DB
100
AcDbXrecord
 90
       70
  0
XRECORD
  5
3F3
102
{ACAD_REACTORS
330
3DB
102
}
330
3DB
100
AcDbXrecord
340
0
  0
XRECORD
  5
3F9
102
{ACAD_REACTORS
330
3DB
102
}
330
3DB
100
AcDbXrecord
 10
0.0
 20
0.0
 30
0.0
  0
XRECORD
  5
3F5
102
{ACAD_REACTORS
330
3DB
102
}
330
3DB
100
AcDbXrecord
 10
0.0
 20
0.0
 30
0.0
  0
XRECORD
  5
3F8
102
{ACAD_REACTORS
330
3DB
102
}
330
3DB
100
AcDbXrecord
 10
0.0
 20
0.0
 30
0.0
  0
XRECORD
  5
3F6
102
{ACAD_REACTORS
330
3DB
102
}
330
3DB
100
AcDbXrecord
 10
0.0
 20
0.0
 30
0.0
  0
XRECORD
  5
3F7
102
{ACAD_REACTORS
330
3DB
102
}
330
3DB
100
AcDbXrecord
 10
0.0
 20
0.0
 30
0.0
  0
XRECORD
  5
3F4
102
{ACAD_REACTORS
330
3DB
102
}
330
3DB
100
AcDbXrecord
 10
0.0
 20
0.0
 30
0.0
  0
XRECORD
  5
3F1
102
{ACAD_REACTORS
330
3DB
102
}
330
3DB
100
AcDbXrecord
340
0
  0
XRECORD
  5
3F2
102
{ACAD_REACTORS
330
3DB
102
}
330
3DB
100
AcDbXrecord
 70
     0
  0
XRECORD
  5
3E6
102
{ACAD_REACTORS
330
3DB
102
}
330
3DB
100
AcDbXrecord
  1
{FAEB1C32-E019-11D5-929B-00C0DF256EC4}
  0
ENDSEC
  0
EOF
