  0
SECTION
  2
HEADER
  9
$ACADVER
  1
AC1014
  9
$ACADMAINTVER
 70
     9
  9
$DWGCODEPAGE
  3
ANSI_1252
  9
$INSBASE
 10
0.0
 20
0.0
 30
0.0
  9
$EXTMIN
 10
1.000000000000000E+20
 20
1.000000000000000E+20
 30
1.000000000000000E+20
  9
$EXTMAX
 10
-1.000000000000000E+20
 20
-1.000000000000000E+20
 30
-1.000000000000000E+20
  9
$LIMMIN
 10
0.0
 20
0.0
  9
$LIMMAX
 10
12.0
 20
9.0
  9
$ORTHOMODE
 70
     0
  9
$REGENMODE
 70
     1
  9
$FILLMODE
 70
     1
  9
$QTEXTMODE
 70
     0
  9
$MIRRTEXT
 70
     1
  9
$DRAGMODE
 70
     2
  9
$LTSCALE
 40
1.0
  9
$OSMODE
 70
    37
  9
$ATTMODE
 70
     1
  9
$TEXTSIZE
 40
0.2
  9
$TRACEWID
 40
0.05
  9
$TEXTSTYLE
  7
STANDARD
  9
$CLAYER
  8
0
  9
$CELTYPE
  6
BYLAYER
  9
$CECOLOR
 62
   256
  9
$CELTSCALE
 40
1.0
  9
$DELOBJ
 70
     1
  9
$DISPSILH
 70
     0
  9
$DIMSCALE
 40
1.0
  9
$DIMASZ
 40
0.18
  9
$DIMEXO
 40
0.0625
  9
$DIMDLI
 40
0.38
  9
$DIMRND
 40
0.0
  9
$DIMDLE
 40
0.0
  9
$DIMEXE
 40
0.18
  9
$DIMTP
 40
0.0
  9
$DIMTM
 40
0.0
  9
$DIMTXT
 40
0.18
  9
$DIMCEN
 40
0.09
  9
$DIMTSZ
 40
0.0
  9
$DIMTOL
 70
     0
  9
$DIMLIM
 70
     0
  9
$DIMTIH
 70
     1
  9
$DIMTOH
 70
     1
  9
$DIMSE1
 70
     0
  9
$DIMSE2
 70
     0
  9
$DIMTAD
 70
     0
  9
$DIMZIN
 70
     0
  9
$DIMBLK
  1

  9
$DIMASO
 70
     1
  9
$DIMSHO
 70
     1
  9
$DIMPOST
  1

  9
$DIMAPOST
  1

  9
$DIMALT
 70
     0
  9
$DIMALTD
 70
     2
  9
$DIMALTF
 40
25.4
  9
$DIMLFAC
 40
1.0
  9
$DIMTOFL
 70
     0
  9
$DIMTVP
 40
0.0
  9
$DIMTIX
 70
     0
  9
$DIMSOXD
 70
     0
  9
$DIMSAH
 70
     0
  9
$DIMBLK1
  1

  9
$DIMBLK2
  1

  9
$DIMSTYLE
  2
STANDARD
  9
$DIMCLRD
 70
     0
  9
$DIMCLRE
 70
     0
  9
$DIMCLRT
 70
     0
  9
$DIMTFAC
 40
1.0
  9
$DIMGAP
 40
0.09
  9
$DIMJUST
 70
     0
  9
$DIMSD1
 70
     0
  9
$DIMSD2
 70
     0
  9
$DIMTOLJ
 70
     1
  9
$DIMTZIN
 70
     0
  9
$DIMALTZ
 70
     0
  9
$DIMALTTZ
 70
     0
  9
$DIMFIT
 70
     3
  9
$DIMUPT
 70
     0
  9
$DIMUNIT
 70
     2
  9
$DIMDEC
 70
     4
  9
$DIMTDEC
 70
     4
  9
$DIMALTU
 70
     2
  9
$DIMALTTD
 70
     2
  9
$DIMTXSTY
  7
STANDARD
  9
$DIMAUNIT
 70
     0
  9
$LUNITS
 70
     2
  9
$LUPREC
 70
     3
  9
$SKETCHINC
 40
0.1
  9
$FILLETRAD
 40
0.5
  9
$AUNITS
 70
     0
  9
$AUPREC
 70
     0
  9
$MENU
  1
.
  9
$ELEVATION
 40
0.0
  9
$PELEVATION
 40
0.0
  9
$THICKNESS
 40
0.0
  9
$LIMCHECK
 70
     0
  9
$CHAMFERA
 40
0.5
  9
$CHAMFERB
 40
0.5
  9
$CHAMFERC
 40
1.0
  9
$CHAMFERD
 40
0.0
  9
$SKPOLY
 70
     0
  9
$TDCREATE
 40
2453754.428214201
  9
$TDUPDATE
 40
2453754.428214213
  9
$TDINDWG
 40
0.0000000116
  9
$TDUSRTIMER
 40
0.0000000116
  9
$USRTIMER
 70
     1
  9
$ANGBASE
 50
0.0
  9
$ANGDIR
 70
     0
  9
$PDMODE
 70
     0
  9
$PDSIZE
 40
0.0
  9
$PLINEWID
 40
0.0
  9
$COORDS
 70
     1
  9
$SPLFRAME
 70
     0
  9
$SPLINETYPE
 70
     6
  9
$SPLINESEGS
 70
     8
  9
$ATTDIA
 70
     0
  9
$ATTREQ
 70
     1
  9
$HANDLING
 70
     1
  9
$HANDSEED
  5
100
  9
$SURFTAB1
 70
     6
  9
$SURFTAB2
 70
     6
  9
$SURFTYPE
 70
     6
  9
$SURFU
 70
     6
  9
$SURFV
 70
     6
  9
$UCSNAME
  2

  9
$UCSORG
 10
0.0
 20
0.0
 30
0.0
  9
$UCSXDIR
 10
1.0
 20
0.0
 30
0.0
  9
$UCSYDIR
 10
0.0
 20
1.0
 30
0.0
  9
$PUCSNAME
  2

  9
$PUCSORG
 10
0.0
 20
0.0
 30
0.0
  9
$PUCSXDIR
 10
1.0
 20
0.0
 30
0.0
  9
$PUCSYDIR
 10
0.0
 20
1.0
 30
0.0
  9
$USERI1
 70
     0
  9
$USERI2
 70
     0
  9
$USERI3
 70
     0
  9
$USERI4
 70
     0
  9
$USERI5
 70
     0
  9
$USERR1
 40
0.0
  9
$USERR2
 40
0.0
  9
$USERR3
 40
0.0
  9
$USERR4
 40
0.0
  9
$USERR5
 40
0.0
  9
$WORLDVIEW
 70
     1
  9
$SHADEDGE
 70
     3
  9
$SHADEDIF
 70
    70
  9
$TILEMODE
 70
     1
  9
$MAXACTVP
 70
    64
  9
$PINSBASE
 10
0.0
 20
0.0
 30
0.0
  9
$PLIMCHECK
 70
     0
  9
$PEXTMIN
 10
1.000000000000000E+20
 20
1.000000000000000E+20
 30
1.000000000000000E+20
  9
$PEXTMAX
 10
-1.000000000000000E+20
 20
-1.000000000000000E+20
 30
-1.000000000000000E+20
  9
$PLIMMIN
 10
0.0
 20
0.0
  9
$PLIMMAX
 10
12.0
 20
9.0
  9
$UNITMODE
 70
     0
  9
$VISRETAIN
 70
     1
  9
$PLINEGEN
 70
     0
  9
$PSLTSCALE
 70
     1
  9
$TREEDEPTH
 70
  3020
  9
$PICKSTYLE
 70
     1
  9
$CMLSTYLE
  2
STANDARD
  9
$CMLJUST
 70
     0
  9
$CMLSCALE
 40
1.0
  9
$PROXYGRAPHICS
 70
     1
  9
$MEASUREMENT
 70
     0
  0
ENDSEC
  0
SECTION
  2
CLASSES
  0
CLASS
  1
ACDBDICTIONARYWDFLT
  2
AcDbDictionaryWithDefault
  3
ObjectDBX Classes
 90
        0
280
     0
281
     0
  0
CLASS
  1
XRECORD
  2
AcDbXrecord
  3
AutoCAD 2000
 90
        0
280
     0
281
     0
  0
CLASS
  1
LWPOLYLINE
  2
AcDbPolyline
  3
AutoCAD 2000
 90
        0
280
     0
281
     1
  0
CLASS
  1
HATCH
  2
AcDbHatch
  3
AutoCAD 2000
 90
        0
280
     0
281
     1
  0
CLASS
  1
ACDBPLACEHOLDER
  2
AcDbPlaceHolder
  3
ObjectDBX Classes
 90
        0
280
     0
281
     0
  0
CLASS
  1
LAYOUT
  2
AcDbLayout
  3
ObjectDBX Classes
 90
        0
280
     0
281
     0
  0
ENDSEC
  0
SECTION
  2
TABLES
  0
TABLE
  2
VPORT
  5
8
330
0
100
AcDbSymbolTable
 70
     2
  0
VPORT
  5
29
102
{ACAD_XDICTIONARY
360
FE
102
}
330
8
100
AcDbSymbolTableRecord
100
AcDbViewportTableRecord
  2
*ACTIVE
 70
     0
 10
0.0
 20
0.0
 11
1.0
 21
1.0
 12
36.76293734031073
 22
37.64785427465908
 13
0.0
 23
0.0
 14
0.5
 24
0.5
 15
0.5
 25
0.5
 16
0.0
 26
0.0
 36
80.21230066091221
 17
0.0
 27
0.0
 37
0.0
 40
75.29417532048126
 41
1.972972972850329
 42
50.0
 43
0.0
 44
0.0
 50
0.0
 51
0.0
 71
     0
 72
   100
 73
     1
 74
     3
 75
     0
 76
     0
 77
     0
 78
     0
  0
ENDTAB
  0
TABLE
  2
LTYPE
  5
5
330
0
100
AcDbSymbolTable
 70
     1
  0
LTYPE
  5
14
330
5
100
AcDbSymbolTableRecord
100
AcDbLinetypeTableRecord
  2
BYBLOCK
 70
     0
  3

 72
    65
 73
     0
 40
0.0
  0
LTYPE
  5
15
330
5
100
AcDbSymbolTableRecord
100
AcDbLinetypeTableRecord
  2
BYLAYER
 70
     0
  3

 72
    65
 73
     0
 40
0.0
  0
LTYPE
  5
16
330
5
100
AcDbSymbolTableRecord
100
AcDbLinetypeTableRecord
  2
CONTINUOUS
 70
     0
  3
Solid line
 72
    65
 73
     0
 40
0.0
  0
ENDTAB
  0
TABLE
  2
LAYER
  5
2
330
0
100
AcDbSymbolTable
 70
     2
  0
LAYER
  5
10
330
2
100
AcDbSymbolTableRecord
100
AcDbLayerTableRecord
  2
0
 70
     0
 62
     7
  6
CONTINUOUS
  0
LAYER
  5
2A
330
2
100
AcDbSymbolTableRecord
100
AcDbLayerTableRecord
  2
IGES_LEVEL_0
 70
     0
 62
   255
  6
CONTINUOUS
  0
ENDTAB
  0
TABLE
  2
STYLE
  5
3
330
0
100
AcDbSymbolTable
 70
     1
  0
STYLE
  5
11
330
3
100
AcDbSymbolTableRecord
100
AcDbTextStyleTableRecord
  2
STANDARD
 70
     0
 40
0.0
 41
1.0
 50
0.0
 71
     0
 42
0.2
  3
txt
  4

  0
ENDTAB
  0
TABLE
  2
VIEW
  5
6
330
0
100
AcDbSymbolTable
 70
     0
  0
ENDTAB
  0
TABLE
  2
UCS
  5
7
330
0
100
AcDbSymbolTable
 70
     0
  0
ENDTAB
  0
TABLE
  2
APPID
  5
9
330
0
100
AcDbSymbolTable
 70
     1
  0
APPID
  5
12
330
9
100
AcDbSymbolTableRecord
100
AcDbRegAppTableRecord
  2
ACAD
 70
     0
  0
ENDTAB
  0
TABLE
  2
DIMSTYLE
  5
A
330
0
100
AcDbSymbolTable
 70
     1
  0
DIMSTYLE
105
27
330
A
100
AcDbSymbolTableRecord
100
AcDbDimStyleTableRecord
  2
STANDARD
 70
     0
  3

  4

  5

  6

  7

 40
1.0
 41
0.18
 42
0.0625
 43
0.38
 44
0.18
 45
0.0
 46
0.0
 47
0.0
 48
0.0
140
0.18
141
0.09
142
0.0
143
25.4
144
1.0
145
0.0
146
1.0
147
0.09
 71
     0
 72
     0
 73
     1
 74
     1
 75
     0
 76
     0
 77
     0
 78
     0
170
     0
171
     2
172
     0
173
     0
174
     0
175
     0
176
     0
177
     0
178
     0
270
     2
271
     4
272
     4
273
     2
274
     2
340
11
275
     0
280
     0
281
     0
282
     0
283
     1
284
     0
285
     0
286
     0
287
     3
288
     0
  0
ENDTAB
  0
TABLE
  2
BLOCK_RECORD
  5
1
330
0
100
AcDbSymbolTable
 70
     1
  0
BLOCK_RECORD
  5
1F
330
1
100
AcDbSymbolTableRecord
100
AcDbBlockTableRecord
  2
*MODEL_SPACE
  0
BLOCK_RECORD
  5
1B
330
1
100
AcDbSymbolTableRecord
100
AcDbBlockTableRecord
  2
*PAPER_SPACE
  0
ENDTAB
  0
ENDSEC
  0
SECTION
  2
BLOCKS
  0
BLOCK
  5
20
330
1F
100
AcDbEntity
  8
0
100
AcDbBlockBegin
  2
*MODEL_SPACE
 70
     0
 71
     0
 10
0.0
 20
0.0
 30
0.0
  3
*MODEL_SPACE
  1

  0
ENDBLK
  5
21
330
1F
100
AcDbEntity
  8
0
100
AcDbBlockEnd
  0
BLOCK
  5
1C
330
1B
100
AcDbEntity
 67
     1
  8
0
100
AcDbBlockBegin
  2
*PAPER_SPACE
 70
     0
 71
     0
 10
0.0
 20
0.0
 30
0.0
  3
*PAPER_SPACE
  1

  0
ENDBLK
  5
1D
330
1B
100
AcDbEntity
 67
     1
  8
0
100
AcDbBlockEnd
  0
ENDSEC
  0
SECTION
  2
ENTITIES
  0
LINE
  5
2B
330
1F
100
AcDbEntity
  8
IGES_LEVEL_0
 62
     7
100
AcDbLine
 10
56.52258246865278
 20
2.379893081530386
 30
0.0
 11
47.97666638869278
 21
2.379898336171386
 31
0.0
  0
LINE
  5
2C
330
1F
100
AcDbEntity
  8
IGES_LEVEL_0
 62
     7
100
AcDbLine
 10
56.81548446865278
 20
3.754893081530386
 30
0.0
 11
47.97666645201278
 21
3.754898344204386
 31
0.0
  0
LINE
  5
2D
330
1F
100
AcDbEntity
  8
IGES_LEVEL_0
 62
     7
100
AcDbLine
 10
58.22968946865278
 20
2.379893081530386
 30
0.0
 11
67.06849911407278
 21
2.379898336171386
 31
0.0
  0
LINE
  5
2E
330
1F
100
AcDbEntity
  8
IGES_LEVEL_0
 62
     7
100
AcDbLine
 10
58.52258246865278
 20
3.754893081530386
 30
0.0
 11
67.06849905075276
 21
3.754898344204386
 31
0.0
  0
LINE
  5
2F
330
1F
100
AcDbEntity
  8
IGES_LEVEL_0
 62
     7
100
AcDbLine
 10
15.29618521196869
 20
2.379893081530386
 30
0.0
 11
6.457375659300686
 21
2.379898336171386
 31
0.0
  0
LINE
  5
30
330
1F
100
AcDbEntity
  8
IGES_LEVEL_0
 62
     7
100
AcDbLine
 10
15.00329221196869
 20
3.754893081530386
 30
0.0
 11
6.457375722621686
 21
3.754898344204386
 31
0.0
  0
LINE
  5
31
330
1F
100
AcDbEntity
  8
IGES_LEVEL_0
 62
     7
100
AcDbLine
 10
17.00329221196868
 20
2.379893081530386
 30
0.0
 11
25.54920838467869
 21
2.379898336171386
 31
0.0
  0
LINE
  5
32
330
1F
100
AcDbEntity
  8
IGES_LEVEL_0
 62
     7
100
AcDbLine
 10
16.71040721196868
 20
3.754893081530386
 30
0.0
 11
25.54920832135868
 21
3.754898344204386
 31
0.0
  0
LINE
  5
33
330
1F
100
AcDbEntity
  8
IGES_LEVEL_0
 62
     7
100
AcDbLine
 10
46.70703946865278
 20
0.0011430815303858
 30
0.0
 11
47.83202946865278
 21
0.0011430815303858
 31
0.0
  0
LINE
  5
34
330
1F
100
AcDbEntity
  8
IGES_LEVEL_0
 62
     7
100
AcDbLine
 10
67.21313546865278
 20
0.0011430815303858
 30
0.0
 11
68.33812646865277
 21
0.0011430815303858
 31
0.0
  0
LINE
  5
35
330
1F
100
AcDbEntity
  8
IGES_LEVEL_0
 62
     7
100
AcDbLine
 10
46.70703946865278
 20
0.1261430815303858
 30
0.0
 11
47.83202946865278
 21
0.1261430815303858
 31
0.0
  0
LINE
  5
36
330
1F
100
AcDbEntity
  8
IGES_LEVEL_0
 62
     7
100
AcDbLine
 10
67.21313546865278
 20
0.1261430815303858
 30
0.0
 11
68.33812646865277
 21
0.1261430815303858
 31
0.0
  0
LINE
  5
37
330
1F
100
AcDbEntity
  8
IGES_LEVEL_0
 62
     7
100
AcDbLine
 10
47.01953446865278
 20
0.2861430815303859
 30
0.0
 11
47.51953446865278
 21
0.2861430815303859
 31
0.0
  0
LINE
  5
38
330
1F
100
AcDbEntity
  8
IGES_LEVEL_0
 62
     7
100
AcDbLine
 10
67.52563146865276
 20
0.2861430815303859
 30
0.0
 11
68.02563146865276
 21
0.2861430815303859
 31
0.0
  0
LINE
  5
39
330
1F
100
AcDbEntity
  8
IGES_LEVEL_0
 62
     7
100
AcDbLine
 10
46.76953446865278
 20
0.3173930815303859
 30
0.0
 11
47.76953446865278
 21
0.3173930815303859
 31
0.0
  0
LINE
  5
3A
330
1F
100
AcDbEntity
  8
IGES_LEVEL_0
 62
     7
100
AcDbLine
 10
67.27563146865276
 20
0.3173930815303859
 30
0.0
 11
68.27563146865276
 21
0.3173930815303859
 31
0.0
  0
LINE
  5
3B
330
1F
100
AcDbEntity
  8
IGES_LEVEL_0
 62
     7
100
AcDbLine
 10
68.27563146865276
 20
0.3798930815303859
 30
0.0
 11
67.27563146865276
 21
0.3798930815303859
 31
0.0
  0
LINE
  5
3C
330
1F
100
AcDbEntity
  8
IGES_LEVEL_0
 62
     7
100
AcDbLine
 10
47.76953446865278
 20
0.3798930815303859
 30
0.0
 11
46.76953446865278
 21
0.3798930815303859
 31
0.0
  0
LINE
  5
3D
330
1F
100
AcDbEntity
  8
IGES_LEVEL_0
 62
     7
100
AcDbLine
 10
58.52257346865278
 20
1.879893081530386
 30
0.0
 11
56.52259246865278
 21
1.879893081530386
 31
0.0
  0
LINE
  5
3E
330
1F
100
AcDbEntity
  8
IGES_LEVEL_0
 62
     7
100
AcDbLine
 10
46.70703446865278
 20
0.1261430815303858
 30
0.0
 11
46.70703446865278
 21
0.0011430815303858
 31
0.0
  0
LINE
  5
3F
330
1F
100
AcDbEntity
  8
IGES_LEVEL_0
 62
     7
100
AcDbLine
 10
46.76953446865278
 20
3.254893081530386
 30
0.0
 11
46.76953446865278
 21
0.317393081530386
 31
0.0
  0
LINE
  5
40
330
1F
100
AcDbEntity
  8
IGES_LEVEL_0
 62
     7
100
AcDbLine
 10
47.01953446865278
 20
0.2861430815303859
 30
0.0
 11
47.01953446865278
 21
0.2761430815303861
 31
0.0
  0
LINE
  5
41
330
1F
100
AcDbEntity
  8
IGES_LEVEL_0
 62
     7
100
AcDbLine
 10
47.14453446865278
 20
0.3173930815303859
 30
0.0
 11
47.14453446865278
 21
0.2861430815303859
 31
0.0
  0
LINE
  5
42
330
1F
100
AcDbEntity
  8
IGES_LEVEL_0
 62
     7
100
AcDbLine
 10
47.39453446865278
 20
0.3173930815303859
 30
0.0
 11
47.39453446865278
 21
0.2861430815303859
 31
0.0
  0
LINE
  5
43
330
1F
100
AcDbEntity
  8
IGES_LEVEL_0
 62
     7
100
AcDbLine
 10
47.51953446865278
 20
0.2861430815303859
 30
0.0
 11
47.51953446865278
 21
0.2761430815303861
 31
0.0
  0
LINE
  5
44
330
1F
100
AcDbEntity
  8
IGES_LEVEL_0
 62
     7
100
AcDbLine
 10
56.52258246865278
 20
3.379893081530386
 30
0.0
 11
47.97664146865278
 21
3.379893081530386
 31
0.0
  0
LINE
  5
45
330
1F
100
AcDbEntity
  8
IGES_LEVEL_0
 62
     7
100
AcDbLine
 10
58.22968946865278
 20
3.379893081530386
 30
0.0
 11
67.06852446865278
 21
3.379893081530386
 31
0.0
  0
LINE
  5
46
330
1F
100
AcDbEntity
  8
IGES_LEVEL_0
 62
     7
100
AcDbLine
 10
56.81546946865278
 20
4.754893081530386
 30
0.0
 11
47.97664146865278
 21
4.754893081530386
 31
0.0
  0
LINE
  5
47
330
1F
100
AcDbEntity
  8
IGES_LEVEL_0
 62
     7
100
AcDbLine
 10
58.52258246865278
 20
4.754893081530386
 30
0.0
 11
67.06852446865278
 21
4.754893081530386
 31
0.0
  0
LINE
  5
48
330
1F
100
AcDbEntity
  8
IGES_LEVEL_0
 62
     7
100
AcDbLine
 10
47.76953446865278
 20
3.254893081530386
 30
0.0
 11
47.76953446865278
 21
0.317393081530386
 31
0.0
  0
LINE
  5
49
330
1F
100
AcDbEntity
  8
IGES_LEVEL_0
 62
     7
100
AcDbLine
 10
47.83203446865278
 20
0.1261430815303858
 30
0.0
 11
47.83203446865278
 21
0.0011430815303858
 31
0.0
  0
LINE
  5
4A
330
1F
100
AcDbEntity
  8
IGES_LEVEL_0
 62
     7
100
AcDbLine
 10
51.52258246865278
 20
28.75489308153038
 30
0.0
 11
51.52258246865278
 21
28.56739308153038
 31
0.0
  0
LINE
  5
4B
330
1F
100
AcDbEntity
  8
IGES_LEVEL_0
 62
     7
100
AcDbLine
 10
54.87383246865278
 20
28.56739308153038
 30
0.0
 11
54.87383246865278
 21
28.53439308153039
 31
0.0
  0
LINE
  5
4C
330
1F
100
AcDbEntity
  8
IGES_LEVEL_0
 62
     7
100
AcDbLine
 10
55.31133246865278
 20
28.56739308153038
 30
0.0
 11
55.31133246865278
 21
28.53439308153039
 31
0.0
  0
LINE
  5
4D
330
1F
100
AcDbEntity
  8
IGES_LEVEL_0
 62
     7
100
AcDbLine
 10
56.52258246865278
 20
28.56739308153038
 30
0.0
 11
56.52258246865278
 21
4.754893081530387
 31
0.0
  0
LINE
  5
4E
330
1F
100
AcDbEntity
  8
IGES_LEVEL_0
 62
     7
100
AcDbLine
 10
56.52258246865278
 20
3.754893081530386
 30
0.0
 11
56.52258246865278
 21
1.879893081530386
 31
0.0
  0
LINE
  5
4F
330
1F
100
AcDbEntity
  8
IGES_LEVEL_0
 62
     7
100
AcDbLine
 10
58.45383246865278
 20
28.56739308153038
 30
0.0
 11
58.45383246865278
 21
28.53439308153039
 31
0.0
  0
LINE
  5
50
330
1F
100
AcDbEntity
  8
IGES_LEVEL_0
 62
     7
100
AcDbLine
 10
58.52258246865278
 20
28.45969908153039
 30
0.0
 11
58.52258246865278
 21
3.379893081530387
 31
0.0
  0
LINE
  5
51
330
1F
100
AcDbEntity
  8
IGES_LEVEL_0
 62
     7
100
AcDbLine
 10
58.52258246865278
 20
2.379893081530386
 30
0.0
 11
58.52258246865278
 21
1.879893081530386
 31
0.0
  0
LINE
  5
52
330
1F
100
AcDbEntity
  8
IGES_LEVEL_0
 62
     7
100
AcDbLine
 10
58.89133246865278
 20
28.56739308153038
 30
0.0
 11
58.89133246865278
 21
28.53439308153039
 31
0.0
  0
LINE
  5
53
330
1F
100
AcDbEntity
  8
IGES_LEVEL_0
 62
     7
100
AcDbLine
 10
61.32383246865278
 20
28.56739308153038
 30
0.0
 11
61.32383246865278
 21
28.53439308153039
 31
0.0
  0
LINE
  5
54
330
1F
100
AcDbEntity
  8
IGES_LEVEL_0
 62
     7
100
AcDbLine
 10
61.76133246865278
 20
28.56739308153038
 30
0.0
 11
61.76133246865278
 21
28.53439308153039
 31
0.0
  0
LINE
  5
55
330
1F
100
AcDbEntity
  8
IGES_LEVEL_0
 62
     7
100
AcDbLine
 10
62.01383246865277
 20
28.56739308153038
 30
0.0
 11
62.01383246865277
 21
28.53439308153039
 31
0.0
  0
LINE
  5
56
330
1F
100
AcDbEntity
  8
IGES_LEVEL_0
 62
     7
100
AcDbLine
 10
62.45133246865277
 20
28.56739308153038
 30
0.0
 11
62.45133246865277
 21
28.53439308153039
 31
0.0
  0
LINE
  5
57
330
1F
100
AcDbEntity
  8
IGES_LEVEL_0
 62
     7
100
AcDbLine
 10
63.52258246865276
 20
28.75489308153038
 30
0.0
 11
63.52258246865276
 21
28.56739308153038
 31
0.0
  0
LINE
  5
58
330
1F
100
AcDbEntity
  8
IGES_LEVEL_0
 62
     7
100
AcDbLine
 10
67.21313146865276
 20
0.1261430815303858
 30
0.0
 11
67.21313146865276
 21
0.0011430815303858
 31
0.0
  0
LINE
  5
59
330
1F
100
AcDbEntity
  8
IGES_LEVEL_0
 62
     7
100
AcDbLine
 10
67.27563146865276
 20
1.879893081530386
 30
0.0
 11
67.27563146865276
 21
0.317393081530386
 31
0.0
  0
LINE
  5
5A
330
1F
100
AcDbEntity
  8
IGES_LEVEL_0
 62
     7
100
AcDbLine
 10
67.52563146865276
 20
0.2861430815303859
 30
0.0
 11
67.52563146865276
 21
0.2761430815303861
 31
0.0
  0
LINE
  5
5B
330
1F
100
AcDbEntity
  8
IGES_LEVEL_0
 62
     7
100
AcDbLine
 10
67.65063146865276
 20
0.3173930815303859
 30
0.0
 11
67.65063146865276
 21
0.2861430815303859
 31
0.0
  0
LINE
  5
5C
330
1F
100
AcDbEntity
  8
IGES_LEVEL_0
 62
     7
100
AcDbLine
 10
67.90063146865276
 20
0.3173930815303859
 30
0.0
 11
67.90063146865276
 21
0.2861430815303859
 31
0.0
  0
LINE
  5
5D
330
1F
100
AcDbEntity
  8
IGES_LEVEL_0
 62
     7
100
AcDbLine
 10
68.02563146865276
 20
0.2861430815303859
 30
0.0
 11
68.02563146865276
 21
0.2761430815303861
 31
0.0
  0
LINE
  5
5E
330
1F
100
AcDbEntity
  8
IGES_LEVEL_0
 62
     7
100
AcDbLine
 10
68.27563146865276
 20
3.254893081530386
 30
0.0
 11
68.27563146865276
 21
0.317393081530386
 31
0.0
  0
LINE
  5
5F
330
1F
100
AcDbEntity
  8
IGES_LEVEL_0
 62
     7
100
AcDbLine
 10
68.33813146865276
 20
0.1261430815303858
 30
0.0
 11
68.33813146865276
 21
0.0011430815303858
 31
0.0
  0
LINE
  5
60
330
1F
100
AcDbEntity
  8
IGES_LEVEL_0
 62
     7
100
AcDbLine
 10
54.98346646865278
 20
28.43539308153039
 30
0.0
 11
55.20169946865278
 21
28.43539308153039
 31
0.0
  0
LINE
  5
61
330
1F
100
AcDbEntity
  8
IGES_LEVEL_0
 62
     7
100
AcDbLine
 10
58.56346646865278
 20
28.43539308153039
 30
0.0
 11
58.78169946865278
 21
28.43539308153039
 31
0.0
  0
LINE
  5
62
330
1F
100
AcDbEntity
  8
IGES_LEVEL_0
 62
     7
100
AcDbLine
 10
61.43346646865277
 20
28.43539308153039
 30
0.0
 11
61.65169946865277
 21
28.43539308153039
 31
0.0
  0
LINE
  5
63
330
1F
100
AcDbEntity
  8
IGES_LEVEL_0
 62
     7
100
AcDbLine
 10
62.12346646865277
 20
28.43539308153039
 30
0.0
 11
62.34169946865277
 21
28.43539308153039
 31
0.0
  0
LINE
  5
64
330
1F
100
AcDbEntity
  8
IGES_LEVEL_0
 62
     7
100
AcDbLine
 10
63.52258246865276
 20
28.56739308153038
 30
0.0
 11
51.52258246865278
 21
28.56739308153038
 31
0.0
  0
LINE
  5
65
330
1F
100
AcDbEntity
  8
IGES_LEVEL_0
 62
     7
100
AcDbLine
 10
41.67258246865278
 20
28.75489308153038
 30
0.0
 11
73.37258246865278
 21
28.75489308153038
 31
0.0
  0
LINE
  5
66
330
1F
100
AcDbEntity
  8
IGES_LEVEL_0
 62
     7
100
AcDbLine
 10
41.67258246865278
 20
29.50489308153038
 30
0.0
 11
73.37258246865278
 21
29.50489308153038
 31
0.0
  0
ARC
  5
67
330
1F
100
AcDbEntity
  8
IGES_LEVEL_0
 62
     7
100
AcDbCircle
 10
61.54258246865278
 20
28.66639308153038
 30
0.0
 40
0.2554908591476374
100
AcDbArc
 50
295.2920523509823
 51
328.8920187863544
  0
ARC
  5
68
330
1F
100
AcDbEntity
  8
IGES_LEVEL_0
 62
     7
100
AcDbCircle
 10
61.54258246865278
 20
28.66639308153038
 30
0.0
 40
0.2554908591476389
100
AcDbArc
 50
211.1079812136447
 51
244.7079476490177
  0
ARC
  5
69
330
1F
100
AcDbEntity
  8
IGES_LEVEL_0
 62
     7
100
AcDbCircle
 10
62.23258246865277
 20
28.66639308153038
 30
0.0
 40
0.2554908591476374
100
AcDbArc
 50
295.2920523509823
 51
328.8920187863544
  0
ARC
  5
6A
330
1F
100
AcDbEntity
  8
IGES_LEVEL_0
 62
     7
100
AcDbCircle
 10
62.23258246865277
 20
28.66639308153038
 30
0.0
 40
0.2554908591476389
100
AcDbArc
 50
211.1079812136447
 51
244.7079476490177
  0
ARC
  5
6B
330
1F
100
AcDbEntity
  8
IGES_LEVEL_0
 62
     7
100
AcDbCircle
 10
55.09258246865278
 20
28.66639308153038
 30
0.0
 40
0.2554908591476374
100
AcDbArc
 50
295.2920523509823
 51
328.8920187863544
  0
ARC
  5
6C
330
1F
100
AcDbEntity
  8
IGES_LEVEL_0
 62
     7
100
AcDbCircle
 10
55.09258246865278
 20
28.66639308153038
 30
0.0
 40
0.2554908591476374
100
AcDbArc
 50
211.1079812136456
 51
244.7079476490177
  0
ARC
  5
6D
330
1F
100
AcDbEntity
  8
IGES_LEVEL_0
 62
     7
100
AcDbCircle
 10
58.67258246865278
 20
28.66639308153038
 30
0.0
 40
0.2554908591476389
100
AcDbArc
 50
295.2920523509823
 51
328.8920187863544
  0
ARC
  5
6E
330
1F
100
AcDbEntity
  8
IGES_LEVEL_0
 62
     7
100
AcDbCircle
 10
58.67258246865278
 20
28.66639308153038
 30
0.0
 40
0.2554908591476374
100
AcDbArc
 50
211.1079812136456
 51
244.7079476490177
  0
ARC
  5
6F
330
1F
100
AcDbEntity
  8
IGES_LEVEL_0
 62
     7
100
AcDbCircle
 10
42.06633246865278
 20
29.12989308153038
 30
0.0
 40
0.5437500000000031
100
AcDbArc
 50
136.3971810272967
 51
223.6028189727033
  0
ARC
  5
70
330
1F
100
AcDbEntity
  8
IGES_LEVEL_0
 62
     7
100
AcDbCircle
 10
72.97883246865277
 20
29.12989308153038
 30
0.0
 40
0.543749999999998
100
AcDbArc
 50
316.3971810272961
 51
43.60281897270384
  0
SPLINE
  5
71
330
1F
100
AcDbEntity
  8
IGES_LEVEL_0
 62
     7
100
AcDbSpline
210
0.0
220
0.0
230
1.0
 70
     8
 71
     3
 72
     9
 73
     5
 74
     0
 42
0.0000000001
 43
0.0000000001
 40
0.0
 40
0.0
 40
0.0
 40
0.0
 40
0.2511979971628
 40
1.0
 40
1.0
 40
1.0
 40
1.0
 10
47.51953442417278
 20
0.2761434828243859
 30
0.0
 10
47.51953442417278
 20
0.2503671450333859
 30
0.0
 10
47.57337411619278
 20
0.1703549778793859
 30
0.0
 10
47.66407342487278
 20
0.1261434828243856
 30
0.0
 10
47.73203442417278
 20
0.1261434828243856
 30
0.0
  0
SPLINE
  5
72
330
1F
100
AcDbEntity
  8
IGES_LEVEL_0
 62
     7
100
AcDbSpline
210
0.0
220
0.0
230
1.0
 70
     8
 71
     3
 72
     9
 73
     5
 74
     0
 42
0.0000000001
 43
0.0000000001
 40
0.0
 40
0.0
 40
0.0
 40
0.0
 40
0.2511979971628
 40
1.0
 40
1.0
 40
1.0
 40
1.0
 10
47.01953442417278
 20
0.2761434828243859
 30
0.0
 10
47.01953442417278
 20
0.2503671450333859
 30
0.0
 10
46.96569473215278
 20
0.1703549778793859
 30
0.0
 10
46.87499542347278
 20
0.1261434828243856
 30
0.0
 10
46.80703442417278
 20
0.1261434828243856
 30
0.0
  0
SPLINE
  5
73
330
1F
100
AcDbEntity
  8
IGES_LEVEL_0
 62
     7
100
AcDbSpline
210
0.0
220
0.0
230
1.0
 70
     8
 71
     3
 72
     9
 73
     5
 74
     0
 42
0.0000000001
 43
0.0000000001
 40
0.0
 40
0.0
 40
0.0
 40
0.0
 40
0.2511979971628
 40
1.0
 40
1.0
 40
1.0
 40
1.0
 10
68.02563107858276
 20
0.2761434828243859
 30
0.0
 10
68.02563107858276
 20
0.2503671450333859
 30
0.0
 10
68.07947077060277
 20
0.1703549778793859
 30
0.0
 10
68.17017007928277
 20
0.1261434828243856
 30
0.0
 10
68.23813107858277
 20
0.1261434828243856
 30
0.0
  0
SPLINE
  5
74
330
1F
100
AcDbEntity
  8
IGES_LEVEL_0
 62
     7
100
AcDbSpline
210
0.0
220
0.0
230
1.0
 70
     8
 71
     3
 72
     9
 73
     5
 74
     0
 42
0.0000000001
 43
0.0000000001
 40
0.0
 40
0.0
 40
0.0
 40
0.0
 40
0.2511979971628
 40
1.0
 40
1.0
 40
1.0
 40
1.0
 10
67.52563107858276
 20
0.2761434828243859
 30
0.0
 10
67.52563107858276
 20
0.2503671450333859
 30
0.0
 10
67.47179138656279
 20
0.1703549778793859
 30
0.0
 10
67.38109207788278
 20
0.1261434828243856
 30
0.0
 10
67.31313107858279
 20
0.1261434828243856
 30
0.0
  0
ARC
  5
75
330
1F
100
AcDbEntity
  8
IGES_LEVEL_0
 62
     7
100
AcDbCircle
 10
47.97709923673981
 20
2.372816097587125
 30
0.0
 40
1.007077489396452
100
AcDbArc
 50
90.02605883456775
 51
101.5312603753434
  0
SPLINE
  5
76
330
1F
100
AcDbEntity
  8
IGES_LEVEL_0
 62
     7
100
AcDbSpline
210
0.0
220
0.0
230
1.0
 70
     8
 71
     3
 72
    15
 73
    11
 74
     0
 42
0.0000000001
 43
0.0000000001
 40
0.0
 40
0.0
 40
0.0
 40
0.0
 40
0.007521231690448
 40
0.04983197446218
 40
0.1341243882672
 40
0.2544452463499
 40
0.406737472106
 40
0.5868040625655
 40
0.7876867430568
 40
1.0
 40
1.0
 40
1.0
 40
1.0
 10
47.97666638869278
 20
2.379898336171386
 30
0.0
 10
47.97526865491278
 20
2.379629427014386
 30
0.0
 10
47.96616535371278
 20
2.377367228709386
 30
0.0
 10
47.94423438612278
 20
2.363803994738386
 30
0.0
 10
47.90967679860278
 20
2.332682538048386
 30
0.0
 10
47.86920021755278
 20
2.278436474636386
 30
0.0
 10
47.82960149018278
 20
2.202696809887386
 30
0.0
 10
47.79655526292278
 20
2.107536364669386
 30
0.0
 10
47.77461391478278
 20
1.997730906000386
 30
0.0
 10
47.76953442417278
 20
1.919854802230386
 30
0.0
 10
47.76953442417278
 20
1.879893482824386
 30
0.0
  0
SPLINE
  5
77
330
1F
100
AcDbEntity
  8
IGES_LEVEL_0
 62
     7
100
AcDbSpline
210
0.0
220
0.0
230
1.0
 70
     8
 71
     3
 72
    16
 73
    12
 74
     0
 42
0.0000000001
 43
0.0000000001
 40
0.0
 40
0.0
 40
0.0
 40
0.0
 40
0.09485852838011
 40
0.1925618613346
 40
0.2943677142999
 40
0.4016759461513
 40
0.5148302045552
 40
0.6328085591118
 40
0.7539311667621
 40
0.8767015282292
 40
1.0
 40
1.0
 40
1.0
 40
1.0
 10
67.06852429740277
 20
3.379893482824386
 30
0.0
 10
67.13597972018278
 20
3.379893482824386
 30
0.0
 10
67.27330622539279
 20
3.365908067691386
 30
0.0
 10
67.47428996901277
 20
3.302669322808386
 30
0.0
 10
67.66645063559278
 20
3.196314592175386
 30
0.0
 10
67.84275394336277
 20
3.047748381171386
 30
0.0
 10
67.99597188912279
 20
2.860480175138386
 30
0.0
 10
68.11962677960278
 20
2.641322285852386
 30
0.0
 10
68.20947200930277
 20
2.399107948129386
 30
0.0
 10
68.26361312469277
 20
2.142800161141386
 30
0.0
 10
68.27563107858276
 20
1.967573006048386
 30
0.0
 10
68.27563107858276
 20
1.879893482824386
 30
0.0
  0
SPLINE
  5
78
330
1F
100
AcDbEntity
  8
IGES_LEVEL_0
 62
     7
100
AcDbSpline
210
0.0
220
0.0
230
1.0
 70
     8
 71
     3
 72
    15
 73
    11
 74
     0
 42
0.0000000001
 43
0.0000000001
 40
0.0
 40
0.0
 40
0.0
 40
0.0
 40
0.007521231690428
 40
0.04983197446217
 40
0.1341243882672
 40
0.2544452463499
 40
0.406737472106
 40
0.5868040625655
 40
0.7876867430568
 40
1.0
 40
1.0
 40
1.0
 40
1.0
 10
67.06849911407278
 20
2.379898336171386
 30
0.0
 10
67.06989684785279
 20
2.379629427014386
 30
0.0
 10
67.07900014905277
 20
2.377367228709386
 30
0.0
 10
67.10093111664278
 20
2.363803994738386
 30
0.0
 10
67.13548870416278
 20
2.332682538048386
 30
0.0
 10
67.17596528521278
 20
2.278436474636386
 30
0.0
 10
67.21556401258277
 20
2.202696809887386
 30
0.0
 10
67.24861023984278
 20
2.107536364669386
 30
0.0
 10
67.27055158798277
 20
1.997730906000386
 30
0.0
 10
67.27563107858276
 20
1.919854802230386
 30
0.0
 10
67.27563107858276
 20
1.879893482824386
 30
0.0
  0
SPLINE
  5
79
330
1F
100
AcDbEntity
  8
IGES_LEVEL_0
 62
     7
100
AcDbSpline
210
0.0
220
0.0
230
1.0
 70
     8
 71
     3
 72
    15
 73
    11
 74
     0
 42
0.0000000001
 43
0.0000000001
 40
0.0
 40
0.0
 40
0.0
 40
0.0
 40
0.009210447446481
 40
0.0610777507284
 40
0.1645305886226
 40
0.3122779189942
 40
0.4993087570623
 40
0.7204710718657
 40
0.9672145313237001
 40
1.0
 40
1.0
 40
1.0
 40
1.0
 10
67.06849905075276
 20
3.754898344204386
 30
0.0
 10
67.06989292930277
 20
3.754630408827386
 30
0.0
 10
67.07897946093277
 20
3.752374609853386
 30
0.0
 10
67.10089132740276
 20
3.738833245194386
 30
0.0
 10
67.13544001522277
 20
3.707737259247386
 30
0.0
 10
67.17592310335277
 20
3.653505523515386
 30
0.0
 10
67.21553595536278
 20
3.577764838154386
 30
0.0
 10
67.24859675700279
 20
3.482590865306386
 30
0.0
 10
67.26368022276279
 20
3.407126393073386
 30
0.0
 10
67.26900481842279
 20
3.364571021582386
 30
0.0
 10
67.26958690316278
 20
3.359574775375386
 30
0.0
  0
SPLINE
  5
7A
330
1F
100
AcDbEntity
  8
IGES_LEVEL_0
 62
     7
100
AcDbSpline
210
0.0
220
0.0
230
1.0
 70
     8
 71
     3
 72
    16
 73
    12
 74
     0
 42
0.0000000001
 43
0.0000000001
 40
0.0
 40
0.0
 40
0.0
 40
0.0
 40
0.09485852838011
 40
0.1925618613346
 40
0.2943677142999
 40
0.4016759461513
 40
0.5148302045552
 40
0.6328085591118
 40
0.7539311667621
 40
0.8767015282292
 40
1.0
 40
1.0
 40
1.0
 40
1.0
 10
67.06852429740277
 20
4.754893482824186
 30
0.0
 10
67.13597972018278
 20
4.754893482824186
 30
0.0
 10
67.27330622539279
 20
4.740908067690986
 30
0.0
 10
67.47428996901277
 20
4.677669322808686
 30
0.0
 10
67.66645063559278
 20
4.571314592175086
 30
0.0
 10
67.84275394336277
 20
4.422748381171786
 30
0.0
 10
67.99597188912279
 20
4.235480175138386
 30
0.0
 10
68.11962677960278
 20
4.016322285852386
 30
0.0
 10
68.20947200930277
 20
3.774107948129386
 30
0.0
 10
68.26361312469277
 20
3.517800161141386
 30
0.0
 10
68.27563107858276
 20
3.342573006048386
 30
0.0
 10
68.27563107858276
 20
3.254893482824386
 30
0.0
  0
LINE
  5
7B
330
1F
100
AcDbEntity
  8
IGES_LEVEL_0
 62
     7
100
AcDbLine
 10
58.22968953257278
 20
2.379893482824386
 30
0.0
 11
58.19703012702278
 21
2.381942230101386
 31
0.0
  0
SPLINE
  5
7C
330
1F
100
AcDbEntity
  8
IGES_LEVEL_0
 62
     7
100
AcDbSpline
210
0.0
220
0.0
230
1.0
 70
     8
 71
     3
 72
    14
 73
    10
 74
     0
 42
0.0000000001
 43
0.0000000001
 40
0.0
 40
0.0
 40
0.0
 40
0.0
 40
0.07112785932095
 40
0.2095629174014
 40
0.3601142919022
 40
0.5206741855674
 40
0.6828538734957
 40
0.8447487821769
 40
1.0
 40
1.0
 40
1.0
 40
1.0
 10
58.19703012702278
 20
2.381942230101386
 30
0.0
 10
58.18053619621278
 20
2.383970058188386
 30
0.0
 10
58.13232991572278
 20
2.394160963001386
 30
0.0
 10
58.05487408694278
 20
2.428026156975386
 30
0.0
 10
57.96885458875278
 20
2.488889745020386
 30
0.0
 10
57.89187280083278
 20
2.568727539188386
 30
0.0
 10
57.83015056373278
 20
2.664180111300386
 30
0.0
 10
57.79050896125278
 20
2.769565937913386
 30
0.0
 10
57.78140179648278
 20
2.843728332056386
 30
0.0
 10
57.78140179648278
 20
2.879893482824386
 30
0.0
  0
SPLINE
  5
7D
330
1F
100
AcDbEntity
  8
IGES_LEVEL_0
 62
     7
100
AcDbSpline
210
0.0
220
0.0
230
1.0
 70
     8
 71
     3
 72
    13
 73
     9
 74
     0
 42
0.0000000001
 43
0.0000000001
 40
0.0
 40
0.0
 40
0.0
 40
0.0
 40
0.1725039141234
 40
0.3558655618568
 40
0.5384498139863
 40
0.7112700873573
 40
0.8654803891917
 40
1.0
 40
1.0
 40
1.0
 40
1.0
 10
57.26376370628278
 20
4.254893482824386
 30
0.0
 10
57.26376370628278
 20
4.212860841847387
 30
0.0
 10
57.25126046966278
 20
4.125718312671386
 30
0.0
 10
57.19747438806278
 20
4.004450555927386
 30
0.0
 10
57.11630469870278
 20
3.899815883200386
 30
0.0
 10
57.01996410613278
 20
3.819916987909386
 30
0.0
 10
56.91859228950278
 20
3.768777221667386
 30
0.0
 10
56.84847904400278
 20
3.754818597046386
 30
0.0
 10
56.81548420678278
 20
3.754895089673386
 30
0.0
  0
SPLINE
  5
7E
330
1F
100
AcDbEntity
  8
IGES_LEVEL_0
 62
     7
100
AcDbSpline
210
0.0
220
0.0
230
1.0
 70
     8
 71
     3
 72
    13
 73
     9
 74
     0
 42
0.0000000001
 43
0.0000000001
 40
0.0
 40
0.0
 40
0.0
 40
0.0
 40
0.1335012444538
 40
0.2882134141609
 40
0.4606238169497
 40
0.6426076838693
 40
0.8258465051759
 40
1.0
 40
1.0
 40
1.0
 40
1.0
 10
56.81546987169278
 20
4.754894748820886
 30
0.0
 10
56.84820478192278
 20
4.754971041940486
 30
0.0
 10
56.91822551377278
 20
4.741136528124386
 30
0.0
 10
57.01945598742278
 20
4.690208631967886
 30
0.0
 10
57.11577341880278
 20
4.610482889786487
 30
0.0
 10
57.19692556661278
 20
4.506197057935387
 30
0.0
 10
57.25107971086278
 20
4.384853749574386
 30
0.0
 10
57.26376370628278
 20
4.297328276223387
 30
0.0
 10
57.26376370628278
 20
4.254893482824386
 30
0.0
  0
SPLINE
  5
7F
330
1F
100
AcDbEntity
  8
IGES_LEVEL_0
 62
     7
100
AcDbSpline
210
0.0
220
0.0
230
1.0
 70
     8
 71
     3
 72
    14
 73
    10
 74
     0
 42
0.0000000001
 43
0.0000000001
 40
0.0
 40
0.0
 40
0.0
 40
0.0
 40
0.1543594969969
 40
0.3166812629886
 40
0.4791780468908
 40
0.6403008209482
 40
0.7910083482616001
 40
0.9290019028617
 40
1.0
 40
1.0
 40
1.0
 40
1.0
 10
57.78140179648278
 20
2.879893482824386
 30
0.0
 10
57.78140179648278
 20
2.915855613243386
 30
0.0
 10
57.79044328335278
 20
2.989915118904386
 30
0.0
 10
57.82998511857278
 20
3.095326453824386
 30
0.0
 10
57.89185444244278
 20
3.191069707019386
 30
0.0
 10
57.96903764458278
 20
3.271077910256386
 30
0.0
 10
58.05516863061278
 20
3.331925505344386
 30
0.0
 10
58.13256964571278
 20
3.365693023973386
 30
0.0
 10
58.18065366902278
 20
3.375836623682386
 30
0.0
 10
58.19712011829278
 20
3.377855795677386
 30
0.0
  0
LINE
  5
80
330
1F
100
AcDbEntity
  8
IGES_LEVEL_0
 62
     7
100
AcDbLine
 10
58.19712011829278
 20
3.377855795677386
 30
0.0
 11
58.22968953257278
 21
3.379893482824386
 31
0.0
  0
SPLINE
  5
81
330
1F
100
AcDbEntity
  8
IGES_LEVEL_0
 62
     7
100
AcDbSpline
210
0.0
220
0.0
230
1.0
 70
     8
 71
     3
 72
    15
 73
    11
 74
     0
 42
0.0000000001
 43
0.0000000001
 40
0.0
 40
0.0
 40
0.0
 40
0.0
 40
0.007500327958853
 40
0.04973734057037
 40
0.1339819135933
 40
0.2542967451223
 40
0.4066012484678
 40
0.5866999790452
 40
0.7876301595154001
 40
1.0
 40
1.0
 40
1.0
 40
1.0
 10
47.97666645201278
 20
3.754898344204386
 30
0.0
 10
47.97527257346278
 20
3.754630408827386
 30
0.0
 10
47.96618604183278
 20
3.752374609853386
 30
0.0
 10
47.94427417536278
 20
3.738833245194386
 30
0.0
 10
47.90972548754278
 20
3.707737259247386
 30
0.0
 10
47.86924239940278
 20
3.653505523515386
 30
0.0
 10
47.82962954740278
 20
3.577764838154386
 30
0.0
 10
47.79656874576278
 20
3.482590865306386
 30
0.0
 10
47.77461653572278
 20
3.372761203364386
 30
0.0
 10
47.76953442417278
 20
3.294865442678386
 30
0.0
 10
47.76953442417278
 20
3.254893482824386
 30
0.0
  0
SPLINE
  5
82
330
1F
100
AcDbEntity
  8
IGES_LEVEL_0
 62
     7
100
AcDbSpline
210
0.0
220
0.0
230
1.0
 70
     8
 71
     3
 72
    16
 73
    12
 74
     0
 42
0.0000000001
 43
0.0000000001
 40
0.0
 40
0.0
 40
0.0
 40
0.0
 40
0.09485852838011
 40
0.1925618613347
 40
0.2943677142999
 40
0.4016759461513
 40
0.5148302045552
 40
0.6328085591118
 40
0.7539311667621
 40
0.8767015282292
 40
1.0
 40
1.0
 40
1.0
 40
1.0
 10
47.97664120536278
 20
4.754893482824186
 30
0.0
 10
47.90918578257278
 20
4.754893482824186
 30
0.0
 10
47.77185927737278
 20
4.740908067690986
 30
0.0
 10
47.57087553375278
 20
4.677669322808686
 30
0.0
 10
47.37871486717278
 20
4.571314592175086
 30
0.0
 10
47.20241155940278
 20
4.422748381171786
 30
0.0
 10
47.04919361363278
 20
4.235480175138386
 30
0.0
 10
46.92553872316278
 20
4.016322285852386
 30
0.0
 10
46.83569349346278
 20
3.774107948129386
 30
0.0
 10
46.78155237807278
 20
3.517800161141386
 30
0.0
 10
46.76953442417278
 20
3.342573006048386
 30
0.0
 10
46.76953442417278
 20
3.254893482824386
 30
0.0
  0
LINE
  5
83
330
1F
100
AcDbEntity
  8
IGES_LEVEL_0
 62
     7
100
AcDbLine
 10
0.0032922119686842
 20
71.29456546778778
 30
0.0
 11
0.0032922119686842
 21
47.29456546778778
 31
0.0
  0
LINE
  5
84
330
1F
100
AcDbEntity
  8
IGES_LEVEL_0
 62
     7
100
AcDbLine
 10
0.1532922119686845
 20
71.29456546778778
 30
0.0
 11
0.1532922119686845
 21
47.29456546778778
 31
0.0
  0
LINE
  5
85
330
1F
100
AcDbEntity
  8
IGES_LEVEL_0
 62
     7
100
AcDbLine
 10
4.003292211968685
 20
43.29456546778778
 30
0.0
 11
28.00329221196868
 21
43.29456546778778
 31
0.0
  0
LINE
  5
86
330
1F
100
AcDbEntity
  8
IGES_LEVEL_0
 62
     7
100
AcDbLine
 10
4.003292211968685
 20
43.44456546778778
 30
0.0
 11
28.00329221196868
 21
43.44456546778778
 31
0.0
  0
LINE
  5
87
330
1F
100
AcDbEntity
  8
IGES_LEVEL_0
 62
     7
100
AcDbLine
 10
31.85329221196868
 20
47.29456546778778
 30
0.0
 11
31.85329221196868
 21
71.29456546778778
 31
0.0
  0
LINE
  5
88
330
1F
100
AcDbEntity
  8
IGES_LEVEL_0
 62
     7
100
AcDbLine
 10
32.00329221196868
 20
47.29456546778778
 30
0.0
 11
32.00329221196868
 21
71.29456546778778
 31
0.0
  0
LINE
  5
89
330
1F
100
AcDbEntity
  8
IGES_LEVEL_0
 62
     7
100
AcDbLine
 10
28.00329221196868
 20
75.14456546778777
 30
0.0
 11
4.003292211968685
 21
75.14456546778777
 31
0.0
  0
LINE
  5
8A
330
1F
100
AcDbEntity
  8
IGES_LEVEL_0
 62
     7
100
AcDbLine
 10
28.00329221196868
 20
75.29456546778778
 30
0.0
 11
4.003292211968685
 21
75.29456546778778
 31
0.0
  0
ARC
  5
8B
330
1F
100
AcDbEntity
  8
IGES_LEVEL_0
 62
     7
100
AcDbCircle
 10
28.00329221196868
 20
71.29456546778778
 30
0.0
 40
4.000000000000004
100
AcDbArc
 50
0.0
 51
90.0
  0
ARC
  5
8C
330
1F
100
AcDbEntity
  8
IGES_LEVEL_0
 62
     7
100
AcDbCircle
 10
28.00329221196868
 20
47.29456546778778
 30
0.0
 40
4.0
100
AcDbArc
 50
270.0
 51
0.0
  0
ARC
  5
8D
330
1F
100
AcDbEntity
  8
IGES_LEVEL_0
 62
     7
100
AcDbCircle
 10
4.003292211968685
 20
47.29456546778778
 30
0.0
 40
4.0
100
AcDbArc
 50
180.0
 51
270.0
  0
ARC
  5
8E
330
1F
100
AcDbEntity
  8
IGES_LEVEL_0
 62
     7
100
AcDbCircle
 10
4.003292211968685
 20
71.29456546778778
 30
0.0
 40
4.000000000000004
100
AcDbArc
 50
90.0
 51
180.0
  0
ARC
  5
8F
330
1F
100
AcDbEntity
  8
IGES_LEVEL_0
 62
     7
100
AcDbCircle
 10
4.003292211968685
 20
71.29456546778778
 30
0.0
 40
3.850000000000001
100
AcDbArc
 50
90.0
 51
180.0
  0
ARC
  5
90
330
1F
100
AcDbEntity
  8
IGES_LEVEL_0
 62
     7
100
AcDbCircle
 10
28.00329221196868
 20
71.29456546778778
 30
0.0
 40
3.85
100
AcDbArc
 50
0.0
 51
90.0
  0
ARC
  5
91
330
1F
100
AcDbEntity
  8
IGES_LEVEL_0
 62
     7
100
AcDbCircle
 10
28.00329221196868
 20
47.29456546778778
 30
0.0
 40
3.85
100
AcDbArc
 50
270.0
 51
0.0
  0
ARC
  5
92
330
1F
100
AcDbEntity
  8
IGES_LEVEL_0
 62
     7
100
AcDbCircle
 10
4.003292211968685
 20
47.29456546778778
 30
0.0
 40
3.850000000000001
100
AcDbArc
 50
180.0
 51
270.0
  0
SPLINE
  5
93
330
1F
100
AcDbEntity
  8
IGES_LEVEL_0
 62
     7
100
AcDbSpline
210
0.0
220
0.0
230
1.0
 70
     8
 71
     3
 72
    15
 73
    11
 74
     0
 42
0.0000000001
 43
0.0000000001
 40
0.0
 40
0.0
 40
0.0
 40
0.0
 40
0.007500327958856
 40
0.04973734057037
 40
0.1339819135933
 40
0.2542967451223
 40
0.4066012484678
 40
0.5866999790452
 40
0.7876301595154001
 40
1.0
 40
1.0
 40
1.0
 40
1.0
 10
25.54920832135868
 20
3.754898344204386
 30
0.0
 10
25.55060219990869
 20
3.754630408827386
 30
0.0
 10
25.55968873153869
 20
3.752374609853386
 30
0.0
 10
25.58160059800868
 20
3.738833245194386
 30
0.0
 10
25.61614928582868
 20
3.707737259247386
 30
0.0
 10
25.65663237396868
 20
3.653505523515386
 30
0.0
 10
25.69624522596869
 20
3.577764838154386
 30
0.0
 10
25.72930602760868
 20
3.482590865306386
 30
0.0
 10
25.75125823764869
 20
3.372761203364386
 30
0.0
 10
25.75634034919868
 20
3.294865442678386
 30
0.0
 10
25.75634034919868
 20
3.254893482824386
 30
0.0
  0
SPLINE
  5
94
330
1F
100
AcDbEntity
  8
IGES_LEVEL_0
 62
     7
100
AcDbSpline
210
0.0
220
0.0
230
1.0
 70
     8
 71
     3
 72
    16
 73
    12
 74
     0
 42
0.0000000001
 43
0.0000000001
 40
0.0
 40
0.0
 40
0.0
 40
0.0
 40
0.09485852838011
 40
0.1925618613347
 40
0.2943677142999
 40
0.4016759461513
 40
0.5148302045552
 40
0.6328085591118
 40
0.7539311667621
 40
0.8767015282292
 40
1.0
 40
1.0
 40
1.0
 40
1.0
 10
25.54923356800869
 20
4.754893482824186
 30
0.0
 10
25.61668899079869
 20
4.754893482824186
 30
0.0
 10
25.75401549599868
 20
4.740908067690986
 30
0.0
 10
25.95499923961868
 20
4.677669322808686
 30
0.0
 10
26.14715990619868
 20
4.571314592175086
 30
0.0
 10
26.32346321396868
 20
4.422748381171786
 30
0.0
 10
26.47668115973869
 20
4.235480175138386
 30
0.0
 10
26.60033605021868
 20
4.016322285852386
 30
0.0
 10
26.69018127990869
 20
3.774107948129386
 30
0.0
 10
26.74432239529869
 20
3.517800161141386
 30
0.0
 10
26.75634034919868
 20
3.342573006048386
 30
0.0
 10
26.75634034919868
 20
3.254893482824386
 30
0.0
  0
LINE
  5
95
330
1F
100
AcDbEntity
  8
IGES_LEVEL_0
 62
     7
100
AcDbLine
 10
15.32880007035269
 20
2.381936757724386
 30
0.0
 11
15.29618524080468
 21
2.379893482824386
 31
0.0
  0
SPLINE
  5
96
330
1F
100
AcDbEntity
  8
IGES_LEVEL_0
 62
     7
100
AcDbSpline
210
0.0
220
0.0
230
1.0
 70
     8
 71
     3
 72
    14
 73
    10
 74
     0
 42
0.0000000001
 43
0.0000000001
 40
0.0
 40
0.0
 40
0.0
 40
0.0
 40
0.155349723925
 40
0.3173146335194
 40
0.4795696381138
 40
0.64015908234
 40
0.7906796594736
 40
0.9290131510489
 40
1.0
 40
1.0
 40
1.0
 40
1.0
 10
15.74447297688869
 20
2.879893482824386
 30
0.0
 10
15.74447297688869
 20
2.843703061696386
 30
0.0
 10
15.73535376777869
 20
2.769496113561386
 30
0.0
 10
15.69566652950168
 20
2.664057839946386
 30
0.0
 10
15.63388984630968
 20
2.568582215942386
 30
0.0
 10
15.55686308211869
 20
2.488753311261386
 30
0.0
 10
15.47083408136868
 20
2.427932924325386
 30
0.0
 10
15.39341780111968
 20
2.394122931323386
 30
0.0
 10
15.34526255755069
 20
2.383958110834386
 30
0.0
 10
15.32880007035269
 20
2.381936757724386
 30
0.0
  0
SPLINE
  5
97
330
1F
100
AcDbEntity
  8
IGES_LEVEL_0
 62
     7
100
AcDbSpline
210
0.0
220
0.0
230
1.0
 70
     8
 71
     3
 72
    13
 73
     9
 74
     0
 42
0.0000000001
 43
0.0000000001
 40
0.0
 40
0.0
 40
0.0
 40
0.0
 40
0.1334218559153
 40
0.2882239021462
 40
0.4606538387951
 40
0.6426270708362
 40
0.8258502552844
 40
1.0
 40
1.0
 40
1.0
 40
1.0
 10
16.71040704409668
 20
3.754891898842386
 30
0.0
 10
16.67769272667968
 20
3.754815585981386
 30
0.0
 10
16.60766562053368
 20
3.768642855090386
 30
0.0
 10
16.50642576813369
 20
3.819570479658386
 30
0.0
 10
16.41009116476668
 20
3.899314173811386
 30
0.0
 10
16.32894320932368
 20
4.003601274535386
 30
0.0
 10
16.27479412802268
 20
4.124938687023386
 30
0.0
 10
16.26211106709368
 20
4.212459540181386
 30
0.0
 10
16.26211106709368
 20
4.254893482824386
 30
0.0
  0
SPLINE
  5
98
330
1F
100
AcDbEntity
  8
IGES_LEVEL_0
 62
     7
100
AcDbSpline
210
0.0
220
0.0
230
1.0
 70
     8
 71
     3
 72
    13
 73
     9
 74
     0
 42
0.0000000001
 43
0.0000000001
 40
0.0
 40
0.0
 40
0.0
 40
0.0
 40
0.1725119351623
 40
0.3558649936853
 40
0.538444175752
 40
0.7112809311498
 40
0.8655744868232
 40
1.0
 40
1.0
 40
1.0
 40
1.0
 10
16.26211106709368
 20
4.254893482824386
 30
0.0
 10
16.26211106709368
 20
4.296928145792387
 30
0.0
 10
16.27461494053368
 20
4.384070728614386
 30
0.0
 10
16.32840117133268
 20
4.505336923997986
 30
0.0
 10
16.40957100011068
 20
4.609972569148986
 30
0.0
 10
16.50593026763269
 20
4.689885994848186
 30
0.0
 10
16.60730768608768
 20
4.741019871292786
 30
0.0
 10
16.67742215572669
 20
4.754968705924086
 30
0.0
 10
16.71039270728168
 20
4.754892203814387
 30
0.0
  0
SPLINE
  5
99
330
1F
100
AcDbEntity
  8
IGES_LEVEL_0
 62
     7
100
AcDbSpline
210
0.0
220
0.0
230
1.0
 70
     8
 71
     3
 72
    14
 73
    10
 74
     0
 42
0.0000000001
 43
0.0000000001
 40
0.0
 40
0.0
 40
0.0
 40
0.0
 40
0.07067104063149
 40
0.2085928400326
 40
0.3593072426851
 40
0.5205185698455001
 40
0.6831126722277
 40
0.8455347772273
 40
1.0
 40
1.0
 40
1.0
 40
1.0
 10
15.32884317091768
 20
3.377844922976386
 30
0.0
 10
15.34523117300269
 20
3.375830231372386
 30
0.0
 10
15.39321619303569
 20
3.365714005153386
 30
0.0
 10
15.47053772785768
 20
3.332019984491386
 30
0.0
 10
15.55668601360469
 20
3.271210153731386
 30
0.0
 10
15.63391730687969
 20
3.191204327697386
 30
0.0
 10
15.69584012999468
 20
3.095432371741386
 30
0.0
 10
15.73542151934069
 20
2.989974245116386
 30
0.0
 10
15.74447297688869
 20
2.915875673141386
 30
0.0
 10
15.74447297688869
 20
2.879893482824386
 30
0.0
  0
LINE
  5
9A
330
1F
100
AcDbEntity
  8
IGES_LEVEL_0
 62
     7
100
AcDbLine
 10
15.29618524080468
 20
3.379893482824386
 30
0.0
 11
15.32884317091768
 21
3.377844922976386
 31
0.0
  0
SPLINE
  5
9B
330
1F
100
AcDbEntity
  8
IGES_LEVEL_0
 62
     7
100
AcDbSpline
210
0.0
220
0.0
230
1.0
 70
     8
 71
     3
 72
    15
 73
    11
 74
     0
 42
0.0000000001
 43
0.0000000001
 40
0.0
 40
0.0
 40
0.0
 40
0.0
 40
0.009210447446499
 40
0.0610777507284
 40
0.1645305886226
 40
0.3122779189942
 40
0.4993087570623
 40
0.7204710718658
 40
0.9672145313237001
 40
1.0
 40
1.0
 40
1.0
 40
1.0
 10
6.457375722621685
 20
3.754898344204386
 30
0.0
 10
6.455981844069685
 20
3.754630408827386
 30
0.0
 10
6.446895312442685
 20
3.752374609853386
 30
0.0
 10
6.424983445974685
 20
3.738833245194386
 30
0.0
 10
6.390434758154685
 20
3.707737259247386
 30
0.0
 10
6.349951670015685
 20
3.653505523515386
 30
0.0
 10
6.310338818009685
 20
3.577764838154386
 30
0.0
 10
6.277278016369685
 20
3.482590865306386
 30
0.0
 10
6.262194550612685
 20
3.407126393073386
 30
0.0
 10
6.256869954949685
 20
3.364571021582386
 30
0.0
 10
6.256287870209685
 20
3.359574775375386
 30
0.0
  0
SPLINE
  5
9C
330
1F
100
AcDbEntity
  8
IGES_LEVEL_0
 62
     7
100
AcDbSpline
210
0.0
220
0.0
230
1.0
 70
     8
 71
     3
 72
    16
 73
    12
 74
     0
 42
0.0000000001
 43
0.0000000001
 40
0.0
 40
0.0
 40
0.0
 40
0.0
 40
0.09485852838011
 40
0.1925618613347
 40
0.2943677142999
 40
0.4016759461513
 40
0.5148302045552
 40
0.6328085591118
 40
0.7539311667621
 40
0.8767015282292
 40
1.0
 40
1.0
 40
1.0
 40
1.0
 10
6.457350475972685
 20
4.754893482824186
 30
0.0
 10
6.389895053186685
 20
4.754893482824186
 30
0.0
 10
6.252568547978685
 20
4.740908067690986
 30
0.0
 10
6.051584804363685
 20
4.677669322808686
 30
0.0
 10
5.859424137778685
 20
4.571314592175086
 30
0.0
 10
5.683120830012685
 20
4.422748381171786
 30
0.0
 10
5.529902884246685
 20
4.235480175138386
 30
0.0
 10
5.406247993767685
 20
4.016322285852386
 30
0.0
 10
5.316402764070685
 20
3.774107948129386
 30
0.0
 10
5.262261648681685
 20
3.517800161141386
 30
0.0
 10
5.250243694785685
 20
3.342573006048386
 30
0.0
 10
5.250243694785685
 20
3.254893482824386
 30
0.0
  0
SPLINE
  5
9D
330
1F
100
AcDbEntity
  8
IGES_LEVEL_0
 62
     7
100
AcDbSpline
210
0.0
220
0.0
230
1.0
 70
     8
 71
     3
 72
    16
 73
    12
 74
     0
 42
0.0000000001
 43
0.0000000001
 40
0.0
 40
0.0
 40
0.0
 40
0.0
 40
0.09485852838011
 40
0.1925618613347
 40
0.2943677142999
 40
0.4016759461513
 40
0.5148302045552
 40
0.6328085591118
 40
0.7539311667621
 40
0.8767015282292
 40
1.0
 40
1.0
 40
1.0
 40
1.0
 10
6.457350475972685
 20
3.379893482824386
 30
0.0
 10
6.389895053186685
 20
3.379893482824386
 30
0.0
 10
6.252568547978685
 20
3.365908067691386
 30
0.0
 10
6.051584804363685
 20
3.302669322808386
 30
0.0
 10
5.859424137778685
 20
3.196314592175386
 30
0.0
 10
5.683120830012685
 20
3.047748381171386
 30
0.0
 10
5.529902884246685
 20
2.860480175138386
 30
0.0
 10
5.406247993767685
 20
2.641322285852386
 30
0.0
 10
5.316402764070685
 20
2.399107948129386
 30
0.0
 10
5.262261648681685
 20
2.142800161141386
 30
0.0
 10
5.250243694785685
 20
1.967573006048386
 30
0.0
 10
5.250243694785685
 20
1.879893482824386
 30
0.0
  0
SPLINE
  5
9E
330
1F
100
AcDbEntity
  8
IGES_LEVEL_0
 62
     7
100
AcDbSpline
210
0.0
220
0.0
230
1.0
 70
     8
 71
     3
 72
    15
 73
    11
 74
     0
 42
0.0000000001
 43
0.0000000001
 40
0.0
 40
0.0
 40
0.0
 40
0.0
 40
0.007521231690446
 40
0.04983197446217
 40
0.1341243882672
 40
0.2544452463499
 40
0.406737472106
 40
0.5868040625655
 40
0.7876867430568
 40
1.0
 40
1.0
 40
1.0
 40
1.0
 10
6.457375659300685
 20
2.379898336171386
 30
0.0
 10
6.455977925522685
 20
2.379629427014386
 30
0.0
 10
6.446874624319685
 20
2.377367228709386
 30
0.0
 10
6.424943656729685
 20
2.363803994738386
 30
0.0
 10
6.390386069211685
 20
2.332682538048386
 30
0.0
 10
6.349909488163685
 20
2.278436474636386
 30
0.0
 10
6.310310760793685
 20
2.202696809887386
 30
0.0
 10
6.277264533528685
 20
2.107536364669386
 30
0.0
 10
6.255323185387685
 20
1.997730906000386
 30
0.0
 10
6.250243694785685
 20
1.919854802230386
 30
0.0
 10
6.250243694785685
 20
1.879893482824386
 30
0.0
  0
ARC
  5
9F
330
1F
100
AcDbEntity
  8
IGES_LEVEL_0
 62
     7
100
AcDbCircle
 10
25.54877553663164
 20
2.372816097587005
 30
0.0
 40
1.007077489396572
100
AcDbArc
 50
78.4687396246574
 51
89.97394116543146
  0
SPLINE
  5
A0
330
1F
100
AcDbEntity
  8
IGES_LEVEL_0
 62
     7
100
AcDbSpline
210
0.0
220
0.0
230
1.0
 70
     8
 71
     3
 72
    15
 73
    11
 74
     0
 42
0.0000000001
 43
0.0000000001
 40
0.0
 40
0.0
 40
0.0
 40
0.0
 40
0.007521231690454
 40
0.04983197446218
 40
0.1341243882672
 40
0.2544452463499
 40
0.406737472106
 40
0.5868040625655
 40
0.7876867430568
 40
1.0
 40
1.0
 40
1.0
 40
1.0
 10
25.54920838467869
 20
2.379898336171386
 30
0.0
 10
25.55060611845869
 20
2.379629427014386
 30
0.0
 10
25.55970941965868
 20
2.377367228709386
 30
0.0
 10
25.58164038724868
 20
2.363803994738386
 30
0.0
 10
25.61619797476869
 20
2.332682538048386
 30
0.0
 10
25.65667455581868
 20
2.278436474636386
 30
0.0
 10
25.69627328318869
 20
2.202696809887386
 30
0.0
 10
25.72931951044868
 20
2.107536364669386
 30
0.0
 10
25.75126085859868
 20
1.997730906000386
 30
0.0
 10
25.75634034919868
 20
1.919854802230386
 30
0.0
 10
25.75634034919868
 20
1.879893482824386
 30
0.0
  0
SPLINE
  5
A1
330
1F
100
AcDbEntity
  8
IGES_LEVEL_0
 62
     7
100
AcDbSpline
210
0.0
220
0.0
230
1.0
 70
     8
 71
     3
 72
     9
 73
     5
 74
     0
 42
0.0000000001
 43
0.0000000001
 40
0.0
 40
0.0
 40
0.0
 40
0.0
 40
0.2511979971628
 40
1.0
 40
1.0
 40
1.0
 40
1.0
 10
26.00634034919868
 20
0.2761434828243859
 30
0.0
 10
26.00634034919868
 20
0.2503671450333859
 30
0.0
 10
25.95250065717869
 20
0.1703549778793859
 30
0.0
 10
25.86180134849868
 20
0.1261434828243856
 30
0.0
 10
25.79384034919869
 20
0.1261434828243856
 30
0.0
  0
SPLINE
  5
A2
330
1F
100
AcDbEntity
  8
IGES_LEVEL_0
 62
     7
100
AcDbSpline
210
0.0
220
0.0
230
1.0
 70
     8
 71
     3
 72
     9
 73
     5
 74
     0
 42
0.0000000001
 43
0.0000000001
 40
0.0
 40
0.0
 40
0.0
 40
0.0
 40
0.2511979971628
 40
1.0
 40
1.0
 40
1.0
 40
1.0
 10
26.50634034919868
 20
0.2761434828243859
 30
0.0
 10
26.50634034919868
 20
0.2503671450333859
 30
0.0
 10
26.56018004121868
 20
0.1703549778793859
 30
0.0
 10
26.65087934989868
 20
0.1261434828243856
 30
0.0
 10
26.71884034919868
 20
0.1261434828243856
 30
0.0
  0
SPLINE
  5
A3
330
1F
100
AcDbEntity
  8
IGES_LEVEL_0
 62
     7
100
AcDbSpline
210
0.0
220
0.0
230
1.0
 70
     8
 71
     3
 72
     9
 73
     5
 74
     0
 42
0.0000000001
 43
0.0000000001
 40
0.0
 40
0.0
 40
0.0
 40
0.0
 40
0.2511979971628
 40
1.0
 40
1.0
 40
1.0
 40
1.0
 10
5.500243694785685
 20
0.2761434828243859
 30
0.0
 10
5.500243694785685
 20
0.2503671450333859
 30
0.0
 10
5.446404002765685
 20
0.1703549778793859
 30
0.0
 10
5.355704694085685
 20
0.1261434828243856
 30
0.0
 10
5.287743694785685
 20
0.1261434828243856
 30
0.0
  0
SPLINE
  5
A4
330
1F
100
AcDbEntity
  8
IGES_LEVEL_0
 62
     7
100
AcDbSpline
210
0.0
220
0.0
230
1.0
 70
     8
 71
     3
 72
     9
 73
     5
 74
     0
 42
0.0000000001
 43
0.0000000001
 40
0.0
 40
0.0
 40
0.0
 40
0.0
 40
0.2511979971628
 40
1.0
 40
1.0
 40
1.0
 40
1.0
 10
6.000243694785685
 20
0.2761434828243859
 30
0.0
 10
6.000243694785685
 20
0.2503671450333859
 30
0.0
 10
6.054083386806685
 20
0.1703549778793859
 30
0.0
 10
6.144782695486684
 20
0.1261434828243856
 30
0.0
 10
6.212743694785685
 20
0.1261434828243856
 30
0.0
  0
ARC
  5
A5
330
1F
100
AcDbEntity
  8
IGES_LEVEL_0
 62
     7
100
AcDbCircle
 10
0.5470422119686853
 20
29.12989308153038
 30
0.0
 40
0.5437500000000005
100
AcDbArc
 50
136.3971810272964
 51
223.6028189727036
  0
ARC
  5
A6
330
1F
100
AcDbEntity
  8
IGES_LEVEL_0
 62
     7
100
AcDbCircle
 10
31.45954221196868
 20
29.12989308153038
 30
0.0
 40
0.5437500000000005
100
AcDbArc
 50
316.3971810272964
 51
43.60281897270357
  0
ARC
  5
A7
330
1F
100
AcDbEntity
  8
IGES_LEVEL_0
 62
     7
100
AcDbCircle
 10
11.83329221196869
 20
28.66639308153038
 30
0.0
 40
0.255490859147638
100
AcDbArc
 50
295.2920523509823
 51
328.8920187863548
  0
ARC
  5
A8
330
1F
100
AcDbEntity
  8
IGES_LEVEL_0
 62
     7
100
AcDbCircle
 10
20.17329221196868
 20
28.66639308153038
 30
0.0
 40
0.2554908591476381
100
AcDbArc
 50
211.1079812136451
 51
244.7079476490177
  0
ARC
  5
A9
330
1F
100
AcDbEntity
  8
IGES_LEVEL_0
 62
     7
100
AcDbCircle
 10
16.00329221196868
 20
28.66639308153038
 30
0.0
 40
0.2554908591476379
100
AcDbArc
 50
211.1079812136451
 51
244.7079476490177
  0
ARC
  5
AA
330
1F
100
AcDbEntity
  8
IGES_LEVEL_0
 62
     7
100
AcDbCircle
 10
16.00329221196868
 20
28.66639308153038
 30
0.0
 40
0.2554908591476381
100
AcDbArc
 50
295.2920523509823
 51
328.8920187863548
  0
ARC
  5
AB
330
1F
100
AcDbEntity
  8
IGES_LEVEL_0
 62
     7
100
AcDbCircle
 10
11.71329221196868
 20
28.66639308153038
 30
0.0
 40
0.255490859147638
100
AcDbArc
 50
211.1079812136451
 51
244.7079476490177
  0
ARC
  5
AC
330
1F
100
AcDbEntity
  8
IGES_LEVEL_0
 62
     7
100
AcDbCircle
 10
20.29329221196868
 20
28.66639308153038
 30
0.0
 40
0.2554908591476381
100
AcDbArc
 50
295.2920523509823
 51
328.8920187863548
  0
LINE
  5
AD
330
1F
100
AcDbEntity
  8
IGES_LEVEL_0
 62
     7
100
AcDbLine
 10
0.1532922119686845
 20
29.50489308153038
 30
0.0
 11
31.85329221196868
 21
29.50489308153038
 31
0.0
  0
LINE
  5
AE
330
1F
100
AcDbEntity
  8
IGES_LEVEL_0
 62
     7
100
AcDbLine
 10
0.1532922119686845
 20
28.75489308153038
 30
0.0
 11
31.85329221196868
 21
28.75489308153038
 31
0.0
  0
LINE
  5
AF
330
1F
100
AcDbEntity
  8
IGES_LEVEL_0
 62
     7
100
AcDbLine
 10
22.00329221196868
 20
28.56739308153038
 30
0.0
 11
10.00329221196869
 21
28.56739308153038
 31
0.0
  0
LINE
  5
B0
330
1F
100
AcDbEntity
  8
IGES_LEVEL_0
 62
     7
100
AcDbLine
 10
11.94244621196869
 20
28.43539308153039
 30
0.0
 11
11.60413821196869
 21
28.43539308153039
 31
0.0
  0
LINE
  5
B1
330
1F
100
AcDbEntity
  8
IGES_LEVEL_0
 62
     7
100
AcDbLine
 10
16.11244621196869
 20
28.43539308153039
 30
0.0
 11
15.89413821196869
 21
28.43539308153039
 31
0.0
  0
LINE
  5
B2
330
1F
100
AcDbEntity
  8
IGES_LEVEL_0
 62
     7
100
AcDbLine
 10
20.40244621196868
 20
28.43539308153039
 30
0.0
 11
20.06413821196868
 21
28.43539308153039
 31
0.0
  0
LINE
  5
B3
330
1F
100
AcDbEntity
  8
IGES_LEVEL_0
 62
     7
100
AcDbLine
 10
26.81884021196868
 20
0.1261430815303858
 30
0.0
 11
26.81884021196868
 21
0.0011430815303858
 31
0.0
  0
LINE
  5
B4
330
1F
100
AcDbEntity
  8
IGES_LEVEL_0
 62
     7
100
AcDbLine
 10
26.75634021196868
 20
3.254893081530386
 30
0.0
 11
26.75634021196868
 21
0.317393081530386
 31
0.0
  0
LINE
  5
B5
330
1F
100
AcDbEntity
  8
IGES_LEVEL_0
 62
     7
100
AcDbLine
 10
26.50634021196868
 20
0.2861430815303859
 30
0.0
 11
26.50634021196868
 21
0.2761430815303861
 31
0.0
  0
LINE
  5
B6
330
1F
100
AcDbEntity
  8
IGES_LEVEL_0
 62
     7
100
AcDbLine
 10
26.38134021196868
 20
0.3173930815303859
 30
0.0
 11
26.38134021196868
 21
0.2861430815303859
 31
0.0
  0
LINE
  5
B7
330
1F
100
AcDbEntity
  8
IGES_LEVEL_0
 62
     7
100
AcDbLine
 10
26.13134021196868
 20
0.3173930815303859
 30
0.0
 11
26.13134021196868
 21
0.2861430815303859
 31
0.0
  0
LINE
  5
B8
330
1F
100
AcDbEntity
  8
IGES_LEVEL_0
 62
     7
100
AcDbLine
 10
26.00634021196868
 20
0.2861430815303859
 30
0.0
 11
26.00634021196868
 21
0.2761430815303861
 31
0.0
  0
LINE
  5
B9
330
1F
100
AcDbEntity
  8
IGES_LEVEL_0
 62
     7
100
AcDbLine
 10
25.75634021196868
 20
3.254893081530386
 30
0.0
 11
25.75634021196868
 21
0.317393081530386
 31
0.0
  0
LINE
  5
BA
330
1F
100
AcDbEntity
  8
IGES_LEVEL_0
 62
     7
100
AcDbLine
 10
25.69384021196868
 20
0.1261430815303858
 30
0.0
 11
25.69384021196868
 21
0.0011430815303858
 31
0.0
  0
LINE
  5
BB
330
1F
100
AcDbEntity
  8
IGES_LEVEL_0
 62
     7
100
AcDbLine
 10
22.00329221196868
 20
28.75489308153038
 30
0.0
 11
22.00329221196868
 21
28.56739308153038
 31
0.0
  0
LINE
  5
BC
330
1F
100
AcDbEntity
  8
IGES_LEVEL_0
 62
     7
100
AcDbLine
 10
20.51204221196868
 20
28.56739308153038
 30
0.0
 11
20.51204221196868
 21
28.53439308153039
 31
0.0
  0
LINE
  5
BD
330
1F
100
AcDbEntity
  8
IGES_LEVEL_0
 62
     7
100
AcDbLine
 10
19.95454221196868
 20
28.56739308153038
 30
0.0
 11
19.95454221196868
 21
28.53439308153039
 31
0.0
  0
LINE
  5
BE
330
1F
100
AcDbEntity
  8
IGES_LEVEL_0
 62
     7
100
AcDbLine
 10
17.00329221196868
 20
3.754893081530386
 30
0.0
 11
17.00329221196868
 21
1.879893081530386
 31
0.0
  0
LINE
  5
BF
330
1F
100
AcDbEntity
  8
IGES_LEVEL_0
 62
     7
100
AcDbLine
 10
17.00329221196868
 20
28.56739308153038
 30
0.0
 11
17.00329221196868
 21
4.754893081530387
 31
0.0
  0
LINE
  5
C0
330
1F
100
AcDbEntity
  8
IGES_LEVEL_0
 62
     7
100
AcDbLine
 10
16.22204221196868
 20
28.56739308153038
 30
0.0
 11
16.22204221196868
 21
28.53439308153039
 31
0.0
  0
LINE
  5
C1
330
1F
100
AcDbEntity
  8
IGES_LEVEL_0
 62
     7
100
AcDbLine
 10
15.78454221196869
 20
28.56739308153038
 30
0.0
 11
15.78454221196869
 21
28.53439308153039
 31
0.0
  0
LINE
  5
C2
330
1F
100
AcDbEntity
  8
IGES_LEVEL_0
 62
     7
100
AcDbLine
 10
15.00329221196869
 20
2.379893081530386
 30
0.0
 11
15.00329221196869
 21
1.879893081530386
 31
0.0
  0
LINE
  5
C3
330
1F
100
AcDbEntity
  8
IGES_LEVEL_0
 62
     7
100
AcDbLine
 10
15.00329221196869
 20
28.56739308153038
 30
0.0
 11
15.00329221196869
 21
3.379893081530387
 31
0.0
  0
LINE
  5
C4
330
1F
100
AcDbEntity
  8
IGES_LEVEL_0
 62
     7
100
AcDbLine
 10
12.05204221196869
 20
28.56739308153038
 30
0.0
 11
12.05204221196869
 21
28.53439308153039
 31
0.0
  0
LINE
  5
C5
330
1F
100
AcDbEntity
  8
IGES_LEVEL_0
 62
     7
100
AcDbLine
 10
11.49454221196868
 20
28.56739308153038
 30
0.0
 11
11.49454221196868
 21
28.53439308153039
 31
0.0
  0
LINE
  5
C6
330
1F
100
AcDbEntity
  8
IGES_LEVEL_0
 62
     7
100
AcDbLine
 10
10.00329221196869
 20
28.75489308153038
 30
0.0
 11
10.00329221196869
 21
28.56739308153038
 31
0.0
  0
LINE
  5
C7
330
1F
100
AcDbEntity
  8
IGES_LEVEL_0
 62
     7
100
AcDbLine
 10
6.312743211968685
 20
0.1261430815303858
 30
0.0
 11
6.312743211968685
 21
0.0011430815303858
 31
0.0
  0
LINE
  5
C8
330
1F
100
AcDbEntity
  8
IGES_LEVEL_0
 62
     7
100
AcDbLine
 10
6.250243211968685
 20
1.879893081530386
 30
0.0
 11
6.250243211968685
 21
0.317393081530386
 31
0.0
  0
LINE
  5
C9
330
1F
100
AcDbEntity
  8
IGES_LEVEL_0
 62
     7
100
AcDbLine
 10
16.71039321196868
 20
4.754893081530386
 30
0.0
 11
25.54923321196868
 21
4.754893081530386
 31
0.0
  0
LINE
  5
CA
330
1F
100
AcDbEntity
  8
IGES_LEVEL_0
 62
     7
100
AcDbLine
 10
15.00329221196869
 20
4.754893081530386
 30
0.0
 11
6.457350211968686
 21
4.754893081530386
 31
0.0
  0
LINE
  5
CB
330
1F
100
AcDbEntity
  8
IGES_LEVEL_0
 62
     7
100
AcDbLine
 10
17.00329221196868
 20
3.379893081530386
 30
0.0
 11
25.54923321196868
 21
3.379893081530386
 31
0.0
  0
LINE
  5
CC
330
1F
100
AcDbEntity
  8
IGES_LEVEL_0
 62
     7
100
AcDbLine
 10
15.29618521196869
 20
3.379893081530386
 30
0.0
 11
6.457350211968686
 21
3.379893081530386
 31
0.0
  0
LINE
  5
CD
330
1F
100
AcDbEntity
  8
IGES_LEVEL_0
 62
     7
100
AcDbLine
 10
6.000243211968685
 20
0.2861430815303859
 30
0.0
 11
6.000243211968685
 21
0.2761430815303861
 31
0.0
  0
LINE
  5
CE
330
1F
100
AcDbEntity
  8
IGES_LEVEL_0
 62
     7
100
AcDbLine
 10
5.875243211968685
 20
0.3173930815303859
 30
0.0
 11
5.875243211968685
 21
0.2861430815303859
 31
0.0
  0
LINE
  5
CF
330
1F
100
AcDbEntity
  8
IGES_LEVEL_0
 62
     7
100
AcDbLine
 10
5.625243211968685
 20
0.3173930815303859
 30
0.0
 11
5.625243211968685
 21
0.2861430815303859
 31
0.0
  0
LINE
  5
D0
330
1F
100
AcDbEntity
  8
IGES_LEVEL_0
 62
     7
100
AcDbLine
 10
5.500243211968685
 20
0.2861430815303859
 30
0.0
 11
5.500243211968685
 21
0.2761430815303861
 31
0.0
  0
LINE
  5
D1
330
1F
100
AcDbEntity
  8
IGES_LEVEL_0
 62
     7
100
AcDbLine
 10
5.250243211968685
 20
3.254893081530386
 30
0.0
 11
5.250243211968685
 21
0.317393081530386
 31
0.0
  0
LINE
  5
D2
330
1F
100
AcDbEntity
  8
IGES_LEVEL_0
 62
     7
100
AcDbLine
 10
5.187743211968685
 20
0.1261430815303858
 30
0.0
 11
5.187743211968685
 21
0.0011430815303858
 31
0.0
  0
LINE
  5
D3
330
1F
100
AcDbEntity
  8
IGES_LEVEL_0
 62
     7
100
AcDbLine
 10
17.00328221196869
 20
1.879893081530386
 30
0.0
 11
15.00330221196869
 21
1.879893081530386
 31
0.0
  0
LINE
  5
D4
330
1F
100
AcDbEntity
  8
IGES_LEVEL_0
 62
     7
100
AcDbLine
 10
6.250243211968685
 20
0.3798930815303859
 30
0.0
 11
5.250243211968685
 21
0.3798930815303859
 31
0.0
  0
LINE
  5
D5
330
1F
100
AcDbEntity
  8
IGES_LEVEL_0
 62
     7
100
AcDbLine
 10
26.75634021196868
 20
0.3798930815303859
 30
0.0
 11
25.75634021196868
 21
0.3798930815303859
 31
0.0
  0
LINE
  5
D6
330
1F
100
AcDbEntity
  8
IGES_LEVEL_0
 62
     7
100
AcDbLine
 10
6.250243211968685
 20
0.3173930815303859
 30
0.0
 11
5.250243211968685
 21
0.3173930815303859
 31
0.0
  0
LINE
  5
D7
330
1F
100
AcDbEntity
  8
IGES_LEVEL_0
 62
     7
100
AcDbLine
 10
26.75634021196868
 20
0.3173930815303859
 30
0.0
 11
25.75634021196868
 21
0.3173930815303859
 31
0.0
  0
LINE
  5
D8
330
1F
100
AcDbEntity
  8
IGES_LEVEL_0
 62
     7
100
AcDbLine
 10
6.000243211968685
 20
0.2861430815303859
 30
0.0
 11
5.500243211968685
 21
0.2861430815303859
 31
0.0
  0
LINE
  5
D9
330
1F
100
AcDbEntity
  8
IGES_LEVEL_0
 62
     7
100
AcDbLine
 10
26.50634021196868
 20
0.2861430815303859
 30
0.0
 11
26.00634021196868
 21
0.2861430815303859
 31
0.0
  0
LINE
  5
DA
330
1F
100
AcDbEntity
  8
IGES_LEVEL_0
 62
     7
100
AcDbLine
 10
6.312743211968685
 20
0.1261430815303858
 30
0.0
 11
5.187743211968685
 21
0.1261430815303858
 31
0.0
  0
LINE
  5
DB
330
1F
100
AcDbEntity
  8
IGES_LEVEL_0
 62
     7
100
AcDbLine
 10
26.81884021196868
 20
0.1261430815303858
 30
0.0
 11
25.69384021196868
 21
0.1261430815303858
 31
0.0
  0
LINE
  5
DC
330
1F
100
AcDbEntity
  8
IGES_LEVEL_0
 62
     7
100
AcDbLine
 10
6.312743211968685
 20
0.0011430815303858
 30
0.0
 11
5.187743211968685
 21
0.0011430815303858
 31
0.0
  0
LINE
  5
DD
330
1F
100
AcDbEntity
  8
IGES_LEVEL_0
 62
     7
100
AcDbLine
 10
26.81884021196868
 20
0.0011430815303858
 30
0.0
 11
25.69384021196868
 21
0.0011430815303858
 31
0.0
  0
ENDSEC
  0
SECTION
  2
OBJECTS
  0
DICTIONARY
  5
C
330
0
100
AcDbDictionary
  3
ACAD_GROUP
350
D
  3
ACAD_LAYOUT
350
1A
  3
ACAD_MLINESTYLE
350
17
  3
ACAD_PLOTSETTINGS
350
19
  3
ACDBHEADERROUNDTRIPXREC
350
DE
  0
DICTIONARY
  5
FE
330
29
100
AcDbDictionary
280
     1
  3
ACAD_XREC_ROUNDTRIP
360
FF
  0
DICTIONARY
  5
D
102
{ACAD_REACTORS
330
C
102
}
330
C
100
AcDbDictionary
  0
DICTIONARY
  5
1A
102
{ACAD_REACTORS
330
C
102
}
330
C
100
AcDbDictionary
  0
DICTIONARY
  5
17
102
{ACAD_REACTORS
330
C
102
}
330
C
100
AcDbDictionary
  3
STANDARD
350
18
  0
DICTIONARY
  5
19
102
{ACAD_REACTORS
330
C
102
}
330
C
100
AcDbDictionary
  0
DICTIONARY
  5
DE
102
{ACAD_REACTORS
330
C
102
}
330
C
100
AcDbDictionary
  3
CEPSNTYPE
350
E7
  3
DIMSTYLEDATA
350
FD
  3
FINGERPRINTGUID
350
E8
  3
HYPERLINKBASE
350
E1
  3
INSUNITS
350
E6
  3
LAYOUTDICT
350
E3
  3
LWETCUNION
350
E5
  3
PLOTSETDICT
350
E4
  3
PSVPSCALE
350
EA
  3
PUCSBASE
350
ED
  3
PUCSORGBACK
350
F3
  3
PUCSORGBOTTOM
350
EF
  3
PUCSORGFRONT
350
F2
  3
PUCSORGLEFT
350
F0
  3
PUCSORGRIGHT
350
F1
  3
PUCSORGTOP
350
EE
  3
PUCSORTHOREF
350
EB
  3
PUCSORTHOVIEW
350
EC
  3
STYLESHEET
350
E2
  3
TSTACKALIGN
350
DF
  3
TSTACKSIZE
350
E0
  3
UCSBASE
350
F6
  3
UCSORGBACK
350
FC
  3
UCSORGBOTTOM
350
F8
  3
UCSORGFRONT
350
FB
  3
UCSORGLEFT
350
F9
  3
UCSORGRIGHT
350
FA
  3
UCSORGTOP
350
F7
  3
UCSORTHOREF
350
F4
  3
UCSORTHOVIEW
350
F5
  3
VERSIONGUID
350
E9
  0
XRECORD
  5
FF
102
{ACAD_REACTORS
330
FE
102
}
330
FE
100
AcDbXrecord
102
UCS
 74
     0
 71
     1
 10
0.0
 20
0.0
 30
0.0
 10
1.0
 20
0.0
 30
0.0
 10
0.0
 20
1.0
 30
0.0
146
0.0
 79
     0
102
VIEW
281
     0
  0
MLINESTYLE
  5
18
102
{ACAD_REACTORS
330
17
102
}
330
17
100
AcDbMlineStyle
  2
Standard
 70
     0
  3

 62
   256
 51
90.0
 52
90.0
 71
     2
 49
0.5
 62
   256
  6
BYLAYER
 49
-0.5
 62
   256
  6
BYLAYER
  0
XRECORD
  5
E7
102
{ACAD_REACTORS
330
DE
102
}
330
DE
100
AcDbXrecord
 90
        0
  0
XRECORD
  5
FD
102
{ACAD_REACTORS
330
DE
102
}
330
DE
100
AcDbXrecord
1000
DSTYLE
1002
{
1070
   340
340
11
1002
}
  0
XRECORD
  5
E8
102
{ACAD_REACTORS
330
DE
102
}
330
DE
100
AcDbXrecord
  1
{FAEB1C30-E019-11D5-929B-00C0DF256EC4}
  0
XRECORD
  5
E1
102
{ACAD_REACTORS
330
DE
102
}
330
DE
100
AcDbXrecord
  1

  0
XRECORD
  5
E6
102
{ACAD_REACTORS
330
DE
102
}
330
DE
100
AcDbXrecord
 90
        1
  0
XRECORD
  5
E3
102
{ACAD_REACTORS
330
DE
102
}
330
DE
100
AcDbXrecord
340
1A
  0
XRECORD
  5
E5
102
{ACAD_REACTORS
330
DE
102
}
330
DE
100
AcDbXrecord
 90
     2560
  0
XRECORD
  5
E4
102
{ACAD_REACTORS
330
DE
102
}
330
DE
100
AcDbXrecord
340
19
  0
XRECORD
  5
EA
102
{ACAD_REACTORS
330
DE
102
}
330
DE
100
AcDbXrecord
 40
0.0
  0
XRECORD
  5
ED
102
{ACAD_REACTORS
330
DE
102
}
330
DE
100
AcDbXrecord
340
0
  0
XRECORD
  5
F3
102
{ACAD_REACTORS
330
DE
102
}
330
DE
100
AcDbXrecord
 10
0.0
 20
0.0
 30
0.0
  0
XRECORD
  5
EF
102
{ACAD_REACTORS
330
DE
102
}
330
DE
100
AcDbXrecord
 10
0.0
 20
0.0
 30
0.0
  0
XRECORD
  5
F2
102
{ACAD_REACTORS
330
DE
102
}
330
DE
100
AcDbXrecord
 10
0.0
 20
0.0
 30
0.0
  0
XRECORD
  5
F0
102
{ACAD_REACTORS
330
DE
102
}
330
DE
100
AcDbXrecord
 10
0.0
 20
0.0
 30
0.0
  0
XRECORD
  5
F1
102
{ACAD_REACTORS
330
DE
102
}
330
DE
100
AcDbXrecord
 10
0.0
 20
0.0
 30
0.0
  0
XRECORD
  5
EE
102
{ACAD_REACTORS
330
DE
102
}
330
DE
100
AcDbXrecord
 10
0.0
 20
0.0
 30
0.0
  0
XRECORD
  5
EB
102
{ACAD_REACTORS
330
DE
102
}
330
DE
100
AcDbXrecord
340
0
  0
XRECORD
  5
EC
102
{ACAD_REACTORS
330
DE
102
}
330
DE
100
AcDbXrecord
 70
     0
  0
XRECORD
  5
E2
102
{ACAD_REACTORS
330
DE
102
}
330
DE
100
AcDbXrecord
  1

  0
XRECORD
  5
DF
102
{ACAD_REACTORS
330
DE
102
}
330
DE
100
AcDbXrecord
 90
        1
  0
XRECORD
  5
E0
102
{ACAD_REACTORS
330
DE
102
}
330
DE
100
AcDbXrecord
 90
       70
  0
XRECORD
  5
F6
102
{ACAD_REACTORS
330
DE
102
}
330
DE
100
AcDbXrecord
340
0
  0
XRECORD
  5
FC
102
{ACAD_REACTORS
330
DE
102
}
330
DE
100
AcDbXrecord
 10
0.0
 20
0.0
 30
0.0
  0
XRECORD
  5
F8
102
{ACAD_REACTORS
330
DE
102
}
330
DE
100
AcDbXrecord
 10
0.0
 20
0.0
 30
0.0
  0
XRECORD
  5
FB
102
{ACAD_REACTORS
330
DE
102
}
330
DE
100
AcDbXrecord
 10
0.0
 20
0.0
 30
0.0
  0
XRECORD
  5
F9
102
{ACAD_REACTORS
330
DE
102
}
330
DE
100
AcDbXrecord
 10
0.0
 20
0.0
 30
0.0
  0
XRECORD
  5
FA
102
{ACAD_REACTORS
330
DE
102
}
330
DE
100
AcDbXrecord
 10
0.0
 20
0.0
 30
0.0
  0
XRECORD
  5
F7
102
{ACAD_REACTORS
330
DE
102
}
330
DE
100
AcDbXrecord
 10
0.0
 20
0.0
 30
0.0
  0
XRECORD
  5
F4
102
{ACAD_REACTORS
330
DE
102
}
330
DE
100
AcDbXrecord
340
0
  0
XRECORD
  5
F5
102
{ACAD_REACTORS
330
DE
102
}
330
DE
100
AcDbXrecord
 70
     0
  0
XRECORD
  5
E9
102
{ACAD_REACTORS
330
DE
102
}
330
DE
100
AcDbXrecord
  1
{FAEB1C32-E019-11D5-929B-00C0DF256EC4}
  0
ENDSEC
  0
EOF
