  0
SECTION
  2
HEADER
  9
$ACADVER
  1
AC1018
  9
$ACADMAINTVER
 70
     0
  9
$DWGCODEPAGE
  3
ANSI_1252
  9
$INSBASE
 10
0.0
 20
0.0
 30
0.0
  9
$EXTMIN
 10
-18.25018705078082
 20
-0.0000000000000018
 30
0.0
  9
$EXTMAX
 10
50.88628097125557
 20
48.750047445007
 30
0.0
  9
$LIMMIN
 10
0.0
 20
0.0
  9
$LIMMAX
 10
12.0
 20
9.0
  9
$ORTHOMODE
 70
     0
  9
$REGENMODE
 70
     1
  9
$FILLMODE
 70
     1
  9
$QTEXTMODE
 70
     0
  9
$MIRRTEXT
 70
     1
  9
$LTSCALE
 40
0.0393700787401575
  9
$ATTMODE
 70
     1
  9
$TEXTSIZE
 40
0.2
  9
$TRACEWID
 40
0.05
  9
$TEXTSTYLE
  7
Standard
  9
$CLAYER
  8
DEFAULT
  9
$CELTYPE
  6
ByLayer
  9
$CECOLOR
 62
   256
  9
$CELTSCALE
 40
1.0
  9
$DISPSILH
 70
     0
  9
$DIMSCALE
 40
1.0
  9
$DIMASZ
 40
0.18
  9
$DIMEXO
 40
0.0625
  9
$DIMDLI
 40
0.38
  9
$DIMRND
 40
0.0
  9
$DIMDLE
 40
0.0
  9
$DIMEXE
 40
0.18
  9
$DIMTP
 40
0.0
  9
$DIMTM
 40
0.0
  9
$DIMTXT
 40
0.18
  9
$DIMCEN
 40
0.09
  9
$DIMTSZ
 40
0.0
  9
$DIMTOL
 70
     0
  9
$DIMLIM
 70
     0
  9
$DIMTIH
 70
     1
  9
$DIMTOH
 70
     1
  9
$DIMSE1
 70
     0
  9
$DIMSE2
 70
     0
  9
$DIMTAD
 70
     0
  9
$DIMZIN
 70
     0
  9
$DIMBLK
  1

  9
$DIMASO
 70
     1
  9
$DIMSHO
 70
     1
  9
$DIMPOST
  1

  9
$DIMAPOST
  1

  9
$DIMALT
 70
     0
  9
$DIMALTD
 70
     2
  9
$DIMALTF
 40
25.4
  9
$DIMLFAC
 40
1.0
  9
$DIMTOFL
 70
     0
  9
$DIMTVP
 40
0.0
  9
$DIMTIX
 70
     0
  9
$DIMSOXD
 70
     0
  9
$DIMSAH
 70
     0
  9
$DIMBLK1
  1

  9
$DIMBLK2
  1

  9
$DIMSTYLE
  2
Standard
  9
$DIMCLRD
 70
     0
  9
$DIMCLRE
 70
     0
  9
$DIMCLRT
 70
     0
  9
$DIMTFAC
 40
1.0
  9
$DIMGAP
 40
0.09
  9
$DIMJUST
 70
     0
  9
$DIMSD1
 70
     0
  9
$DIMSD2
 70
     0
  9
$DIMTOLJ
 70
     1
  9
$DIMTZIN
 70
     0
  9
$DIMALTZ
 70
     0
  9
$DIMALTTZ
 70
     0
  9
$DIMUPT
 70
     0
  9
$DIMDEC
 70
     4
  9
$DIMTDEC
 70
     4
  9
$DIMALTU
 70
     2
  9
$DIMALTTD
 70
     2
  9
$DIMTXSTY
  7
Standard
  9
$DIMAUNIT
 70
     0
  9
$DIMADEC
 70
     0
  9
$DIMALTRND
 40
0.0
  9
$DIMAZIN
 70
     0
  9
$DIMDSEP
 70
    46
  9
$DIMATFIT
 70
     3
  9
$DIMFRAC
 70
     0
  9
$DIMLDRBLK
  1

  9
$DIMLUNIT
 70
     2
  9
$DIMLWD
 70
    -2
  9
$DIMLWE
 70
    -2
  9
$DIMTMOVE
 70
     2
  9
$LUNITS
 70
     2
  9
$LUPREC
 70
     3
  9
$SKETCHINC
 40
0.1
  9
$FILLETRAD
 40
0.5
  9
$AUNITS
 70
     0
  9
$AUPREC
 70
     0
  9
$MENU
  1
.
  9
$ELEVATION
 40
0.0
  9
$PELEVATION
 40
0.0
  9
$THICKNESS
 40
0.0
  9
$LIMCHECK
 70
     0
  9
$CHAMFERA
 40
0.5
  9
$CHAMFERB
 40
0.5
  9
$CHAMFERC
 40
1.0
  9
$CHAMFERD
 40
0.0
  9
$SKPOLY
 70
     0
  9
$TDCREATE
 40
2456045.39305588
  9
$TDUCREATE
 40
2456045.559722546
  9
$TDUPDATE
 40
2456045.393055891
  9
$TDUUPDATE
 40
2456045.559722558
  9
$TDINDWG
 40
0.0000000116
  9
$TDUSRTIMER
 40
0.0000000116
  9
$USRTIMER
 70
     1
  9
$ANGBASE
 50
0.0
  9
$ANGDIR
 70
     0
  9
$PDMODE
 70
     0
  9
$PDSIZE
 40
0.0
  9
$PLINEWID
 40
0.0
  9
$SPLFRAME
 70
     0
  9
$SPLINETYPE
 70
     6
  9
$SPLINESEGS
 70
     8
  9
$HANDSEED
  5
4F
  9
$SURFTAB1
 70
     6
  9
$SURFTAB2
 70
     6
  9
$SURFTYPE
 70
     6
  9
$SURFU
 70
     6
  9
$SURFV
 70
     6
  9
$UCSBASE
  2

  9
$UCSNAME
  2

  9
$UCSORG
 10
0.0
 20
0.0
 30
0.0
  9
$UCSXDIR
 10
1.0
 20
0.0
 30
0.0
  9
$UCSYDIR
 10
0.0
 20
1.0
 30
0.0
  9
$UCSORTHOREF
  2

  9
$UCSORTHOVIEW
 70
     0
  9
$UCSORGTOP
 10
0.0
 20
0.0
 30
0.0
  9
$UCSORGBOTTOM
 10
0.0
 20
0.0
 30
0.0
  9
$UCSORGLEFT
 10
0.0
 20
0.0
 30
0.0
  9
$UCSORGRIGHT
 10
0.0
 20
0.0
 30
0.0
  9
$UCSORGFRONT
 10
0.0
 20
0.0
 30
0.0
  9
$UCSORGBACK
 10
0.0
 20
0.0
 30
0.0
  9
$PUCSBASE
  2

  9
$PUCSNAME
  2

  9
$PUCSORG
 10
0.0
 20
0.0
 30
0.0
  9
$PUCSXDIR
 10
1.0
 20
0.0
 30
0.0
  9
$PUCSYDIR
 10
0.0
 20
1.0
 30
0.0
  9
$PUCSORTHOREF
  2

  9
$PUCSORTHOVIEW
 70
     0
  9
$PUCSORGTOP
 10
0.0
 20
0.0
 30
0.0
  9
$PUCSORGBOTTOM
 10
0.0
 20
0.0
 30
0.0
  9
$PUCSORGLEFT
 10
0.0
 20
0.0
 30
0.0
  9
$PUCSORGRIGHT
 10
0.0
 20
0.0
 30
0.0
  9
$PUCSORGFRONT
 10
0.0
 20
0.0
 30
0.0
  9
$PUCSORGBACK
 10
0.0
 20
0.0
 30
0.0
  9
$USERI1
 70
     0
  9
$USERI2
 70
     0
  9
$USERI3
 70
     0
  9
$USERI4
 70
     0
  9
$USERI5
 70
     0
  9
$USERR1
 40
0.0
  9
$USERR2
 40
0.0
  9
$USERR3
 40
0.0
  9
$USERR4
 40
0.0
  9
$USERR5
 40
0.0
  9
$WORLDVIEW
 70
     1
  9
$SHADEDGE
 70
     3
  9
$SHADEDIF
 70
    70
  9
$TILEMODE
 70
     1
  9
$MAXACTVP
 70
    64
  9
$PINSBASE
 10
0.0
 20
0.0
 30
0.0
  9
$PLIMCHECK
 70
     0
  9
$PEXTMIN
 10
1.000000000000000E+20
 20
1.000000000000000E+20
 30
1.000000000000000E+20
  9
$PEXTMAX
 10
-1.000000000000000E+20
 20
-1.000000000000000E+20
 30
-1.000000000000000E+20
  9
$PLIMMIN
 10
0.0
 20
0.0
  9
$PLIMMAX
 10
12.0
 20
9.0
  9
$UNITMODE
 70
     0
  9
$VISRETAIN
 70
     1
  9
$PLINEGEN
 70
     0
  9
$PSLTSCALE
 70
     1
  9
$TREEDEPTH
 70
  3020
  9
$CMLSTYLE
  2
Standard
  9
$CMLJUST
 70
     0
  9
$CMLSCALE
 40
1.0
  9
$PROXYGRAPHICS
 70
     1
  9
$MEASUREMENT
 70
     0
  9
$CELWEIGHT
370
    -1
  9
$ENDCAPS
280
     0
  9
$JOINSTYLE
280
     0
  9
$LWDISPLAY
290
     0
  9
$INSUNITS
 70
     1
  9
$HYPERLINKBASE
  1

  9
$STYLESHEET
  1

  9
$XEDIT
290
     1
  9
$CEPSNTYPE
380
     0
  9
$PSTYLEMODE
290
     1
  9
$FINGERPRINTGUID
  2
{DDC47E90-4B7B-47B5-AB34-0DEB809F7750}
  9
$VERSIONGUID
  2
{FAEB1C32-E019-11D5-929B-00C0DF256EC4}
  9
$EXTNAMES
290
     1
  9
$PSVPSCALE
 40
0.0
  9
$OLESTARTUP
290
     0
  9
$SORTENTS
280
   127
  9
$INDEXCTL
280
     0
  9
$HIDETEXT
280
     1
  9
$XCLIPFRAME
290
     0
  9
$HALOGAP
280
     0
  9
$OBSCOLOR
 70
   257
  9
$OBSLTYPE
280
     0
  9
$INTERSECTIONDISPLAY
280
     0
  9
$INTERSECTIONCOLOR
 70
   257
  9
$DIMASSOC
280
     2
  9
$PROJECTNAME
  1

  0
ENDSEC
  0
SECTION
  2
CLASSES
  0
CLASS
  1
ACDBDICTIONARYWDFLT
  2
AcDbDictionaryWithDefault
  3
ObjectDBX Classes
 90
        0
 91
        4
280
     0
281
     0
  0
CLASS
  1
VISUALSTYLE
  2
AcDbVisualStyle
  3
ObjectDBX Classes
 90
     4095
 91
        4
280
     0
281
     0
  0
ENDSEC
  0
SECTION
  2
TABLES
  0
TABLE
  2
VPORT
  5
8
330
0
100
AcDbSymbolTable
 70
     1
  0
VPORT
  5
29
330
8
100
AcDbSymbolTableRecord
100
AcDbViewportTableRecord
  2
*Active
 70
     0
 10
0.0
 20
0.0
 11
1.0
 21
1.0
 12
16.31804696023738
 22
24.3750237225035
 13
0.0
 23
0.0
 14
0.5
 24
0.5
 15
0.5
 25
0.5
 16
0.0
 26
0.0
 36
1.0
 17
0.0
 27
0.0
 37
0.0
 40
49.72504839390714
 41
1.418182579207262
 42
50.0
 43
0.0
 44
0.0
 50
0.0
 51
0.0
 71
     0
 72
   100
 73
     1
 74
     3
 75
     0
 76
     0
 77
     0
 78
     0
281
     0
 65
     1
110
0.0
120
0.0
130
0.0
111
1.0
121
0.0
131
0.0
112
0.0
122
1.0
132
0.0
 79
     0
146
0.0
  0
ENDTAB
  0
TABLE
  2
LTYPE
  5
5
330
0
100
AcDbSymbolTable
 70
     1
  0
LTYPE
  5
14
330
5
100
AcDbSymbolTableRecord
100
AcDbLinetypeTableRecord
  2
ByBlock
 70
     0
  3

 72
    65
 73
     0
 40
0.0
  0
LTYPE
  5
15
330
5
100
AcDbSymbolTableRecord
100
AcDbLinetypeTableRecord
  2
ByLayer
 70
     0
  3

 72
    65
 73
     0
 40
0.0
  0
LTYPE
  5
16
330
5
100
AcDbSymbolTableRecord
100
AcDbLinetypeTableRecord
  2
Continuous
 70
     0
  3
Solid line
 72
    65
 73
     0
 40
0.0
  0
ENDTAB
  0
TABLE
  2
LAYER
  5
2
330
0
100
AcDbSymbolTable
 70
     2
  0
LAYER
  5
10
330
2
100
AcDbSymbolTableRecord
100
AcDbLayerTableRecord
  2
0
 70
     0
 62
     7
  6
Continuous
370
    -3
390
F
  0
LAYER
  5
3B
330
2
100
AcDbSymbolTableRecord
100
AcDbLayerTableRecord
  2
DEFAULT
 70
     0
 62
     7
  6
Continuous
370
    -3
390
F
  0
ENDTAB
  0
TABLE
  2
STYLE
  5
3
330
0
100
AcDbSymbolTable
 70
     1
  0
STYLE
  5
11
330
3
100
AcDbSymbolTableRecord
100
AcDbTextStyleTableRecord
  2
Standard
 70
     0
 40
0.0
 41
1.0
 50
0.0
 71
     0
 42
0.2
  3
txt
  4

  0
ENDTAB
  0
TABLE
  2
VIEW
  5
6
330
0
100
AcDbSymbolTable
 70
     0
  0
ENDTAB
  0
TABLE
  2
UCS
  5
7
330
0
100
AcDbSymbolTable
 70
     0
  0
ENDTAB
  0
TABLE
  2
APPID
  5
9
330
0
100
AcDbSymbolTable
 70
     1
  0
APPID
  5
12
330
9
100
AcDbSymbolTableRecord
100
AcDbRegAppTableRecord
  2
ACAD
 70
     0
  0
ENDTAB
  0
TABLE
  2
DIMSTYLE
  5
A
330
0
100
AcDbSymbolTable
 70
     1
100
AcDbDimStyleTable
  0
DIMSTYLE
105
27
330
A
100
AcDbSymbolTableRecord
100
AcDbDimStyleTableRecord
  2
Standard
 70
     0
340
11
  0
ENDTAB
  0
TABLE
  2
BLOCK_RECORD
  5
1
330
0
100
AcDbSymbolTable
 70
     1
  0
BLOCK_RECORD
  5
1F
330
1
100
AcDbSymbolTableRecord
100
AcDbBlockTableRecord
  2
*Model_Space
340
22
  0
BLOCK_RECORD
  5
1B
330
1
100
AcDbSymbolTableRecord
100
AcDbBlockTableRecord
  2
*Paper_Space
340
1E
  0
BLOCK_RECORD
  5
23
330
1
100
AcDbSymbolTableRecord
100
AcDbBlockTableRecord
  2
*Paper_Space0
340
26
  0
ENDTAB
  0
ENDSEC
  0
SECTION
  2
BLOCKS
  0
BLOCK
  5
20
330
1F
100
AcDbEntity
  8
0
100
AcDbBlockBegin
  2
*Model_Space
 70
     0
 10
0.0
 20
0.0
 30
0.0
  3
*Model_Space
  1

  0
ENDBLK
  5
21
330
1F
100
AcDbEntity
  8
0
100
AcDbBlockEnd
  0
BLOCK
  5
1C
330
1B
100
AcDbEntity
 67
     1
  8
0
100
AcDbBlockBegin
  2
*Paper_Space
 70
     0
 10
0.0
 20
0.0
 30
0.0
  3
*Paper_Space
  1

  0
ENDBLK
  5
1D
330
1B
100
AcDbEntity
 67
     1
  8
0
100
AcDbBlockEnd
  0
BLOCK
  5
24
330
23
100
AcDbEntity
  8
0
100
AcDbBlockBegin
  2
*Paper_Space0
 70
     0
 10
0.0
 20
0.0
 30
0.0
  3
*Paper_Space0
  1

  0
ENDBLK
  5
25
330
23
100
AcDbEntity
  8
0
100
AcDbBlockEnd
  0
ENDSEC
  0
SECTION
  2
ENTITIES
  0
SPLINE
  5
3C
330
1F
100
AcDbEntity
  8
DEFAULT
100
AcDbSpline
210
0.0
220
0.0
230
1.0
 70
    11
 71
     2
 72
   516
 73
   513
 74
     0
 42
0.0000000001
 43
0.0000000001
 40
0.6080467904452841
 40
0.6080467904452841
 40
0.6080467904452841
 40
0.6163712090533577
 40
0.6163712090533577
 40
38.12469468817249
 40
38.12469468817249
 40
38.13309738281702
 40
38.13309738281702
 40
38.14158086510907
 40
38.14158086510907
 40
38.15014771111795
 40
38.15014771111795
 40
38.158800544264
 40
38.158800544264
 40
38.16754201634001
 40
38.16754201634001
 40
38.17637478678209
 40
38.17637478678209
 40
38.18530150034781
 40
38.18530150034781
 40
38.19432476339352
 40
38.19432476339352
 40
38.20344711897511
 40
38.20344711897511
 40
38.21267102102409
 40
38.21267102102409
 40
38.22199880787556
 40
38.22199880787556
 40
38.23143267544255
 40
38.23143267544255
 40
38.24097465034519
 40
38.24097465034519
 40
38.25062656330993
 40
38.25062656330993
 40
38.26039002315573
 40
38.26039002315573
 40
38.27026639167979
 40
38.27026639167979
 40
38.28025675974527
 40
38.28025675974527
 40
38.29036192485836
 40
38.29036192485836
 40
38.30058237050232
 40
38.30058237050232
 40
38.31091824747275
 40
38.31091824747275
 40
38.32136935743053
 40
38.32136935743053
 40
38.33193513886002
 40
38.33193513886002
 40
38.34261465558779
 40
38.34261465558779
 40
38.35340658798449
 40
38.35340658798449
 40
38.36430922693861
 40
38.36430922693861
 40
38.37532047065717
 40
38.37532047065717
 40
38.38643782431497
 40
38.38643782431497
 40
38.39765840254138
 40
38.39765840254138
 40
38.40897893470222
 40
38.40897893470222
 40
38.4203957729052
 40
38.4203957729052
 40
38.43190490262873
 40
38.43190490262873
 40
38.44350195584899
 40
38.44350195584899
 40
38.45518222651703
 40
38.45518222651703
 40
38.46694068821626
 40
38.46694068821626
 40
38.47877201381393
 40
38.47877201381393
 40
38.49067059690434
 40
38.49067059690434
 40
38.5026305748294
 40
38.5026305748294
 40
38.51464585305339
 40
38.51464585305339
 40
38.52671013066183
 40
38.52671013066183
 40
38.53881692675115
 40
38.53881692675115
 40
38.55095960747539
 40
38.55095960747539
 40
38.5631314135173
 40
38.5631314135173
 40
38.57532548775729
 40
38.57532548775729
 40
38.58753490291836
 40
38.58753490291836
 40
38.59975268897713
 40
38.59975268897713
 40
38.61197186013922
 40
38.61197186013922
 40
38.62418544119201
 40
38.62418544119201
 40
38.63638649306183
 40
38.63638649306183
 40
38.64856813741695
 40
38.64856813741695
 40
38.66072358017589
 40
38.66072358017589
 40
38.67284613379611
 40
38.67284613379611
 40
38.68492923823705
 40
38.68492923823705
 40
38.69696648050812
 40
38.69696648050812
 40
38.70895161273017
 40
38.70895161273017
 40
38.72087856865674
 40
38.72087856865674
 40
38.73274147861773
 40
38.73274147861773
 40
38.74453468286384
 40
38.74453468286384
 40
38.75625274330653
 40
38.75625274330653
 40
38.76789045366124
 40
38.76789045366124
 40
38.77944284801582
 40
38.77944284801582
 40
38.79090520785689
 40
38.79090520785689
 40
38.80227306759923
 40
38.80227306759923
 40
59.79827355023639
 40
59.79827355023639
 40
59.8095427013082
 40
59.8095427013082
 40
59.82091056105053
 40
59.82091056105053
 40
59.83237292089162
 40
59.83237292089162
 40
59.84392531524617
 40
59.84392531524617
 40
59.85556302560091
 40
59.85556302560091
 40
59.86728108604358
 40
59.86728108604358
 40
59.87907429028968
 40
59.87907429028968
 40
59.89093720025065
 40
59.89093720025065
 40
59.90286415617727
 40
59.90286415617727
 40
59.91484928839928
 40
59.91484928839928
 40
59.92688653067035
 40
59.92688653067035
 40
59.93896963511132
 40
59.93896963511132
 40
59.95109218873153
 40
59.95109218873153
 40
59.96324763149045
 40
59.96324763149045
 40
59.97542927584557
 40
59.97542927584557
 40
59.98763032771539
 40
59.98763032771539
 40
59.99984390876821
 40
59.99984390876821
 40
60.01206307993027
 40
60.01206307993027
 40
60.02428086598906
 40
60.02428086598906
 40
60.03649028115014
 40
60.03649028115014
 40
60.0486843553901
 40
60.0486843553901
 40
60.06085616143204
 40
60.06085616143204
 40
60.07299884215628
 40
60.07299884215628
 40
60.08510563824562
 40
60.08510563824562
 40
60.09716991585404
 40
60.09716991585404
 40
60.10918519407802
 40
60.10918519407802
 40
60.12114517200308
 40
60.12114517200308
 40
60.13304375509349
 40
60.13304375509349
 40
60.14487508069116
 40
60.14487508069116
 40
60.15663354239038
 40
60.15663354239038
 40
60.16831381305843
 40
60.16831381305843
 40
60.1799108662787
 40
60.1799108662787
 40
60.19141999600223
 40
60.19141999600223
 40
60.20283683420521
 40
60.20283683420521
 40
60.21415736636605
 40
60.21415736636605
 40
60.22537794459245
 40
60.22537794459245
 40
60.23649529825025
 40
60.23649529825025
 40
60.24750654196881
 40
60.24750654196881
 40
60.25840918092293
 40
60.25840918092293
 40
60.26920111331963
 40
60.26920111331963
 40
60.27988063004742
 40
60.27988063004742
 40
60.29044641147691
 40
60.29044641147691
 40
60.30089752143467
 40
60.30089752143467
 40
60.31123339840511
 40
60.31123339840511
 40
60.32145384404907
 40
60.32145384404907
 40
60.33155900916216
 40
60.33155900916216
 40
60.34154937722765
 40
60.34154937722765
 40
60.35142574575171
 40
60.35142574575171
 40
60.3611892055975
 40
60.3611892055975
 40
60.37084111856224
 40
60.37084111856224
 40
60.38038309346489
 40
60.38038309346489
 40
60.38981696103188
 40
60.38981696103188
 40
60.39914474788334
 40
60.39914474788334
 40
60.40836864993233
 40
60.40836864993233
 40
60.41749100551392
 40
60.41749100551392
 40
60.42651426855963
 40
60.42651426855963
 40
60.43544098212535
 40
60.43544098212535
 40
60.44427375256743
 40
60.44427375256743
 40
60.45301522464344
 40
60.45301522464344
 40
60.4616680577895
 40
60.4616680577895
 40
60.47023490379838
 40
60.47023490379838
 40
60.47871838609043
 40
60.47871838609043
 40
60.48712108073496
 40
60.48712108073496
 40
97.99544455985409
 40
97.99544455985409
 40
98.00376897846216
 40
98.00376897846216
 40
98.01217167310669
 40
98.01217167310669
 40
98.02065515539876
 40
98.02065515539876
 40
98.02922200140762
 40
98.02922200140762
 40
98.03787483455368
 40
98.03787483455368
 40
98.04661630662969
 40
98.04661630662969
 40
98.05544907707178
 40
98.05544907707178
 40
98.06437579063748
 40
98.06437579063748
 40
98.0733990536832
 40
98.0733990536832
 40
98.08252140926479
 40
98.08252140926479
 40
98.09174531131377
 40
98.09174531131377
 40
98.10107309816524
 40
98.10107309816524
 40
98.11050696573223
 40
98.11050696573223
 40
98.12004894063487
 40
98.12004894063487
 40
98.1297008535996
 40
98.1297008535996
 40
98.13946431344539
 40
98.13946431344539
 40
98.14934068196946
 40
98.14934068196946
 40
98.15933105003495
 40
98.15933105003495
 40
98.16943621514804
 40
98.16943621514804
 40
98.179656660792
 40
98.179656660792
 40
98.18999253776244
 40
98.18999253776244
 40
98.2004436477202
 40
98.2004436477202
 40
98.2110094291497
 40
98.2110094291497
 40
98.22168894587747
 40
98.22168894587747
 40
98.23248087827419
 40
98.23248087827419
 40
98.2433835172283
 40
98.2433835172283
 40
98.25439476094685
 40
98.25439476094685
 40
98.26551211460468
 40
98.26551211460468
 40
98.27673269283106
 40
98.27673269283106
 40
98.2880532249919
 40
98.2880532249919
 40
98.29947006319487
 40
98.29947006319487
 40
98.3109791929184
 40
98.3109791929184
 40
98.32257624613867
 40
98.32257624613867
 40
98.33425651680672
 40
98.33425651680672
 40
98.34601497850593
 40
98.34601497850593
 40
98.35784630410362
 40
98.35784630410362
 40
98.36974488719403
 40
98.36974488719403
 40
98.38170486511909
 40
98.38170486511909
 40
98.39372014334309
 40
98.39372014334309
 40
98.40578442095152
 40
98.40578442095152
 40
98.41789121704085
 40
98.41789121704085
 40
98.43003389776509
 40
98.43003389776509
 40
98.44220570380702
 40
98.44220570380702
 40
98.45439977804696
 40
98.45439977804696
 40
98.46660919320803
 40
98.46660919320803
 40
98.47882697926681
 40
98.47882697926681
 40
98.49104615042887
 40
98.49104615042887
 40
98.50325973148169
 40
98.50325973148169
 40
98.51546078335151
 40
98.51546078335151
 40
98.52764242770665
 40
98.52764242770665
 40
98.53979787046558
 40
98.53979787046558
 40
98.55192042408578
 40
98.55192042408578
 40
98.56400352852674
 40
98.56400352852674
 40
98.5760407707978
 40
98.5760407707978
 40
98.58802590301985
 40
98.58802590301985
 40
98.59995285894644
 40
98.59995285894644
 40
98.61181576890742
 40
98.61181576890742
 40
98.62360897315352
 40
98.62360897315352
 40
98.6353270335962
 40
98.6353270335962
 40
98.64696474395095
 40
98.64696474395095
 40
98.65851713830551
 40
98.65851713830551
 40
98.66997949814657
 40
98.66997949814657
 40
98.68134735788891
 40
98.68134735788891
 40
119.6773478405261
 40
119.6773478405261
 40
119.6886169915979
 40
119.6886169915979
 40
119.6999848513402
 40
119.6999848513402
 40
119.7114472111813
 40
119.7114472111813
 40
119.7229996055359
 40
119.7229996055359
 40
119.7346373158906
 40
119.7346373158906
 40
119.7463553763333
 40
119.7463553763333
 40
119.7581485805794
 40
119.7581485805794
 40
119.7700114905403
 40
119.7700114905403
 40
119.781938446467
 40
119.781938446467
 40
119.793923578689
 40
119.793923578689
 40
119.80596082096
 40
119.80596082096
 40
119.818043925401
 40
119.818043925401
 40
119.8301664790212
 40
119.8301664790212
 40
119.8423219217801
 40
119.8423219217801
 40
119.8545035661353
 40
119.8545035661353
 40
119.8667046180051
 40
119.8667046180051
 40
119.8789181990579
 40
119.8789181990579
 40
119.89113737022
 40
119.89113737022
 40
119.9033551562788
 40
119.9033551562788
 40
119.9155645714398
 40
119.9155645714398
 40
119.9277586456798
 40
119.9277586456798
 40
119.9399304517217
 40
119.9399304517217
 40
119.952073132446
 40
119.952073132446
 40
119.9641799285353
 40
119.9641799285353
 40
119.9762442061437
 40
119.9762442061437
 40
119.9882594843677
 40
119.9882594843677
 40
120.0002194622928
 40
120.0002194622928
 40
120.0121180453832
 40
120.0121180453832
 40
120.0239493709809
 40
120.0239493709809
 40
120.0357078326801
 40
120.0357078326801
 40
120.0473881033481
 40
120.0473881033481
 40
120.0589851565684
 40
120.0589851565684
 40
120.0704942862919
 40
120.0704942862919
 40
120.0819111244949
 40
120.0819111244949
 40
120.0932316566557
 40
120.0932316566557
 40
120.1044522348821
 40
120.1044522348821
 40
120.11556958854
 40
120.11556958854
 40
120.1265808322585
 40
120.1265808322585
 40
120.1374834712126
 40
120.1374834712126
 40
120.1482754036093
 40
120.1482754036093
 40
120.1589549203371
 40
120.1589549203371
 40
120.1695207017666
 40
120.1695207017666
 40
120.1799718117244
 40
120.1799718117244
 40
120.1903076886948
 40
120.1903076886948
 40
120.2005281343388
 40
120.2005281343388
 40
120.2106332994519
 40
120.2106332994519
 40
120.2206236675173
 40
120.2206236675173
 40
120.2305000360414
 40
120.2305000360414
 40
120.2402634958872
 40
120.2402634958872
 40
120.2499154088519
 40
120.2499154088519
 40
120.2594573837546
 40
120.2594573837546
 40
120.2688912513216
 40
120.2688912513216
 40
120.278219038173
 40
120.278219038173
 40
120.287442940222
 40
120.287442940222
 40
120.2965652958036
 40
120.2965652958036
 40
120.3055885588493
 40
120.3055885588493
 40
120.314515272415
 40
120.314515272415
 40
120.3233480428571
 40
120.3233480428571
 40
120.3320895149331
 40
120.3320895149331
 40
120.3407423480792
 40
120.3407423480792
 40
120.3493091940881
 40
120.3493091940881
 40
120.3577926763801
 40
120.3577926763801
 40
120.3661953710247
 40
120.3661953710247
 40
120.3661953710247
 10
17.88353689817292
 20
48.74992236908115
 30
0.0
 10
17.87937515871762
 20
48.74998490704408
 30
0.0
 10
17.87521341926232
 20
48.750047445007
 30
0.0
 10
-0.004148555214547
 20
48.74998490704408
 30
0.0
 10
-17.88351052969142
 20
48.74992236908117
 30
0.0
 10
-17.88770758601399
 20
48.74973253350114
 30
0.0
 10
-17.89190464233657
 20
48.74954269792111
 30
0.0
 10
-17.8961342664442
 20
48.74922231087706
 30
0.0
 10
-17.90036389055184
 20
48.74890192383301
 30
0.0
 10
-17.90462317777214
 20
48.74844784783733
 30
0.0
 10
-17.90888246499246
 20
48.74799377184164
 30
0.0
 10
-17.91316835688361
 20
48.74740300026081
 30
0.0
 10
-17.91745424877477
 20
48.74681222867999
 30
0.0
 10
-17.92176353573597
 20
48.74608190039771
 30
0.0
 10
-17.92607282269718
 20
48.74535157211545
 30
0.0
 10
-17.93040214739992
 20
48.74447898628077
 30
0.0
 10
-17.93473147210265
 20
48.74360640044608
 30
0.0
 10
-17.93907733376901
 20
48.74258903121714
 30
0.0
 10
-17.94342319543536
 20
48.7415716619882
 30
0.0
 10
-17.94778195498414
 20
48.74040717317587
 30
0.0
 10
-17.95214071453291
 20
48.73924268436354
 30
0.0
 10
-17.95650860060807
 20
48.73792894387408
 30
0.0
 10
-17.96087648668323
 20
48.73661520338462
 30
0.0
 10
-17.96524960257236
 20
48.73515029735609
 30
0.0
 10
-17.9696227184615
 20
48.73368539132755
 30
0.0
 10
-17.97399704990467
 20
48.73206763785065
 30
0.0
 10
-17.97837138134783
 20
48.73044988437375
 30
0.0
 10
-17.9827428052292
 20
48.72867784668588
 30
0.0
 10
-17.98711422911057
 20
48.72690580899802
 30
0.0
 10
-17.9914785230173
 20
48.7249783080366
 30
0.0
 10
-17.99584281692404
 20
48.72305080707517
 30
0.0
 10
-18.00019566954771
 20
48.72096693327708
 30
0.0
 10
-18.00454852217138
 20
48.718883059479
 30
0.0
 10
-18.00888554451895
 20
48.71664218371342
 30
0.0
 10
-18.01322256686652
 20
48.71440130794782
 30
0.0
 10
-18.01753930423861
 20
48.71200309147174
 30
0.0
 10
-18.02185604161071
 20
48.70960487499567
 30
0.0
 10
-18.02614798629604
 20
48.70704927832581
 30
0.0
 10
-18.03043993098138
 20
48.70449368165595
 30
0.0
 10
-18.03470253560746
 20
48.70178097225529
 30
0.0
 10
-18.03896514023354
 20
48.69906826285464
 30
0.0
 10
-18.04319383170517
 20
48.69619902153889
 30
0.0
 10
-18.04742252317681
 20
48.69332978022314
 30
0.0
 10
-18.05161271712595
 20
48.69030490620005
 30
0.0
 10
-18.05580291107509
 20
48.68728003217696
 30
0.0
 10
-18.05995002673779
 20
48.68410074664125
 30
0.0
 10
-18.06409714240049
 20
48.68092146110553
 30
0.0
 10
-18.0681966178302
 20
48.67758930932251
 30
0.0
 10
-18.07229609325992
 20
48.67425715753948
 30
0.0
 10
-18.07634340078008
 20
48.67077400936262
 30
0.0
 10
-18.08039070830024
 20
48.66729086118576
 30
0.0
 10
-18.08438137009411
 20
48.66365890996629
 30
0.0
 10
-18.088372031888
 20
48.66002695874682
 30
0.0
 10
-18.09230163561993
 20
48.65624871860742
 30
0.0
 10
-18.09623123935186
 20
48.65247047846803
 30
0.0
 10
-18.10009545371084
 20
48.64854877992719
 30
0.0
 10
-18.10395966806983
 20
48.64462708138635
 30
0.0
 10
-18.10775425812517
 20
48.64056506533517
 30
0.0
 10
-18.11154884818052
 20
48.63650304928399
 30
0.0
 10
-18.11526969043869
 20
48.63230415933265
 30
0.0
 10
-18.11899053269687
 20
48.62810526938131
 30
0.0
 10
-18.12263362974987
 20
48.62377324260813
 30
0.0
 10
-18.12627672680287
 20
48.61944121583495
 30
0.0
 10
-18.12983822146072
 20
48.61498007198607
 30
0.0
 10
-18.13339971611856
 20
48.61051892813719
 30
0.0
 10
-18.13687590492216
 20
48.60593295734029
 30
0.0
 10
-18.14035209372577
 20
48.6013469865434
 30
0.0
 10
-18.14373943974161
 20
48.59664073561327
 30
0.0
 10
-18.14712678575746
 20
48.59193448468314
 30
0.0
 10
-18.15042193056146
 20
48.58711274211014
 30
0.0
 10
-18.15371707536547
 20
48.58229099953713
 30
0.0
 10
-18.15691685013086
 20
48.57735877926287
 30
0.0
 10
-18.16011662489625
 20
48.5724265589886
 30
0.0
 10
-18.16321806050881
 20
48.56738908308388
 30
0.0
 10
-18.16631949612137
 20
48.56235160717916
 30
0.0
 10
-18.16931983225448
 20
48.55721428754941
 30
0.0
 10
-18.1723201683876
 20
48.55207696791967
 30
0.0
 10
-18.17521686147964
 20
48.5468453871717
 30
0.0
 10
-18.17811355457169
 20
48.54161380642374
 30
0.0
 10
-18.18090428465915
 20
48.53629369803397
 30
0.0
 10
-18.18369501474661
 20
48.5309735896442
 30
0.0
 10
-18.1863776911172
 20
48.52557081757386
 30
0.0
 10
-18.1890603674878
 20
48.52016804550352
 30
0.0
 10
-18.19163313312938
 20
48.51468858340942
 30
0.0
 10
-18.19420589877096
 20
48.50920912131533
 30
0.0
 10
-18.19666713360353
 20
48.503659031506
 30
0.0
 10
-18.1991283684361
 20
48.49810894169666
 30
0.0
 10
-18.20147669132554
 20
48.49249435398362
 30
0.0
 10
-18.20382501421498
 20
48.48687976627058
 30
0.0
 10
-18.20605928377847
 20
48.4812068568618
 30
0.0
 10
-18.20829355334197
 20
48.47553394745302
 30
0.0
 10
-18.21041286756569
 20
48.46980891803258
 30
0.0
 10
-18.21253218178942
 20
48.46408388861214
 30
0.0
 10
-18.21453587648951
 20
48.45831294574347
 30
0.0
 10
-18.2165395711896
 20
48.45254200287481
 30
0.0
 10
-18.21842721735683
 20
48.44673133785956
 30
0.0
 10
-18.22031486352406
 20
48.44092067284431
 30
0.0
 10
-18.22208626360164
 20
48.43507644215941
 30
0.0
 10
-18.22385766367923
 20
48.4292322114745
 30
0.0
 10
-18.22551284683079
 20
48.42336051790132
 30
0.0
 10
-18.22716802998235
 20
48.41748882432814
 30
0.0
 10
-18.22870724641439
 20
48.41159569887775
 30
0.0
 10
-18.23024646284644
 20
48.40570257342737
 30
0.0
 10
-18.23167017725532
 20
48.39979395815402
 30
0.0
 10
-18.23309389166421
 20
48.39388534288068
 30
0.0
 10
-18.23440277588258
 20
48.38796707466509
 30
0.0
 10
-18.23571166010095
 20
48.3820488064495
 30
0.0
 10
-18.23690658502247
 20
48.37612660182076
 30
0.0
 10
-18.23810150994399
 20
48.37020439719203
 30
0.0
 10
-18.23918353680791
 20
48.36428383824554
 30
0.0
 10
-18.24026556367184
 20
48.35836327929905
 30
0.0
 10
-18.24123593479061
 20
48.35244980075534
 30
0.0
 10
-18.24220630590938
 20
48.34653632221163
 30
0.0
 10
-18.2430664349232
 20
48.34063519964909
 30
0.0
 10
-18.24392656393703
 20
48.33473407708654
 30
0.0
 10
-18.24467802567914
 20
48.32885041636929
 30
0.0
 10
-18.24542948742125
 20
48.32296675565204
 30
0.0
 10
-18.24607400747633
 20
48.31710548356347
 30
0.0
 10
-18.24671852753141
 20
48.3112442114749
 30
0.0
 10
-18.24725797156775
 20
48.30541006755601
 30
0.0
 10
-18.2477974156041
 20
48.29957592363713
 30
0.0
 10
-18.24823377855737
 20
48.29377345321944
 30
0.0
 10
-18.24867014151065
 20
48.28797098280177
 30
0.0
 10
-18.24900553669369
 20
48.28220453121504
 30
0.0
 10
-18.24934093187674
 20
48.27643807962831
 30
0.0
 10
-18.24957758008609
 20
48.2707117875552
 30
0.0
 10
-18.24981422829545
 20
48.26498549548209
 30
0.0
 10
-18.24995444698067
 20
48.25930329542395
 30
0.0
 10
-18.25009466566591
 20
48.25362109536581
 30
0.0
 10
-18.25014085822336
 20
38.00565013997555
 30
0.0
 10
-18.25018705078082
 20
27.75767918458529
 30
0.0
 10
-18.25014085822336
 20
27.75204479839712
 30
0.0
 10
-18.25009466566591
 20
27.74641041220895
 30
0.0
 10
-18.24995444698067
 20
27.74072821215081
 30
0.0
 10
-18.24981422829545
 20
27.73504601209268
 30
0.0
 10
-18.24957758008609
 20
27.72931972001956
 30
0.0
 10
-18.24934093187674
 20
27.72359342794644
 30
0.0
 10
-18.24900553669369
 20
27.71782697635972
 30
0.0
 10
-18.24867014151065
 20
27.712060524773
 30
0.0
 10
-18.24823377855737
 20
27.70625805435531
 30
0.0
 10
-18.2477974156041
 20
27.70045558393762
 30
0.0
 10
-18.24725797156775
 20
27.69462144001874
 30
0.0
 10
-18.24671852753141
 20
27.68878729609986
 30
0.0
 10
-18.24607400747633
 20
27.6829260240113
 30
0.0
 10
-18.24542948742125
 20
27.67706475192274
 30
0.0
 10
-18.24467802567914
 20
27.67118109120549
 30
0.0
 10
-18.24392656393703
 20
27.66529743048824
 30
0.0
 10
-18.2430664349232
 20
27.65939630792568
 30
0.0
 10
-18.24220630590938
 20
27.65349518536311
 30
0.0
 10
-18.24123593479061
 20
27.64758170681942
 30
0.0
 10
-18.24026556367184
 20
27.64166822827573
 30
0.0
 10
-18.23918353680791
 20
27.63574766932924
 30
0.0
 10
-18.23810150994399
 20
27.62982711038275
 30
0.0
 10
-18.23690658502247
 20
27.623904905754
 30
0.0
 10
-18.23571166010095
 20
27.61798270112525
 30
0.0
 10
-18.23440277588258
 20
27.61206443290967
 30
0.0
 10
-18.23309389166421
 20
27.60614616469408
 30
0.0
 10
-18.23167017725532
 20
27.60023754942075
 30
0.0
 10
-18.23024646284644
 20
27.59432893414741
 30
0.0
 10
-18.22870724641439
 20
27.58843580869702
 30
0.0
 10
-18.22716802998235
 20
27.58254268324664
 30
0.0
 10
-18.22551284683079
 20
27.57667098967346
 30
0.0
 10
-18.22385766367923
 20
27.57079929610028
 30
0.0
 10
-18.22208626360164
 20
27.56495506541536
 30
0.0
 10
-18.22031486352406
 20
27.55911083473044
 30
0.0
 10
-18.21842721735683
 20
27.55330016971521
 30
0.0
 10
-18.2165395711896
 20
27.54748950469997
 30
0.0
 10
-18.21453587648951
 20
27.54171856183131
 30
0.0
 10
-18.21253218178942
 20
27.53594761896264
 30
0.0
 10
-18.21041286756569
 20
27.53022258954219
 30
0.0
 10
-18.20829355334197
 20
27.52449756012174
 30
0.0
 10
-18.20605928377847
 20
27.51882465071298
 30
0.0
 10
-18.20382501421498
 20
27.51315174130421
 30
0.0
 10
-18.20147669132554
 20
27.50753715359116
 30
0.0
 10
-18.1991283684361
 20
27.50192256587811
 30
0.0
 10
-18.19666713360353
 20
27.49637247606877
 30
0.0
 10
-18.19420589877096
 20
27.49082238625944
 30
0.0
 10
-18.19163313312938
 20
27.48534292416534
 30
0.0
 10
-18.1890603674878
 20
27.47986346207124
 30
0.0
 10
-18.1863776911172
 20
27.47446069000091
 30
0.0
 10
-18.18369501474661
 20
27.46905791793058
 30
0.0
 10
-18.18090428465915
 20
27.46373780954082
 30
0.0
 10
-18.17811355457169
 20
27.45841770115105
 30
0.0
 10
-18.17521686147964
 20
27.45318612040308
 30
0.0
 10
-18.1723201683876
 20
27.44795453965511
 30
0.0
 10
-18.16931983225448
 20
27.44281722002536
 30
0.0
 10
-18.16631949612137
 20
27.43767990039562
 30
0.0
 10
-18.16321806050881
 20
27.43264242449089
 30
0.0
 10
-18.16011662489625
 20
27.42760494858617
 30
0.0
 10
-18.15691685013086
 20
27.42267272831192
 30
0.0
 10
-18.15371707536547
 20
27.41774050803766
 30
0.0
 10
-18.15042193056146
 20
27.41291876546465
 30
0.0
 10
-18.14712678575746
 20
27.40809702289164
 30
0.0
 10
-18.14373943974161
 20
27.40339077196151
 30
0.0
 10
-18.14035209372577
 20
27.39868452103138
 30
0.0
 10
-18.13687590492216
 20
27.39409855023449
 30
0.0
 10
-18.13339971611856
 20
27.38951257943759
 30
0.0
 10
-18.12983822146072
 20
27.38505143558871
 30
0.0
 10
-18.12627672680287
 20
27.38059029173983
 30
0.0
 10
-18.12263362974987
 20
27.37625826496665
 30
0.0
 10
-18.11899053269687
 20
27.37192623819347
 30
0.0
 10
-18.11526969043869
 20
27.36772734824213
 30
0.0
 10
-18.11154884818052
 20
27.36352845829079
 30
0.0
 10
-18.10775425812517
 20
27.35946644223961
 30
0.0
 10
-18.10395966806983
 20
27.35540442618842
 30
0.0
 10
-18.10009545371084
 20
27.35148272764759
 30
0.0
 10
-18.09623123935186
 20
27.34756102910676
 30
0.0
 10
-18.09230163561993
 20
27.34378278896736
 30
0.0
 10
-18.088372031888
 20
27.34000454882796
 30
0.0
 10
-18.08438137009411
 20
27.33637259760849
 30
0.0
 10
-18.08039070830024
 20
27.33274064638902
 30
0.0
 10
-18.07634340078008
 20
27.32925749821215
 30
0.0
 10
-18.07229609325992
 20
27.32577435003528
 30
0.0
 10
-18.0681966178302
 20
27.32244219825226
 30
0.0
 10
-18.06409714240049
 20
27.31911004646924
 30
0.0
 10
-18.05995002673779
 20
27.31593076093354
 30
0.0
 10
-18.05580291107509
 20
27.31275147539784
 30
0.0
 10
-18.05161271712595
 20
27.30972660137474
 30
0.0
 10
-18.04742252317681
 20
27.30670172735164
 30
0.0
 10
-18.04319383170517
 20
27.30383248603589
 30
0.0
 10
-18.03896514023354
 20
27.30096324472014
 30
0.0
 10
-18.03470253560746
 20
27.29825053531949
 30
0.0
 10
-18.03043993098138
 20
27.29553782591883
 30
0.0
 10
-18.02614798629604
 20
27.29298222924896
 30
0.0
 10
-18.02185604161071
 20
27.29042663257909
 30
0.0
 10
-18.01753930423861
 20
27.28802841610302
 30
0.0
 10
-18.01322256686652
 20
27.28563019962694
 30
0.0
 10
-18.00888554451895
 20
27.28338932386136
 30
0.0
 10
-18.00454852217138
 20
27.28114844809578
 30
0.0
 10
-18.00019566954771
 20
27.2790645742977
 30
0.0
 10
-17.99584281692404
 20
27.27698070049962
 30
0.0
 10
-17.9914785230173
 20
27.27505319953818
 30
0.0
 10
-17.98711422911057
 20
27.27312569857674
 30
0.0
 10
-17.9827428052292
 20
27.27135366088888
 30
0.0
 10
-17.97837138134783
 20
27.26958162320101
 30
0.0
 10
-17.97399704990467
 20
27.26796386972413
 30
0.0
 10
-17.9696227184615
 20
27.26634611624724
 30
0.0
 10
-17.96524960257236
 20
27.26488121021869
 30
0.0
 10
-17.96087648668323
 20
27.26341630419014
 30
0.0
 10
-17.95650860060807
 20
27.26210256370068
 30
0.0
 10
-17.95214071453291
 20
27.26078882321121
 30
0.0
 10
-17.94778195498414
 20
27.25962433439889
 30
0.0
 10
-17.94342319543536
 20
27.25845984558656
 30
0.0
 10
-17.93907733376901
 20
27.25744247635762
 30
0.0
 10
-17.93473147210265
 20
27.25642510712867
 30
0.0
 10
-17.93040214739992
 20
27.25555252129399
 30
0.0
 10
-17.92607282269718
 20
27.25467993545932
 30
0.0
 10
-17.92176353573597
 20
27.25394960717703
 30
0.0
 10
-17.91745424877477
 20
27.25321927889475
 30
0.0
 10
-17.91316835688361
 20
27.25262850731394
 30
0.0
 10
-17.90888246499246
 20
27.25203773573313
 30
0.0
 10
-17.90462317777214
 20
27.25158365973745
 30
0.0
 10
-17.90036389055184
 20
27.25112958374176
 30
0.0
 10
-17.8961342664442
 20
27.2508091966977
 30
0.0
 10
-17.89190464233657
 20
27.25048880965364
 30
0.0
 10
-17.88770758601399
 20
27.25029897407363
 30
0.0
 10
-17.88351052969142
 20
27.25010913849362
 30
0.0
 10
-0.004148555214547
 20
27.25004660053069
 30
0.0
 10
17.87521341926232
 20
27.24998406256777
 30
0.0
 10
17.87937515871762
 20
27.25004660053069
 30
0.0
 10
17.88353689817292
 20
27.25010913849361
 30
0.0
 10
17.8877339544955
 20
27.25029897407364
 30
0.0
 10
17.89193101081807
 20
27.25048880965366
 30
0.0
 10
17.89616063492571
 20
27.25080919669771
 30
0.0
 10
17.90039025903335
 20
27.25112958374176
 30
0.0
 10
17.90464954625366
 20
27.25158365973745
 30
0.0
 10
17.90890883347396
 20
27.25203773573313
 30
0.0
 10
17.91319472536512
 20
27.25262850731394
 30
0.0
 10
17.91748061725627
 20
27.25321927889476
 30
0.0
 10
17.92178990421748
 20
27.25394960717704
 30
0.0
 10
17.92609919117869
 20
27.25467993545932
 30
0.0
 10
17.93042851588144
 20
27.255552521294
 30
0.0
 10
17.93475784058418
 20
27.25642510712868
 30
0.0
 10
17.93910370225053
 20
27.25744247635762
 30
0.0
 10
17.94344956391688
 20
27.25845984558656
 30
0.0
 10
17.94780832346565
 20
27.25962433439889
 30
0.0
 10
17.95216708301442
 20
27.26078882321123
 30
0.0
 10
17.95653496908958
 20
27.26210256370069
 30
0.0
 10
17.96090285516474
 20
27.26341630419014
 30
0.0
 10
17.96527597105388
 20
27.26488121021869
 30
0.0
 10
17.96964908694302
 20
27.26634611624724
 30
0.0
 10
17.97402341838618
 20
27.26796386972413
 30
0.0
 10
17.97839774982934
 20
27.26958162320102
 30
0.0
 10
17.98276917371072
 20
27.27135366088889
 30
0.0
 10
17.98714059759209
 20
27.27312569857676
 30
0.0
 10
17.99150489149883
 20
27.27505319953819
 30
0.0
 10
17.99586918540556
 20
27.27698070049962
 30
0.0
 10
18.00022203802923
 20
27.2790645742977
 30
0.0
 10
18.00457489065289
 20
27.28114844809578
 30
0.0
 10
18.00891191300046
 20
27.28338932386136
 30
0.0
 10
18.01324893534803
 20
27.28563019962694
 30
0.0
 10
18.01756567272013
 20
27.28802841610302
 30
0.0
 10
18.02188241009223
 20
27.29042663257911
 30
0.0
 10
18.02617435477756
 20
27.29298222924897
 30
0.0
 10
18.03046629946289
 20
27.29553782591884
 30
0.0
 10
18.03472890408897
 20
27.2982505353195
 30
0.0
 10
18.03899150871505
 20
27.30096324472015
 30
0.0
 10
18.0432202001867
 20
27.3038324860359
 30
0.0
 10
18.04744889165833
 20
27.30670172735166
 30
0.0
 10
18.05163908560747
 20
27.30972660137475
 30
0.0
 10
18.05582927955661
 20
27.31275147539784
 30
0.0
 10
18.05997639521931
 20
27.31593076093355
 30
0.0
 10
18.06412351088201
 20
27.31911004646926
 30
0.0
 10
18.06822298631173
 20
27.32244219825228
 30
0.0
 10
18.07232246174144
 20
27.3257743500353
 30
0.0
 10
18.0763697692616
 20
27.32925749821216
 30
0.0
 10
18.08041707678176
 20
27.33274064638903
 30
0.0
 10
18.08440773857564
 20
27.33637259760851
 30
0.0
 10
18.08839840036952
 20
27.34000454882798
 30
0.0
 10
18.09232800410145
 20
27.34378278896737
 30
0.0
 10
18.09625760783338
 20
27.34756102910676
 30
0.0
 10
18.10012182219237
 20
27.35148272764759
 30
0.0
 10
18.10398603655135
 20
27.35540442618842
 30
0.0
 10
18.1077806266067
 20
27.35946644223961
 30
0.0
 10
18.11157521666204
 20
27.3635284582908
 30
0.0
 10
18.11529605892022
 20
27.36772734824213
 30
0.0
 10
18.11901690117839
 20
27.37192623819347
 30
0.0
 10
18.1226599982314
 20
27.37625826496665
 30
0.0
 10
18.1263030952844
 20
27.38059029173983
 30
0.0
 10
18.12986458994224
 20
27.38505143558871
 30
0.0
 10
18.13342608460008
 20
27.3895125794376
 30
0.0
 10
18.13690227340368
 20
27.39409855023449
 30
0.0
 10
18.14037846220728
 20
27.39868452103138
 30
0.0
 10
18.14376580822313
 20
27.40339077196151
 30
0.0
 10
18.14715315423898
 20
27.40809702289164
 30
0.0
 10
18.15044829904298
 20
27.41291876546465
 30
0.0
 10
18.15374344384698
 20
27.41774050803766
 30
0.0
 10
18.15694321861238
 20
27.42267272831192
 30
0.0
 10
18.16014299337776
 20
27.42760494858617
 30
0.0
 10
18.16324442899033
 20
27.43264242449089
 30
0.0
 10
18.16634586460289
 20
27.43767990039562
 30
0.0
 10
18.16934620073601
 20
27.44281722002536
 30
0.0
 10
18.17234653686912
 20
27.44795453965511
 30
0.0
 10
18.17524322996117
 20
27.45318612040308
 30
0.0
 10
18.17813992305321
 20
27.45841770115105
 30
0.0
 10
18.18093065314068
 20
27.46373780954082
 30
0.0
 10
18.18372138322814
 20
27.46905791793059
 30
0.0
 10
18.18640405959874
 20
27.47446069000092
 30
0.0
 10
18.18908673596933
 20
27.47986346207126
 30
0.0
 10
18.19165950161091
 20
27.48534292416536
 30
0.0
 10
18.19423226725248
 20
27.49082238625946
 30
0.0
 10
18.19669350208505
 20
27.49637247606879
 30
0.0
 10
18.19915473691762
 20
27.50192256587812
 30
0.0
 10
18.20150305980706
 20
27.50753715359118
 30
0.0
 10
18.2038513826965
 20
27.51315174130423
 30
0.0
 10
18.20608565226
 20
27.51882465071299
 30
0.0
 10
18.20831992182349
 20
27.52449756012175
 30
0.0
 10
18.21043923604721
 20
27.53022258954219
 30
0.0
 10
18.21255855027093
 20
27.53594761896264
 30
0.0
 10
18.21456224497102
 20
27.54171856183131
 30
0.0
 10
18.21656593967111
 20
27.54748950469997
 30
0.0
 10
18.21845358583835
 20
27.55330016971521
 30
0.0
 10
18.22034123200558
 20
27.55911083473044
 30
0.0
 10
18.22211263208316
 20
27.56495506541536
 30
0.0
 10
18.22388403216074
 20
27.57079929610029
 30
0.0
 10
18.2255392153123
 20
27.57667098967347
 30
0.0
 10
18.22719439846386
 20
27.58254268324665
 30
0.0
 10
18.22873361489591
 20
27.58843580869704
 30
0.0
 10
18.23027283132796
 20
27.59432893414743
 30
0.0
 10
18.23169654573685
 20
27.60023754942076
 30
0.0
 10
18.23312026014573
 20
27.6061461646941
 30
0.0
 10
18.2344291443641
 20
27.61206443290968
 30
0.0
 10
18.23573802858246
 20
27.61798270112527
 30
0.0
 10
18.23693295350398
 20
27.62390490575402
 30
0.0
 10
18.2381278784255
 20
27.62982711038276
 30
0.0
 10
18.23920990528943
 20
27.63574766932924
 30
0.0
 10
18.24029193215335
 20
27.64166822827573
 30
0.0
 10
18.24126230327212
 20
27.64758170681944
 30
0.0
 10
18.24223267439089
 20
27.65349518536314
 30
0.0
 10
18.24309280340472
 20
27.65939630792569
 30
0.0
 10
18.24395293241854
 20
27.66529743048824
 30
0.0
 10
18.24470439416065
 20
27.6711810912055
 30
0.0
 10
18.24545585590276
 20
27.67706475192275
 30
0.0
 10
18.24610037595784
 20
27.68292602401131
 30
0.0
 10
18.24674489601291
 20
27.68878729609987
 30
0.0
 10
18.24728434004926
 20
27.69462144001875
 30
0.0
 10
18.2478237840856
 20
27.70045558393763
 30
0.0
 10
18.24826014703888
 20
27.70625805435532
 30
0.0
 10
18.24869650999215
 20
27.71206052477302
 30
0.0
 10
18.2490319051752
 20
27.71782697635975
 30
0.0
 10
18.24936730035824
 20
27.72359342794647
 30
0.0
 10
18.2496039485676
 20
27.72931972001957
 30
0.0
 10
18.24984059677695
 20
27.73504601209268
 30
0.0
 10
18.24998081546218
 20
27.74072821215081
 30
0.0
 10
18.2501210341474
 20
27.74641041220895
 30
0.0
 10
18.25016722670486
 20
37.99438136759921
 30
0.0
 10
18.25021341926232
 20
48.24235232298948
 30
0.0
 10
18.25016722670486
 20
48.24798670917764
 30
0.0
 10
18.2501210341474
 20
48.25362109536581
 30
0.0
 10
18.24998081546218
 20
48.25930329542395
 30
0.0
 10
18.24984059677695
 20
48.26498549548209
 30
0.0
 10
18.2496039485676
 20
48.2707117875552
 30
0.0
 10
18.24936730035824
 20
48.27643807962831
 30
0.0
 10
18.2490319051752
 20
48.28220453121504
 30
0.0
 10
18.24869650999215
 20
48.28797098280177
 30
0.0
 10
18.24826014703888
 20
48.29377345321947
 30
0.0
 10
18.2478237840856
 20
48.29957592363718
 30
0.0
 10
18.24728434004926
 20
48.30541006755604
 30
0.0
 10
18.24674489601291
 20
48.31124421147491
 30
0.0
 10
18.24610037595784
 20
48.31710548356347
 30
0.0
 10
18.24545585590276
 20
48.32296675565204
 30
0.0
 10
18.24470439416065
 20
48.32885041636928
 30
0.0
 10
18.24395293241854
 20
48.33473407708653
 30
0.0
 10
18.24309280340472
 20
48.34063519964909
 30
0.0
 10
18.24223267439089
 20
48.34653632221166
 30
0.0
 10
18.24126230327212
 20
48.35244980075534
 30
0.0
 10
18.24029193215335
 20
48.35836327929903
 30
0.0
 10
18.23920990528943
 20
48.36428383824551
 30
0.0
 10
18.2381278784255
 20
48.370204397192
 30
0.0
 10
18.23693295350398
 20
48.37612660182075
 30
0.0
 10
18.23573802858246
 20
48.3820488064495
 30
0.0
 10
18.2344291443641
 20
48.38796707466509
 30
0.0
 10
18.23312026014573
 20
48.39388534288068
 30
0.0
 10
18.23169654573685
 20
48.39979395815401
 30
0.0
 10
18.23027283132796
 20
48.40570257342735
 30
0.0
 10
18.22873361489591
 20
48.41159569887775
 30
0.0
 10
18.22719439846386
 20
48.41748882432814
 30
0.0
 10
18.2255392153123
 20
48.42336051790132
 30
0.0
 10
18.22388403216074
 20
48.4292322114745
 30
0.0
 10
18.22211263208316
 20
48.43507644215941
 30
0.0
 10
18.22034123200558
 20
48.44092067284434
 30
0.0
 10
18.21845358583835
 20
48.44673133785957
 30
0.0
 10
18.21656593967111
 20
48.45254200287481
 30
0.0
 10
18.21456224497102
 20
48.45831294574347
 30
0.0
 10
18.21255855027093
 20
48.46408388861214
 30
0.0
 10
18.21043923604721
 20
48.46980891803258
 30
0.0
 10
18.20831992182349
 20
48.47553394745304
 30
0.0
 10
18.20608565226
 20
48.4812068568618
 30
0.0
 10
18.2038513826965
 20
48.48687976627057
 30
0.0
 10
18.20150305980706
 20
48.49249435398362
 30
0.0
 10
18.19915473691762
 20
48.49810894169666
 30
0.0
 10
18.19669350208505
 20
48.503659031506
 30
0.0
 10
18.19423226725248
 20
48.50920912131533
 30
0.0
 10
18.19165950161091
 20
48.51468858340944
 30
0.0
 10
18.18908673596933
 20
48.52016804550354
 30
0.0
 10
18.18640405959874
 20
48.52557081757386
 30
0.0
 10
18.18372138322814
 20
48.5309735896442
 30
0.0
 10
18.18093065314068
 20
48.53629369803397
 30
0.0
 10
18.17813992305321
 20
48.54161380642374
 30
0.0
 10
18.17524322996117
 20
48.5468453871717
 30
0.0
 10
18.17234653686912
 20
48.55207696791967
 30
0.0
 10
18.16934620073601
 20
48.55721428754941
 30
0.0
 10
18.16634586460289
 20
48.56235160717916
 30
0.0
 10
18.16324442899033
 20
48.56738908308388
 30
0.0
 10
18.16014299337776
 20
48.5724265589886
 30
0.0
 10
18.15694321861238
 20
48.57735877926287
 30
0.0
 10
18.15374344384698
 20
48.58229099953713
 30
0.0
 10
18.15044829904298
 20
48.58711274211014
 30
0.0
 10
18.14715315423898
 20
48.59193448468314
 30
0.0
 10
18.14376580822313
 20
48.59664073561326
 30
0.0
 10
18.14037846220728
 20
48.6013469865434
 30
0.0
 10
18.13690227340368
 20
48.60593295734029
 30
0.0
 10
18.13342608460008
 20
48.61051892813718
 30
0.0
 10
18.12986458994224
 20
48.61498007198606
 30
0.0
 10
18.1263030952844
 20
48.61944121583495
 30
0.0
 10
18.1226599982314
 20
48.62377324260812
 30
0.0
 10
18.11901690117839
 20
48.62810526938131
 30
0.0
 10
18.11529605892022
 20
48.63230415933264
 30
0.0
 10
18.11157521666204
 20
48.63650304928397
 30
0.0
 10
18.1077806266067
 20
48.64056506533517
 30
0.0
 10
18.10398603655135
 20
48.64462708138635
 30
0.0
 10
18.10012182219237
 20
48.64854877992719
 30
0.0
 10
18.09625760783338
 20
48.65247047846803
 30
0.0
 10
18.09232800410145
 20
48.65624871860742
 30
0.0
 10
18.08839840036952
 20
48.66002695874682
 30
0.0
 10
18.08440773857564
 20
48.66365890996629
 30
0.0
 10
18.08041707678176
 20
48.66729086118576
 30
0.0
 10
18.0763697692616
 20
48.67077400936262
 30
0.0
 10
18.07232246174144
 20
48.67425715753948
 30
0.0
 10
18.06822298631173
 20
48.6775893093225
 30
0.0
 10
18.06412351088201
 20
48.68092146110553
 30
0.0
 10
18.05997639521931
 20
48.68410074664124
 30
0.0
 10
18.05582927955661
 20
48.68728003217696
 30
0.0
 10
18.05163908560747
 20
48.69030490620005
 30
0.0
 10
18.04744889165833
 20
48.69332978022314
 30
0.0
 10
18.0432202001867
 20
48.69619902153888
 30
0.0
 10
18.03899150871505
 20
48.69906826285462
 30
0.0
 10
18.03472890408897
 20
48.70178097225528
 30
0.0
 10
18.03046629946289
 20
48.70449368165594
 30
0.0
 10
18.02617435477756
 20
48.70704927832581
 30
0.0
 10
18.02188241009223
 20
48.70960487499568
 30
0.0
 10
18.01756567272013
 20
48.71200309147176
 30
0.0
 10
18.01324893534803
 20
48.71440130794782
 30
0.0
 10
18.00891191300046
 20
48.71664218371342
 30
0.0
 10
18.00457489065289
 20
48.718883059479
 30
0.0
 10
18.00022203802923
 20
48.72096693327708
 30
0.0
 10
17.99586918540556
 20
48.72305080707515
 30
0.0
 10
17.99150489149883
 20
48.72497830803658
 30
0.0
 10
17.98714059759209
 20
48.72690580899802
 30
0.0
 10
17.98276917371072
 20
48.72867784668588
 30
0.0
 10
17.97839774982934
 20
48.73044988437375
 30
0.0
 10
17.97402341838618
 20
48.73206763785063
 30
0.0
 10
17.96964908694302
 20
48.7336853913275
 30
0.0
 10
17.96527597105388
 20
48.73515029735606
 30
0.0
 10
17.96090285516474
 20
48.73661520338462
 30
0.0
 10
17.95653496908958
 20
48.73792894387408
 30
0.0
 10
17.95216708301442
 20
48.73924268436355
 30
0.0
 10
17.94780832346565
 20
48.74040717317587
 30
0.0
 10
17.94344956391688
 20
48.7415716619882
 30
0.0
 10
17.93910370225053
 20
48.74258903121714
 30
0.0
 10
17.93475784058418
 20
48.74360640044608
 30
0.0
 10
17.93042851588144
 20
48.74447898628077
 30
0.0
 10
17.92609919117869
 20
48.74535157211545
 30
0.0
 10
17.92178990421748
 20
48.74608190039774
 30
0.0
 10
17.91748061725627
 20
48.74681222868003
 30
0.0
 10
17.91319472536512
 20
48.74740300026083
 30
0.0
 10
17.90890883347396
 20
48.74799377184164
 30
0.0
 10
17.90464954625366
 20
48.74844784783733
 30
0.0
 10
17.90039025903335
 20
48.74890192383301
 30
0.0
 10
17.89616063492571
 20
48.74922231087707
 30
0.0
 10
17.89193101081807
 20
48.74954269792113
 30
0.0
 10
17.8877339544955
 20
48.74973253350115
 30
0.0
 10
17.88353689817292
 20
48.74992236908115
 30
0.0
  0
SPLINE
  5
3D
330
1F
100
AcDbEntity
  8
DEFAULT
100
AcDbSpline
210
0.0
220
0.0
230
1.0
 70
     8
 71
     2
 72
   386
 73
   383
 74
     0
 42
0.0000000001
 43
0.0000000001
 40
0.0
 40
0.0
 40
0.0
 40
0.0071274981805089
 40
0.0071274981805089
 40
0.0142780807480474
 40
0.0142780807480474
 40
0.0214503440550443
 40
0.0214503440550443
 40
0.028642857525355
 40
0.028642857525355
 40
0.0358541652066967
 40
0.0358541652066967
 40
0.0430827874003594
 40
0.0430827874003594
 40
0.0503272223643889
 40
0.0503272223643889
 40
0.0575859480854407
 40
0.0575859480854407
 40
0.0648574241147336
 40
0.0648574241147336
 40
0.0721400934625752
 40
0.0721400934625752
 40
0.0794323845462056
 40
0.0794323845462056
 40
0.0867327131845232
 40
0.0867327131845232
 40
0.0940394846340881
 40
0.0940394846340881
 40
0.1013510956595186
 40
0.1013510956595186
 40
0.1086659366318549
 40
0.1086659366318549
 40
0.1159823936479441
 40
0.1159823936479441
 40
0.1232988506640452
 40
0.1232988506640452
 40
0.1306136916363601
 40
0.1306136916363601
 40
0.1379253026617917
 40
0.1379253026617917
 40
0.1452320741113594
 40
0.1452320741113594
 40
0.1525324027496804
 40
0.1525324027496804
 40
0.1598246938333144
 40
0.1598246938333144
 40
0.16710736318117
 40
0.16710736318117
 40
0.1743788392104497
 40
0.1743788392104497
 40
0.1816375649315189
 40
0.1816375649315189
 40
0.1888819998955381
 40
0.1888819998955381
 40
0.196110622089218
 40
0.196110622089218
 40
0.2033219297705543
 40
0.2033219297705543
 40
0.2105144432408607
 40
0.2105144432408607
 40
0.2176867065478617
 40
0.2176867065478617
 40
0.2248372891154178
 40
0.2248372891154178
 40
0.2319647872959288
 40
0.2319647872959288
 40
0.232686479243502
 40
0.232686479243502
 40
0.2334121887632821
 40
0.2334121887632821
 40
0.2341418290746485
 40
0.2341418290746485
 40
0.2348753098392239
 40
0.2348753098392239
 40
0.2356125371831664
 40
0.2356125371831664
 40
0.2363534137265376
 40
0.2363534137265376
 40
0.2370978386199595
 40
0.2370978386199595
 40
0.2378457075884502
 40
0.2378457075884502
 40
0.2385969129828026
 40
0.2385969129828026
 40
0.2393513438384546
 40
0.2393513438384546
 40
0.2401088859418573
 40
0.2401088859418573
 40
0.2408694219044247
 40
0.2408694219044247
 40
0.2416328312439748
 40
0.2416328312439748
 40
0.2423989904737097
 40
0.2423989904737097
 40
0.2431677731985739
 40
0.2431677731985739
 40
0.2439390502189021
 40
0.2439390502189021
 40
0.2447126896412853
 40
0.2447126896412853
 40
0.2454885569962965
 40
0.2454885569962965
 40
0.2462665153630782
 40
0.2462665153630782
 40
0.2470464255004829
 40
0.2470464255004829
 40
0.2478281459843811
 40
0.2478281459843811
 40
0.2486115333510266
 40
0.2486115333510266
 40
0.249396442245989
 40
0.249396442245989
 40
0.2501827255783971
 40
0.2501827255783971
 40
0.2509702346800406
 40
0.2509702346800406
 40
0.2517588194689678
 40
0.2517588194689678
 40
0.252548328617112
 40
0.252548328617112
 40
0.2533386097215105
 40
0.2533386097215105
 40
0.254129509478606
 40
0.254129509478606
 40
0.2549208738612072
 40
0.2549208738612072
 40
0.255712548297535
 40
0.255712548297535
 40
0.2565043778518436
 40
0.2565043778518436
 40
0.2572962074061514
 40
0.2572962074061514
 40
0.2580878818424788
 40
0.2580878818424788
 40
0.2588792462250811
 40
0.2588792462250811
 40
0.2596701459821768
 40
0.2596701459821768
 40
0.2604604270865751
 40
0.2604604270865751
 40
0.26124993623472
 40
0.26124993623472
 40
0.2620385210236482
 40
0.2620385210236482
 40
0.2628260301252938
 40
0.2628260301252938
 40
0.2636123134577004
 40
0.2636123134577004
 40
0.2643972223526644
 40
0.2643972223526644
 40
0.2651806097193104
 40
0.2651806097193104
 40
0.2659623302032092
 40
0.2659623302032092
 40
0.2667422403406115
 40
0.2667422403406115
 40
0.2675201987073951
 40
0.2675201987073951
 40
0.2682960660623999
 40
0.2682960660623999
 40
0.2690697054847828
 40
0.2690697054847828
 40
0.2698409825051219
 40
0.2698409825051219
 40
0.2706097652299827
 40
0.2706097652299827
 40
0.271375924459714
 40
0.271375924459714
 40
0.2721393337992604
 40
0.2721393337992604
 40
0.2728998697618256
 40
0.2728998697618256
 40
0.2736574118652348
 40
0.2736574118652348
 40
0.2744118427208913
 40
0.2744118427208913
 40
0.2751630481152446
 40
0.2751630481152446
 40
0.2759109170837333
 40
0.2759109170837333
 40
0.2766553419771544
 40
0.2766553419771544
 40
0.2773962185205361
 40
0.2773962185205361
 40
0.278133445864473
 40
0.278133445864473
 40
0.2788669266290467
 40
0.2788669266290467
 40
0.2795965669404164
 40
0.2795965669404164
 40
0.2803222764602029
 40
0.2803222764602029
 40
0.2810439684077735
 40
0.2810439684077735
 40
0.2817656603553428
 40
0.2817656603553428
 40
0.2824913698751339
 40
0.2824913698751339
 40
0.2832210101865077
 40
0.2832210101865077
 40
0.2839544909510773
 40
0.2839544909510773
 40
0.2846917182950072
 40
0.2846917182950072
 40
0.285432594838392
 40
0.285432594838392
 40
0.2861770197318179
 40
0.2861770197318179
 40
0.2869248887003028
 40
0.2869248887003028
 40
0.287676094094656
 40
0.287676094094656
 40
0.2884305249503151
 40
0.2884305249503151
 40
0.2891880670537242
 40
0.2891880670537242
 40
0.2899486030162958
 40
0.2899486030162958
 40
0.2907120123558425
 40
0.2907120123558425
 40
0.2914781715855692
 40
0.2914781715855692
 40
0.2922469543104306
 40
0.2922469543104306
 40
0.2930182313307719
 40
0.2930182313307719
 40
0.2937918707531562
 40
0.2937918707531562
 40
0.2945677381081685
 40
0.2945677381081685
 40
0.2953456964749487
 40
0.2953456964749487
 40
0.2961256066123463
 40
0.2961256066123463
 40
0.2969073270962417
 40
0.2969073270962417
 40
0.2976907144628868
 40
0.2976907144628868
 40
0.2984756233578513
 40
0.2984756233578513
 40
0.2992619066902605
 40
0.2992619066902605
 40
0.3000494157919023
 40
0.3000494157919023
 40
0.3008380005808265
 40
0.3008380005808265
 40
0.301627509728977
 40
0.301627509728977
 40
0.3024177908333784
 40
0.3024177908333784
 40
0.303208690590473
 40
0.303208690590473
 40
0.3040000549730744
 40
0.3040000549730744
 40
0.3047917294093971
 40
0.3047917294093971
 40
0.3055835589637148
 40
0.3055835589637148
 40
0.3063753885180331
 40
0.3063753885180331
 40
0.3071670629543556
 40
0.3071670629543556
 40
0.3079584273369545
 40
0.3079584273369545
 40
0.3087493270940579
 40
0.3087493270940579
 40
0.309539608198454
 40
0.309539608198454
 40
0.3103291173465983
 40
0.3103291173465983
 40
0.3111177021355303
 40
0.3111177021355303
 40
0.3119052112371706
 40
0.3119052112371706
 40
0.3126914945695718
 40
0.3126914945695718
 40
0.3134764034645366
 40
0.3134764034645366
 40
0.314259790831185
 40
0.314259790831185
 40
0.3150415113150835
 40
0.3150415113150835
 40
0.3158214214524784
 40
0.3158214214524784
 40
0.3165993798192631
 40
0.3165993798192631
 40
0.3173752471742815
 40
0.3173752471742815
 40
0.3181488865966529
 40
0.3181488865966529
 40
0.3189201636169943
 40
0.3189201636169943
 40
0.3196889463418583
 40
0.3196889463418583
 40
0.3204551055715998
 40
0.3204551055715998
 40
0.3212185149111403
 40
0.3212185149111403
 40
0.3219790508737059
 40
0.3219790508737059
 40
0.3227365929771127
 40
0.3227365929771127
 40
0.323491023832765
 40
0.323491023832765
 40
0.3242422292271225
 40
0.3242422292271225
 40
0.3249900981956059
 40
0.3249900981956059
 40
0.325734523089024
 40
0.325734523089024
 40
0.3264753996324
 40
0.3264753996324
 40
0.3272126269763381
 40
0.3272126269763381
 40
0.3279461077409159
 40
0.3279461077409159
 40
0.3286757480522879
 40
0.3286757480522879
 40
0.3294014575720729
 40
0.3294014575720729
 40
0.3801127220801185
 40
0.3801127220801185
 40
0.3807576995855291
 40
0.3807576995855291
 40
0.3814077003216937
 40
0.3814077003216937
 40
0.3820624360477547
 40
0.3820624360477547
 40
0.3827216041690982
 40
0.3827216041690982
 40
0.3833848883605426
 40
0.3833848883605426
 40
0.3840519592893597
 40
0.3840519592893597
 40
0.3847224754355973
 40
0.3847224754355973
 40
0.3853960840063486
 40
0.3853960840063486
 40
0.3860724219390656
 40
0.3860724219390656
 40
0.386751116987742
 40
0.386751116987742
 40
0.3874317888848906
 40
0.3874317888848906
 40
0.3881140505705007
 40
0.3881140505705007
 40
0.3887975094788103
 40
0.3887975094788103
 40
0.389481768872246
 40
0.389481768872246
 40
0.3901664292117274
 40
0.3901664292117274
 40
0.390851089551205
 40
0.390851089551205
 40
0.39153534894465
 40
0.39153534894465
 40
0.3922188078529488
 40
0.3922188078529488
 40
0.3929010695385662
 40
0.3929010695385662
 40
0.3935817414357171
 40
0.3935817414357171
 40
0.3942604364844001
 40
0.3942604364844001
 40
0.3949367744170982
 40
0.3949367744170982
 40
0.3956103829878429
 40
0.3956103829878429
 40
0.3962808991340864
 40
0.3962808991340864
 40
0.3969479700629088
 40
0.3969479700629088
 40
0.3976112542543597
 40
0.3976112542543597
 40
0.398270422375689
 40
0.398270422375689
 40
0.3989251581017639
 40
0.3989251581017639
 40
0.3995751588379308
 40
0.3995751588379308
 40
0.4002201363433392
 40
0.4002201363433392
 40
0.4574378332428771
 40
0.4574378332428771
 40
0.4574378332428771
 10
48.13081102133435
 20
1.290078283535822
 30
0.0
 10
48.13437301593213
 20
1.290190096163083
 30
0.0
 10
48.13793501052992
 20
1.290301908790344
 30
0.0
 10
48.14150548932527
 20
1.290487351330645
 30
0.0
 10
48.14507596812062
 20
1.290672793870945
 30
0.0
 10
48.14865268783731
 20
1.290932440370029
 30
0.0
 10
48.152229407554
 20
1.291192086869113
 30
0.0
 10
48.15581008944971
 20
1.291526421532086
 30
0.0
 10
48.15939077134542
 20
1.291860756195059
 30
0.0
 10
48.16297310565832
 20
1.292270171008417
 30
0.0
 10
48.16655543997121
 20
1.292679585821776
 30
0.0
 10
48.17013709054388
 20
1.293164378437201
 30
0.0
 10
48.17371874111655
 20
1.293649171052626
 30
0.0
 10
48.17729735017968
 20
1.294209542947285
 30
0.0
 10
48.1808759592428
 20
1.294769914841945
 30
0.0
 10
48.18444915233912
 20
1.295405969768669
 30
0.0
 10
48.18802234543544
 20
1.296042024695393
 30
0.0
 10
48.1915877364637
 20
1.296753767434552
 30
0.0
 10
48.19515312749196
 20
1.29746551017371
 30
0.0
 10
48.19870832384923
 20
1.298252845596981
 30
0.0
 10
48.2022635202065
 20
1.299040181020251
 30
0.0
 10
48.20580612800643
 20
1.299902913474698
 30
0.0
 10
48.20934873580637
 20
1.300765645929145
 30
0.0
 10
48.21287636514989
 20
1.301703478948171
 30
0.0
 10
48.21640399449341
 20
1.302641311967196
 30
0.0
 10
48.21991426476826
 20
1.303653848312981
 30
0.0
 10
48.22342453504312
 20
1.304666384658767
 30
0.0
 10
48.22691508022763
 20
1.305753126698836
 30
0.0
 10
48.23040562541215
 20
1.306839868738906
 30
0.0
 10
48.23387409935886
 20
1.308000219157381
 30
0.0
 10
48.23734257330556
 20
1.309160569575855
 30
0.0
 10
48.24078665497989
 20
1.310393832417915
 30
0.0
 10
48.24423073665422
 20
1.311627095259975
 30
0.0
 10
48.24764813530395
 20
1.312932477305969
 30
0.0
 10
48.25106553395366
 20
1.314237859351964
 30
0.0
 10
48.25445399418474
 20
1.315614471815562
 30
0.0
 10
48.25784245441583
 20
1.316991084279161
 30
0.0
 10
48.26119976115139
 20
1.318437944821921
 30
0.0
 10
48.26455706788694
 20
1.319884805364682
 30
0.0
 10
48.26788105118605
 20
1.321400840417462
 30
0.0
 10
48.27120503448517
 20
1.322916875470243
 30
0.0
 10
48.27449357419992
 20
1.324500922850009
 30
0.0
 10
48.27778211391468
 20
1.326084970229776
 30
0.0
 10
48.28103314416433
 20
1.327735782038566
 30
0.0
 10
48.28428417441396
 20
1.329386593847355
 30
0.0
 10
48.28749568785655
 20
1.331102839638504
 30
0.0
 10
48.29070720129913
 20
1.332819085429652
 30
0.0
 10
48.29387725318249
 20
1.33459935562485
 30
0.0
 10
48.29704730506585
 20
1.336379625820048
 30
0.0
 10
48.30017401704093
 20
1.338222435359395
 30
0.0
 10
48.30330072901602
 20
1.340065244898743
 30
0.0
 10
48.30638229269756
 20
1.341969037104732
 30
0.0
 10
48.3094638563791
 20
1.343872829310722
 30
0.0
 10
48.31249853664033
 20
1.345835979946012
 30
0.0
 10
48.31553321690156
 20
1.347799130581303
 30
0.0
 10
48.31851935489104
 20
1.34981995207924
 30
0.0
 10
48.32150549288051
 20
1.351840773577177
 30
0.0
 10
48.32444150875168
 20
1.353917519423304
 30
0.0
 10
48.32737752462284
 20
1.355994265269432
 30
0.0
 10
48.33026191996825
 20
1.358125134511686
 30
0.0
 10
48.33314631531367
 20
1.360256003753941
 30
0.0
 10
48.3359776752981
 20
1.362439145618884
 30
0.0
 10
48.33880903528252
 20
1.364622287483827
 30
0.0
 10
48.34158603047091
 20
1.366855806076086
 30
0.0
 10
48.34436302565929
 20
1.369089324668346
 30
0.0
 10
48.34463980203974
 20
1.369320851453029
 30
0.0
 10
48.34491657842018
 20
1.369552378237711
 30
0.0
 10
48.34519063796967
 20
1.369790191063501
 30
0.0
 10
48.34546469751916
 20
1.370028003889291
 30
0.0
 10
48.34573584638752
 20
1.370272077724795
 30
0.0
 10
48.34600699525588
 20
1.370516151560298
 30
0.0
 10
48.34627503853787
 20
1.370766453991336
 30
0.0
 10
48.34654308181985
 20
1.371016756422374
 30
0.0
 10
48.3468078238831
 20
1.371273247512101
 30
0.0
 10
48.34707256594636
 20
1.371529738601829
 30
0.0
 10
48.34733381077191
 20
1.371792370767122
 30
0.0
 10
48.34759505559748
 20
1.372055002932414
 30
0.0
 10
48.34785260713198
 20
1.372323720837596
 30
0.0
 10
48.34811015866647
 20
1.372592438742778
 30
0.0
 10
48.34836382118485
 20
1.372867179211729
 30
0.0
 10
48.34861748370322
 20
1.37314191968068
 30
0.0
 10
48.3488670621812
 20
1.373422611628293
 30
0.0
 10
48.34911664065918
 20
1.373703303575907
 30
0.0
 10
48.34936194115421
 20
1.373989867959826
 30
0.0
 10
48.34960724164923
 20
1.374276432343745
 30
0.0
 10
48.34984807168861
 20
1.374568782137207
 30
0.0
 10
48.350088901728
 20
1.374861131930668
 30
0.0
 10
48.35032507070306
 20
1.375159172117228
 30
0.0
 10
48.35056123967814
 20
1.375457212303789
 30
0.0
 10
48.35079255924286
 20
1.375760839894599
 30
0.0
 10
48.3510238788076
 20
1.37606446748541
 30
0.0
 10
48.35125016328041
 20
1.376373571559616
 30
0.0
 10
48.35147644775322
 20
1.376682675633822
 30
0.0
 10
48.35169751452032
 20
1.37699713740256
 30
0.0
 10
48.35191858128741
 20
1.377311599171298
 30
0.0
 10
48.3521342512061
 20
1.37763129206565
 30
0.0
 10
48.35234992112477
 20
1.377950984960002
 30
0.0
 10
48.35256001892517
 20
1.378275774743143
 30
0.0
 10
48.35277011672557
 20
1.378600564526284
 30
0.0
 10
48.35297447140903
 20
1.378930309429945
 30
0.0
 10
48.3531788260925
 20
1.379260054333606
 30
0.0
 10
48.35337727132499
 20
1.379594605218839
 30
0.0
 10
48.35357571655749
 20
1.379929156104071
 30
0.0
 10
48.35376809105644
 20
1.38026835664617
 30
0.0
 10
48.3539604655554
 20
1.380607557188268
 30
0.0
 10
48.35414661346797
 20
1.380951244085577
 30
0.0
 10
48.35433276138054
 20
1.381294930982885
 30
0.0
 10
48.354512532652
 20
1.381642934189071
 30
0.0
 10
48.35469230392344
 20
1.381990937395257
 30
0.0
 10
48.35486555465363
 20
1.382343080374509
 30
0.0
 10
48.35503880538382
 20
1.382695223353762
 30
0.0
 10
48.35520539817038
 20
1.383051323358218
 30
0.0
 10
48.35537199095693
 20
1.383407423362673
 30
0.0
 10
48.35553179522338
 20
1.383767291731268
 30
0.0
 10
48.35569159948984
 20
1.384127160099863
 30
0.0
 10
48.35584449179727
 20
1.384490602577654
 30
0.0
 10
48.35599738410469
 20
1.384854045055445
 30
0.0
 10
48.35614324844529
 20
1.385220862132325
 30
0.0
 10
48.3562891127859
 20
1.385587679209204
 30
0.0
 10
48.35642784085728
 20
1.385957666476828
 30
0.0
 10
48.35656656892866
 20
1.386327653744453
 30
0.0
 10
48.35669806038727
 20
1.386700602270063
 30
0.0
 10
48.35682955184588
 20
1.387073550795674
 30
0.0
 10
48.35695371453873
 20
1.387449247511414
 30
0.0
 10
48.35707787723157
 20
1.387824944227154
 30
0.0
 10
48.35719462740482
 20
1.388203172333368
 30
0.0
 10
48.35731137757807
 20
1.388581400439582
 30
0.0
 10
48.35742064006173
 20
1.388961939820505
 30
0.0
 10
48.35752990254539
 20
1.389342479201428
 30
0.0
 10
48.35763161091324
 20
1.389725106851601
 30
0.0
 10
48.3577333192811
 20
1.390107734501775
 30
0.0
 10
48.35782741598509
 20
1.390492224961451
 30
0.0
 10
48.35792151268908
 20
1.390876715421127
 30
0.0
 10
48.35800794916761
 20
1.391262841218883
 30
0.0
 10
48.35809438564614
 20
1.391648967016638
 30
0.0
 10
48.35817312240594
 20
1.392036499117373
 30
0.0
 10
48.35825185916574
 20
1.392424031218107
 30
0.0
 10
48.35832286583688
 20
1.392812739474574
 30
0.0
 10
48.35839387250802
 20
1.393201447731041
 30
0.0
 10
48.35845712787203
 20
1.393591101337051
 30
0.0
 10
48.35852038323603
 20
1.39398075494306
 30
0.0
 10
48.35857587522715
 20
1.394371122886485
 30
0.0
 10
48.35863136721827
 20
1.39476149082991
 30
0.0
 10
48.35867909289792
 20
1.395152342343653
 30
0.0
 10
48.35872681857757
 20
1.395543193857397
 30
0.0
 10
48.35876678408236
 20
1.395934298866482
 30
0.0
 10
48.35880674958716
 20
1.396325403875567
 30
0.0
 10
48.35883897005104
 20
1.396716533438572
 30
0.0
 10
48.35887119051491
 20
1.397107663001576
 30
0.0
 10
48.35889568996568
 20
1.397498589744671
 30
0.0
 10
48.35892018941644
 20
1.397889516487767
 30
0.0
 10
48.35893700064777
 20
1.398280015029683
 30
0.0
 10
48.35895381187909
 20
1.398670513571598
 30
0.0
 10
48.35896297629858
 20
1.399060360937911
 30
0.0
 10
48.35897214071807
 20
1.399450208304224
 30
0.0
 10
48.3589737081724
 20
1.399839184329448
 30
0.0
 10
48.35897527562673
 20
1.400228160354672
 30
0.0
 10
48.35896930420498
 20
1.400616048070722
 30
0.0
 10
48.35896333278323
 20
1.401003935786773
 30
0.0
 10
48.35894988859947
 20
1.401390521796464
 30
0.0
 10
48.35893644441571
 20
1.401777107806156
 30
0.0
 10
48.35891560137212
 20
1.402162182640519
 30
0.0
 10
48.35889475832853
 20
1.402547257474882
 30
0.0
 10
48.35886659786046
 20
1.40293061593318
 30
0.0
 10
48.35883843739239
 20
1.403313974391479
 30
0.0
 10
48.35880304819655
 20
1.403695415862931
 30
0.0
 10
48.3587676590007
 20
1.404076857334383
 30
0.0
 10
48.35872513674816
 20
1.404456186100712
 30
0.0
 10
48.35868261449561
 20
1.404835514867042
 30
0.0
 10
48.35863306153085
 20
1.405212540385107
 30
0.0
 10
48.35858350856608
 20
1.405589565903171
 30
0.0
 10
48.35852703359383
 20
1.405964103067039
 30
0.0
 10
48.35847055862158
 20
1.406338640230907
 30
0.0
 10
48.35840727638283
 20
1.406710509612884
 30
0.0
 10
48.3583439941441
 20
1.407082378994861
 30
0.0
 10
48.35827402508296
 20
1.407451407065081
 30
0.0
 10
48.35820405602183
 20
1.4078204351353
 30
0.0
 10
48.35812752594457
 20
1.40818645445963
 30
0.0
 10
48.35805099586732
 20
1.40855247378396
 30
0.0
 10
48.35796803559548
 20
1.408915323200083
 30
0.0
 10
48.35788507532362
 20
1.409278172616206
 30
0.0
 10
48.35779582034223
 20
1.409637697387857
 30
0.0
 10
48.35770656536085
 20
1.409997222159509
 30
0.0
 10
48.35761115546383
 20
1.410353274108965
 30
0.0
 10
48.3575157455668
 20
1.410709326058422
 30
0.0
 10
48.35741432450043
 20
1.411061763677435
 30
0.0
 10
48.35731290343405
 20
1.411414201296447
 30
0.0
 10
48.35720561854028
 20
1.411762889835924
 30
0.0
 10
48.35709833364651
 20
1.412111578375402
 30
0.0
 10
48.35698533550732
 20
1.41245638991424
 30
0.0
 10
48.35687233736812
 20
1.412801201453078
 30
0.0
 10
48.35675377945223
 20
1.413142014946613
 30
0.0
 10
48.35663522153633
 20
1.413482828440147
 30
0.0
 10
48.35651053409389
 20
1.413821447486412
 30
0.0
 10
48.35638584665144
 20
1.414160066532677
 30
0.0
 10
48.35625432527091
 20
1.414498246519135
 30
0.0
 10
48.35612280389037
 20
1.414836426505594
 30
0.0
 10
48.35598440679875
 20
1.415173976488601
 30
0.0
 10
48.35584600970714
 20
1.415511526471608
 30
0.0
 10
48.35570070172658
 20
1.415848252025708
 30
0.0
 10
48.35555539374602
 20
1.416184977579808
 30
0.0
 10
48.35540314653603
 20
1.416520681059397
 30
0.0
 10
48.35525089932603
 20
1.416856384538985
 30
0.0
 10
48.35509169161463
 20
1.417190865357218
 30
0.0
 10
48.35493248390323
 20
1.417525346175451
 30
0.0
 10
48.35476630170576
 20
1.417858401099946
 30
0.0
 10
48.35460011950828
 20
1.418191456024441
 30
0.0
 10
48.35442695633238
 20
1.418522879489232
 30
0.0
 10
48.35425379315646
 20
1.418854302954022
 30
0.0
 10
48.35407365019212
 20
1.419183887387095
 30
0.0
 10
48.35389350722777
 20
1.419513471820168
 30
0.0
 10
48.35370639352122
 20
1.419841007985825
 30
0.0
 10
48.35351927981467
 20
1.420168544151481
 30
0.0
 10
48.35332521242476
 20
1.420493821506644
 30
0.0
 10
48.35313114503484
 20
1.420819098861807
 30
0.0
 10
48.35293014917083
 20
1.421141905925297
 30
0.0
 10
48.35272915330681
 20
1.421464712988788
 30
0.0
 10
48.35252126244652
 20
1.421784837722495
 30
0.0
 10
48.35231337158621
 20
1.422104962456202
 30
0.0
 10
48.35209862757336
 20
1.422422192656953
 30
0.0
 10
48.35188388356051
 20
1.422739422857704
 30
0.0
 10
48.35166233668046
 20
1.423053546558575
 30
0.0
 10
48.3514407898004
 20
1.423367670259446
 30
0.0
 10
48.35121249883326
 20
1.423678476139137
 30
0.0
 10
48.35098420786613
 20
1.423989282018828
 30
0.0
 10
48.35074924011661
 20
1.424296559817658
 30
0.0
 10
48.35051427236709
 20
1.424603837616488
 30
0.0
 10
48.35027270367028
 20
1.424907378557487
 30
0.0
 10
48.35003113497346
 20
1.425210919498486
 30
0.0
 10
48.34978304967609
 20
1.425510516711992
 30
0.0
 10
48.34953496437873
 20
1.425810113925498
 30
0.0
 10
48.34928045529543
 20
1.426105562875611
 30
0.0
 10
48.34902594621213
 20
1.426401011825723
 30
0.0
 10
48.34876511455639
 20
1.426692110736915
 30
0.0
 10
48.34850428290064
 20
1.426983209648107
 30
0.0
 10
48.34823723819024
 20
1.427269759930256
 30
0.0
 10
48.34797019347983
 20
1.427556310212404
 30
0.0
 10
48.34769705341678
 20
1.427838116882487
 30
0.0
 10
48.34742391335372
 20
1.42811992355257
 30
0.0
 10
48.34714480367872
 20
1.42839679565124
 30
0.0
 10
48.3468656940037
 20
1.428673667749911
 30
0.0
 10
48.34658074832537
 20
1.42894541875118
 30
0.0
 10
48.34629580264703
 20
1.429217169752449
 30
0.0
 10
48.34600516224634
 20
1.429483617964701
 30
0.0
 10
48.34571452184564
 20
1.429750066176952
 30
0.0
 10
48.34541833545593
 20
1.430011035133545
 30
0.0
 10
48.34512214906622
 20
1.430272004090138
 30
0.0
 10
48.34482057262967
 20
1.430527322927888
 30
0.0
 10
48.34451899619312
 20
1.430782641765638
 30
0.0
 10
48.34421219259418
 20
1.431032145589504
 30
0.0
 10
48.34390538899525
 20
1.431281649413369
 30
0.0
 10
48.34359352777222
 20
1.431525179645754
 30
0.0
 10
48.3432816665492
 20
1.43176870987814
 30
0.0
 10
48.34296492358484
 20
1.432006114591264
 30
0.0
 10
48.34264818062049
 20
1.432243519304388
 30
0.0
 10
48.34232673781291
 20
1.432474653534287
 30
0.0
 10
48.34200529500534
 20
1.432705787764186
 30
0.0
 10
48.34167933992045
 20
1.432930513804983
 30
0.0
 10
48.34135338483557
 20
1.43315523984578
 30
0.0
 10
48.34102311034246
 20
1.433373427522977
 30
0.0
 10
48.34069283584935
 20
1.433591615200175
 30
0.0
 10
48.34035843974003
 20
1.433803142121826
 30
0.0
 10
48.34002404363071
 20
1.434014669043477
 30
0.0
 10
48.33968572822596
 20
1.434219420828225
 30
0.0
 10
48.33934741282121
 20
1.434424172612973
 30
0.0
 10
48.33900538456405
 20
1.434622043094069
 30
0.0
 10
48.33866335630687
 20
1.434819913575166
 30
0.0
 10
48.33831782534527
 20
1.435010804979706
 30
0.0
 10
48.33797229438368
 20
1.435201696384245
 30
0.0
 10
48.33762347414455
 20
1.43538551948701
 30
0.0
 10
48.33727465390542
 20
1.435569342589776
 30
0.0
 10
48.33692276066143
 20
1.435746016841218
 30
0.0
 10
48.33657086741744
 20
1.43592269109266
 30
0.0
 10
48.33621611984852
 20
1.436092144720677
 30
0.0
 10
48.3358613722796
 20
1.436261598348694
 30
0.0
 10
48.33550399103111
 20
1.436423768434038
 30
0.0
 10
48.33514660978263
 20
1.436585938519381
 30
0.0
 10
48.33478681702189
 20
1.436740771044639
 30
0.0
 10
48.33442702426115
 20
1.436895603569896
 30
0.0
 10
48.33406504323416
 20
1.437043053442167
 30
0.0
 10
48.33370306220716
 20
1.437190503314437
 30
0.0
 10
48.33333911679733
 20
1.437330534361935
 30
0.0
 10
48.3329751713875
 20
1.437470565409434
 30
0.0
 10
48.33260948567816
 20
1.437603150352412
 30
0.0
 10
48.33224379996884
 20
1.437735735295391
 30
0.0
 10
48.33187659781126
 20
1.437860855691887
 30
0.0
 10
48.33150939565369
 20
1.437985976088384
 30
0.0
 10
48.33114090024213
 20
1.438103622255441
 30
0.0
 10
48.33077240483058
 20
1.438221268422498
 30
0.0
 10
48.33040283828599
 20
1.4383314393336
 30
0.0
 10
48.33003327174141
 20
1.438441610244702
 30
0.0
 10
48.32966285470547
 20
1.438544313404311
 30
0.0
 10
48.32929243766952
 20
1.43864701656392
 30
0.0
 10
48.32892138891005
 20
1.43874226786007
 30
0.0
 10
48.32855034015056
 20
1.43883751915622
 30
0.0
 10
48.32817887617998
 20
1.438925342692229
 30
0.0
 10
48.32780741220938
 20
1.439013166228237
 30
0.0
 10
48.32743574691715
 20
1.439093594134693
 30
0.0
 10
48.32706408162491
 20
1.439174022041148
 30
0.0
 10
48.32669242592527
 20
1.439247094269372
 30
0.0
 10
48.32632077022564
 20
1.439320166497597
 30
0.0
 10
48.32594933172149
 20
1.439385930595876
 30
0.0
 10
48.32557789321734
 20
1.439451694694154
 30
0.0
 10
48.32520687588114
 20
1.439510205568056
 30
0.0
 10
48.32483585854493
 20
1.439568716441958
 30
0.0
 10
48.32446546241754
 20
1.43962003610012
 30
0.0
 10
48.32409506629013
 20
1.439671355758282
 30
0.0
 10
48.32372548719802
 20
1.439715553045062
 30
0.0
 10
48.32335590810591
 20
1.439759750331842
 30
0.0
 10
48.32298733739746
 20
1.439796900648255
 30
0.0
 10
48.32261876668903
 20
1.439834050964669
 30
0.0
 10
48.32225139099022
 20
1.43986423597905
 30
0.0
 10
48.32188401529142
 20
1.439894420993431
 30
0.0
 10
48.32151801628125
 20
1.439917728343243
 30
0.0
 10
48.32115201727108
 20
1.439941035693055
 30
0.0
 10
48.32078757147687
 20
1.439957558679277
 30
0.0
 10
48.32042312568265
 20
1.439974081665498
 30
0.0
 10
48.32006040429538
 20
1.439983918940991
 30
0.0
 10
48.3196976829081
 20
1.439993756216484
 30
0.0
 10
48.29434205206454
 20
1.440002213531497
 30
0.0
 10
48.26898642122097
 20
1.44001067084651
 30
0.0
 10
48.26866430562058
 20
1.440026180056817
 30
0.0
 10
48.26834219002019
 20
1.440041689267123
 30
0.0
 10
48.26801824178194
 20
1.440067819291814
 30
0.0
 10
48.26769429354369
 20
1.440093949316505
 30
0.0
 10
48.26736901748546
 20
1.440130897979365
 30
0.0
 10
48.26704374142723
 20
1.440167846642224
 30
0.0
 10
48.26671766173585
 20
1.440215780846279
 30
0.0
 10
48.26639158204447
 20
1.440263715050335
 30
0.0
 10
48.26606523998017
 20
1.440322768726975
 30
0.0
 10
48.26573889791587
 20
1.440381822403615
 30
0.0
 10
48.2654128492754
 20
1.440452094660325
 30
0.0
 10
48.26508680063493
 20
1.440522366917036
 30
0.0
 10
48.26476161299293
 20
1.440603920415338
 30
0.0
 10
48.26443642535094
 20
1.440685473913641
 30
0.0
 10
48.26411267510363
 20
1.440778333506684
 30
0.0
 10
48.26378892485634
 20
1.440871193099728
 30
0.0
 10
48.2634671940958
 20
1.440975344756148
 30
0.0
 10
48.26314546333527
 20
1.441079496412569
 30
0.0
 10
48.26282633658677
 20
1.441194886449676
 30
0.0
 10
48.26250720983826
 20
1.441310276486783
 30
0.0
 10
48.26219127069623
 20
1.44143681113194
 30
0.0
 10
48.2618753315542
 20
1.441563345777097
 30
0.0
 10
48.26156315925574
 20
1.441700891071414
 30
0.0
 10
48.26125098695729
 20
1.441838436365731
 30
0.0
 10
48.26094315293363
 20
1.441986818418965
 30
0.0
 10
48.26063531890999
 20
1.442135200472198
 30
0.0
 10
48.26033238335819
 20
1.442294206072205
 30
0.0
 10
48.2600294478064
 20
1.442453211672211
 30
0.0
 10
48.25973195632345
 20
1.44262258924655
 30
0.0
 10
48.2594344648405
 20
1.442791966820889
 30
0.0
 10
48.2591429451623
 20
1.442971427742344
 30
0.0
 10
48.25885142548408
 20
1.443150888663799
 30
0.0
 10
48.25856638436962
 20
1.443340108885887
 30
0.0
 10
48.25828134325516
 20
1.443529329107976
 30
0.0
 10
48.25800326355484
 20
1.443727951111047
 30
0.0
 10
48.25772518385453
 20
1.443926573114117
 30
0.0
 10
48.25745452179778
 20
1.444134208137549
 30
0.0
 10
48.25718385974104
 20
1.44434184316098
 30
0.0
 10
48.25692104247535
 20
1.44455807369247
 30
0.0
 10
48.25665822520966
 20
1.44477430422396
 30
0.0
 10
48.25640364861823
 20
1.444998686712966
 30
0.0
 10
48.2561490720268
 20
1.445223069201971
 30
0.0
 10
48.25590309884752
 20
1.445455136961204
 30
0.0
 10
48.25565712566824
 20
1.445687204720436
 30
0.0
 10
48.25542008393111
 20
1.445926470976952
 30
0.0
 10
48.25518304219399
 20
1.446165737233468
 30
0.0
 10
48.25495522398889
 20
1.446411698289365
 30
0.0
 10
48.25472740578379
 20
1.446657659345262
 30
0.0
 10
48.25450906636463
 20
1.44690979780735
 30
0.0
 10
48.25429072694548
 20
1.447161936269438
 30
0.0
 10
48.25408208417154
 20
1.447419724307442
 30
0.0
 10
48.25387344139759
 20
1.447677512345445
 30
0.0
 10
48.2536746755072
 20
1.447940414939304
 30
0.0
 10
48.2534759096168
 20
1.448203317533164
 30
0.0
 10
48.25328716332378
 20
1.448470795671754
 30
0.0
 10
48.25309841703077
 20
1.448738273810344
 30
0.0
 10
48.25291979592947
 20
1.449009787606355
 30
0.0
 10
48.25274117482817
 20
1.449281301402365
 30
0.0
 10
48.25257274808835
 20
1.449556313091091
 30
0.0
 10
48.25240432134854
 20
1.449831324779817
 30
0.0
 10
48.2386480896947
 20
1.47491582797019
 30
0.0
 10
48.22489185804086
 20
1.500000331160563
 30
0.0
  0
SPLINE
  5
3E
330
1F
100
AcDbEntity
  8
DEFAULT
100
AcDbSpline
210
0.0
220
0.0
230
1.0
 70
     8
 71
     2
 72
   260
 73
   257
 74
     0
 42
0.0000000001
 43
0.0000000001
 40
0.0
 40
0.0
 40
0.0
 40
1.262449844603279
 40
1.262449844603279
 40
1.267972916492927
 40
1.267972916492927
 40
1.273542888089898
 40
1.273542888089898
 40
1.279158959412877
 40
1.279158959412877
 40
1.284820270672131
 40
1.284820270672131
 40
1.290525901788569
 40
1.290525901788569
 40
1.296274872069247
 40
1.296274872069247
 40
1.302066140048366
 40
1.302066140048366
 40
1.30789860350224
 40
1.30789860350224
 40
1.313771099646126
 40
1.313771099646126
 40
1.319682405520088
 40
1.319682405520088
 40
1.325631238570102
 40
1.325631238570102
 40
1.331616257429902
 40
1.331616257429902
 40
1.337636062907785
 40
1.337636062907785
 40
1.34368919918163
 40
1.34368919918163
 40
1.34977415520413
 40
1.34977415520413
 40
1.355889366318867
 40
1.355889366318867
 40
1.362033216086697
 40
1.362033216086697
 40
1.368204038320216
 40
1.368204038320216
 40
1.374400119322955
 40
1.374400119322955
 40
1.380619700328248
 40
1.380619700328248
 40
1.386860980131222
 40
1.386860980131222
 40
1.393122117906092
 40
1.393122117906092
 40
1.399401236199301
 40
1.399401236199301
 40
1.405696424087674
 40
1.405696424087674
 40
1.41200574048936
 40
1.41200574048936
 40
1.41832721761433
 40
1.41832721761433
 40
1.424658864539461
 40
1.424658864539461
 40
1.430998670892836
 40
1.430998670892836
 40
1.437344610630368
 40
1.437344610630368
 40
1.443694645887356
 40
1.443694645887356
 40
1.450046730886936
 40
1.450046730886936
 40
1.456398815886516
 40
1.456398815886516
 40
1.462748851143506
 40
1.462748851143506
 40
1.469094790881034
 40
1.469094790881034
 40
1.475434597234401
 40
1.475434597234401
 40
1.481766244159533
 40
1.481766244159533
 40
1.488087721284495
 40
1.488087721284495
 40
1.494397037686199
 40
1.494397037686199
 40
1.500692225574553
 40
1.500692225574553
 40
1.506971343867779
 40
1.506971343867779
 40
1.51323248164265
 40
1.51323248164265
 40
1.519473761445604
 40
1.519473761445604
 40
1.52569334245092
 40
1.52569334245092
 40
1.531889423453667
 40
1.531889423453667
 40
1.538060245687178
 40
1.538060245687178
 40
1.544204095454998
 40
1.544204095454998
 40
1.550319306569736
 40
1.550319306569736
 40
1.556404262592233
 40
1.556404262592233
 40
1.562457398866083
 40
1.562457398866083
 40
1.56847720434396
 40
1.56847720434396
 40
1.574462223203768
 40
1.574462223203768
 40
1.580411056253791
 40
1.580411056253791
 40
1.586322362127751
 40
1.586322362127751
 40
1.59219485827164
 40
1.59219485827164
 40
1.598027321725506
 40
1.598027321725506
 40
1.603818589704627
 40
1.603818589704627
 40
1.609567559985304
 40
1.609567559985304
 40
1.615273191101751
 40
1.615273191101751
 40
1.62093450236099
 40
1.62093450236099
 40
1.626550573683981
 40
1.626550573683981
 40
1.632120545280944
 40
1.632120545280944
 40
1.637643617170601
 40
1.637643617170601
 40
3.57748272115782
 40
3.57748272115782
 40
3.582958152539289
 40
3.582958152539289
 40
3.588481224428938
 40
3.588481224428938
 40
3.594051196025902
 40
3.594051196025902
 40
3.599667267348885
 40
3.599667267348885
 40
3.605328578608138
 40
3.605328578608138
 40
3.611034209724578
 40
3.611034209724578
 40
3.616783180005255
 40
3.616783180005255
 40
3.622574447984369
 40
3.622574447984369
 40
3.628406911438249
 40
3.628406911438249
 40
3.634279407582124
 40
3.634279407582124
 40
3.640190713456091
 40
3.640190713456091
 40
3.646139546506108
 40
3.646139546506108
 40
3.652124565365901
 40
3.652124565365901
 40
3.658144370843786
 40
3.658144370843786
 40
3.664197507117628
 40
3.664197507117628
 40
3.670282463140132
 40
3.670282463140132
 40
3.676397674254871
 40
3.676397674254871
 40
3.682541524022697
 40
3.682541524022697
 40
3.688712346256221
 40
3.688712346256221
 40
3.694908427258961
 40
3.694908427258961
 40
3.701128008264246
 40
3.701128008264246
 40
3.707369288067219
 40
3.707369288067219
 40
3.713630425842102
 40
3.713630425842102
 40
3.719909544135304
 40
3.719909544135304
 40
3.72620473202367
 40
3.72620473202367
 40
3.732514048425351
 40
3.732514048425351
 40
3.738835525550325
 40
3.738835525550325
 40
3.745167172475462
 40
3.745167172475462
 40
3.75150697882884
 40
3.75150697882884
 40
3.757852918566363
 40
3.757852918566363
 40
3.764202953823358
 40
3.764202953823358
 40
3.770555038822938
 40
3.770555038822938
 40
3.776907123822518
 40
3.776907123822518
 40
3.783257159079517
 40
3.783257159079517
 40
3.789603098817039
 40
3.789603098817039
 40
3.795942905170418
 40
3.795942905170418
 40
3.80227455209555
 40
3.80227455209555
 40
3.808596029220515
 40
3.808596029220515
 40
3.81490534562221
 40
3.81490534562221
 40
3.821200533510575
 40
3.821200533510575
 40
3.827479651803787
 40
3.827479651803787
 40
3.833740789578654
 40
3.833740789578654
 40
3.839982069381631
 40
3.839982069381631
 40
3.846201650386924
 40
3.846201650386924
 40
3.852397731389675
 40
3.852397731389675
 40
3.858568553623188
 40
3.858568553623188
 40
3.864712403391009
 40
3.864712403391009
 40
3.870827614505747
 40
3.870827614505747
 40
3.876912570528247
 40
3.876912570528247
 40
3.882965706802097
 40
3.882965706802097
 40
3.888985512279979
 40
3.888985512279979
 40
3.894970531139782
 40
3.894970531139782
 40
3.900919364189802
 40
3.900919364189802
 40
3.906830670063759
 40
3.906830670063759
 40
3.91270316620765
 40
3.91270316620765
 40
3.91853562966152
 40
3.91853562966152
 40
3.924326897640639
 40
3.924326897640639
 40
3.930075867921317
 40
3.930075867921317
 40
3.935781499037756
 40
3.935781499037756
 40
3.941442810297011
 40
3.941442810297011
 40
3.947058881619989
 40
3.947058881619989
 40
3.952628853216961
 40
3.952628853216961
 40
3.95815192510661
 40
3.95815192510661
 40
5.220601769709886
 40
5.220601769709886
 40
5.220601769709886
 10
45.63628102032733
 20
1.499999831331887
 30
0.0
 10
45.65283456436396
 20
0.8689920003863923
 30
0.0
 10
45.66938810840058
 20
0.2379841694408978
 30
0.0
 10
45.66955129621171
 20
0.2352274593522496
 30
0.0
 10
45.66971448402283
 20
0.2324707492636014
 30
0.0
 10
45.66994069326346
 20
0.2296949655405387
 30
0.0
 10
45.67016690250409
 20
0.226919181817476
 30
0.0
 10
45.67045753704721
 20
0.224126227138548
 30
0.0
 10
45.67074817159033
 20
0.22133327245962
 30
0.0
 10
45.67110457069172
 20
0.2185251430156543
 30
0.0
 10
45.67146096979311
 20
0.2157170135716886
 30
0.0
 10
45.67188440151281
 20
0.2128957971340571
 30
0.0
 10
45.67230783323252
 20
0.2100745806964256
 30
0.0
 10
45.67279948784531
 20
0.2072424541872885
 30
0.0
 10
45.67329114245809
 20
0.2044103276781515
 30
0.0
 10
45.67385212589328
 20
0.2015695542294331
 30
0.0
 10
45.67441310932846
 20
0.1987287807807147
 30
0.0
 10
45.67504443668162
 20
0.1958817062719707
 30
0.0
 10
45.67567576403479
 20
0.1930346317632266
 30
0.0
 10
45.67637835319608
 20
0.1901836808323226
 30
0.0
 10
45.67708094235737
 20
0.1873327299014185
 30
0.0
 10
45.67785560780277
 20
0.184480401426017
 30
0.0
 10
45.67863027324817
 20
0.1816280729506156
 30
0.0
 10
45.67947772004122
 20
0.1787769350028496
 30
0.0
 10
45.68032516683427
 20
0.1759257970550836
 30
0.0
 10
45.68124598488704
 20
0.1730784813364259
 30
0.0
 10
45.68216680293983
 20
0.1702311656177682
 30
0.0
 10
45.68316146158196
 20
0.1673903613859507
 30
0.0
 10
45.6841561202241
 20
0.1645495571541332
 30
0.0
 10
45.68522496312863
 20
0.1617180046589717
 30
0.0
 10
45.68629380603317
 20
0.1588864521638102
 30
0.0
 10
45.68743704654752
 20
0.1560669356138882
 30
0.0
 10
45.68858028706187
 20
0.1532474190639662
 30
0.0
 10
45.68979800399062
 20
0.1504427591512649
 30
0.0
 10
45.69101572091935
 20
0.1476380992385636
 30
0.0
 10
45.69230785480405
 20
0.1448511452532177
 30
0.0
 10
45.69359998868875
 20
0.1420641912678717
 30
0.0
 10
45.69496633862724
 20
0.1392978128402136
 30
0.0
 10
45.69633268856573
 20
0.1365314344125555
 30
0.0
 10
45.69777290961055
 20
0.1337885129244045
 30
0.0
 10
45.69921313065538
 20
0.1310455914362535
 30
0.0
 10
45.70072673182724
 20
0.1283290111479317
 30
0.0
 10
45.7022403329991
 20
0.1256124308596098
 30
0.0
 10
45.7038266759469
 20
0.1229250698033509
 30
0.0
 10
45.70541301889471
 20
0.1202377087470921
 30
0.0
 10
45.70707131722947
 20
0.1175824294412736
 30
0.0
 10
45.70872961556423
 20
0.1149271501354552
 30
0.0
 10
45.71045893488842
 20
0.1123067901773542
 30
0.0
 10
45.71218825421261
 20
0.1096864302192533
 30
0.0
 10
45.71398751286123
 20
0.107103792816746
 30
0.0
 10
45.71578677150985
 20
0.1045211554142386
 30
0.0
 10
45.71765474201337
 20
0.1019789999189606
 30
0.0
 10
45.71952271251687
 20
0.0994368444236825
 30
0.0
 10
45.72145802379001
 20
0.0969378769296038
 30
0.0
 10
45.72339333506314
 20
0.094438909435525
 30
0.0
 10
45.72539447531693
 20
0.091985773507619
 30
0.0
 10
45.72739561557072
 20
0.0895326375797129
 30
0.0
 10
45.7294609359388
 20
0.087127905177395
 30
0.0
 10
45.73152625630689
 20
0.0847231727750771
 30
0.0
 10
45.73365397517022
 20
0.0823693354343281
 30
0.0
 10
45.73578169403356
 20
0.0800154980935792
 30
0.0
 10
45.73796990202145
 20
0.0777149584301582
 30
0.0
 10
45.74015811000934
 20
0.0754144187667371
 30
0.0
 10
45.74240477564824
 20
0.0731694823606275
 30
0.0
 10
45.74465144128713
 20
0.070924545954518
 30
0.0
 10
45.74695441726239
 20
0.0687374136727754
 30
0.0
 10
45.74925739323766
 20
0.0665502813910328
 30
0.0
 10
45.75161442322816
 20
0.0644230422025328
 30
0.0
 10
45.75397145321867
 20
0.0622958030140327
 30
0.0
 10
45.75638017925855
 20
0.0602304273453187
 30
0.0
 10
45.75878890529842
 20
0.0581650516766046
 30
0.0
 10
45.7612468756154
 20
0.0561633853531542
 30
0.0
 10
45.76370484593237
 20
0.0541617190297037
 30
0.0
 10
45.76620952320847
 20
0.0522254778415498
 30
0.0
 10
45.76871420048457
 20
0.050289236653396
 30
0.0
 10
45.77126297048089
 20
0.0484200015782253
 30
0.0
 10
45.7738117404772
 20
0.0465507665030547
 30
0.0
 10
45.77640192096194
 20
0.0447499796137565
 30
0.0
 10
45.77899210144668
 20
0.0429491927244582
 30
0.0
 10
45.78162095136353
 20
0.0412181538016953
 30
0.0
 10
45.78424980128037
 20
0.0394871148789325
 30
0.0
 10
45.78691453009293
 20
0.0378269787427555
 30
0.0
 10
45.78957925890548
 20
0.0361668426065784
 30
0.0
 10
45.79227703605265
 20
0.0345786171744897
 30
0.0
 10
45.79497481319984
 20
0.0329903917424009
 30
0.0
 10
45.79770277759785
 20
0.031474936814708
 30
0.0
 10
45.80043074199586
 20
0.0299594818870151
 30
0.0
 10
45.80318601152266
 20
0.0285175086538651
 30
0.0
 10
45.80594128104946
 20
0.0270755354207152
 30
0.0
 10
45.80872096194943
 20
0.0257076066789838
 30
0.0
 10
45.81150064284941
 20
0.0243396779372524
 30
0.0
 10
45.81430183899866
 20
0.0230462089995322
 30
0.0
 10
45.8171030351479
 20
0.021752740061812
 30
0.0
 10
45.81992285712255
 20
0.0205340003341991
 30
0.0
 10
45.8227426790972
 20
0.0193152606065862
 30
0.0
 10
45.82557825299139
 20
0.0181713758068477
 30
0.0
 10
45.82841382688557
 20
0.0170274910071092
 30
0.0
 10
45.83126230282908
 20
0.0159584459901981
 30
0.0
 10
45.83411077877259
 20
0.0148894009732869
 30
0.0
 10
45.83696933910275
 20
0.0138950431270864
 30
0.0
 10
45.8398278994329
 20
0.0129006852808859
 30
0.0
 10
45.84269376647973
 20
0.0119807284515555
 30
0.0
 10
45.84555963352654
 20
0.0110607716222252
 30
0.0
 10
45.84843007697516
 20
0.0102148005255981
 30
0.0
 10
45.85130052042378
 20
0.0093688294289709
 30
0.0
 10
45.85417286422314
 20
0.0085963045021376
 30
0.0
 10
45.85704520802249
 20
0.0078237795753044
 30
0.0
 10
45.85991683681441
 20
0.0071240422208051
 30
0.0
 10
45.86278846560634
 20
0.0064243048663058
 30
0.0
 10
45.86565683065442
 20
0.0057965830402318
 30
0.0
 10
45.8685251957025
 20
0.0051688612141578
 30
0.0
 10
45.87138782030507
 20
0.0046122753089239
 30
0.0
 10
45.87425044490765
 20
0.0040556894036901
 30
0.0
 10
45.87710492928439
 20
0.0035692583762427
 30
0.0
 10
45.87995941366113
 20
0.0030828273487953
 30
0.0
 10
45.88280343930746
 20
0.0026654750455448
 30
0.0
 10
45.88564746495379
 20
0.0022481227422943
 30
0.0
 10
45.88847879846212
 20
0.0018986843730574
 30
0.0
 10
45.89131013197044
 20
0.0015492460038205
 30
0.0
 10
45.89412662832117
 20
0.0012664747184882
 30
0.0
 10
45.8969431246719
 20
0.0009837034331559
 30
0.0
 10
45.89974273000186
 20
0.0007662769566162
 30
0.0
 10
45.90254233533182
 20
0.0005488504800765
 30
0.0
 10
45.90532308919055
 20
0.0003953777630692
 30
0.0
 10
45.90810384304929
 20
0.0002419050460619
 30
0.0
 10
45.91086388015806
 20
0.0001509328920722
 30
0.0
 10
45.91362391726683
 20
0.0000599607380824
 30
0.0
 10
46.88354346879709
 20
0.0000299803690409
 30
0.0
 10
47.85346302032735
 20
-0.0000000000000007
 30
0.0
 10
47.8562005718576
 20
0.0000299803690395
 30
0.0
 10
47.85893812338784
 20
0.0000599607380797
 30
0.0
 10
47.86169816049661
 20
0.0001509328920695
 30
0.0
 10
47.86445819760537
 20
0.0002419050460593
 30
0.0
 10
47.86723895146411
 20
0.0003953777630666
 30
0.0
 10
47.87001970532285
 20
0.0005488504800739
 30
0.0
 10
47.8728193106528
 20
0.0007662769566136
 30
0.0
 10
47.87561891598276
 20
0.0009837034331533
 30
0.0
 10
47.87843541233349
 20
0.0012664747184856
 30
0.0
 10
47.88125190868423
 20
0.001549246003818
 30
0.0
 10
47.88408324219255
 20
0.0018986843730549
 30
0.0
 10
47.88691457570087
 20
0.0022481227422918
 30
0.0
 10
47.8897586013472
 20
0.0026654750455423
 30
0.0
 10
47.89260262699354
 20
0.0030828273487928
 30
0.0
 10
47.89545711137027
 20
0.0035692583762402
 30
0.0
 10
47.898311595747
 20
0.0040556894036876
 30
0.0
 10
47.90117422034959
 20
0.0046122753089215
 30
0.0
 10
47.90403684495217
 20
0.0051688612141554
 30
0.0
 10
47.90690521000025
 20
0.0057965830402294
 30
0.0
 10
47.90977357504832
 20
0.0064243048663034
 30
0.0
 10
47.91264520384024
 20
0.0071240422208027
 30
0.0
 10
47.91551683263217
 20
0.007823779575302
 30
0.0
 10
47.91838917643152
 20
0.0085963045021353
 30
0.0
 10
47.92126152023087
 20
0.0093688294289686
 30
0.0
 10
47.92413196367949
 20
0.0102148005255958
 30
0.0
 10
47.9270024071281
 20
0.0110607716222229
 30
0.0
 10
47.92986827417492
 20
0.0119807284515533
 30
0.0
 10
47.93273414122174
 20
0.0129006852808837
 30
0.0
 10
47.9355927015519
 20
0.0138950431270842
 30
0.0
 10
47.93845126188205
 20
0.0148894009732847
 30
0.0
 10
47.94129973782556
 20
0.0159584459901959
 30
0.0
 10
47.94414821376908
 20
0.017027491007107
 30
0.0
 10
47.94698378766326
 20
0.0181713758068456
 30
0.0
 10
47.94981936155745
 20
0.0193152606065841
 30
0.0
 10
47.9526391835321
 20
0.020534000334197
 30
0.0
 10
47.95545900550675
 20
0.0217527400618099
 30
0.0
 10
47.958260201656
 20
0.0230462089995301
 30
0.0
 10
47.96106139780526
 20
0.0243396779372503
 30
0.0
 10
47.96384107870523
 20
0.0257076066789818
 30
0.0
 10
47.96662075960521
 20
0.0270755354207132
 30
0.0
 10
47.96937602913199
 20
0.0285175086538632
 30
0.0
 10
47.97213129865877
 20
0.0299594818870131
 30
0.0
 10
47.97485926305679
 20
0.0314749368147061
 30
0.0
 10
47.97758722745481
 20
0.0329903917423991
 30
0.0
 10
47.980285004602
 20
0.0345786171744878
 30
0.0
 10
47.98298278174919
 20
0.0361668426065765
 30
0.0
 10
47.98564751056172
 20
0.0378269787427536
 30
0.0
 10
47.98831223937426
 20
0.0394871148789307
 30
0.0
 10
47.99094108929111
 20
0.0412181538016936
 30
0.0
 10
47.99356993920797
 20
0.0429491927244565
 30
0.0
 10
47.99616011969269
 20
0.0447499796137548
 30
0.0
 10
47.99875030017742
 20
0.046550766503053
 30
0.0
 10
48.00129907017374
 20
0.0484200015782237
 30
0.0
 10
48.00384784017006
 20
0.0502892366533944
 30
0.0
 10
48.00635251744617
 20
0.0522254778415483
 30
0.0
 10
48.00885719472227
 20
0.0541617190297022
 30
0.0
 10
48.01131516503925
 20
0.0561633853531527
 30
0.0
 10
48.01377313535623
 20
0.0581650516766031
 30
0.0
 10
48.01618186139611
 20
0.0602304273453172
 30
0.0
 10
48.01859058743597
 20
0.0622958030140313
 30
0.0
 10
48.02094761742649
 20
0.0644230422025314
 30
0.0
 10
48.023304647417
 20
0.0665502813910314
 30
0.0
 10
48.02560762339226
 20
0.0687374136727741
 30
0.0
 10
48.02791059936752
 20
0.0709245459545167
 30
0.0
 10
48.03015726500642
 20
0.0731694823606263
 30
0.0
 10
48.03240393064532
 20
0.0754144187667359
 30
0.0
 10
48.03459213863322
 20
0.077714958430157
 30
0.0
 10
48.03678034662111
 20
0.0800154980935781
 30
0.0
 10
48.03890806548444
 20
0.082369335434327
 30
0.0
 10
48.04103578434777
 20
0.084723172775076
 30
0.0
 10
48.04310110471586
 20
0.087127905177394
 30
0.0
 10
48.04516642508394
 20
0.0895326375797119
 30
0.0
 10
48.04716756533773
 20
0.0919857735076179
 30
0.0
 10
48.04916870559153
 20
0.094438909435524
 30
0.0
 10
48.05110401686466
 20
0.0969378769296028
 30
0.0
 10
48.05303932813779
 20
0.0994368444236816
 30
0.0
 10
48.0549072986413
 20
0.1019789999189596
 30
0.0
 10
48.05677526914481
 20
0.1045211554142377
 30
0.0
 10
48.05857452779343
 20
0.1071037928167451
 30
0.0
 10
48.06037378644205
 20
0.1096864302192525
 30
0.0
 10
48.06210310576624
 20
0.1123067901773535
 30
0.0
 10
48.06383242509043
 20
0.1149271501354545
 30
0.0
 10
48.06549072342519
 20
0.117582429441273
 30
0.0
 10
48.06714902175995
 20
0.1202377087470915
 30
0.0
 10
48.06873536470776
 20
0.1229250698033503
 30
0.0
 10
48.07032170765557
 20
0.1256124308596092
 30
0.0
 10
48.07183530882742
 20
0.1283290111479311
 30
0.0
 10
48.07334890999928
 20
0.131045591436253
 30
0.0
 10
48.07478913104413
 20
0.1337885129244041
 30
0.0
 10
48.07622935208897
 20
0.1365314344125551
 30
0.0
 10
48.07759570202745
 20
0.1392978128402133
 30
0.0
 10
48.07896205196593
 20
0.1420641912678714
 30
0.0
 10
48.08025418585062
 20
0.1448511452532174
 30
0.0
 10
48.0815463197353
 20
0.1476380992385634
 30
0.0
 10
48.08276403666405
 20
0.1504427591512647
 30
0.0
 10
48.08398175359278
 20
0.153247419063966
 30
0.0
 10
48.08512499410713
 20
0.156066935613888
 30
0.0
 10
48.08626823462149
 20
0.1588864521638101
 30
0.0
 10
48.08733707752603
 20
0.1617180046589716
 30
0.0
 10
48.08840592043057
 20
0.1645495571541331
 30
0.0
 10
48.08940057907271
 20
0.1673903613859506
 30
0.0
 10
48.09039523771484
 20
0.1702311656177682
 30
0.0
 10
48.09131605576763
 20
0.1730784813364259
 30
0.0
 10
48.09223687382041
 20
0.1759257970550837
 30
0.0
 10
48.09308432061347
 20
0.1787769350028497
 30
0.0
 10
48.09393176740652
 20
0.1816280729506158
 30
0.0
 10
48.09470643285191
 20
0.1844804014260173
 30
0.0
 10
48.09548109829731
 20
0.1873327299014188
 30
0.0
 10
48.09618368745861
 20
0.1901836808323228
 30
0.0
 10
48.09688627661991
 20
0.1930346317632269
 30
0.0
 10
48.09751760397307
 20
0.1958817062719709
 30
0.0
 10
48.09814893132622
 20
0.198728780780715
 30
0.0
 10
48.0987099147614
 20
0.2015695542294335
 30
0.0
 10
48.09927089819659
 20
0.204410327678152
 30
0.0
 10
48.09976255280937
 20
0.207242454187289
 30
0.0
 10
48.10025420742216
 20
0.2100745806964261
 30
0.0
 10
48.10067763914186
 20
0.2128957971340576
 30
0.0
 10
48.10110107086157
 20
0.2157170135716891
 30
0.0
 10
48.10145746996297
 20
0.2185251430156549
 30
0.0
 10
48.10181386906437
 20
0.2213332724596207
 30
0.0
 10
48.10210450360748
 20
0.2241262271385487
 30
0.0
 10
48.10239513815058
 20
0.2269191818174768
 30
0.0
 10
48.10262134739122
 20
0.2296949655405395
 30
0.0
 10
48.10284755663185
 20
0.2324707492636022
 30
0.0
 10
48.10301074444298
 20
0.2352274593522504
 30
0.0
 10
48.10317393225412
 20
0.2379841694408986
 30
0.0
 10
48.11972747629072
 20
0.8689920003863928
 30
0.0
 10
48.13628102032733
 20
1.499999831331887
 30
0.0
  0
SPLINE
  5
3F
330
1F
100
AcDbEntity
  8
DEFAULT
100
AcDbSpline
210
0.0
220
0.0
230
1.0
 70
    11
 71
     2
 72
    12
 73
     9
 74
     0
 42
0.0000000001
 43
0.0000000001
 40
11.35999999999999
 40
11.35999999999999
 40
11.35999999999999
 40
12.43933499999998
 40
12.43933499999998
 40
23.79933499999997
 40
23.79933499999997
 40
24.87866999999996
 40
24.87866999999996
 40
36.23866999999995
 40
36.23866999999995
 40
36.23866999999995
 10
34.70588162375013
 20
1.496835
 30
0.0
 10
34.70588162375013
 20
0.9571675000000015
 30
0.0
 10
34.70588162375013
 20
0.417500000000003
 30
0.0
 10
40.13608129750285
 20
0.417500000000003
 30
0.0
 10
45.56628097125557
 20
0.417500000000003
 30
0.0
 10
45.56628097125557
 20
0.9571675000000015
 30
0.0
 10
45.56628097125557
 20
1.496835
 30
0.0
 10
40.13608129750285
 20
1.496835
 30
0.0
 10
34.70588162375013
 20
1.496835
 30
0.0
  0
SPLINE
  5
40
330
1F
100
AcDbEntity
  8
DEFAULT
100
AcDbSpline
210
0.0
220
0.0
230
1.0
 70
    11
 71
     2
 72
   516
 73
   513
 74
     0
 42
0.0000000001
 43
0.0000000001
 40
22.101993120451
 40
22.101993120451
 40
22.101993120451
 40
22.12419043138879
 40
22.12419043138879
 40
35.89638637735389
 40
35.89638637735389
 40
35.91878316636472
 40
35.91878316636472
 40
35.9413764420397
 40
35.9413764420397
 40
35.96416295972448
 40
35.96416295972448
 40
35.98713921842291
 40
35.98713921842291
 40
36.0103014583345
 40
36.0103014583345
 40
36.0336456590697
 40
36.0336456590697
 40
36.05716753858518
 40
36.05716753858518
 40
36.08086255287899
 40
36.08086255287899
 40
36.10472589648302
 40
36.10472589648302
 40
36.12875250378688
 40
36.12875250378688
 40
36.15293705122373
 40
36.15293705122373
 40
36.17727396034416
 40
36.17727396034416
 40
36.2017574018001
 40
36.2017574018001
 40
36.22638130025518
 40
36.22638130025518
 40
36.25113934023277
 40
36.25113934023277
 40
36.27602497290678
 40
36.27602497290678
 40
36.30103142383465
 40
36.30103142383465
 40
36.32615170162472
 40
36.32615170162472
 40
36.3513786075242
 40
36.3513786075242
 40
36.37670474590669
 40
36.37670474590669
 40
36.40212253563161
 40
36.40212253563161
 40
36.42762422224069
 40
36.42762422224069
 40
36.45320189095028
 40
36.45320189095028
 40
36.47884748039129
 40
36.47884748039129
 40
36.50455279704248
 40
36.50455279704248
 40
36.53030953029659
 40
36.53030953029659
 40
36.55610926809359
 40
36.55610926809359
 40
36.58194351304974
 40
36.58194351304974
 40
36.60780369900728
 40
36.60780369900728
 40
36.63368120792514
 40
36.63368120792514
 40
36.65956738702847
 40
36.65956738702847
 40
36.6854535661318
 40
36.6854535661318
 40
36.71133107504966
 40
36.71133107504966
 40
36.7371912610072
 40
36.7371912610072
 40
36.76302550596337
 40
36.76302550596337
 40
36.78882524376036
 40
36.78882524376036
 40
36.81458197701448
 40
36.81458197701448
 40
36.84028729366565
 40
36.84028729366565
 40
36.86593288310667
 40
36.86593288310667
 40
36.89151055181625
 40
36.89151055181625
 40
36.91701223842534
 40
36.91701223842534
 40
36.94243002815024
 40
36.94243002815024
 40
36.96775616653275
 40
36.96775616653275
 40
36.99298307243221
 40
36.99298307243221
 40
37.01810335022229
 40
37.01810335022229
 40
37.04310980115017
 40
37.04310980115017
 40
37.06799543382417
 40
37.06799543382417
 40
37.09275347380175
 40
37.09275347380175
 40
37.11737737225685
 40
37.11737737225685
 40
37.14186081371279
 40
37.14186081371279
 40
37.16619772283321
 40
37.16619772283321
 40
37.19038227027006
 40
37.19038227027006
 40
37.21440887757394
 40
37.21440887757394
 40
37.23827222117796
 40
37.23827222117796
 40
37.26196723547177
 40
37.26196723547177
 40
37.28548911498724
 40
37.28548911498724
 40
37.30883331572246
 40
37.30883331572246
 40
37.33199555563403
 40
37.33199555563403
 40
37.35497181433245
 40
37.35497181433245
 40
37.37775833201725
 40
37.37775833201725
 40
37.40035160769224
 40
37.40035160769224
 40
37.42274839670305
 40
37.42274839670305
 40
57.44494434198031
 40
57.44494434198031
 40
57.46714165291809
 40
57.46714165291809
 40
57.48953844192892
 40
57.48953844192892
 40
57.51213171760391
 40
57.51213171760391
 40
57.53491823528869
 40
57.53491823528869
 40
57.55789449398713
 40
57.55789449398713
 40
57.58105673389871
 40
57.58105673389871
 40
57.60440093463392
 40
57.60440093463392
 40
57.6279228141494
 40
57.6279228141494
 40
57.6516178284432
 40
57.6516178284432
 40
57.67548117204721
 40
57.67548117204721
 40
57.69950777935109
 40
57.69950777935109
 40
57.72369232678793
 40
57.72369232678793
 40
57.74802923590836
 40
57.74802923590836
 40
57.7725126773643
 40
57.7725126773643
 40
57.7971365758194
 40
57.7971365758194
 40
57.82189461579698
 40
57.82189461579698
 40
57.846780248471
 40
57.846780248471
 40
57.87178669939886
 40
57.87178669939886
 40
57.89690697718893
 40
57.89690697718893
 40
57.9221338830884
 40
57.9221338830884
 40
57.9474600214709
 40
57.9474600214709
 40
57.97287781119581
 40
57.97287781119581
 40
57.9983794978049
 40
57.9983794978049
 40
58.02395716651449
 40
58.02395716651449
 40
58.0496027559555
 40
58.0496027559555
 40
58.07530807260669
 40
58.07530807260669
 40
58.1010648058608
 40
58.1010648058608
 40
58.1268645436578
 40
58.1268645436578
 40
58.15269878861395
 40
58.15269878861395
 40
58.17855897457149
 40
58.17855897457149
 40
58.20443648348937
 40
58.20443648348937
 40
58.23032266259269
 40
58.23032266259269
 40
58.25620884169601
 40
58.25620884169601
 40
58.28208635061389
 40
58.28208635061389
 40
58.30794653657143
 40
58.30794653657143
 40
58.33378078152759
 40
58.33378078152759
 40
58.35958051932459
 40
58.35958051932459
 40
58.3853372525787
 40
58.3853372525787
 40
58.41104256922988
 40
58.41104256922988
 40
58.4366881586709
 40
58.4366881586709
 40
58.46226582738049
 40
58.46226582738049
 40
58.48776751398957
 40
58.48776751398957
 40
58.51318530371449
 40
58.51318530371449
 40
58.53851144209698
 40
58.53851144209698
 40
58.56373834799645
 40
58.56373834799645
 40
58.58885862578651
 40
58.58885862578651
 40
58.61386507671438
 40
58.61386507671438
 40
58.6387507093884
 40
58.6387507093884
 40
58.66350874936599
 40
58.66350874936599
 40
58.68813264782107
 40
58.68813264782107
 40
58.71261608927702
 40
58.71261608927702
 40
58.73695299839744
 40
58.73695299839744
 40
58.76113754583429
 40
58.76113754583429
 40
58.78516415313815
 40
58.78516415313815
 40
58.80902749674218
 40
58.80902749674218
 40
58.83272251103598
 40
58.83272251103598
 40
58.85624439055147
 40
58.85624439055147
 40
58.87958859128667
 40
58.87958859128667
 40
58.90275083119825
 40
58.90275083119825
 40
58.92572708989668
 40
58.92572708989668
 40
58.94851360758148
 40
58.94851360758148
 40
58.97110688325646
 40
58.97110688325646
 40
58.99350367226729
 40
58.99350367226729
 40
72.76569961823238
 40
72.76569961823238
 40
72.78789692917016
 40
72.78789692917016
 40
72.81029371818099
 40
72.81029371818099
 40
72.83288699385596
 40
72.83288699385596
 40
72.85567351154076
 40
72.85567351154076
 40
72.87864977023918
 40
72.87864977023918
 40
72.90181201015076
 40
72.90181201015076
 40
72.92515621088596
 40
72.92515621088596
 40
72.94867809040144
 40
72.94867809040144
 40
72.97237310469525
 40
72.97237310469525
 40
72.99623644829927
 40
72.99623644829927
 40
73.02026305560314
 40
73.02026305560314
 40
73.04444760303998
 40
73.04444760303998
 40
73.0687845121604
 40
73.0687845121604
 40
73.09326795361635
 40
73.09326795361635
 40
73.11789185207144
 40
73.11789185207144
 40
73.14264989204902
 40
73.14264989204902
 40
73.16753552472304
 40
73.16753552472304
 40
73.19254197565091
 40
73.19254197565091
 40
73.21766225344098
 40
73.21766225344098
 40
73.24288915934045
 40
73.24288915934045
 40
73.26821529772295
 40
73.26821529772295
 40
73.29363308744786
 40
73.29363308744786
 40
73.31913477405693
 40
73.31913477405693
 40
73.34471244276652
 40
73.34471244276652
 40
73.37035803220753
 40
73.37035803220753
 40
73.39606334885872
 40
73.39606334885872
 40
73.42182008211283
 40
73.42182008211283
 40
73.44761981990983
 40
73.44761981990983
 40
73.47345406486599
 40
73.47345406486599
 40
73.49931425082353
 40
73.49931425082353
 40
73.5251917597414
 40
73.5251917597414
 40
73.55107793884473
 40
73.55107793884473
 40
73.57696411794805
 40
73.57696411794805
 40
73.60284162686592
 40
73.60284162686592
 40
73.62870181282346
 40
73.62870181282346
 40
73.65453605777962
 40
73.65453605777962
 40
73.68033579557662
 40
73.68033579557662
 40
73.70609252883074
 40
73.70609252883074
 40
73.73179784548192
 40
73.73179784548192
 40
73.75744343492292
 40
73.75744343492292
 40
73.78302110363252
 40
73.78302110363252
 40
73.80852279024161
 40
73.80852279024161
 40
73.83394057996652
 40
73.83394057996652
 40
73.85926671834902
 40
73.85926671834902
 40
73.88449362424848
 40
73.88449362424848
 40
73.90961390203856
 40
73.90961390203856
 40
73.93462035296642
 40
73.93462035296642
 40
73.95950598564043
 40
73.95950598564043
 40
73.984264025618
 40
73.984264025618
 40
74.00888792407311
 40
74.00888792407311
 40
74.03337136552905
 40
74.03337136552905
 40
74.05770827464947
 40
74.05770827464947
 40
74.08189282208633
 40
74.08189282208633
 40
74.10591942939018
 40
74.10591942939018
 40
74.12978277299422
 40
74.12978277299422
 40
74.15347778728803
 40
74.15347778728803
 40
74.1769996668035
 40
74.1769996668035
 40
74.20034386753869
 40
74.20034386753869
 40
74.22350610745028
 40
74.22350610745028
 40
74.24648236614871
 40
74.24648236614871
 40
74.2692688838335
 40
74.2692688838335
 40
74.29186215950848
 40
74.29186215950848
 40
74.31425894851931
 40
74.31425894851931
 40
94.33645489379657
 40
94.33645489379657
 40
94.35865220473435
 40
94.35865220473435
 40
94.38104899374518
 40
94.38104899374518
 40
94.40364226942017
 40
94.40364226942017
 40
94.42642878710497
 40
94.42642878710497
 40
94.44940504580339
 40
94.44940504580339
 40
94.47256728571496
 40
94.47256728571496
 40
94.49591148645017
 40
94.49591148645017
 40
94.51943336596565
 40
94.51943336596565
 40
94.54312838025946
 40
94.54312838025946
 40
94.56699172386348
 40
94.56699172386348
 40
94.59101833116736
 40
94.59101833116736
 40
94.61520287860421
 40
94.61520287860421
 40
94.63953978772463
 40
94.63953978772463
 40
94.66402322918056
 40
94.66402322918056
 40
94.68864712763566
 40
94.68864712763566
 40
94.71340516761323
 40
94.71340516761323
 40
94.73829080028723
 40
94.73829080028723
 40
94.7632972512151
 40
94.7632972512151
 40
94.78841752900519
 40
94.78841752900519
 40
94.81364443490466
 40
94.81364443490466
 40
94.83897057328714
 40
94.83897057328714
 40
94.86438836301205
 40
94.86438836301205
 40
94.88989004962113
 40
94.88989004962113
 40
94.91546771833073
 40
94.91546771833073
 40
94.94111330777176
 40
94.94111330777176
 40
94.96681862442293
 40
94.96681862442293
 40
94.99257535767705
 40
94.99257535767705
 40
95.01837509547404
 40
95.01837509547404
 40
95.0442093404302
 40
95.0442093404302
 40
95.07006952638774
 40
95.07006952638774
 40
95.09594703530561
 40
95.09594703530561
 40
95.12183321440895
 40
95.12183321440895
 40
95.14771939351226
 40
95.14771939351226
 40
95.17359690243012
 40
95.17359690243012
 40
95.19945708838767
 40
95.19945708838767
 40
95.22529133334383
 40
95.22529133334383
 40
95.25109107114083
 40
95.25109107114083
 40
95.27684780439495
 40
95.27684780439495
 40
95.30255312104613
 40
95.30255312104613
 40
95.32819871048713
 40
95.32819871048713
 40
95.35377637919672
 40
95.35377637919672
 40
95.3792780658058
 40
95.3792780658058
 40
95.40469585553073
 40
95.40469585553073
 40
95.43002199391321
 40
95.43002199391321
 40
95.45524889981269
 40
95.45524889981269
 40
95.48036917760275
 40
95.48036917760275
 40
95.50537562853063
 40
95.50537562853063
 40
95.53026126120464
 40
95.53026126120464
 40
95.55501930118223
 40
95.55501930118223
 40
95.57964319963732
 40
95.57964319963732
 40
95.60412664109326
 40
95.60412664109326
 40
95.6284635502137
 40
95.6284635502137
 40
95.65264809765054
 40
95.65264809765054
 40
95.67667470495441
 40
95.67667470495441
 40
95.70053804855843
 40
95.70053804855843
 40
95.72423306285224
 40
95.72423306285224
 40
95.74775494236772
 40
95.74775494236772
 40
95.77109914310292
 40
95.77109914310292
 40
95.79426138301449
 40
95.79426138301449
 40
95.81723764171292
 40
95.81723764171292
 40
95.84002415939771
 40
95.84002415939771
 40
95.86261743507269
 40
95.86261743507269
 40
95.88501422408352
 40
95.88501422408352
 40
95.88501422408352
 10
50.88603461094913
 20
2.47780405623839
 30
0.0
 10
50.88615779110235
 20
2.488902028119193
 30
0.0
 10
50.88628097125557
 20
2.499999999999996
 30
0.0
 10
50.88615779110236
 20
9.386097971880808
 30
0.0
 10
50.88603461094915
 20
16.27219594376162
 30
0.0
 10
50.88566069445519
 20
16.28338809395515
 30
0.0
 10
50.88528677796123
 20
16.29458024414867
 30
0.0
 10
50.88465571606963
 20
16.30585924176904
 30
0.0
 10
50.88402465417803
 20
16.31713823938941
 30
0.0
 10
50.88313026702325
 20
16.32849633864356
 30
0.0
 10
50.88223587986845
 20
16.33985443789771
 30
0.0
 10
50.88107224532639
 20
16.35128348294079
 30
0.0
 10
50.87990861078433
 20
16.36271252798387
 30
0.0
 10
50.87847009335407
 20
16.37420395988043
 30
0.0
 10
50.87703157592382
 20
16.38569539177699
 30
0.0
 10
50.87531285577694
 20
16.39724025765096
 30
0.0
 10
50.87359413563007
 20
16.40878512352494
 30
0.0
 10
50.87159023765111
 20
16.42037408796855
 30
0.0
 10
50.86958633967215
 20
16.43196305241215
 30
0.0
 10
50.86729266230196
 20
16.44358641120888
 30
0.0
 10
50.86499898493177
 20
16.4552097700056
 30
0.0
 10
50.86241132861505
 20
16.46685746620603
 30
0.0
 10
50.85982367229833
 20
16.47850516240646
 30
0.0
 10
50.85693826732787
 20
16.49016680477749
 30
0.0
 10
50.85405286235741
 20
16.50182844714853
 30
0.0
 10
50.85086639590001
 20
16.51349333099695
 30
0.0
 10
50.84767992944261
 20
16.52515821484538
 30
0.0
 10
50.84418957152697
 20
16.53681534519571
 30
0.0
 10
50.84069921361132
 20
16.54847247554605
 30
0.0
 10
50.83690264185429
 20
16.56011059263067
 30
0.0
 10
50.83310607009725
 20
16.57174870971529
 30
0.0
 10
50.82900149294512
 20
16.58335631671173
 30
0.0
 10
50.824896915793
 20
16.59496392370817
 30
0.0
 10
50.8204830940555
 20
16.60652931663503
 30
0.0
 10
50.81606927231801
 20
16.61809470956188
 30
0.0
 10
50.81134553877779
 20
16.6296060092208
 30
0.0
 10
50.80662180523758
 20
16.64111730887973
 30
0.0
 10
50.80158808212495
 20
16.65256249470729
 30
0.0
 10
50.79655435901233
 20
16.66400768053485
 30
0.0
 10
50.79121117314544
 20
16.67537462620439
 30
0.0
 10
50.78586798727854
 20
16.68674157187394
 30
0.0
 10
50.78021648268194
 20
16.69801808246498
 30
0.0
 10
50.77456497808533
 20
16.70929459305601
 30
0.0
 10
50.76860692591602
 20
16.72046844358705
 30
0.0
 10
50.76264887374671
 20
16.73164229411809
 30
0.0
 10
50.75638667937486
 20
16.74270126921862
 30
0.0
 10
50.75012448500301
 20
16.75376024431916
 30
0.0
 10
50.74356119211618
 20
16.76469217879841
 30
0.0
 10
50.73699789922933
 20
16.77562411327765
 30
0.0
 10
50.73013719085178
 20
16.7864169333314
 30
0.0
 10
50.72327648247423
 20
16.79720975338515
 30
0.0
 10
50.71612267881931
 20
16.80785151816883
 30
0.0
 10
50.70896887516439
 20
16.81849328295251
 30
0.0
 10
50.70152692826449
 20
16.82897222623766
 30
0.0
 10
50.69408498136459
 20
16.83945116952281
 30
0.0
 10
50.68636046645247
 20
16.84975574114677
 30
0.0
 10
50.67863595154035
 20
16.86006031277073
 30
0.0
 10
50.67063505518539
 20
16.87017921958498
 30
0.0
 10
50.66263415883042
 20
16.88029812639924
 30
0.0
 10
50.65436366386359
 20
16.89022037242104
 30
0.0
 10
50.64609316889675
 20
16.90014261844285
 30
0.0
 10
50.63756043618905
 20
16.90985754391752
 30
0.0
 10
50.62902770348134
 20
16.9195724693922
 30
0.0
 10
50.62024065067067
 20
16.92906978847977
 30
0.0
 10
50.61145359786001
 20
16.93856710756734
 30
0.0
 10
50.60242067515107
 20
16.94783694437695
 30
0.0
 10
50.59338775244213
 20
16.95710678118656
 30
0.0
 10
50.58411791563252
 20
16.96613970389549
 30
0.0
 10
50.57484807882291
 20
16.97517262660443
 30
0.0
 10
50.56535075973535
 20
16.98395967941509
 30
0.0
 10
50.55585344064778
 20
16.99274673222576
 30
0.0
 10
50.5461385151731
 20
17.00127946493347
 30
0.0
 10
50.53642358969842
 20
17.00981219764117
 30
0.0
 10
50.52650134367661
 20
17.01808269260801
 30
0.0
 10
50.51657909765481
 20
17.02635318757485
 30
0.0
 10
50.50646019084056
 20
17.03435408392981
 30
0.0
 10
50.4963412840263
 20
17.04235498028478
 30
0.0
 10
50.48603671240234
 20
17.0500794951969
 30
0.0
 10
50.47573214077838
 20
17.05780401010902
 30
0.0
 10
50.46525319749323
 20
17.06524595700893
 30
0.0
 10
50.45477425420808
 20
17.07268790390883
 30
0.0
 10
50.4441324894244
 20
17.07984170756374
 30
0.0
 10
50.43349072464071
 20
17.08699551121866
 30
0.0
 10
50.42269790458697
 20
17.09385621959621
 30
0.0
 10
50.41190508453322
 20
17.10071692797376
 30
0.0
 10
50.40097315005398
 20
17.1072802208606
 30
0.0
 10
50.39004121557473
 20
17.11384351374744
 30
0.0
 10
50.3789822404742
 20
17.12010570811928
 30
0.0
 10
50.36792326537368
 20
17.12636790249113
 30
0.0
 10
50.35674941484262
 20
17.13232595466044
 30
0.0
 10
50.34557556431158
 20
17.13828400682976
 30
0.0
 10
50.33429905372056
 20
17.14393551142636
 30
0.0
 10
50.32302254312953
 20
17.14958701602297
 30
0.0
 10
50.31165559745997
 20
17.15493020188987
 30
0.0
 10
50.30028865179042
 20
17.16027338775676
 30
0.0
 10
50.28884346596286
 20
17.16530711086939
 30
0.0
 10
50.27739828013529
 20
17.17034083398201
 30
0.0
 10
50.26588698047637
 20
17.17506456752223
 30
0.0
 10
50.25437568081745
 20
17.17978830106244
 30
0.0
 10
50.24281028789061
 20
17.18420212279993
 30
0.0
 10
50.23124489496375
 20
17.18861594453743
 30
0.0
 10
50.2196372879673
 20
17.19272052168956
 30
0.0
 10
50.20802968097085
 20
17.19682509884169
 30
0.0
 10
50.19639156388624
 20
17.20062167059872
 30
0.0
 10
50.18475344680161
 20
17.20441824235575
 30
0.0
 10
50.17309631645129
 20
17.2079086002714
 30
0.0
 10
50.16143918610096
 20
17.21139895818704
 30
0.0
 10
50.14977430225254
 20
17.21458542464443
 30
0.0
 10
50.13810941840411
 20
17.21777189110182
 30
0.0
 10
50.12644777603307
 20
17.22065729607229
 30
0.0
 10
50.11478613366203
 20
17.22354270104276
 30
0.0
 10
50.1031384374616
 20
17.22613035735947
 30
0.0
 10
50.09149074126118
 20
17.22871801367619
 30
0.0
 10
50.07986738246445
 20
17.23101169104638
 30
0.0
 10
50.06824402366772
 20
17.23330536841658
 30
0.0
 10
50.05665505922412
 20
17.23530926639554
 30
0.0
 10
50.04506609478052
 20
17.2373131643745
 30
0.0
 10
50.03352122890654
 20
17.23903188452137
 30
0.0
 10
50.02197636303255
 20
17.24075060466825
 30
0.0
 10
50.01048493113599
 20
17.24218912209851
 30
0.0
 10
49.99899349923944
 20
17.24362763952876
 30
0.0
 10
49.98756445419636
 20
17.24479127407083
 30
0.0
 10
49.97613540915329
 20
17.24595490861289
 30
0.0
 10
49.96477730989913
 20
17.24684929576769
 30
0.0
 10
49.95341921064497
 20
17.24774368292248
 30
0.0
 10
49.9421402130246
 20
17.24837474481408
 30
0.0
 10
49.93086121540422
 20
17.24900580670568
 30
0.0
 10
49.9196690652107
 20
17.24937972319963
 30
0.0
 10
49.90847691501718
 20
17.24975363969358
 30
0.0
 10
40.14717926938366
 20
17.24987681984679
 30
0.0
 10
30.38588162375013
 20
17.25
 30
0.0
 10
30.37478365186933
 20
17.24987681984678
 30
0.0
 10
30.36368567998853
 20
17.24975363969357
 30
0.0
 10
30.352493529795
 20
17.24937972319962
 30
0.0
 10
30.34130137960148
 20
17.24900580670567
 30
0.0
 10
30.3300223819811
 20
17.24837474481407
 30
0.0
 10
30.31874338436073
 20
17.24774368292247
 30
0.0
 10
30.30738528510658
 20
17.24684929576767
 30
0.0
 10
30.29602718585243
 20
17.24595490861288
 30
0.0
 10
30.28459814080934
 20
17.24479127407082
 30
0.0
 10
30.27316909576626
 20
17.24362763952876
 30
0.0
 10
30.2616776638697
 20
17.2421891220985
 30
0.0
 10
30.25018623197314
 20
17.24075060466824
 30
0.0
 10
30.23864136609916
 20
17.23903188452137
 30
0.0
 10
30.22709650022519
 20
17.23731316437449
 30
0.0
 10
30.21550753578158
 20
17.23530926639554
 30
0.0
 10
30.20391857133798
 20
17.23330536841658
 30
0.0
 10
30.19229521254125
 20
17.23101169104638
 30
0.0
 10
30.18067185374453
 20
17.22871801367618
 30
0.0
 10
30.16902415754411
 20
17.22613035735947
 30
0.0
 10
30.15737646134369
 20
17.22354270104275
 30
0.0
 10
30.14571481897265
 20
17.22065729607228
 30
0.0
 10
30.13405317660161
 20
17.21777189110181
 30
0.0
 10
30.12238829275318
 20
17.21458542464443
 30
0.0
 10
30.11072340890476
 20
17.21139895818704
 30
0.0
 10
30.09906627855442
 20
17.20790860027139
 30
0.0
 10
30.08740914820409
 20
17.20441824235574
 30
0.0
 10
30.07577103111947
 20
17.20062167059871
 30
0.0
 10
30.06413291403485
 20
17.19682509884168
 30
0.0
 10
30.0525253070384
 20
17.19272052168955
 30
0.0
 10
30.04091770004196
 20
17.18861594453742
 30
0.0
 10
30.0293523071151
 20
17.18420212279992
 30
0.0
 10
30.01778691418826
 20
17.17978830106243
 30
0.0
 10
30.00627561452933
 20
17.17506456752221
 30
0.0
 10
29.99476431487041
 20
17.170340833982
 30
0.0
 10
29.98331912904285
 20
17.16530711086938
 30
0.0
 10
29.97187394321529
 20
17.16027338775676
 30
0.0
 10
29.96050699754574
 20
17.15493020188986
 30
0.0
 10
29.9491400518762
 20
17.14958701602296
 30
0.0
 10
29.93786354128516
 20
17.14393551142636
 30
0.0
 10
29.92658703069413
 20
17.13828400682976
 30
0.0
 10
29.91541318016309
 20
17.13232595466044
 30
0.0
 10
29.90423932963205
 20
17.12636790249112
 30
0.0
 10
29.89318035453151
 20
17.12010570811928
 30
0.0
 10
29.88212137943098
 20
17.11384351374743
 30
0.0
 10
29.87118944495173
 20
17.10728022086059
 30
0.0
 10
29.86025751047249
 20
17.10071692797375
 30
0.0
 10
29.84946469041873
 20
17.0938562195962
 30
0.0
 10
29.83867187036499
 20
17.08699551121865
 30
0.0
 10
29.82803010558131
 20
17.07984170756374
 30
0.0
 10
29.81738834079763
 20
17.07268790390882
 30
0.0
 10
29.80690939751248
 20
17.06524595700892
 30
0.0
 10
29.79643045422733
 20
17.05780401010901
 30
0.0
 10
29.78612588260336
 20
17.05007949519689
 30
0.0
 10
29.77582131097941
 20
17.04235498028477
 30
0.0
 10
29.76570240416515
 20
17.03435408392981
 30
0.0
 10
29.7555834973509
 20
17.02635318757484
 30
0.0
 10
29.7456612513291
 20
17.018082692608
 30
0.0
 10
29.7357390053073
 20
17.00981219764116
 30
0.0
 10
29.72602407983262
 20
17.00127946493346
 30
0.0
 10
29.71630915435794
 20
16.99274673222576
 30
0.0
 10
29.70681183527036
 20
16.98395967941509
 30
0.0
 10
29.6973145161828
 20
16.97517262660442
 30
0.0
 10
29.68804467937318
 20
16.96613970389549
 30
0.0
 10
29.67877484256358
 20
16.95710678118655
 30
0.0
 10
29.66974191985464
 20
16.94783694437695
 30
0.0
 10
29.66070899714571
 20
16.93856710756734
 30
0.0
 10
29.65192194433504
 20
16.92906978847977
 30
0.0
 10
29.64313489152437
 20
16.9195724693922
 30
0.0
 10
29.63460215881667
 20
16.90985754391752
 30
0.0
 10
29.62606942610897
 20
16.90014261844284
 30
0.0
 10
29.61779893114213
 20
16.89022037242103
 30
0.0
 10
29.60952843617529
 20
16.88029812639923
 30
0.0
 10
29.60152753982032
 20
16.87017921958498
 30
0.0
 10
29.59352664346536
 20
16.86006031277072
 30
0.0
 10
29.58580212855324
 20
16.84975574114676
 30
0.0
 10
29.57807761364112
 20
16.8394511695228
 30
0.0
 10
29.57063566674122
 20
16.82897222623765
 30
0.0
 10
29.56319371984132
 20
16.8184932829525
 30
0.0
 10
29.5560399161864
 20
16.80785151816882
 30
0.0
 10
29.54888611253148
 20
16.79720975338514
 30
0.0
 10
29.54202540415393
 20
16.78641693333139
 30
0.0
 10
29.53516469577638
 20
16.77562411327764
 30
0.0
 10
29.52860140288954
 20
16.76469217879839
 30
0.0
 10
29.5220381100027
 20
16.75376024431915
 30
0.0
 10
29.51577591563085
 20
16.74270126921861
 30
0.0
 10
29.50951372125902
 20
16.73164229411807
 30
0.0
 10
29.5035556690897
 20
16.72046844358704
 30
0.0
 10
29.49759761692038
 20
16.709294593056
 30
0.0
 10
29.49194611232377
 20
16.69801808246497
 30
0.0
 10
29.48629460772717
 20
16.68674157187393
 30
0.0
 10
29.48095142186027
 20
16.67537462620439
 30
0.0
 10
29.47560823599338
 20
16.66400768053485
 30
0.0
 10
29.47057451288075
 20
16.65256249470729
 30
0.0
 10
29.46554078976813
 20
16.64111730887972
 30
0.0
 10
29.46081705622791
 20
16.62960600922079
 30
0.0
 10
29.4560933226877
 20
16.61809470956187
 30
0.0
 10
29.4516795009502
 20
16.60652931663502
 30
0.0
 10
29.44726567921271
 20
16.59496392370816
 30
0.0
 10
29.44316110206058
 20
16.58335631671172
 30
0.0
 10
29.43905652490845
 20
16.57174870971528
 30
0.0
 10
29.43525995315141
 20
16.56011059263066
 30
0.0
 10
29.43146338139438
 20
16.54847247554603
 30
0.0
 10
29.42797302347874
 20
16.5368153451957
 30
0.0
 10
29.4244826655631
 20
16.52515821484537
 30
0.0
 10
29.42129619910571
 20
16.51349333099694
 30
0.0
 10
29.41810973264833
 20
16.50182844714852
 30
0.0
 10
29.41522432767785
 20
16.49016680477748
 30
0.0
 10
29.41233892270739
 20
16.47850516240645
 30
0.0
 10
29.40975126639067
 20
16.46685746620602
 30
0.0
 10
29.40716361007395
 20
16.45520977000559
 30
0.0
 10
29.40486993270375
 20
16.44358641120887
 30
0.0
 10
29.40257625533355
 20
16.43196305241215
 30
0.0
 10
29.40057235735459
 20
16.42037408796855
 30
0.0
 10
29.39856845937564
 20
16.40878512352494
 30
0.0
 10
29.39684973922876
 20
16.39724025765096
 30
0.0
 10
29.39513101908188
 20
16.38569539177699
 30
0.0
 10
29.39369250165163
 20
16.37420395988043
 30
0.0
 10
29.39225398422138
 20
16.36271252798387
 30
0.0
 10
29.39109034967931
 20
16.35128348294079
 30
0.0
 10
29.38992671513725
 20
16.33985443789771
 30
0.0
 10
29.38903232798245
 20
16.32849633864355
 30
0.0
 10
29.38813794082766
 20
16.3171382393894
 30
0.0
 10
29.38750687893606
 20
16.30585924176903
 30
0.0
 10
29.38687581704446
 20
16.29458024414866
 30
0.0
 10
29.38650190055051
 20
16.28338809395513
 30
0.0
 10
29.38612798405657
 20
16.27219594376161
 30
0.0
 10
29.38600480390335
 20
9.386097971880803
 30
0.0
 10
29.38588162375013
 20
2.499999999999996
 30
0.0
 10
29.38600480390335
 20
2.488902028119194
 30
0.0
 10
29.38612798405657
 20
2.477804056238391
 30
0.0
 10
29.38650190055051
 20
2.466611906044864
 30
0.0
 10
29.38687581704446
 20
2.455419755851338
 30
0.0
 10
29.38750687893606
 20
2.444140758230964
 30
0.0
 10
29.38813794082766
 20
2.432861760610591
 30
0.0
 10
29.38903232798245
 20
2.421503661356441
 30
0.0
 10
29.38992671513725
 20
2.410145562102291
 30
0.0
 10
29.39109034967931
 20
2.39871651705921
 30
0.0
 10
29.39225398422137
 20
2.387287472016128
 30
0.0
 10
29.39369250165162
 20
2.375796040119568
 30
0.0
 10
29.39513101908188
 20
2.364304608223009
 30
0.0
 10
29.39684973922876
 20
2.352759742349035
 30
0.0
 10
29.39856845937564
 20
2.34121487647506
 30
0.0
 10
29.4005723573546
 20
2.329625912031456
 30
0.0
 10
29.40257625533356
 20
2.318036947587851
 30
0.0
 10
29.40486993270375
 20
2.306413588791128
 30
0.0
 10
29.40716361007394
 20
2.294790229994405
 30
0.0
 10
29.40975126639066
 20
2.283142533793977
 30
0.0
 10
29.41233892270738
 20
2.271494837593549
 30
0.0
 10
29.41522432767785
 20
2.259833195222512
 30
0.0
 10
29.41810973264833
 20
2.248171552851475
 30
0.0
 10
29.42129619910571
 20
2.236506669003051
 30
0.0
 10
29.4244826655631
 20
2.224841785154626
 30
0.0
 10
29.42797302347874
 20
2.213184654804292
 30
0.0
 10
29.43146338139439
 20
2.201527524453958
 30
0.0
 10
29.43525995315142
 20
2.189889407369337
 30
0.0
 10
29.43905652490845
 20
2.178251290284717
 30
0.0
 10
29.44316110206058
 20
2.166643683288274
 30
0.0
 10
29.44726567921271
 20
2.15503607629183
 30
0.0
 10
29.4516795009502
 20
2.143470683364977
 30
0.0
 10
29.4560933226877
 20
2.131905290438123
 30
0.0
 10
29.46081705622791
 20
2.120393990779198
 30
0.0
 10
29.46554078976813
 20
2.108882691120274
 30
0.0
 10
29.47057451288075
 20
2.097437505292712
 30
0.0
 10
29.47560823599338
 20
2.08599231946515
 30
0.0
 10
29.48095142186027
 20
2.074625373795608
 30
0.0
 10
29.48629460772717
 20
2.063258428126066
 30
0.0
 10
29.49194611232377
 20
2.051981917535029
 30
0.0
 10
29.49759761692038
 20
2.040705406943992
 30
0.0
 10
29.5035556690897
 20
2.029531556412956
 30
0.0
 10
29.50951372125902
 20
2.01835770588192
 30
0.0
 10
29.51577591563085
 20
2.007298730781382
 30
0.0
 10
29.5220381100027
 20
1.996239755680844
 30
0.0
 10
29.52860140288954
 20
1.985307821201599
 30
0.0
 10
29.53516469577638
 20
1.974375886722354
 30
0.0
 10
29.54202540415392
 20
1.963583066668603
 30
0.0
 10
29.54888611253147
 20
1.952790246614853
 30
0.0
 10
29.55603991618639
 20
1.942148481831173
 30
0.0
 10
29.5631937198413
 20
1.931506717047493
 30
0.0
 10
29.57063566674121
 20
1.921027773762344
 30
0.0
 10
29.57807761364112
 20
1.910548830477194
 30
0.0
 10
29.58580212855323
 20
1.900244258853233
 30
0.0
 10
29.59352664346535
 20
1.889939687229272
 30
0.0
 10
29.60152753982032
 20
1.879820780415018
 30
0.0
 10
29.60952843617529
 20
1.869701873600765
 30
0.0
 10
29.61779893114213
 20
1.859779627578962
 30
0.0
 10
29.62606942610897
 20
1.84985738155716
 30
0.0
 10
29.63460215881667
 20
1.840142456082481
 30
0.0
 10
29.64313489152437
 20
1.830427530607802
 30
0.0
 10
29.65192194433504
 20
1.82093021152023
 30
0.0
 10
29.66070899714571
 20
1.811432892432658
 30
0.0
 10
29.66974191985464
 20
1.802163055623053
 30
0.0
 10
29.67877484256358
 20
1.792893218813448
 30
0.0
 10
29.68804467937318
 20
1.783860296104513
 30
0.0
 10
29.69731451618279
 20
1.774827373395577
 30
0.0
 10
29.70681183527036
 20
1.766040320584908
 30
0.0
 10
29.71630915435793
 20
1.757253267774239
 30
0.0
 10
29.72602407983261
 20
1.748720535066536
 30
0.0
 10
29.73573900530729
 20
1.740187802358832
 30
0.0
 10
29.74566125132909
 20
1.731917307391992
 30
0.0
 10
29.7555834973509
 20
1.723646812425152
 30
0.0
 10
29.76570240416515
 20
1.715645916070186
 30
0.0
 10
29.77582131097941
 20
1.70764501971522
 30
0.0
 10
29.78612588260336
 20
1.699920504803102
 30
0.0
 10
29.79643045422733
 20
1.692195989890983
 30
0.0
 10
29.80690939751248
 20
1.684754042991079
 30
0.0
 10
29.81738834079763
 20
1.677312096091176
 30
0.0
 10
29.8280301055813
 20
1.67015829243626
 30
0.0
 10
29.83867187036498
 20
1.663004488781344
 30
0.0
 10
29.84946469041873
 20
1.656143780403795
 30
0.0
 10
29.86025751047249
 20
1.649283072026246
 30
0.0
 10
29.87118944495173
 20
1.642719779139405
 30
0.0
 10
29.88212137943098
 20
1.636156486252564
 30
0.0
 10
29.89318035453152
 20
1.629894291880722
 30
0.0
 10
29.90423932963206
 20
1.623632097508881
 30
0.0
 10
29.91541318016309
 20
1.617674045339562
 30
0.0
 10
29.92658703069413
 20
1.611715993170243
 30
0.0
 10
29.93786354128516
 20
1.606064488573641
 30
0.0
 10
29.9491400518762
 20
1.600412983977038
 30
0.0
 10
29.96050699754574
 20
1.59506979811014
 30
0.0
 10
29.97187394321529
 20
1.589726612243242
 30
0.0
 10
29.98331912904285
 20
1.584692889130618
 30
0.0
 10
29.99476431487041
 20
1.579659166017995
 30
0.0
 10
30.00627561452933
 20
1.57493543247778
 30
0.0
 10
30.01778691418826
 20
1.570211698937565
 30
0.0
 10
30.0293523071151
 20
1.565797877200072
 30
0.0
 10
30.04091770004196
 20
1.561384055462578
 30
0.0
 10
30.0525253070384
 20
1.557279478310448
 30
0.0
 10
30.06413291403485
 20
1.553174901158317
 30
0.0
 10
30.07577103111947
 20
1.549378329401286
 30
0.0
 10
30.08740914820409
 20
1.545581757644255
 30
0.0
 10
30.09906627855442
 20
1.542091399728609
 30
0.0
 10
30.11072340890476
 20
1.538601041812964
 30
0.0
 10
30.12238829275318
 20
1.535414575355577
 30
0.0
 10
30.13405317660161
 20
1.53222810889819
 30
0.0
 10
30.14571481897264
 20
1.52934270392772
 30
0.0
 10
30.15737646134368
 20
1.52645729895725
 30
0.0
 10
30.16902415754411
 20
1.523869642640531
 30
0.0
 10
30.18067185374453
 20
1.521281986323813
 30
0.0
 10
30.19229521254126
 20
1.518988308953617
 30
0.0
 10
30.20391857133799
 20
1.516694631583421
 30
0.0
 10
30.21550753578159
 20
1.514690733604463
 30
0.0
 10
30.22709650022519
 20
1.512686835625504
 30
0.0
 10
30.23864136609916
 20
1.510968115478628
 30
0.0
 10
30.25018623197314
 20
1.509249395331752
 30
0.0
 10
30.2616776638697
 20
1.507810877901496
 30
0.0
 10
30.27316909576626
 20
1.50637236047124
 30
0.0
 10
30.28459814080934
 20
1.505208725929179
 30
0.0
 10
30.29602718585243
 20
1.504045091387117
 30
0.0
 10
30.30738528510658
 20
1.503150704232322
 30
0.0
 10
30.31874338436073
 20
1.502256317077527
 30
0.0
 10
30.3300223819811
 20
1.501625255185926
 30
0.0
 10
30.34130137960147
 20
1.500994193294326
 30
0.0
 10
30.352493529795
 20
1.500620276800378
 30
0.0
 10
30.36368567998853
 20
1.50024636030643
 30
0.0
 10
40.12498332562205
 20
1.500123180153214
 30
0.0
 10
49.88628097125557
 20
1.499999999999999
 30
0.0
 10
49.89737894313637
 20
1.500123180153216
 30
0.0
 10
49.90847691501718
 20
1.500246360306434
 30
0.0
 10
49.9196690652107
 20
1.500620276800381
 30
0.0
 10
49.93086121540422
 20
1.500994193294329
 30
0.0
 10
49.9421402130246
 20
1.50162525518593
 30
0.0
 10
49.95341921064498
 20
1.502256317077531
 30
0.0
 10
49.96477730989913
 20
1.503150704232326
 30
0.0
 10
49.97613540915329
 20
1.50404509138712
 30
0.0
 10
49.98756445419636
 20
1.505208725929182
 30
0.0
 10
49.99899349923944
 20
1.506372360471244
 30
0.0
 10
50.01048493113599
 20
1.5078108779015
 30
0.0
 10
50.02197636303255
 20
1.509249395331756
 30
0.0
 10
50.03352122890654
 20
1.510968115478632
 30
0.0
 10
50.04506609478052
 20
1.512686835625508
 30
0.0
 10
50.05665505922412
 20
1.514690733604467
 30
0.0
 10
50.06824402366772
 20
1.516694631583425
 30
0.0
 10
50.07986738246445
 20
1.518988308953621
 30
0.0
 10
50.09149074126118
 20
1.521281986323816
 30
0.0
 10
50.1031384374616
 20
1.523869642640535
 30
0.0
 10
50.11478613366202
 20
1.526457298957254
 30
0.0
 10
50.12644777603306
 20
1.529342703927724
 30
0.0
 10
50.13810941840411
 20
1.532228108898194
 30
0.0
 10
50.14977430225253
 20
1.535414575355581
 30
0.0
 10
50.16143918610096
 20
1.538601041812968
 30
0.0
 10
50.17309631645129
 20
1.542091399728613
 30
0.0
 10
50.18475344680162
 20
1.545581757644259
 30
0.0
 10
50.19639156388624
 20
1.54937832940129
 30
0.0
 10
50.20802968097085
 20
1.553174901158321
 30
0.0
 10
50.2196372879673
 20
1.557279478310452
 30
0.0
 10
50.23124489496374
 20
1.561384055462582
 30
0.0
 10
50.24281028789059
 20
1.565797877200076
 30
0.0
 10
50.25437568081745
 20
1.570211698937569
 30
0.0
 10
50.26588698047637
 20
1.574935432477783
 30
0.0
 10
50.27739828013528
 20
1.579659166017998
 30
0.0
 10
50.28884346596284
 20
1.584692889130622
 30
0.0
 10
50.30028865179041
 20
1.589726612243246
 30
0.0
 10
50.31165559745996
 20
1.595069798110144
 30
0.0
 10
50.3230225431295
 20
1.600412983977042
 30
0.0
 10
50.33429905372054
 20
1.606064488573644
 30
0.0
 10
50.34557556431157
 20
1.611715993170246
 30
0.0
 10
50.35674941484261
 20
1.617674045339565
 30
0.0
 10
50.36792326537364
 20
1.623632097508884
 30
0.0
 10
50.37898224047417
 20
1.629894291880726
 30
0.0
 10
50.39004121557471
 20
1.636156486252567
 30
0.0
 10
50.40097315005396
 20
1.642719779139408
 30
0.0
 10
50.4119050845332
 20
1.649283072026249
 30
0.0
 10
50.42269790458695
 20
1.656143780403798
 30
0.0
 10
50.43349072464071
 20
1.663004488781347
 30
0.0
 10
50.4441324894244
 20
1.670158292436263
 30
0.0
 10
50.45477425420808
 20
1.67731209609118
 30
0.0
 10
50.46525319749323
 20
1.684754042991083
 30
0.0
 10
50.47573214077838
 20
1.692195989890986
 30
0.0
 10
50.48603671240234
 20
1.699920504803105
 30
0.0
 10
50.4963412840263
 20
1.707645019715223
 30
0.0
 10
50.50646019084056
 20
1.715645916070189
 30
0.0
 10
50.51657909765481
 20
1.723646812425155
 30
0.0
 10
50.52650134367661
 20
1.731917307391995
 30
0.0
 10
50.53642358969842
 20
1.740187802358835
 30
0.0
 10
50.54613851517309
 20
1.748720535066539
 30
0.0
 10
50.55585344064777
 20
1.757253267774242
 30
0.0
 10
50.56535075973534
 20
1.766040320584911
 30
0.0
 10
50.57484807882291
 20
1.77482737339558
 30
0.0
 10
50.58411791563252
 20
1.783860296104515
 30
0.0
 10
50.59338775244213
 20
1.792893218813451
 30
0.0
 10
50.60242067515106
 20
1.802163055623056
 30
0.0
 10
50.61145359785999
 20
1.811432892432661
 30
0.0
 10
50.62024065067065
 20
1.820930211520233
 30
0.0
 10
50.62902770348132
 20
1.830427530607804
 30
0.0
 10
50.63756043618903
 20
1.840142456082484
 30
0.0
 10
50.64609316889674
 20
1.849857381557163
 30
0.0
 10
50.65436366386358
 20
1.859779627578965
 30
0.0
 10
50.66263415883042
 20
1.869701873600767
 30
0.0
 10
50.67063505518539
 20
1.87982078041502
 30
0.0
 10
50.67863595154035
 20
1.889939687229274
 30
0.0
 10
50.68636046645247
 20
1.900244258853235
 30
0.0
 10
50.69408498136458
 20
1.910548830477196
 30
0.0
 10
50.70152692826449
 20
1.921027773762346
 30
0.0
 10
50.7089688751644
 20
1.931506717047495
 30
0.0
 10
50.71612267881932
 20
1.942148481831175
 30
0.0
 10
50.72327648247423
 20
1.952790246614855
 30
0.0
 10
50.73013719085177
 20
1.963583066668606
 30
0.0
 10
50.73699789922932
 20
1.974375886722356
 30
0.0
 10
50.74356119211615
 20
1.985307821201601
 30
0.0
 10
50.75012448500299
 20
1.996239755680846
 30
0.0
 10
50.75638667937484
 20
2.007298730781383
 30
0.0
 10
50.76264887374669
 20
2.018357705881921
 30
0.0
 10
50.768606925916
 20
2.029531556412957
 30
0.0
 10
50.77456497808532
 20
2.040705406943994
 30
0.0
 10
50.78021648268193
 20
2.051981917535031
 30
0.0
 10
50.78586798727854
 20
2.063258428126067
 30
0.0
 10
50.79121117314543
 20
2.074625373795609
 30
0.0
 10
50.79655435901233
 20
2.085992319465151
 30
0.0
 10
50.80158808212495
 20
2.097437505292713
 30
0.0
 10
50.80662180523758
 20
2.108882691120275
 30
0.0
 10
50.81134553877779
 20
2.1203939907792
 30
0.0
 10
50.816069272318
 20
2.131905290438124
 30
0.0
 10
50.8204830940555
 20
2.143470683364978
 30
0.0
 10
50.82489691579299
 20
2.155036076291831
 30
0.0
 10
50.82900149294512
 20
2.166643683288275
 30
0.0
 10
50.83310607009725
 20
2.178251290284718
 30
0.0
 10
50.83690264185429
 20
2.189889407369338
 30
0.0
 10
50.84069921361133
 20
2.201527524453959
 30
0.0
 10
50.84418957152697
 20
2.213184654804293
 30
0.0
 10
50.84767992944261
 20
2.224841785154627
 30
0.0
 10
50.8508663959
 20
2.236506669003051
 30
0.0
 10
50.85405286235738
 20
2.248171552851475
 30
0.0
 10
50.85693826732786
 20
2.259833195222512
 30
0.0
 10
50.85982367229833
 20
2.27149483759355
 30
0.0
 10
50.86241132861505
 20
2.283142533793978
 30
0.0
 10
50.86499898493177
 20
2.294790229994406
 30
0.0
 10
50.86729266230196
 20
2.306413588791129
 30
0.0
 10
50.86958633967215
 20
2.318036947587852
 30
0.0
 10
50.87159023765111
 20
2.329625912031457
 30
0.0
 10
50.87359413563007
 20
2.341214876475061
 30
0.0
 10
50.87531285577694
 20
2.352759742349035
 30
0.0
 10
50.87703157592382
 20
2.36430460822301
 30
0.0
 10
50.87847009335407
 20
2.375796040119569
 30
0.0
 10
50.87990861078433
 20
2.387287472016128
 30
0.0
 10
50.88107224532639
 20
2.39871651705921
 30
0.0
 10
50.88223587986845
 20
2.410145562102291
 30
0.0
 10
50.88313026702325
 20
2.421503661356441
 30
0.0
 10
50.88402465417804
 20
2.432861760610591
 30
0.0
 10
50.88465571606964
 20
2.444140758230964
 30
0.0
 10
50.88528677796124
 20
2.455419755851338
 30
0.0
 10
50.88566069445518
 20
2.466611906044864
 30
0.0
 10
50.88603461094913
 20
2.47780405623839
 30
0.0
  0
SPLINE
  5
41
330
1F
100
AcDbEntity
  8
DEFAULT
100
AcDbSpline
210
0.0
220
0.0
230
1.0
 70
    24
 71
     2
 72
     6
 73
     3
 74
     0
 42
0.0000000001
 43
0.0000000001
 40
0.0
 40
0.0
 40
0.0
 40
11.35999999999999
 40
11.35999999999999
 40
11.35999999999999
 10
34.70588162375013
 20
0.6025000000000018
 30
0.0
 10
40.13608129750285
 20
0.6025000000000018
 30
0.0
 10
45.56628097125557
 20
0.6025000000000018
 30
0.0
  0
SPLINE
  5
42
330
1F
100
AcDbEntity
  8
DEFAULT
100
AcDbSpline
210
0.0
220
0.0
230
1.0
 70
    24
 71
     2
 72
     6
 73
     3
 74
     0
 42
0.0000000001
 43
0.0000000001
 40
0.0
 40
0.0
 40
0.0
 40
11.35999999999999
 40
11.35999999999999
 40
11.35999999999999
 10
45.56628097125557
 20
1.290000000000002
 30
0.0
 10
40.13608129750285
 20
1.290000000000002
 30
0.0
 10
34.70588162375013
 20
1.290000000000002
 30
0.0
  0
SPLINE
  5
43
330
1F
100
AcDbEntity
  8
DEFAULT
100
AcDbSpline
210
0.0
220
0.0
230
1.0
 70
     8
 71
     2
 72
   386
 73
   383
 74
     0
 42
0.0000000001
 43
0.0000000001
 40
0.0
 40
0.0
 40
0.0
 40
0.0071274981805125
 40
0.0071274981805125
 40
0.0142780807480616
 40
0.0142780807480616
 40
0.021450344055055
 40
0.021450344055055
 40
0.0286428575253691
 40
0.0286428575253691
 40
0.0358541652067109
 40
0.0358541652067109
 40
0.0430827874003806
 40
0.0430827874003806
 40
0.0503272223644207
 40
0.0503272223644207
 40
0.0575859480854689
 40
0.0575859480854689
 40
0.0648574241147514
 40
0.0648574241147514
 40
0.0721400934626207
 40
0.0721400934626207
 40
0.0794323845462443
 40
0.0794323845462443
 40
0.0867327131845653
 40
0.0867327131845653
 40
0.0940394846341268
 40
0.0940394846341268
 40
0.1013510956595572
 40
0.1013510956595572
 40
0.1086659366318901
 40
0.1086659366318901
 40
0.1159823936479761
 40
0.1159823936479761
 40
0.1232988506640672
 40
0.1232988506640672
 40
0.1306136916364051
 40
0.1306136916364051
 40
0.1379253026618367
 40
0.1379253026618367
 40
0.1452320741113947
 40
0.1452320741113947
 40
0.1525324027497124
 40
0.1525324027497124
 40
0.1598246938333306
 40
0.1598246938333306
 40
0.1671073631811925
 40
0.1671073631811925
 40
0.1743788392104814
 40
0.1743788392104814
 40
0.1816375649315323
 40
0.1816375649315323
 40
0.1888819998955666
 40
0.1888819998955666
 40
0.1961106220892376
 40
0.1961106220892376
 40
0.203321929770571
 40
0.203321929770571
 40
0.210514443240886
 40
0.210514443240886
 40
0.2176867065478784
 40
0.2176867065478784
 40
0.2248372891154233
 40
0.2248372891154233
 40
0.231964787295937
 40
0.231964787295937
 40
0.2326864792435103
 40
0.2326864792435103
 40
0.2334121887632957
 40
0.2334121887632957
 40
0.23414182907467
 40
0.23414182907467
 40
0.2348753098392377
 40
0.2348753098392377
 40
0.2356125371831726
 40
0.2356125371831726
 40
0.2363534137265538
 40
0.2363534137265538
 40
0.2370978386199757
 40
0.2370978386199757
 40
0.2378457075884664
 40
0.2378457075884664
 40
0.2385969129828235
 40
0.2385969129828235
 40
0.2393513438384778
 40
0.2393513438384778
 40
0.2401088859418873
 40
0.2401088859418873
 40
0.2408694219044569
 40
0.2408694219044569
 40
0.2416328312440006
 40
0.2416328312440006
 40
0.2423989904737334
 40
0.2423989904737334
 40
0.2431677731985893
 40
0.2431677731985893
 40
0.2439390502189314
 40
0.2439390502189314
 40
0.2447126896413127
 40
0.2447126896413127
 40
0.2454885569963164
 40
0.2454885569963164
 40
0.2462665153630999
 40
0.2462665153630999
 40
0.2470464255005029
 40
0.2470464255005029
 40
0.2478281459844045
 40
0.2478281459844045
 40
0.2486115333510484
 40
0.2486115333510484
 40
0.2493964422460123
 40
0.2493964422460123
 40
0.2501827255784189
 40
0.2501827255784189
 40
0.2509702346800624
 40
0.2509702346800624
 40
0.251758819468991
 40
0.251758819468991
 40
0.2525483286171378
 40
0.2525483286171378
 40
0.2533386097215351
 40
0.2533386097215351
 40
0.2541295094786317
 40
0.2541295094786317
 40
0.2549208738612352
 40
0.2549208738612352
 40
0.2557125482975619
 40
0.2557125482975619
 40
0.2565043778518695
 40
0.2565043778518695
 40
0.2572962074061773
 40
0.2572962074061773
 40
0.258087881842503
 40
0.258087881842503
 40
0.2588792462251054
 40
0.2588792462251054
 40
0.2596701459822032
 40
0.2596701459822032
 40
0.260460427086599
 40
0.260460427086599
 40
0.2612499362347467
 40
0.2612499362347467
 40
0.2620385210236734
 40
0.2620385210236734
 40
0.2628260301253177
 40
0.2628260301253177
 40
0.263612313457725
 40
0.263612313457725
 40
0.2643972223526881
 40
0.2643972223526881
 40
0.2651806097193339
 40
0.2651806097193339
 40
0.2659623302032328
 40
0.2659623302032328
 40
0.2667422403406352
 40
0.2667422403406352
 40
0.2675201987074188
 40
0.2675201987074188
 40
0.2682960660624237
 40
0.2682960660624237
 40
0.2690697054848069
 40
0.2690697054848069
 40
0.2698409825051459
 40
0.2698409825051459
 40
0.2706097652300065
 40
0.2706097652300065
 40
0.2713759244597369
 40
0.2713759244597369
 40
0.272139333799284
 40
0.272139333799284
 40
0.2728998697618505
 40
0.2728998697618505
 40
0.2736574118652603
 40
0.2736574118652603
 40
0.2744118427209156
 40
0.2744118427209156
 40
0.2751630481152695
 40
0.2751630481152695
 40
0.2759109170837561
 40
0.2759109170837561
 40
0.2766553419771788
 40
0.2766553419771788
 40
0.2773962185205631
 40
0.2773962185205631
 40
0.2781334458644972
 40
0.2781334458644972
 40
0.278866926629068
 40
0.278866926629068
 40
0.2795965669404409
 40
0.2795965669404409
 40
0.2803222764602284
 40
0.2803222764602284
 40
0.2810439684077979
 40
0.2810439684077979
 40
0.2817656603553709
 40
0.2817656603553709
 40
0.2824913698751556
 40
0.2824913698751556
 40
0.2832210101865253
 40
0.2832210101865253
 40
0.2839544909510991
 40
0.2839544909510991
 40
0.2846917182950363
 40
0.2846917182950363
 40
0.2854325948384181
 40
0.2854325948384181
 40
0.2861770197318393
 40
0.2861770197318393
 40
0.2869248887003275
 40
0.2869248887003275
 40
0.2876760940946824
 40
0.2876760940946824
 40
0.2884305249503344
 40
0.2884305249503344
 40
0.2891880670537454
 40
0.2891880670537454
 40
0.2899486030163094
 40
0.2899486030163094
 40
0.2907120123558581
 40
0.2907120123558581
 40
0.2914781715855888
 40
0.2914781715855888
 40
0.2922469543104502
 40
0.2922469543104502
 40
0.2930182313307893
 40
0.2930182313307893
 40
0.2937918707531715
 40
0.2937918707531715
 40
0.2945677381081772
 40
0.2945677381081772
 40
0.2953456964749597
 40
0.2953456964749597
 40
0.2961256066123596
 40
0.2961256066123596
 40
0.2969073270962621
 40
0.2969073270962621
 40
0.2976907144629071
 40
0.2976907144629071
 40
0.2984756233578741
 40
0.2984756233578741
 40
0.2992619066902833
 40
0.2992619066902833
 40
0.3000494157919251
 40
0.3000494157919251
 40
0.300838000580852
 40
0.300838000580852
 40
0.3016275097289972
 40
0.3016275097289972
 40
0.3024177908333959
 40
0.3024177908333959
 40
0.3032086905904905
 40
0.3032086905904905
 40
0.3040000549730919
 40
0.3040000549730919
 40
0.3047917294094231
 40
0.3047917294094231
 40
0.3055835589637235
 40
0.3055835589637235
 40
0.306375388518039
 40
0.306375388518039
 40
0.3071670629543555
 40
0.3071670629543555
 40
0.3079584273369634
 40
0.3079584273369634
 40
0.3087493270940547
 40
0.3087493270940547
 40
0.3095396081984538
 40
0.3095396081984538
 40
0.3103291173466075
 40
0.3103291173466075
 40
0.3111177021355301
 40
0.3111177021355301
 40
0.3119052112371799
 40
0.3119052112371799
 40
0.3126914945695811
 40
0.3126914945695811
 40
0.3134764034645459
 40
0.3134764034645459
 40
0.314259790831191
 40
0.314259790831191
 40
0.3150415113150895
 40
0.3150415113150895
 40
0.3158214214524877
 40
0.3158214214524877
 40
0.3165993798192724
 40
0.3165993798192724
 40
0.317375247174274
 40
0.317375247174274
 40
0.3181488865966624
 40
0.3181488865966624
 40
0.3189201636170105
 40
0.3189201636170105
 40
0.3196889463418643
 40
0.3196889463418643
 40
0.3204551055715988
 40
0.3204551055715988
 40
0.3212185149111359
 40
0.3212185149111359
 40
0.321979050873712
 40
0.321979050873712
 40
0.3227365929771188
 40
0.3227365929771188
 40
0.3234910238327745
 40
0.3234910238327745
 40
0.324242229227125
 40
0.324242229227125
 40
0.324990098195612
 40
0.324990098195612
 40
0.3257345230890371
 40
0.3257345230890371
 40
0.3264753996324202
 40
0.3264753996324202
 40
0.3272126269763548
 40
0.3272126269763548
 40
0.327946107740922
 40
0.327946107740922
 40
0.328675748052294
 40
0.328675748052294
 40
0.3294014575720861
 40
0.3294014575720861
 40
0.3801127220801352
 40
0.3801127220801352
 40
0.3807576995855387
 40
0.3807576995855387
 40
0.3814077003217174
 40
0.3814077003217174
 40
0.3820624360477785
 40
0.3820624360477785
 40
0.3827216041691114
 40
0.3827216041691114
 40
0.3833848883605698
 40
0.3833848883605698
 40
0.3840519592893903
 40
0.3840519592893903
 40
0.3847224754356279
 40
0.3847224754356279
 40
0.3853960840063758
 40
0.3853960840063758
 40
0.3860724219390793
 40
0.3860724219390793
 40
0.386751116987759
 40
0.386751116987759
 40
0.3874317888849142
 40
0.3874317888849142
 40
0.3881140505705308
 40
0.3881140505705308
 40
0.388797509478834
 40
0.388797509478834
 40
0.389481768872276
 40
0.389481768872276
 40
0.3901664292117543
 40
0.3901664292117543
 40
0.390851089551238
 40
0.390851089551238
 40
0.3915353489446771
 40
0.3915353489446771
 40
0.3922188078529701
 40
0.3922188078529701
 40
0.3929010695385903
 40
0.3929010695385903
 40
0.393581741435744
 40
0.393581741435744
 40
0.3942604364844243
 40
0.3942604364844243
 40
0.3949367744171276
 40
0.3949367744171276
 40
0.3956103829878823
 40
0.3956103829878823
 40
0.3962808991341186
 40
0.3962808991341186
 40
0.3969479700629502
 40
0.3969479700629502
 40
0.3976112542543944
 40
0.3976112542543944
 40
0.3982704223757302
 40
0.3982704223757302
 40
0.3989251581017968
 40
0.3989251581017968
 40
0.3995751588379676
 40
0.3995751588379676
 40
0.4002201363433742
 40
0.4002201363433742
 40
0.4574378332429018
 40
0.4574378332429018
 40
0.4574378332429018
 10
32.1413516718149
 20
1.290078283535822
 30
0.0
 10
32.13778967721711
 20
1.290190096163083
 30
0.0
 10
32.13422768261933
 20
1.290301908790344
 30
0.0
 10
32.13065720382397
 20
1.290487351330645
 30
0.0
 10
32.12708672502862
 20
1.290672793870945
 30
0.0
 10
32.12351000531193
 20
1.290932440370029
 30
0.0
 10
32.11993328559524
 20
1.291192086869113
 30
0.0
 10
32.11635260369953
 20
1.291526421532086
 30
0.0
 10
32.11277192180381
 20
1.291860756195059
 30
0.0
 10
32.10918958749092
 20
1.292270171008417
 30
0.0
 10
32.10560725317802
 20
1.292679585821776
 30
0.0
 10
32.10202560260535
 20
1.293164378437201
 30
0.0
 10
32.09844395203268
 20
1.293649171052626
 30
0.0
 10
32.09486534296955
 20
1.294209542947285
 30
0.0
 10
32.09128673390641
 20
1.294769914841945
 30
0.0
 10
32.0877135408101
 20
1.295405969768669
 30
0.0
 10
32.08414034771378
 20
1.296042024695393
 30
0.0
 10
32.08057495668553
 20
1.296753767434552
 30
0.0
 10
32.07700956565728
 20
1.29746551017371
 30
0.0
 10
32.07345436929999
 20
1.298252845596981
 30
0.0
 10
32.0698991729427
 20
1.299040181020251
 30
0.0
 10
32.06635656514278
 20
1.299902913474698
 30
0.0
 10
32.06281395734285
 20
1.300765645929145
 30
0.0
 10
32.05928632799932
 20
1.301703478948171
 30
0.0
 10
32.05575869865579
 20
1.302641311967196
 30
0.0
 10
32.05224842838095
 20
1.303653848312981
 30
0.0
 10
32.0487381581061
 20
1.304666384658767
 30
0.0
 10
32.04524761292159
 20
1.305753126698836
 30
0.0
 10
32.04175706773707
 20
1.306839868738906
 30
0.0
 10
32.03828859379036
 20
1.308000219157381
 30
0.0
 10
32.03482011984366
 20
1.309160569575855
 30
0.0
 10
32.03137603816933
 20
1.310393832417915
 30
0.0
 10
32.027931956495
 20
1.311627095259975
 30
0.0
 10
32.02451455784528
 20
1.312932477305969
 30
0.0
 10
32.02109715919556
 20
1.314237859351964
 30
0.0
 10
32.01770869896447
 20
1.315614471815562
 30
0.0
 10
32.01432023873338
 20
1.316991084279161
 30
0.0
 10
32.01096293199782
 20
1.318437944821921
 30
0.0
 10
32.00760562526226
 20
1.319884805364682
 30
0.0
 10
32.00428164196316
 20
1.321400840417462
 30
0.0
 10
32.00095765866405
 20
1.322916875470243
 30
0.0
 10
31.99766911894929
 20
1.324500922850009
 30
0.0
 10
31.99438057923454
 20
1.326084970229776
 30
0.0
 10
31.99112954898491
 20
1.327735782038566
 30
0.0
 10
31.98787851873528
 20
1.329386593847355
 30
0.0
 10
31.98466700529269
 20
1.331102839638504
 30
0.0
 10
31.9814554918501
 20
1.332819085429652
 30
0.0
 10
31.97828543996673
 20
1.33459935562485
 30
0.0
 10
31.97511538808337
 20
1.336379625820048
 30
0.0
 10
31.9719886761083
 20
1.338222435359395
 30
0.0
 10
31.96886196413323
 20
1.340065244898743
 30
0.0
 10
31.96578040045168
 20
1.341969037104732
 30
0.0
 10
31.96269883677013
 20
1.343872829310722
 30
0.0
 10
31.9596641565089
 20
1.345835979946012
 30
0.0
 10
31.95662947624768
 20
1.347799130581303
 30
0.0
 10
31.9536433382582
 20
1.34981995207924
 30
0.0
 10
31.95065720026873
 20
1.351840773577177
 30
0.0
 10
31.94772118439756
 20
1.353917519423304
 30
0.0
 10
31.94478516852639
 20
1.355994265269432
 30
0.0
 10
31.94190077318098
 20
1.358125134511686
 30
0.0
 10
31.93901637783557
 20
1.360256003753941
 30
0.0
 10
31.93618501785115
 20
1.362439145618884
 30
0.0
 10
31.93335365786674
 20
1.364622287483827
 30
0.0
 10
31.93057666267835
 20
1.366855806076086
 30
0.0
 10
31.92779966748996
 20
1.369089324668346
 30
0.0
 10
31.92752289110951
 20
1.369320851453029
 30
0.0
 10
31.92724611472907
 20
1.369552378237711
 30
0.0
 10
31.92697205517958
 20
1.369790191063501
 30
0.0
 10
31.92669799563009
 20
1.370028003889291
 30
0.0
 10
31.92642684676171
 20
1.370272077724795
 30
0.0
 10
31.92615569789335
 20
1.370516151560298
 30
0.0
 10
31.92588765461137
 20
1.370766453991336
 30
0.0
 10
31.92561961132939
 20
1.371016756422374
 30
0.0
 10
31.92535486926614
 20
1.371273247512101
 30
0.0
 10
31.9250901272029
 20
1.371529738601829
 30
0.0
 10
31.92482888237733
 20
1.371792370767122
 30
0.0
 10
31.92456763755176
 20
1.372055002932414
 30
0.0
 10
31.92431008601726
 20
1.372323720837596
 30
0.0
 10
31.92405253448277
 20
1.372592438742778
 30
0.0
 10
31.92379887196439
 20
1.372867179211729
 30
0.0
 10
31.92354520944602
 20
1.37314191968068
 30
0.0
 10
31.92329563096803
 20
1.373422611628293
 30
0.0
 10
31.92304605249005
 20
1.373703303575907
 30
0.0
 10
31.92280075199502
 20
1.373989867959826
 30
0.0
 10
31.9225554515
 20
1.374276432343745
 30
0.0
 10
31.92231462146061
 20
1.374568782137207
 30
0.0
 10
31.92207379142122
 20
1.374861131930668
 30
0.0
 10
31.92183762244615
 20
1.375159172117228
 30
0.0
 10
31.92160145347108
 20
1.375457212303789
 30
0.0
 10
31.92137013390635
 20
1.375760839894599
 30
0.0
 10
31.92113881434163
 20
1.37606446748541
 30
0.0
 10
31.92091252986881
 20
1.376373571559616
 30
0.0
 10
31.92068624539601
 20
1.376682675633822
 30
0.0
 10
31.92046517862892
 20
1.37699713740256
 30
0.0
 10
31.92024411186183
 20
1.377311599171298
 30
0.0
 10
31.92002844194314
 20
1.37763129206565
 30
0.0
 10
31.91981277202445
 20
1.377950984960002
 30
0.0
 10
31.91960267422404
 20
1.378275774743143
 30
0.0
 10
31.91939257642365
 20
1.378600564526284
 30
0.0
 10
31.91918822174019
 20
1.378930309429945
 30
0.0
 10
31.91898386705674
 20
1.379260054333606
 30
0.0
 10
31.91878542182424
 20
1.379594605218839
 30
0.0
 10
31.91858697659174
 20
1.379929156104071
 30
0.0
 10
31.91839460209279
 20
1.38026835664617
 30
0.0
 10
31.91820222759384
 20
1.380607557188268
 30
0.0
 10
31.91801607968126
 20
1.380951244085577
 30
0.0
 10
31.91782993176869
 20
1.381294930982885
 30
0.0
 10
31.91765016049724
 20
1.381642934189071
 30
0.0
 10
31.91747038922579
 20
1.381990937395257
 30
0.0
 10
31.9172971384956
 20
1.382343080374509
 30
0.0
 10
31.91712388776541
 20
1.382695223353762
 30
0.0
 10
31.91695729497885
 20
1.383051323358218
 30
0.0
 10
31.9167907021923
 20
1.383407423362673
 30
0.0
 10
31.91663089792584
 20
1.383767291731268
 30
0.0
 10
31.91647109365939
 20
1.384127160099863
 30
0.0
 10
31.91631820135196
 20
1.384490602577654
 30
0.0
 10
31.91616530904454
 20
1.384854045055445
 30
0.0
 10
31.91601944470393
 20
1.385220862132325
 30
0.0
 10
31.91587358036332
 20
1.385587679209204
 30
0.0
 10
31.91573485229194
 20
1.385957666476828
 30
0.0
 10
31.91559612422057
 20
1.386327653744453
 30
0.0
 10
31.91546463276195
 20
1.386700602270063
 30
0.0
 10
31.91533314130334
 20
1.387073550795674
 30
0.0
 10
31.91520897861049
 20
1.387449247511414
 30
0.0
 10
31.91508481591764
 20
1.387824944227154
 30
0.0
 10
31.91496806574439
 20
1.388203172333368
 30
0.0
 10
31.91485131557114
 20
1.388581400439582
 30
0.0
 10
31.91474205308749
 20
1.388961939820505
 30
0.0
 10
31.91463279060383
 20
1.389342479201428
 30
0.0
 10
31.91453108223597
 20
1.389725106851601
 30
0.0
 10
31.91442937386812
 20
1.390107734501775
 30
0.0
 10
31.91433527716413
 20
1.390492224961451
 30
0.0
 10
31.91424118046015
 20
1.390876715421127
 30
0.0
 10
31.91415474398162
 20
1.391262841218883
 30
0.0
 10
31.91406830750309
 20
1.391648967016638
 30
0.0
 10
31.91398957074328
 20
1.392036499117373
 30
0.0
 10
31.91391083398348
 20
1.392424031218107
 30
0.0
 10
31.91383982731234
 20
1.392812739474574
 30
0.0
 10
31.91376882064121
 20
1.393201447731041
 30
0.0
 10
31.9137055652772
 20
1.393591101337051
 30
0.0
 10
31.91364230991319
 20
1.39398075494306
 30
0.0
 10
31.91358681792207
 20
1.394371122886485
 30
0.0
 10
31.91353132593096
 20
1.39476149082991
 30
0.0
 10
31.91348360025131
 20
1.395152342343653
 30
0.0
 10
31.91343587457167
 20
1.395543193857397
 30
0.0
 10
31.91339590906687
 20
1.395934298866482
 30
0.0
 10
31.91335594356207
 20
1.396325403875567
 30
0.0
 10
31.91332372309819
 20
1.396716533438572
 30
0.0
 10
31.91329150263433
 20
1.397107663001576
 30
0.0
 10
31.91326700318356
 20
1.397498589744671
 30
0.0
 10
31.9132425037328
 20
1.397889516487767
 30
0.0
 10
31.91322569250147
 20
1.398280015029683
 30
0.0
 10
31.91320888127015
 20
1.398670513571598
 30
0.0
 10
31.91319971685066
 20
1.399060360937911
 30
0.0
 10
31.91319055243117
 20
1.399450208304224
 30
0.0
 10
31.91318898497683
 20
1.399839184329448
 30
0.0
 10
31.9131874175225
 20
1.400228160354672
 30
0.0
 10
31.91319338894425
 20
1.400616048070722
 30
0.0
 10
31.913199360366
 20
1.401003935786773
 30
0.0
 10
31.91321280454976
 20
1.401390521796464
 30
0.0
 10
31.91322624873353
 20
1.401777107806156
 30
0.0
 10
31.91324709177712
 20
1.402162182640519
 30
0.0
 10
31.91326793482071
 20
1.402547257474882
 30
0.0
 10
31.91329609528878
 20
1.40293061593318
 30
0.0
 10
31.91332425575685
 20
1.403313974391479
 30
0.0
 10
31.91335964495268
 20
1.403695415862931
 30
0.0
 10
31.91339503414852
 20
1.404076857334383
 30
0.0
 10
31.91343755640107
 20
1.404456186100712
 30
0.0
 10
31.91348007865362
 20
1.404835514867042
 30
0.0
 10
31.91352963161839
 20
1.405212540385107
 30
0.0
 10
31.91357918458316
 20
1.405589565903171
 30
0.0
 10
31.91363565955541
 20
1.405964103067039
 30
0.0
 10
31.91369213452767
 20
1.406338640230907
 30
0.0
 10
31.9137554167664
 20
1.406710509612884
 30
0.0
 10
31.91381869900514
 20
1.407082378994861
 30
0.0
 10
31.91388866806628
 20
1.407451407065081
 30
0.0
 10
31.91395863712741
 20
1.4078204351353
 30
0.0
 10
31.91403516720466
 20
1.40818645445963
 30
0.0
 10
31.91411169728191
 20
1.40855247378396
 30
0.0
 10
31.91419465755376
 20
1.408915323200083
 30
0.0
 10
31.91427761782561
 20
1.409278172616206
 30
0.0
 10
31.91436687280701
 20
1.409637697387857
 30
0.0
 10
31.9144561277884
 20
1.409997222159509
 30
0.0
 10
31.91455153768542
 20
1.410353274108965
 30
0.0
 10
31.91464694758244
 20
1.410709326058422
 30
0.0
 10
31.91474836864881
 20
1.411061763677435
 30
0.0
 10
31.91484978971518
 20
1.411414201296447
 30
0.0
 10
31.91495707460895
 20
1.411762889835924
 30
0.0
 10
31.91506435950273
 20
1.412111578375402
 30
0.0
 10
31.91517735764192
 20
1.41245638991424
 30
0.0
 10
31.91529035578112
 20
1.412801201453078
 30
0.0
 10
31.91540891369701
 20
1.413142014946613
 30
0.0
 10
31.91552747161291
 20
1.413482828440147
 30
0.0
 10
31.91565215905536
 20
1.413821447486412
 30
0.0
 10
31.91577684649781
 20
1.414160066532677
 30
0.0
 10
31.91590836787833
 20
1.414498246519135
 30
0.0
 10
31.91603988925886
 20
1.414836426505594
 30
0.0
 10
31.91617828635047
 20
1.415173976488601
 30
0.0
 10
31.91631668344208
 20
1.415511526471608
 30
0.0
 10
31.91646199142264
 20
1.415848252025708
 30
0.0
 10
31.91660729940321
 20
1.416184977579808
 30
0.0
 10
31.91675954661321
 20
1.416520681059397
 30
0.0
 10
31.91691179382322
 20
1.416856384538985
 30
0.0
 10
31.91707100153461
 20
1.417190865357218
 30
0.0
 10
31.91723020924601
 20
1.417525346175451
 30
0.0
 10
31.91739639144348
 20
1.417858401099946
 30
0.0
 10
31.91756257364095
 20
1.418191456024441
 30
0.0
 10
31.91773573681686
 20
1.418522879489232
 30
0.0
 10
31.91790889999278
 20
1.418854302954022
 30
0.0
 10
31.91808904295712
 20
1.419183887387095
 30
0.0
 10
31.91826918592147
 20
1.419513471820168
 30
0.0
 10
31.91845629962801
 20
1.419841007985825
 30
0.0
 10
31.91864341333456
 20
1.420168544151481
 30
0.0
 10
31.91883748072447
 20
1.420493821506644
 30
0.0
 10
31.91903154811439
 20
1.420819098861807
 30
0.0
 10
31.9192325439784
 20
1.421141905925297
 30
0.0
 10
31.91943353984241
 20
1.421464712988788
 30
0.0
 10
31.9196414307027
 20
1.421784837722495
 30
0.0
 10
31.91984932156301
 20
1.422104962456202
 30
0.0
 10
31.92006406557586
 20
1.422422192656953
 30
0.0
 10
31.92027880958872
 20
1.422739422857704
 30
0.0
 10
31.92050035646877
 20
1.423053546558575
 30
0.0
 10
31.92072190334883
 20
1.423367670259446
 30
0.0
 10
31.92095019431596
 20
1.423678476139137
 30
0.0
 10
31.9211784852831
 20
1.423989282018828
 30
0.0
 10
31.92141345303261
 20
1.424296559817658
 30
0.0
 10
31.92164842078213
 20
1.424603837616488
 30
0.0
 10
31.92188998947893
 20
1.424907378557487
 30
0.0
 10
31.92213155817575
 20
1.425210919498486
 30
0.0
 10
31.92237964347311
 20
1.425510516711992
 30
0.0
 10
31.92262772877049
 20
1.425810113925498
 30
0.0
 10
31.92288223785378
 20
1.426105562875611
 30
0.0
 10
31.92313674693709
 20
1.426401011825723
 30
0.0
 10
31.92339757859283
 20
1.426692110736915
 30
0.0
 10
31.92365841024858
 20
1.426983209648107
 30
0.0
 10
31.92392545495899
 20
1.427269759930256
 30
0.0
 10
31.9241924996694
 20
1.427556310212404
 30
0.0
 10
31.92446563973245
 20
1.427838116882487
 30
0.0
 10
31.92473877979551
 20
1.42811992355257
 30
0.0
 10
31.92501788947052
 20
1.42839679565124
 30
0.0
 10
31.92529699914553
 20
1.428673667749911
 30
0.0
 10
31.92558194482386
 20
1.42894541875118
 30
0.0
 10
31.9258668905022
 20
1.429217169752449
 30
0.0
 10
31.9261575309029
 20
1.429483617964701
 30
0.0
 10
31.9264481713036
 20
1.429750066176952
 30
0.0
 10
31.9267443576933
 20
1.430011035133545
 30
0.0
 10
31.92704054408301
 20
1.430272004090138
 30
0.0
 10
31.92734212051955
 20
1.430527322927888
 30
0.0
 10
31.92764369695611
 20
1.430782641765638
 30
0.0
 10
31.92795050055504
 20
1.431032145589504
 30
0.0
 10
31.92825730415398
 20
1.431281649413369
 30
0.0
 10
31.928569165377
 20
1.431525179645754
 30
0.0
 10
31.92888102660003
 20
1.43176870987814
 30
0.0
 10
31.92919776956439
 20
1.432006114591264
 30
0.0
 10
31.92951451252875
 20
1.432243519304388
 30
0.0
 10
31.92983595533631
 20
1.432474653534287
 30
0.0
 10
31.93015739814388
 20
1.432705787764186
 30
0.0
 10
31.93048335322876
 20
1.432930513804983
 30
0.0
 10
31.93080930831364
 20
1.43315523984578
 30
0.0
 10
31.93113958280675
 20
1.433373427522977
 30
0.0
 10
31.93146985729986
 20
1.433591615200175
 30
0.0
 10
31.93180425340918
 20
1.433803142121826
 30
0.0
 10
31.93213864951851
 20
1.434014669043477
 30
0.0
 10
31.93247696492325
 20
1.434219420828225
 30
0.0
 10
31.93281528032799
 20
1.434424172612973
 30
0.0
 10
31.93315730858516
 20
1.434622043094069
 30
0.0
 10
31.93349933684233
 20
1.434819913575166
 30
0.0
 10
31.93384486780393
 20
1.435010804979706
 30
0.0
 10
31.93419039876554
 20
1.435201696384245
 30
0.0
 10
31.93453921900466
 20
1.43538551948701
 30
0.0
 10
31.93488803924378
 20
1.435569342589776
 30
0.0
 10
31.93523993248778
 20
1.435746016841218
 30
0.0
 10
31.93559182573178
 20
1.43592269109266
 30
0.0
 10
31.9359465733007
 20
1.436092144720677
 30
0.0
 10
31.93630132086962
 20
1.436261598348694
 30
0.0
 10
31.9366587021181
 20
1.436423768434038
 30
0.0
 10
31.93701608336659
 20
1.436585938519381
 30
0.0
 10
31.93737587612732
 20
1.436740771044639
 30
0.0
 10
31.93773566888806
 20
1.436895603569896
 30
0.0
 10
31.93809764991505
 20
1.437043053442167
 30
0.0
 10
31.93845963094205
 20
1.437190503314437
 30
0.0
 10
31.93882357635188
 20
1.437330534361935
 30
0.0
 10
31.93918752176172
 20
1.437470565409434
 30
0.0
 10
31.93955320747105
 20
1.437603150352412
 30
0.0
 10
31.93991889318038
 20
1.437735735295391
 30
0.0
 10
31.94028609533794
 20
1.437860855691887
 30
0.0
 10
31.9406532974955
 20
1.437985976088384
 30
0.0
 10
31.94102179290707
 20
1.438103622255441
 30
0.0
 10
31.94139028831864
 20
1.438221268422498
 30
0.0
 10
31.94175985486322
 20
1.4383314393336
 30
0.0
 10
31.94212942140781
 20
1.438441610244702
 30
0.0
 10
31.94249983844374
 20
1.438544313404311
 30
0.0
 10
31.94287025547969
 20
1.43864701656392
 30
0.0
 10
31.94324130423916
 20
1.43874226786007
 30
0.0
 10
31.94361235299864
 20
1.43883751915622
 30
0.0
 10
31.94398381696923
 20
1.438925342692229
 30
0.0
 10
31.94435528093982
 20
1.439013166228237
 30
0.0
 10
31.94472694623206
 20
1.439093594134693
 30
0.0
 10
31.9450986115243
 20
1.439174022041148
 30
0.0
 10
31.94547026722393
 20
1.439247094269372
 30
0.0
 10
31.94584192292357
 20
1.439320166497597
 30
0.0
 10
31.94621336142772
 20
1.439385930595876
 30
0.0
 10
31.94658479993188
 20
1.439451694694154
 30
0.0
 10
31.94695581726808
 20
1.439510205568056
 30
0.0
 10
31.94732683460428
 20
1.439568716441958
 30
0.0
 10
31.94769723073168
 20
1.43962003610012
 30
0.0
 10
31.94806762685907
 20
1.439671355758282
 30
0.0
 10
31.94843720595119
 20
1.439715553045062
 30
0.0
 10
31.94880678504331
 20
1.439759750331842
 30
0.0
 10
31.94917535575175
 20
1.439796900648255
 30
0.0
 10
31.9495439264602
 20
1.439834050964669
 30
0.0
 10
31.94991130215899
 20
1.43986423597905
 30
0.0
 10
31.9502786778578
 20
1.439894420993431
 30
0.0
 10
31.95064467686796
 20
1.439917728343243
 30
0.0
 10
31.95101067587813
 20
1.439941035693055
 30
0.0
 10
31.95137512167234
 20
1.439957558679277
 30
0.0
 10
31.95173956746656
 20
1.439974081665498
 30
0.0
 10
31.95210228885384
 20
1.439983918940991
 30
0.0
 10
31.95246501024112
 20
1.439993756216484
 30
0.0
 10
31.97782064108468
 20
1.440002213531497
 30
0.0
 10
32.00317627192825
 20
1.44001067084651
 30
0.0
 10
32.00349838752864
 20
1.440026180056817
 30
0.0
 10
32.00382050312903
 20
1.440041689267123
 30
0.0
 10
32.00414445136728
 20
1.440067819291814
 30
0.0
 10
32.00446839960554
 20
1.440093949316505
 30
0.0
 10
32.00479367566376
 20
1.440130897979365
 30
0.0
 10
32.005118951722
 20
1.440167846642224
 30
0.0
 10
32.00544503141337
 20
1.440215780846279
 30
0.0
 10
32.00577111110475
 20
1.440263715050335
 30
0.0
 10
32.00609745316905
 20
1.440322768726975
 30
0.0
 10
32.00642379523336
 20
1.440381822403615
 30
0.0
 10
32.00674984387383
 20
1.440452094660325
 30
0.0
 10
32.00707589251431
 20
1.440522366917036
 30
0.0
 10
32.0074010801563
 20
1.440603920415338
 30
0.0
 10
32.0077262677983
 20
1.440685473913641
 30
0.0
 10
32.00805001804559
 20
1.440778333506684
 30
0.0
 10
32.0083737682929
 20
1.440871193099728
 30
0.0
 10
32.00869549905342
 20
1.440975344756148
 30
0.0
 10
32.00901722981395
 20
1.441079496412569
 30
0.0
 10
32.00933635656246
 20
1.441194886449676
 30
0.0
 10
32.00965548331096
 20
1.441310276486783
 30
0.0
 10
32.00997142245299
 20
1.44143681113194
 30
0.0
 10
32.01028736159503
 20
1.441563345777097
 30
0.0
 10
32.01059953389348
 20
1.441700891071414
 30
0.0
 10
32.01091170619195
 20
1.441838436365731
 30
0.0
 10
32.01121954021559
 20
1.441986818418965
 30
0.0
 10
32.01152737423924
 20
1.442135200472198
 30
0.0
 10
32.01183030979104
 20
1.442294206072205
 30
0.0
 10
32.01213324534284
 20
1.442453211672211
 30
0.0
 10
32.01243073682578
 20
1.44262258924655
 30
0.0
 10
32.01272822830873
 20
1.442791966820889
 30
0.0
 10
32.01301974798695
 20
1.442971427742344
 30
0.0
 10
32.01331126766516
 20
1.443150888663799
 30
0.0
 10
32.01359630877961
 20
1.443340108885887
 30
0.0
 10
32.01388134989406
 20
1.443529329107976
 30
0.0
 10
32.01415942959438
 20
1.443727951111047
 30
0.0
 10
32.01443750929469
 20
1.443926573114117
 30
0.0
 10
32.01470817135144
 20
1.444134208137549
 30
0.0
 10
32.01497883340819
 20
1.44434184316098
 30
0.0
 10
32.01524165067387
 20
1.44455807369247
 30
0.0
 10
32.01550446793956
 20
1.44477430422396
 30
0.0
 10
32.01575904453099
 20
1.444998686712966
 30
0.0
 10
32.01601362112243
 20
1.445223069201971
 30
0.0
 10
32.01625959430172
 20
1.445455136961204
 30
0.0
 10
32.016505567481
 20
1.445687204720436
 30
0.0
 10
32.01674260921813
 20
1.445926470976952
 30
0.0
 10
32.01697965095526
 20
1.446165737233468
 30
0.0
 10
32.01720746916035
 20
1.446411698289365
 30
0.0
 10
32.01743528736544
 20
1.446657659345262
 30
0.0
 10
32.01765362678461
 20
1.44690979780735
 30
0.0
 10
32.01787196620377
 20
1.447161936269438
 30
0.0
 10
32.01808060897771
 20
1.447419724307442
 30
0.0
 10
32.01828925175165
 20
1.447677512345445
 30
0.0
 10
32.01848801764206
 20
1.447940414939304
 30
0.0
 10
32.01868678353246
 20
1.448203317533164
 30
0.0
 10
32.01887552982546
 20
1.448470795671754
 30
0.0
 10
32.01906427611847
 20
1.448738273810344
 30
0.0
 10
32.01924289721978
 20
1.449009787606355
 30
0.0
 10
32.01942151832108
 20
1.449281301402365
 30
0.0
 10
32.01958994506089
 20
1.449556313091091
 30
0.0
 10
32.01975837180071
 20
1.449831324779817
 30
0.0
 10
32.03351460345453
 20
1.47491582797019
 30
0.0
 10
32.04727083510836
 20
1.500000331160563
 30
0.0
  0
SPLINE
  5
44
330
1F
100
AcDbEntity
  8
DEFAULT
100
AcDbSpline
210
0.0
220
0.0
230
1.0
 70
     8
 71
     2
 72
   260
 73
   257
 74
     0
 42
0.0000000001
 43
0.0000000001
 40
0.0
 40
0.0
 40
0.0
 40
1.262449844603278
 40
1.262449844603278
 40
1.267972916492925
 40
1.267972916492925
 40
1.273542888089897
 40
1.273542888089897
 40
1.279158959412876
 40
1.279158959412876
 40
1.284820270672132
 40
1.284820270672132
 40
1.290525901788569
 40
1.290525901788569
 40
1.296274872069247
 40
1.296274872069247
 40
1.302066140048365
 40
1.302066140048365
 40
1.307898603502237
 40
1.307898603502237
 40
1.313771099646127
 40
1.313771099646127
 40
1.319682405520088
 40
1.319682405520088
 40
1.325631238570101
 40
1.325631238570101
 40
1.331616257429901
 40
1.331616257429901
 40
1.337636062907787
 40
1.337636062907787
 40
1.343689199181635
 40
1.343689199181635
 40
1.349774155204132
 40
1.349774155204132
 40
1.355889366318871
 40
1.355889366318871
 40
1.362033216086695
 40
1.362033216086695
 40
1.368204038320214
 40
1.368204038320214
 40
1.374400119322956
 40
1.374400119322956
 40
1.380619700328251
 40
1.380619700328251
 40
1.386860980131223
 40
1.386860980131223
 40
1.393122117906093
 40
1.393122117906093
 40
1.39940123619931
 40
1.39940123619931
 40
1.405696424087672
 40
1.405696424087672
 40
1.412005740489367
 40
1.412005740489367
 40
1.418327217614332
 40
1.418327217614332
 40
1.424658864539466
 40
1.424658864539466
 40
1.430998670892839
 40
1.430998670892839
 40
1.437344610630363
 40
1.437344610630363
 40
1.443694645887363
 40
1.443694645887363
 40
1.450046730886934
 40
1.450046730886934
 40
1.456398815886512
 40
1.456398815886512
 40
1.462748851143509
 40
1.462748851143509
 40
1.469094790881032
 40
1.469094790881032
 40
1.475434597234404
 40
1.475434597234404
 40
1.481766244159547
 40
1.481766244159547
 40
1.488087721284509
 40
1.488087721284509
 40
1.494397037686196
 40
1.494397037686196
 40
1.500692225574568
 40
1.500692225574568
 40
1.506971343867776
 40
1.506971343867776
 40
1.513232481642647
 40
1.513232481642647
 40
1.519473761445614
 40
1.519473761445614
 40
1.525693342450917
 40
1.525693342450917
 40
1.531889423453664
 40
1.531889423453664
 40
1.538060245687187
 40
1.538060245687187
 40
1.544204095455001
 40
1.544204095455001
 40
1.550319306569739
 40
1.550319306569739
 40
1.55640426259223
 40
1.55640426259223
 40
1.562457398866079
 40
1.562457398866079
 40
1.56847720434397
 40
1.56847720434397
 40
1.574462223203764
 40
1.574462223203764
 40
1.580411056253788
 40
1.580411056253788
 40
1.586322362127748
 40
1.586322362127748
 40
1.59219485827163
 40
1.59219485827163
 40
1.598027321725502
 40
1.598027321725502
 40
1.603818589704624
 40
1.603818589704624
 40
1.609567559985301
 40
1.609567559985301
 40
1.615273191101747
 40
1.615273191101747
 40
1.620934502360986
 40
1.620934502360986
 40
1.626550573683977
 40
1.626550573683977
 40
1.632120545280941
 40
1.632120545280941
 40
1.637643617170597
 40
1.637643617170597
 40
3.577482721157816
 40
3.577482721157816
 40
3.582958152539271
 40
3.582958152539271
 40
3.588481224428927
 40
3.588481224428927
 40
3.594051196025898
 40
3.594051196025898
 40
3.599667267348889
 40
3.599667267348889
 40
3.605328578608142
 40
3.605328578608142
 40
3.611034209724575
 40
3.611034209724575
 40
3.616783180005251
 40
3.616783180005251
 40
3.622574447984373
 40
3.622574447984373
 40
3.628406911438245
 40
3.628406911438245
 40
3.634279407582134
 40
3.634279407582134
 40
3.640190713456101
 40
3.640190713456101
 40
3.646139546506118
 40
3.646139546506118
 40
3.652124565365898
 40
3.652124565365898
 40
3.658144370843789
 40
3.658144370843789
 40
3.664197507117639
 40
3.664197507117639
 40
3.670282463140136
 40
3.670282463140136
 40
3.676397674254874
 40
3.676397674254874
 40
3.682541524022701
 40
3.682541524022701
 40
3.688712346256218
 40
3.688712346256218
 40
3.694908427258965
 40
3.694908427258965
 40
3.701128008264256
 40
3.701128008264256
 40
3.707369288067229
 40
3.707369288067229
 40
3.7136304258421
 40
3.7136304258421
 40
3.719909544135319
 40
3.719909544135319
 40
3.72620473202368
 40
3.72620473202368
 40
3.732514048425378
 40
3.732514048425378
 40
3.738835525550351
 40
3.738835525550351
 40
3.745167172475478
 40
3.745167172475478
 40
3.75150697882885
 40
3.75150697882885
 40
3.757852918566379
 40
3.757852918566379
 40
3.764202953823373
 40
3.764202953823373
 40
3.770555038822943
 40
3.770555038822943
 40
3.776907123822524
 40
3.776907123822524
 40
3.783257159079522
 40
3.783257159079522
 40
3.789603098817048
 40
3.789603098817048
 40
3.795942905170428
 40
3.795942905170428
 40
3.802274552095551
 40
3.802274552095551
 40
3.80859602922052
 40
3.80859602922052
 40
3.814905345622215
 40
3.814905345622215
 40
3.821200533510576
 40
3.821200533510576
 40
3.827479651803797
 40
3.827479651803797
 40
3.833740789578663
 40
3.833740789578663
 40
3.839982069381633
 40
3.839982069381633
 40
3.846201650386933
 40
3.846201650386933
 40
3.852397731389678
 40
3.852397731389678
 40
3.858568553623191
 40
3.858568553623191
 40
3.864712403391015
 40
3.864712403391015
 40
3.870827614505758
 40
3.870827614505758
 40
3.876912570528256
 40
3.876912570528256
 40
3.882965706802104
 40
3.882965706802104
 40
3.888985512279986
 40
3.888985512279986
 40
3.894970531139791
 40
3.894970531139791
 40
3.900919364189807
 40
3.900919364189807
 40
3.906830670063766
 40
3.906830670063766
 40
3.912703166207655
 40
3.912703166207655
 40
3.918535629661528
 40
3.918535629661528
 40
3.924326897640646
 40
3.924326897640646
 40
3.930075867921323
 40
3.930075867921323
 40
3.935781499037764
 40
3.935781499037764
 40
3.941442810297018
 40
3.941442810297018
 40
3.947058881619996
 40
3.947058881619996
 40
3.952628853216968
 40
3.952628853216968
 40
3.958151925106616
 40
3.958151925106616
 40
5.220601769709893
 40
5.220601769709893
 40
5.220601769709893
 10
32.13588167282189
 20
1.499999831331887
 30
0.0
 10
32.15243521685851
 20
0.8689920003863923
 30
0.0
 10
32.16898876089513
 20
0.2379841694408978
 30
0.0
 10
32.16915194870626
 20
0.2352274593522496
 30
0.0
 10
32.16931513651738
 20
0.2324707492636014
 30
0.0
 10
32.16954134575801
 20
0.2296949655405387
 30
0.0
 10
32.16976755499864
 20
0.226919181817476
 30
0.0
 10
32.17005818954176
 20
0.224126227138548
 30
0.0
 10
32.17034882408488
 20
0.22133327245962
 30
0.0
 10
32.17070522318627
 20
0.2185251430156543
 30
0.0
 10
32.17106162228767
 20
0.2157170135716886
 30
0.0
 10
32.17148505400737
 20
0.2128957971340571
 30
0.0
 10
32.17190848572707
 20
0.2100745806964256
 30
0.0
 10
32.17240014033986
 20
0.2072424541872885
 30
0.0
 10
32.17289179495265
 20
0.2044103276781515
 30
0.0
 10
32.17345277838783
 20
0.2015695542294331
 30
0.0
 10
32.17401376182301
 20
0.1987287807807147
 30
0.0
 10
32.17464508917617
 20
0.1958817062719707
 30
0.0
 10
32.17527641652933
 20
0.1930346317632266
 30
0.0
 10
32.17597900569063
 20
0.1901836808323226
 30
0.0
 10
32.17668159485193
 20
0.1873327299014185
 30
0.0
 10
32.17745626029733
 20
0.184480401426017
 30
0.0
 10
32.17823092574272
 20
0.1816280729506156
 30
0.0
 10
32.17907837253577
 20
0.1787769350028496
 30
0.0
 10
32.17992581932882
 20
0.1759257970550836
 30
0.0
 10
32.18084663738159
 20
0.1730784813364259
 30
0.0
 10
32.18176745543438
 20
0.1702311656177682
 30
0.0
 10
32.18276211407651
 20
0.1673903613859507
 30
0.0
 10
32.18375677271865
 20
0.1645495571541332
 30
0.0
 10
32.1848256156232
 20
0.1617180046589717
 30
0.0
 10
32.18589445852774
 20
0.1588864521638102
 30
0.0
 10
32.18703769904209
 20
0.1560669356138882
 30
0.0
 10
32.18818093955643
 20
0.1532474190639662
 30
0.0
 10
32.18939865648517
 20
0.1504427591512649
 30
0.0
 10
32.19061637341392
 20
0.1476380992385636
 30
0.0
 10
32.19190850729861
 20
0.1448511452532177
 30
0.0
 10
32.1932006411833
 20
0.1420641912678717
 30
0.0
 10
32.19456699112179
 20
0.1392978128402136
 30
0.0
 10
32.19593334106028
 20
0.1365314344125555
 30
0.0
 10
32.19737356210511
 20
0.1337885129244045
 30
0.0
 10
32.19881378314994
 20
0.1310455914362535
 30
0.0
 10
32.2003273843218
 20
0.1283290111479317
 30
0.0
 10
32.20184098549366
 20
0.1256124308596098
 30
0.0
 10
32.20342732844146
 20
0.1229250698033509
 30
0.0
 10
32.20501367138927
 20
0.1202377087470921
 30
0.0
 10
32.20667196972403
 20
0.1175824294412736
 30
0.0
 10
32.20833026805879
 20
0.1149271501354552
 30
0.0
 10
32.21005958738299
 20
0.1123067901773542
 30
0.0
 10
32.21178890670718
 20
0.1096864302192533
 30
0.0
 10
32.21358816535579
 20
0.107103792816746
 30
0.0
 10
32.2153874240044
 20
0.1045211554142386
 30
0.0
 10
32.21725539450792
 20
0.1019789999189606
 30
0.0
 10
32.21912336501144
 20
0.0994368444236825
 30
0.0
 10
32.22105867628457
 20
0.0969378769296038
 30
0.0
 10
32.2229939875577
 20
0.094438909435525
 30
0.0
 10
32.2249951278115
 20
0.091985773507619
 30
0.0
 10
32.22699626806529
 20
0.0895326375797129
 30
0.0
 10
32.22906158843337
 20
0.087127905177395
 30
0.0
 10
32.23112690880144
 20
0.0847231727750771
 30
0.0
 10
32.23325462766478
 20
0.0823693354343281
 30
0.0
 10
32.23538234652811
 20
0.0800154980935792
 30
0.0
 10
32.23757055451601
 20
0.0777149584301582
 30
0.0
 10
32.23975876250391
 20
0.0754144187667371
 30
0.0
 10
32.2420054281428
 20
0.0731694823606275
 30
0.0
 10
32.24425209378168
 20
0.070924545954518
 30
0.0
 10
32.24655506975694
 20
0.0687374136727754
 30
0.0
 10
32.24885804573221
 20
0.0665502813910328
 30
0.0
 10
32.25121507572272
 20
0.0644230422025328
 30
0.0
 10
32.25357210571323
 20
0.0622958030140327
 30
0.0
 10
32.25598083175311
 20
0.0602304273453187
 30
0.0
 10
32.25838955779298
 20
0.0581650516766046
 30
0.0
 10
32.26084752810996
 20
0.0561633853531542
 30
0.0
 10
32.26330549842693
 20
0.0541617190297037
 30
0.0
 10
32.26581017570304
 20
0.0522254778415498
 30
0.0
 10
32.26831485297915
 20
0.050289236653396
 30
0.0
 10
32.27086362297546
 20
0.0484200015782253
 30
0.0
 10
32.27341239297178
 20
0.0465507665030547
 30
0.0
 10
32.27600257345651
 20
0.0447499796137565
 30
0.0
 10
32.27859275394124
 20
0.0429491927244582
 30
0.0
 10
32.28122160385809
 20
0.0412181538016953
 30
0.0
 10
32.28385045377495
 20
0.0394871148789325
 30
0.0
 10
32.28651518258749
 20
0.0378269787427555
 30
0.0
 10
32.28917991140003
 20
0.0361668426065784
 30
0.0
 10
32.29187768854721
 20
0.0345786171744897
 30
0.0
 10
32.29457546569439
 20
0.0329903917424009
 30
0.0
 10
32.29730343009241
 20
0.031474936814708
 30
0.0
 10
32.30003139449043
 20
0.0299594818870151
 30
0.0
 10
32.30278666401722
 20
0.0285175086538651
 30
0.0
 10
32.30554193354401
 20
0.0270755354207152
 30
0.0
 10
32.30832161444398
 20
0.0257076066789838
 30
0.0
 10
32.31110129534396
 20
0.0243396779372524
 30
0.0
 10
32.31390249149322
 20
0.0230462089995322
 30
0.0
 10
32.31670368764247
 20
0.021752740061812
 30
0.0
 10
32.31952350961712
 20
0.0205340003341991
 30
0.0
 10
32.32234333159177
 20
0.0193152606065862
 30
0.0
 10
32.32517890548595
 20
0.0181713758068477
 30
0.0
 10
32.32801447938013
 20
0.0170274910071092
 30
0.0
 10
32.33086295532364
 20
0.0159584459901981
 30
0.0
 10
32.33371143126715
 20
0.0148894009732869
 30
0.0
 10
32.3365699915973
 20
0.0138950431270864
 30
0.0
 10
32.33942855192745
 20
0.0129006852808859
 30
0.0
 10
32.34229441897428
 20
0.0119807284515555
 30
0.0
 10
32.34516028602111
 20
0.0110607716222252
 30
0.0
 10
32.34803072946973
 20
0.0102148005255981
 30
0.0
 10
32.35090117291834
 20
0.0093688294289709
 30
0.0
 10
32.35377351671769
 20
0.0085963045021376
 30
0.0
 10
32.35664586051705
 20
0.0078237795753044
 30
0.0
 10
32.35951748930897
 20
0.0071240422208051
 30
0.0
 10
32.36238911810089
 20
0.0064243048663058
 30
0.0
 10
32.36525748314897
 20
0.0057965830402318
 30
0.0
 10
32.36812584819705
 20
0.0051688612141578
 30
0.0
 10
32.37098847279963
 20
0.0046122753089239
 30
0.0
 10
32.37385109740221
 20
0.0040556894036901
 30
0.0
 10
32.37670558177894
 20
0.0035692583762427
 30
0.0
 10
32.37956006615568
 20
0.0030828273487953
 30
0.0
 10
32.38240409180201
 20
0.0026654750455448
 30
0.0
 10
32.38524811744834
 20
0.0022481227422943
 30
0.0
 10
32.38807945095667
 20
0.0018986843730574
 30
0.0
 10
32.39091078446499
 20
0.0015492460038205
 30
0.0
 10
32.39372728081572
 20
0.0012664747184882
 30
0.0
 10
32.39654377716646
 20
0.0009837034331559
 30
0.0
 10
32.39934338249641
 20
0.0007662769566162
 30
0.0
 10
32.40214298782637
 20
0.0005488504800765
 30
0.0
 10
32.4049237416851
 20
0.0003953777630692
 30
0.0
 10
32.40770449554384
 20
0.0002419050460619
 30
0.0
 10
32.41046453265261
 20
0.0001509328920722
 30
0.0
 10
32.41322456976138
 20
0.0000599607380824
 30
0.0
 10
33.38314412129164
 20
0.0000299803690409
 30
0.0
 10
34.3530636728219
 20
-0.0000000000000007
 30
0.0
 10
34.35580122435214
 20
0.0000299803690395
 30
0.0
 10
34.35853877588238
 20
0.0000599607380797
 30
0.0
 10
34.36129881299115
 20
0.0001509328920695
 30
0.0
 10
34.36405885009992
 20
0.0002419050460593
 30
0.0
 10
34.36683960395866
 20
0.0003953777630666
 30
0.0
 10
34.3696203578174
 20
0.0005488504800739
 30
0.0
 10
34.37241996314736
 20
0.0007662769566136
 30
0.0
 10
34.37521956847732
 20
0.0009837034331533
 30
0.0
 10
34.37803606482806
 20
0.0012664747184856
 30
0.0
 10
34.3808525611788
 20
0.001549246003818
 30
0.0
 10
34.38368389468711
 20
0.0018986843730549
 30
0.0
 10
34.38651522819542
 20
0.0022481227422918
 30
0.0
 10
34.38935925384175
 20
0.0026654750455423
 30
0.0
 10
34.39220327948809
 20
0.0030828273487928
 30
0.0
 10
34.39505776386483
 20
0.0035692583762402
 30
0.0
 10
34.39791224824157
 20
0.0040556894036876
 30
0.0
 10
34.40077487284415
 20
0.0046122753089215
 30
0.0
 10
34.40363749744672
 20
0.0051688612141554
 30
0.0
 10
34.4065058624948
 20
0.0057965830402294
 30
0.0
 10
34.40937422754288
 20
0.0064243048663034
 30
0.0
 10
34.41224585633481
 20
0.0071240422208027
 30
0.0
 10
34.41511748512674
 20
0.007823779575302
 30
0.0
 10
34.41798982892609
 20
0.0085963045021353
 30
0.0
 10
34.42086217272544
 20
0.0093688294289686
 30
0.0
 10
34.42373261617404
 20
0.0102148005255958
 30
0.0
 10
34.42660305962265
 20
0.0110607716222229
 30
0.0
 10
34.42946892666948
 20
0.0119807284515533
 30
0.0
 10
34.43233479371631
 20
0.0129006852808837
 30
0.0
 10
34.43519335404646
 20
0.0138950431270842
 30
0.0
 10
34.43805191437662
 20
0.0148894009732847
 30
0.0
 10
34.44090039032012
 20
0.0159584459901959
 30
0.0
 10
34.44374886626363
 20
0.017027491007107
 30
0.0
 10
34.44658444015782
 20
0.0181713758068456
 30
0.0
 10
34.44942001405201
 20
0.0193152606065841
 30
0.0
 10
34.45223983602666
 20
0.020534000334197
 30
0.0
 10
34.45505965800132
 20
0.0217527400618099
 30
0.0
 10
34.45786085415057
 20
0.0230462089995301
 30
0.0
 10
34.46066205029982
 20
0.0243396779372503
 30
0.0
 10
34.46344173119979
 20
0.0257076066789818
 30
0.0
 10
34.46622141209977
 20
0.0270755354207132
 30
0.0
 10
34.46897668162655
 20
0.0285175086538632
 30
0.0
 10
34.47173195115333
 20
0.0299594818870131
 30
0.0
 10
34.47445991555136
 20
0.0314749368147061
 30
0.0
 10
34.47718787994938
 20
0.0329903917423991
 30
0.0
 10
34.47988565709656
 20
0.0345786171744878
 30
0.0
 10
34.48258343424374
 20
0.0361668426065765
 30
0.0
 10
34.48524816305628
 20
0.0378269787427536
 30
0.0
 10
34.48791289186883
 20
0.0394871148789307
 30
0.0
 10
34.49054174178568
 20
0.0412181538016936
 30
0.0
 10
34.49317059170254
 20
0.0429491927244565
 30
0.0
 10
34.49576077218727
 20
0.0447499796137548
 30
0.0
 10
34.49835095267201
 20
0.046550766503053
 30
0.0
 10
34.50089972266833
 20
0.0484200015782237
 30
0.0
 10
34.50344849266465
 20
0.0502892366533944
 30
0.0
 10
34.50595316994075
 20
0.0522254778415483
 30
0.0
 10
34.50845784721685
 20
0.0541617190297022
 30
0.0
 10
34.51091581753382
 20
0.0561633853531527
 30
0.0
 10
34.5133737878508
 20
0.0581650516766031
 30
0.0
 10
34.51578251389067
 20
0.0602304273453172
 30
0.0
 10
34.51819123993054
 20
0.0622958030140313
 30
0.0
 10
34.52054826992106
 20
0.0644230422025314
 30
0.0
 10
34.52290529991157
 20
0.0665502813910314
 30
0.0
 10
34.52520827588683
 20
0.0687374136727741
 30
0.0
 10
34.52751125186208
 20
0.0709245459545167
 30
0.0
 10
34.52975791750098
 20
0.0731694823606263
 30
0.0
 10
34.53200458313988
 20
0.0754144187667359
 30
0.0
 10
34.53419279112778
 20
0.077714958430157
 30
0.0
 10
34.53638099911568
 20
0.0800154980935781
 30
0.0
 10
34.53850871797901
 20
0.082369335434327
 30
0.0
 10
34.54063643684233
 20
0.084723172775076
 30
0.0
 10
34.54270175721042
 20
0.087127905177394
 30
0.0
 10
34.54476707757851
 20
0.0895326375797119
 30
0.0
 10
34.54676821783229
 20
0.0919857735076179
 30
0.0
 10
34.54876935808608
 20
0.094438909435524
 30
0.0
 10
34.55070466935921
 20
0.0969378769296028
 30
0.0
 10
34.55263998063235
 20
0.0994368444236816
 30
0.0
 10
34.55450795113586
 20
0.1019789999189596
 30
0.0
 10
34.55637592163937
 20
0.1045211554142377
 30
0.0
 10
34.55817518028799
 20
0.1071037928167451
 30
0.0
 10
34.55997443893661
 20
0.1096864302192525
 30
0.0
 10
34.5617037582608
 20
0.1123067901773535
 30
0.0
 10
34.563433077585
 20
0.1149271501354545
 30
0.0
 10
34.56509137591976
 20
0.117582429441273
 30
0.0
 10
34.56674967425451
 20
0.1202377087470915
 30
0.0
 10
34.56833601720231
 20
0.1229250698033503
 30
0.0
 10
34.56992236015012
 20
0.1256124308596092
 30
0.0
 10
34.57143596132198
 20
0.1283290111479311
 30
0.0
 10
34.57294956249385
 20
0.131045591436253
 30
0.0
 10
34.57438978353868
 20
0.1337885129244041
 30
0.0
 10
34.57583000458352
 20
0.1365314344125551
 30
0.0
 10
34.577196354522
 20
0.1392978128402133
 30
0.0
 10
34.57856270446048
 20
0.1420641912678714
 30
0.0
 10
34.57985483834517
 20
0.1448511452532174
 30
0.0
 10
34.58114697222986
 20
0.1476380992385634
 30
0.0
 10
34.58236468915861
 20
0.1504427591512647
 30
0.0
 10
34.58358240608736
 20
0.153247419063966
 30
0.0
 10
34.5847256466017
 20
0.156066935613888
 30
0.0
 10
34.58586888711605
 20
0.1588864521638101
 30
0.0
 10
34.58693773002059
 20
0.1617180046589716
 30
0.0
 10
34.58800657292514
 20
0.1645495571541331
 30
0.0
 10
34.58900123156727
 20
0.1673903613859506
 30
0.0
 10
34.58999589020941
 20
0.1702311656177682
 30
0.0
 10
34.59091670826219
 20
0.1730784813364259
 30
0.0
 10
34.59183752631498
 20
0.1759257970550837
 30
0.0
 10
34.59268497310803
 20
0.1787769350028497
 30
0.0
 10
34.59353241990108
 20
0.1816280729506158
 30
0.0
 10
34.59430708534647
 20
0.1844804014260173
 30
0.0
 10
34.59508175079186
 20
0.1873327299014188
 30
0.0
 10
34.59578433995316
 20
0.1901836808323228
 30
0.0
 10
34.59648692911446
 20
0.1930346317632269
 30
0.0
 10
34.59711825646762
 20
0.1958817062719709
 30
0.0
 10
34.59774958382079
 20
0.198728780780715
 30
0.0
 10
34.59831056725596
 20
0.2015695542294335
 30
0.0
 10
34.59887155069114
 20
0.204410327678152
 30
0.0
 10
34.59936320530393
 20
0.207242454187289
 30
0.0
 10
34.59985485991672
 20
0.2100745806964261
 30
0.0
 10
34.60027829163644
 20
0.2128957971340576
 30
0.0
 10
34.60070172335615
 20
0.2157170135716891
 30
0.0
 10
34.60105812245754
 20
0.2185251430156549
 30
0.0
 10
34.60141452155892
 20
0.2213332724596207
 30
0.0
 10
34.60170515610204
 20
0.2241262271385487
 30
0.0
 10
34.60199579064515
 20
0.2269191818174768
 30
0.0
 10
34.60222199988578
 20
0.2296949655405395
 30
0.0
 10
34.60244820912641
 20
0.2324707492636022
 30
0.0
 10
34.60261139693754
 20
0.2352274593522504
 30
0.0
 10
34.60277458474867
 20
0.2379841694408986
 30
0.0
 10
34.61932812878528
 20
0.8689920003863928
 30
0.0
 10
34.63588167282188
 20
1.499999831331887
 30
0.0
  0
SPLINE
  5
45
330
1F
100
AcDbEntity
  8
DEFAULT
100
AcDbSpline
210
0.0
220
0.0
230
1.0
 70
    24
 71
     2
 72
     6
 73
     3
 74
     0
 42
0.0000000001
 43
0.0000000001
 40
0.0
 40
0.0
 40
0.0
 40
26.52999999999998
 40
26.52999999999998
 40
26.52999999999998
 10
12.39021341926231
 20
1.289999999999999
 30
0.0
 10
0.0000131842407534
 20
1.289999999999999
 30
0.0
 10
-12.39018705078081
 20
1.289999999999999
 30
0.0
  0
SPLINE
  5
46
330
1F
100
AcDbEntity
  8
DEFAULT
100
AcDbSpline
210
0.0
220
0.0
230
1.0
 70
    24
 71
     2
 72
     6
 73
     3
 74
     0
 42
0.0000000001
 43
0.0000000001
 40
0.0
 40
0.0
 40
0.0
 40
26.52999999999998
 40
26.52999999999998
 40
26.52999999999998
 10
-12.39018705078081
 20
0.6024999999999991
 30
0.0
 10
0.0000131842407534
 20
0.6024999999999991
 30
0.0
 10
12.39021341926231
 20
0.6024999999999991
 30
0.0
  0
SPLINE
  5
47
330
1F
100
AcDbEntity
  8
DEFAULT
100
AcDbSpline
210
0.0
220
0.0
230
1.0
 70
    11
 71
     2
 72
   516
 73
   513
 74
     0
 42
0.0000000001
 43
0.0000000001
 40
53.59817676749579
 40
53.59817676749579
 40
53.59817676749579
 40
53.60650075909746
 40
53.60650075909746
 40
68.00369670496688
 40
68.00369670496688
 40
68.02609349397771
 40
68.02609349397771
 40
68.04868676965269
 40
68.04868676965269
 40
68.07147328733748
 40
68.07147328733748
 40
68.09444954603592
 40
68.09444954603592
 40
68.1176117859475
 40
68.1176117859475
 40
68.1409559866827
 40
68.1409559866827
 40
68.16447786619818
 40
68.16447786619818
 40
68.18817288049199
 40
68.18817288049199
 40
68.21203622409601
 40
68.21203622409601
 40
68.23606283139988
 40
68.23606283139988
 40
68.26024737883672
 40
68.26024737883672
 40
68.28458428795716
 40
68.28458428795716
 40
68.3090677294131
 40
68.3090677294131
 40
68.33369162786819
 40
68.33369162786819
 40
68.35844966784578
 40
68.35844966784578
 40
68.38333530051979
 40
68.38333530051979
 40
68.40834175144767
 40
68.40834175144767
 40
68.43346202923773
 40
68.43346202923773
 40
68.4586889351372
 40
68.4586889351372
 40
68.48401507351969
 40
68.48401507351969
 40
68.50943286324461
 40
68.50943286324461
 40
68.5349345498537
 40
68.5349345498537
 40
68.56051221856329
 40
68.56051221856329
 40
68.5861578080043
 40
68.5861578080043
 40
68.61186312465549
 40
68.61186312465549
 40
68.6376198579096
 40
68.6376198579096
 40
68.6634195957066
 40
68.6634195957066
 40
68.68925384066276
 40
68.68925384066276
 40
68.7151140266203
 40
68.7151140266203
 40
68.74099153553816
 40
68.74099153553816
 40
68.76687771464148
 40
68.76687771464148
 40
68.7927638937448
 40
68.7927638937448
 40
68.81864140266268
 40
68.81864140266268
 40
68.84450158862022
 40
68.84450158862022
 40
68.87033583357638
 40
68.87033583357638
 40
68.89613557137338
 40
68.89613557137338
 40
68.92189230462749
 40
68.92189230462749
 40
68.94759762127867
 40
68.94759762127867
 40
68.97324321071969
 40
68.97324321071969
 40
68.99882087942927
 40
68.99882087942927
 40
69.02432256603836
 40
69.02432256603836
 40
69.04974035576328
 40
69.04974035576328
 40
69.07506649414577
 40
69.07506649414577
 40
69.10029340004525
 40
69.10029340004525
 40
69.12541367783533
 40
69.12541367783533
 40
69.15042012876319
 40
69.15042012876319
 40
69.1753057614372
 40
69.1753057614372
 40
69.20006380141479
 40
69.20006380141479
 40
69.22468769986988
 40
69.22468769986988
 40
69.24917114132582
 40
69.24917114132582
 40
69.27350805044624
 40
69.27350805044624
 40
69.2976925978831
 40
69.2976925978831
 40
69.32171920518697
 40
69.32171920518697
 40
69.34558254879099
 40
69.34558254879099
 40
69.3692775630848
 40
69.3692775630848
 40
69.39279944260028
 40
69.39279944260028
 40
69.41614364333547
 40
69.41614364333547
 40
69.43930588324706
 40
69.43930588324706
 40
69.46228214194548
 40
69.46228214194548
 40
69.48506865963027
 40
69.48506865963027
 40
69.50766193530526
 40
69.50766193530526
 40
69.53005872431609
 40
69.53005872431609
 40
105.8022546689143
 40
105.8022546689143
 40
105.8244519798521
 40
105.8244519798521
 40
105.846848768863
 40
105.846848768863
 40
105.8694420445379
 40
105.8694420445379
 40
105.8922285622227
 40
105.8922285622227
 40
105.9152048209212
 40
105.9152048209212
 40
105.9383670608327
 40
105.9383670608327
 40
105.9617112615679
 40
105.9617112615679
 40
105.9852331410834
 40
105.9852331410834
 40
106.0089281553772
 40
106.0089281553772
 40
106.0327914989812
 40
106.0327914989812
 40
106.0568181062851
 40
106.0568181062851
 40
106.081002653722
 40
106.081002653722
 40
106.1053395628424
 40
106.1053395628424
 40
106.1298230042983
 40
106.1298230042983
 40
106.1544469027534
 40
106.1544469027534
 40
106.179204942731
 40
106.179204942731
 40
106.204090575405
 40
106.204090575405
 40
106.2290970263329
 40
106.2290970263329
 40
106.2542173041229
 40
106.2542173041229
 40
106.2794442100224
 40
106.2794442100224
 40
106.3047703484049
 40
106.3047703484049
 40
106.3301881381298
 40
106.3301881381298
 40
106.3556898247389
 40
106.3556898247389
 40
106.3812674934485
 40
106.3812674934485
 40
106.4069130828895
 40
106.4069130828895
 40
106.4326183995407
 40
106.4326183995407
 40
106.4583751327948
 40
106.4583751327948
 40
106.4841748705918
 40
106.4841748705918
 40
106.510009115548
 40
106.510009115548
 40
106.5358693015055
 40
106.5358693015055
 40
106.5617468104234
 40
106.5617468104234
 40
106.5876329895267
 40
106.5876329895267
 40
106.61351916863
 40
106.61351916863
 40
106.6393966775479
 40
106.6393966775479
 40
106.6652568635054
 40
106.6652568635054
 40
106.6910911084616
 40
106.6910911084616
 40
106.7168908462586
 40
106.7168908462586
 40
106.7426475795127
 40
106.7426475795127
 40
106.7683528961639
 40
106.7683528961639
 40
106.7939984856049
 40
106.7939984856049
 40
106.8195761543145
 40
106.8195761543145
 40
106.8450778409236
 40
106.8450778409236
 40
106.8704956306485
 40
106.8704956306485
 40
106.895821769031
 40
106.895821769031
 40
106.9210486749305
 40
106.9210486749305
 40
106.9461689527205
 40
106.9461689527205
 40
106.9711754036484
 40
106.9711754036484
 40
106.9960610363224
 40
106.9960610363224
 40
107.0208190763
 40
107.0208190763
 40
107.0454429747551
 40
107.0454429747551
 40
107.069926416211
 40
107.069926416211
 40
107.0942633253315
 40
107.0942633253315
 40
107.1184478727683
 40
107.1184478727683
 40
107.1424744800722
 40
107.1424744800722
 40
107.1663378236762
 40
107.1663378236762
 40
107.19003283797
 40
107.19003283797
 40
107.2135547174855
 40
107.2135547174855
 40
107.2368989182207
 40
107.2368989182207
 40
107.2600611581323
 40
107.2600611581323
 40
107.2830374168307
 40
107.2830374168307
 40
107.3058239345155
 40
107.3058239345155
 40
107.3284172101905
 40
107.3284172101905
 40
107.3508139992013
 40
107.3508139992013
 40
121.7480099450707
 40
121.7480099450707
 40
121.7563339366724
 40
121.7563339366724
 40
121.7647327325515
 40
121.7647327325515
 40
121.7732052109296
 40
121.7732052109296
 40
121.7817501550614
 40
121.7817501550614
 40
121.7903662520733
 40
121.7903662520733
 40
121.7990520920401
 40
121.7990520920401
 40
121.8078061673158
 40
121.8078061673158
 40
121.8166268721341
 40
121.8166268721341
 40
121.8255125024943
 40
121.8255125024943
 40
121.8344612563458
 40
121.8344612563458
 40
121.8434712340848
 40
121.8434712340848
 40
121.8525404393736
 40
121.8525404393736
 40
121.8616667802937
 40
121.8616667802937
 40
121.8708480708397
 40
121.8708480708397
 40
121.8800820327604
 40
121.8800820327604
 40
121.889366297752
 40
121.889366297752
 40
121.8986984100047
 40
121.8986984100047
 40
121.9080758291027
 40
121.9080758291027
 40
121.917495933274
 40
121.917495933274
 40
121.9269560229862
 40
121.9269560229862
 40
121.9364533248797
 40
121.9364533248797
 40
121.9459849960265
 40
121.9459849960265
 40
121.9555481285049
 40
121.9555481285049
 40
121.965139754271
 40
121.965139754271
 40
121.9747568503114
 40
121.9747568503114
 40
121.9843963440556
 40
121.9843963440556
 40
121.9940551190259
 40
121.9940551190259
 40
122.0037300206998
 40
122.0037300206998
 40
122.0134178625583
 40
122.0134178625583
 40
122.0231154322924
 40
122.0231154322924
 40
122.0328194981366
 40
122.0328194981366
 40
122.0425268153003
 40
122.0425268153003
 40
122.0522341324641
 40
122.0522341324641
 40
122.0619381983083
 40
122.0619381983083
 40
122.0716357680424
 40
122.0716357680424
 40
122.0813236099009
 40
122.0813236099009
 40
122.0909985115748
 40
122.0909985115748
 40
122.1006572865451
 40
122.1006572865451
 40
122.1102967802893
 40
122.1102967802893
 40
122.1199138763297
 40
122.1199138763297
 40
122.1295055020958
 40
122.1295055020958
 40
122.1390686345742
 40
122.1390686345742
 40
122.148600305721
 40
122.148600305721
 40
122.1580976076145
 40
122.1580976076145
 40
122.1675576973268
 40
122.1675576973268
 40
122.176977801498
 40
122.176977801498
 40
122.186355220596
 40
122.186355220596
 40
122.1956873328487
 40
122.1956873328487
 40
122.2049715978403
 40
122.2049715978403
 40
122.214205559761
 40
122.214205559761
 40
122.223386850307
 40
122.223386850307
 40
122.2325131912271
 40
122.2325131912271
 40
122.241582396516
 40
122.241582396516
 40
122.2505923742549
 40
122.2505923742549
 40
122.2595411281064
 40
122.2595411281064
 40
122.2684267584666
 40
122.2684267584666
 40
122.2772474632849
 40
122.2772474632849
 40
122.2860015385606
 40
122.2860015385606
 40
122.2946873785274
 40
122.2946873785274
 40
122.3033034755393
 40
122.3033034755393
 40
122.3118484196711
 40
122.3118484196711
 40
122.3203208980492
 40
122.3203208980492
 40
122.3287196939283
 40
122.3287196939283
 40
159.8370431729527
 40
159.8370431729527
 40
159.8453671645544
 40
159.8453671645544
 40
159.8537659604334
 40
159.8537659604334
 40
159.8622384388115
 40
159.8622384388115
 40
159.8707833829433
 40
159.8707833829433
 40
159.8793994799553
 40
159.8793994799553
 40
159.8880853199221
 40
159.8880853199221
 40
159.8968393951978
 40
159.8968393951978
 40
159.9056601000161
 40
159.9056601000161
 40
159.9145457303763
 40
159.9145457303763
 40
159.9234944842278
 40
159.9234944842278
 40
159.9325044619667
 40
159.9325044619667
 40
159.9415736672556
 40
159.9415736672556
 40
159.9507000081757
 40
159.9507000081757
 40
159.9598812987217
 40
159.9598812987217
 40
159.9691152606424
 40
159.9691152606424
 40
159.978399525634
 40
159.978399525634
 40
159.9877316378867
 40
159.9877316378867
 40
159.9971090569846
 40
159.9971090569846
 40
160.0065291611559
 40
160.0065291611559
 40
160.0159892508682
 40
160.0159892508682
 40
160.0254865527617
 40
160.0254865527617
 40
160.0350182239085
 40
160.0350182239085
 40
160.0445813563869
 40
160.0445813563869
 40
160.054172982153
 40
160.054172982153
 40
160.0637900781934
 40
160.0637900781934
 40
160.0734295719376
 40
160.0734295719376
 40
160.0830883469079
 40
160.0830883469079
 40
160.0927632485817
 40
160.0927632485817
 40
160.1024510904403
 40
160.1024510904403
 40
160.1121486601744
 40
160.1121486601744
 40
160.1218527260186
 40
160.1218527260186
 40
160.1315600431823
 40
160.1315600431823
 40
160.1412673603461
 40
160.1412673603461
 40
160.1509714261903
 40
160.1509714261903
 40
160.1606689959244
 40
160.1606689959244
 40
160.1703568377829
 40
160.1703568377829
 40
160.1800317394568
 40
160.1800317394568
 40
160.1896905144271
 40
160.1896905144271
 40
160.1993300081713
 40
160.1993300081713
 40
160.2089471042117
 40
160.2089471042117
 40
160.2185387299778
 40
160.2185387299778
 40
160.2281018624562
 40
160.2281018624562
 40
160.237633533603
 40
160.237633533603
 40
160.2471308354964
 40
160.2471308354964
 40
160.2565909252087
 40
160.2565909252087
 40
160.26601102938
 40
160.26601102938
 40
160.275388448478
 40
160.275388448478
 40
160.2847205607307
 40
160.2847205607307
 40
160.2940048257223
 40
160.2940048257223
 40
160.303238787643
 40
160.303238787643
 40
160.3124200781889
 40
160.3124200781889
 40
160.3215464191091
 40
160.3215464191091
 40
160.3306156243979
 40
160.3306156243979
 40
160.3396256021369
 40
160.3396256021369
 40
160.3485743559884
 40
160.3485743559884
 40
160.3574599863485
 40
160.3574599863485
 40
160.3662806911669
 40
160.3662806911669
 40
160.3750347664426
 40
160.3750347664426
 40
160.3837206064094
 40
160.3837206064094
 40
160.3923367034213
 40
160.3923367034213
 40
160.4008816475531
 40
160.4008816475531
 40
160.4093541259312
 40
160.4093541259312
 40
160.4177529218103
 40
160.4177529218103
 40
160.4177529218103
 10
18.2501210341474
 20
16.88332347891061
 30
0.0
 10
18.25016722670486
 20
16.87916173945531
 30
0.0
 10
18.25021341926232
 20
16.875
 30
0.0
 10
18.25009023910911
 20
9.676402028119199
 30
0.0
 10
18.24996705895589
 20
2.477804056238397
 30
0.0
 10
18.24959314246194
 20
2.466611906044871
 30
0.0
 10
18.24921922596799
 20
2.455419755851344
 30
0.0
 10
18.24858816407639
 20
2.44414075823097
 30
0.0
 10
18.24795710218479
 20
2.432861760610597
 30
0.0
 10
18.24706271503
 20
2.421503661356447
 30
0.0
 10
18.2461683278752
 20
2.410145562102297
 30
0.0
 10
18.24500469333314
 20
2.398716517059215
 30
0.0
 10
18.24384105879107
 20
2.387287472016134
 30
0.0
 10
18.24240254136082
 20
2.375796040119575
 30
0.0
 10
18.24096402393057
 20
2.364304608223016
 30
0.0
 10
18.2392453037837
 20
2.352759742349042
 30
0.0
 10
18.23752658363682
 20
2.341214876475067
 30
0.0
 10
18.23552268565786
 20
2.329625912031462
 30
0.0
 10
18.2335187876789
 20
2.318036947587857
 30
0.0
 10
18.23122511030871
 20
2.306413588791134
 30
0.0
 10
18.22893143293851
 20
2.294790229994411
 30
0.0
 10
18.22634377662179
 20
2.283142533793983
 30
0.0
 10
18.22375612030507
 20
2.271494837593556
 30
0.0
 10
18.2208707153346
 20
2.259833195222519
 30
0.0
 10
18.21798531036413
 20
2.248171552851481
 30
0.0
 10
18.21479884390675
 20
2.236506669003057
 30
0.0
 10
18.21161237744936
 20
2.224841785154632
 30
0.0
 10
18.20812201953371
 20
2.213184654804299
 30
0.0
 10
18.20463166161806
 20
2.201527524453965
 30
0.0
 10
18.20083508986103
 20
2.189889407369344
 30
0.0
 10
18.197038518104
 20
2.178251290284723
 30
0.0
 10
18.19293394095187
 20
2.166643683288279
 30
0.0
 10
18.18882936379974
 20
2.155036076291836
 30
0.0
 10
18.18441554206225
 20
2.143470683364983
 30
0.0
 10
18.18000172032476
 20
2.13190529043813
 30
0.0
 10
18.17527798678455
 20
2.120393990779205
 30
0.0
 10
18.17055425324433
 20
2.108882691120281
 30
0.0
 10
18.16552053013171
 20
2.097437505292719
 30
0.0
 10
18.16048680701908
 20
2.085992319465156
 30
0.0
 10
18.15514362115218
 20
2.074625373795614
 30
0.0
 10
18.14980043528528
 20
2.063258428126072
 30
0.0
 10
18.14414893068868
 20
2.051981917535036
 30
0.0
 10
18.13849742609208
 20
2.040705406943999
 30
0.0
 10
18.13253937392277
 20
2.029531556412963
 30
0.0
 10
18.12658132175345
 20
2.018357705881927
 30
0.0
 10
18.12031912738161
 20
2.007298730781389
 30
0.0
 10
18.11405693300976
 20
1.996239755680851
 30
0.0
 10
18.10749364012292
 20
1.985307821201606
 30
0.0
 10
18.10093034723607
 20
1.974375886722361
 30
0.0
 10
18.09406963885853
 20
1.96358306666861
 30
0.0
 10
18.08720893048098
 20
1.95279024661486
 30
0.0
 10
18.08005512682607
 20
1.94214848183118
 30
0.0
 10
18.07290132317115
 20
1.9315067170475
 30
0.0
 10
18.06545937627125
 20
1.92102777376235
 30
0.0
 10
18.05801742937134
 20
1.910548830477201
 30
0.0
 10
18.05029291445923
 20
1.90024425885324
 30
0.0
 10
18.04256839954711
 20
1.88993968722928
 30
0.0
 10
18.03456750319215
 20
1.879820780415026
 30
0.0
 10
18.02656660683718
 20
1.869701873600772
 30
0.0
 10
18.01829611187034
 20
1.85977962757897
 30
0.0
 10
18.0100256169035
 20
1.849857381557167
 30
0.0
 10
18.0014928841958
 20
1.840142456082488
 30
0.0
 10
17.99296015148809
 20
1.830427530607809
 30
0.0
 10
17.98417309867743
 20
1.820930211520237
 30
0.0
 10
17.97538604586676
 20
1.811432892432666
 30
0.0
 10
17.96635312315782
 20
1.802163055623061
 30
0.0
 10
17.95732020044888
 20
1.792893218813455
 30
0.0
 10
17.94805036363928
 20
1.78386029610452
 30
0.0
 10
17.93878052682967
 20
1.774827373395585
 30
0.0
 10
17.9292832077421
 20
1.766040320584916
 30
0.0
 10
17.91978588865453
 20
1.757253267774246
 30
0.0
 10
17.91007096317986
 20
1.748720535066543
 30
0.0
 10
17.90035603770517
 20
1.74018780235884
 30
0.0
 10
17.89043379168337
 20
1.731917307392
 30
0.0
 10
17.88051154566157
 20
1.72364681242516
 30
0.0
 10
17.87039263884731
 20
1.715645916070194
 30
0.0
 10
17.86027373203305
 20
1.707645019715228
 30
0.0
 10
17.8499691604091
 20
1.69992050480311
 30
0.0
 10
17.83966458878513
 20
1.692195989890991
 30
0.0
 10
17.82918564549998
 20
1.684754042991087
 30
0.0
 10
17.81870670221483
 20
1.677312096091184
 30
0.0
 10
17.80806493743115
 20
1.670158292436267
 30
0.0
 10
17.79742317264747
 20
1.663004488781351
 30
0.0
 10
17.78663035259373
 20
1.656143780403802
 30
0.0
 10
17.77583753253997
 20
1.649283072026253
 30
0.0
 10
17.76490559806073
 20
1.642719779139412
 30
0.0
 10
17.75397366358148
 20
1.636156486252571
 30
0.0
 10
17.74291468848095
 20
1.62989429188073
 30
0.0
 10
17.73185571338041
 20
1.623632097508888
 30
0.0
 10
17.72068186284937
 20
1.617674045339569
 30
0.0
 10
17.70950801231833
 20
1.61171599317025
 30
0.0
 10
17.6982315017273
 20
1.606064488573647
 30
0.0
 10
17.68695499113626
 20
1.600412983977045
 30
0.0
 10
17.67558804546672
 20
1.595069798110147
 30
0.0
 10
17.66422109979717
 20
1.589726612243249
 30
0.0
 10
17.65277591396961
 20
1.584692889130626
 30
0.0
 10
17.64133072814205
 20
1.579659166018002
 30
0.0
 10
17.62981942848313
 20
1.574935432477787
 30
0.0
 10
17.6183081288242
 20
1.570211698937572
 30
0.0
 10
17.60674273589735
 20
1.565797877200079
 30
0.0
 10
17.59517734297049
 20
1.561384055462586
 30
0.0
 10
17.58356973597405
 20
1.557279478310455
 30
0.0
 10
17.5719621289776
 20
1.553174901158324
 30
0.0
 10
17.56032401189298
 20
1.549378329401293
 30
0.0
 10
17.54868589480836
 20
1.545581757644262
 30
0.0
 10
17.53702876445803
 20
1.542091399728617
 30
0.0
 10
17.5253716341077
 20
1.538601041812971
 30
0.0
 10
17.51370675025927
 20
1.535414575355584
 30
0.0
 10
17.50204186641084
 20
1.532228108898197
 30
0.0
 10
17.49038022403981
 20
1.529342703927727
 30
0.0
 10
17.47871858166877
 20
1.526457298957257
 30
0.0
 10
17.46707088546835
 20
1.523869642640538
 30
0.0
 10
17.45542318926792
 20
1.521281986323819
 30
0.0
 10
17.4437998304712
 20
1.518988308953623
 30
0.0
 10
17.43217647167447
 20
1.516694631583428
 30
0.0
 10
17.42058750723087
 20
1.514690733604469
 30
0.0
 10
17.40899854278726
 20
1.512686835625511
 30
0.0
 10
17.39745367691329
 20
1.510968115478635
 30
0.0
 10
17.38590881103931
 20
1.509249395331758
 30
0.0
 10
17.37441737914276
 20
1.507810877901502
 30
0.0
 10
17.36292594724619
 20
1.506372360471247
 30
0.0
 10
17.35149690220311
 20
1.505208725929185
 30
0.0
 10
17.34006785716003
 20
1.504045091387123
 30
0.0
 10
17.32870975790588
 20
1.503150704232329
 30
0.0
 10
17.31735165865173
 20
1.502256317077534
 30
0.0
 10
17.30607266103136
 20
1.501625255185933
 30
0.0
 10
17.29479366341098
 20
1.500994193294332
 30
0.0
 10
17.28360151321746
 20
1.500620276800384
 30
0.0
 10
17.27240936302393
 20
1.500246360306437
 30
0.0
 10
0.011111156121558
 20
1.500123180153218
 30
0.0
 10
-17.25018705078082
 20
1.499999999999998
 30
0.0
 10
-17.26128502266162
 20
1.500123180153216
 30
0.0
 10
-17.27238299454243
 20
1.500246360306433
 30
0.0
 10
-17.28357514473595
 20
1.50062027680038
 30
0.0
 10
-17.29476729492947
 20
1.500994193294328
 30
0.0
 10
-17.30604629254984
 20
1.501625255185929
 30
0.0
 10
-17.31732529017022
 20
1.50225631707753
 30
0.0
 10
-17.32868338942437
 20
1.503150704232325
 30
0.0
 10
-17.34004148867852
 20
1.50404509138712
 30
0.0
 10
-17.3514705337216
 20
1.505208725929181
 30
0.0
 10
-17.36289957876469
 20
1.506372360471243
 30
0.0
 10
-17.37439101066124
 20
1.507810877901499
 30
0.0
 10
-17.3858824425578
 20
1.509249395331755
 30
0.0
 10
-17.39742730843177
 20
1.510968115478632
 30
0.0
 10
-17.40897217430575
 20
1.512686835625508
 30
0.0
 10
-17.42056113874935
 20
1.514690733604466
 30
0.0
 10
-17.43215010319296
 20
1.516694631583424
 30
0.0
 10
-17.44377346198968
 20
1.51898830895362
 30
0.0
 10
-17.4553968207864
 20
1.521281986323816
 30
0.0
 10
-17.46704451698682
 20
1.523869642640535
 30
0.0
 10
-17.47869221318726
 20
1.526457298957254
 30
0.0
 10
-17.49035385555829
 20
1.529342703927723
 30
0.0
 10
-17.50201549792933
 20
1.532228108898193
 30
0.0
 10
-17.51368038177775
 20
1.53541457535558
 30
0.0
 10
-17.52534526562618
 20
1.538601041812967
 30
0.0
 10
-17.53700239597651
 20
1.542091399728613
 30
0.0
 10
-17.54865952632684
 20
1.545581757644258
 30
0.0
 10
-17.56029764341146
 20
1.54937832940129
 30
0.0
 10
-17.57193576049607
 20
1.553174901158321
 30
0.0
 10
-17.58354336749252
 20
1.557279478310452
 30
0.0
 10
-17.59515097448897
 20
1.561384055462582
 30
0.0
 10
-17.60671636741582
 20
1.565797877200076
 30
0.0
 10
-17.61828176034268
 20
1.570211698937569
 30
0.0
 10
-17.6297930600016
 20
1.574935432477783
 30
0.0
 10
-17.64130435966053
 20
1.579659166017998
 30
0.0
 10
-17.65274954548808
 20
1.584692889130622
 30
0.0
 10
-17.66419473131565
 20
1.589726612243246
 30
0.0
 10
-17.67556167698519
 20
1.595069798110144
 30
0.0
 10
-17.68692862265473
 20
1.600412983977042
 30
0.0
 10
-17.69820513324576
 20
1.606064488573644
 30
0.0
 10
-17.70948164383681
 20
1.611715993170246
 30
0.0
 10
-17.72065549436784
 20
1.617674045339565
 30
0.0
 10
-17.73182934489888
 20
1.623632097508884
 30
0.0
 10
-17.74288831999942
 20
1.629894291880726
 30
0.0
 10
-17.75394729509996
 20
1.636156486252568
 30
0.0
 10
-17.76487922957919
 20
1.642719779139409
 30
0.0
 10
-17.77581116405844
 20
1.64928307202625
 30
0.0
 10
-17.78660398411219
 20
1.656143780403799
 30
0.0
 10
-17.79739680416595
 20
1.663004488781348
 30
0.0
 10
-17.80803856894962
 20
1.670158292436264
 30
0.0
 10
-17.8186803337333
 20
1.67731209609118
 30
0.0
 10
-17.82915927701845
 20
1.684754042991083
 30
0.0
 10
-17.83963822030359
 20
1.692195989890987
 30
0.0
 10
-17.84994279192756
 20
1.699920504803106
 30
0.0
 10
-17.86024736355153
 20
1.707645019715224
 30
0.0
 10
-17.87036627036578
 20
1.71564591607019
 30
0.0
 10
-17.88048517718003
 20
1.723646812425156
 30
0.0
 10
-17.89040742320183
 20
1.731917307391996
 30
0.0
 10
-17.90032966922364
 20
1.740187802358836
 30
0.0
 10
-17.91004459469832
 20
1.74872053506654
 30
0.0
 10
-17.919759520173
 20
1.757253267774243
 30
0.0
 10
-17.92925683926057
 20
1.766040320584912
 30
0.0
 10
-17.93875415834814
 20
1.774827373395581
 30
0.0
 10
-17.94802399515774
 20
1.783860296104517
 30
0.0
 10
-17.95729383196734
 20
1.792893218813452
 30
0.0
 10
-17.96632675467628
 20
1.802163055623057
 30
0.0
 10
-17.97535967738522
 20
1.811432892432662
 30
0.0
 10
-17.98414673019589
 20
1.820930211520233
 30
0.0
 10
-17.99293378300656
 20
1.830427530607805
 30
0.0
 10
-18.00146651571426
 20
1.840142456082484
 30
0.0
 10
-18.00999924842197
 20
1.849857381557164
 30
0.0
 10
-18.01826974338881
 20
1.859779627578966
 30
0.0
 10
-18.02654023835565
 20
1.869701873600769
 30
0.0
 10
-18.03454113471061
 20
1.879820780415022
 30
0.0
 10
-18.04254203106558
 20
1.889939687229276
 30
0.0
 10
-18.0502665459777
 20
1.900244258853237
 30
0.0
 10
-18.05799106088982
 20
1.910548830477198
 30
0.0
 10
-18.06543300778971
 20
1.921027773762348
 30
0.0
 10
-18.07287495468962
 20
1.931506717047497
 30
0.0
 10
-18.08002875834454
 20
1.942148481831176
 30
0.0
 10
-18.08718256199946
 20
1.952790246614856
 30
0.0
 10
-18.094043270377
 20
1.963583066668607
 30
0.0
 10
-18.10090397875454
 20
1.974375886722358
 30
0.0
 10
-18.10746727164139
 20
1.985307821201603
 30
0.0
 10
-18.11403056452824
 20
1.996239755680848
 30
0.0
 10
-18.12029275890008
 20
2.007298730781386
 30
0.0
 10
-18.12655495327192
 20
2.018357705881923
 30
0.0
 10
-18.13251300544124
 20
2.029531556412959
 30
0.0
 10
-18.13847105761056
 20
2.040705406943995
 30
0.0
 10
-18.14412256220716
 20
2.051981917535032
 30
0.0
 10
-18.14977406680376
 20
2.063258428126069
 30
0.0
 10
-18.15511725267066
 20
2.074625373795611
 30
0.0
 10
-18.16046043853756
 20
2.085992319465153
 30
0.0
 10
-18.16549416165018
 20
2.097437505292715
 30
0.0
 10
-18.17052788476281
 20
2.108882691120277
 30
0.0
 10
-18.17525161830302
 20
2.120393990779202
 30
0.0
 10
-18.17997535184324
 20
2.131905290438126
 30
0.0
 10
-18.18438917358073
 20
2.143470683364979
 30
0.0
 10
-18.18880299531822
 20
2.155036076291833
 30
0.0
 10
-18.19290757247035
 20
2.166643683288276
 30
0.0
 10
-18.19701214962248
 20
2.178251290284719
 30
0.0
 10
-18.20080872137951
 20
2.18988940736934
 30
0.0
 10
-18.20460529313654
 20
2.201527524453961
 30
0.0
 10
-18.20809565105219
 20
2.213184654804295
 30
0.0
 10
-18.21158600896783
 20
2.224841785154629
 30
0.0
 10
-18.21477247542522
 20
2.236506669003053
 30
0.0
 10
-18.21795894188261
 20
2.248171552851477
 30
0.0
 10
-18.22084434685308
 20
2.259833195222515
 30
0.0
 10
-18.22372975182356
 20
2.271494837593552
 30
0.0
 10
-18.22631740814027
 20
2.28314253379398
 30
0.0
 10
-18.22890506445698
 20
2.294790229994408
 30
0.0
 10
-18.23119874182719
 20
2.306413588791131
 30
0.0
 10
-18.23349241919739
 20
2.318036947587854
 30
0.0
 10
-18.23549631717634
 20
2.329625912031459
 30
0.0
 10
-18.2375002151553
 20
2.341214876475064
 30
0.0
 10
-18.23921893530218
 20
2.352759742349038
 30
0.0
 10
-18.24093765544906
 20
2.364304608223012
 30
0.0
 10
-18.24237617287931
 20
2.375796040119571
 30
0.0
 10
-18.24381469030957
 20
2.38728747201613
 30
0.0
 10
-18.24497832485163
 20
2.398716517059212
 30
0.0
 10
-18.2461419593937
 20
2.410145562102294
 30
0.0
 10
-18.24703634654849
 20
2.421503661356444
 30
0.0
 10
-18.24793073370329
 20
2.432861760610594
 30
0.0
 10
-18.24856179559489
 20
2.444140758230967
 30
0.0
 10
-18.24919285748649
 20
2.45541975585134
 30
0.0
 10
-18.24956677398044
 20
2.466611906044867
 30
0.0
 10
-18.24994069047439
 20
2.477804056238393
 30
0.0
 10
-18.2500638706276
 20
9.676402028119197
 30
0.0
 10
-18.25018705078082
 20
16.875
 30
0.0
 10
-18.25014085822336
 20
16.87916173945531
 30
0.0
 10
-18.25009466566591
 20
16.88332347891061
 30
0.0
 10
-18.24995444698067
 20
16.88752053523318
 30
0.0
 10
-18.24981422829545
 20
16.89171759155575
 30
0.0
 10
-18.24957758008609
 20
16.89594721566339
 30
0.0
 10
-18.24934093187674
 20
16.90017683977103
 30
0.0
 10
-18.24900553669369
 20
16.90443612699134
 30
0.0
 10
-18.24867014151065
 20
16.90869541421164
 30
0.0
 10
-18.24823377855737
 20
16.91298130610279
 30
0.0
 10
-18.2477974156041
 20
16.91726719799395
 30
0.0
 10
-18.24725797156775
 20
16.92157648495516
 30
0.0
 10
-18.24671852753141
 20
16.92588577191637
 30
0.0
 10
-18.24607400747633
 20
16.93021509661911
 30
0.0
 10
-18.24542948742125
 20
16.93454442132185
 30
0.0
 10
-18.24467802567914
 20
16.9388902829882
 30
0.0
 10
-18.24392656393703
 20
16.94323614465456
 30
0.0
 10
-18.2430664349232
 20
16.94759490420333
 30
0.0
 10
-18.24220630590938
 20
16.9519536637521
 30
0.0
 10
-18.24123593479061
 20
16.95632154982726
 30
0.0
 10
-18.24026556367184
 20
16.96068943590242
 30
0.0
 10
-18.23918353680791
 20
16.96506255179156
 30
0.0
 10
-18.23810150994399
 20
16.9694356676807
 30
0.0
 10
-18.23690658502247
 20
16.97380999912385
 30
0.0
 10
-18.23571166010095
 20
16.97818433056701
 30
0.0
 10
-18.23440277588258
 20
16.98255575444838
 30
0.0
 10
-18.23309389166421
 20
16.98692717832976
 30
0.0
 10
-18.23167017725532
 20
16.9912914722365
 30
0.0
 10
-18.23024646284644
 20
16.99565576614323
 30
0.0
 10
-18.22870724641439
 20
17.00000861876689
 30
0.0
 10
-18.22716802998235
 20
17.00436147139056
 30
0.0
 10
-18.22551284683079
 20
17.00869849373813
 30
0.0
 10
-18.22385766367923
 20
17.0130355160857
 30
0.0
 10
-18.22208626360164
 20
17.0173522534578
 30
0.0
 10
-18.22031486352406
 20
17.0216689908299
 30
0.0
 10
-18.21842721735683
 20
17.02596093551524
 30
0.0
 10
-18.2165395711896
 20
17.03025288020057
 30
0.0
 10
-18.21453587648951
 20
17.03451548482665
 30
0.0
 10
-18.21253218178942
 20
17.03877808945273
 30
0.0
 10
-18.21041286756569
 20
17.04300678092437
 30
0.0
 10
-18.20829355334197
 20
17.04723547239601
 30
0.0
 10
-18.20605928377847
 20
17.05142566634515
 30
0.0
 10
-18.20382501421498
 20
17.05561586029429
 30
0.0
 10
-18.20147669132554
 20
17.05976297595699
 30
0.0
 10
-18.1991283684361
 20
17.06391009161969
 30
0.0
 10
-18.19666713360353
 20
17.0680095670494
 30
0.0
 10
-18.19420589877096
 20
17.07210904247912
 30
0.0
 10
-18.19163313312938
 20
17.07615634999927
 30
0.0
 10
-18.1890603674878
 20
17.08020365751943
 30
0.0
 10
-18.1863776911172
 20
17.08419431931331
 30
0.0
 10
-18.18369501474661
 20
17.08818498110719
 30
0.0
 10
-18.18090428465915
 20
17.09211458483912
 30
0.0
 10
-18.17811355457169
 20
17.09604418857106
 30
0.0
 10
-18.17521686147964
 20
17.09990840293004
 30
0.0
 10
-18.1723201683876
 20
17.10377261728902
 30
0.0
 10
-18.16931983225448
 20
17.10756720734437
 30
0.0
 10
-18.16631949612137
 20
17.11136179739971
 30
0.0
 10
-18.16321806050881
 20
17.11508263965789
 30
0.0
 10
-18.16011662489625
 20
17.11880348191606
 30
0.0
 10
-18.15691685013086
 20
17.12244657896906
 30
0.0
 10
-18.15371707536547
 20
17.12608967602207
 30
0.0
 10
-18.15042193056146
 20
17.12965117067991
 30
0.0
 10
-18.14712678575746
 20
17.13321266533775
 30
0.0
 10
-18.14373943974161
 20
17.13668885414135
 30
0.0
 10
-18.14035209372577
 20
17.14016504294496
 30
0.0
 10
-18.13687590492216
 20
17.14355238896081
 30
0.0
 10
-18.13339971611856
 20
17.14693973497666
 30
0.0
 10
-18.12983822146072
 20
17.15023487978066
 30
0.0
 10
-18.12627672680287
 20
17.15353002458466
 30
0.0
 10
-18.12263362974987
 20
17.15672979935005
 30
0.0
 10
-18.11899053269687
 20
17.15992957411544
 30
0.0
 10
-18.11526969043869
 20
17.16303100972801
 30
0.0
 10
-18.11154884818052
 20
17.16613244534057
 30
0.0
 10
-18.10775425812517
 20
17.16913278147368
 30
0.0
 10
-18.10395966806983
 20
17.17213311760679
 30
0.0
 10
-18.10009545371084
 20
17.17502981069883
 30
0.0
 10
-18.09623123935186
 20
17.17792650379088
 30
0.0
 10
-18.09230163561993
 20
17.18071723387834
 30
0.0
 10
-18.088372031888
 20
17.18350796396581
 30
0.0
 10
-18.08438137009411
 20
17.18619064033641
 30
0.0
 10
-18.08039070830024
 20
17.188873316707
 30
0.0
 10
-18.07634340078008
 20
17.19144608234858
 30
0.0
 10
-18.07229609325992
 20
17.19401884799016
 30
0.0
 10
-18.0681966178302
 20
17.19648008282272
 30
0.0
 10
-18.06409714240049
 20
17.19894131765529
 30
0.0
 10
-18.05995002673779
 20
17.20128964054474
 30
0.0
 10
-18.05580291107509
 20
17.20363796343418
 30
0.0
 10
-18.05161271712595
 20
17.20587223299767
 30
0.0
 10
-18.04742252317681
 20
17.20810650256116
 30
0.0
 10
-18.04319383170517
 20
17.21022581678488
 30
0.0
 10
-18.03896514023354
 20
17.21234513100861
 30
0.0
 10
-18.03470253560746
 20
17.2143488257087
 30
0.0
 10
-18.03043993098138
 20
17.21635252040879
 30
0.0
 10
-18.02614798629604
 20
17.21824016657602
 30
0.0
 10
-18.02185604161071
 20
17.22012781274325
 30
0.0
 10
-18.01753930423861
 20
17.22189921282083
 30
0.0
 10
-18.01322256686652
 20
17.22367061289841
 30
0.0
 10
-18.00888554451895
 20
17.22532579604997
 30
0.0
 10
-18.00454852217138
 20
17.22698097920154
 30
0.0
 10
-18.00019566954771
 20
17.22852019563359
 30
0.0
 10
-17.99584281692404
 20
17.23005941206563
 30
0.0
 10
-17.9914785230173
 20
17.23148312647452
 30
0.0
 10
-17.98711422911057
 20
17.2329068408834
 30
0.0
 10
-17.9827428052292
 20
17.23421572510177
 30
0.0
 10
-17.97837138134783
 20
17.23552460932014
 30
0.0
 10
-17.97399704990467
 20
17.23671953424166
 30
0.0
 10
-17.9696227184615
 20
17.23791445916318
 30
0.0
 10
-17.96524960257236
 20
17.2389964860271
 30
0.0
 10
-17.96087648668323
 20
17.24007851289103
 30
0.0
 10
-17.95650860060807
 20
17.2410488840098
 30
0.0
 10
-17.95214071453291
 20
17.24201925512857
 30
0.0
 10
-17.94778195498414
 20
17.2428793841424
 30
0.0
 10
-17.94342319543536
 20
17.24373951315622
 30
0.0
 10
-17.93907733376901
 20
17.24449097489833
 30
0.0
 10
-17.93473147210265
 20
17.24524243664044
 30
0.0
 10
-17.93040214739992
 20
17.24588695669551
 30
0.0
 10
-17.92607282269718
 20
17.24653147675059
 30
0.0
 10
-17.92176353573597
 20
17.24707092078694
 30
0.0
 10
-17.91745424877477
 20
17.24761036482328
 30
0.0
 10
-17.91316835688361
 20
17.24804672777655
 30
0.0
 10
-17.90888246499246
 20
17.24848309072983
 30
0.0
 10
-17.90462317777214
 20
17.24881848591288
 30
0.0
 10
-17.90036389055184
 20
17.24915388109593
 30
0.0
 10
-17.8961342664442
 20
17.24939052930528
 30
0.0
 10
-17.89190464233657
 20
17.24962717751463
 30
0.0
 10
-17.88770758601399
 20
17.24976739619986
 30
0.0
 10
-17.88351052969142
 20
17.24990761488509
 30
0.0
 10
-0.004148555214547
 20
17.24995380744254
 30
0.0
 10
17.87521341926232
 20
17.25
 30
0.0
 10
17.87937515871762
 20
17.24995380744254
 30
0.0
 10
17.88353689817292
 20
17.24990761488509
 30
0.0
 10
17.8877339544955
 20
17.24976739619986
 30
0.0
 10
17.89193101081807
 20
17.24962717751463
 30
0.0
 10
17.89616063492571
 20
17.24939052930528
 30
0.0
 10
17.90039025903335
 20
17.24915388109593
 30
0.0
 10
17.90464954625366
 20
17.24881848591288
 30
0.0
 10
17.90890883347396
 20
17.24848309072983
 30
0.0
 10
17.91319472536512
 20
17.24804672777656
 30
0.0
 10
17.91748061725627
 20
17.24761036482329
 30
0.0
 10
17.92178990421748
 20
17.24707092078695
 30
0.0
 10
17.92609919117869
 20
17.2465314767506
 30
0.0
 10
17.93042851588144
 20
17.24588695669552
 30
0.0
 10
17.93475784058418
 20
17.24524243664044
 30
0.0
 10
17.93910370225053
 20
17.24449097489833
 30
0.0
 10
17.94344956391688
 20
17.24373951315622
 30
0.0
 10
17.94780832346565
 20
17.2428793841424
 30
0.0
 10
17.95216708301442
 20
17.24201925512857
 30
0.0
 10
17.95653496908958
 20
17.2410488840098
 30
0.0
 10
17.96090285516474
 20
17.24007851289103
 30
0.0
 10
17.96527597105388
 20
17.2389964860271
 30
0.0
 10
17.96964908694302
 20
17.23791445916318
 30
0.0
 10
17.97402341838618
 20
17.23671953424166
 30
0.0
 10
17.97839774982934
 20
17.23552460932014
 30
0.0
 10
17.98276917371072
 20
17.23421572510178
 30
0.0
 10
17.98714059759209
 20
17.23290684088341
 30
0.0
 10
17.99150489149883
 20
17.23148312647452
 30
0.0
 10
17.99586918540556
 20
17.23005941206564
 30
0.0
 10
18.00022203802923
 20
17.22852019563359
 30
0.0
 10
18.00457489065289
 20
17.22698097920154
 30
0.0
 10
18.00891191300046
 20
17.22532579604997
 30
0.0
 10
18.01324893534803
 20
17.22367061289841
 30
0.0
 10
18.01756567272013
 20
17.22189921282083
 30
0.0
 10
18.02188241009223
 20
17.22012781274325
 30
0.0
 10
18.02617435477756
 20
17.21824016657602
 30
0.0
 10
18.03046629946289
 20
17.21635252040878
 30
0.0
 10
18.03472890408897
 20
17.2143488257087
 30
0.0
 10
18.03899150871505
 20
17.21234513100861
 30
0.0
 10
18.0432202001867
 20
17.21022581678488
 30
0.0
 10
18.04744889165833
 20
17.20810650256116
 30
0.0
 10
18.05163908560747
 20
17.20587223299766
 30
0.0
 10
18.05582927955661
 20
17.20363796343417
 30
0.0
 10
18.05997639521931
 20
17.20128964054473
 30
0.0
 10
18.06412351088201
 20
17.19894131765529
 30
0.0
 10
18.06822298631173
 20
17.19648008282272
 30
0.0
 10
18.07232246174144
 20
17.19401884799016
 30
0.0
 10
18.0763697692616
 20
17.19144608234858
 30
0.0
 10
18.08041707678176
 20
17.188873316707
 30
0.0
 10
18.08440773857564
 20
17.18619064033641
 30
0.0
 10
18.08839840036952
 20
17.18350796396581
 30
0.0
 10
18.09232800410145
 20
17.18071723387834
 30
0.0
 10
18.09625760783338
 20
17.17792650379088
 30
0.0
 10
18.10012182219237
 20
17.17502981069883
 30
0.0
 10
18.10398603655135
 20
17.17213311760679
 30
0.0
 10
18.1077806266067
 20
17.16913278147368
 30
0.0
 10
18.11157521666204
 20
17.16613244534057
 30
0.0
 10
18.11529605892022
 20
17.163031009728
 30
0.0
 10
18.11901690117839
 20
17.15992957411543
 30
0.0
 10
18.1226599982314
 20
17.15672979935005
 30
0.0
 10
18.1263030952844
 20
17.15353002458466
 30
0.0
 10
18.12986458994224
 20
17.15023487978066
 30
0.0
 10
18.13342608460008
 20
17.14693973497666
 30
0.0
 10
18.13690227340368
 20
17.14355238896081
 30
0.0
 10
18.14037846220728
 20
17.14016504294496
 30
0.0
 10
18.14376580822313
 20
17.13668885414135
 30
0.0
 10
18.14715315423898
 20
17.13321266533775
 30
0.0
 10
18.15044829904298
 20
17.12965117067991
 30
0.0
 10
18.15374344384698
 20
17.12608967602207
 30
0.0
 10
18.15694321861238
 20
17.12244657896906
 30
0.0
 10
18.16014299337776
 20
17.11880348191606
 30
0.0
 10
18.16324442899033
 20
17.11508263965789
 30
0.0
 10
18.16634586460289
 20
17.11136179739971
 30
0.0
 10
18.16934620073601
 20
17.10756720734437
 30
0.0
 10
18.17234653686912
 20
17.10377261728902
 30
0.0
 10
18.17524322996117
 20
17.09990840293003
 30
0.0
 10
18.17813992305321
 20
17.09604418857105
 30
0.0
 10
18.18093065314068
 20
17.09211458483912
 30
0.0
 10
18.18372138322814
 20
17.08818498110719
 30
0.0
 10
18.18640405959874
 20
17.08419431931331
 30
0.0
 10
18.18908673596933
 20
17.08020365751943
 30
0.0
 10
18.19165950161091
 20
17.07615634999927
 30
0.0
 10
18.19423226725248
 20
17.07210904247912
 30
0.0
 10
18.19669350208505
 20
17.0680095670494
 30
0.0
 10
18.19915473691762
 20
17.06391009161969
 30
0.0
 10
18.20150305980706
 20
17.05976297595699
 30
0.0
 10
18.2038513826965
 20
17.05561586029428
 30
0.0
 10
18.20608565226
 20
17.05142566634514
 30
0.0
 10
18.20831992182349
 20
17.047235472396
 30
0.0
 10
18.21043923604721
 20
17.04300678092436
 30
0.0
 10
18.21255855027093
 20
17.03877808945272
 30
0.0
 10
18.21456224497102
 20
17.03451548482665
 30
0.0
 10
18.21656593967111
 20
17.03025288020057
 30
0.0
 10
18.21845358583835
 20
17.02596093551523
 30
0.0
 10
18.22034123200558
 20
17.02166899082989
 30
0.0
 10
18.22211263208316
 20
17.01735225345779
 30
0.0
 10
18.22388403216074
 20
17.0130355160857
 30
0.0
 10
18.2255392153123
 20
17.00869849373814
 30
0.0
 10
18.22719439846386
 20
17.00436147139057
 30
0.0
 10
18.22873361489591
 20
17.0000086187669
 30
0.0
 10
18.23027283132796
 20
16.99565576614323
 30
0.0
 10
18.23169654573685
 20
16.9912914722365
 30
0.0
 10
18.23312026014573
 20
16.98692717832977
 30
0.0
 10
18.2344291443641
 20
16.98255575444839
 30
0.0
 10
18.23573802858246
 20
16.97818433056702
 30
0.0
 10
18.23693295350398
 20
16.97380999912386
 30
0.0
 10
18.2381278784255
 20
16.9694356676807
 30
0.0
 10
18.23920990528943
 20
16.96506255179156
 30
0.0
 10
18.24029193215335
 20
16.96068943590242
 30
0.0
 10
18.24126230327212
 20
16.95632154982726
 30
0.0
 10
18.24223267439089
 20
16.9519536637521
 30
0.0
 10
18.24309280340472
 20
16.94759490420333
 30
0.0
 10
18.24395293241854
 20
16.94323614465456
 30
0.0
 10
18.24470439416065
 20
16.9388902829882
 30
0.0
 10
18.24545585590276
 20
16.93454442132185
 30
0.0
 10
18.24610037595784
 20
16.93021509661911
 30
0.0
 10
18.24674489601291
 20
16.92588577191637
 30
0.0
 10
18.24728434004926
 20
16.92157648495516
 30
0.0
 10
18.2478237840856
 20
16.91726719799395
 30
0.0
 10
18.24826014703888
 20
16.91298130610279
 30
0.0
 10
18.24869650999215
 20
16.90869541421164
 30
0.0
 10
18.2490319051752
 20
16.90443612699134
 30
0.0
 10
18.24936730035824
 20
16.90017683977103
 30
0.0
 10
18.2496039485676
 20
16.89594721566339
 30
0.0
 10
18.24984059677695
 20
16.89171759155575
 30
0.0
 10
18.24998081546218
 20
16.88752053523318
 30
0.0
 10
18.2501210341474
 20
16.88332347891061
 30
0.0
  0
SPLINE
  5
48
330
1F
100
AcDbEntity
  8
DEFAULT
100
AcDbSpline
210
0.0
220
0.0
230
1.0
 70
     8
 71
     2
 72
   190
 73
   187
 74
     0
 42
0.0000000001
 43
0.0000000001
 40
0.0
 40
0.0
 40
0.0
 40
1.25697474006106
 40
1.25697474006106
 40
1.265555520243996
 40
1.265555520243996
 40
1.274136300426933
 40
1.274136300426933
 40
1.28271708060987
 40
1.28271708060987
 40
1.291297860792806
 40
1.291297860792806
 40
1.299878640975743
 40
1.299878640975743
 40
1.30845942115868
 40
1.30845942115868
 40
1.317040201341617
 40
1.317040201341617
 40
1.325620981524552
 40
1.325620981524552
 40
1.33420176170749
 40
1.33420176170749
 40
1.342782541890428
 40
1.342782541890428
 40
1.351363322073361
 40
1.351363322073361
 40
1.359944102256299
 40
1.359944102256299
 40
1.368524882439239
 40
1.368524882439239
 40
1.377105662622175
 40
1.377105662622175
 40
1.385686442805111
 40
1.385686442805111
 40
1.394267222988046
 40
1.394267222988046
 40
1.402848003170985
 40
1.402848003170985
 40
1.411428783353923
 40
1.411428783353923
 40
1.420009563536859
 40
1.420009563536859
 40
1.428590343719796
 40
1.428590343719796
 40
1.437171123902732
 40
1.437171123902732
 40
1.445751904085664
 40
1.445751904085664
 40
1.454332684268606
 40
1.454332684268606
 40
1.462913464451536
 40
1.462913464451536
 40
1.471494244634475
 40
1.471494244634475
 40
1.480075024817411
 40
1.480075024817411
 40
1.488655805000348
 40
1.488655805000348
 40
1.497236585183289
 40
1.497236585183289
 40
1.505817365366225
 40
1.505817365366225
 40
1.514398145549162
 40
1.514398145549162
 40
1.522978925732098
 40
1.522978925732098
 40
1.531559705915039
 40
1.531559705915039
 40
1.540140486097973
 40
1.540140486097973
 40
1.548721266280906
 40
1.548721266280906
 40
1.557302046463846
 40
1.557302046463846
 40
1.565882826646785
 40
1.565882826646785
 40
1.574463606829722
 40
1.574463606829722
 40
1.583044387012652
 40
1.583044387012652
 40
1.591625167195594
 40
1.591625167195594
 40
1.600205947378523
 40
1.600205947378523
 40
1.608786727561467
 40
1.608786727561467
 40
1.617367507744404
 40
1.617367507744404
 40
1.625948287927345
 40
1.625948287927345
 40
1.634529068110277
 40
1.634529068110277
 40
1.643109848293216
 40
1.643109848293216
 40
3.577473848293195
 40
3.577473848293195
 40
3.586054628476135
 40
3.586054628476135
 40
3.594635408659077
 40
3.594635408659077
 40
3.603216188842008
 40
3.603216188842008
 40
3.611796969024944
 40
3.611796969024944
 40
3.620377749207886
 40
3.620377749207886
 40
3.628958529390826
 40
3.628958529390826
 40
3.637539309573759
 40
3.637539309573759
 40
3.646120089756689
 40
3.646120089756689
 40
3.654700869939636
 40
3.654700869939636
 40
3.663281650122566
 40
3.663281650122566
 40
3.671862430305506
 40
3.671862430305506
 40
3.680443210488439
 40
3.680443210488439
 40
3.689023990671383
 40
3.689023990671383
 40
3.697604770854315
 40
3.697604770854315
 40
3.70618555103725
 40
3.70618555103725
 40
3.714766331220187
 40
3.714766331220187
 40
3.723347111403123
 40
3.723347111403123
 40
3.731927891586064
 40
3.731927891586064
 40
3.740508671769001
 40
3.740508671769001
 40
3.749089451951937
 40
3.749089451951937
 40
3.757670232134876
 40
3.757670232134876
 40
3.766251012317807
 40
3.766251012317807
 40
3.774831792500748
 40
3.774831792500748
 40
3.783412572683687
 40
3.783412572683687
 40
3.791993352866624
 40
3.791993352866624
 40
3.80057413304956
 40
3.80057413304956
 40
3.809154913232498
 40
3.809154913232498
 40
3.817735693415434
 40
3.817735693415434
 40
3.826316473598369
 40
3.826316473598369
 40
3.834897253781309
 40
3.834897253781309
 40
3.84347803396424
 40
3.84347803396424
 40
3.85205881414718
 40
3.85205881414718
 40
3.860639594330117
 40
3.860639594330117
 40
3.869220374513054
 40
3.869220374513054
 40
3.877801154695991
 40
3.877801154695991
 40
3.886381934878926
 40
3.886381934878926
 40
3.894962715061864
 40
3.894962715061864
 40
3.903543495244802
 40
3.903543495244802
 40
3.912124275427739
 40
3.912124275427739
 40
3.920705055610676
 40
3.920705055610676
 40
3.929285835793612
 40
3.929285835793612
 40
3.937866615976548
 40
3.937866615976548
 40
3.946447396159485
 40
3.946447396159485
 40
3.955028176342422
 40
3.955028176342422
 40
3.963608956525359
 40
3.963608956525359
 40
5.220583696586418
 40
5.220583696586418
 40
5.220583696586418
 10
14.96021341926233
 20
1.499999831331886
 30
0.0
 10
14.94376150356749
 20
0.8717278291243532
 30
0.0
 10
14.92730958787264
 20
0.2434558269168203
 30
0.0
 10
14.92712369440047
 20
0.2391694659014635
 30
0.0
 10
14.9269378009283
 20
0.2348831048861068
 30
0.0
 10
14.92660491723543
 20
0.2306056482137382
 30
0.0
 10
14.92627203354256
 20
0.2263281915413696
 30
0.0
 10
14.92579255179201
 20
0.2220646783904744
 30
0.0
 10
14.92531307004145
 20
0.2178011652395793
 30
0.0
 10
14.92468755510022
 20
0.2135566183620835
 30
0.0
 10
14.92406204015898
 20
0.2093120714845876
 30
0.0
 10
14.92329122893258
 20
0.2050914912886634
 30
0.0
 10
14.92252041770618
 20
0.2008709110927391
 30
0.0
 10
14.92160521827053
 20
0.1966792697519338
 30
0.0
 10
14.92069001883487
 20
0.1924876284111284
 30
0.0
 10
14.91963150936647
 20
0.1883298640067545
 30
0.0
 10
14.91857299989807
 20
0.1841720996023806
 30
0.0
 10
14.91737242740387
 20
0.1800531103060703
 30
0.0
 10
14.91617185490966
 20
0.17593412100976
 30
0.0
 10
14.91483063375793
 20
0.1718587593130357
 30
0.0
 10
14.9134894126062
 20
0.1677833976163114
 30
0.0
 10
14.91200912286036
 20
0.1637564646139713
 30
0.0
 10
14.91052883311452
 20
0.1597295316116311
 30
0.0
 10
14.90891121867167
 20
0.1557557713456837
 30
0.0
 10
14.90729360422881
 20
0.1517820110797363
 30
0.0
 10
14.90554057076525
 20
0.1478661049505484
 30
0.0
 10
14.90378753730169
 20
0.1439501988213606
 30
0.0
 10
14.90190115002795
 20
0.1400967600726014
 30
0.0
 10
14.9000147627542
 20
0.1362433213238423
 30
0.0
 10
14.89799724398202
 20
0.1324568896077213
 30
0.0
 10
14.89597972520983
 20
0.1286704578916004
 30
0.0
 10
14.8938334517341
 20
0.1249554939208025
 30
0.0
 10
14.89168717825836
 20
0.1212405299500047
 30
0.0
 10
14.88941467855709
 20
0.1176014102426214
 30
0.0
 10
14.88714217885581
 20
0.1139622905352381
 30
0.0
 10
14.88474613011136
 20
0.1104033022588872
 30
0.0
 10
14.88235008136691
 20
0.1068443139825363
 30
0.0
 10
14.8798333063121
 20
0.1033696499037429
 30
0.0
 10
14.87731653125729
 20
0.0998949858249496
 30
0.0
 10
14.87468199484996
 20
0.0965087393697396
 30
0.0
 10
14.87204745844263
 20
0.0931224929145295
 30
0.0
 10
14.86929826437271
 20
0.0898286533460531
 30
0.0
 10
14.86654907030278
 20
0.0865348137775768
 30
0.0
 10
14.86368845733588
 20
0.0833372614964452
 30
0.0
 10
14.86082784436898
 20
0.0801397092153137
 30
0.0
 10
14.8578591825309
 20
0.077042211188183
 30
0.0
 10
14.85489052069282
 20
0.0739447131610523
 30
0.0
 10
14.85181730729937
 20
0.0709509184828427
 30
0.0
 10
14.84874409390591
 20
0.067957123804633
 30
0.0
 10
14.84556994944282
 20
0.0650705593996093
 30
0.0
 10
14.84239580497972
 20
0.0621839949945856
 30
0.0
 10
14.83912446883739
 20
0.0594080614613647
 30
0.0
 10
14.83585313269506
 20
0.0566321279281438
 30
0.0
 10
14.83248845876332
 20
0.0539700955335237
 30
0.0
 10
14.82912378483157
 20
0.0513080631389035
 30
0.0
 10
14.82566973695944
 20
0.0487630679652329
 30
0.0
 10
14.82221568908731
 20
0.0462180727915624
 30
0.0
 10
14.81867633641332
 20
0.0437931130421908
 30
0.0
 10
14.81513698373932
 20
0.0413681532928193
 30
0.0
 10
14.81151649589772
 20
0.0390660857599789
 30
0.0
 10
14.80789600805611
 20
0.0367640182271385
 30
0.0
 10
14.80419865026472
 20
0.0345875549264194
 30
0.0
 10
14.80050129247332
 20
0.0324110916257003
 30
0.0
 10
14.79673142050877
 20
0.030362796601084
 30
0.0
 10
14.79296154854422
 20
0.0283145015764678
 30
0.0
 10
14.78912360361052
 20
0.0263967878796832
 30
0.0
 10
14.78528565867681
 20
0.0244790741828987
 30
0.0
 10
14.78138416217324
 20
0.0226942010306581
 30
0.0
 10
14.77748266566967
 20
0.0209093278784175
 30
0.0
 10
14.77352221386424
 20
0.0192593979908827
 30
0.0
 10
14.7695617620588
 20
0.017609468103348
 30
0.0
 10
14.76554702067346
 20
0.0160964252269615
 30
0.0
 10
14.76153227928811
 20
0.014583382350575
 30
0.0
 10
14.75746797800219
 20
0.0132090089681751
 30
0.0
 10
14.75340367671627
 20
0.0118346355857751
 30
0.0
 10
14.74929460359455
 20
0.0106005508166908
 30
0.0
 10
14.74518553047282
 20
0.0093664660476064
 30
0.0
 10
14.74103652632479
 20
0.008274123740209
 30
0.0
 10
14.73688752217675
 20
0.0071817814328117
 30
0.0
 10
14.73270347485376
 20
0.0062324684517676
 30
0.0
 10
14.72851942753077
 20
0.0052831554707235
 30
0.0
 10
14.72430526616781
 20
0.0044779901809666
 30
0.0
 10
14.72009110480484
 20
0.0036728248912098
 30
0.0
 10
14.71585179401355
 20
0.0030127558404206
 30
0.0
 10
14.71161248322225
 20
0.0023526867896315
 30
0.0
 10
14.70735301724229
 20
0.0018384915907735
 30
0.0
 10
14.70309355126233
 20
0.0013242963919155
 30
0.0
 10
14.69881894807774
 20
0.0009565808071462
 30
0.0
 10
14.69454434489315
 20
0.0005888652223769
 30
0.0
 10
14.69025964032079
 20
0.000368062449413
 30
0.0
 10
14.68597493574843
 20
0.000147259676449
 30
0.0
 10
14.68168517750537
 20
0.0000736298382251
 30
0.0
 10
14.67739541926231
 20
0.0000000000000012
 30
0.0
 10
13.71021341926232
 20
-0.0000000000000003
 30
0.0
 10
12.74303141926233
 20
-0.0000000000000018
 30
0.0
 10
12.73874166101927
 20
0.0000736298382227
 30
0.0
 10
12.73445190277621
 20
0.0001472596764472
 30
0.0
 10
12.73016719820385
 20
0.0003680624494112
 30
0.0
 10
12.72588249363148
 20
0.0005888652223751
 30
0.0
 10
12.7216078904469
 20
0.0009565808071444
 30
0.0
 10
12.71733328726231
 20
0.0013242963919137
 30
0.0
 10
12.71307382128235
 20
0.0018384915907717
 30
0.0
 10
12.70881435530239
 20
0.0023526867896297
 30
0.0
 10
12.7045750445111
 20
0.0030127558404189
 30
0.0
 10
12.7003357337198
 20
0.0036728248912081
 30
0.0
 10
12.69612157235683
 20
0.0044779901809649
 30
0.0
 10
12.69190741099386
 20
0.0052831554707217
 30
0.0
 10
12.68772336367088
 20
0.0062324684517659
 30
0.0
 10
12.68353931634789
 20
0.00718178143281
 30
0.0
 10
12.67939031219986
 20
0.0082741237402073
 30
0.0
 10
12.67524130805182
 20
0.0093664660476047
 30
0.0
 10
12.67113223493009
 20
0.010600550816689
 30
0.0
 10
12.66702316180836
 20
0.0118346355857734
 30
0.0
 10
12.66295886052245
 20
0.0132090089681734
 30
0.0
 10
12.65889455923653
 20
0.0145833823505734
 30
0.0
 10
12.65487981785119
 20
0.0160964252269599
 30
0.0
 10
12.65086507646584
 20
0.0176094681033463
 30
0.0
 10
12.64690462466041
 20
0.019259397990881
 30
0.0
 10
12.64294417285497
 20
0.0209093278784158
 30
0.0
 10
12.6390426763514
 20
0.0226942010306565
 30
0.0
 10
12.63514117984782
 20
0.0244790741828972
 30
0.0
 10
12.63130323491412
 20
0.0263967878796817
 30
0.0
 10
12.62746528998042
 20
0.0283145015764662
 30
0.0
 10
12.62369541801587
 20
0.0303627966010824
 30
0.0
 10
12.61992554605132
 20
0.0324110916256987
 30
0.0
 10
12.61622818825993
 20
0.0345875549264178
 30
0.0
 10
12.61253083046853
 20
0.0367640182271369
 30
0.0
 10
12.60891034262693
 20
0.0390660857599773
 30
0.0
 10
12.60528985478532
 20
0.0413681532928177
 30
0.0
 10
12.60175050211133
 20
0.0437931130421893
 30
0.0
 10
12.59821114943733
 20
0.0462180727915609
 30
0.0
 10
12.5947571015652
 20
0.0487630679652315
 30
0.0
 10
12.59130305369307
 20
0.051308063138902
 30
0.0
 10
12.58793837976133
 20
0.0539700955335222
 30
0.0
 10
12.58457370582958
 20
0.0566321279281424
 30
0.0
 10
12.58130236968725
 20
0.0594080614613633
 30
0.0
 10
12.57803103354492
 20
0.0621839949945842
 30
0.0
 10
12.57485688908183
 20
0.065070559399608
 30
0.0
 10
12.57168274461873
 20
0.0679571238046317
 30
0.0
 10
12.56860953122528
 20
0.0709509184828414
 30
0.0
 10
12.56553631783182
 20
0.073944713161051
 30
0.0
 10
12.56256765599374
 20
0.0770422111881817
 30
0.0
 10
12.55959899415565
 20
0.0801397092153124
 30
0.0
 10
12.55673838118875
 20
0.083337261496444
 30
0.0
 10
12.55387776822185
 20
0.0865348137775757
 30
0.0
 10
12.55112857415193
 20
0.0898286533460521
 30
0.0
 10
12.548379380082
 20
0.0931224929145284
 30
0.0
 10
12.54574484367467
 20
0.0965087393697383
 30
0.0
 10
12.54311030726734
 20
0.0998949858249483
 30
0.0
 10
12.54059353221253
 20
0.1033696499037418
 30
0.0
 10
12.53807675715772
 20
0.1068443139825352
 30
0.0
 10
12.53568070841328
 20
0.1104033022588861
 30
0.0
 10
12.53328465966883
 20
0.1139622905352371
 30
0.0
 10
12.53101215996755
 20
0.1176014102426204
 30
0.0
 10
12.52873966026627
 20
0.1212405299500037
 30
0.0
 10
12.52659338679054
 20
0.1249554939208016
 30
0.0
 10
12.52444711331481
 20
0.1286704578915995
 30
0.0
 10
12.52242959454262
 20
0.1324568896077205
 30
0.0
 10
12.52041207577043
 20
0.1362433213238414
 30
0.0
 10
12.51852568849669
 20
0.1400967600726006
 30
0.0
 10
12.51663930122295
 20
0.1439501988213599
 30
0.0
 10
12.51488626775939
 20
0.1478661049505476
 30
0.0
 10
12.51313323429583
 20
0.1517820110797354
 30
0.0
 10
12.51151561985297
 20
0.1557557713456829
 30
0.0
 10
12.50989800541011
 20
0.1597295316116303
 30
0.0
 10
12.50841771566428
 20
0.1637564646139706
 30
0.0
 10
12.50693742591844
 20
0.1677833976163108
 30
0.0
 10
12.50559620476671
 20
0.1718587593130351
 30
0.0
 10
12.50425498361498
 20
0.1759341210097594
 30
0.0
 10
12.50305441112077
 20
0.1800531103060697
 30
0.0
 10
12.50185383862656
 20
0.1841720996023801
 30
0.0
 10
12.50079532915816
 20
0.188329864006754
 30
0.0
 10
12.49973681968976
 20
0.1924876284111279
 30
0.0
 10
12.49882162025411
 20
0.1966792697519333
 30
0.0
 10
12.49790642081845
 20
0.2008709110927388
 30
0.0
 10
12.49713560959206
 20
0.2050914912886631
 30
0.0
 10
12.49636479836566
 20
0.2093120714845873
 30
0.0
 10
12.49573928342443
 20
0.2135566183620831
 30
0.0
 10
12.49511376848319
 20
0.2178011652395789
 30
0.0
 10
12.49463428673264
 20
0.2220646783904741
 30
0.0
 10
12.49415480498208
 20
0.2263281915413692
 30
0.0
 10
12.49382192128921
 20
0.2306056482137378
 30
0.0
 10
12.49348903759633
 20
0.2348831048861064
 30
0.0
 10
12.49330314412417
 20
0.239169465901464
 30
0.0
 10
12.49311725065201
 20
0.2434558269168216
 30
0.0
 10
12.47666533495717
 20
0.8717278291243539
 30
0.0
 10
12.46021341926233
 20
1.499999831331886
 30
0.0
  0
SPLINE
  5
49
330
1F
100
AcDbEntity
  8
DEFAULT
100
AcDbSpline
210
0.0
220
0.0
230
1.0
 70
     8
 71
     2
 72
   252
 73
   249
 74
     0
 42
0.0000000001
 43
0.0000000001
 40
0.0
 40
0.0
 40
0.0
 40
0.0115979124127675
 40
0.0115979124127675
 40
0.0231958248255375
 40
0.0231958248255375
 40
0.0347937372383074
 40
0.0347937372383074
 40
0.0463916496510869
 40
0.0463916496510869
 40
0.0579895620638486
 40
0.0579895620638486
 40
0.0695874744766208
 40
0.0695874744766208
 40
0.0811853868893924
 40
0.0811853868893924
 40
0.0927832993021717
 40
0.0927832993021717
 40
0.1043812117149395
 40
0.1043812117149395
 40
0.1159791241277085
 40
0.1159791241277085
 40
0.1275770365404826
 40
0.1275770365404826
 40
0.1391749489532566
 40
0.1391749489532566
 40
0.1507728613660197
 40
0.1507728613660197
 40
0.1623707737787968
 40
0.1623707737787968
 40
0.1739686861915702
 40
0.1739686861915702
 40
0.1855665986043431
 40
0.1855665986043431
 40
0.1971645110171074
 40
0.1971645110171074
 40
0.2087624234298819
 40
0.2087624234298819
 40
0.2203603358426494
 40
0.2203603358426494
 40
0.2319582482554208
 40
0.2319582482554208
 40
0.2333407128076841
 40
0.2333407128076841
 40
0.2347231773599392
 40
0.2347231773599392
 40
0.2361056419121924
 40
0.2361056419121924
 40
0.2374881064644467
 40
0.2374881064644467
 40
0.2388705710167006
 40
0.2388705710167006
 40
0.240253035568957
 40
0.240253035568957
 40
0.2416355001212096
 40
0.2416355001212096
 40
0.2430179646734641
 40
0.2430179646734641
 40
0.2444004292257167
 40
0.2444004292257167
 40
0.2457828937779748
 40
0.2457828937779748
 40
0.2471653583302294
 40
0.2471653583302294
 40
0.2485478228824817
 40
0.2485478228824817
 40
0.2499302874347349
 40
0.2499302874347349
 40
0.2513127519869889
 40
0.2513127519869889
 40
0.2526952165392456
 40
0.2526952165392456
 40
0.2540776810914982
 40
0.2540776810914982
 40
0.2554601456437537
 40
0.2554601456437537
 40
0.2568426101960076
 40
0.2568426101960076
 40
0.2582250747482621
 40
0.2582250747482621
 40
0.2596075393005165
 40
0.2596075393005165
 40
0.2609900038527698
 40
0.2609900038527698
 40
0.2623724684050244
 40
0.2623724684050244
 40
0.2637549329572798
 40
0.2637549329572798
 40
0.2651373975095339
 40
0.2651373975095339
 40
0.266519862061788
 40
0.266519862061788
 40
0.2679023266140423
 40
0.2679023266140423
 40
0.2692847911662967
 40
0.2692847911662967
 40
0.2706672557185506
 40
0.2706672557185506
 40
0.2720497202708045
 40
0.2720497202708045
 40
0.2734321848230595
 40
0.2734321848230595
 40
0.2748146493753141
 40
0.2748146493753141
 40
0.2761971139275675
 40
0.2761971139275675
 40
0.2775795784798209
 40
0.2775795784798209
 40
0.2789620430320771
 40
0.2789620430320771
 40
0.2803445075843296
 40
0.2803445075843296
 40
0.281726972136584
 40
0.281726972136584
 40
0.2831094366888379
 40
0.2831094366888379
 40
0.2844919012410929
 40
0.2844919012410929
 40
0.2858743657933478
 40
0.2858743657933478
 40
0.2872568303456031
 40
0.2872568303456031
 40
0.2886392948978588
 40
0.2886392948978588
 40
0.2900217594501079
 40
0.2900217594501079
 40
0.2914042240023632
 40
0.2914042240023632
 40
0.2927866885546161
 40
0.2927866885546161
 40
0.2941691531068706
 40
0.2941691531068706
 40
0.2955516176591259
 40
0.2955516176591259
 40
0.296934082211384
 40
0.296934082211384
 40
0.2983165467636346
 40
0.2983165467636346
 40
0.2996990113158869
 40
0.2996990113158869
 40
0.301081475868144
 40
0.301081475868144
 40
0.3024639404204021
 40
0.3024639404204021
 40
0.3038464049726517
 40
0.3038464049726517
 40
0.3052288695249121
 40
0.3052288695249121
 40
0.3066113340771612
 40
0.3066113340771612
 40
0.3079937986294175
 40
0.3079937986294175
 40
0.3093762631816666
 40
0.3093762631816666
 40
0.3107587277339251
 40
0.3107587277339251
 40
0.312141192286178
 40
0.312141192286178
 40
0.3135236568384319
 40
0.3135236568384319
 40
0.3149061213906893
 40
0.3149061213906893
 40
0.3162885859429398
 40
0.3162885859429398
 40
0.3176710504951994
 40
0.3176710504951994
 40
0.3190535150474475
 40
0.3190535150474475
 40
0.3204359795997066
 40
0.3204359795997066
 40
0.3218184441519628
 40
0.3218184441519628
 40
0.3232009087042118
 40
0.3232009087042118
 40
0.3245833732564658
 40
0.3245833732564658
 40
0.3259658378087208
 40
0.3259658378087208
 40
0.3273483023609746
 40
0.3273483023609746
 40
0.3287307669132343
 40
0.3287307669132343
 40
0.3301132314654855
 40
0.3301132314654855
 40
0.3794632314658043
 40
0.3794632314658043
 40
0.3801531254081242
 40
0.3801531254081242
 40
0.3808430193504573
 40
0.3808430193504573
 40
0.3815329132927885
 40
0.3815329132927885
 40
0.3822228072351272
 40
0.3822228072351272
 40
0.3829127011774561
 40
0.3829127011774561
 40
0.3836025951197823
 40
0.3836025951197823
 40
0.3842924890621188
 40
0.3842924890621188
 40
0.3849823830044423
 40
0.3849823830044423
 40
0.3856722769467761
 40
0.3856722769467761
 40
0.3863621708891063
 40
0.3863621708891063
 40
0.3870520648314391
 40
0.3870520648314391
 40
0.3877419587737735
 40
0.3877419587737735
 40
0.3884318527161043
 40
0.3884318527161043
 40
0.3891217466584301
 40
0.3891217466584301
 40
0.3898116406007571
 40
0.3898116406007571
 40
0.390501534543092
 40
0.390501534543092
 40
0.3911914284854264
 40
0.3911914284854264
 40
0.3918813224277572
 40
0.3918813224277572
 40
0.3925712163700819
 40
0.3925712163700819
 40
0.3932611103124203
 40
0.3932611103124203
 40
0.393951004254747
 40
0.393951004254747
 40
0.3946408981970799
 40
0.3946408981970799
 40
0.3953307921394128
 40
0.3953307921394128
 40
0.3960206860817409
 40
0.3960206860817409
 40
0.3967105800240733
 40
0.3967105800240733
 40
0.3974004739664017
 40
0.3974004739664017
 40
0.3980903679087345
 40
0.3980903679087345
 40
0.3987802618510659
 40
0.3987802618510659
 40
0.399470155793396
 40
0.399470155793396
 40
0.4001600497357251
 40
0.4001600497357251
 40
0.4008499436780585
 40
0.4008499436780585
 40
0.4574280402501733
 40
0.4574280402501733
 40
0.4574280402501733
 10
14.95474342026932
 20
1.290077783707145
 30
0.0
 10
14.960538233524
 20
1.290296946721698
 30
0.0
 10
14.96633304677868
 20
1.290516109736251
 30
0.0
 10
14.97211734135472
 20
1.290928213292609
 30
0.0
 10
14.97790163593076
 20
1.291340316848966
 30
0.0
 10
14.98366898958686
 20
1.291944903392892
 30
0.0
 10
14.98943634324295
 20
1.292549489936818
 30
0.0
 10
14.99518035254713
 20
1.293345888202245
 30
0.0
 10
15.0009243618513
 20
1.294142286467672
 30
0.0
 10
15.00663864929055
 20
1.295129612222
 30
0.0
 10
15.0123529367298
 20
1.296116937976327
 30
0.0
 10
15.01803115779102
 20
1.297294095002176
 30
0.0
 10
15.02370937885224
 20
1.298471252028025
 30
0.0
 10
15.02934522906643
 20
1.299836933340356
 30
0.0
 10
15.03498107928061
 20
1.301202614652687
 30
0.0
 10
15.04056830122267
 20
1.302755303949933
 30
0.0
 10
15.04615552316473
 20
1.304307993247179
 30
0.0
 10
15.05168791340102
 20
1.306045966594777
 30
0.0
 10
15.05722030363731
 20
1.307783939942375
 30
0.0
 10
15.06269171961327
 20
1.309705267686835
 30
0.0
 10
15.06816313558922
 20
1.311626595431294
 30
0.0
 10
15.07356750244935
 20
1.313729144342671
 30
0.0
 10
15.07897186930948
 20
1.315831693254047
 30
0.0
 10
15.08430318664222
 20
1.318113128894443
 30
0.0
 10
15.08963450397495
 20
1.32039456453484
 30
0.0
 10
15.09488685247484
 20
1.32285235385031
 30
0.0
 10
15.10013920097473
 20
1.325310143165779
 30
0.0
 10
15.10530674901461
 20
1.327941557298749
 30
0.0
 10
15.11047429705448
 20
1.33057297143172
 30
0.0
 10
15.11555130716021
 20
1.333375088750812
 30
0.0
 10
15.12062831726593
 20
1.336177206069904
 30
0.0
 10
15.1256091524867
 20
1.339146915413791
 30
0.0
 10
15.13058998770746
 20
1.342116624757679
 30
0.0
 10
15.13546911787441
 20
1.345250628889377
 30
0.0
 10
15.14034824804136
 20
1.348384633021074
 30
0.0
 10
15.14512025590771
 20
1.351679452288824
 30
0.0
 10
15.14989226377405
 20
1.354974271556575
 30
0.0
 10
15.15455185102974
 20
1.358426247757271
 30
0.0
 10
15.15921143828543
 20
1.361878223957967
 30
0.0
 10
15.16375343143985
 20
1.365483524398814
 30
0.0
 10
15.16829542459427
 20
1.369088824839662
 30
0.0
 10
15.16882193252918
 20
1.36953669921272
 30
0.0
 10
15.16934844046409
 20
1.369984573585778
 30
0.0
 10
15.16985915695243
 20
1.370450374753766
 30
0.0
 10
15.17036987344077
 20
1.370916175921754
 30
0.0
 10
15.17086418842614
 20
1.371399347480108
 30
0.0
 10
15.1713585034115
 20
1.371882519038462
 30
0.0
 10
15.17183582642927
 20
1.372382483833495
 30
0.0
 10
15.17231314944703
 20
1.372882448628529
 30
0.0
 10
15.17277291032965
 20
1.373398609446852
 30
0.0
 10
15.17323267121227
 20
1.373914770265175
 30
0.0
 10
15.17367432077037
 20
1.374446510547072
 30
0.0
 10
15.17411597032847
 20
1.374978250828968
 30
0.0
 10
15.17453898100684
 20
1.375524935404884
 30
0.0
 10
15.17496199168521
 20
1.376071619980799
 30
0.0
 10
15.175365858193
 20
1.376632595830056
 30
0.0
 10
15.17576972470078
 20
1.377193571679313
 30
0.0
 10
15.17615396461504
 20
1.377768168710154
 30
0.0
 10
15.17653820452929
 20
1.378342765740995
 30
0.0
 10
15.17690235887127
 20
1.378930297591011
 30
0.0
 10
15.17726651321324
 20
1.379517829441027
 30
0.0
 10
15.1776101469966
 20
1.380117594297029
 30
0.0
 10
15.17795378077996
 20
1.38071735915303
 30
0.0
 10
15.17827648353041
 20
1.381328640589367
 30
0.0
 10
15.17859918628086
 20
1.381939922025704
 30
0.0
 10
15.17890057252646
 20
1.382561989860048
 30
0.0
 10
15.17920195877205
 20
1.383184057694391
 30
0.0
 10
15.17948166850364
 20
1.383816168859942
 30
0.0
 10
15.17976137823523
 20
1.384448280025492
 30
0.0
 10
15.1800190773365
 20
1.385089679458581
 30
0.0
 10
15.18027677643777
 20
1.38573107889167
 30
0.0
 10
15.18051215708433
 20
1.386381000433693
 30
0.0
 10
15.18074753773088
 20
1.387030921975716
 30
0.0
 10
15.18096031875799
 20
1.387688589288317
 30
0.0
 10
15.1811730997851
 20
1.388346256600917
 30
0.0
 10
15.1813630270235
 20
1.389010884093332
 30
0.0
 10
15.1815529542619
 20
1.389675511585746
 30
0.0
 10
15.18171980084145
 20
1.390346305353199
 30
0.0
 10
15.18188664742099
 20
1.391017099120653
 30
0.0
 10
15.18203021404162
 20
1.391693257892689
 30
0.0
 10
15.18217378066225
 20
1.392369416664724
 30
0.0
 10
15.18229389583208
 20
1.393050132762328
 30
0.0
 10
15.1824140110019
 20
1.393730848859932
 30
0.0
 10
15.18251053124205
 20
1.394415309160316
 30
0.0
 10
15.18260705148219
 20
1.395099769460701
 30
0.0
 10
15.18267986149818
 20
1.395787156368587
 30
0.0
 10
15.18275267151416
 20
1.396474543276473
 30
0.0
 10
15.18280168433363
 20
1.397164035700715
 30
0.0
 10
15.18285069715309
 20
1.397853528124958
 30
0.0
 10
15.18287585422969
 20
1.398544302459352
 30
0.0
 10
15.18290101130629
 20
1.399235076793745
 30
0.0
 10
15.18290228258963
 20
1.399926307900828
 30
0.0
 10
15.18290355387297
 20
1.40061753900791
 30
0.0
 10
15.18288093784448
 20
1.4013084012046
 30
0.0
 10
15.18285832181599
 20
1.40199926340129
 30
0.0
 10
15.18281184549077
 20
1.402688931445173
 30
0.0
 10
15.18276536916554
 20
1.403378599489056
 30
0.0
 10
15.18269508806006
 20
1.404066249564146
 30
0.0
 10
15.18262480695458
 20
1.404753899639237
 30
0.0
 10
15.18253080502039
 20
1.405438710340035
 30
0.0
 10
15.18243680308619
 20
1.406123521040834
 30
0.0
 10
15.18231919260962
 20
1.406804674353503
 30
0.0
 10
15.18220158213304
 20
1.407485827666172
 30
0.0
 10
15.18206050360109
 20
1.408162509945666
 30
0.0
 10
15.18191942506913
 20
1.408839192225159
 30
0.0
 10
15.18175504700163
 20
1.409510595167128
 30
0.0
 10
15.18159066893413
 20
1.410181998109097
 30
0.0
 10
15.18140318768248
 20
1.410847319715419
 30
0.0
 10
15.18121570643082
 20
1.411512641321741
 30
0.0
 10
15.18100534594342
 20
1.412171086858515
 30
0.0
 10
15.18079498545601
 20
1.412829532395289
 30
0.0
 10
15.18056199701074
 20
1.413480315342154
 30
0.0
 10
15.18032900856547
 20
1.414131098289019
 30
0.0
 10
15.18007367046957
 20
1.414773441278661
 30
0.0
 10
15.17981833237367
 20
1.415415784268303
 30
0.0
 10
15.17954094963128
 20
1.416048920015028
 30
0.0
 10
15.17926356688888
 20
1.416682055761753
 30
0.0
 10
15.1789644708367
 20
1.41730522797802
 30
0.0
 10
15.17866537478451
 20
1.417928400194288
 30
0.0
 10
15.17834492269603
 20
1.418540864494102
 30
0.0
 10
15.17802447060754
 20
1.419153328793916
 30
0.0
 10
15.17768304526627
 20
1.419754353582003
 30
0.0
 10
15.17734161992499
 20
1.420355378370091
 30
0.0
 10
15.17697962916722
 20
1.4209442457158
 30
0.0
 10
15.17661763840944
 20
1.421533113061509
 30
0.0
 10
15.17623551463706
 20
1.422109119556385
 30
0.0
 10
15.17585339086467
 20
1.422685126051261
 30
0.0
 10
15.17545159052869
 20
1.423247583649276
 30
0.0
 10
15.17504979019271
 20
1.423810041247291
 30
0.0
 10
15.17462879324801
 20
1.424358278086722
 30
0.0
 10
15.1742077963033
 20
1.424906514926153
 30
0.0
 10
15.17376810563531
 20
1.425439876132127
 30
0.0
 10
15.17332841496731
 20
1.425973237338101
 30
0.0
 10
15.17287055579131
 20
1.426491085804852
 30
0.0
 10
15.17241269661531
 20
1.427008934271603
 30
0.0
 10
15.17193721584909
 20
1.4275106514235
 30
0.0
 10
15.17146173508286
 20
1.428012368575397
 30
0.0
 10
15.17096920069336
 20
1.428497355105841
 30
0.0
 10
15.17047666630385
 20
1.428982341636285
 30
0.0
 10
15.16996766662875
 20
1.429450018223587
 30
0.0
 10
15.16945866695365
 20
1.429917694810888
 30
0.0
 10
15.16893380999861
 20
1.430367502810272
 30
0.0
 10
15.16840895304357
 20
1.430817310809656
 30
0.0
 10
15.16786886575595
 20
1.431248712920572
 30
0.0
 10
15.16732877846832
 20
1.431680115031487
 30
0.0
 10
15.16677410598824
 20
1.432092595939416
 30
0.0
 10
15.16621943350816
 20
1.432505076847346
 30
0.0
 10
15.16565083839796
 20
1.432898143839354
 30
0.0
 10
15.16508224328775
 20
1.433291210831362
 30
0.0
 10
15.16450040474046
 20
1.433664394384649
 30
0.0
 10
15.16391856619316
 20
1.434037577937936
 30
0.0
 10
15.16332417922127
 20
1.434390432280685
 30
0.0
 10
15.16272979224937
 20
1.434743286623434
 30
0.0
 10
15.16212356685457
 20
1.435075390267291
 30
0.0
 10
15.16151734145977
 20
1.435407493911149
 30
0.0
 10
15.16090000178491
 20
1.435718450154698
 30
0.0
 10
15.16028266211005
 20
1.436029406398246
 30
0.0
 10
15.15965494557409
 20
1.436318843800867
 30
0.0
 10
15.15902722903812
 20
1.436608281203489
 30
0.0
 10
15.15838988545529
 20
1.436875854029056
 30
0.0
 10
15.15775254187245
 20
1.437143426854623
 30
0.0
 10
15.1571063325566
 20
1.437388815484482
 30
0.0
 10
15.15646012324075
 20
1.437634204114341
 30
0.0
 10
15.15580582009594
 20
1.437857115429103
 30
0.0
 10
15.15515151695112
 20
1.438080026743865
 30
0.0
 10
15.15448990154958
 20
1.438280194473538
 30
0.0
 10
15.15382828614804
 20
1.438480362203211
 30
0.0
 10
15.15316014879657
 20
1.438657547245263
 30
0.0
 10
15.15249201144509
 20
1.438834732287315
 30
0.0
 10
15.15181815024103
 20
1.438988722992284
 30
0.0
 10
15.15114428903696
 20
1.439142713697253
 30
0.0
 10
15.15046550891485
 20
1.439273326121566
 30
0.0
 10
15.14978672879274
 20
1.439403938545879
 30
0.0
 10
15.14910384056283
 20
1.439511016671574
 30
0.0
 10
15.14842095233291
 20
1.439618094797269
 30
0.0
 10
15.14773477171262
 20
1.439701510718359
 30
0.0
 10
15.14704859109232
 20
1.439784926639448
 30
0.0
 10
15.14635993773187
 20
1.439844580714707
 30
0.0
 10
15.14567128437141
 20
1.439904234789966
 30
0.0
 10
15.14498098087473
 20
1.439940055761951
 30
0.0
 10
15.14429067737805
 20
1.439975876733937
 30
0.0
 10
15.14359954832019
 20
1.439987821814108
 30
0.0
 10
15.14290841926233
 20
1.439999766894279
 30
0.0
 10
15.11823341926233
 20
1.439999854032132
 30
0.0
 10
15.09355841926232
 20
1.439999941169985
 30
0.0
 10
15.09321352360141
 20
1.440005890623306
 30
0.0
 10
15.09286862794049
 20
1.440011840076626
 30
0.0
 10
15.09252414266995
 20
1.440029681357347
 30
0.0
 10
15.09217965739941
 20
1.440047522638068
 30
0.0
 10
15.09183599242131
 20
1.440077234516901
 30
0.0
 10
15.09149232744321
 20
1.440106946395733
 30
0.0
 10
15.09114989168354
 20
1.440148493518596
 30
0.0
 10
15.09080745592387
 20
1.440190040641458
 30
0.0
 10
15.09046665684599
 20
1.440243373571546
 30
0.0
 10
15.09012585776811
 20
1.440296706501634
 30
0.0
 10
15.08978710088789
 20
1.440361761778242
 30
0.0
 10
15.08944834400766
 20
1.440426817054851
 30
0.0
 10
15.08911203241095
 20
1.440503517268889
 30
0.0
 10
15.08877572081423
 20
1.440580217482927
 30
0.0
 10
15.08844225467727
 20
1.440668471369025
 30
0.0
 10
15.0881087885403
 20
1.440756725255122
 30
0.0
 10
15.0877785646535
 20
1.440856427800228
 30
0.0
 10
15.08744834076669
 20
1.440956130345334
 30
0.0
 10
15.08712175206253
 20
1.441067162913668
 30
0.0
 10
15.08679516335837
 20
1.441178195482002
 30
0.0
 10
15.08647259844384
 20
1.441300425956223
 30
0.0
 10
15.0861500335293
 20
1.441422656430444
 30
0.0
 10
15.08583187622348
 20
1.441555939368853
 30
0.0
 10
15.08551371891766
 20
1.441689222307261
 30
0.0
 10
15.08520034779505
 20
1.441833399116863
 30
0.0
 10
15.08488697667243
 20
1.441977575926464
 30
0.0
 10
15.08457876461244
 20
1.442132475051676
 30
0.0
 10
15.08427055255245
 20
1.442287374176888
 30
0.0
 10
15.08396786629575
 20
1.442452811303676
 30
0.0
 10
15.08366518003905
 20
1.442618248430464
 30
0.0
 10
15.08336837975117
 20
1.442794026705654
 30
0.0
 10
15.08307157946328
 20
1.442969804980844
 30
0.0
 10
15.08278101830605
 20
1.443155715246359
 30
0.0
 10
15.08249045714881
 20
1.443341625511873
 30
0.0
 10
15.08220648086014
 20
1.443537446553608
 30
0.0
 10
15.08192250457146
 20
1.443733267595344
 30
0.0
 10
15.08164545105394
 20
1.443938766406391
 30
0.0
 10
15.08136839753641
 20
1.444144265217437
 30
0.0
 10
15.08109859645523
 20
1.444359197275336
 30
0.0
 10
15.08082879537405
 20
1.444574129333235
 30
0.0
 10
15.08056656776478
 20
1.444798238890932
 30
0.0
 10
15.08030434015551
 20
1.445022348448629
 30
0.0
 10
15.08004999804204
 20
1.445255368838789
 30
0.0
 10
15.07979565592856
 20
1.445488389228949
 30
0.0
 10
15.07954950195186
 20
1.445730043181264
 30
0.0
 10
15.07930334797515
 20
1.445971697133578
 30
0.0
 10
15.07906567503315
 20
1.446221697104686
 30
0.0
 10
15.07882800209114
 20
1.446471697075793
 30
0.0
 10
15.0785990929902
 20
1.446729745591428
 30
0.0
 10
15.07837018388925
 20
1.446987794107063
 30
0.0
 10
15.07815031100767
 20
1.447253584116019
 30
0.0
 10
15.07793043812609
 20
1.447519374124976
 30
0.0
 10
15.07771986309
 20
1.447792589364468
 30
0.0
 10
15.0775092880539
 20
1.448065804603959
 30
0.0
 10
15.07730826142594
 20
1.448346119975938
 30
0.0
 10
15.07710723479798
 20
1.448626435347916
 30
0.0
 10
15.07691599577918
 20
1.448913517305904
 30
0.0
 10
15.07672475676037
 20
1.449200599263893
 30
0.0
 10
15.0765435329055
 20
1.449494106209875
 30
0.0
 10
15.07636230905062
 20
1.449787613155857
 30
0.0
 10
15.07619131599743
 20
1.450087195846739
 30
0.0
 10
15.07602032294423
 20
1.450386778537621
 30
0.0
 10
15.06242228996004
 20
1.475193304934753
 30
0.0
 10
15.04882425697584
 20
1.499999831331886
 30
0.0
  0
SPLINE
  5
4A
330
1F
100
AcDbEntity
  8
DEFAULT
100
AcDbSpline
210
0.0
220
0.0
230
1.0
 70
    11
 71
     2
 72
    12
 73
     9
 74
     0
 42
0.0000000001
 43
0.0000000001
 40
26.52999999999998
 40
26.52999999999998
 40
26.52999999999998
 40
27.60933499999998
 40
27.60933499999998
 40
54.13933499999996
 40
54.13933499999996
 40
55.21866999999995
 40
55.21866999999995
 40
81.74866999999993
 40
81.74866999999993
 40
81.74866999999993
 10
-12.39018705078081
 20
1.496834999999997
 30
0.0
 10
-12.39018705078081
 20
0.9571674999999987
 30
0.0
 10
-12.39018705078081
 20
0.4175000000000004
 30
0.0
 10
0.0000131842407534
 20
0.4175000000000004
 30
0.0
 10
12.39021341926231
 20
0.4175000000000004
 30
0.0
 10
12.39021341926231
 20
0.9571674999999987
 30
0.0
 10
12.39021341926231
 20
1.496834999999997
 30
0.0
 10
0.0000131842407534
 20
1.496834999999997
 30
0.0
 10
-12.39018705078081
 20
1.496834999999997
 30
0.0
  0
SPLINE
  5
4B
330
1F
100
AcDbEntity
  8
DEFAULT
100
AcDbSpline
210
0.0
220
0.0
230
1.0
 70
     8
 71
     2
 72
   190
 73
   187
 74
     0
 42
0.0000000001
 43
0.0000000001
 40
0.0
 40
0.0
 40
0.0
 40
1.25697474006106
 40
1.25697474006106
 40
1.265555520243996
 40
1.265555520243996
 40
1.274136300426933
 40
1.274136300426933
 40
1.28271708060987
 40
1.28271708060987
 40
1.291297860792807
 40
1.291297860792807
 40
1.299878640975744
 40
1.299878640975744
 40
1.308459421158679
 40
1.308459421158679
 40
1.317040201341616
 40
1.317040201341616
 40
1.325620981524553
 40
1.325620981524553
 40
1.334201761707491
 40
1.334201761707491
 40
1.342782541890429
 40
1.342782541890429
 40
1.351363322073362
 40
1.351363322073362
 40
1.3599441022563
 40
1.3599441022563
 40
1.368524882439236
 40
1.368524882439236
 40
1.377105662622176
 40
1.377105662622176
 40
1.385686442805112
 40
1.385686442805112
 40
1.394267222988048
 40
1.394267222988048
 40
1.402848003170987
 40
1.402848003170987
 40
1.411428783353918
 40
1.411428783353918
 40
1.420009563536855
 40
1.420009563536855
 40
1.428590343719791
 40
1.428590343719791
 40
1.437171123902735
 40
1.437171123902735
 40
1.445751904085666
 40
1.445751904085666
 40
1.454332684268608
 40
1.454332684268608
 40
1.462913464451538
 40
1.462913464451538
 40
1.471494244634477
 40
1.471494244634477
 40
1.480075024817413
 40
1.480075024817413
 40
1.488655805000351
 40
1.488655805000351
 40
1.497236585183291
 40
1.497236585183291
 40
1.505817365366228
 40
1.505817365366228
 40
1.514398145549164
 40
1.514398145549164
 40
1.5229789257321
 40
1.5229789257321
 40
1.531559705915032
 40
1.531559705915032
 40
1.540140486097975
 40
1.540140486097975
 40
1.548721266280908
 40
1.548721266280908
 40
1.557302046463848
 40
1.557302046463848
 40
1.565882826646777
 40
1.565882826646777
 40
1.574463606829725
 40
1.574463606829725
 40
1.583044387012654
 40
1.583044387012654
 40
1.591625167195597
 40
1.591625167195597
 40
1.600205947378526
 40
1.600205947378526
 40
1.608786727561469
 40
1.608786727561469
 40
1.617367507744406
 40
1.617367507744406
 40
1.625948287927337
 40
1.625948287927337
 40
1.634529068110279
 40
1.634529068110279
 40
1.643109848293219
 40
1.643109848293219
 40
3.577473848293198
 40
3.577473848293198
 40
3.586054628476137
 40
3.586054628476137
 40
3.59463540865908
 40
3.59463540865908
 40
3.60321618884201
 40
3.60321618884201
 40
3.611796969024947
 40
3.611796969024947
 40
3.620377749207889
 40
3.620377749207889
 40
3.62895852939082
 40
3.62895852939082
 40
3.637539309573762
 40
3.637539309573762
 40
3.646120089756692
 40
3.646120089756692
 40
3.654700869939629
 40
3.654700869939629
 40
3.663281650122569
 40
3.663281650122569
 40
3.671862430305509
 40
3.671862430305509
 40
3.680443210488442
 40
3.680443210488442
 40
3.689023990671376
 40
3.689023990671376
 40
3.697604770854317
 40
3.697604770854317
 40
3.706185551037252
 40
3.706185551037252
 40
3.714766331220189
 40
3.714766331220189
 40
3.723347111403125
 40
3.723347111403125
 40
3.731927891586066
 40
3.731927891586066
 40
3.740508671769003
 40
3.740508671769003
 40
3.74908945195194
 40
3.74908945195194
 40
3.757670232134878
 40
3.757670232134878
 40
3.766251012317809
 40
3.766251012317809
 40
3.774831792500751
 40
3.774831792500751
 40
3.783412572683682
 40
3.783412572683682
 40
3.791993352866626
 40
3.791993352866626
 40
3.800574133049563
 40
3.800574133049563
 40
3.8091549132325
 40
3.8091549132325
 40
3.817735693415431
 40
3.817735693415431
 40
3.826316473598371
 40
3.826316473598371
 40
3.834897253781306
 40
3.834897253781306
 40
3.843478033964241
 40
3.843478033964241
 40
3.852058814147182
 40
3.852058814147182
 40
3.860639594330118
 40
3.860639594330118
 40
3.869220374513056
 40
3.869220374513056
 40
3.877801154695989
 40
3.877801154695989
 40
3.886381934878927
 40
3.886381934878927
 40
3.894962715061865
 40
3.894962715061865
 40
3.903543495244803
 40
3.903543495244803
 40
3.912124275427737
 40
3.912124275427737
 40
3.920705055610675
 40
3.920705055610675
 40
3.929285835793612
 40
3.929285835793612
 40
3.937866615976548
 40
3.937866615976548
 40
3.946447396159485
 40
3.946447396159485
 40
3.955028176342422
 40
3.955028176342422
 40
3.963608956525359
 40
3.963608956525359
 40
5.220583696586417
 40
5.220583696586417
 40
5.220583696586417
 10
-14.96018705078084
 20
1.499999831331886
 30
0.0
 10
-14.94373513508599
 20
0.8717278291243532
 30
0.0
 10
-14.92728321939115
 20
0.2434558269168203
 30
0.0
 10
-14.92709732591897
 20
0.2391694659014635
 30
0.0
 10
-14.9269114324468
 20
0.2348831048861068
 30
0.0
 10
-14.92657854875393
 20
0.2306056482137382
 30
0.0
 10
-14.92624566506106
 20
0.2263281915413696
 30
0.0
 10
-14.9257661833105
 20
0.2220646783904744
 30
0.0
 10
-14.92528670155995
 20
0.2178011652395793
 30
0.0
 10
-14.92466118661871
 20
0.2135566183620835
 30
0.0
 10
-14.92403567167748
 20
0.2093120714845876
 30
0.0
 10
-14.92326486045108
 20
0.2050914912886634
 30
0.0
 10
-14.92249404922468
 20
0.2008709110927391
 30
0.0
 10
-14.92157884978903
 20
0.1966792697519338
 30
0.0
 10
-14.92066365035338
 20
0.1924876284111284
 30
0.0
 10
-14.91960514088498
 20
0.1883298640067545
 30
0.0
 10
-14.91854663141658
 20
0.1841720996023806
 30
0.0
 10
-14.91734605892237
 20
0.1800531103060703
 30
0.0
 10
-14.91614548642816
 20
0.17593412100976
 30
0.0
 10
-14.91480426527643
 20
0.1718587593130357
 30
0.0
 10
-14.9134630441247
 20
0.1677833976163114
 30
0.0
 10
-14.91198275437886
 20
0.1637564646139713
 30
0.0
 10
-14.91050246463302
 20
0.1597295316116311
 30
0.0
 10
-14.90888485019016
 20
0.1557557713456837
 30
0.0
 10
-14.90726723574731
 20
0.1517820110797363
 30
0.0
 10
-14.90551420228375
 20
0.1478661049505484
 30
0.0
 10
-14.90376116882019
 20
0.1439501988213606
 30
0.0
 10
-14.90187478154645
 20
0.1400967600726014
 30
0.0
 10
-14.89998839427271
 20
0.1362433213238423
 30
0.0
 10
-14.89797087550052
 20
0.1324568896077213
 30
0.0
 10
-14.89595335672833
 20
0.1286704578916004
 30
0.0
 10
-14.89380708325259
 20
0.1249554939208025
 30
0.0
 10
-14.89166080977686
 20
0.1212405299500047
 30
0.0
 10
-14.88938831007558
 20
0.1176014102426214
 30
0.0
 10
-14.88711581037431
 20
0.1139622905352381
 30
0.0
 10
-14.88471976162986
 20
0.1104033022588872
 30
0.0
 10
-14.88232371288541
 20
0.1068443139825363
 30
0.0
 10
-14.8798069378306
 20
0.1033696499037429
 30
0.0
 10
-14.8772901627758
 20
0.0998949858249496
 30
0.0
 10
-14.87465562636847
 20
0.0965087393697396
 30
0.0
 10
-14.87202108996114
 20
0.0931224929145295
 30
0.0
 10
-14.86927189589121
 20
0.0898286533460531
 30
0.0
 10
-14.86652270182129
 20
0.0865348137775768
 30
0.0
 10
-14.86366208885438
 20
0.0833372614964452
 30
0.0
 10
-14.86080147588748
 20
0.0801397092153137
 30
0.0
 10
-14.8578328140494
 20
0.077042211188183
 30
0.0
 10
-14.85486415221132
 20
0.0739447131610523
 30
0.0
 10
-14.85179093881786
 20
0.0709509184828427
 30
0.0
 10
-14.84871772542441
 20
0.067957123804633
 30
0.0
 10
-14.84554358096131
 20
0.0650705593996093
 30
0.0
 10
-14.84236943649822
 20
0.0621839949945856
 30
0.0
 10
-14.83909810035589
 20
0.0594080614613647
 30
0.0
 10
-14.83582676421356
 20
0.0566321279281438
 30
0.0
 10
-14.83246209028181
 20
0.0539700955335237
 30
0.0
 10
-14.82909741635007
 20
0.0513080631389035
 30
0.0
 10
-14.82564336847794
 20
0.0487630679652329
 30
0.0
 10
-14.82218932060581
 20
0.0462180727915624
 30
0.0
 10
-14.81864996793181
 20
0.0437931130421908
 30
0.0
 10
-14.81511061525782
 20
0.0413681532928193
 30
0.0
 10
-14.81149012741621
 20
0.0390660857599789
 30
0.0
 10
-14.80786963957461
 20
0.0367640182271385
 30
0.0
 10
-14.80417228178321
 20
0.0345875549264194
 30
0.0
 10
-14.80047492399182
 20
0.0324110916257003
 30
0.0
 10
-14.79670505202727
 20
0.030362796601084
 30
0.0
 10
-14.79293518006272
 20
0.0283145015764678
 30
0.0
 10
-14.78909723512902
 20
0.0263967878796832
 30
0.0
 10
-14.78525929019532
 20
0.0244790741828987
 30
0.0
 10
-14.78135779369174
 20
0.0226942010306581
 30
0.0
 10
-14.77745629718817
 20
0.0209093278784175
 30
0.0
 10
-14.77349584538273
 20
0.0192593979908827
 30
0.0
 10
-14.7695353935773
 20
0.017609468103348
 30
0.0
 10
-14.76552065219195
 20
0.0160964252269615
 30
0.0
 10
-14.76150591080661
 20
0.014583382350575
 30
0.0
 10
-14.75744160952069
 20
0.0132090089681751
 30
0.0
 10
-14.75337730823478
 20
0.0118346355857751
 30
0.0
 10
-14.74926823511305
 20
0.0106005508166908
 30
0.0
 10
-14.74515916199132
 20
0.0093664660476064
 30
0.0
 10
-14.74101015784328
 20
0.008274123740209
 30
0.0
 10
-14.73686115369525
 20
0.0071817814328117
 30
0.0
 10
-14.73267710637226
 20
0.0062324684517676
 30
0.0
 10
-14.72849305904927
 20
0.0052831554707235
 30
0.0
 10
-14.7242788976863
 20
0.0044779901809666
 30
0.0
 10
-14.72006473632334
 20
0.0036728248912098
 30
0.0
 10
-14.71582542553204
 20
0.0030127558404206
 30
0.0
 10
-14.71158611474075
 20
0.0023526867896315
 30
0.0
 10
-14.70732664876079
 20
0.0018384915907735
 30
0.0
 10
-14.70306718278083
 20
0.0013242963919155
 30
0.0
 10
-14.69879257959624
 20
0.0009565808071462
 30
0.0
 10
-14.69451797641166
 20
0.0005888652223769
 30
0.0
 10
-14.69023327183929
 20
0.000368062449413
 30
0.0
 10
-14.68594856726693
 20
0.000147259676449
 30
0.0
 10
-14.68165880902387
 20
0.0000736298382251
 30
0.0
 10
-14.67736905078081
 20
0.0000000000000012
 30
0.0
 10
-13.71018705078082
 20
-0.0000000000000003
 30
0.0
 10
-12.74300505078083
 20
-0.0000000000000018
 30
0.0
 10
-12.73871529253777
 20
0.0000736298382227
 30
0.0
 10
-12.73442553429471
 20
0.0001472596764472
 30
0.0
 10
-12.73014082972234
 20
0.0003680624494112
 30
0.0
 10
-12.72585612514998
 20
0.0005888652223751
 30
0.0
 10
-12.72158152196539
 20
0.0009565808071444
 30
0.0
 10
-12.71730691878081
 20
0.0013242963919137
 30
0.0
 10
-12.71304745280085
 20
0.0018384915907717
 30
0.0
 10
-12.70878798682089
 20
0.0023526867896297
 30
0.0
 10
-12.70454867602959
 20
0.0030127558404189
 30
0.0
 10
-12.7003093652383
 20
0.0036728248912081
 30
0.0
 10
-12.69609520387533
 20
0.0044779901809649
 30
0.0
 10
-12.69188104251237
 20
0.0052831554707217
 30
0.0
 10
-12.68769699518938
 20
0.0062324684517659
 30
0.0
 10
-12.68351294786639
 20
0.00718178143281
 30
0.0
 10
-12.67936394371835
 20
0.0082741237402073
 30
0.0
 10
-12.67521493957032
 20
0.0093664660476047
 30
0.0
 10
-12.67110586644859
 20
0.010600550816689
 30
0.0
 10
-12.66699679332687
 20
0.0118346355857734
 30
0.0
 10
-12.66293249204095
 20
0.0132090089681734
 30
0.0
 10
-12.65886819075503
 20
0.0145833823505734
 30
0.0
 10
-12.65485344936968
 20
0.0160964252269599
 30
0.0
 10
-12.65083870798434
 20
0.0176094681033463
 30
0.0
 10
-12.6468782561789
 20
0.019259397990881
 30
0.0
 10
-12.64291780437347
 20
0.0209093278784158
 30
0.0
 10
-12.6390163078699
 20
0.0226942010306565
 30
0.0
 10
-12.63511481136633
 20
0.0244790741828972
 30
0.0
 10
-12.63127686643262
 20
0.0263967878796817
 30
0.0
 10
-12.62743892149892
 20
0.0283145015764662
 30
0.0
 10
-12.62366904953437
 20
0.0303627966010824
 30
0.0
 10
-12.61989917756982
 20
0.0324110916256987
 30
0.0
 10
-12.61620181977842
 20
0.0345875549264178
 30
0.0
 10
-12.61250446198703
 20
0.0367640182271369
 30
0.0
 10
-12.60888397414542
 20
0.0390660857599773
 30
0.0
 10
-12.60526348630382
 20
0.0413681532928177
 30
0.0
 10
-12.60172413362982
 20
0.0437931130421893
 30
0.0
 10
-12.59818478095583
 20
0.0462180727915609
 30
0.0
 10
-12.5947307330837
 20
0.0487630679652315
 30
0.0
 10
-12.59127668521157
 20
0.051308063138902
 30
0.0
 10
-12.58791201127982
 20
0.0539700955335222
 30
0.0
 10
-12.58454733734808
 20
0.0566321279281424
 30
0.0
 10
-12.58127600120575
 20
0.0594080614613633
 30
0.0
 10
-12.57800466506342
 20
0.0621839949945842
 30
0.0
 10
-12.57483052060032
 20
0.065070559399608
 30
0.0
 10
-12.57165637613723
 20
0.0679571238046317
 30
0.0
 10
-12.56858316274377
 20
0.0709509184828414
 30
0.0
 10
-12.56550994935032
 20
0.073944713161051
 30
0.0
 10
-12.56254128751224
 20
0.0770422111881817
 30
0.0
 10
-12.55957262567416
 20
0.0801397092153124
 30
0.0
 10
-12.55671201270725
 20
0.083337261496444
 30
0.0
 10
-12.55385139974035
 20
0.0865348137775757
 30
0.0
 10
-12.55110220567042
 20
0.0898286533460521
 30
0.0
 10
-12.5483530116005
 20
0.0931224929145284
 30
0.0
 10
-12.54571847519317
 20
0.0965087393697383
 30
0.0
 10
-12.54308393878584
 20
0.0998949858249483
 30
0.0
 10
-12.54056716373103
 20
0.1033696499037418
 30
0.0
 10
-12.53805038867623
 20
0.1068443139825352
 30
0.0
 10
-12.53565433993178
 20
0.1104033022588861
 30
0.0
 10
-12.53325829118733
 20
0.1139622905352371
 30
0.0
 10
-12.53098579148605
 20
0.1176014102426204
 30
0.0
 10
-12.52871329178478
 20
0.1212405299500037
 30
0.0
 10
-12.52656701830904
 20
0.1249554939208016
 30
0.0
 10
-12.52442074483331
 20
0.1286704578915995
 30
0.0
 10
-12.52240322606112
 20
0.1324568896077205
 30
0.0
 10
-12.52038570728893
 20
0.1362433213238414
 30
0.0
 10
-12.51849932001519
 20
0.1400967600726006
 30
0.0
 10
-12.51661293274145
 20
0.1439501988213599
 30
0.0
 10
-12.51485989927789
 20
0.1478661049505476
 30
0.0
 10
-12.51310686581433
 20
0.1517820110797354
 30
0.0
 10
-12.51148925137147
 20
0.1557557713456829
 30
0.0
 10
-12.50987163692862
 20
0.1597295316116303
 30
0.0
 10
-12.50839134718278
 20
0.1637564646139706
 30
0.0
 10
-12.50691105743694
 20
0.1677833976163108
 30
0.0
 10
-12.50556983628521
 20
0.1718587593130351
 30
0.0
 10
-12.50422861513348
 20
0.1759341210097594
 30
0.0
 10
-12.50302804263927
 20
0.1800531103060697
 30
0.0
 10
-12.50182747014506
 20
0.1841720996023801
 30
0.0
 10
-12.50076896067666
 20
0.188329864006754
 30
0.0
 10
-12.49971045120827
 20
0.1924876284111279
 30
0.0
 10
-12.49879525177261
 20
0.1966792697519333
 30
0.0
 10
-12.49788005233696
 20
0.2008709110927388
 30
0.0
 10
-12.49710924111056
 20
0.2050914912886631
 30
0.0
 10
-12.49633842988416
 20
0.2093120714845873
 30
0.0
 10
-12.49571291494292
 20
0.2135566183620831
 30
0.0
 10
-12.49508740000169
 20
0.2178011652395789
 30
0.0
 10
-12.49460791825113
 20
0.2220646783904741
 30
0.0
 10
-12.49412843650058
 20
0.2263281915413692
 30
0.0
 10
-12.49379555280771
 20
0.2306056482137378
 30
0.0
 10
-12.49346266911484
 20
0.2348831048861064
 30
0.0
 10
-12.49327677564267
 20
0.239169465901464
 30
0.0
 10
-12.49309088217051
 20
0.2434558269168216
 30
0.0
 10
-12.47663896647567
 20
0.8717278291243539
 30
0.0
 10
-12.46018705078084
 20
1.499999831331886
 30
0.0
  0
SPLINE
  5
4C
330
1F
100
AcDbEntity
  8
DEFAULT
100
AcDbSpline
210
0.0
220
0.0
230
1.0
 70
     8
 71
     2
 72
   252
 73
   249
 74
     0
 42
0.0000000001
 43
0.0000000001
 40
0.0
 40
0.0
 40
0.0
 40
0.0115979124127675
 40
0.0115979124127675
 40
0.0231958248255375
 40
0.0231958248255375
 40
0.0347937372383162
 40
0.0347937372383162
 40
0.0463916496510869
 40
0.0463916496510869
 40
0.0579895620638592
 40
0.0579895620638592
 40
0.0695874744766313
 40
0.0695874744766313
 40
0.0811853868893926
 40
0.0811853868893926
 40
0.0927832993021718
 40
0.0927832993021718
 40
0.1043812117149396
 40
0.1043812117149396
 40
0.1159791241277087
 40
0.1159791241277087
 40
0.1275770365404828
 40
0.1275770365404828
 40
0.1391749489532567
 40
0.1391749489532567
 40
0.1507728613660295
 40
0.1507728613660295
 40
0.1623707737787972
 40
0.1623707737787972
 40
0.1739686861915705
 40
0.1739686861915705
 40
0.1855665986043434
 40
0.1855665986043434
 40
0.1971645110171077
 40
0.1971645110171077
 40
0.2087624234298822
 40
0.2087624234298822
 40
0.2203603358426584
 40
0.2203603358426584
 40
0.2319582482554297
 40
0.2319582482554297
 40
0.233340712807685
 40
0.233340712807685
 40
0.23472317735994
 40
0.23472317735994
 40
0.2361056419121932
 40
0.2361056419121932
 40
0.2374881064644475
 40
0.2374881064644475
 40
0.2388705710167014
 40
0.2388705710167014
 40
0.2402530355689578
 40
0.2402530355689578
 40
0.2416355001212104
 40
0.2416355001212104
 40
0.2430179646734649
 40
0.2430179646734649
 40
0.2444004292257175
 40
0.2444004292257175
 40
0.2457828937779756
 40
0.2457828937779756
 40
0.2471653583302302
 40
0.2471653583302302
 40
0.2485478228824825
 40
0.2485478228824825
 40
0.2499302874347357
 40
0.2499302874347357
 40
0.2513127519869897
 40
0.2513127519869897
 40
0.2526952165392464
 40
0.2526952165392464
 40
0.254077681091499
 40
0.254077681091499
 40
0.2554601456437545
 40
0.2554601456437545
 40
0.2568426101960083
 40
0.2568426101960083
 40
0.2582250747482629
 40
0.2582250747482629
 40
0.2596075393005173
 40
0.2596075393005173
 40
0.2609900038527706
 40
0.2609900038527706
 40
0.2623724684050252
 40
0.2623724684050252
 40
0.2637549329572805
 40
0.2637549329572805
 40
0.2651373975095346
 40
0.2651373975095346
 40
0.2665198620617887
 40
0.2665198620617887
 40
0.2679023266140431
 40
0.2679023266140431
 40
0.2692847911662975
 40
0.2692847911662975
 40
0.2706672557185514
 40
0.2706672557185514
 40
0.2720497202708053
 40
0.2720497202708053
 40
0.2734321848230603
 40
0.2734321848230603
 40
0.2748146493753149
 40
0.2748146493753149
 40
0.2761971139275683
 40
0.2761971139275683
 40
0.2775795784798217
 40
0.2775795784798217
 40
0.2789620430320778
 40
0.2789620430320778
 40
0.2803445075843304
 40
0.2803445075843304
 40
0.2817269721365848
 40
0.2817269721365848
 40
0.2831094366888386
 40
0.2831094366888386
 40
0.2844919012410936
 40
0.2844919012410936
 40
0.2858743657933486
 40
0.2858743657933486
 40
0.2872568303456038
 40
0.2872568303456038
 40
0.2886392948978596
 40
0.2886392948978596
 40
0.2900217594501087
 40
0.2900217594501087
 40
0.291404224002364
 40
0.291404224002364
 40
0.2927866885546169
 40
0.2927866885546169
 40
0.2941691531068714
 40
0.2941691531068714
 40
0.2955516176591267
 40
0.2955516176591267
 40
0.2969340822113848
 40
0.2969340822113848
 40
0.2983165467636353
 40
0.2983165467636353
 40
0.2996990113158877
 40
0.2996990113158877
 40
0.3010814758681448
 40
0.3010814758681448
 40
0.3024639404204029
 40
0.3024639404204029
 40
0.3038464049726525
 40
0.3038464049726525
 40
0.3052288695249129
 40
0.3052288695249129
 40
0.306611334077162
 40
0.306611334077162
 40
0.3079937986294183
 40
0.3079937986294183
 40
0.3093762631816674
 40
0.3093762631816674
 40
0.3107587277339259
 40
0.3107587277339259
 40
0.3121411922861788
 40
0.3121411922861788
 40
0.3135236568384326
 40
0.3135236568384326
 40
0.3149061213906901
 40
0.3149061213906901
 40
0.3162885859429406
 40
0.3162885859429406
 40
0.3176710504952002
 40
0.3176710504952002
 40
0.3190535150474483
 40
0.3190535150474483
 40
0.3204359795997074
 40
0.3204359795997074
 40
0.3218184441519635
 40
0.3218184441519635
 40
0.3232009087042125
 40
0.3232009087042125
 40
0.3245833732564666
 40
0.3245833732564666
 40
0.3259658378087216
 40
0.3259658378087216
 40
0.3273483023609754
 40
0.3273483023609754
 40
0.3287307669132351
 40
0.3287307669132351
 40
0.3301132314654863
 40
0.3301132314654863
 40
0.3794632314657944
 40
0.3794632314657944
 40
0.380153125408125
 40
0.380153125408125
 40
0.3808430193504581
 40
0.3808430193504581
 40
0.3815329132927893
 40
0.3815329132927893
 40
0.3822228072351174
 40
0.3822228072351174
 40
0.3829127011774568
 40
0.3829127011774568
 40
0.3836025951197831
 40
0.3836025951197831
 40
0.3842924890621092
 40
0.3842924890621092
 40
0.3849823830044429
 40
0.3849823830044429
 40
0.3856722769467767
 40
0.3856722769467767
 40
0.386362170889107
 40
0.386362170889107
 40
0.3870520648314398
 40
0.3870520648314398
 40
0.387741958773766
 40
0.387741958773766
 40
0.3884318527161048
 40
0.3884318527161048
 40
0.3891217466584306
 40
0.3891217466584306
 40
0.3898116406007576
 40
0.3898116406007576
 40
0.3905015345430925
 40
0.3905015345430925
 40
0.3911914284854179
 40
0.3911914284854179
 40
0.3918813224277575
 40
0.3918813224277575
 40
0.3925712163700822
 40
0.3925712163700822
 40
0.3932611103124122
 40
0.3932611103124122
 40
0.3939510042547471
 40
0.3939510042547471
 40
0.39464089819708
 40
0.39464089819708
 40
0.3953307921394065
 40
0.3953307921394065
 40
0.3960206860817407
 40
0.3960206860817407
 40
0.3967105800240731
 40
0.3967105800240731
 40
0.3974004739664015
 40
0.3974004739664015
 40
0.3980903679087343
 40
0.3980903679087343
 40
0.3987802618510657
 40
0.3987802618510657
 40
0.3994701557933958
 40
0.3994701557933958
 40
0.4001600497357249
 40
0.4001600497357249
 40
0.400849943678053
 40
0.400849943678053
 40
0.457428040250173
 40
0.457428040250173
 40
0.457428040250173
 10
-14.95471705178782
 20
1.290077783707145
 30
0.0
 10
-14.9605118650425
 20
1.290296946721698
 30
0.0
 10
-14.96630667829718
 20
1.290516109736251
 30
0.0
 10
-14.97209097287322
 20
1.290928213292609
 30
0.0
 10
-14.97787526744926
 20
1.291340316848966
 30
0.0
 10
-14.98364262110536
 20
1.291944903392892
 30
0.0
 10
-14.98940997476146
 20
1.292549489936818
 30
0.0
 10
-14.99515398406563
 20
1.293345888202245
 30
0.0
 10
-15.0008979933698
 20
1.294142286467672
 30
0.0
 10
-15.00661228080905
 20
1.295129612222
 30
0.0
 10
-15.01232656824831
 20
1.296116937976327
 30
0.0
 10
-15.01800478930953
 20
1.297294095002176
 30
0.0
 10
-15.02368301037075
 20
1.298471252028025
 30
0.0
 10
-15.02931886058493
 20
1.299836933340356
 30
0.0
 10
-15.03495471079911
 20
1.301202614652687
 30
0.0
 10
-15.04054193274117
 20
1.302755303949933
 30
0.0
 10
-15.04612915468323
 20
1.304307993247179
 30
0.0
 10
-15.05166154491952
 20
1.306045966594777
 30
0.0
 10
-15.05719393515581
 20
1.307783939942375
 30
0.0
 10
-15.06266535113176
 20
1.309705267686835
 30
0.0
 10
-15.06813676710772
 20
1.311626595431294
 30
0.0
 10
-15.07354113396785
 20
1.313729144342671
 30
0.0
 10
-15.07894550082798
 20
1.315831693254047
 30
0.0
 10
-15.08427681816071
 20
1.318113128894443
 30
0.0
 10
-15.08960813549345
 20
1.32039456453484
 30
0.0
 10
-15.09486048399334
 20
1.32285235385031
 30
0.0
 10
-15.10011283249324
 20
1.325310143165779
 30
0.0
 10
-15.10528038053311
 20
1.327941557298749
 30
0.0
 10
-15.11044792857298
 20
1.33057297143172
 30
0.0
 10
-15.1155249386787
 20
1.333375088750812
 30
0.0
 10
-15.12060194878443
 20
1.336177206069904
 30
0.0
 10
-15.12558278400519
 20
1.339146915413791
 30
0.0
 10
-15.13056361922596
 20
1.342116624757679
 30
0.0
 10
-15.13544274939291
 20
1.345250628889377
 30
0.0
 10
-15.14032187955986
 20
1.348384633021074
 30
0.0
 10
-15.1450938874262
 20
1.351679452288824
 30
0.0
 10
-15.14986589529255
 20
1.354974271556575
 30
0.0
 10
-15.15452548254824
 20
1.358426247757271
 30
0.0
 10
-15.15918506980394
 20
1.361878223957967
 30
0.0
 10
-15.16372706295836
 20
1.365483524398814
 30
0.0
 10
-15.16826905611278
 20
1.369088824839662
 30
0.0
 10
-15.16879556404768
 20
1.36953669921272
 30
0.0
 10
-15.16932207198259
 20
1.369984573585778
 30
0.0
 10
-15.16983278847093
 20
1.370450374753766
 30
0.0
 10
-15.17034350495927
 20
1.370916175921754
 30
0.0
 10
-15.17083781994463
 20
1.371399347480108
 30
0.0
 10
-15.17133213493
 20
1.371882519038462
 30
0.0
 10
-15.17180945794776
 20
1.372382483833495
 30
0.0
 10
-15.17228678096552
 20
1.372882448628529
 30
0.0
 10
-15.17274654184815
 20
1.373398609446852
 30
0.0
 10
-15.17320630273077
 20
1.373914770265175
 30
0.0
 10
-15.17364795228887
 20
1.374446510547072
 30
0.0
 10
-15.17408960184697
 20
1.374978250828968
 30
0.0
 10
-15.17451261252534
 20
1.375524935404884
 30
0.0
 10
-15.17493562320371
 20
1.376071619980799
 30
0.0
 10
-15.17533948971149
 20
1.376632595830056
 30
0.0
 10
-15.17574335621928
 20
1.377193571679313
 30
0.0
 10
-15.17612759613353
 20
1.377768168710154
 30
0.0
 10
-15.17651183604779
 20
1.378342765740995
 30
0.0
 10
-15.17687599038976
 20
1.378930297591011
 30
0.0
 10
-15.17724014473174
 20
1.379517829441027
 30
0.0
 10
-15.1775837785151
 20
1.380117594297029
 30
0.0
 10
-15.17792741229846
 20
1.38071735915303
 30
0.0
 10
-15.17825011504891
 20
1.381328640589367
 30
0.0
 10
-15.17857281779936
 20
1.381939922025704
 30
0.0
 10
-15.17887420404495
 20
1.382561989860048
 30
0.0
 10
-15.17917559029055
 20
1.383184057694391
 30
0.0
 10
-15.17945530002214
 20
1.383816168859942
 30
0.0
 10
-15.17973500975373
 20
1.384448280025492
 30
0.0
 10
-15.179992708855
 20
1.385089679458581
 30
0.0
 10
-15.18025040795627
 20
1.38573107889167
 30
0.0
 10
-15.18048578860282
 20
1.386381000433693
 30
0.0
 10
-15.18072116924938
 20
1.387030921975716
 30
0.0
 10
-15.18093395027649
 20
1.387688589288317
 30
0.0
 10
-15.1811467313036
 20
1.388346256600917
 30
0.0
 10
-15.181336658542
 20
1.389010884093332
 30
0.0
 10
-15.1815265857804
 20
1.389675511585746
 30
0.0
 10
-15.18169343235994
 20
1.390346305353199
 30
0.0
 10
-15.18186027893949
 20
1.391017099120653
 30
0.0
 10
-15.18200384556012
 20
1.391693257892689
 30
0.0
 10
-15.18214741218075
 20
1.392369416664724
 30
0.0
 10
-15.18226752735057
 20
1.393050132762328
 30
0.0
 10
-15.1823876425204
 20
1.393730848859932
 30
0.0
 10
-15.18248416276054
 20
1.394415309160316
 30
0.0
 10
-15.18258068300069
 20
1.395099769460701
 30
0.0
 10
-15.18265349301667
 20
1.395787156368587
 30
0.0
 10
-15.18272630303266
 20
1.396474543276473
 30
0.0
 10
-15.18277531585212
 20
1.397164035700715
 30
0.0
 10
-15.18282432867159
 20
1.397853528124958
 30
0.0
 10
-15.18284948574819
 20
1.398544302459352
 30
0.0
 10
-15.18287464282479
 20
1.399235076793745
 30
0.0
 10
-15.18287591410813
 20
1.399926307900828
 30
0.0
 10
-15.18287718539147
 20
1.40061753900791
 30
0.0
 10
-15.18285456936298
 20
1.4013084012046
 30
0.0
 10
-15.18283195333449
 20
1.40199926340129
 30
0.0
 10
-15.18278547700926
 20
1.402688931445173
 30
0.0
 10
-15.18273900068404
 20
1.403378599489056
 30
0.0
 10
-15.18266871957856
 20
1.404066249564146
 30
0.0
 10
-15.18259843847308
 20
1.404753899639237
 30
0.0
 10
-15.18250443653888
 20
1.405438710340035
 30
0.0
 10
-15.18241043460469
 20
1.406123521040834
 30
0.0
 10
-15.18229282412811
 20
1.406804674353503
 30
0.0
 10
-15.18217521365154
 20
1.407485827666172
 30
0.0
 10
-15.18203413511958
 20
1.408162509945666
 30
0.0
 10
-15.18189305658763
 20
1.408839192225159
 30
0.0
 10
-15.18172867852013
 20
1.409510595167128
 30
0.0
 10
-15.18156430045263
 20
1.410181998109097
 30
0.0
 10
-15.18137681920097
 20
1.410847319715419
 30
0.0
 10
-15.18118933794932
 20
1.411512641321741
 30
0.0
 10
-15.18097897746191
 20
1.412171086858515
 30
0.0
 10
-15.18076861697451
 20
1.412829532395289
 30
0.0
 10
-15.18053562852924
 20
1.413480315342154
 30
0.0
 10
-15.18030264008397
 20
1.414131098289019
 30
0.0
 10
-15.18004730198807
 20
1.414773441278661
 30
0.0
 10
-15.17979196389217
 20
1.415415784268303
 30
0.0
 10
-15.17951458114977
 20
1.416048920015028
 30
0.0
 10
-15.17923719840737
 20
1.416682055761753
 30
0.0
 10
-15.17893810235519
 20
1.41730522797802
 30
0.0
 10
-15.178639006303
 20
1.417928400194288
 30
0.0
 10
-15.17831855421452
 20
1.418540864494102
 30
0.0
 10
-15.17799810212604
 20
1.419153328793916
 30
0.0
 10
-15.17765667678476
 20
1.419754353582003
 30
0.0
 10
-15.17731525144348
 20
1.420355378370091
 30
0.0
 10
-15.17695326068571
 20
1.4209442457158
 30
0.0
 10
-15.17659126992794
 20
1.421533113061509
 30
0.0
 10
-15.17620914615555
 20
1.422109119556385
 30
0.0
 10
-15.17582702238317
 20
1.422685126051261
 30
0.0
 10
-15.17542522204719
 20
1.423247583649276
 30
0.0
 10
-15.17502342171121
 20
1.423810041247291
 30
0.0
 10
-15.1746024247665
 20
1.424358278086722
 30
0.0
 10
-15.1741814278218
 20
1.424906514926153
 30
0.0
 10
-15.1737417371538
 20
1.425439876132127
 30
0.0
 10
-15.17330204648581
 20
1.425973237338101
 30
0.0
 10
-15.17284418730981
 20
1.426491085804852
 30
0.0
 10
-15.17238632813381
 20
1.427008934271603
 30
0.0
 10
-15.17191084736758
 20
1.4275106514235
 30
0.0
 10
-15.17143536660136
 20
1.428012368575397
 30
0.0
 10
-15.17094283221185
 20
1.428497355105841
 30
0.0
 10
-15.17045029782235
 20
1.428982341636285
 30
0.0
 10
-15.16994129814725
 20
1.429450018223587
 30
0.0
 10
-15.16943229847215
 20
1.429917694810888
 30
0.0
 10
-15.16890744151711
 20
1.430367502810272
 30
0.0
 10
-15.16838258456207
 20
1.430817310809656
 30
0.0
 10
-15.16784249727444
 20
1.431248712920572
 30
0.0
 10
-15.16730240998682
 20
1.431680115031487
 30
0.0
 10
-15.16674773750674
 20
1.432092595939416
 30
0.0
 10
-15.16619306502666
 20
1.432505076847346
 30
0.0
 10
-15.16562446991645
 20
1.432898143839354
 30
0.0
 10
-15.16505587480625
 20
1.433291210831362
 30
0.0
 10
-15.16447403625895
 20
1.433664394384649
 30
0.0
 10
-15.16389219771166
 20
1.434037577937936
 30
0.0
 10
-15.16329781073976
 20
1.434390432280685
 30
0.0
 10
-15.16270342376787
 20
1.434743286623434
 30
0.0
 10
-15.16209719837307
 20
1.435075390267291
 30
0.0
 10
-15.16149097297827
 20
1.435407493911149
 30
0.0
 10
-15.16087363330341
 20
1.435718450154698
 30
0.0
 10
-15.16025629362855
 20
1.436029406398246
 30
0.0
 10
-15.15962857709258
 20
1.436318843800867
 30
0.0
 10
-15.15900086055662
 20
1.436608281203489
 30
0.0
 10
-15.15836351697378
 20
1.436875854029056
 30
0.0
 10
-15.15772617339095
 20
1.437143426854623
 30
0.0
 10
-15.1570799640751
 20
1.437388815484482
 30
0.0
 10
-15.15643375475925
 20
1.437634204114341
 30
0.0
 10
-15.15577945161443
 20
1.437857115429103
 30
0.0
 10
-15.15512514846962
 20
1.438080026743865
 30
0.0
 10
-15.15446353306808
 20
1.438280194473538
 30
0.0
 10
-15.15380191766654
 20
1.438480362203211
 30
0.0
 10
-15.15313378031506
 20
1.438657547245263
 30
0.0
 10
-15.15246564296359
 20
1.438834732287315
 30
0.0
 10
-15.15179178175952
 20
1.438988722992284
 30
0.0
 10
-15.15111792055546
 20
1.439142713697253
 30
0.0
 10
-15.15043914043335
 20
1.439273326121566
 30
0.0
 10
-15.14976036031124
 20
1.439403938545879
 30
0.0
 10
-15.14907747208132
 20
1.439511016671574
 30
0.0
 10
-15.14839458385141
 20
1.439618094797269
 30
0.0
 10
-15.14770840323111
 20
1.439701510718359
 30
0.0
 10
-15.14702222261081
 20
1.439784926639448
 30
0.0
 10
-15.14633356925036
 20
1.439844580714707
 30
0.0
 10
-15.14564491588991
 20
1.439904234789966
 30
0.0
 10
-15.14495461239323
 20
1.439940055761951
 30
0.0
 10
-15.14426430889655
 20
1.439975876733937
 30
0.0
 10
-15.14357317983869
 20
1.439987821814108
 30
0.0
 10
-15.14288205078083
 20
1.439999766894279
 30
0.0
 10
-15.11820705078083
 20
1.439999854032132
 30
0.0
 10
-15.09353205078083
 20
1.439999941169985
 30
0.0
 10
-15.09318715511991
 20
1.440005890623306
 30
0.0
 10
-15.09284225945899
 20
1.440011840076626
 30
0.0
 10
-15.09249777418845
 20
1.440029681357347
 30
0.0
 10
-15.09215328891791
 20
1.440047522638068
 30
0.0
 10
-15.09180962393981
 20
1.440077234516901
 30
0.0
 10
-15.09146595896171
 20
1.440106946395733
 30
0.0
 10
-15.09112352320204
 20
1.440148493518596
 30
0.0
 10
-15.09078108744238
 20
1.440190040641458
 30
0.0
 10
-15.09044028836449
 20
1.440243373571546
 30
0.0
 10
-15.09009948928661
 20
1.440296706501634
 30
0.0
 10
-15.08976073240638
 20
1.440361761778242
 30
0.0
 10
-15.08942197552616
 20
1.440426817054851
 30
0.0
 10
-15.08908566392945
 20
1.440503517268889
 30
0.0
 10
-15.08874935233274
 20
1.440580217482927
 30
0.0
 10
-15.08841588619577
 20
1.440668471369025
 30
0.0
 10
-15.0880824200588
 20
1.440756725255122
 30
0.0
 10
-15.08775219617199
 20
1.440856427800228
 30
0.0
 10
-15.08742197228519
 20
1.440956130345334
 30
0.0
 10
-15.08709538358103
 20
1.441067162913668
 30
0.0
 10
-15.08676879487687
 20
1.441178195482002
 30
0.0
 10
-15.08644622996233
 20
1.441300425956223
 30
0.0
 10
-15.0861236650478
 20
1.441422656430444
 30
0.0
 10
-15.08580550774198
 20
1.441555939368853
 30
0.0
 10
-15.08548735043617
 20
1.441689222307261
 30
0.0
 10
-15.08517397931355
 20
1.441833399116863
 30
0.0
 10
-15.08486060819093
 20
1.441977575926464
 30
0.0
 10
-15.08455239613094
 20
1.442132475051676
 30
0.0
 10
-15.08424418407095
 20
1.442287374176888
 30
0.0
 10
-15.08394149781425
 20
1.442452811303676
 30
0.0
 10
-15.08363881155755
 20
1.442618248430464
 30
0.0
 10
-15.08334201126966
 20
1.442794026705654
 30
0.0
 10
-15.08304521098178
 20
1.442969804980844
 30
0.0
 10
-15.08275464982455
 20
1.443155715246359
 30
0.0
 10
-15.08246408866732
 20
1.443341625511873
 30
0.0
 10
-15.08218011237864
 20
1.443537446553608
 30
0.0
 10
-15.08189613608996
 20
1.443733267595344
 30
0.0
 10
-15.08161908257243
 20
1.443938766406391
 30
0.0
 10
-15.08134202905491
 20
1.444144265217437
 30
0.0
 10
-15.08107222797373
 20
1.444359197275336
 30
0.0
 10
-15.08080242689256
 20
1.444574129333235
 30
0.0
 10
-15.08054019928328
 20
1.444798238890932
 30
0.0
 10
-15.08027797167401
 20
1.445022348448629
 30
0.0
 10
-15.08002362956053
 20
1.445255368838789
 30
0.0
 10
-15.07976928744706
 20
1.445488389228949
 30
0.0
 10
-15.07952313347036
 20
1.445730043181264
 30
0.0
 10
-15.07927697949366
 20
1.445971697133578
 30
0.0
 10
-15.07903930655165
 20
1.446221697104686
 30
0.0
 10
-15.07880163360964
 20
1.446471697075793
 30
0.0
 10
-15.07857272450869
 20
1.446729745591428
 30
0.0
 10
-15.07834381540775
 20
1.446987794107063
 30
0.0
 10
-15.07812394252617
 20
1.447253584116019
 30
0.0
 10
-15.07790406964459
 20
1.447519374124976
 30
0.0
 10
-15.07769349460849
 20
1.447792589364468
 30
0.0
 10
-15.0774829195724
 20
1.448065804603959
 30
0.0
 10
-15.07728189294444
 20
1.448346119975938
 30
0.0
 10
-15.07708086631648
 20
1.448626435347916
 30
0.0
 10
-15.07688962729767
 20
1.448913517305904
 30
0.0
 10
-15.07669838827887
 20
1.449200599263893
 30
0.0
 10
-15.07651716442399
 20
1.449494106209875
 30
0.0
 10
-15.07633594056912
 20
1.449787613155857
 30
0.0
 10
-15.07616494751593
 20
1.450087195846739
 30
0.0
 10
-15.07599395446274
 20
1.450386778537621
 30
0.0
 10
-15.06239592147854
 20
1.475193304934753
 30
0.0
 10
-15.04879788849434
 20
1.499999831331886
 30
0.0
  0
ENDSEC
  0
SECTION
  2
OBJECTS
  0
DICTIONARY
  5
C
330
0
100
AcDbDictionary
281
     1
  3
ACAD_GROUP
350
D
  3
ACAD_LAYOUT
350
1A
  3
ACAD_MLEADERSTYLE
350
4E
  3
ACAD_MLINESTYLE
350
17
  3
ACAD_PLOTSETTINGS
350
19
  3
ACAD_PLOTSTYLENAME
350
E
  3
ACAD_TABLESTYLE
350
4D
  3
ACAD_VISUALSTYLE
350
2A
  0
DICTIONARY
  5
D
102
{ACAD_REACTORS
330
C
102
}
330
C
100
AcDbDictionary
281
     1
  0
DICTIONARY
  5
1A
102
{ACAD_REACTORS
330
C
102
}
330
C
100
AcDbDictionary
281
     1
  3
Layout1
350
1E
  3
Layout2
350
26
  3
Model
350
22
  0
DICTIONARY
  5
4E
102
{ACAD_REACTORS
330
C
102
}
330
C
100
AcDbDictionary
281
     1
  0
DICTIONARY
  5
17
102
{ACAD_REACTORS
330
C
102
}
330
C
100
AcDbDictionary
281
     1
  3
Standard
350
18
  0
DICTIONARY
  5
19
102
{ACAD_REACTORS
330
C
102
}
330
C
100
AcDbDictionary
281
     1
  0
ACDBDICTIONARYWDFLT
  5
E
102
{ACAD_REACTORS
330
C
102
}
330
C
100
AcDbDictionary
281
     1
  3
Normal
350
F
100
AcDbDictionaryWithDefault
340
F
  0
DICTIONARY
  5
4D
102
{ACAD_REACTORS
330
C
102
}
330
C
100
AcDbDictionary
281
     1
  0
DICTIONARY
  5
2A
102
{ACAD_REACTORS
330
C
102
}
330
C
100
AcDbDictionary
281
     1
  3
2dWireframe
350
2F
  3
3D Hidden
350
31
  3
3dWireframe
350
30
  3
Basic
350
32
  3
Brighten
350
36
  3
ColorChange
350
3A
  3
Conceptual
350
34
  3
Dim
350
35
  3
Facepattern
350
39
  3
Flat
350
2B
  3
FlatWithEdges
350
2C
  3
Gouraud
350
2D
  3
GouraudWithEdges
350
2E
  3
Linepattern
350
38
  3
Realistic
350
33
  3
Thicken
350
37
  0
LAYOUT
  5
1E
102
{ACAD_REACTORS
330
1A
102
}
330
1A
100
AcDbPlotSettings
  1

  2
none_device
  4

  6

 40
0.0
 41
0.0
 42
0.0
 43
0.0
 44
0.0
 45
0.0
 46
0.0
 47
0.0
 48
0.0
 49
0.0
140
0.0
141
0.0
142
1.0
143
1.0
 70
   688
 72
     0
 73
     0
 74
     5
  7

 75
    16
 76
     0
 77
     2
 78
   300
147
1.0
148
0.0
149
0.0
100
AcDbLayout
  1
Layout1
 70
     1
 71
     1
 10
0.0
 20
0.0
 11
12.0
 21
9.0
 12
0.0
 22
0.0
 32
0.0
 14
1.000000000000000E+20
 24
1.000000000000000E+20
 34
1.000000000000000E+20
 15
-1.000000000000000E+20
 25
-1.000000000000000E+20
 35
-1.000000000000000E+20
146
0.0
 13
0.0
 23
0.0
 33
0.0
 16
1.0
 26
0.0
 36
0.0
 17
0.0
 27
1.0
 37
0.0
 76
     0
330
1B
  0
LAYOUT
  5
26
102
{ACAD_REACTORS
330
1A
102
}
330
1A
100
AcDbPlotSettings
  1

  2
none_device
  4

  6

 40
0.0
 41
0.0
 42
0.0
 43
0.0
 44
0.0
 45
0.0
 46
0.0
 47
0.0
 48
0.0
 49
0.0
140
0.0
141
0.0
142
1.0
143
1.0
 70
   688
 72
     0
 73
     0
 74
     5
  7

 75
    16
 76
     0
 77
     2
 78
   300
147
1.0
148
0.0
149
0.0
100
AcDbLayout
  1
Layout2
 70
     1
 71
     2
 10
0.0
 20
0.0
 11
0.0
 21
0.0
 12
0.0
 22
0.0
 32
0.0
 14
0.0
 24
0.0
 34
0.0
 15
0.0
 25
0.0
 35
0.0
146
0.0
 13
0.0
 23
0.0
 33
0.0
 16
1.0
 26
0.0
 36
0.0
 17
0.0
 27
1.0
 37
0.0
 76
     0
330
23
  0
LAYOUT
  5
22
102
{ACAD_REACTORS
330
1A
102
}
330
1A
100
AcDbPlotSettings
  1

  2
none_device
  4

  6

 40
0.0
 41
0.0
 42
0.0
 43
0.0
 44
0.0
 45
0.0
 46
0.0
 47
0.0
 48
0.0
 49
0.0
140
0.0
141
0.0
142
1.0
143
1.0
 70
  1712
 72
     0
 73
     0
 74
     0
  7

 75
     0
 76
     0
 77
     2
 78
   300
147
1.0
148
0.0
149
0.0
100
AcDbLayout
  1
Model
 70
     1
 71
     0
 10
0.0
 20
0.0
 11
12.0
 21
9.0
 12
0.0
 22
0.0
 32
0.0
 14
-18.25018705078082
 24
-0.0000000000000018
 34
0.0
 15
50.88628097125557
 25
48.750047445007
 35
0.0
146
0.0
 13
0.0
 23
0.0
 33
0.0
 16
1.0
 26
0.0
 36
0.0
 17
0.0
 27
1.0
 37
0.0
 76
     0
330
1F
331
29
  0
MLINESTYLE
  5
18
102
{ACAD_REACTORS
330
17
102
}
330
17
100
AcDbMlineStyle
  2
Standard
 70
     0
  3

 62
   256
 51
90.0
 52
90.0
 71
     2
 49
0.5
 62
   256
  6
BYLAYER
 49
-0.5
 62
   256
  6
BYLAYER
  0
ACDBPLACEHOLDER
  5
F
102
{ACAD_REACTORS
330
E
102
}
330
E
  0
VISUALSTYLE
  5
2F
102
{ACAD_REACTORS
330
2A
102
}
330
2A
100
AcDbVisualStyle
  2
2dWireframe
 70
     4
 71
     0
 72
     2
 73
     0
 90
        0
 40
-0.6
 41
-30.0
 62
     5
 63
     7
421
 16777215
 74
     1
 91
        4
 64
     7
 65
   257
 75
     1
175
     1
 42
1.0
 92
        0
 66
   257
 43
1.0
 76
     1
 77
     6
 78
     2
 67
     7
 79
     5
170
     0
171
     0
290
     0
174
     0
 93
        1
 44
0.0
173
     0
291
     0
 45
0.0
1001
ACAD
1000
AcDbSavedByObjectVersion
1070
     0
  0
VISUALSTYLE
  5
31
102
{ACAD_REACTORS
330
2A
102
}
330
2A
100
AcDbVisualStyle
  2
3D Hidden
 70
     6
 71
     1
 72
     2
 73
     2
 90
        0
 40
-0.6
 41
-30.0
 62
     5
 63
     7
421
 16777215
 74
     2
 91
        2
 64
     7
 65
   257
 75
     2
175
     1
 42
40.0
 92
        0
 66
   257
 43
1.0
 76
     1
 77
     6
 78
     2
 67
     7
 79
     3
170
     0
171
     0
290
     0
174
     0
 93
        1
 44
0.0
173
     0
291
     0
 45
0.0
1001
ACAD
1000
AcDbSavedByObjectVersion
1070
     0
  0
VISUALSTYLE
  5
30
102
{ACAD_REACTORS
330
2A
102
}
330
2A
100
AcDbVisualStyle
  2
3dWireframe
 70
     5
 71
     0
 72
     2
 73
     0
 90
        0
 40
-0.6
 41
-30.0
 62
     5
 63
     7
421
 16777215
 74
     1
 91
        4
 64
     7
 65
   257
 75
     1
175
     1
 42
1.0
 92
        0
 66
   257
 43
1.0
 76
     1
 77
     6
 78
     2
 67
     7
 79
     5
170
     0
171
     0
290
     0
174
     0
 93
        1
 44
0.0
173
     0
291
     0
 45
0.0
1001
ACAD
1000
AcDbSavedByObjectVersion
1070
     0
  0
VISUALSTYLE
  5
32
102
{ACAD_REACTORS
330
2A
102
}
330
2A
100
AcDbVisualStyle
  2
Basic
 70
     7
 71
     1
 72
     0
 73
     1
 90
        0
 40
-0.6
 41
-30.0
 62
     5
 63
     7
421
 16777215
 74
     0
 91
        4
 64
     7
 65
   257
 75
     1
175
     1
 42
1.0
 92
        8
 66
     7
 43
1.0
 76
     1
 77
     6
 78
     2
 67
     7
 79
     5
170
     0
171
     0
290
     0
174
     0
 93
        1
 44
0.0
173
     0
291
     1
 45
0.0
1001
ACAD
1000
AcDbSavedByObjectVersion
1070
     0
  0
VISUALSTYLE
  5
36
102
{ACAD_REACTORS
330
2A
102
}
330
2A
100
AcDbVisualStyle
  2
Brighten
 70
    12
 71
     2
 72
     2
 73
     0
 90
        0
 40
-0.6
 41
-30.0
 62
     5
 63
     7
421
 16777215
 74
     1
 91
        4
 64
     7
 65
   257
 75
     1
175
     1
 42
1.0
 92
        8
 66
     7
 43
1.0
 76
     1
 77
     6
 78
     2
 67
     7
 79
     5
170
     0
171
     0
290
     0
174
     0
 93
        1
 44
50.0
173
     0
291
     1
 45
0.0
1001
ACAD
1000
AcDbSavedByObjectVersion
1070
     0
  0
VISUALSTYLE
  5
3A
102
{ACAD_REACTORS
330
2A
102
}
330
2A
100
AcDbVisualStyle
  2
ColorChange
 70
    16
 71
     2
 72
     2
 73
     3
 90
        0
 40
-0.6
 41
-30.0
 62
     5
 63
     8
421
  8421504
 74
     1
 91
        4
 64
     7
 65
   257
 75
     1
175
     1
 42
1.0
 92
        8
 66
     8
424
  8421504
 43
1.0
 76
     1
 77
     6
 78
     2
 67
     7
 79
     5
170
     0
171
     0
290
     0
174
     0
 93
        1
 44
0.0
173
     0
291
     1
 45
0.0
1001
ACAD
1000
AcDbSavedByObjectVersion
1070
     0
  0
VISUALSTYLE
  5
34
102
{ACAD_REACTORS
330
2A
102
}
330
2A
100
AcDbVisualStyle
  2
Conceptual
 70
     9
 71
     3
 72
     2
 73
     0
 90
        0
 40
-0.6
 41
-30.0
 62
     5
 63
     7
421
 16777215
 74
     2
 91
        2
 64
     7
 65
   257
 75
     1
175
     1
 42
40.0
 92
        8
 66
     7
 43
1.0
 76
     1
 77
     6
 78
     2
 67
     7
 79
     3
170
     0
171
     0
290
     0
174
     0
 93
        1
 44
0.0
173
     0
291
     0
 45
0.0
1001
ACAD
1000
AcDbSavedByObjectVersion
1070
     0
  0
VISUALSTYLE
  5
35
102
{ACAD_REACTORS
330
2A
102
}
330
2A
100
AcDbVisualStyle
  2
Dim
 70
    11
 71
     2
 72
     2
 73
     0
 90
        0
 40
-0.6
 41
-30.0
 62
     5
 63
     7
421
 16777215
 74
     1
 91
        4
 64
     7
 65
   257
 75
     1
175
     1
 42
1.0
 92
        8
 66
     7
 43
1.0
 76
     1
 77
     6
 78
     2
 67
     7
 79
     5
170
     0
171
     0
290
     0
174
     0
 93
        1
 44
-50.0
173
     0
291
     1
 45
0.0
1001
ACAD
1000
AcDbSavedByObjectVersion
1070
     0
  0
VISUALSTYLE
  5
39
102
{ACAD_REACTORS
330
2A
102
}
330
2A
100
AcDbVisualStyle
  2
Facepattern
 70
    15
 71
     2
 72
     2
 73
     0
 90
        0
 40
-0.6
 41
-30.0
 62
     5
 63
     7
421
 16777215
 74
     1
 91
        4
 64
     7
 65
   257
 75
     1
175
     1
 42
1.0
 92
        8
 66
     7
 43
1.0
 76
     1
 77
     6
 78
     2
 67
     7
 79
     5
170
     0
171
     0
290
     0
174
     0
 93
        1
 44
0.0
173
     0
291
     1
 45
0.0
1001
ACAD
1000
AcDbSavedByObjectVersion
1070
     0
  0
VISUALSTYLE
  5
2B
102
{ACAD_REACTORS
330
2A
102
}
330
2A
100
AcDbVisualStyle
  2
Flat
 70
     0
 71
     2
 72
     1
 73
     1
 90
        2
 40
-0.6
 41
30.0
 62
     5
 63
     7
421
 16777215
 74
     0
 91
        4
 64
     7
 65
   257
 75
     1
175
     1
 42
1.0
 92
        8
 66
     7
 43
1.0
 76
     1
 77
     6
 78
     2
 67
     7
 79
     5
170
     0
171
     0
290
     0
174
     0
 93
       13
 44
0.0
173
     0
291
     1
 45
0.0
1001
ACAD
1000
AcDbSavedByObjectVersion
1070
     0
  0
VISUALSTYLE
  5
2C
102
{ACAD_REACTORS
330
2A
102
}
330
2A
100
AcDbVisualStyle
  2
FlatWithEdges
 70
     1
 71
     2
 72
     1
 73
     1
 90
        2
 40
-0.6
 41
30.0
 62
     5
 63
     7
421
 16777215
 74
     1
 91
        4
 64
     7
 65
   257
 75
     1
175
     1
 42
1.0
 92
        0
 66
   257
 43
1.0
 76
     1
 77
     6
 78
     2
 67
     7
 79
     5
170
     0
171
     0
290
     0
174
     0
 93
       13
 44
0.0
173
     0
291
     1
 45
0.0
1001
ACAD
1000
AcDbSavedByObjectVersion
1070
     0
  0
VISUALSTYLE
  5
2D
102
{ACAD_REACTORS
330
2A
102
}
330
2A
100
AcDbVisualStyle
  2
Gouraud
 70
     2
 71
     2
 72
     2
 73
     1
 90
        2
 40
-0.6
 41
30.0
 62
     5
 63
     7
421
 16777215
 74
     0
 91
        4
 64
     7
 65
   257
 75
     1
175
     1
 42
1.0
 92
        0
 66
     7
 43
1.0
 76
     1
 77
     6
 78
     2
 67
     7
 79
     5
170
     0
171
     0
290
     0
174
     0
 93
       13
 44
0.0
173
     0
291
     1
 45
0.0
1001
ACAD
1000
AcDbSavedByObjectVersion
1070
     0
  0
VISUALSTYLE
  5
2E
102
{ACAD_REACTORS
330
2A
102
}
330
2A
100
AcDbVisualStyle
  2
GouraudWithEdges
 70
     3
 71
     2
 72
     2
 73
     1
 90
        2
 40
-0.6
 41
30.0
 62
     5
 63
     7
421
 16777215
 74
     1
 91
        4
 64
     7
 65
   257
 75
     1
175
     1
 42
1.0
 92
        0
 66
   257
 43
1.0
 76
     1
 77
     6
 78
     2
 67
     7
 79
     5
170
     0
171
     0
290
     0
174
     0
 93
       13
 44
0.0
173
     0
291
     1
 45
0.0
1001
ACAD
1000
AcDbSavedByObjectVersion
1070
     0
  0
VISUALSTYLE
  5
38
102
{ACAD_REACTORS
330
2A
102
}
330
2A
100
AcDbVisualStyle
  2
Linepattern
 70
    14
 71
     2
 72
     2
 73
     0
 90
        0
 40
-0.6
 41
-30.0
 62
     5
 63
     7
421
 16777215
 74
     1
 91
        4
 64
     7
 65
   257
 75
     7
175
     7
 42
1.0
 92
        8
 66
     7
 43
1.0
 76
     1
 77
     6
 78
     2
 67
     7
 79
     5
170
     0
171
     0
290
     0
174
     0
 93
        1
 44
0.0
173
     0
291
     1
 45
0.0
1001
ACAD
1000
AcDbSavedByObjectVersion
1070
     0
  0
VISUALSTYLE
  5
33
102
{ACAD_REACTORS
330
2A
102
}
330
2A
100
AcDbVisualStyle
  2
Realistic
 70
     8
 71
     2
 72
     2
 73
     0
 90
        0
 40
-0.6
 41
-30.0
 62
     5
 63
     7
421
 16777215
 74
     1
 91
        0
 64
     7
 65
   257
 75
     1
175
     1
 42
1.0
 92
        8
 66
     8
424
  7895160
 43
1.0
 76
     1
 77
     6
 78
     2
 67
     7
 79
     5
170
     0
171
     0
290
     0
174
     0
 93
       13
 44
0.0
173
     0
291
     0
 45
0.0
1001
ACAD
1000
AcDbSavedByObjectVersion
1070
     0
  0
VISUALSTYLE
  5
37
102
{ACAD_REACTORS
330
2A
102
}
330
2A
100
AcDbVisualStyle
  2
Thicken
 70
    13
 71
     2
 72
     2
 73
     0
 90
        0
 40
-0.6
 41
-30.0
 62
     5
 63
     7
421
 16777215
 74
     1
 91
        4
 64
     7
 65
   257
 75
     1
175
     1
 42
1.0
 92
       12
 66
     7
 43
1.0
 76
     1
 77
     6
 78
     2
 67
     7
 79
     5
170
     0
171
     0
290
     0
174
     0
 93
        1
 44
0.0
173
     0
291
     1
 45
0.0
1001
ACAD
1000
AcDbSavedByObjectVersion
1070
     0
  0
ENDSEC
  0
EOF
