  0
SECTION
  2
HEADER
  9
$ACADVER
  1
AC1018
  9
$ACADMAINTVER
 70
     0
  9
$DWGCODEPAGE
  3
ANSI_1252
  9
$INSBASE
 10
0.0
 20
0.0
 30
0.0
  9
$EXTMIN
 10
-18.25022029962906
 20
-0.0000004998286764
 30
0.0
  9
$EXTMAX
 10
45.13643151242577
 20
49.25005260528809
 30
0.0
  9
$LIMMIN
 10
0.0
 20
0.0
  9
$LIMMAX
 10
12.0
 20
9.0
  9
$ORTHOMODE
 70
     0
  9
$REGENMODE
 70
     1
  9
$FILLMODE
 70
     1
  9
$QTEXTMODE
 70
     0
  9
$MIRRTEXT
 70
     1
  9
$LTSCALE
 40
0.0393700787401575
  9
$ATTMODE
 70
     1
  9
$TEXTSIZE
 40
0.2
  9
$TRACEWID
 40
0.05
  9
$TEXTSTYLE
  7
Standard
  9
$CLAYER
  8
DEFAULT
  9
$CELTYPE
  6
ByLayer
  9
$CECOLOR
 62
   256
  9
$CELTSCALE
 40
1.0
  9
$DISPSILH
 70
     0
  9
$DIMSCALE
 40
1.0
  9
$DIMASZ
 40
0.18
  9
$DIMEXO
 40
0.0625
  9
$DIMDLI
 40
0.38
  9
$DIMRND
 40
0.0
  9
$DIMDLE
 40
0.0
  9
$DIMEXE
 40
0.18
  9
$DIMTP
 40
0.0
  9
$DIMTM
 40
0.0
  9
$DIMTXT
 40
0.18
  9
$DIMCEN
 40
0.09
  9
$DIMTSZ
 40
0.0
  9
$DIMTOL
 70
     0
  9
$DIMLIM
 70
     0
  9
$DIMTIH
 70
     1
  9
$DIMTOH
 70
     1
  9
$DIMSE1
 70
     0
  9
$DIMSE2
 70
     0
  9
$DIMTAD
 70
     0
  9
$DIMZIN
 70
     0
  9
$DIMBLK
  1

  9
$DIMASO
 70
     1
  9
$DIMSHO
 70
     1
  9
$DIMPOST
  1

  9
$DIMAPOST
  1

  9
$DIMALT
 70
     0
  9
$DIMALTD
 70
     2
  9
$DIMALTF
 40
25.4
  9
$DIMLFAC
 40
1.0
  9
$DIMTOFL
 70
     0
  9
$DIMTVP
 40
0.0
  9
$DIMTIX
 70
     0
  9
$DIMSOXD
 70
     0
  9
$DIMSAH
 70
     0
  9
$DIMBLK1
  1

  9
$DIMBLK2
  1

  9
$DIMSTYLE
  2
Standard
  9
$DIMCLRD
 70
     0
  9
$DIMCLRE
 70
     0
  9
$DIMCLRT
 70
     0
  9
$DIMTFAC
 40
1.0
  9
$DIMGAP
 40
0.09
  9
$DIMJUST
 70
     0
  9
$DIMSD1
 70
     0
  9
$DIMSD2
 70
     0
  9
$DIMTOLJ
 70
     1
  9
$DIMTZIN
 70
     0
  9
$DIMALTZ
 70
     0
  9
$DIMALTTZ
 70
     0
  9
$DIMUPT
 70
     0
  9
$DIMDEC
 70
     4
  9
$DIMTDEC
 70
     4
  9
$DIMALTU
 70
     2
  9
$DIMALTTD
 70
     2
  9
$DIMTXSTY
  7
Standard
  9
$DIMAUNIT
 70
     0
  9
$DIMADEC
 70
     0
  9
$DIMALTRND
 40
0.0
  9
$DIMAZIN
 70
     0
  9
$DIMDSEP
 70
    46
  9
$DIMATFIT
 70
     3
  9
$DIMFRAC
 70
     0
  9
$DIMLDRBLK
  1

  9
$DIMLUNIT
 70
     2
  9
$DIMLWD
 70
    -2
  9
$DIMLWE
 70
    -2
  9
$DIMTMOVE
 70
     2
  9
$LUNITS
 70
     2
  9
$LUPREC
 70
     3
  9
$SKETCHINC
 40
0.1
  9
$FILLETRAD
 40
0.5
  9
$AUNITS
 70
     0
  9
$AUPREC
 70
     0
  9
$MENU
  1
.
  9
$ELEVATION
 40
0.0
  9
$PELEVATION
 40
0.0
  9
$THICKNESS
 40
0.0
  9
$LIMCHECK
 70
     0
  9
$CHAMFERA
 40
0.5
  9
$CHAMFERB
 40
0.5
  9
$CHAMFERC
 40
1.0
  9
$CHAMFERD
 40
0.0
  9
$SKPOLY
 70
     0
  9
$TDCREATE
 40
2456045.401559572
  9
$TDUCREATE
 40
2456045.568226238
  9
$TDUPDATE
 40
2456045.401559583
  9
$TDUUPDATE
 40
2456045.56822625
  9
$TDINDWG
 40
0.0000000116
  9
$TDUSRTIMER
 40
0.0000000116
  9
$USRTIMER
 70
     1
  9
$ANGBASE
 50
0.0
  9
$ANGDIR
 70
     0
  9
$PDMODE
 70
     0
  9
$PDSIZE
 40
0.0
  9
$PLINEWID
 40
0.0
  9
$SPLFRAME
 70
     0
  9
$SPLINETYPE
 70
     6
  9
$SPLINESEGS
 70
     8
  9
$HANDSEED
  5
4F
  9
$SURFTAB1
 70
     6
  9
$SURFTAB2
 70
     6
  9
$SURFTYPE
 70
     6
  9
$SURFU
 70
     6
  9
$SURFV
 70
     6
  9
$UCSBASE
  2

  9
$UCSNAME
  2

  9
$UCSORG
 10
0.0
 20
0.0
 30
0.0
  9
$UCSXDIR
 10
1.0
 20
0.0
 30
0.0
  9
$UCSYDIR
 10
0.0
 20
1.0
 30
0.0
  9
$UCSORTHOREF
  2

  9
$UCSORTHOVIEW
 70
     0
  9
$UCSORGTOP
 10
0.0
 20
0.0
 30
0.0
  9
$UCSORGBOTTOM
 10
0.0
 20
0.0
 30
0.0
  9
$UCSORGLEFT
 10
0.0
 20
0.0
 30
0.0
  9
$UCSORGRIGHT
 10
0.0
 20
0.0
 30
0.0
  9
$UCSORGFRONT
 10
0.0
 20
0.0
 30
0.0
  9
$UCSORGBACK
 10
0.0
 20
0.0
 30
0.0
  9
$PUCSBASE
  2

  9
$PUCSNAME
  2

  9
$PUCSORG
 10
0.0
 20
0.0
 30
0.0
  9
$PUCSXDIR
 10
1.0
 20
0.0
 30
0.0
  9
$PUCSYDIR
 10
0.0
 20
1.0
 30
0.0
  9
$PUCSORTHOREF
  2

  9
$PUCSORTHOVIEW
 70
     0
  9
$PUCSORGTOP
 10
0.0
 20
0.0
 30
0.0
  9
$PUCSORGBOTTOM
 10
0.0
 20
0.0
 30
0.0
  9
$PUCSORGLEFT
 10
0.0
 20
0.0
 30
0.0
  9
$PUCSORGRIGHT
 10
0.0
 20
0.0
 30
0.0
  9
$PUCSORGFRONT
 10
0.0
 20
0.0
 30
0.0
  9
$PUCSORGBACK
 10
0.0
 20
0.0
 30
0.0
  9
$USERI1
 70
     0
  9
$USERI2
 70
     0
  9
$USERI3
 70
     0
  9
$USERI4
 70
     0
  9
$USERI5
 70
     0
  9
$USERR1
 40
0.0
  9
$USERR2
 40
0.0
  9
$USERR3
 40
0.0
  9
$USERR4
 40
0.0
  9
$USERR5
 40
0.0
  9
$WORLDVIEW
 70
     1
  9
$SHADEDGE
 70
     3
  9
$SHADEDIF
 70
    70
  9
$TILEMODE
 70
     1
  9
$MAXACTVP
 70
    64
  9
$PINSBASE
 10
0.0
 20
0.0
 30
0.0
  9
$PLIMCHECK
 70
     0
  9
$PEXTMIN
 10
1.000000000000000E+20
 20
1.000000000000000E+20
 30
1.000000000000000E+20
  9
$PEXTMAX
 10
-1.000000000000000E+20
 20
-1.000000000000000E+20
 30
-1.000000000000000E+20
  9
$PLIMMIN
 10
0.0
 20
0.0
  9
$PLIMMAX
 10
12.0
 20
9.0
  9
$UNITMODE
 70
     0
  9
$VISRETAIN
 70
     1
  9
$PLINEGEN
 70
     0
  9
$PSLTSCALE
 70
     1
  9
$TREEDEPTH
 70
  3020
  9
$CMLSTYLE
  2
Standard
  9
$CMLJUST
 70
     0
  9
$CMLSCALE
 40
1.0
  9
$PROXYGRAPHICS
 70
     1
  9
$MEASUREMENT
 70
     0
  9
$CELWEIGHT
370
    -1
  9
$ENDCAPS
280
     0
  9
$JOINSTYLE
280
     0
  9
$LWDISPLAY
290
     0
  9
$INSUNITS
 70
     1
  9
$HYPERLINKBASE
  1

  9
$STYLESHEET
  1

  9
$XEDIT
290
     1
  9
$CEPSNTYPE
380
     0
  9
$PSTYLEMODE
290
     1
  9
$FINGERPRINTGUID
  2
{96B76544-3E08-4DF4-9796-6BC0514AA382}
  9
$VERSIONGUID
  2
{FAEB1C32-E019-11D5-929B-00C0DF256EC4}
  9
$EXTNAMES
290
     1
  9
$PSVPSCALE
 40
0.0
  9
$OLESTARTUP
290
     0
  9
$SORTENTS
280
   127
  9
$INDEXCTL
280
     0
  9
$HIDETEXT
280
     1
  9
$XCLIPFRAME
290
     0
  9
$HALOGAP
280
     0
  9
$OBSCOLOR
 70
   257
  9
$OBSLTYPE
280
     0
  9
$INTERSECTIONDISPLAY
280
     0
  9
$INTERSECTIONCOLOR
 70
   257
  9
$DIMASSOC
280
     2
  9
$PROJECTNAME
  1

  0
ENDSEC
  0
SECTION
  2
CLASSES
  0
CLASS
  1
ACDBDICTIONARYWDFLT
  2
AcDbDictionaryWithDefault
  3
ObjectDBX Classes
 90
        0
 91
        4
280
     0
281
     0
  0
CLASS
  1
VISUALSTYLE
  2
AcDbVisualStyle
  3
ObjectDBX Classes
 90
     4095
 91
        4
280
     0
281
     0
  0
ENDSEC
  0
SECTION
  2
TABLES
  0
TABLE
  2
VPORT
  5
8
330
0
100
AcDbSymbolTable
 70
     1
  0
VPORT
  5
29
330
8
100
AcDbSymbolTableRecord
100
AcDbViewportTableRecord
  2
*Active
 70
     0
 10
0.0
 20
0.0
 11
1.0
 21
1.0
 12
13.44310560639835
 22
24.62502605272971
 13
0.0
 23
0.0
 14
0.5
 24
0.5
 15
0.5
 25
0.5
 16
0.0
 26
0.0
 36
1.0
 17
0.0
 27
0.0
 37
0.0
 40
50.2350541672191
 41
1.28703722769122
 42
50.0
 43
0.0
 44
0.0
 50
0.0
 51
0.0
 71
     0
 72
   100
 73
     1
 74
     3
 75
     0
 76
     0
 77
     0
 78
     0
281
     0
 65
     1
110
0.0
120
0.0
130
0.0
111
1.0
121
0.0
131
0.0
112
0.0
122
1.0
132
0.0
 79
     0
146
0.0
  0
ENDTAB
  0
TABLE
  2
LTYPE
  5
5
330
0
100
AcDbSymbolTable
 70
     1
  0
LTYPE
  5
14
330
5
100
AcDbSymbolTableRecord
100
AcDbLinetypeTableRecord
  2
ByBlock
 70
     0
  3

 72
    65
 73
     0
 40
0.0
  0
LTYPE
  5
15
330
5
100
AcDbSymbolTableRecord
100
AcDbLinetypeTableRecord
  2
ByLayer
 70
     0
  3

 72
    65
 73
     0
 40
0.0
  0
LTYPE
  5
16
330
5
100
AcDbSymbolTableRecord
100
AcDbLinetypeTableRecord
  2
Continuous
 70
     0
  3
Solid line
 72
    65
 73
     0
 40
0.0
  0
ENDTAB
  0
TABLE
  2
LAYER
  5
2
330
0
100
AcDbSymbolTable
 70
     2
  0
LAYER
  5
10
330
2
100
AcDbSymbolTableRecord
100
AcDbLayerTableRecord
  2
0
 70
     0
 62
     7
  6
Continuous
370
    -3
390
F
  0
LAYER
  5
3B
330
2
100
AcDbSymbolTableRecord
100
AcDbLayerTableRecord
  2
DEFAULT
 70
     0
 62
     7
  6
Continuous
370
    -3
390
F
  0
ENDTAB
  0
TABLE
  2
STYLE
  5
3
330
0
100
AcDbSymbolTable
 70
     1
  0
STYLE
  5
11
330
3
100
AcDbSymbolTableRecord
100
AcDbTextStyleTableRecord
  2
Standard
 70
     0
 40
0.0
 41
1.0
 50
0.0
 71
     0
 42
0.2
  3
txt
  4

  0
ENDTAB
  0
TABLE
  2
VIEW
  5
6
330
0
100
AcDbSymbolTable
 70
     0
  0
ENDTAB
  0
TABLE
  2
UCS
  5
7
330
0
100
AcDbSymbolTable
 70
     0
  0
ENDTAB
  0
TABLE
  2
APPID
  5
9
330
0
100
AcDbSymbolTable
 70
     1
  0
APPID
  5
12
330
9
100
AcDbSymbolTableRecord
100
AcDbRegAppTableRecord
  2
ACAD
 70
     0
  0
ENDTAB
  0
TABLE
  2
DIMSTYLE
  5
A
330
0
100
AcDbSymbolTable
 70
     1
100
AcDbDimStyleTable
  0
DIMSTYLE
105
27
330
A
100
AcDbSymbolTableRecord
100
AcDbDimStyleTableRecord
  2
Standard
 70
     0
340
11
  0
ENDTAB
  0
TABLE
  2
BLOCK_RECORD
  5
1
330
0
100
AcDbSymbolTable
 70
     1
  0
BLOCK_RECORD
  5
1F
330
1
100
AcDbSymbolTableRecord
100
AcDbBlockTableRecord
  2
*Model_Space
340
22
  0
BLOCK_RECORD
  5
1B
330
1
100
AcDbSymbolTableRecord
100
AcDbBlockTableRecord
  2
*Paper_Space
340
1E
  0
BLOCK_RECORD
  5
23
330
1
100
AcDbSymbolTableRecord
100
AcDbBlockTableRecord
  2
*Paper_Space0
340
26
  0
ENDTAB
  0
ENDSEC
  0
SECTION
  2
BLOCKS
  0
BLOCK
  5
20
330
1F
100
AcDbEntity
  8
0
100
AcDbBlockBegin
  2
*Model_Space
 70
     0
 10
0.0
 20
0.0
 30
0.0
  3
*Model_Space
  1

  0
ENDBLK
  5
21
330
1F
100
AcDbEntity
  8
0
100
AcDbBlockEnd
  0
BLOCK
  5
1C
330
1B
100
AcDbEntity
 67
     1
  8
0
100
AcDbBlockBegin
  2
*Paper_Space
 70
     0
 10
0.0
 20
0.0
 30
0.0
  3
*Paper_Space
  1

  0
ENDBLK
  5
1D
330
1B
100
AcDbEntity
 67
     1
  8
0
100
AcDbBlockEnd
  0
BLOCK
  5
24
330
23
100
AcDbEntity
  8
0
100
AcDbBlockBegin
  2
*Paper_Space0
 70
     0
 10
0.0
 20
0.0
 30
0.0
  3
*Paper_Space0
  1

  0
ENDBLK
  5
25
330
23
100
AcDbEntity
  8
0
100
AcDbBlockEnd
  0
ENDSEC
  0
SECTION
  2
ENTITIES
  0
SPLINE
  5
3C
330
1F
100
AcDbEntity
  8
DEFAULT
100
AcDbSpline
210
0.0
220
0.0
230
1.0
 70
    11
 71
     2
 72
   516
 73
   513
 74
     0
 42
0.0000000001
 43
0.0000000001
 40
0.0
 40
0.0
 40
0.0
 40
1.0
 40
1.0
 40
2.0
 40
2.0
 40
3.0
 40
3.0
 40
4.0
 40
4.0
 40
5.0
 40
5.0
 40
6.0
 40
6.0
 40
7.0
 40
7.0
 40
8.0
 40
8.0
 40
9.0
 40
9.0
 40
10.0
 40
10.0
 40
11.0
 40
11.0
 40
12.0
 40
12.0
 40
13.0
 40
13.0
 40
14.0
 40
14.0
 40
15.0
 40
15.0
 40
16.0
 40
16.0
 40
17.0
 40
17.0
 40
18.0
 40
18.0
 40
19.0
 40
19.0
 40
20.0
 40
20.0
 40
21.0
 40
21.0
 40
22.0
 40
22.0
 40
23.0
 40
23.0
 40
24.0
 40
24.0
 40
25.0
 40
25.0
 40
26.0
 40
26.0
 40
27.0
 40
27.0
 40
28.0
 40
28.0
 40
29.0
 40
29.0
 40
30.0
 40
30.0
 40
31.0
 40
31.0
 40
32.0
 40
32.0
 40
33.0
 40
33.0
 40
34.0
 40
34.0
 40
35.0
 40
35.0
 40
36.0
 40
36.0
 40
37.0
 40
37.0
 40
38.0
 40
38.0
 40
39.0
 40
39.0
 40
40.0
 40
40.0
 40
41.0
 40
41.0
 40
42.0
 40
42.0
 40
43.0
 40
43.0
 40
44.0
 40
44.0
 40
45.0
 40
45.0
 40
46.0
 40
46.0
 40
47.0
 40
47.0
 40
48.0
 40
48.0
 40
49.0
 40
49.0
 40
50.0
 40
50.0
 40
51.0
 40
51.0
 40
52.0
 40
52.0
 40
53.0
 40
53.0
 40
54.0
 40
54.0
 40
55.0
 40
55.0
 40
56.0
 40
56.0
 40
57.0
 40
57.0
 40
58.0
 40
58.0
 40
59.0
 40
59.0
 40
60.0
 40
60.0
 40
61.0
 40
61.0
 40
62.0
 40
62.0
 40
63.0
 40
63.0
 40
64.0
 40
64.0
 40
65.0
 40
65.0
 40
66.0
 40
66.0
 40
67.0
 40
67.0
 40
68.0
 40
68.0
 40
69.0
 40
69.0
 40
70.0
 40
70.0
 40
71.0
 40
71.0
 40
72.0
 40
72.0
 40
73.0
 40
73.0
 40
74.0
 40
74.0
 40
75.0
 40
75.0
 40
76.0
 40
76.0
 40
77.0
 40
77.0
 40
78.0
 40
78.0
 40
79.0
 40
79.0
 40
80.0
 40
80.0
 40
81.0
 40
81.0
 40
82.0
 40
82.0
 40
83.0
 40
83.0
 40
84.0
 40
84.0
 40
85.0
 40
85.0
 40
86.0
 40
86.0
 40
87.0
 40
87.0
 40
88.0
 40
88.0
 40
89.0
 40
89.0
 40
90.0
 40
90.0
 40
91.0
 40
91.0
 40
92.0
 40
92.0
 40
93.0
 40
93.0
 40
94.0
 40
94.0
 40
95.0
 40
95.0
 40
96.0
 40
96.0
 40
97.0
 40
97.0
 40
98.0
 40
98.0
 40
99.0
 40
99.0
 40
100.0
 40
100.0
 40
101.0
 40
101.0
 40
102.0
 40
102.0
 40
103.0
 40
103.0
 40
104.0
 40
104.0
 40
105.0
 40
105.0
 40
106.0
 40
106.0
 40
107.0
 40
107.0
 40
108.0
 40
108.0
 40
109.0
 40
109.0
 40
110.0
 40
110.0
 40
111.0
 40
111.0
 40
112.0
 40
112.0
 40
113.0
 40
113.0
 40
114.0
 40
114.0
 40
115.0
 40
115.0
 40
116.0
 40
116.0
 40
117.0
 40
117.0
 40
118.0
 40
118.0
 40
119.0
 40
119.0
 40
120.0
 40
120.0
 40
121.0
 40
121.0
 40
122.0
 40
122.0
 40
123.0
 40
123.0
 40
124.0
 40
124.0
 40
125.0
 40
125.0
 40
126.0
 40
126.0
 40
127.0
 40
127.0
 40
128.0
 40
128.0
 40
129.0
 40
129.0
 40
130.0
 40
130.0
 40
131.0
 40
131.0
 40
132.0
 40
132.0
 40
133.0
 40
133.0
 40
134.0
 40
134.0
 40
135.0
 40
135.0
 40
136.0
 40
136.0
 40
137.0
 40
137.0
 40
138.0
 40
138.0
 40
139.0
 40
139.0
 40
140.0
 40
140.0
 40
141.0
 40
141.0
 40
142.0
 40
142.0
 40
143.0
 40
143.0
 40
144.0
 40
144.0
 40
145.0
 40
145.0
 40
146.0
 40
146.0
 40
147.0
 40
147.0
 40
148.0
 40
148.0
 40
149.0
 40
149.0
 40
150.0
 40
150.0
 40
151.0
 40
151.0
 40
152.0
 40
152.0
 40
153.0
 40
153.0
 40
154.0
 40
154.0
 40
155.0
 40
155.0
 40
156.0
 40
156.0
 40
157.0
 40
157.0
 40
158.0
 40
158.0
 40
159.0
 40
159.0
 40
160.0
 40
160.0
 40
161.0
 40
161.0
 40
162.0
 40
162.0
 40
163.0
 40
163.0
 40
164.0
 40
164.0
 40
165.0
 40
165.0
 40
166.0
 40
166.0
 40
167.0
 40
167.0
 40
168.0
 40
168.0
 40
169.0
 40
169.0
 40
170.0
 40
170.0
 40
171.0
 40
171.0
 40
172.0
 40
172.0
 40
173.0
 40
173.0
 40
174.0
 40
174.0
 40
175.0
 40
175.0
 40
176.0
 40
176.0
 40
177.0
 40
177.0
 40
178.0
 40
178.0
 40
179.0
 40
179.0
 40
180.0
 40
180.0
 40
181.0
 40
181.0
 40
182.0
 40
182.0
 40
183.0
 40
183.0
 40
184.0
 40
184.0
 40
185.0
 40
185.0
 40
186.0
 40
186.0
 40
187.0
 40
187.0
 40
188.0
 40
188.0
 40
189.0
 40
189.0
 40
190.0
 40
190.0
 40
191.0
 40
191.0
 40
192.0
 40
192.0
 40
193.0
 40
193.0
 40
194.0
 40
194.0
 40
195.0
 40
195.0
 40
196.0
 40
196.0
 40
197.0
 40
197.0
 40
198.0
 40
198.0
 40
199.0
 40
199.0
 40
200.0
 40
200.0
 40
201.0
 40
201.0
 40
202.0
 40
202.0
 40
203.0
 40
203.0
 40
204.0
 40
204.0
 40
205.0
 40
205.0
 40
206.0
 40
206.0
 40
207.0
 40
207.0
 40
208.0
 40
208.0
 40
209.0
 40
209.0
 40
210.0
 40
210.0
 40
211.0
 40
211.0
 40
212.0
 40
212.0
 40
213.0
 40
213.0
 40
214.0
 40
214.0
 40
215.0
 40
215.0
 40
216.0
 40
216.0
 40
217.0
 40
217.0
 40
218.0
 40
218.0
 40
219.0
 40
219.0
 40
220.0
 40
220.0
 40
221.0
 40
221.0
 40
222.0
 40
222.0
 40
223.0
 40
223.0
 40
224.0
 40
224.0
 40
225.0
 40
225.0
 40
226.0
 40
226.0
 40
227.0
 40
227.0
 40
228.0
 40
228.0
 40
229.0
 40
229.0
 40
230.0
 40
230.0
 40
231.0
 40
231.0
 40
232.0
 40
232.0
 40
233.0
 40
233.0
 40
234.0
 40
234.0
 40
235.0
 40
235.0
 40
236.0
 40
236.0
 40
237.0
 40
237.0
 40
238.0
 40
238.0
 40
239.0
 40
239.0
 40
240.0
 40
240.0
 40
241.0
 40
241.0
 40
242.0
 40
242.0
 40
243.0
 40
243.0
 40
244.0
 40
244.0
 40
245.0
 40
245.0
 40
246.0
 40
246.0
 40
247.0
 40
247.0
 40
248.0
 40
248.0
 40
249.0
 40
249.0
 40
250.0
 40
250.0
 40
251.0
 40
251.0
 40
252.0
 40
252.0
 40
253.0
 40
253.0
 40
254.0
 40
254.0
 40
255.0
 40
255.0
 40
256.0
 40
256.0
 40
256.0
 10
17.87517549949488
 20
49.25005260528809
 30
0.0
 10
-0.0041489642485466
 20
49.25000641273064
 30
0.0
 10
-17.88354377853967
 20
49.24996022017319
 30
0.0
 10
-17.88774083486224
 20
49.24982000148795
 30
0.0
 10
-17.89193789118481
 20
49.24967978280272
 30
0.0
 10
-17.89616751529245
 20
49.24944313459337
 30
0.0
 10
-17.90039713940009
 20
49.24920648638403
 30
0.0
 10
-17.9046564266204
 20
49.24887109120098
 30
0.0
 10
-17.9089157138407
 20
49.24853569601793
 30
0.0
 10
-17.91320160573185
 20
49.24809933306465
 30
0.0
 10
-17.91748749762301
 20
49.24766297011137
 30
0.0
 10
-17.92179678458422
 20
49.24712352607504
 30
0.0
 10
-17.92610607154543
 20
49.24658408203868
 30
0.0
 10
-17.93043539624817
 20
49.2459395619836
 30
0.0
 10
-17.93476472095091
 20
49.24529504192854
 30
0.0
 10
-17.93911058261726
 20
49.24454358018643
 30
0.0
 10
-17.94345644428361
 20
49.24379211844433
 30
0.0
 10
-17.94781520383238
 20
49.2429319894305
 30
0.0
 10
-17.95217396338115
 20
49.24207186041667
 30
0.0
 10
-17.95654184945631
 20
49.2411014892979
 30
0.0
 10
-17.96090973553148
 20
49.24013111817914
 30
0.0
 10
-17.96528285142062
 20
49.23904909131522
 30
0.0
 10
-17.96965596730976
 20
49.23796706445128
 30
0.0
 10
-17.97403029875292
 20
49.23677213952978
 30
0.0
 10
-17.97840463019608
 20
49.23557721460826
 30
0.0
 10
-17.98277605407745
 20
49.23426833038988
 30
0.0
 10
-17.98714747795883
 20
49.23295944617151
 30
0.0
 10
-17.99151177186556
 20
49.23153573176263
 30
0.0
 10
-17.99587606577229
 20
49.23011201735373
 30
0.0
 10
-18.00022891839596
 20
49.22857280092168
 30
0.0
 10
-18.00458177101963
 20
49.22703358448963
 30
0.0
 10
-18.0089187933672
 20
49.22537840133807
 30
0.0
 10
-18.01325581571477
 20
49.22372321818651
 30
0.0
 10
-18.01757255308686
 20
49.22195181810893
 30
0.0
 10
-18.02188929045896
 20
49.22018041803135
 30
0.0
 10
-18.02618123514429
 20
49.21829277186411
 30
0.0
 10
-18.03047317982963
 20
49.21640512569688
 30
0.0
 10
-18.03473578445571
 20
49.2144014309968
 30
0.0
 10
-18.03899838908179
 20
49.21239773629672
 30
0.0
 10
-18.04322708055343
 20
49.210278422073
 30
0.0
 10
-18.04745577202507
 20
49.20815910784928
 30
0.0
 10
-18.0516459659742
 20
49.20592483828578
 30
0.0
 10
-18.05583615992334
 20
49.20369056872228
 30
0.0
 10
-18.05998327558604
 20
49.20134224583283
 30
0.0
 10
-18.06413039124874
 20
49.19899392294338
 30
0.0
 10
-18.06822986667846
 20
49.19653268811082
 30
0.0
 10
-18.07232934210818
 20
49.19407145327826
 30
0.0
 10
-18.07637664962833
 20
49.19149868763667
 30
0.0
 10
-18.08042395714849
 20
49.18892592199509
 30
0.0
 10
-18.08441461894237
 20
49.1862432456245
 30
0.0
 10
-18.08840528073626
 20
49.18356056925391
 30
0.0
 10
-18.09233488446819
 20
49.18076983916644
 30
0.0
 10
-18.09626448820012
 20
49.17797910907898
 30
0.0
 10
-18.1001287025591
 20
49.17508241598694
 30
0.0
 10
-18.10399291691809
 20
49.17218572289488
 30
0.0
 10
-18.10778750697344
 20
49.16918538676178
 30
0.0
 10
-18.11158209702878
 20
49.16618505062867
 30
0.0
 10
-18.11530293928695
 20
49.16308361501611
 30
0.0
 10
-18.11902378154513
 20
49.15998217940354
 30
0.0
 10
-18.12266687859814
 20
49.15678240463815
 30
0.0
 10
-18.12630997565114
 20
49.15358262987277
 30
0.0
 10
-18.12987147030898
 20
49.15028748506877
 30
0.0
 10
-18.13343296496682
 20
49.14699234026477
 30
0.0
 10
-18.13690915377042
 20
49.14360499424891
 30
0.0
 10
-18.14038534257402
 20
49.14021764823305
 30
0.0
 10
-18.14377268858987
 20
49.13674145942947
 30
0.0
 10
-18.14716003460572
 20
49.13326527062586
 30
0.0
 10
-18.15045517940972
 20
49.12970377596801
 30
0.0
 10
-18.15375032421372
 20
49.12614228131017
 30
0.0
 10
-18.15695009897911
 20
49.12249918425717
 30
0.0
 10
-18.1601498737445
 20
49.11885608720417
 30
0.0
 10
-18.16325130935706
 20
49.115135244946
 30
0.0
 10
-18.16635274496963
 20
49.11141440268781
 30
0.0
 10
-18.16935308110275
 20
49.10761981263246
 30
0.0
 10
-18.17235341723586
 20
49.10382522257712
 30
0.0
 10
-18.17525011032791
 20
49.09996100821813
 30
0.0
 10
-18.17814680341995
 20
49.09609679385915
 30
0.0
 10
-18.18093753350741
 20
49.09216719012721
 30
0.0
 10
-18.18372826359487
 20
49.08823758639528
 30
0.0
 10
-18.18641093996547
 20
49.0842469246014
 30
0.0
 10
-18.18909361633606
 20
49.08025626280752
 30
0.0
 10
-18.19166638197764
 20
49.07620895528737
 30
0.0
 10
-18.19423914761922
 20
49.07216164776721
 30
0.0
 10
-18.19670038245179
 20
49.06806217233749
 30
0.0
 10
-18.19916161728435
 20
49.06396269690778
 30
0.0
 10
-18.20150994017379
 20
49.05981558124509
 30
0.0
 10
-18.20385826306323
 20
49.05566846558239
 30
0.0
 10
-18.20609253262672
 20
49.05147827163325
 30
0.0
 10
-18.20832680219022
 20
49.04728807768412
 30
0.0
 10
-18.21044611641395
 20
49.04305938621247
 30
0.0
 10
-18.21256543063767
 20
49.03883069474082
 30
0.0
 10
-18.21456912533776
 20
49.03456809011475
 30
0.0
 10
-18.21657282003785
 20
49.03030548548868
 30
0.0
 10
-18.21846046620509
 20
49.02601354080334
 30
0.0
 10
-18.22034811237232
 20
49.02172159611801
 30
0.0
 10
-18.2221195124499
 20
49.01740485874591
 30
0.0
 10
-18.22389091252748
 20
49.0130881213738
 30
0.0
 10
-18.22554609567903
 20
49.00875109902623
 30
0.0
 10
-18.22720127883059
 20
49.00441407667866
 30
0.0
 10
-18.22874049526264
 20
49.000061224055
 30
0.0
 10
-18.23027971169469
 20
48.99570837143133
 30
0.0
 10
-18.23170342610358
 20
48.9913440775246
 30
0.0
 10
-18.23312714051246
 20
48.98697978361788
 30
0.0
 10
-18.23443602473083
 20
48.9826083597365
 30
0.0
 10
-18.2357449089492
 20
48.97823693585512
 30
0.0
 10
-18.23693983387072
 20
48.97386260441196
 30
0.0
 10
-18.23813475879224
 20
48.9694882729688
 30
0.0
 10
-18.23921678565617
 20
48.96511515707967
 30
0.0
 10
-18.24029881252009
 20
48.96074204119054
 30
0.0
 10
-18.24126918363886
 20
48.95637415511537
 30
0.0
 10
-18.24223955475763
 20
48.9520062690402
 30
0.0
 10
-18.24309968377145
 20
48.94764750949143
 30
0.0
 10
-18.24395981278527
 20
48.94328874994265
 30
0.0
 10
-18.24471127452738
 20
48.9389428882763
 30
0.0
 10
-18.24546273626949
 20
48.93459702660995
 30
0.0
 10
-18.24610725632457
 20
48.9302677019072
 30
0.0
 10
-18.24675177637965
 20
48.92593837720446
 30
0.0
 10
-18.24729122041599
 20
48.92162909024325
 30
0.0
 10
-18.24783066445234
 20
48.91731980328204
 30
0.0
 10
-18.24826702740562
 20
48.91303391139089
 30
0.0
 10
-18.24870339035889
 20
48.90874801949974
 30
0.0
 10
-18.24903878554194
 20
48.90448873227943
 30
0.0
 10
-18.24937418072499
 20
48.90022944505913
 30
0.0
 10
-18.24961082893434
 20
48.89599982095148
 30
0.0
 10
-18.24984747714369
 20
48.89177019684384
 30
0.0
 10
-18.24998769582892
 20
48.88757314052128
 30
0.0
 10
-18.25012791451415
 20
48.8833760841987
 30
0.0
 10
-18.25017410707161
 20
41.62916157078718
 30
0.0
 10
-18.25022029962906
 20
33.87499983133188
 30
0.0
 10
-18.25017410707161
 20
33.87083809187658
 30
0.0
 10
-18.25012791451415
 20
33.86667635242128
 30
0.0
 10
-18.24998769582892
 20
33.86247929609871
 30
0.0
 10
-18.24984747714369
 20
33.85828223977614
 30
0.0
 10
-18.24961082893434
 20
33.8540526156685
 30
0.0
 10
-18.24937418072499
 20
33.84982299156086
 30
0.0
 10
-18.24903878554194
 20
33.84556370434055
 30
0.0
 10
-18.24870339035889
 20
33.84130441712024
 30
0.0
 10
-18.24826702740562
 20
33.83701852522908
 30
0.0
 10
-18.24783066445234
 20
33.83273263333793
 30
0.0
 10
-18.24729122041599
 20
33.82842334637672
 30
0.0
 10
-18.24675177637965
 20
33.82411405941551
 30
0.0
 10
-18.24610725632457
 20
33.81978473471277
 30
0.0
 10
-18.24546273626949
 20
33.81545541001003
 30
0.0
 10
-18.24471127452738
 20
33.81110954834368
 30
0.0
 10
-18.24395981278527
 20
33.80676368667733
 30
0.0
 10
-18.24309968377145
 20
33.80240492712856
 30
0.0
 10
-18.24223955475763
 20
33.79804616757979
 30
0.0
 10
-18.24126918363886
 20
33.79367828150463
 30
0.0
 10
-18.24029881252009
 20
33.78931039542947
 30
0.0
 10
-18.23921678565617
 20
33.78493727954033
 30
0.0
 10
-18.23813475879224
 20
33.7805641636512
 30
0.0
 10
-18.23693983387072
 20
33.77618983220803
 30
0.0
 10
-18.2357449089492
 20
33.77181550076487
 30
0.0
 10
-18.23443602473083
 20
33.76744407688351
 30
0.0
 10
-18.23312714051246
 20
33.76307265300213
 30
0.0
 10
-18.23170342610358
 20
33.75870835909539
 30
0.0
 10
-18.23027971169469
 20
33.75434406518865
 30
0.0
 10
-18.22874049526264
 20
33.74999121256498
 30
0.0
 10
-18.22720127883059
 20
33.74563835994132
 30
0.0
 10
-18.22554609567903
 20
33.74130133759375
 30
0.0
 10
-18.22389091252748
 20
33.73696431524618
 30
0.0
 10
-18.2221195124499
 20
33.73264757787409
 30
0.0
 10
-18.22034811237232
 20
33.72833084050199
 30
0.0
 10
-18.21846046620509
 20
33.72403889581665
 30
0.0
 10
-18.21657282003785
 20
33.71974695113132
 30
0.0
 10
-18.21456912533776
 20
33.71548434650524
 30
0.0
 10
-18.21256543063767
 20
33.71122174187916
 30
0.0
 10
-18.21044611641395
 20
33.70699305040752
 30
0.0
 10
-18.20832680219022
 20
33.70276435893589
 30
0.0
 10
-18.20609253262672
 20
33.69857416498675
 30
0.0
 10
-18.20385826306323
 20
33.69438397103762
 30
0.0
 10
-18.20150994017379
 20
33.69023685537491
 30
0.0
 10
-18.19916161728435
 20
33.68608973971221
 30
0.0
 10
-18.19670038245179
 20
33.68199026428249
 30
0.0
 10
-18.19423914761922
 20
33.67789078885277
 30
0.0
 10
-18.19166638197764
 20
33.67384348133261
 30
0.0
 10
-18.18909361633606
 20
33.66979617381246
 30
0.0
 10
-18.18641093996547
 20
33.66580551201858
 30
0.0
 10
-18.18372826359487
 20
33.6618148502247
 30
0.0
 10
-18.18093753350741
 20
33.65788524649277
 30
0.0
 10
-18.17814680341995
 20
33.65395564276083
 30
0.0
 10
-18.17525011032791
 20
33.65009142840185
 30
0.0
 10
-18.17235341723586
 20
33.64622721404287
 30
0.0
 10
-18.16935308110275
 20
33.64243262398752
 30
0.0
 10
-18.16635274496963
 20
33.63863803393217
 30
0.0
 10
-18.16325130935706
 20
33.63491719167399
 30
0.0
 10
-18.1601498737445
 20
33.63119634941582
 30
0.0
 10
-18.15695009897911
 20
33.62755325236282
 30
0.0
 10
-18.15375032421372
 20
33.62391015530981
 30
0.0
 10
-18.15045517940972
 20
33.62034866065197
 30
0.0
 10
-18.14716003460572
 20
33.61678716599413
 30
0.0
 10
-18.14377268858987
 20
33.61331097719053
 30
0.0
 10
-18.14038534257402
 20
33.60983478838693
 30
0.0
 10
-18.13690915377042
 20
33.60644744237108
 30
0.0
 10
-18.13343296496682
 20
33.60306009635523
 30
0.0
 10
-18.12987147030898
 20
33.59976495155122
 30
0.0
 10
-18.12630997565114
 20
33.59646980674722
 30
0.0
 10
-18.12266687859814
 20
33.59327003198184
 30
0.0
 10
-18.11902378154513
 20
33.59007025721645
 30
0.0
 10
-18.11530293928695
 20
33.58696882160389
 30
0.0
 10
-18.11158209702878
 20
33.58386738599132
 30
0.0
 10
-18.10778750697344
 20
33.58086704985821
 30
0.0
 10
-18.10399291691809
 20
33.57786671372509
 30
0.0
 10
-18.1001287025591
 20
33.57497002063305
 30
0.0
 10
-18.09626448820012
 20
33.57207332754101
 30
0.0
 10
-18.09233488446819
 20
33.56928259745355
 30
0.0
 10
-18.08840528073626
 20
33.56649186736608
 30
0.0
 10
-18.08441461894237
 20
33.56380919099549
 30
0.0
 10
-18.08042395714849
 20
33.56112651462489
 30
0.0
 10
-18.07637664962833
 20
33.55855374898331
 30
0.0
 10
-18.07232934210818
 20
33.55598098334173
 30
0.0
 10
-18.06822986667846
 20
33.55351974850917
 30
0.0
 10
-18.06413039124874
 20
33.5510585136766
 30
0.0
 10
-18.05998327558604
 20
33.54871019078716
 30
0.0
 10
-18.05583615992334
 20
33.54636186789772
 30
0.0
 10
-18.0516459659742
 20
33.54412759833423
 30
0.0
 10
-18.04745577202507
 20
33.54189332877073
 30
0.0
 10
-18.04322708055343
 20
33.53977401454701
 30
0.0
 10
-18.03899838908179
 20
33.53765470032328
 30
0.0
 10
-18.03473578445571
 20
33.53565100562319
 30
0.0
 10
-18.03047317982963
 20
33.53364731092311
 30
0.0
 10
-18.02618123514429
 20
33.53175966475587
 30
0.0
 10
-18.02188929045896
 20
33.52987201858863
 30
0.0
 10
-18.01757255308686
 20
33.52810061851105
 30
0.0
 10
-18.01325581571477
 20
33.52632921843347
 30
0.0
 10
-18.0089187933672
 20
33.52467403528192
 30
0.0
 10
-18.00458177101963
 20
33.52301885213036
 30
0.0
 10
-18.00022891839596
 20
33.52147963569831
 30
0.0
 10
-17.99587606577229
 20
33.51994041926626
 30
0.0
 10
-17.99151177186556
 20
33.51851670485738
 30
0.0
 10
-17.98714747795883
 20
33.51709299044848
 30
0.0
 10
-17.98277605407745
 20
33.51578410623011
 30
0.0
 10
-17.97840463019608
 20
33.51447522201175
 30
0.0
 10
-17.97403029875292
 20
33.51328029709023
 30
0.0
 10
-17.96965596730976
 20
33.51208537216871
 30
0.0
 10
-17.96528285142062
 20
33.51100334530479
 30
0.0
 10
-17.96090973553148
 20
33.50992131844086
 30
0.0
 10
-17.95654184945631
 20
33.50895094732209
 30
0.0
 10
-17.95217396338115
 20
33.50798057620332
 30
0.0
 10
-17.94781520383238
 20
33.50712044718949
 30
0.0
 10
-17.94345644428361
 20
33.50626031817567
 30
0.0
 10
-17.93911058261726
 20
33.50550885643356
 30
0.0
 10
-17.93476472095091
 20
33.50475739469145
 30
0.0
 10
-17.93043539624817
 20
33.50411287463637
 30
0.0
 10
-17.92610607154543
 20
33.50346835458129
 30
0.0
 10
-17.92179678458422
 20
33.50292891054495
 30
0.0
 10
-17.91748749762301
 20
33.5023894665086
 30
0.0
 10
-17.91320160573185
 20
33.50195310355533
 30
0.0
 10
-17.9089157138407
 20
33.50151674060206
 30
0.0
 10
-17.9046564266204
 20
33.50118134541901
 30
0.0
 10
-17.90039713940009
 20
33.50084595023596
 30
0.0
 10
-17.89616751529245
 20
33.50060930202661
 30
0.0
 10
-17.89193789118481
 20
33.50037265381726
 30
0.0
 10
-17.88774083486224
 20
33.50023243513203
 30
0.0
 10
-17.88354377853967
 20
33.5000922164468
 30
0.0
 10
-0.0041489642485466
 20
33.50004602388934
 30
0.0
 10
17.87517549949488
 20
33.49999983133188
 30
0.0
 10
17.87933723895017
 20
33.50004602388934
 30
0.0
 10
17.88349897840548
 20
33.5000922164468
 30
0.0
 10
17.88769603472804
 20
33.50023243513203
 30
0.0
 10
17.89189309105063
 20
33.50037265381727
 30
0.0
 10
17.89612271515827
 20
33.50060930202662
 30
0.0
 10
17.90035233926591
 20
33.50084595023597
 30
0.0
 10
17.90461162648621
 20
33.50118134541901
 30
0.0
 10
17.90887091370652
 20
33.50151674060206
 30
0.0
 10
17.91315680559768
 20
33.50195310355534
 30
0.0
 10
17.91744269748884
 20
33.50238946650862
 30
0.0
 10
17.92175198445004
 20
33.50292891054496
 30
0.0
 10
17.92606127141125
 20
33.5034683545813
 30
0.0
 10
17.93039059611399
 20
33.50411287463638
 30
0.0
 10
17.93471992081674
 20
33.50475739469145
 30
0.0
 10
17.93906578248308
 20
33.50550885643356
 30
0.0
 10
17.94341164414942
 20
33.50626031817567
 30
0.0
 10
17.9477704036982
 20
33.50712044718949
 30
0.0
 10
17.95212916324698
 20
33.50798057620332
 30
0.0
 10
17.95649704932213
 20
33.50895094732209
 30
0.0
 10
17.9608649353973
 20
33.50992131844086
 30
0.0
 10
17.96523805128644
 20
33.51100334530479
 30
0.0
 10
17.96961116717558
 20
33.51208537216871
 30
0.0
 10
17.97398549861873
 20
33.51328029709023
 30
0.0
 10
17.9783598300619
 20
33.51447522201175
 30
0.0
 10
17.98273125394327
 20
33.51578410623011
 30
0.0
 10
17.98710267782464
 20
33.51709299044849
 30
0.0
 10
17.99146697173138
 20
33.51851670485738
 30
0.0
 10
17.99583126563811
 20
33.51994041926626
 30
0.0
 10
18.00018411826177
 20
33.52147963569831
 30
0.0
 10
18.00453697088545
 20
33.52301885213036
 30
0.0
 10
18.00887399323301
 20
33.52467403528192
 30
0.0
 10
18.01321101558058
 20
33.52632921843347
 30
0.0
 10
18.01752775295268
 20
33.52810061851105
 30
0.0
 10
18.02184449032478
 20
33.52987201858864
 30
0.0
 10
18.02613643501011
 20
33.53175966475588
 30
0.0
 10
18.03042837969545
 20
33.53364731092312
 30
0.0
 10
18.03469098432153
 20
33.53565100562321
 30
0.0
 10
18.03895358894761
 20
33.53765470032329
 30
0.0
 10
18.04318228041924
 20
33.53977401454701
 30
0.0
 10
18.04741097189089
 20
33.54189332877074
 30
0.0
 10
18.05160116584003
 20
33.54412759833423
 30
0.0
 10
18.05579135978916
 20
33.54636186789772
 30
0.0
 10
18.05993847545187
 20
33.54871019078716
 30
0.0
 10
18.06408559111457
 20
33.55105851367661
 30
0.0
 10
18.06818506654428
 20
33.55351974850917
 30
0.0
 10
18.072284541974
 20
33.55598098334174
 30
0.0
 10
18.07633184949415
 20
33.55855374898332
 30
0.0
 10
18.08037915701431
 20
33.5611265146249
 30
0.0
 10
18.08436981880818
 20
33.56380919099549
 30
0.0
 10
18.08836048060207
 20
33.56649186736608
 30
0.0
 10
18.092290084334
 20
33.56928259745355
 30
0.0
 10
18.09621968806593
 20
33.57207332754101
 30
0.0
 10
18.10008390242491
 20
33.57497002063306
 30
0.0
 10
18.1039481167839
 20
33.5778667137251
 30
0.0
 10
18.10774270683925
 20
33.58086704985821
 30
0.0
 10
18.1115372968946
 20
33.58386738599132
 30
0.0
 10
18.11525813915276
 20
33.58696882160389
 30
0.0
 10
18.11897898141095
 20
33.59007025721645
 30
0.0
 10
18.12262207846395
 20
33.59327003198185
 30
0.0
 10
18.12626517551696
 20
33.59646980674723
 30
0.0
 10
18.12982667017479
 20
33.59976495155123
 30
0.0
 10
18.13338816483263
 20
33.60306009635523
 30
0.0
 10
18.13686435363623
 20
33.60644744237108
 30
0.0
 10
18.14034054243984
 20
33.60983478838693
 30
0.0
 10
18.14372788845569
 20
33.61331097719054
 30
0.0
 10
18.14711523447153
 20
33.61678716599414
 30
0.0
 10
18.15041037927554
 20
33.62034866065198
 30
0.0
 10
18.15370552407954
 20
33.62391015530982
 30
0.0
 10
18.15690529884493
 20
33.62755325236283
 30
0.0
 10
18.16010507361032
 20
33.63119634941583
 30
0.0
 10
18.16320650922288
 20
33.634917191674
 30
0.0
 10
18.16630794483545
 20
33.63863803393217
 30
0.0
 10
18.16930828096856
 20
33.64243262398752
 30
0.0
 10
18.17230861710167
 20
33.64622721404287
 30
0.0
 10
18.17520531019371
 20
33.65009142840185
 30
0.0
 10
18.17810200328575
 20
33.65395564276084
 30
0.0
 10
18.18089273337322
 20
33.65788524649277
 30
0.0
 10
18.18368346346069
 20
33.6618148502247
 30
0.0
 10
18.18636613983128
 20
33.66580551201858
 30
0.0
 10
18.18904881620186
 20
33.66979617381246
 30
0.0
 10
18.19162158184345
 20
33.67384348133262
 30
0.0
 10
18.19419434748504
 20
33.67789078885278
 30
0.0
 10
18.1966555823176
 20
33.68199026428249
 30
0.0
 10
18.19911681715017
 20
33.68608973971221
 30
0.0
 10
18.20146514003961
 20
33.69023685537491
 30
0.0
 10
18.20381346292904
 20
33.69438397103762
 30
0.0
 10
18.20604773249254
 20
33.69857416498675
 30
0.0
 10
18.20828200205604
 20
33.70276435893589
 30
0.0
 10
18.21040131627976
 20
33.70699305040753
 30
0.0
 10
18.21252063050349
 20
33.71122174187917
 30
0.0
 10
18.21452432520358
 20
33.71548434650525
 30
0.0
 10
18.21652801990367
 20
33.71974695113133
 30
0.0
 10
18.2184156660709
 20
33.72403889581666
 30
0.0
 10
18.22030331223813
 20
33.728330840502
 30
0.0
 10
18.22207471231571
 20
33.73264757787409
 30
0.0
 10
18.22384611239329
 20
33.73696431524619
 30
0.0
 10
18.22550129554484
 20
33.74130133759376
 30
0.0
 10
18.22715647869641
 20
33.74563835994133
 30
0.0
 10
18.22869569512846
 20
33.749991212565
 30
0.0
 10
18.2302349115605
 20
33.75434406518867
 30
0.0
 10
18.23165862596939
 20
33.75870835909541
 30
0.0
 10
18.23308234037829
 20
33.76307265300214
 30
0.0
 10
18.23439122459665
 20
33.76744407688351
 30
0.0
 10
18.23570010881502
 20
33.77181550076488
 30
0.0
 10
18.23689503373654
 20
33.77618983220804
 30
0.0
 10
18.23808995865805
 20
33.7805641636512
 30
0.0
 10
18.23917198552198
 20
33.78493727954033
 30
0.0
 10
18.24025401238591
 20
33.78931039542947
 30
0.0
 10
18.24122438350468
 20
33.79367828150463
 30
0.0
 10
18.24219475462345
 20
33.7980461675798
 30
0.0
 10
18.24305488363727
 20
33.80240492712857
 30
0.0
 10
18.2439150126511
 20
33.80676368667734
 30
0.0
 10
18.24466647439321
 20
33.81110954834369
 30
0.0
 10
18.24541793613531
 20
33.81545541001005
 30
0.0
 10
18.24606245619039
 20
33.81978473471279
 30
0.0
 10
18.24670697624547
 20
33.82411405941553
 30
0.0
 10
18.24724642028182
 20
33.82842334637674
 30
0.0
 10
18.24778586431817
 20
33.83273263333795
 30
0.0
 10
18.24822222727144
 20
33.83701852522911
 30
0.0
 10
18.24865859022471
 20
33.84130441712026
 30
0.0
 10
18.24899398540776
 20
33.84556370434056
 30
0.0
 10
18.2493293805908
 20
33.84982299156087
 30
0.0
 10
18.24956602880016
 20
33.85405261566851
 30
0.0
 10
18.24980267700951
 20
33.85828223977614
 30
0.0
 10
18.24994289569474
 20
33.86247929609871
 30
0.0
 10
18.25008311437997
 20
33.86667635242129
 30
0.0
 10
18.25012930693742
 20
41.62083809187658
 30
0.0
 10
18.25017549949488
 20
48.87505260528809
 30
0.0
 10
18.25012930693742
 20
48.8792143447434
 30
0.0
 10
18.25008311437997
 20
48.88337608419869
 30
0.0
 10
18.24994289569474
 20
48.88757314052128
 30
0.0
 10
18.24980267700951
 20
48.89177019684384
 30
0.0
 10
18.24956602880016
 20
48.89599982095148
 30
0.0
 10
18.2493293805908
 20
48.90022944505913
 30
0.0
 10
18.24899398540776
 20
48.90448873227943
 30
0.0
 10
18.24865859022471
 20
48.90874801949974
 30
0.0
 10
18.24822222727144
 20
48.91303391139089
 30
0.0
 10
18.24778586431817
 20
48.91731980328204
 30
0.0
 10
18.24724642028182
 20
48.92162909024325
 30
0.0
 10
18.24670697624547
 20
48.92593837720446
 30
0.0
 10
18.24606245619039
 20
48.9302677019072
 30
0.0
 10
18.24541793613531
 20
48.93459702660995
 30
0.0
 10
18.2446664743932
 20
48.9389428882763
 30
0.0
 10
18.24391501265109
 20
48.94328874994266
 30
0.0
 10
18.24305488363727
 20
48.94764750949143
 30
0.0
 10
18.24219475462345
 20
48.9520062690402
 30
0.0
 10
18.24122438350468
 20
48.95637415511536
 30
0.0
 10
18.24025401238591
 20
48.96074204119051
 30
0.0
 10
18.23917198552198
 20
48.96511515707965
 30
0.0
 10
18.23808995865805
 20
48.9694882729688
 30
0.0
 10
18.23689503373654
 20
48.97386260441196
 30
0.0
 10
18.23570010881502
 20
48.97823693585512
 30
0.0
 10
18.23439122459665
 20
48.9826083597365
 30
0.0
 10
18.23308234037829
 20
48.98697978361788
 30
0.0
 10
18.23165862596939
 20
48.99134407752462
 30
0.0
 10
18.2302349115605
 20
48.99570837143134
 30
0.0
 10
18.22869569512846
 20
49.000061224055
 30
0.0
 10
18.22715647869641
 20
49.00441407667867
 30
0.0
 10
18.22550129554484
 20
49.00875109902624
 30
0.0
 10
18.22384611239329
 20
49.0130881213738
 30
0.0
 10
18.22207471231571
 20
49.01740485874591
 30
0.0
 10
18.22030331223813
 20
49.02172159611801
 30
0.0
 10
18.2184156660709
 20
49.02601354080334
 30
0.0
 10
18.21652801990367
 20
49.03030548548868
 30
0.0
 10
18.21452432520358
 20
49.03456809011475
 30
0.0
 10
18.21252063050349
 20
49.03883069474082
 30
0.0
 10
18.21040131627976
 20
49.04305938621246
 30
0.0
 10
18.20828200205604
 20
49.0472880776841
 30
0.0
 10
18.20604773249254
 20
49.05147827163324
 30
0.0
 10
18.20381346292904
 20
49.05566846558239
 30
0.0
 10
18.20146514003961
 20
49.05981558124508
 30
0.0
 10
18.19911681715017
 20
49.06396269690777
 30
0.0
 10
18.1966555823176
 20
49.06806217233749
 30
0.0
 10
18.19419434748504
 20
49.07216164776721
 30
0.0
 10
18.19162158184345
 20
49.07620895528737
 30
0.0
 10
18.18904881620186
 20
49.08025626280753
 30
0.0
 10
18.18636613983128
 20
49.0842469246014
 30
0.0
 10
18.18368346346069
 20
49.08823758639528
 30
0.0
 10
18.18089273337322
 20
49.09216719012721
 30
0.0
 10
18.17810200328575
 20
49.09609679385915
 30
0.0
 10
18.17520531019371
 20
49.09996100821813
 30
0.0
 10
18.17230861710167
 20
49.10382522257711
 30
0.0
 10
18.16930828096855
 20
49.10761981263246
 30
0.0
 10
18.16630794483543
 20
49.11141440268781
 30
0.0
 10
18.16320650922288
 20
49.115135244946
 30
0.0
 10
18.16010507361032
 20
49.11885608720416
 30
0.0
 10
18.15690529884492
 20
49.12249918425717
 30
0.0
 10
18.15370552407953
 20
49.12614228131017
 30
0.0
 10
18.15041037927553
 20
49.12970377596801
 30
0.0
 10
18.14711523447153
 20
49.13326527062586
 30
0.0
 10
18.14372788845568
 20
49.13674145942947
 30
0.0
 10
18.14034054243984
 20
49.14021764823305
 30
0.0
 10
18.13686435363623
 20
49.1436049942489
 30
0.0
 10
18.13338816483263
 20
49.14699234026475
 30
0.0
 10
18.12982667017479
 20
49.15028748506877
 30
0.0
 10
18.12626517551695
 20
49.15358262987277
 30
0.0
 10
18.12262207846394
 20
49.15678240463815
 30
0.0
 10
18.11897898141094
 20
49.15998217940353
 30
0.0
 10
18.11525813915276
 20
49.16308361501611
 30
0.0
 10
18.11153729689459
 20
49.16618505062866
 30
0.0
 10
18.10774270683924
 20
49.16918538676178
 30
0.0
 10
18.1039481167839
 20
49.17218572289488
 30
0.0
 10
18.10008390242491
 20
49.17508241598694
 30
0.0
 10
18.09621968806593
 20
49.17797910907898
 30
0.0
 10
18.092290084334
 20
49.18076983916644
 30
0.0
 10
18.08836048060207
 20
49.18356056925391
 30
0.0
 10
18.08436981880818
 20
49.1862432456245
 30
0.0
 10
18.08037915701431
 20
49.18892592199509
 30
0.0
 10
18.07633184949415
 20
49.19149868763667
 30
0.0
 10
18.072284541974
 20
49.19407145327826
 30
0.0
 10
18.06818506654428
 20
49.19653268811082
 30
0.0
 10
18.06408559111457
 20
49.19899392294338
 30
0.0
 10
18.05993847545187
 20
49.20134224583283
 30
0.0
 10
18.05579135978916
 20
49.20369056872227
 30
0.0
 10
18.05160116584003
 20
49.20592483828576
 30
0.0
 10
18.04741097189089
 20
49.20815910784926
 30
0.0
 10
18.04318228041924
 20
49.210278422073
 30
0.0
 10
18.03895358894761
 20
49.21239773629672
 30
0.0
 10
18.03469098432153
 20
49.2144014309968
 30
0.0
 10
18.03042837969545
 20
49.21640512569688
 30
0.0
 10
18.02613643501011
 20
49.21829277186411
 30
0.0
 10
18.02184449032478
 20
49.22018041803135
 30
0.0
 10
18.01752775295268
 20
49.22195181810893
 30
0.0
 10
18.01321101558058
 20
49.22372321818651
 30
0.0
 10
18.00887399323301
 20
49.22537840133807
 30
0.0
 10
18.00453697088545
 20
49.22703358448965
 30
0.0
 10
18.00018411826177
 20
49.22857280092169
 30
0.0
 10
17.99583126563811
 20
49.23011201735374
 30
0.0
 10
17.99146697173138
 20
49.23153573176263
 30
0.0
 10
17.98710267782464
 20
49.23295944617152
 30
0.0
 10
17.98273125394327
 20
49.23426833038988
 30
0.0
 10
17.9783598300619
 20
49.23557721460826
 30
0.0
 10
17.97398549861873
 20
49.23677213952976
 30
0.0
 10
17.96961116717558
 20
49.23796706445128
 30
0.0
 10
17.96523805128644
 20
49.23904909131522
 30
0.0
 10
17.9608649353973
 20
49.24013111817914
 30
0.0
 10
17.95649704932213
 20
49.24110148929791
 30
0.0
 10
17.95212916324698
 20
49.24207186041669
 30
0.0
 10
17.9477704036982
 20
49.2429319894305
 30
0.0
 10
17.94341164414942
 20
49.24379211844433
 30
0.0
 10
17.93906578248308
 20
49.24454358018643
 30
0.0
 10
17.93471992081673
 20
49.24529504192854
 30
0.0
 10
17.93039059611399
 20
49.2459395619836
 30
0.0
 10
17.92606127141125
 20
49.24658408203868
 30
0.0
 10
17.92175198445004
 20
49.24712352607504
 30
0.0
 10
17.91744269748884
 20
49.24766297011139
 30
0.0
 10
17.91315680559768
 20
49.24809933306467
 30
0.0
 10
17.90887091370652
 20
49.24853569601792
 30
0.0
 10
17.90461162648621
 20
49.24887109120098
 30
0.0
 10
17.90035233926591
 20
49.24920648638403
 30
0.0
 10
17.89612271515827
 20
49.24944313459337
 30
0.0
 10
17.89189309105063
 20
49.24967978280272
 30
0.0
 10
17.88769603472804
 20
49.24982000148795
 30
0.0
 10
17.88349897840548
 20
49.24996022017319
 30
0.0
 10
17.87933723895017
 20
49.25000641273064
 30
0.0
 10
17.87517549949488
 20
49.25005260528809
 30
0.0
  0
SPLINE
  5
3D
330
1F
100
AcDbEntity
  8
DEFAULT
100
AcDbSpline
210
0.0
220
0.0
230
1.0
 70
    11
 71
     2
 72
    12
 73
     9
 74
     0
 42
0.0000000001
 43
0.0000000001
 40
0.0
 40
0.0
 40
0.0
 40
1.0
 40
1.0
 40
2.0
 40
2.0
 40
3.0
 40
3.0
 40
4.0
 40
4.0
 40
4.0
 10
34.70611746789106
 20
0.4174998313318878
 30
0.0
 10
37.25021307101526
 20
0.4174998313318878
 30
0.0
 10
39.81643151242579
 20
0.4174998313318878
 30
0.0
 10
39.81643151242579
 20
0.9571673313318865
 30
0.0
 10
39.81643151242579
 20
1.496834831331885
 30
0.0
 10
37.25021307101526
 20
1.496834831331885
 30
0.0
 10
34.70611746789106
 20
1.496834831331885
 30
0.0
 10
34.70611746789106
 20
0.9571673313318865
 30
0.0
 10
34.70611746789106
 20
0.4174998313318878
 30
0.0
  0
SPLINE
  5
3E
330
1F
100
AcDbEntity
  8
DEFAULT
100
AcDbSpline
210
0.0
220
0.0
230
1.0
 70
    11
 71
     2
 72
   516
 73
   513
 74
     0
 42
0.0000000001
 43
0.0000000001
 40
0.0
 40
0.0
 40
0.0
 40
1.0
 40
1.0
 40
2.0
 40
2.0
 40
3.0
 40
3.0
 40
4.0
 40
4.0
 40
5.0
 40
5.0
 40
6.0
 40
6.0
 40
7.0
 40
7.0
 40
8.0
 40
8.0
 40
9.0
 40
9.0
 40
10.0
 40
10.0
 40
11.0
 40
11.0
 40
12.0
 40
12.0
 40
13.0
 40
13.0
 40
14.0
 40
14.0
 40
15.0
 40
15.0
 40
16.0
 40
16.0
 40
17.0
 40
17.0
 40
18.0
 40
18.0
 40
19.0
 40
19.0
 40
20.0
 40
20.0
 40
21.0
 40
21.0
 40
22.0
 40
22.0
 40
23.0
 40
23.0
 40
24.0
 40
24.0
 40
25.0
 40
25.0
 40
26.0
 40
26.0
 40
27.0
 40
27.0
 40
28.0
 40
28.0
 40
29.0
 40
29.0
 40
30.0
 40
30.0
 40
31.0
 40
31.0
 40
32.0
 40
32.0
 40
33.0
 40
33.0
 40
34.0
 40
34.0
 40
35.0
 40
35.0
 40
36.0
 40
36.0
 40
37.0
 40
37.0
 40
38.0
 40
38.0
 40
39.0
 40
39.0
 40
40.0
 40
40.0
 40
41.0
 40
41.0
 40
42.0
 40
42.0
 40
43.0
 40
43.0
 40
44.0
 40
44.0
 40
45.0
 40
45.0
 40
46.0
 40
46.0
 40
47.0
 40
47.0
 40
48.0
 40
48.0
 40
49.0
 40
49.0
 40
50.0
 40
50.0
 40
51.0
 40
51.0
 40
52.0
 40
52.0
 40
53.0
 40
53.0
 40
54.0
 40
54.0
 40
55.0
 40
55.0
 40
56.0
 40
56.0
 40
57.0
 40
57.0
 40
58.0
 40
58.0
 40
59.0
 40
59.0
 40
60.0
 40
60.0
 40
61.0
 40
61.0
 40
62.0
 40
62.0
 40
63.0
 40
63.0
 40
64.0
 40
64.0
 40
65.0
 40
65.0
 40
66.0
 40
66.0
 40
67.0
 40
67.0
 40
68.0
 40
68.0
 40
69.0
 40
69.0
 40
70.0
 40
70.0
 40
71.0
 40
71.0
 40
72.0
 40
72.0
 40
73.0
 40
73.0
 40
74.0
 40
74.0
 40
75.0
 40
75.0
 40
76.0
 40
76.0
 40
77.0
 40
77.0
 40
78.0
 40
78.0
 40
79.0
 40
79.0
 40
80.0
 40
80.0
 40
81.0
 40
81.0
 40
82.0
 40
82.0
 40
83.0
 40
83.0
 40
84.0
 40
84.0
 40
85.0
 40
85.0
 40
86.0
 40
86.0
 40
87.0
 40
87.0
 40
88.0
 40
88.0
 40
89.0
 40
89.0
 40
90.0
 40
90.0
 40
91.0
 40
91.0
 40
92.0
 40
92.0
 40
93.0
 40
93.0
 40
94.0
 40
94.0
 40
95.0
 40
95.0
 40
96.0
 40
96.0
 40
97.0
 40
97.0
 40
98.0
 40
98.0
 40
99.0
 40
99.0
 40
100.0
 40
100.0
 40
101.0
 40
101.0
 40
102.0
 40
102.0
 40
103.0
 40
103.0
 40
104.0
 40
104.0
 40
105.0
 40
105.0
 40
106.0
 40
106.0
 40
107.0
 40
107.0
 40
108.0
 40
108.0
 40
109.0
 40
109.0
 40
110.0
 40
110.0
 40
111.0
 40
111.0
 40
112.0
 40
112.0
 40
113.0
 40
113.0
 40
114.0
 40
114.0
 40
115.0
 40
115.0
 40
116.0
 40
116.0
 40
117.0
 40
117.0
 40
118.0
 40
118.0
 40
119.0
 40
119.0
 40
120.0
 40
120.0
 40
121.0
 40
121.0
 40
122.0
 40
122.0
 40
123.0
 40
123.0
 40
124.0
 40
124.0
 40
125.0
 40
125.0
 40
126.0
 40
126.0
 40
127.0
 40
127.0
 40
128.0
 40
128.0
 40
129.0
 40
129.0
 40
130.0
 40
130.0
 40
131.0
 40
131.0
 40
132.0
 40
132.0
 40
133.0
 40
133.0
 40
134.0
 40
134.0
 40
135.0
 40
135.0
 40
136.0
 40
136.0
 40
137.0
 40
137.0
 40
138.0
 40
138.0
 40
139.0
 40
139.0
 40
140.0
 40
140.0
 40
141.0
 40
141.0
 40
142.0
 40
142.0
 40
143.0
 40
143.0
 40
144.0
 40
144.0
 40
145.0
 40
145.0
 40
146.0
 40
146.0
 40
147.0
 40
147.0
 40
148.0
 40
148.0
 40
149.0
 40
149.0
 40
150.0
 40
150.0
 40
151.0
 40
151.0
 40
152.0
 40
152.0
 40
153.0
 40
153.0
 40
154.0
 40
154.0
 40
155.0
 40
155.0
 40
156.0
 40
156.0
 40
157.0
 40
157.0
 40
158.0
 40
158.0
 40
159.0
 40
159.0
 40
160.0
 40
160.0
 40
161.0
 40
161.0
 40
162.0
 40
162.0
 40
163.0
 40
163.0
 40
164.0
 40
164.0
 40
165.0
 40
165.0
 40
166.0
 40
166.0
 40
167.0
 40
167.0
 40
168.0
 40
168.0
 40
169.0
 40
169.0
 40
170.0
 40
170.0
 40
171.0
 40
171.0
 40
172.0
 40
172.0
 40
173.0
 40
173.0
 40
174.0
 40
174.0
 40
175.0
 40
175.0
 40
176.0
 40
176.0
 40
177.0
 40
177.0
 40
178.0
 40
178.0
 40
179.0
 40
179.0
 40
180.0
 40
180.0
 40
181.0
 40
181.0
 40
182.0
 40
182.0
 40
183.0
 40
183.0
 40
184.0
 40
184.0
 40
185.0
 40
185.0
 40
186.0
 40
186.0
 40
187.0
 40
187.0
 40
188.0
 40
188.0
 40
189.0
 40
189.0
 40
190.0
 40
190.0
 40
191.0
 40
191.0
 40
192.0
 40
192.0
 40
193.0
 40
193.0
 40
194.0
 40
194.0
 40
195.0
 40
195.0
 40
196.0
 40
196.0
 40
197.0
 40
197.0
 40
198.0
 40
198.0
 40
199.0
 40
199.0
 40
200.0
 40
200.0
 40
201.0
 40
201.0
 40
202.0
 40
202.0
 40
203.0
 40
203.0
 40
204.0
 40
204.0
 40
205.0
 40
205.0
 40
206.0
 40
206.0
 40
207.0
 40
207.0
 40
208.0
 40
208.0
 40
209.0
 40
209.0
 40
210.0
 40
210.0
 40
211.0
 40
211.0
 40
212.0
 40
212.0
 40
213.0
 40
213.0
 40
214.0
 40
214.0
 40
215.0
 40
215.0
 40
216.0
 40
216.0
 40
217.0
 40
217.0
 40
218.0
 40
218.0
 40
219.0
 40
219.0
 40
220.0
 40
220.0
 40
221.0
 40
221.0
 40
222.0
 40
222.0
 40
223.0
 40
223.0
 40
224.0
 40
224.0
 40
225.0
 40
225.0
 40
226.0
 40
226.0
 40
227.0
 40
227.0
 40
228.0
 40
228.0
 40
229.0
 40
229.0
 40
230.0
 40
230.0
 40
231.0
 40
231.0
 40
232.0
 40
232.0
 40
233.0
 40
233.0
 40
234.0
 40
234.0
 40
235.0
 40
235.0
 40
236.0
 40
236.0
 40
237.0
 40
237.0
 40
238.0
 40
238.0
 40
239.0
 40
239.0
 40
240.0
 40
240.0
 40
241.0
 40
241.0
 40
242.0
 40
242.0
 40
243.0
 40
243.0
 40
244.0
 40
244.0
 40
245.0
 40
245.0
 40
246.0
 40
246.0
 40
247.0
 40
247.0
 40
248.0
 40
248.0
 40
249.0
 40
249.0
 40
250.0
 40
250.0
 40
251.0
 40
251.0
 40
252.0
 40
252.0
 40
253.0
 40
253.0
 40
254.0
 40
254.0
 40
255.0
 40
255.0
 40
256.0
 40
256.0
 40
256.0
 10
45.13643151242577
 20
2.499999831331881
 30
0.0
 10
45.13630833227256
 20
12.51109780321269
 30
0.0
 10
45.13618515211935
 20
22.5221957750935
 30
0.0
 10
45.1358112356254
 20
22.53338792528702
 30
0.0
 10
45.13543731913144
 20
22.54458007548055
 30
0.0
 10
45.13480625723984
 20
22.55585907310093
 30
0.0
 10
45.13417519534823
 20
22.5671380707213
 30
0.0
 10
45.13328080819345
 20
22.57849616997545
 30
0.0
 10
45.13238642103866
 20
22.5898542692296
 30
0.0
 10
45.13122278649659
 20
22.60128331427268
 30
0.0
 10
45.13005915195453
 20
22.61271235931576
 30
0.0
 10
45.12862063452427
 20
22.62420379121232
 30
0.0
 10
45.12718211709402
 20
22.63569522310888
 30
0.0
 10
45.12546339694714
 20
22.64724008898285
 30
0.0
 10
45.12374467680026
 20
22.65878495485683
 30
0.0
 10
45.12174077882131
 20
22.67037391930043
 30
0.0
 10
45.11973688084235
 20
22.68196288374403
 30
0.0
 10
45.11744320347216
 20
22.69358624254075
 30
0.0
 10
45.11514952610197
 20
22.70520960133748
 30
0.0
 10
45.11256186978525
 20
22.71685729753791
 30
0.0
 10
45.10997421346852
 20
22.72850499373834
 30
0.0
 10
45.10708880849806
 20
22.74016663610938
 30
0.0
 10
45.10420340352759
 20
22.75182827848041
 30
0.0
 10
45.10101693707021
 20
22.76349316232884
 30
0.0
 10
45.09783047061282
 20
22.77515804617726
 30
0.0
 10
45.09434011269717
 20
22.7868151765276
 30
0.0
 10
45.09084975478152
 20
22.79847230687793
 30
0.0
 10
45.08705318302449
 20
22.81011042396255
 30
0.0
 10
45.08325661126746
 20
22.82174854104717
 30
0.0
 10
45.07915203411533
 20
22.83335614804361
 30
0.0
 10
45.0750474569632
 20
22.84496375504006
 30
0.0
 10
45.07063363522571
 20
22.85652914796691
 30
0.0
 10
45.06621981348822
 20
22.86809454089376
 30
0.0
 10
45.061496079948
 20
22.87960584055269
 30
0.0
 10
45.05677234640778
 20
22.89111714021162
 30
0.0
 10
45.05173862329517
 20
22.90256232603918
 30
0.0
 10
45.04670490018255
 20
22.91400751186674
 30
0.0
 10
45.04136171431566
 20
22.92537445753629
 30
0.0
 10
45.03601852844876
 20
22.93674140320583
 30
0.0
 10
45.03036702385216
 20
22.94801791379686
 30
0.0
 10
45.02471551925555
 20
22.9592944243879
 30
0.0
 10
45.01875746708623
 20
22.97046827491894
 30
0.0
 10
45.01279941491691
 20
22.98164212544998
 30
0.0
 10
45.00653722054506
 20
22.99270110055052
 30
0.0
 10
45.00027502617321
 20
23.00376007565105
 30
0.0
 10
44.99371173328637
 20
23.01469201013029
 30
0.0
 10
44.98714844039954
 20
23.02562394460953
 30
0.0
 10
44.98028773202198
 20
23.03641676466329
 30
0.0
 10
44.97342702364443
 20
23.04720958471704
 30
0.0
 10
44.96627321998952
 20
23.05785134950072
 30
0.0
 10
44.9591194163346
 20
23.0684931142844
 30
0.0
 10
44.9516774694347
 20
23.07897205756955
 30
0.0
 10
44.9442355225348
 20
23.0894510008547
 30
0.0
 10
44.93651100762268
 20
23.09975557247866
 30
0.0
 10
44.92878649271056
 20
23.11006014410262
 30
0.0
 10
44.92078559635559
 20
23.12017905091687
 30
0.0
 10
44.91278470000063
 20
23.13029795773113
 30
0.0
 10
44.90451420503378
 20
23.14022020375293
 30
0.0
 10
44.89624371006694
 20
23.15014244977473
 30
0.0
 10
44.88771097735923
 20
23.15985737524941
 30
0.0
 10
44.87917824465153
 20
23.16957230072409
 30
0.0
 10
44.87039119184086
 20
23.17906961981166
 30
0.0
 10
44.86160413903019
 20
23.18856693889924
 30
0.0
 10
44.85257121632126
 20
23.19783677570884
 30
0.0
 10
44.84353829361233
 20
23.20710661251844
 30
0.0
 10
44.83426845680273
 20
23.21613953522738
 30
0.0
 10
44.82499861999312
 20
23.22517245793632
 30
0.0
 10
44.81550130090555
 20
23.23395951074698
 30
0.0
 10
44.80600398181797
 20
23.24274656355765
 30
0.0
 10
44.79628905634329
 20
23.25127929626535
 30
0.0
 10
44.78657413086862
 20
23.25981202897306
 30
0.0
 10
44.77665188484681
 20
23.2680825239399
 30
0.0
 10
44.76672963882501
 20
23.27635301890674
 30
0.0
 10
44.75661073201076
 20
23.2843539152617
 30
0.0
 10
44.7464918251965
 20
23.29235481161667
 30
0.0
 10
44.73618725357254
 20
23.30007932652879
 30
0.0
 10
44.72588268194858
 20
23.30780384144091
 30
0.0
 10
44.71540373866343
 20
23.31524578834082
 30
0.0
 10
44.70492479537828
 20
23.32268773524072
 30
0.0
 10
44.6942830305946
 20
23.32984153889564
 30
0.0
 10
44.68364126581093
 20
23.33699534255055
 30
0.0
 10
44.67284844575718
 20
23.3438560509281
 30
0.0
 10
44.66205562570343
 20
23.35071675930564
 30
0.0
 10
44.65112369122419
 20
23.35728005219249
 30
0.0
 10
44.64019175674494
 20
23.36384334507933
 30
0.0
 10
44.62913278164441
 20
23.37010553945117
 30
0.0
 10
44.61807380654388
 20
23.37636773382301
 30
0.0
 10
44.60689995601284
 20
23.38232578599233
 30
0.0
 10
44.5957261054818
 20
23.38828383816165
 30
0.0
 10
44.58444959489076
 20
23.39393534275825
 30
0.0
 10
44.57317308429973
 20
23.39958684735485
 30
0.0
 10
44.56180613863018
 20
23.40493003322175
 30
0.0
 10
44.55043919296064
 20
23.41027321908865
 30
0.0
 10
44.53899400713307
 20
23.41530694220128
 30
0.0
 10
44.5275488213055
 20
23.4203406653139
 30
0.0
 10
44.51603752164658
 20
23.42506439885411
 30
0.0
 10
44.50452622198766
 20
23.42978813239433
 30
0.0
 10
44.49296082906081
 20
23.43420195413182
 30
0.0
 10
44.48139543613395
 20
23.43861577586931
 30
0.0
 10
44.46978782913751
 20
23.44272035302144
 30
0.0
 10
44.45818022214107
 20
23.44682493017357
 30
0.0
 10
44.44654210505644
 20
23.4506215019306
 30
0.0
 10
44.43490398797182
 20
23.45441807368763
 30
0.0
 10
44.42324685762149
 20
23.45790843160328
 30
0.0
 10
44.41158972727116
 20
23.46139878951892
 30
0.0
 10
44.39992484342274
 20
23.46458525597631
 30
0.0
 10
44.38825995957431
 20
23.4677717224337
 30
0.0
 10
44.37659831720327
 20
23.47065712740417
 30
0.0
 10
44.36493667483222
 20
23.47354253237464
 30
0.0
 10
44.3532889786318
 20
23.47613018869136
 30
0.0
 10
44.34164128243137
 20
23.47871784500807
 30
0.0
 10
44.33001792363464
 20
23.48101152237827
 30
0.0
 10
44.31839456483792
 20
23.48330519974846
 30
0.0
 10
44.30680560039431
 20
23.48530909772742
 30
0.0
 10
44.29521663595071
 20
23.48731299570638
 30
0.0
 10
44.28367177007674
 20
23.48903171585325
 30
0.0
 10
44.27212690420276
 20
23.49075043600013
 30
0.0
 10
44.26063547230621
 20
23.49218895343039
 30
0.0
 10
44.24914404040965
 20
23.49362747086064
 30
0.0
 10
44.23771499536657
 20
23.4947911054027
 30
0.0
 10
44.22628595032349
 20
23.49595473994477
 30
0.0
 10
44.21492785106933
 20
23.49684912709957
 30
0.0
 10
44.20356975181518
 20
23.49774351425436
 30
0.0
 10
44.1922907541948
 20
23.49837457614596
 30
0.0
 10
44.18101175657442
 20
23.49900563803756
 30
0.0
 10
44.1698196063809
 20
23.49937955453151
 30
0.0
 10
44.15862745618739
 20
23.49975347102546
 30
0.0
 10
37.26131104289606
 20
23.49987665117867
 30
0.0
 10
30.38611746789107
 20
23.49999983133189
 30
0.0
 10
30.37501949601027
 20
23.49987665117867
 30
0.0
 10
30.36392152412947
 20
23.49975347102546
 30
0.0
 10
30.35272937393594
 20
23.49937955453151
 30
0.0
 10
30.34153722374241
 20
23.49900563803756
 30
0.0
 10
30.33025822612204
 20
23.49837457614596
 30
0.0
 10
30.31897922850167
 20
23.49774351425436
 30
0.0
 10
30.30762112924752
 20
23.49684912709957
 30
0.0
 10
30.29626302999337
 20
23.49595473994477
 30
0.0
 10
30.28483398495029
 20
23.4947911054027
 30
0.0
 10
30.27340493990721
 20
23.49362747086064
 30
0.0
 10
30.26191350801064
 20
23.49218895343039
 30
0.0
 10
30.25042207611409
 20
23.49075043600013
 30
0.0
 10
30.23887721024011
 20
23.48903171585325
 30
0.0
 10
30.22733234436614
 20
23.48731299570638
 30
0.0
 10
30.21574337992253
 20
23.48530909772742
 30
0.0
 10
30.20415441547893
 20
23.48330519974846
 30
0.0
 10
30.1925310566822
 20
23.48101152237827
 30
0.0
 10
30.18090769788548
 20
23.47871784500807
 30
0.0
 10
30.16926000168505
 20
23.47613018869135
 30
0.0
 10
30.15761230548462
 20
23.47354253237463
 30
0.0
 10
30.14595066311358
 20
23.47065712740416
 30
0.0
 10
30.13428902074255
 20
23.46777172243369
 30
0.0
 10
30.12262413689412
 20
23.4645852559763
 30
0.0
 10
30.1109592530457
 20
23.46139878951892
 30
0.0
 10
30.09930212269536
 20
23.45790843160328
 30
0.0
 10
30.08764499234503
 20
23.45441807368763
 30
0.0
 10
30.07600687526041
 20
23.45062150193059
 30
0.0
 10
30.06436875817579
 20
23.44682493017356
 30
0.0
 10
30.05276115117934
 20
23.44272035302144
 30
0.0
 10
30.0411535441829
 20
23.43861577586931
 30
0.0
 10
30.02958815125605
 20
23.43420195413181
 30
0.0
 10
30.0180227583292
 20
23.42978813239431
 30
0.0
 10
30.00651145867027
 20
23.4250643988541
 30
0.0
 10
29.99500015901134
 20
23.42034066531388
 30
0.0
 10
29.98355497318378
 20
23.41530694220126
 30
0.0
 10
29.97210978735622
 20
23.41027321908864
 30
0.0
 10
29.96074284168668
 20
23.40493003322175
 30
0.0
 10
29.94937589601714
 20
23.39958684735485
 30
0.0
 10
29.9380993854261
 20
23.39393534275825
 30
0.0
 10
29.92682287483506
 20
23.38828383816164
 30
0.0
 10
29.91564902430403
 20
23.38232578599232
 30
0.0
 10
29.90447517377299
 20
23.376367733823
 30
0.0
 10
29.89341619867245
 20
23.37010553945116
 30
0.0
 10
29.88235722357192
 20
23.36384334507932
 30
0.0
 10
29.87142528909267
 20
23.35728005219248
 30
0.0
 10
29.86049335461343
 20
23.35071675930563
 30
0.0
 10
29.84970053455967
 20
23.34385605092809
 30
0.0
 10
29.83890771450593
 20
23.33699534255054
 30
0.0
 10
29.82826594972225
 20
23.32984153889562
 30
0.0
 10
29.81762418493857
 20
23.3226877352407
 30
0.0
 10
29.80714524165342
 20
23.3152457883408
 30
0.0
 10
29.79666629836827
 20
23.3078038414409
 30
0.0
 10
29.7863617267443
 20
23.30007932652878
 30
0.0
 10
29.77605715512035
 20
23.29235481161666
 30
0.0
 10
29.76593824830609
 20
23.2843539152617
 30
0.0
 10
29.75581934149184
 20
23.27635301890673
 30
0.0
 10
29.74589709547004
 20
23.26808252393989
 30
0.0
 10
29.73597484944824
 20
23.25981202897305
 30
0.0
 10
29.72625992397356
 20
23.25127929626534
 30
0.0
 10
29.71654499849888
 20
23.24274656355764
 30
0.0
 10
29.7070476794113
 20
23.23395951074697
 30
0.0
 10
29.69755036032374
 20
23.2251724579363
 30
0.0
 10
29.68828052351412
 20
23.21613953522736
 30
0.0
 10
29.67901068670452
 20
23.20710661251843
 30
0.0
 10
29.66997776399558
 20
23.19783677570883
 30
0.0
 10
29.66094484128665
 20
23.18856693889922
 30
0.0
 10
29.65215778847598
 20
23.17906961981165
 30
0.0
 10
29.64337073566531
 20
23.16957230072408
 30
0.0
 10
29.63483800295761
 20
23.1598573752494
 30
0.0
 10
29.62630527024991
 20
23.15014244977472
 30
0.0
 10
29.61803477528307
 20
23.14022020375291
 30
0.0
 10
29.60976428031623
 20
23.13029795773111
 30
0.0
 10
29.60176338396126
 20
23.12017905091685
 30
0.0
 10
29.5937624876063
 20
23.1100601441026
 30
0.0
 10
29.58603797269418
 20
23.09975557247864
 30
0.0
 10
29.57831345778206
 20
23.08945100085468
 30
0.0
 10
29.57087151088215
 20
23.07897205756953
 30
0.0
 10
29.56342956398225
 20
23.06849311428438
 30
0.0
 10
29.55627576032733
 20
23.0578513495007
 30
0.0
 10
29.54912195667242
 20
23.04720958471702
 30
0.0
 10
29.54226124829486
 20
23.03641676466327
 30
0.0
 10
29.53540053991732
 20
23.02562394460952
 30
0.0
 10
29.52883724703047
 20
23.01469201013028
 30
0.0
 10
29.52227395414364
 20
23.00376007565103
 30
0.0
 10
29.51601175977179
 20
22.99270110055049
 30
0.0
 10
29.50974956539995
 20
22.98164212544996
 30
0.0
 10
29.50379151323063
 20
22.97046827491892
 30
0.0
 10
29.49783346106132
 20
22.95929442438789
 30
0.0
 10
29.49218195646472
 20
22.94801791379685
 30
0.0
 10
29.48653045186812
 20
22.93674140320582
 30
0.0
 10
29.48118726600121
 20
22.92537445753627
 30
0.0
 10
29.47584408013431
 20
22.91400751186673
 30
0.0
 10
29.47081035702168
 20
22.90256232603917
 30
0.0
 10
29.46577663390907
 20
22.89111714021161
 30
0.0
 10
29.46105290036885
 20
22.87960584055268
 30
0.0
 10
29.45632916682864
 20
22.86809454089375
 30
0.0
 10
29.45191534509114
 20
22.8565291479669
 30
0.0
 10
29.44750152335365
 20
22.84496375504005
 30
0.0
 10
29.44339694620152
 20
22.83335614804361
 30
0.0
 10
29.43929236904939
 20
22.82174854104716
 30
0.0
 10
29.43549579729236
 20
22.81011042396254
 30
0.0
 10
29.43169922553533
 20
22.79847230687792
 30
0.0
 10
29.42820886761968
 20
22.78681517652758
 30
0.0
 10
29.42471850970404
 20
22.77515804617725
 30
0.0
 10
29.42153204324665
 20
22.76349316232882
 30
0.0
 10
29.41834557678926
 20
22.7518282784804
 30
0.0
 10
29.41546017181879
 20
22.74016663610936
 30
0.0
 10
29.41257476684832
 20
22.72850499373833
 30
0.0
 10
29.4099871105316
 20
22.71685729753791
 30
0.0
 10
29.40739945421489
 20
22.70520960133748
 30
0.0
 10
29.40510577684469
 20
22.69358624254075
 30
0.0
 10
29.4028120994745
 20
22.68196288374403
 30
0.0
 10
29.40080820149554
 20
22.67037391930042
 30
0.0
 10
29.39880430351658
 20
22.65878495485682
 30
0.0
 10
29.3970855833697
 20
22.64724008898284
 30
0.0
 10
29.39536686322283
 20
22.63569522310887
 30
0.0
 10
29.39392834579257
 20
22.62420379121231
 30
0.0
 10
29.39248982836232
 20
22.61271235931575
 30
0.0
 10
29.39132619382025
 20
22.60128331427267
 30
0.0
 10
29.39016255927819
 20
22.58985426922959
 30
0.0
 10
29.3892681721234
 20
22.57849616997544
 30
0.0
 10
29.38837378496861
 20
22.56713807072129
 30
0.0
 10
29.38774272307701
 20
22.55585907310091
 30
0.0
 10
29.3871116611854
 20
22.54458007548054
 30
0.0
 10
29.38673774469145
 20
22.53338792528702
 30
0.0
 10
29.38636382819751
 20
22.52219577509349
 30
0.0
 10
29.38624064804429
 20
12.51109780321269
 30
0.0
 10
29.38611746789107
 20
2.499999831331881
 30
0.0
 10
29.38624064804429
 20
2.488901859451079
 30
0.0
 10
29.38636382819751
 20
2.477803887570276
 30
0.0
 10
29.38673774469145
 20
2.466611737376749
 30
0.0
 10
29.3871116611854
 20
2.455419587183223
 30
0.0
 10
29.387742723077
 20
2.444140589562849
 30
0.0
 10
29.3883737849686
 20
2.432861591942476
 30
0.0
 10
29.38926817212339
 20
2.421503492688326
 30
0.0
 10
29.39016255927819
 20
2.410145393434176
 30
0.0
 10
29.39132619382025
 20
2.398716348391094
 30
0.0
 10
29.39248982836231
 20
2.387287303348013
 30
0.0
 10
29.39392834579256
 20
2.375795871451453
 30
0.0
 10
29.39536686322282
 20
2.364304439554894
 30
0.0
 10
29.3970855833697
 20
2.352759573680919
 30
0.0
 10
29.39880430351658
 20
2.341214707806945
 30
0.0
 10
29.40080820149553
 20
2.329625743363341
 30
0.0
 10
29.40281209947449
 20
2.318036778919736
 30
0.0
 10
29.40510577684468
 20
2.306413420123014
 30
0.0
 10
29.40739945421488
 20
2.294790061326291
 30
0.0
 10
29.4099871105316
 20
2.283142365125863
 30
0.0
 10
29.41257476684832
 20
2.271494668925435
 30
0.0
 10
29.41546017181879
 20
2.259833026554397
 30
0.0
 10
29.41834557678927
 20
2.24817138418336
 30
0.0
 10
29.42153204324665
 20
2.236506500334936
 30
0.0
 10
29.42471850970404
 20
2.224841616486511
 30
0.0
 10
29.42820886761968
 20
2.213184486136177
 30
0.0
 10
29.43169922553533
 20
2.201527355785843
 30
0.0
 10
29.43549579729236
 20
2.189889238701222
 30
0.0
 10
29.43929236904939
 20
2.178251121616601
 30
0.0
 10
29.44339694620152
 20
2.166643514620158
 30
0.0
 10
29.44750152335365
 20
2.155035907623715
 30
0.0
 10
29.45191534509114
 20
2.143470514696862
 30
0.0
 10
29.45632916682864
 20
2.131905121770008
 30
0.0
 10
29.46105290036885
 20
2.120393822111083
 30
0.0
 10
29.46577663390907
 20
2.108882522452159
 30
0.0
 10
29.47081035702169
 20
2.097437336624596
 30
0.0
 10
29.47584408013432
 20
2.085992150797034
 30
0.0
 10
29.48118726600121
 20
2.074625205127492
 30
0.0
 10
29.48653045186811
 20
2.06325825945795
 30
0.0
 10
29.49218195646471
 20
2.051981748866913
 30
0.0
 10
29.49783346106132
 20
2.040705238275877
 30
0.0
 10
29.50379151323064
 20
2.029531387744841
 30
0.0
 10
29.50974956539996
 20
2.018357537213805
 30
0.0
 10
29.5160117597718
 20
2.007298562113267
 30
0.0
 10
29.52227395414364
 20
1.996239587012729
 30
0.0
 10
29.52883724703047
 20
1.985307652533484
 30
0.0
 10
29.53540053991732
 20
1.974375718054239
 30
0.0
 10
29.54226124829486
 20
1.963582898000488
 30
0.0
 10
29.54912195667241
 20
1.952790077946738
 30
0.0
 10
29.55627576032733
 20
1.942148313163058
 30
0.0
 10
29.56342956398225
 20
1.931506548379378
 30
0.0
 10
29.57087151088215
 20
1.921027605094229
 30
0.0
 10
29.57831345778206
 20
1.910548661809079
 30
0.0
 10
29.58603797269418
 20
1.900244090185117
 30
0.0
 10
29.5937624876063
 20
1.889939518561156
 30
0.0
 10
29.60176338396126
 20
1.879820611746903
 30
0.0
 10
29.60976428031623
 20
1.86970170493265
 30
0.0
 10
29.61803477528307
 20
1.859779458910847
 30
0.0
 10
29.62630527024991
 20
1.849857212889044
 30
0.0
 10
29.63483800295761
 20
1.840142287414365
 30
0.0
 10
29.64337073566531
 20
1.830427361939686
 30
0.0
 10
29.65215778847598
 20
1.820930042852114
 30
0.0
 10
29.66094484128665
 20
1.811432723764543
 30
0.0
 10
29.66997776399558
 20
1.802162886954938
 30
0.0
 10
29.67901068670452
 20
1.792893050145332
 30
0.0
 10
29.68828052351412
 20
1.783860127436397
 30
0.0
 10
29.69755036032373
 20
1.774827204727462
 30
0.0
 10
29.7070476794113
 20
1.766040151916793
 30
0.0
 10
29.71654499849888
 20
1.757253099106123
 30
0.0
 10
29.72625992397356
 20
1.74872036639842
 30
0.0
 10
29.73597484944824
 20
1.740187633690717
 30
0.0
 10
29.74589709547004
 20
1.731917138723877
 30
0.0
 10
29.75581934149184
 20
1.723646643757037
 30
0.0
 10
29.76593824830609
 20
1.715645747402071
 30
0.0
 10
29.77605715512035
 20
1.707644851047105
 30
0.0
 10
29.7863617267443
 20
1.699920336134987
 30
0.0
 10
29.79666629836827
 20
1.692195821222868
 30
0.0
 10
29.80714524165342
 20
1.684753874322964
 30
0.0
 10
29.81762418493857
 20
1.677311927423061
 30
0.0
 10
29.82826594972224
 20
1.670158123768145
 30
0.0
 10
29.83890771450592
 20
1.663004320113229
 30
0.0
 10
29.84970053455967
 20
1.65614361173568
 30
0.0
 10
29.86049335461343
 20
1.649282903358131
 30
0.0
 10
29.87142528909267
 20
1.64271961047129
 30
0.0
 10
29.88235722357192
 20
1.636156317584448
 30
0.0
 10
29.89341619867246
 20
1.629894123212607
 30
0.0
 10
29.904475173773
 20
1.623631928840765
 30
0.0
 10
29.91564902430403
 20
1.617673876671446
 30
0.0
 10
29.92682287483506
 20
1.611715824502127
 30
0.0
 10
29.9380993854261
 20
1.606064319905525
 30
0.0
 10
29.94937589601714
 20
1.600412815308923
 30
0.0
 10
29.96074284168668
 20
1.595069629442025
 30
0.0
 10
29.97210978735622
 20
1.589726443575127
 30
0.0
 10
29.98355497318378
 20
1.584692720462503
 30
0.0
 10
29.99500015901135
 20
1.579658997349879
 30
0.0
 10
30.00651145867027
 20
1.574935263809664
 30
0.0
 10
30.0180227583292
 20
1.57021153026945
 30
0.0
 10
30.02958815125605
 20
1.565797708531957
 30
0.0
 10
30.0411535441829
 20
1.561383886794463
 30
0.0
 10
30.05276115117934
 20
1.557279309642333
 30
0.0
 10
30.06436875817579
 20
1.553174732490202
 30
0.0
 10
30.07600687526041
 20
1.549378160733171
 30
0.0
 10
30.08764499234503
 20
1.54558158897614
 30
0.0
 10
30.09930212269536
 20
1.542091231060494
 30
0.0
 10
30.1109592530457
 20
1.538600873144848
 30
0.0
 10
30.12262413689412
 20
1.535414406687461
 30
0.0
 10
30.13428902074255
 20
1.532227940230075
 30
0.0
 10
30.14595066311358
 20
1.529342535259605
 30
0.0
 10
30.15761230548462
 20
1.526457130289135
 30
0.0
 10
30.16926000168505
 20
1.523869473972416
 30
0.0
 10
30.18090769788548
 20
1.521281817655697
 30
0.0
 10
30.1925310566822
 20
1.518988140285502
 30
0.0
 10
30.20415441547892
 20
1.516694462915306
 30
0.0
 10
30.21574337992252
 20
1.514690564936348
 30
0.0
 10
30.22733234436613
 20
1.512686666957389
 30
0.0
 10
30.2388772102401
 20
1.510967946810513
 30
0.0
 10
30.25042207611408
 20
1.509249226663636
 30
0.0
 10
30.26191350801064
 20
1.507810709233381
 30
0.0
 10
30.2734049399072
 20
1.506372191803125
 30
0.0
 10
30.28483398495028
 20
1.505208557261063
 30
0.0
 10
30.29626302999337
 20
1.504044922719001
 30
0.0
 10
30.30762112924751
 20
1.503150535564207
 30
0.0
 10
30.31897922850166
 20
1.502256148409412
 30
0.0
 10
30.33025822612204
 20
1.501625086517811
 30
0.0
 10
30.34153722374241
 20
1.500994024626211
 30
0.0
 10
30.35272937393594
 20
1.500620108132263
 30
0.0
 10
30.36392152412947
 20
1.500246191638315
 30
0.0
 10
37.23911509913445
 20
1.500123011485099
 30
0.0
 10
44.13643151242577
 20
1.499999831331884
 30
0.0
 10
44.14752948430658
 20
1.500123011485101
 30
0.0
 10
44.15862745618739
 20
1.500246191638318
 30
0.0
 10
44.16981960638091
 20
1.500620108132266
 30
0.0
 10
44.18101175657443
 20
1.500994024626214
 30
0.0
 10
44.19229075419481
 20
1.501625086517814
 30
0.0
 10
44.20356975181518
 20
1.502256148409415
 30
0.0
 10
44.21492785106933
 20
1.50315053556421
 30
0.0
 10
44.22628595032349
 20
1.504044922719005
 30
0.0
 10
44.23771499536657
 20
1.505208557261067
 30
0.0
 10
44.24914404040965
 20
1.506372191803129
 30
0.0
 10
44.26063547230621
 20
1.507810709233385
 30
0.0
 10
44.27212690420276
 20
1.50924922666364
 30
0.0
 10
44.28367177007674
 20
1.510967946810517
 30
0.0
 10
44.29521663595072
 20
1.512686666957393
 30
0.0
 10
44.30680560039432
 20
1.514690564936351
 30
0.0
 10
44.31839456483792
 20
1.516694462915309
 30
0.0
 10
44.33001792363464
 20
1.518988140285505
 30
0.0
 10
44.34164128243137
 20
1.521281817655701
 30
0.0
 10
44.3532889786318
 20
1.52386947397242
 30
0.0
 10
44.36493667483222
 20
1.526457130289139
 30
0.0
 10
44.37659831720327
 20
1.529342535259609
 30
0.0
 10
44.38825995957431
 20
1.532227940230079
 30
0.0
 10
44.39992484342273
 20
1.535414406687465
 30
0.0
 10
44.41158972727115
 20
1.538600873144852
 30
0.0
 10
44.42324685762148
 20
1.542091231060498
 30
0.0
 10
44.43490398797181
 20
1.545581588976144
 30
0.0
 10
44.44654210505643
 20
1.549378160733175
 30
0.0
 10
44.45818022214105
 20
1.553174732490206
 30
0.0
 10
44.46978782913749
 20
1.557279309642337
 30
0.0
 10
44.48139543613394
 20
1.561383886794467
 30
0.0
 10
44.49296082906079
 20
1.56579770853196
 30
0.0
 10
44.50452622198765
 20
1.570211530269453
 30
0.0
 10
44.51603752164657
 20
1.574935263809668
 30
0.0
 10
44.52754882130549
 20
1.579658997349883
 30
0.0
 10
44.53899400713306
 20
1.584692720462507
 30
0.0
 10
44.55043919296062
 20
1.58972644357513
 30
0.0
 10
44.56180613863016
 20
1.595069629442028
 30
0.0
 10
44.5731730842997
 20
1.600412815308926
 30
0.0
 10
44.58444959489074
 20
1.606064319905529
 30
0.0
 10
44.59572610548177
 20
1.611715824502131
 30
0.0
 10
44.60689995601281
 20
1.61767387667145
 30
0.0
 10
44.61807380654385
 20
1.623631928840769
 30
0.0
 10
44.62913278164438
 20
1.629894123212611
 30
0.0
 10
44.64019175674491
 20
1.636156317584452
 30
0.0
 10
44.65112369122416
 20
1.642719610471293
 30
0.0
 10
44.66205562570342
 20
1.649282903358134
 30
0.0
 10
44.67284844575717
 20
1.656143611735683
 30
0.0
 10
44.68364126581092
 20
1.663004320113232
 30
0.0
 10
44.6942830305946
 20
1.670158123768148
 30
0.0
 10
44.70492479537828
 20
1.677311927423064
 30
0.0
 10
44.71540373866343
 20
1.684753874322968
 30
0.0
 10
44.72588268194858
 20
1.692195821222871
 30
0.0
 10
44.73618725357254
 20
1.699920336134989
 30
0.0
 10
44.7464918251965
 20
1.707644851047108
 30
0.0
 10
44.75661073201075
 20
1.715645747402074
 30
0.0
 10
44.766729638825
 20
1.72364664375704
 30
0.0
 10
44.7766518848468
 20
1.73191713872388
 30
0.0
 10
44.7865741308686
 20
1.74018763369072
 30
0.0
 10
44.79628905634328
 20
1.748720366398423
 30
0.0
 10
44.80600398181795
 20
1.757253099106126
 30
0.0
 10
44.81550130090553
 20
1.766040151916795
 30
0.0
 10
44.82499861999311
 20
1.774827204727465
 30
0.0
 10
44.83426845680271
 20
1.7838601274364
 30
0.0
 10
44.84353829361231
 20
1.792893050145335
 30
0.0
 10
44.85257121632125
 20
1.802162886954941
 30
0.0
 10
44.86160413903019
 20
1.811432723764546
 30
0.0
 10
44.87039119184085
 20
1.820930042852118
 30
0.0
 10
44.87917824465151
 20
1.830427361939689
 30
0.0
 10
44.88771097735922
 20
1.840142287414368
 30
0.0
 10
44.89624371006693
 20
1.849857212889047
 30
0.0
 10
44.90451420503377
 20
1.859779458910849
 30
0.0
 10
44.91278470000061
 20
1.869701704932652
 30
0.0
 10
44.92078559635558
 20
1.879820611746906
 30
0.0
 10
44.92878649271054
 20
1.889939518561159
 30
0.0
 10
44.93651100762266
 20
1.90024409018512
 30
0.0
 10
44.94423552253478
 20
1.910548661809081
 30
0.0
 10
44.95167746943469
 20
1.921027605094231
 30
0.0
 10
44.9591194163346
 20
1.93150654837938
 30
0.0
 10
44.96627321998952
 20
1.942148313163059
 30
0.0
 10
44.97342702364443
 20
1.952790077946739
 30
0.0
 10
44.98028773202198
 20
1.96358289800049
 30
0.0
 10
44.98714844039952
 20
1.97437571805424
 30
0.0
 10
44.99371173328636
 20
1.985307652533485
 30
0.0
 10
45.0002750261732
 20
1.99623958701273
 30
0.0
 10
45.00653722054504
 20
2.007298562113268
 30
0.0
 10
45.01279941491688
 20
2.018357537213805
 30
0.0
 10
45.0187574670862
 20
2.029531387744842
 30
0.0
 10
45.02471551925552
 20
2.040705238275878
 30
0.0
 10
45.03036702385212
 20
2.051981748866915
 30
0.0
 10
45.03601852844872
 20
2.063258259457951
 30
0.0
 10
45.04136171431563
 20
2.074625205127493
 30
0.0
 10
45.04670490018253
 20
2.085992150797035
 30
0.0
 10
45.05173862329515
 20
2.097437336624598
 30
0.0
 10
45.05677234640777
 20
2.10888252245216
 30
0.0
 10
45.06149607994799
 20
2.120393822111085
 30
0.0
 10
45.0662198134882
 20
2.131905121770009
 30
0.0
 10
45.0706336352257
 20
2.143470514696863
 30
0.0
 10
45.07504745696319
 20
2.155035907623716
 30
0.0
 10
45.07915203411532
 20
2.166643514620159
 30
0.0
 10
45.08325661126744
 20
2.178251121616602
 30
0.0
 10
45.08705318302448
 20
2.189889238701223
 30
0.0
 10
45.09084975478152
 20
2.201527355785844
 30
0.0
 10
45.09434011269716
 20
2.213184486136178
 30
0.0
 10
45.09783047061281
 20
2.224841616486512
 30
0.0
 10
45.10101693707019
 20
2.236506500334936
 30
0.0
 10
45.10420340352758
 20
2.24817138418336
 30
0.0
 10
45.10708880849805
 20
2.259833026554398
 30
0.0
 10
45.10997421346852
 20
2.271494668925436
 30
0.0
 10
45.11256186978524
 20
2.283142365125864
 30
0.0
 10
45.11514952610196
 20
2.294790061326291
 30
0.0
 10
45.11744320347216
 20
2.306413420123014
 30
0.0
 10
45.11973688084235
 20
2.318036778919736
 30
0.0
 10
45.12174077882131
 20
2.329625743363341
 30
0.0
 10
45.12374467680027
 20
2.341214707806946
 30
0.0
 10
45.12546339694715
 20
2.35275957368092
 30
0.0
 10
45.12718211709402
 20
2.364304439554895
 30
0.0
 10
45.12862063452427
 20
2.375795871451454
 30
0.0
 10
45.13005915195453
 20
2.387287303348013
 30
0.0
 10
45.13122278649659
 20
2.398716348391094
 30
0.0
 10
45.13238642103866
 20
2.410145393434176
 30
0.0
 10
45.13328080819345
 20
2.421503492688327
 30
0.0
 10
45.13417519534825
 20
2.432861591942477
 30
0.0
 10
45.13480625723984
 20
2.44414058956285
 30
0.0
 10
45.13543731913144
 20
2.455419587183223
 30
0.0
 10
45.13581123562539
 20
2.466611737376749
 30
0.0
 10
45.13618515211934
 20
2.477803887570275
 30
0.0
 10
45.13630833227256
 20
2.488901859451078
 30
0.0
 10
45.13643151242577
 20
2.499999831331881
 30
0.0
  0
SPLINE
  5
3F
330
1F
100
AcDbEntity
  8
DEFAULT
100
AcDbSpline
210
0.0
220
0.0
230
1.0
 70
    24
 71
     2
 72
     6
 73
     3
 74
     0
 42
0.0000000001
 43
0.0000000001
 40
0.0
 40
0.0
 40
0.0
 40
5.610000000000021
 40
5.610000000000021
 40
5.610000000000021
 10
39.81643151242579
 20
1.289999831331887
 30
0.0
 10
37.25021307101526
 20
1.289999831331887
 30
0.0
 10
34.70611746789106
 20
1.289999831331887
 30
0.0
  0
SPLINE
  5
40
330
1F
100
AcDbEntity
  8
DEFAULT
100
AcDbSpline
210
0.0
220
0.0
230
1.0
 70
     8
 71
     2
 72
   260
 73
   257
 74
     0
 42
0.0000000001
 43
0.0000000001
 40
0.0
 40
0.0
 40
0.0
 40
1.0
 40
1.0
 40
2.0
 40
2.0
 40
3.0
 40
3.0
 40
4.0
 40
4.0
 40
5.0
 40
5.0
 40
6.0
 40
6.0
 40
7.0
 40
7.0
 40
8.0
 40
8.0
 40
9.0
 40
9.0
 40
10.0
 40
10.0
 40
11.0
 40
11.0
 40
12.0
 40
12.0
 40
13.0
 40
13.0
 40
14.0
 40
14.0
 40
15.0
 40
15.0
 40
16.0
 40
16.0
 40
17.0
 40
17.0
 40
18.0
 40
18.0
 40
19.0
 40
19.0
 40
20.0
 40
20.0
 40
21.0
 40
21.0
 40
22.0
 40
22.0
 40
23.0
 40
23.0
 40
24.0
 40
24.0
 40
25.0
 40
25.0
 40
26.0
 40
26.0
 40
27.0
 40
27.0
 40
28.0
 40
28.0
 40
29.0
 40
29.0
 40
30.0
 40
30.0
 40
31.0
 40
31.0
 40
32.0
 40
32.0
 40
33.0
 40
33.0
 40
34.0
 40
34.0
 40
35.0
 40
35.0
 40
36.0
 40
36.0
 40
37.0
 40
37.0
 40
38.0
 40
38.0
 40
39.0
 40
39.0
 40
40.0
 40
40.0
 40
41.0
 40
41.0
 40
42.0
 40
42.0
 40
43.0
 40
43.0
 40
44.0
 40
44.0
 40
45.0
 40
45.0
 40
46.0
 40
46.0
 40
47.0
 40
47.0
 40
48.0
 40
48.0
 40
49.0
 40
49.0
 40
50.0
 40
50.0
 40
51.0
 40
51.0
 40
52.0
 40
52.0
 40
53.0
 40
53.0
 40
54.0
 40
54.0
 40
55.0
 40
55.0
 40
56.0
 40
56.0
 40
57.0
 40
57.0
 40
58.0
 40
58.0
 40
59.0
 40
59.0
 40
60.0
 40
60.0
 40
61.0
 40
61.0
 40
62.0
 40
62.0
 40
63.0
 40
63.0
 40
64.0
 40
64.0
 40
65.0
 40
65.0
 40
66.0
 40
66.0
 40
67.0
 40
67.0
 40
68.0
 40
68.0
 40
69.0
 40
69.0
 40
70.0
 40
70.0
 40
71.0
 40
71.0
 40
72.0
 40
72.0
 40
73.0
 40
73.0
 40
74.0
 40
74.0
 40
75.0
 40
75.0
 40
76.0
 40
76.0
 40
77.0
 40
77.0
 40
78.0
 40
78.0
 40
79.0
 40
79.0
 40
80.0
 40
80.0
 40
81.0
 40
81.0
 40
82.0
 40
82.0
 40
83.0
 40
83.0
 40
84.0
 40
84.0
 40
85.0
 40
85.0
 40
86.0
 40
86.0
 40
87.0
 40
87.0
 40
88.0
 40
88.0
 40
89.0
 40
89.0
 40
90.0
 40
90.0
 40
91.0
 40
91.0
 40
92.0
 40
92.0
 40
93.0
 40
93.0
 40
94.0
 40
94.0
 40
95.0
 40
95.0
 40
96.0
 40
96.0
 40
97.0
 40
97.0
 40
98.0
 40
98.0
 40
99.0
 40
99.0
 40
100.0
 40
100.0
 40
101.0
 40
101.0
 40
102.0
 40
102.0
 40
103.0
 40
103.0
 40
104.0
 40
104.0
 40
105.0
 40
105.0
 40
106.0
 40
106.0
 40
107.0
 40
107.0
 40
108.0
 40
108.0
 40
109.0
 40
109.0
 40
110.0
 40
110.0
 40
111.0
 40
111.0
 40
112.0
 40
112.0
 40
113.0
 40
113.0
 40
114.0
 40
114.0
 40
115.0
 40
115.0
 40
116.0
 40
116.0
 40
117.0
 40
117.0
 40
118.0
 40
118.0
 40
119.0
 40
119.0
 40
120.0
 40
120.0
 40
121.0
 40
121.0
 40
122.0
 40
122.0
 40
123.0
 40
123.0
 40
124.0
 40
124.0
 40
125.0
 40
125.0
 40
126.0
 40
126.0
 40
127.0
 40
127.0
 40
128.0
 40
128.0
 40
128.0
 10
39.88643151242577
 20
1.499999331503211
 30
0.0
 10
39.90298505646241
 20
0.8689915005577165
 30
0.0
 10
39.91953860049904
 20
0.237983669612222
 30
0.0
 10
39.91970178831016
 20
0.2352269595235739
 30
0.0
 10
39.91986497612127
 20
0.2324702494349257
 30
0.0
 10
39.92009118536191
 20
0.229694465711863
 30
0.0
 10
39.92031739460255
 20
0.2269186819888003
 30
0.0
 10
39.92060802914566
 20
0.2241257273098723
 30
0.0
 10
39.92089866368877
 20
0.2213327726309443
 30
0.0
 10
39.92125506279017
 20
0.2185246431869786
 30
0.0
 10
39.92161146189156
 20
0.2157165137430128
 30
0.0
 10
39.92203489361127
 20
0.2128952973053813
 30
0.0
 10
39.92245832533098
 20
0.2100740808677498
 30
0.0
 10
39.92294997994377
 20
0.2072419543586128
 30
0.0
 10
39.92344163455655
 20
0.2044098278494758
 30
0.0
 10
39.92400261799173
 20
0.2015690544007573
 30
0.0
 10
39.92456360142691
 20
0.1987282809520389
 30
0.0
 10
39.92519492878007
 20
0.1958812064432948
 30
0.0
 10
39.92582625613322
 20
0.1930341319345508
 30
0.0
 10
39.92652884529453
 20
0.1901831810036467
 30
0.0
 10
39.92723143445583
 20
0.1873322300727427
 30
0.0
 10
39.92800609990122
 20
0.1844799015973412
 30
0.0
 10
39.92878076534662
 20
0.1816275731219398
 30
0.0
 10
39.92962821213966
 20
0.1787764351741739
 30
0.0
 10
39.93047565893271
 20
0.1759252972264079
 30
0.0
 10
39.93139647698549
 20
0.1730779815077502
 30
0.0
 10
39.93231729503827
 20
0.1702306657890924
 30
0.0
 10
39.93331195368041
 20
0.1673898615572749
 30
0.0
 10
39.93430661232254
 20
0.1645490573254575
 30
0.0
 10
39.93537545522709
 20
0.161717504830296
 30
0.0
 10
39.93644429813163
 20
0.1588859523351345
 30
0.0
 10
39.93758753864598
 20
0.1560664357852125
 30
0.0
 10
39.93873077916032
 20
0.1532469192352905
 30
0.0
 10
39.93994849608907
 20
0.1504422593225892
 30
0.0
 10
39.94116621301781
 20
0.1476375994098879
 30
0.0
 10
39.9424583469025
 20
0.144850645424542
 30
0.0
 10
39.94375048078719
 20
0.142063691439196
 30
0.0
 10
39.94511683072568
 20
0.1392973130115379
 30
0.0
 10
39.94648318066417
 20
0.1365309345838798
 30
0.0
 10
39.947923401709
 20
0.1337880130957288
 30
0.0
 10
39.94936362275384
 20
0.1310450916075778
 30
0.0
 10
39.95087722392569
 20
0.1283285113192559
 30
0.0
 10
39.95239082509755
 20
0.1256119310309341
 30
0.0
 10
39.95397716804536
 20
0.1229245699746752
 30
0.0
 10
39.95556351099316
 20
0.1202372089184164
 30
0.0
 10
39.95722180932793
 20
0.1175819296125979
 30
0.0
 10
39.95888010766269
 20
0.1149266503067795
 30
0.0
 10
39.96060942698688
 20
0.1123062903486785
 30
0.0
 10
39.96233874631106
 20
0.1096859303905776
 30
0.0
 10
39.96413800495969
 20
0.1071032929880703
 30
0.0
 10
39.96593726360831
 20
0.1045206555855629
 30
0.0
 10
39.96780523411182
 20
0.1019785000902848
 30
0.0
 10
39.96967320461533
 20
0.0994363445950068
 30
0.0
 10
39.97160851588846
 20
0.096937377100928
 30
0.0
 10
39.97354382716159
 20
0.0944384096068493
 30
0.0
 10
39.97554496741539
 20
0.0919852736789432
 30
0.0
 10
39.97754610766918
 20
0.0895321377510372
 30
0.0
 10
39.97961142803726
 20
0.0871274053487193
 30
0.0
 10
39.98167674840533
 20
0.0847226729464014
 30
0.0
 10
39.98380446726867
 20
0.0823688356056525
 30
0.0
 10
39.985932186132
 20
0.0800149982649036
 30
0.0
 10
39.9881203941199
 20
0.0777144586014825
 30
0.0
 10
39.9903086021078
 20
0.0754139189380615
 30
0.0
 10
39.9925552677467
 20
0.0731689825319519
 30
0.0
 10
39.99480193338559
 20
0.0709240461258423
 30
0.0
 10
39.99710490936085
 20
0.0687369138440997
 30
0.0
 10
39.99940788533611
 20
0.0665497815623571
 30
0.0
 10
40.00176491532662
 20
0.0644225423738571
 30
0.0
 10
40.00412194531712
 20
0.0622953031853571
 30
0.0
 10
40.006530671357
 20
0.060229927516643
 30
0.0
 10
40.00893939739687
 20
0.0581645518479289
 30
0.0
 10
40.01139736771385
 20
0.0561628855244785
 30
0.0
 10
40.01385533803082
 20
0.0541612192010281
 30
0.0
 10
40.01636001530693
 20
0.0522249780128742
 30
0.0
 10
40.01886469258304
 20
0.0502887368247203
 30
0.0
 10
40.02141346257935
 20
0.0484195017495497
 30
0.0
 10
40.02396223257567
 20
0.0465502666743791
 30
0.0
 10
40.0265524130604
 20
0.0447494797850808
 30
0.0
 10
40.02914259354513
 20
0.0429486928957826
 30
0.0
 10
40.03177144346198
 20
0.0412176539730197
 30
0.0
 10
40.03440029337884
 20
0.0394866150502569
 30
0.0
 10
40.03706502219138
 20
0.0378264789140799
 30
0.0
 10
40.03972975100392
 20
0.0361663427779028
 30
0.0
 10
40.04242752815109
 20
0.034578117345814
 30
0.0
 10
40.04512530529827
 20
0.0329898919137253
 30
0.0
 10
40.0478532696963
 20
0.0314744369860324
 30
0.0
 10
40.05058123409432
 20
0.0299589820583395
 30
0.0
 10
40.05333650362111
 20
0.0285170088251895
 30
0.0
 10
40.0560917731479
 20
0.0270750355920396
 30
0.0
 10
40.05887145404787
 20
0.0257071068503082
 30
0.0
 10
40.06165113494785
 20
0.0243391781085768
 30
0.0
 10
40.0644523310971
 20
0.0230457091708566
 30
0.0
 10
40.06725352724635
 20
0.0217522402331364
 30
0.0
 10
40.070073349221
 20
0.0205335005055235
 30
0.0
 10
40.07289317119566
 20
0.0193147607779106
 30
0.0
 10
40.07572874508984
 20
0.0181708759781721
 30
0.0
 10
40.07856431898402
 20
0.0170269911784336
 30
0.0
 10
40.08141279492754
 20
0.0159579461615224
 30
0.0
 10
40.08426127087105
 20
0.0148889011446113
 30
0.0
 10
40.08711983120121
 20
0.0138945432984109
 30
0.0
 10
40.08997839153136
 20
0.0129001854522104
 30
0.0
 10
40.09284425857818
 20
0.0119802286228801
 30
0.0
 10
40.095710125625
 20
0.0110602717935497
 30
0.0
 10
40.09858056907362
 20
0.0102143006969225
 30
0.0
 10
40.10145101252223
 20
0.0093683296002954
 30
0.0
 10
40.10432335632159
 20
0.0085958046734621
 30
0.0
 10
40.10719570012095
 20
0.0078232797466289
 30
0.0
 10
40.11006732891286
 20
0.0071235423921295
 30
0.0
 10
40.11293895770477
 20
0.0064238050376302
 30
0.0
 10
40.11580732275286
 20
0.0057960832115563
 30
0.0
 10
40.11867568780094
 20
0.0051683613854823
 30
0.0
 10
40.12153831240352
 20
0.0046117754802484
 30
0.0
 10
40.1244009370061
 20
0.0040551895750145
 30
0.0
 10
40.12725542138283
 20
0.0035687585475672
 30
0.0
 10
40.13010990575957
 20
0.0030823275201198
 30
0.0
 10
40.13295393140591
 20
0.0026649752168693
 30
0.0
 10
40.13579795705225
 20
0.0022476229136188
 30
0.0
 10
40.13862929056057
 20
0.0018981845443819
 30
0.0
 10
40.14146062406888
 20
0.001548746175145
 30
0.0
 10
40.14427712041962
 20
0.0012659748898127
 30
0.0
 10
40.14709361677035
 20
0.0009832036044804
 30
0.0
 10
40.1498932221003
 20
0.0007657771279407
 30
0.0
 10
40.15269282743026
 20
0.000548350651401
 30
0.0
 10
40.15547358128899
 20
0.0003948779343937
 30
0.0
 10
40.15825433514773
 20
0.0002414052173865
 30
0.0
 10
40.1610143722565
 20
0.0001504330633967
 30
0.0
 10
40.16377440936527
 20
0.0000594609094069
 30
0.0
 10
41.13369396089553
 20
0.0000294805403653
 30
0.0
 10
42.10361351242578
 20
-0.0000004998286764
 30
0.0
 10
42.10635106395603
 20
0.0000294805403638
 30
0.0
 10
42.10908861548629
 20
0.0000594609094039
 30
0.0
 10
42.11184865259504
 20
0.0001504330633937
 30
0.0
 10
42.1146086897038
 20
0.0002414052173835
 30
0.0
 10
42.11738944356254
 20
0.0003948779343908
 30
0.0
 10
42.12017019742129
 20
0.0005483506513982
 30
0.0
 10
42.12296980275124
 20
0.0007657771279379
 30
0.0
 10
42.1257694080812
 20
0.0009832036044775
 30
0.0
 10
42.12858590443194
 20
0.0012659748898098
 30
0.0
 10
42.13140240078268
 20
0.0015487461751422
 30
0.0
 10
42.134233734291
 20
0.0018981845443791
 30
0.0
 10
42.13706506779933
 20
0.002247622913616
 30
0.0
 10
42.13990909344565
 20
0.0026649752168665
 30
0.0
 10
42.14275311909198
 20
0.003082327520117
 30
0.0
 10
42.14560760346871
 20
0.0035687585475644
 30
0.0
 10
42.14846208784544
 20
0.0040551895750118
 30
0.0
 10
42.15132471244802
 20
0.0046117754802457
 30
0.0
 10
42.1541873370506
 20
0.0051683613854796
 30
0.0
 10
42.15705570209868
 20
0.0057960832115536
 30
0.0
 10
42.15992406714676
 20
0.0064238050376276
 30
0.0
 10
42.16279569593868
 20
0.0071235423921269
 30
0.0
 10
42.16566732473061
 20
0.0078232797466263
 30
0.0
 10
42.16853966852996
 20
0.0085958046734596
 30
0.0
 10
42.17141201232931
 20
0.0093683296002928
 30
0.0
 10
42.17428245577793
 20
0.01021430069692
 30
0.0
 10
42.17715289922654
 20
0.0110602717935472
 30
0.0
 10
42.18001876627336
 20
0.0119802286228776
 30
0.0
 10
42.18288463332019
 20
0.012900185452208
 30
0.0
 10
42.18574319365035
 20
0.0138945432984084
 30
0.0
 10
42.18860175398051
 20
0.0148889011446089
 30
0.0
 10
42.19145022992402
 20
0.0159579461615201
 30
0.0
 10
42.19429870586752
 20
0.0170269911784313
 30
0.0
 10
42.19713427976171
 20
0.0181708759781698
 30
0.0
 10
42.1999698536559
 20
0.0193147607779083
 30
0.0
 10
42.20278967563056
 20
0.0205335005055212
 30
0.0
 10
42.20560949760521
 20
0.0217522402331342
 30
0.0
 10
42.20841069375445
 20
0.0230457091708544
 30
0.0
 10
42.21121188990369
 20
0.0243391781085746
 30
0.0
 10
42.21399157080367
 20
0.025707106850306
 30
0.0
 10
42.21677125170365
 20
0.0270750355920375
 30
0.0
 10
42.21952652123043
 20
0.0285170088251874
 30
0.0
 10
42.22228179075722
 20
0.0299589820583374
 30
0.0
 10
42.22500975515524
 20
0.0314744369860304
 30
0.0
 10
42.22773771955326
 20
0.0329898919137234
 30
0.0
 10
42.23043549670044
 20
0.0345781173458121
 30
0.0
 10
42.23313327384763
 20
0.0361663427779008
 30
0.0
 10
42.23579800266017
 20
0.0378264789140779
 30
0.0
 10
42.23846273147271
 20
0.0394866150502551
 30
0.0
 10
42.24109158138956
 20
0.041217653973018
 30
0.0
 10
42.24372043130641
 20
0.0429486928957808
 30
0.0
 10
42.24631061179115
 20
0.0447494797850791
 30
0.0
 10
42.24890079227589
 20
0.0465502666743774
 30
0.0
 10
42.25144956227221
 20
0.0484195017495481
 30
0.0
 10
42.25399833226852
 20
0.0502887368247187
 30
0.0
 10
42.25650300954462
 20
0.0522249780128726
 30
0.0
 10
42.25900768682072
 20
0.0541612192010265
 30
0.0
 10
42.2614656571377
 20
0.0561628855244769
 30
0.0
 10
42.26392362745467
 20
0.0581645518479274
 30
0.0
 10
42.26633235349455
 20
0.0602299275166416
 30
0.0
 10
42.26874107953442
 20
0.0622953031853557
 30
0.0
 10
42.27109810952494
 20
0.0644225423738557
 30
0.0
 10
42.27345513951545
 20
0.0665497815623557
 30
0.0
 10
42.27575811549071
 20
0.0687369138440984
 30
0.0
 10
42.27806109146597
 20
0.070924046125841
 30
0.0
 10
42.28030775710486
 20
0.0731689825319506
 30
0.0
 10
42.28255442274376
 20
0.0754139189380603
 30
0.0
 10
42.28474263073166
 20
0.0777144586014814
 30
0.0
 10
42.28693083871956
 20
0.0800149982649025
 30
0.0
 10
42.28905855758288
 20
0.0823688356056514
 30
0.0
 10
42.29118627644621
 20
0.0847226729464003
 30
0.0
 10
42.29325159681429
 20
0.0871274053487183
 30
0.0
 10
42.29531691718238
 20
0.0895321377510363
 30
0.0
 10
42.29731805743617
 20
0.0919852736789424
 30
0.0
 10
42.29931919768997
 20
0.0944384096068484
 30
0.0
 10
42.3012545089631
 20
0.0969373771009272
 30
0.0
 10
42.30318982023623
 20
0.099436344595006
 30
0.0
 10
42.30505779073974
 20
0.1019785000902841
 30
0.0
 10
42.30692576124325
 20
0.1045206555855621
 30
0.0
 10
42.30872501989187
 20
0.1071032929880695
 30
0.0
 10
42.31052427854048
 20
0.1096859303905769
 30
0.0
 10
42.31225359786468
 20
0.112306290348678
 30
0.0
 10
42.31398291718887
 20
0.114926650306779
 30
0.0
 10
42.31564121552363
 20
0.1175819296125974
 30
0.0
 10
42.31729951385839
 20
0.1202372089184159
 30
0.0
 10
42.31888585680619
 20
0.1229245699746748
 30
0.0
 10
42.32047219975399
 20
0.1256119310309337
 30
0.0
 10
42.32198580092586
 20
0.1283285113192556
 30
0.0
 10
42.32349940209772
 20
0.1310450916075775
 30
0.0
 10
42.32493962314256
 20
0.1337880130957285
 30
0.0
 10
42.3263798441874
 20
0.1365309345838795
 30
0.0
 10
42.32774619412589
 20
0.1392973130115376
 30
0.0
 10
42.32911254406437
 20
0.1420636914391958
 30
0.0
 10
42.33040467794906
 20
0.1448506454245418
 30
0.0
 10
42.33169681183375
 20
0.1476375994098879
 30
0.0
 10
42.33291452876249
 20
0.1504422593225892
 30
0.0
 10
42.33413224569124
 20
0.1532469192352905
 30
0.0
 10
42.33527548620558
 20
0.1560664357852126
 30
0.0
 10
42.33641872671993
 20
0.1588859523351346
 30
0.0
 10
42.33748756962447
 20
0.1617175048302961
 30
0.0
 10
42.33855641252902
 20
0.1645490573254576
 30
0.0
 10
42.33955107117114
 20
0.1673898615572751
 30
0.0
 10
42.34054572981327
 20
0.1702306657890927
 30
0.0
 10
42.34146654786606
 20
0.1730779815077504
 30
0.0
 10
42.34238736591885
 20
0.1759252972264082
 30
0.0
 10
42.3432348127119
 20
0.1787764351741742
 30
0.0
 10
42.34408225950494
 20
0.1816275731219403
 30
0.0
 10
42.34485692495034
 20
0.1844799015973418
 30
0.0
 10
42.34563159039574
 20
0.1873322300727433
 30
0.0
 10
42.34633417955705
 20
0.1901831810036473
 30
0.0
 10
42.34703676871835
 20
0.1930341319345514
 30
0.0
 10
42.34766809607151
 20
0.1958812064432955
 30
0.0
 10
42.34829942342466
 20
0.1987282809520396
 30
0.0
 10
42.34886040685984
 20
0.2015690544007581
 30
0.0
 10
42.34942139029502
 20
0.2044098278494765
 30
0.0
 10
42.34991304490781
 20
0.2072419543586135
 30
0.0
 10
42.3504046995206
 20
0.2100740808677506
 30
0.0
 10
42.35082813124031
 20
0.2128952973053821
 30
0.0
 10
42.35125156296002
 20
0.2157165137430137
 30
0.0
 10
42.35160796206141
 20
0.2185246431869795
 30
0.0
 10
42.3519643611628
 20
0.2213327726309452
 30
0.0
 10
42.35225499570591
 20
0.2241257273098732
 30
0.0
 10
42.35254563024901
 20
0.2269186819888013
 30
0.0
 10
42.35277183948965
 20
0.2296944657118641
 30
0.0
 10
42.35299804873028
 20
0.2324702494349268
 30
0.0
 10
42.35316123654141
 20
0.235226959523575
 30
0.0
 10
42.35332442435254
 20
0.2379836696122232
 30
0.0
 10
42.36987796838915
 20
0.8689915005577171
 30
0.0
 10
42.38643151242577
 20
1.499999331503211
 30
0.0
  0
SPLINE
  5
41
330
1F
100
AcDbEntity
  8
DEFAULT
100
AcDbSpline
210
0.0
220
0.0
230
1.0
 70
     8
 71
     2
 72
   386
 73
   383
 74
     0
 42
0.0000000001
 43
0.0000000001
 40
0.0
 40
0.0
 40
0.0
 40
1.0
 40
1.0
 40
2.0
 40
2.0
 40
3.0
 40
3.0
 40
4.0
 40
4.0
 40
5.0
 40
5.0
 40
6.0
 40
6.0
 40
7.0
 40
7.0
 40
8.0
 40
8.0
 40
9.0
 40
9.0
 40
10.0
 40
10.0
 40
11.0
 40
11.0
 40
12.0
 40
12.0
 40
13.0
 40
13.0
 40
14.0
 40
14.0
 40
15.0
 40
15.0
 40
16.0
 40
16.0
 40
17.0
 40
17.0
 40
18.0
 40
18.0
 40
19.0
 40
19.0
 40
20.0
 40
20.0
 40
21.0
 40
21.0
 40
22.0
 40
22.0
 40
23.0
 40
23.0
 40
24.0
 40
24.0
 40
25.0
 40
25.0
 40
26.0
 40
26.0
 40
27.0
 40
27.0
 40
28.0
 40
28.0
 40
29.0
 40
29.0
 40
30.0
 40
30.0
 40
31.0
 40
31.0
 40
32.0
 40
32.0
 40
33.0
 40
33.0
 40
34.0
 40
34.0
 40
35.0
 40
35.0
 40
36.0
 40
36.0
 40
37.0
 40
37.0
 40
38.0
 40
38.0
 40
39.0
 40
39.0
 40
40.0
 40
40.0
 40
41.0
 40
41.0
 40
42.0
 40
42.0
 40
43.0
 40
43.0
 40
44.0
 40
44.0
 40
45.0
 40
45.0
 40
46.0
 40
46.0
 40
47.0
 40
47.0
 40
48.0
 40
48.0
 40
49.0
 40
49.0
 40
50.0
 40
50.0
 40
51.0
 40
51.0
 40
52.0
 40
52.0
 40
53.0
 40
53.0
 40
54.0
 40
54.0
 40
55.0
 40
55.0
 40
56.0
 40
56.0
 40
57.0
 40
57.0
 40
58.0
 40
58.0
 40
59.0
 40
59.0
 40
60.0
 40
60.0
 40
61.0
 40
61.0
 40
62.0
 40
62.0
 40
63.0
 40
63.0
 40
64.0
 40
64.0
 40
65.0
 40
65.0
 40
66.0
 40
66.0
 40
67.0
 40
67.0
 40
68.0
 40
68.0
 40
69.0
 40
69.0
 40
70.0
 40
70.0
 40
71.0
 40
71.0
 40
72.0
 40
72.0
 40
73.0
 40
73.0
 40
74.0
 40
74.0
 40
75.0
 40
75.0
 40
76.0
 40
76.0
 40
77.0
 40
77.0
 40
78.0
 40
78.0
 40
79.0
 40
79.0
 40
80.0
 40
80.0
 40
81.0
 40
81.0
 40
82.0
 40
82.0
 40
83.0
 40
83.0
 40
84.0
 40
84.0
 40
85.0
 40
85.0
 40
86.0
 40
86.0
 40
87.0
 40
87.0
 40
88.0
 40
88.0
 40
89.0
 40
89.0
 40
90.0
 40
90.0
 40
91.0
 40
91.0
 40
92.0
 40
92.0
 40
93.0
 40
93.0
 40
94.0
 40
94.0
 40
95.0
 40
95.0
 40
96.0
 40
96.0
 40
97.0
 40
97.0
 40
98.0
 40
98.0
 40
99.0
 40
99.0
 40
100.0
 40
100.0
 40
101.0
 40
101.0
 40
102.0
 40
102.0
 40
103.0
 40
103.0
 40
104.0
 40
104.0
 40
105.0
 40
105.0
 40
106.0
 40
106.0
 40
107.0
 40
107.0
 40
108.0
 40
108.0
 40
109.0
 40
109.0
 40
110.0
 40
110.0
 40
111.0
 40
111.0
 40
112.0
 40
112.0
 40
113.0
 40
113.0
 40
114.0
 40
114.0
 40
115.0
 40
115.0
 40
116.0
 40
116.0
 40
117.0
 40
117.0
 40
118.0
 40
118.0
 40
119.0
 40
119.0
 40
120.0
 40
120.0
 40
121.0
 40
121.0
 40
122.0
 40
122.0
 40
123.0
 40
123.0
 40
124.0
 40
124.0
 40
125.0
 40
125.0
 40
126.0
 40
126.0
 40
127.0
 40
127.0
 40
128.0
 40
128.0
 40
129.0
 40
129.0
 40
130.0
 40
130.0
 40
131.0
 40
131.0
 40
132.0
 40
132.0
 40
133.0
 40
133.0
 40
134.0
 40
134.0
 40
135.0
 40
135.0
 40
136.0
 40
136.0
 40
137.0
 40
137.0
 40
138.0
 40
138.0
 40
139.0
 40
139.0
 40
140.0
 40
140.0
 40
141.0
 40
141.0
 40
142.0
 40
142.0
 40
143.0
 40
143.0
 40
144.0
 40
144.0
 40
145.0
 40
145.0
 40
146.0
 40
146.0
 40
147.0
 40
147.0
 40
148.0
 40
148.0
 40
149.0
 40
149.0
 40
150.0
 40
150.0
 40
151.0
 40
151.0
 40
152.0
 40
152.0
 40
153.0
 40
153.0
 40
154.0
 40
154.0
 40
155.0
 40
155.0
 40
156.0
 40
156.0
 40
157.0
 40
157.0
 40
158.0
 40
158.0
 40
159.0
 40
159.0
 40
160.0
 40
160.0
 40
161.0
 40
161.0
 40
162.0
 40
162.0
 40
163.0
 40
163.0
 40
164.0
 40
164.0
 40
165.0
 40
165.0
 40
166.0
 40
166.0
 40
167.0
 40
167.0
 40
168.0
 40
168.0
 40
169.0
 40
169.0
 40
170.0
 40
170.0
 40
171.0
 40
171.0
 40
172.0
 40
172.0
 40
173.0
 40
173.0
 40
174.0
 40
174.0
 40
175.0
 40
175.0
 40
176.0
 40
176.0
 40
177.0
 40
177.0
 40
178.0
 40
178.0
 40
179.0
 40
179.0
 40
180.0
 40
180.0
 40
181.0
 40
181.0
 40
182.0
 40
182.0
 40
183.0
 40
183.0
 40
184.0
 40
184.0
 40
185.0
 40
185.0
 40
186.0
 40
186.0
 40
187.0
 40
187.0
 40
188.0
 40
188.0
 40
189.0
 40
189.0
 40
190.0
 40
190.0
 40
191.0
 40
191.0
 40
191.0
 10
42.38096151343277
 20
1.290077783707147
 30
0.0
 10
42.38452350803056
 20
1.290189596334407
 30
0.0
 10
42.38808550262836
 20
1.290301408961668
 30
0.0
 10
42.39165598142371
 20
1.290486851501969
 30
0.0
 10
42.39522646021906
 20
1.29067229404227
 30
0.0
 10
42.39880317993575
 20
1.290931940541354
 30
0.0
 10
42.40237989965243
 20
1.291191587040438
 30
0.0
 10
42.40596058154814
 20
1.291525921703411
 30
0.0
 10
42.40954126344386
 20
1.291860256366383
 30
0.0
 10
42.41312359775675
 20
1.292269671179742
 30
0.0
 10
42.41670593206965
 20
1.292679085993101
 30
0.0
 10
42.42028758264232
 20
1.293163878608526
 30
0.0
 10
42.423869233215
 20
1.293648671223951
 30
0.0
 10
42.42744784227813
 20
1.29420904311861
 30
0.0
 10
42.43102645134125
 20
1.29476941501327
 30
0.0
 10
42.43459964443757
 20
1.295405469939994
 30
0.0
 10
42.43817283753388
 20
1.296041524866718
 30
0.0
 10
42.44173822856214
 20
1.296753267605876
 30
0.0
 10
42.4453036195904
 20
1.297465010345034
 30
0.0
 10
42.44885881594768
 20
1.298252345768304
 30
0.0
 10
42.45241401230496
 20
1.299039681191575
 30
0.0
 10
42.45595662010489
 20
1.299902413646022
 30
0.0
 10
42.45949922790483
 20
1.30076514610047
 30
0.0
 10
42.46302685724834
 20
1.301702979119495
 30
0.0
 10
42.46655448659186
 20
1.30264081213852
 30
0.0
 10
42.47006475686671
 20
1.303653348484306
 30
0.0
 10
42.47357502714156
 20
1.304665884830091
 30
0.0
 10
42.47706557232608
 20
1.30575262687016
 30
0.0
 10
42.4805561175106
 20
1.30683936891023
 30
0.0
 10
42.48402459145731
 20
1.307999719328705
 30
0.0
 10
42.48749306540402
 20
1.309160069747179
 30
0.0
 10
42.49093714707835
 20
1.310393332589239
 30
0.0
 10
42.49438122875267
 20
1.311626595431299
 30
0.0
 10
42.49779862740238
 20
1.312931977477294
 30
0.0
 10
42.50121602605209
 20
1.314237359523289
 30
0.0
 10
42.50460448628319
 20
1.315613971986887
 30
0.0
 10
42.50799294651429
 20
1.316990584450486
 30
0.0
 10
42.51135025324984
 20
1.318437444993246
 30
0.0
 10
42.5147075599854
 20
1.319884305536006
 30
0.0
 10
42.51803154328451
 20
1.321400340588787
 30
0.0
 10
42.52135552658363
 20
1.322916375641568
 30
0.0
 10
42.52464406629839
 20
1.324500423021334
 30
0.0
 10
42.52793260601314
 20
1.326084470401101
 30
0.0
 10
42.53118363626277
 20
1.32773528220989
 30
0.0
 10
42.53443466651241
 20
1.32938609401868
 30
0.0
 10
42.537646179955
 20
1.331102339809828
 30
0.0
 10
42.54085769339758
 20
1.332818585600976
 30
0.0
 10
42.54402774528094
 20
1.334598855796174
 30
0.0
 10
42.5471977971643
 20
1.336379125991372
 30
0.0
 10
42.55032450913938
 20
1.33822193553072
 30
0.0
 10
42.55345122111446
 20
1.340064745070068
 30
0.0
 10
42.556532784796
 20
1.341968537276057
 30
0.0
 10
42.55961434847755
 20
1.343872329482047
 30
0.0
 10
42.56264902873878
 20
1.345835480117337
 30
0.0
 10
42.56568370900001
 20
1.347798630752627
 30
0.0
 10
42.56866984698949
 20
1.349819452250564
 30
0.0
 10
42.57165598497896
 20
1.351840273748501
 30
0.0
 10
42.57459200085014
 20
1.353917019594628
 30
0.0
 10
42.57752801672132
 20
1.355993765440756
 30
0.0
 10
42.58041241206672
 20
1.358124634683011
 30
0.0
 10
42.58329680741213
 20
1.360255503925266
 30
0.0
 10
42.58612816739654
 20
1.362438645790209
 30
0.0
 10
42.58895952738095
 20
1.364621787655152
 30
0.0
 10
42.59173652256934
 20
1.366855306247411
 30
0.0
 10
42.59451351775773
 20
1.36908882483967
 30
0.0
 10
42.59479029413818
 20
1.369320351624353
 30
0.0
 10
42.59506707051862
 20
1.369551878409036
 30
0.0
 10
42.59534113006811
 20
1.369789691234826
 30
0.0
 10
42.5956151896176
 20
1.370027504060616
 30
0.0
 10
42.59588633848597
 20
1.37027157789612
 30
0.0
 10
42.59615748735433
 20
1.370515651731623
 30
0.0
 10
42.59642553063632
 20
1.370765954162661
 30
0.0
 10
42.5966935739183
 20
1.371016256593699
 30
0.0
 10
42.59695831598155
 20
1.371272747683426
 30
0.0
 10
42.5972230580448
 20
1.371529238773153
 30
0.0
 10
42.59748430287037
 20
1.371791870938446
 30
0.0
 10
42.59774554769594
 20
1.372054503103738
 30
0.0
 10
42.59800309923043
 20
1.372323221008921
 30
0.0
 10
42.59826065076493
 20
1.372591938914103
 30
0.0
 10
42.5985143132833
 20
1.372866679383054
 30
0.0
 10
42.59876797580168
 20
1.373141419852004
 30
0.0
 10
42.59901755427965
 20
1.373422111799618
 30
0.0
 10
42.59926713275763
 20
1.373702803747232
 30
0.0
 10
42.59951243325266
 20
1.373989368131151
 30
0.0
 10
42.59975773374769
 20
1.374275932515069
 30
0.0
 10
42.59999856378708
 20
1.374568282308531
 30
0.0
 10
42.60023939382647
 20
1.374860632101992
 30
0.0
 10
42.60047556280153
 20
1.375158672288553
 30
0.0
 10
42.6007117317766
 20
1.375456712475114
 30
0.0
 10
42.60094305134132
 20
1.375760340065924
 30
0.0
 10
42.60117437090605
 20
1.376063967656735
 30
0.0
 10
42.60140065537887
 20
1.37637307173094
 30
0.0
 10
42.60162693985168
 20
1.376682175805146
 30
0.0
 10
42.60184800661877
 20
1.376996637573884
 30
0.0
 10
42.60206907338586
 20
1.377311099342622
 30
0.0
 10
42.60228474330455
 20
1.377630792236974
 30
0.0
 10
42.60250041322324
 20
1.377950485131326
 30
0.0
 10
42.60271051102363
 20
1.378275274914467
 30
0.0
 10
42.60292060882402
 20
1.378600064697608
 30
0.0
 10
42.60312496350748
 20
1.378929809601269
 30
0.0
 10
42.60332931819094
 20
1.379259554504931
 30
0.0
 10
42.60352776342345
 20
1.379594105390164
 30
0.0
 10
42.60372620865596
 20
1.379928656275396
 30
0.0
 10
42.6039185831549
 20
1.380267856817495
 30
0.0
 10
42.60411095765384
 20
1.380607057359593
 30
0.0
 10
42.60429710556642
 20
1.380950744256901
 30
0.0
 10
42.604483253479
 20
1.381294431154209
 30
0.0
 10
42.60466302475045
 20
1.381642434360395
 30
0.0
 10
42.6048427960219
 20
1.381990437566582
 30
0.0
 10
42.60501604675209
 20
1.382342580545834
 30
0.0
 10
42.60518929748228
 20
1.382694723525086
 30
0.0
 10
42.60535589026883
 20
1.383050823529541
 30
0.0
 10
42.60552248305538
 20
1.383406923533997
 30
0.0
 10
42.60568228732184
 20
1.383766791902592
 30
0.0
 10
42.6058420915883
 20
1.384126660271187
 30
0.0
 10
42.60599498389573
 20
1.384490102748978
 30
0.0
 10
42.60614787620315
 20
1.384853545226769
 30
0.0
 10
42.60629374054376
 20
1.385220362303649
 30
0.0
 10
42.60643960488436
 20
1.385587179380529
 30
0.0
 10
42.60657833295573
 20
1.385957166648153
 30
0.0
 10
42.60671706102711
 20
1.386327153915777
 30
0.0
 10
42.60684855248573
 20
1.386700102441388
 30
0.0
 10
42.60698004394435
 20
1.387073050966999
 30
0.0
 10
42.60710420663719
 20
1.387448747682738
 30
0.0
 10
42.60722836933003
 20
1.387824444398478
 30
0.0
 10
42.60734511950328
 20
1.388202672504692
 30
0.0
 10
42.60746186967653
 20
1.388580900610906
 30
0.0
 10
42.60757113216019
 20
1.38896143999183
 30
0.0
 10
42.60768039464385
 20
1.389341979372753
 30
0.0
 10
42.6077821030117
 20
1.389724607022926
 30
0.0
 10
42.60788381137955
 20
1.390107234673099
 30
0.0
 10
42.60797790808354
 20
1.390491725132775
 30
0.0
 10
42.60807200478753
 20
1.390876215592451
 30
0.0
 10
42.60815844126606
 20
1.391262341390207
 30
0.0
 10
42.6082448777446
 20
1.391648467187963
 30
0.0
 10
42.6083236145044
 20
1.392035999288697
 30
0.0
 10
42.6084023512642
 20
1.392423531389432
 30
0.0
 10
42.60847335793534
 20
1.392812239645899
 30
0.0
 10
42.60854436460647
 20
1.393200947902366
 30
0.0
 10
42.60860761997048
 20
1.393590601508375
 30
0.0
 10
42.60867087533448
 20
1.393980255114384
 30
0.0
 10
42.6087263673256
 20
1.39437062305781
 30
0.0
 10
42.60878185931672
 20
1.394760991001235
 30
0.0
 10
42.60882958499636
 20
1.395151842514978
 30
0.0
 10
42.60887731067601
 20
1.395542694028722
 30
0.0
 10
42.6089172761808
 20
1.395933799037807
 30
0.0
 10
42.6089572416856
 20
1.396324904046892
 30
0.0
 10
42.60898946214947
 20
1.396716033609896
 30
0.0
 10
42.60902168261335
 20
1.397107163172901
 30
0.0
 10
42.60904618206411
 20
1.397498089915997
 30
0.0
 10
42.60907068151486
 20
1.397889016659092
 30
0.0
 10
42.6090874927462
 20
1.398279515201008
 30
0.0
 10
42.60910430397753
 20
1.398670013742923
 30
0.0
 10
42.60911346839702
 20
1.399059861109236
 30
0.0
 10
42.60912263281651
 20
1.399449708475548
 30
0.0
 10
42.60912420027083
 20
1.399838684500772
 30
0.0
 10
42.60912576772516
 20
1.400227660525997
 30
0.0
 10
42.60911979630341
 20
1.400615548242047
 30
0.0
 10
42.60911382488166
 20
1.401003435958098
 30
0.0
 10
42.6091003806979
 20
1.401390021967789
 30
0.0
 10
42.60908693651415
 20
1.40177660797748
 30
0.0
 10
42.60906609347057
 20
1.402161682811843
 30
0.0
 10
42.60904525042699
 20
1.402546757646206
 30
0.0
 10
42.6090170899589
 20
1.402930116104505
 30
0.0
 10
42.60898892949082
 20
1.403313474562803
 30
0.0
 10
42.60895354029498
 20
1.403694916034255
 30
0.0
 10
42.60891815109915
 20
1.404076357505707
 30
0.0
 10
42.6088756288466
 20
1.404455686272037
 30
0.0
 10
42.60883310659405
 20
1.404835015038366
 30
0.0
 10
42.60878355362928
 20
1.40521204055643
 30
0.0
 10
42.60873400066451
 20
1.405589066074495
 30
0.0
 10
42.60867752569226
 20
1.405963603238363
 30
0.0
 10
42.60862105072002
 20
1.406338140402231
 30
0.0
 10
42.60855776848128
 20
1.406710009784208
 30
0.0
 10
42.60849448624253
 20
1.407081879166185
 30
0.0
 10
42.6084245171814
 20
1.407450907236405
 30
0.0
 10
42.60835454812026
 20
1.407819935306625
 30
0.0
 10
42.60827801804301
 20
1.408185954630955
 30
0.0
 10
42.60820148796576
 20
1.408551973955285
 30
0.0
 10
42.60811852769391
 20
1.408914823371407
 30
0.0
 10
42.60803556742206
 20
1.40927767278753
 30
0.0
 10
42.60794631244067
 20
1.409637197559182
 30
0.0
 10
42.60785705745927
 20
1.409996722330834
 30
0.0
 10
42.60776164756225
 20
1.410352774280291
 30
0.0
 10
42.60766623766523
 20
1.410708826229747
 30
0.0
 10
42.60756481659886
 20
1.411061263848759
 30
0.0
 10
42.60746339553249
 20
1.411413701467771
 30
0.0
 10
42.60735611063872
 20
1.411762390007249
 30
0.0
 10
42.60724882574495
 20
1.412111078546727
 30
0.0
 10
42.60713582760576
 20
1.412455890085565
 30
0.0
 10
42.60702282946657
 20
1.412800701624403
 30
0.0
 10
42.60690427155067
 20
1.413141515117938
 30
0.0
 10
42.60678571363476
 20
1.413482328611472
 30
0.0
 10
42.60666102619232
 20
1.413820947657737
 30
0.0
 10
42.60653633874988
 20
1.414159566704002
 30
0.0
 10
42.60640481736934
 20
1.41449774669046
 30
0.0
 10
42.60627329598881
 20
1.414835926676919
 30
0.0
 10
42.6061348988972
 20
1.415173476659926
 30
0.0
 10
42.60599650180558
 20
1.415511026642933
 30
0.0
 10
42.60585119382502
 20
1.415847752197033
 30
0.0
 10
42.60570588584446
 20
1.416184477751133
 30
0.0
 10
42.60555363863445
 20
1.416520181230722
 30
0.0
 10
42.60540139142445
 20
1.41685588471031
 30
0.0
 10
42.60524218371306
 20
1.417190365528543
 30
0.0
 10
42.60508297600167
 20
1.417524846346776
 30
0.0
 10
42.60491679380419
 20
1.417857901271271
 30
0.0
 10
42.60475061160672
 20
1.418190956195766
 30
0.0
 10
42.60457744843081
 20
1.418522379660556
 30
0.0
 10
42.6044042852549
 20
1.418853803125346
 30
0.0
 10
42.60422414229055
 20
1.419183387558419
 30
0.0
 10
42.60404399932621
 20
1.419512971991493
 30
0.0
 10
42.60385688561966
 20
1.419840508157149
 30
0.0
 10
42.6036697719131
 20
1.420168044322806
 30
0.0
 10
42.60347570452319
 20
1.420493321677969
 30
0.0
 10
42.60328163713328
 20
1.420818599033132
 30
0.0
 10
42.60308064126927
 20
1.421141406096623
 30
0.0
 10
42.60287964540525
 20
1.421464213160113
 30
0.0
 10
42.60267175454496
 20
1.42178433789382
 30
0.0
 10
42.60246386368466
 20
1.422104462627527
 30
0.0
 10
42.60224911967181
 20
1.422421692828277
 30
0.0
 10
42.60203437565896
 20
1.422738923029028
 30
0.0
 10
42.6018128287789
 20
1.423053046729899
 30
0.0
 10
42.60159128189885
 20
1.423367170430771
 30
0.0
 10
42.6013629909317
 20
1.423677976310462
 30
0.0
 10
42.60113469996456
 20
1.423988782190153
 30
0.0
 10
42.60089973221504
 20
1.424296059988983
 30
0.0
 10
42.60066476446552
 20
1.424603337787813
 30
0.0
 10
42.60042319576872
 20
1.424906878728812
 30
0.0
 10
42.60018162707192
 20
1.425210419669811
 30
0.0
 10
42.59993354177454
 20
1.425510016883317
 30
0.0
 10
42.59968545647716
 20
1.425809614096823
 30
0.0
 10
42.59943094739387
 20
1.426105063046935
 30
0.0
 10
42.59917643831058
 20
1.426400511997048
 30
0.0
 10
42.59891560665483
 20
1.42669161090824
 30
0.0
 10
42.59865477499908
 20
1.426982709819432
 30
0.0
 10
42.59838773028868
 20
1.427269260101581
 30
0.0
 10
42.59812068557828
 20
1.427555810383729
 30
0.0
 10
42.59784754551522
 20
1.427837617053812
 30
0.0
 10
42.59757440545216
 20
1.428119423723895
 30
0.0
 10
42.59729529577716
 20
1.428396295822566
 30
0.0
 10
42.59701618610215
 20
1.428673167921236
 30
0.0
 10
42.59673124042381
 20
1.428944918922505
 30
0.0
 10
42.59644629474548
 20
1.429216669923774
 30
0.0
 10
42.59615565434477
 20
1.429483118136025
 30
0.0
 10
42.59586501394406
 20
1.429749566348276
 30
0.0
 10
42.59556882755435
 20
1.43001053530487
 30
0.0
 10
42.59527264116464
 20
1.430271504261463
 30
0.0
 10
42.5949710647281
 20
1.430526823099213
 30
0.0
 10
42.59466948829156
 20
1.430782141936962
 30
0.0
 10
42.59436268469262
 20
1.431031645760828
 30
0.0
 10
42.59405588109368
 20
1.431281149584694
 30
0.0
 10
42.59374401987066
 20
1.431524679817079
 30
0.0
 10
42.59343215864764
 20
1.431768210049464
 30
0.0
 10
42.59311541568328
 20
1.432005614762588
 30
0.0
 10
42.59279867271891
 20
1.432243019475712
 30
0.0
 10
42.59247722991135
 20
1.432474153705611
 30
0.0
 10
42.59215578710378
 20
1.43270528793551
 30
0.0
 10
42.5918298320189
 20
1.432930013976307
 30
0.0
 10
42.59150387693403
 20
1.433154740017105
 30
0.0
 10
42.59117360244092
 20
1.433372927694302
 30
0.0
 10
42.59084332794781
 20
1.433591115371499
 30
0.0
 10
42.59050893183849
 20
1.43380264229315
 30
0.0
 10
42.59017453572916
 20
1.434014169214801
 30
0.0
 10
42.58983622032441
 20
1.43421892099955
 30
0.0
 10
42.58949790491967
 20
1.434423672784298
 30
0.0
 10
42.5891558766625
 20
1.434621543265394
 30
0.0
 10
42.58881384840534
 20
1.434819413746491
 30
0.0
 10
42.58846831744373
 20
1.43501030515103
 30
0.0
 10
42.58812278648213
 20
1.435201196555569
 30
0.0
 10
42.58777396624301
 20
1.435385019658335
 30
0.0
 10
42.58742514600388
 20
1.4355688427611
 30
0.0
 10
42.58707325275989
 20
1.435745517012542
 30
0.0
 10
42.58672135951589
 20
1.435922191263984
 30
0.0
 10
42.58636661194697
 20
1.436091644892001
 30
0.0
 10
42.58601186437805
 20
1.436261098520019
 30
0.0
 10
42.58565448312957
 20
1.436423268605362
 30
0.0
 10
42.58529710188108
 20
1.436585438690705
 30
0.0
 10
42.58493730912034
 20
1.436740271215962
 30
0.0
 10
42.5845775163596
 20
1.43689510374122
 30
0.0
 10
42.58421553533261
 20
1.437042553613491
 30
0.0
 10
42.58385355430562
 20
1.437190003485761
 30
0.0
 10
42.58348960889578
 20
1.43733003453326
 30
0.0
 10
42.58312566348594
 20
1.437470065580758
 30
0.0
 10
42.58275997777661
 20
1.437602650523736
 30
0.0
 10
42.58239429206728
 20
1.437735235466715
 30
0.0
 10
42.58202708990972
 20
1.437860355863212
 30
0.0
 10
42.58165988775215
 20
1.437985476259709
 30
0.0
 10
42.58129139234059
 20
1.438103122426766
 30
0.0
 10
42.58092289692902
 20
1.438220768593822
 30
0.0
 10
42.58055333038445
 20
1.438330939504924
 30
0.0
 10
42.58018376383988
 20
1.438441110416026
 30
0.0
 10
42.57981334680393
 20
1.438543813575635
 30
0.0
 10
42.57944292976798
 20
1.438646516735245
 30
0.0
 10
42.5790718810085
 20
1.438741768031394
 30
0.0
 10
42.57870083224903
 20
1.438837019327544
 30
0.0
 10
42.57832936827842
 20
1.438924842863552
 30
0.0
 10
42.57795790430782
 20
1.439012666399561
 30
0.0
 10
42.57758623901559
 20
1.439093094306017
 30
0.0
 10
42.57721457372337
 20
1.439173522212472
 30
0.0
 10
42.57684291802373
 20
1.439246594440696
 30
0.0
 10
42.57647126232409
 20
1.439319666668921
 30
0.0
 10
42.57609982381993
 20
1.439385430767199
 30
0.0
 10
42.57572838531577
 20
1.439451194865478
 30
0.0
 10
42.57535736797957
 20
1.43950970573938
 30
0.0
 10
42.57498635064337
 20
1.439568216613282
 30
0.0
 10
42.57461595451598
 20
1.439619536271444
 30
0.0
 10
42.57424555838858
 20
1.439670855929606
 30
0.0
 10
42.57387597929647
 20
1.439715053216386
 30
0.0
 10
42.57350640020435
 20
1.439759250503166
 30
0.0
 10
42.57313782949591
 20
1.43979640081958
 30
0.0
 10
42.57276925878747
 20
1.439833551135993
 30
0.0
 10
42.57240188308867
 20
1.439863736150374
 30
0.0
 10
42.57203450738986
 20
1.439893921164755
 30
0.0
 10
42.57166850837969
 20
1.439917228514567
 30
0.0
 10
42.57130250936952
 20
1.439940535864379
 30
0.0
 10
42.5709380635753
 20
1.439957058850601
 30
0.0
 10
42.57057361778109
 20
1.439973581836822
 30
0.0
 10
42.57021089639382
 20
1.439983419112315
 30
0.0
 10
42.56984817500654
 20
1.439993256387808
 30
0.0
 10
42.54449254416298
 20
1.440001713702821
 30
0.0
 10
42.51913691331941
 20
1.440010171017834
 30
0.0
 10
42.51881479771902
 20
1.440025680228141
 30
0.0
 10
42.51849268211863
 20
1.440041189438448
 30
0.0
 10
42.51816873388039
 20
1.440067319463139
 30
0.0
 10
42.51784478564214
 20
1.440093449487829
 30
0.0
 10
42.51751950958391
 20
1.440130398150689
 30
0.0
 10
42.51719423352567
 20
1.440167346813548
 30
0.0
 10
42.5168681538343
 20
1.440215281017604
 30
0.0
 10
42.51654207414292
 20
1.44026321522166
 30
0.0
 10
42.51621573207862
 20
1.4403222688983
 30
0.0
 10
42.51588939001432
 20
1.44038132257494
 30
0.0
 10
42.51556334137385
 20
1.44045159483165
 30
0.0
 10
42.51523729273337
 20
1.44052186708836
 30
0.0
 10
42.51491210509137
 20
1.440603420586662
 30
0.0
 10
42.51458691744936
 20
1.440684974084965
 30
0.0
 10
42.51426316720207
 20
1.440777833678009
 30
0.0
 10
42.51393941695477
 20
1.440870693271052
 30
0.0
 10
42.51361768619425
 20
1.440974844927473
 30
0.0
 10
42.51329595543373
 20
1.441078996583893
 30
0.0
 10
42.51297682868522
 20
1.441194386621
 30
0.0
 10
42.5126577019367
 20
1.441309776658107
 30
0.0
 10
42.51234176279466
 20
1.441436311303264
 30
0.0
 10
42.51202582365262
 20
1.441562845948421
 30
0.0
 10
42.51171365135416
 20
1.441700391242738
 30
0.0
 10
42.51140147905571
 20
1.441837936537055
 30
0.0
 10
42.51109364503207
 20
1.441986318590288
 30
0.0
 10
42.51078581100843
 20
1.442134700643522
 30
0.0
 10
42.51048287545663
 20
1.442293706243529
 30
0.0
 10
42.51017993990483
 20
1.442452711843536
 30
0.0
 10
42.50988244842188
 20
1.442622089417875
 30
0.0
 10
42.50958495693894
 20
1.442791466992214
 30
0.0
 10
42.50929343726073
 20
1.442970927913668
 30
0.0
 10
42.50900191758252
 20
1.443150388835123
 30
0.0
 10
42.50871687646806
 20
1.443339609057211
 30
0.0
 10
42.5084318353536
 20
1.4435288292793
 30
0.0
 10
42.50815375565329
 20
1.443727451282371
 30
0.0
 10
42.50787567595297
 20
1.443926073285442
 30
0.0
 10
42.50760501389622
 20
1.444133708308873
 30
0.0
 10
42.50733435183947
 20
1.444341343332305
 30
0.0
 10
42.50707153457379
 20
1.444557573863795
 30
0.0
 10
42.5068087173081
 20
1.444773804395285
 30
0.0
 10
42.50655414071667
 20
1.44499818688429
 30
0.0
 10
42.50629956412524
 20
1.445222569373296
 30
0.0
 10
42.50605359094595
 20
1.445454637132529
 30
0.0
 10
42.50580761776666
 20
1.445686704891761
 30
0.0
 10
42.50557057602954
 20
1.445925971148277
 30
0.0
 10
42.50533353429242
 20
1.446165237404793
 30
0.0
 10
42.50510571608732
 20
1.44641119846069
 30
0.0
 10
42.50487789788222
 20
1.446657159516587
 30
0.0
 10
42.50465955846307
 20
1.446909297978675
 30
0.0
 10
42.50444121904391
 20
1.447161436440763
 30
0.0
 10
42.50423257626996
 20
1.447419224478766
 30
0.0
 10
42.50402393349601
 20
1.447677012516769
 30
0.0
 10
42.50382516760562
 20
1.447939915110629
 30
0.0
 10
42.50362640171522
 20
1.448202817704489
 30
0.0
 10
42.50343765542222
 20
1.448470295843079
 30
0.0
 10
42.50324890912921
 20
1.448737773981669
 30
0.0
 10
42.50307028802791
 20
1.449009287777679
 30
0.0
 10
42.5028916669266
 20
1.44928080157369
 30
0.0
 10
42.50272324018679
 20
1.449555813262416
 30
0.0
 10
42.50255481344698
 20
1.449830824951142
 30
0.0
 10
42.48879858179314
 20
1.474915328141515
 30
0.0
 10
42.4750423501393
 20
1.499999831331887
 30
0.0
  0
SPLINE
  5
42
330
1F
100
AcDbEntity
  8
DEFAULT
100
AcDbSpline
210
0.0
220
0.0
230
1.0
 70
    24
 71
     2
 72
     6
 73
     3
 74
     0
 42
0.0000000001
 43
0.0000000001
 40
0.0
 40
0.0
 40
0.0
 40
5.610000000000021
 40
5.610000000000021
 40
5.610000000000021
 10
34.70611746789106
 20
0.6024998313318866
 30
0.0
 10
37.25021307101526
 20
0.6024998313318866
 30
0.0
 10
39.81643151242579
 20
0.6024998313318866
 30
0.0
  0
SPLINE
  5
43
330
1F
100
AcDbEntity
  8
DEFAULT
100
AcDbSpline
210
0.0
220
0.0
230
1.0
 70
     8
 71
     2
 72
   386
 73
   383
 74
     0
 42
0.0000000001
 43
0.0000000001
 40
0.0
 40
0.0
 40
0.0
 40
1.0
 40
1.0
 40
2.0
 40
2.0
 40
3.0
 40
3.0
 40
4.0
 40
4.0
 40
5.0
 40
5.0
 40
6.0
 40
6.0
 40
7.0
 40
7.0
 40
8.0
 40
8.0
 40
9.0
 40
9.0
 40
10.0
 40
10.0
 40
11.0
 40
11.0
 40
12.0
 40
12.0
 40
13.0
 40
13.0
 40
14.0
 40
14.0
 40
15.0
 40
15.0
 40
16.0
 40
16.0
 40
17.0
 40
17.0
 40
18.0
 40
18.0
 40
19.0
 40
19.0
 40
20.0
 40
20.0
 40
21.0
 40
21.0
 40
22.0
 40
22.0
 40
23.0
 40
23.0
 40
24.0
 40
24.0
 40
25.0
 40
25.0
 40
26.0
 40
26.0
 40
27.0
 40
27.0
 40
28.0
 40
28.0
 40
29.0
 40
29.0
 40
30.0
 40
30.0
 40
31.0
 40
31.0
 40
32.0
 40
32.0
 40
33.0
 40
33.0
 40
34.0
 40
34.0
 40
35.0
 40
35.0
 40
36.0
 40
36.0
 40
37.0
 40
37.0
 40
38.0
 40
38.0
 40
39.0
 40
39.0
 40
40.0
 40
40.0
 40
41.0
 40
41.0
 40
42.0
 40
42.0
 40
43.0
 40
43.0
 40
44.0
 40
44.0
 40
45.0
 40
45.0
 40
46.0
 40
46.0
 40
47.0
 40
47.0
 40
48.0
 40
48.0
 40
49.0
 40
49.0
 40
50.0
 40
50.0
 40
51.0
 40
51.0
 40
52.0
 40
52.0
 40
53.0
 40
53.0
 40
54.0
 40
54.0
 40
55.0
 40
55.0
 40
56.0
 40
56.0
 40
57.0
 40
57.0
 40
58.0
 40
58.0
 40
59.0
 40
59.0
 40
60.0
 40
60.0
 40
61.0
 40
61.0
 40
62.0
 40
62.0
 40
63.0
 40
63.0
 40
64.0
 40
64.0
 40
65.0
 40
65.0
 40
66.0
 40
66.0
 40
67.0
 40
67.0
 40
68.0
 40
68.0
 40
69.0
 40
69.0
 40
70.0
 40
70.0
 40
71.0
 40
71.0
 40
72.0
 40
72.0
 40
73.0
 40
73.0
 40
74.0
 40
74.0
 40
75.0
 40
75.0
 40
76.0
 40
76.0
 40
77.0
 40
77.0
 40
78.0
 40
78.0
 40
79.0
 40
79.0
 40
80.0
 40
80.0
 40
81.0
 40
81.0
 40
82.0
 40
82.0
 40
83.0
 40
83.0
 40
84.0
 40
84.0
 40
85.0
 40
85.0
 40
86.0
 40
86.0
 40
87.0
 40
87.0
 40
88.0
 40
88.0
 40
89.0
 40
89.0
 40
90.0
 40
90.0
 40
91.0
 40
91.0
 40
92.0
 40
92.0
 40
93.0
 40
93.0
 40
94.0
 40
94.0
 40
95.0
 40
95.0
 40
96.0
 40
96.0
 40
97.0
 40
97.0
 40
98.0
 40
98.0
 40
99.0
 40
99.0
 40
100.0
 40
100.0
 40
101.0
 40
101.0
 40
102.0
 40
102.0
 40
103.0
 40
103.0
 40
104.0
 40
104.0
 40
105.0
 40
105.0
 40
106.0
 40
106.0
 40
107.0
 40
107.0
 40
108.0
 40
108.0
 40
109.0
 40
109.0
 40
110.0
 40
110.0
 40
111.0
 40
111.0
 40
112.0
 40
112.0
 40
113.0
 40
113.0
 40
114.0
 40
114.0
 40
115.0
 40
115.0
 40
116.0
 40
116.0
 40
117.0
 40
117.0
 40
118.0
 40
118.0
 40
119.0
 40
119.0
 40
120.0
 40
120.0
 40
121.0
 40
121.0
 40
122.0
 40
122.0
 40
123.0
 40
123.0
 40
124.0
 40
124.0
 40
125.0
 40
125.0
 40
126.0
 40
126.0
 40
127.0
 40
127.0
 40
128.0
 40
128.0
 40
129.0
 40
129.0
 40
130.0
 40
130.0
 40
131.0
 40
131.0
 40
132.0
 40
132.0
 40
133.0
 40
133.0
 40
134.0
 40
134.0
 40
135.0
 40
135.0
 40
136.0
 40
136.0
 40
137.0
 40
137.0
 40
138.0
 40
138.0
 40
139.0
 40
139.0
 40
140.0
 40
140.0
 40
141.0
 40
141.0
 40
142.0
 40
142.0
 40
143.0
 40
143.0
 40
144.0
 40
144.0
 40
145.0
 40
145.0
 40
146.0
 40
146.0
 40
147.0
 40
147.0
 40
148.0
 40
148.0
 40
149.0
 40
149.0
 40
150.0
 40
150.0
 40
151.0
 40
151.0
 40
152.0
 40
152.0
 40
153.0
 40
153.0
 40
154.0
 40
154.0
 40
155.0
 40
155.0
 40
156.0
 40
156.0
 40
157.0
 40
157.0
 40
158.0
 40
158.0
 40
159.0
 40
159.0
 40
160.0
 40
160.0
 40
161.0
 40
161.0
 40
162.0
 40
162.0
 40
163.0
 40
163.0
 40
164.0
 40
164.0
 40
165.0
 40
165.0
 40
166.0
 40
166.0
 40
167.0
 40
167.0
 40
168.0
 40
168.0
 40
169.0
 40
169.0
 40
170.0
 40
170.0
 40
171.0
 40
171.0
 40
172.0
 40
172.0
 40
173.0
 40
173.0
 40
174.0
 40
174.0
 40
175.0
 40
175.0
 40
176.0
 40
176.0
 40
177.0
 40
177.0
 40
178.0
 40
178.0
 40
179.0
 40
179.0
 40
180.0
 40
180.0
 40
181.0
 40
181.0
 40
182.0
 40
182.0
 40
183.0
 40
183.0
 40
184.0
 40
184.0
 40
185.0
 40
185.0
 40
186.0
 40
186.0
 40
187.0
 40
187.0
 40
188.0
 40
188.0
 40
189.0
 40
189.0
 40
190.0
 40
190.0
 40
191.0
 40
191.0
 40
191.0
 10
32.14158746688408
 20
1.290077783707147
 30
0.0
 10
32.13802547228629
 20
1.290189596334407
 30
0.0
 10
32.1344634776885
 20
1.290301408961668
 30
0.0
 10
32.13089299889314
 20
1.290486851501969
 30
0.0
 10
32.12732252009779
 20
1.29067229404227
 30
0.0
 10
32.1237458003811
 20
1.290931940541354
 30
0.0
 10
32.12016908066441
 20
1.291191587040438
 30
0.0
 10
32.1165883987687
 20
1.291525921703411
 30
0.0
 10
32.11300771687299
 20
1.291860256366383
 30
0.0
 10
32.1094253825601
 20
1.292269671179742
 30
0.0
 10
32.10584304824719
 20
1.292679085993101
 30
0.0
 10
32.10226139767452
 20
1.293163878608526
 30
0.0
 10
32.09867974710184
 20
1.293648671223951
 30
0.0
 10
32.09510113803871
 20
1.29420904311861
 30
0.0
 10
32.09152252897559
 20
1.29476941501327
 30
0.0
 10
32.08794933587927
 20
1.295405469939994
 30
0.0
 10
32.08437614278296
 20
1.296041524866718
 30
0.0
 10
32.0808107517547
 20
1.296753267605876
 30
0.0
 10
32.07724536072645
 20
1.297465010345034
 30
0.0
 10
32.07369016436917
 20
1.298252345768304
 30
0.0
 10
32.07013496801189
 20
1.299039681191575
 30
0.0
 10
32.06659236021196
 20
1.299902413646022
 30
0.0
 10
32.06304975241203
 20
1.30076514610047
 30
0.0
 10
32.0595221230685
 20
1.301702979119495
 30
0.0
 10
32.05599449372498
 20
1.30264081213852
 30
0.0
 10
32.05248422345013
 20
1.303653348484306
 30
0.0
 10
32.04897395317528
 20
1.304665884830091
 30
0.0
 10
32.04548340799076
 20
1.30575262687016
 30
0.0
 10
32.04199286280624
 20
1.30683936891023
 30
0.0
 10
32.03852438885954
 20
1.307999719328705
 30
0.0
 10
32.03505591491284
 20
1.309160069747179
 30
0.0
 10
32.0316118332385
 20
1.310393332589239
 30
0.0
 10
32.02816775156417
 20
1.311626595431299
 30
0.0
 10
32.02475035291445
 20
1.312931977477294
 30
0.0
 10
32.02133295426474
 20
1.314237359523289
 30
0.0
 10
32.01794449403365
 20
1.315613971986887
 30
0.0
 10
32.01455603380255
 20
1.316990584450486
 30
0.0
 10
32.011198727067
 20
1.318437444993246
 30
0.0
 10
32.00784142033145
 20
1.319884305536006
 30
0.0
 10
32.00451743703233
 20
1.321400340588787
 30
0.0
 10
32.00119345373322
 20
1.322916375641568
 30
0.0
 10
31.99790491401847
 20
1.324500423021334
 30
0.0
 10
31.99461637430372
 20
1.326084470401101
 30
0.0
 10
31.99136534405408
 20
1.32773528220989
 30
0.0
 10
31.98811431380445
 20
1.32938609401868
 30
0.0
 10
31.98490280036186
 20
1.331102339809828
 30
0.0
 10
31.98169128691927
 20
1.332818585600976
 30
0.0
 10
31.97852123503591
 20
1.334598855796174
 30
0.0
 10
31.97535118315254
 20
1.336379125991372
 30
0.0
 10
31.97222447117747
 20
1.33822193553072
 30
0.0
 10
31.9690977592024
 20
1.340064745070068
 30
0.0
 10
31.96601619552085
 20
1.341968537276057
 30
0.0
 10
31.96293463183929
 20
1.343872329482047
 30
0.0
 10
31.95989995157807
 20
1.345835480117337
 30
0.0
 10
31.95686527131685
 20
1.347798630752627
 30
0.0
 10
31.95387913332737
 20
1.349819452250564
 30
0.0
 10
31.9508929953379
 20
1.351840273748501
 30
0.0
 10
31.94795697946673
 20
1.353917019594628
 30
0.0
 10
31.94502096359556
 20
1.355993765440756
 30
0.0
 10
31.94213656825015
 20
1.358124634683011
 30
0.0
 10
31.93925217290475
 20
1.360255503925266
 30
0.0
 10
31.93642081292033
 20
1.362438645790209
 30
0.0
 10
31.93358945293591
 20
1.364621787655152
 30
0.0
 10
31.93081245774752
 20
1.366855306247411
 30
0.0
 10
31.92803546255912
 20
1.36908882483967
 30
0.0
 10
31.92775868617868
 20
1.369320351624353
 30
0.0
 10
31.92748190979824
 20
1.369551878409036
 30
0.0
 10
31.92720785024874
 20
1.369789691234826
 30
0.0
 10
31.92693379069925
 20
1.370027504060616
 30
0.0
 10
31.92666264183089
 20
1.37027157789612
 30
0.0
 10
31.92639149296252
 20
1.370515651731623
 30
0.0
 10
31.92612344968053
 20
1.370765954162661
 30
0.0
 10
31.92585540639854
 20
1.371016256593699
 30
0.0
 10
31.92559066433531
 20
1.371272747683426
 30
0.0
 10
31.92532592227207
 20
1.371529238773153
 30
0.0
 10
31.92506467744649
 20
1.371791870938446
 30
0.0
 10
31.92480343262092
 20
1.372054503103738
 30
0.0
 10
31.92454588108642
 20
1.372323221008921
 30
0.0
 10
31.92428832955192
 20
1.372591938914103
 30
0.0
 10
31.92403466703355
 20
1.372866679383054
 30
0.0
 10
31.92378100451519
 20
1.373141419852004
 30
0.0
 10
31.9235314260372
 20
1.373422111799618
 30
0.0
 10
31.92328184755921
 20
1.373702803747232
 30
0.0
 10
31.92303654706419
 20
1.373989368131151
 30
0.0
 10
31.92279124656917
 20
1.374275932515069
 30
0.0
 10
31.92255041652978
 20
1.374568282308531
 30
0.0
 10
31.92230958649039
 20
1.374860632101992
 30
0.0
 10
31.92207341751532
 20
1.375158672288553
 30
0.0
 10
31.92183724854025
 20
1.375456712475114
 30
0.0
 10
31.92160592897552
 20
1.375760340065924
 30
0.0
 10
31.92137460941079
 20
1.376063967656735
 30
0.0
 10
31.92114832493798
 20
1.37637307173094
 30
0.0
 10
31.92092204046518
 20
1.376682175805146
 30
0.0
 10
31.92070097369808
 20
1.376996637573884
 30
0.0
 10
31.92047990693099
 20
1.377311099342622
 30
0.0
 10
31.9202642370123
 20
1.377630792236974
 30
0.0
 10
31.92004856709361
 20
1.377950485131326
 30
0.0
 10
31.91983846929321
 20
1.378275274914467
 30
0.0
 10
31.91962837149281
 20
1.378600064697608
 30
0.0
 10
31.91942401680935
 20
1.378929809601269
 30
0.0
 10
31.91921966212589
 20
1.379259554504931
 30
0.0
 10
31.9190212168934
 20
1.379594105390164
 30
0.0
 10
31.9188227716609
 20
1.379928656275396
 30
0.0
 10
31.91863039716195
 20
1.380267856817495
 30
0.0
 10
31.91843802266299
 20
1.380607057359593
 30
0.0
 10
31.91825187475043
 20
1.380950744256901
 30
0.0
 10
31.91806572683786
 20
1.381294431154209
 30
0.0
 10
31.91788595556641
 20
1.381642434360395
 30
0.0
 10
31.91770618429495
 20
1.381990437566582
 30
0.0
 10
31.91753293356477
 20
1.382342580545834
 30
0.0
 10
31.91735968283458
 20
1.382694723525086
 30
0.0
 10
31.91719309004802
 20
1.383050823529541
 30
0.0
 10
31.91702649726147
 20
1.383406923533997
 30
0.0
 10
31.91686669299501
 20
1.383766791902592
 30
0.0
 10
31.91670688872856
 20
1.384126660271187
 30
0.0
 10
31.91655399642113
 20
1.384490102748978
 30
0.0
 10
31.91640110411369
 20
1.384853545226769
 30
0.0
 10
31.91625523977308
 20
1.385220362303649
 30
0.0
 10
31.91610937543247
 20
1.385587179380529
 30
0.0
 10
31.9159706473611
 20
1.385957166648153
 30
0.0
 10
31.91583191928973
 20
1.386327153915777
 30
0.0
 10
31.91570042783112
 20
1.386700102441388
 30
0.0
 10
31.9155689363725
 20
1.387073050966999
 30
0.0
 10
31.91544477367965
 20
1.387448747682738
 30
0.0
 10
31.91532061098679
 20
1.387824444398478
 30
0.0
 10
31.91520386081355
 20
1.388202672504692
 30
0.0
 10
31.91508711064031
 20
1.388580900610906
 30
0.0
 10
31.91497784815665
 20
1.38896143999183
 30
0.0
 10
31.91486858567299
 20
1.389341979372753
 30
0.0
 10
31.91476687730513
 20
1.389724607022926
 30
0.0
 10
31.91466516893727
 20
1.390107234673099
 30
0.0
 10
31.91457107223329
 20
1.390491725132775
 30
0.0
 10
31.91447697552931
 20
1.390876215592451
 30
0.0
 10
31.91439053905078
 20
1.391262341390207
 30
0.0
 10
31.91430410257225
 20
1.391648467187963
 30
0.0
 10
31.91422536581244
 20
1.392035999288697
 30
0.0
 10
31.91414662905264
 20
1.392423531389432
 30
0.0
 10
31.91407562238151
 20
1.392812239645899
 30
0.0
 10
31.91400461571038
 20
1.393200947902366
 30
0.0
 10
31.91394136034637
 20
1.393590601508375
 30
0.0
 10
31.91387810498235
 20
1.393980255114384
 30
0.0
 10
31.91382261299123
 20
1.39437062305781
 30
0.0
 10
31.91376712100012
 20
1.394760991001235
 30
0.0
 10
31.91371939532047
 20
1.395151842514978
 30
0.0
 10
31.91367166964082
 20
1.395542694028722
 30
0.0
 10
31.91363170413603
 20
1.395933799037807
 30
0.0
 10
31.91359173863123
 20
1.396324904046892
 30
0.0
 10
31.91355951816736
 20
1.396716033609896
 30
0.0
 10
31.91352729770349
 20
1.397107163172901
 30
0.0
 10
31.91350279825272
 20
1.397498089915997
 30
0.0
 10
31.91347829880196
 20
1.397889016659092
 30
0.0
 10
31.91346148757063
 20
1.398279515201008
 30
0.0
 10
31.91344467633931
 20
1.398670013742923
 30
0.0
 10
31.91343551191982
 20
1.399059861109236
 30
0.0
 10
31.91342634750032
 20
1.399449708475548
 30
0.0
 10
31.91342478004599
 20
1.399838684500772
 30
0.0
 10
31.91342321259166
 20
1.400227660525997
 30
0.0
 10
31.91342918401341
 20
1.400615548242047
 30
0.0
 10
31.91343515543516
 20
1.401003435958098
 30
0.0
 10
31.91344859961893
 20
1.401390021967789
 30
0.0
 10
31.9134620438027
 20
1.40177660797748
 30
0.0
 10
31.91348288684629
 20
1.402161682811843
 30
0.0
 10
31.91350372988988
 20
1.402546757646206
 30
0.0
 10
31.91353189035794
 20
1.402930116104505
 30
0.0
 10
31.913560050826
 20
1.403313474562803
 30
0.0
 10
31.91359544002184
 20
1.403694916034255
 30
0.0
 10
31.91363082921768
 20
1.404076357505707
 30
0.0
 10
31.91367335147023
 20
1.404455686272037
 30
0.0
 10
31.91371587372278
 20
1.404835015038366
 30
0.0
 10
31.91376542668755
 20
1.40521204055643
 30
0.0
 10
31.91381497965232
 20
1.405589066074495
 30
0.0
 10
31.91387145462458
 20
1.405963603238363
 30
0.0
 10
31.91392792959684
 20
1.406338140402231
 30
0.0
 10
31.91399121183557
 20
1.406710009784208
 30
0.0
 10
31.9140544940743
 20
1.407081879166185
 30
0.0
 10
31.91412446313545
 20
1.407450907236405
 30
0.0
 10
31.91419443219659
 20
1.407819935306625
 30
0.0
 10
31.91427096227383
 20
1.408185954630955
 30
0.0
 10
31.91434749235107
 20
1.408551973955285
 30
0.0
 10
31.91443045262293
 20
1.408914823371407
 30
0.0
 10
31.91451341289479
 20
1.40927767278753
 30
0.0
 10
31.91460266787617
 20
1.409637197559182
 30
0.0
 10
31.91469192285755
 20
1.409996722330834
 30
0.0
 10
31.91478733275458
 20
1.410352774280291
 30
0.0
 10
31.9148827426516
 20
1.410708826229747
 30
0.0
 10
31.91498416371797
 20
1.411061263848759
 30
0.0
 10
31.91508558478433
 20
1.411413701467771
 30
0.0
 10
31.91519286967811
 20
1.411762390007249
 30
0.0
 10
31.91530015457189
 20
1.412111078546727
 30
0.0
 10
31.91541315271108
 20
1.412455890085565
 30
0.0
 10
31.91552615085027
 20
1.412800701624403
 30
0.0
 10
31.91564470876617
 20
1.413141515117938
 30
0.0
 10
31.91576326668208
 20
1.413482328611472
 30
0.0
 10
31.91588795412452
 20
1.413820947657737
 30
0.0
 10
31.91601264156697
 20
1.414159566704002
 30
0.0
 10
31.9161441629475
 20
1.41449774669046
 30
0.0
 10
31.91627568432803
 20
1.414835926676919
 30
0.0
 10
31.91641408141963
 20
1.415173476659926
 30
0.0
 10
31.91655247851124
 20
1.415511026642933
 30
0.0
 10
31.91669778649181
 20
1.415847752197033
 30
0.0
 10
31.91684309447237
 20
1.416184477751133
 30
0.0
 10
31.91699534168237
 20
1.416520181230722
 30
0.0
 10
31.91714758889237
 20
1.41685588471031
 30
0.0
 10
31.91730679660377
 20
1.417190365528543
 30
0.0
 10
31.91746600431516
 20
1.417524846346776
 30
0.0
 10
31.91763218651264
 20
1.417857901271271
 30
0.0
 10
31.91779836871011
 20
1.418190956195766
 30
0.0
 10
31.91797153188603
 20
1.418522379660556
 30
0.0
 10
31.91814469506195
 20
1.418853803125346
 30
0.0
 10
31.91832483802628
 20
1.419183387558419
 30
0.0
 10
31.91850498099062
 20
1.419512971991493
 30
0.0
 10
31.91869209469718
 20
1.419840508157149
 30
0.0
 10
31.91887920840373
 20
1.420168044322806
 30
0.0
 10
31.91907327579364
 20
1.420493321677969
 30
0.0
 10
31.91926734318356
 20
1.420818599033132
 30
0.0
 10
31.91946833904757
 20
1.421141406096623
 30
0.0
 10
31.91966933491158
 20
1.421464213160113
 30
0.0
 10
31.91987722577188
 20
1.42178433789382
 30
0.0
 10
31.92008511663218
 20
1.422104462627527
 30
0.0
 10
31.92029986064503
 20
1.422421692828277
 30
0.0
 10
31.92051460465789
 20
1.422738923029028
 30
0.0
 10
31.92073615153795
 20
1.423053046729899
 30
0.0
 10
31.92095769841801
 20
1.423367170430771
 30
0.0
 10
31.92118598938513
 20
1.423677976310462
 30
0.0
 10
31.92141428035226
 20
1.423988782190153
 30
0.0
 10
31.92164924810178
 20
1.424296059988983
 30
0.0
 10
31.9218842158513
 20
1.424603337787813
 30
0.0
 10
31.92212578454811
 20
1.424906878728812
 30
0.0
 10
31.92236735324492
 20
1.425210419669811
 30
0.0
 10
31.92261543854229
 20
1.425510016883317
 30
0.0
 10
31.92286352383966
 20
1.425809614096823
 30
0.0
 10
31.92311803292296
 20
1.426105063046935
 30
0.0
 10
31.92337254200626
 20
1.426400511997048
 30
0.0
 10
31.92363337366202
 20
1.42669161090824
 30
0.0
 10
31.92389420531777
 20
1.426982709819432
 30
0.0
 10
31.92416125002817
 20
1.427269260101581
 30
0.0
 10
31.92442829473857
 20
1.427555810383729
 30
0.0
 10
31.92470143480162
 20
1.427837617053812
 30
0.0
 10
31.92497457486468
 20
1.428119423723895
 30
0.0
 10
31.92525368453968
 20
1.428396295822566
 30
0.0
 10
31.92553279421469
 20
1.428673167921236
 30
0.0
 10
31.92581773989303
 20
1.428944918922505
 30
0.0
 10
31.92610268557137
 20
1.429216669923774
 30
0.0
 10
31.92639332597206
 20
1.429483118136025
 30
0.0
 10
31.92668396637275
 20
1.429749566348276
 30
0.0
 10
31.92698015276247
 20
1.43001053530487
 30
0.0
 10
31.92727633915218
 20
1.430271504261463
 30
0.0
 10
31.92757791558872
 20
1.430526823099213
 30
0.0
 10
31.92787949202527
 20
1.430782141936962
 30
0.0
 10
31.92818629562421
 20
1.431031645760828
 30
0.0
 10
31.92849309922314
 20
1.431281149584694
 30
0.0
 10
31.92880496044617
 20
1.431524679817079
 30
0.0
 10
31.92911682166919
 20
1.431768210049464
 30
0.0
 10
31.92943356463355
 20
1.432005614762588
 30
0.0
 10
31.9297503075979
 20
1.432243019475712
 30
0.0
 10
31.93007175040548
 20
1.432474153705611
 30
0.0
 10
31.93039319321305
 20
1.43270528793551
 30
0.0
 10
31.93071914829793
 20
1.432930013976307
 30
0.0
 10
31.93104510338281
 20
1.433154740017105
 30
0.0
 10
31.93137537787592
 20
1.433372927694302
 30
0.0
 10
31.93170565236904
 20
1.433591115371499
 30
0.0
 10
31.93204004847836
 20
1.43380264229315
 30
0.0
 10
31.93237444458768
 20
1.434014169214801
 30
0.0
 10
31.93271275999242
 20
1.43421892099955
 30
0.0
 10
31.93305107539716
 20
1.434423672784298
 30
0.0
 10
31.93339310365434
 20
1.434621543265394
 30
0.0
 10
31.93373513191151
 20
1.434819413746491
 30
0.0
 10
31.9340806628731
 20
1.43501030515103
 30
0.0
 10
31.93442619383469
 20
1.435201196555569
 30
0.0
 10
31.93477501407382
 20
1.435385019658335
 30
0.0
 10
31.93512383431294
 20
1.4355688427611
 30
0.0
 10
31.93547572755695
 20
1.435745517012542
 30
0.0
 10
31.93582762080095
 20
1.435922191263984
 30
0.0
 10
31.93618236836987
 20
1.436091644892001
 30
0.0
 10
31.93653711593879
 20
1.436261098520019
 30
0.0
 10
31.93689449718727
 20
1.436423268605362
 30
0.0
 10
31.93725187843576
 20
1.436585438690705
 30
0.0
 10
31.93761167119649
 20
1.436740271215962
 30
0.0
 10
31.93797146395723
 20
1.43689510374122
 30
0.0
 10
31.93833344498423
 20
1.437042553613491
 30
0.0
 10
31.93869542601122
 20
1.437190003485761
 30
0.0
 10
31.93905937142106
 20
1.43733003453326
 30
0.0
 10
31.93942331683089
 20
1.437470065580758
 30
0.0
 10
31.93978900254022
 20
1.437602650523736
 30
0.0
 10
31.94015468824955
 20
1.437735235466715
 30
0.0
 10
31.94052189040712
 20
1.437860355863212
 30
0.0
 10
31.94088909256469
 20
1.437985476259709
 30
0.0
 10
31.94125758797625
 20
1.438103122426766
 30
0.0
 10
31.94162608338781
 20
1.438220768593822
 30
0.0
 10
31.9419956499324
 20
1.438330939504924
 30
0.0
 10
31.94236521647698
 20
1.438441110416026
 30
0.0
 10
31.94273563351292
 20
1.438543813575635
 30
0.0
 10
31.94310605054885
 20
1.438646516735245
 30
0.0
 10
31.94347709930833
 20
1.438741768031394
 30
0.0
 10
31.94384814806781
 20
1.438837019327544
 30
0.0
 10
31.9442196120384
 20
1.438924842863552
 30
0.0
 10
31.944591076009
 20
1.439012666399561
 30
0.0
 10
31.94496274130123
 20
1.439093094306017
 30
0.0
 10
31.94533440659346
 20
1.439173522212472
 30
0.0
 10
31.9457060622931
 20
1.439246594440696
 30
0.0
 10
31.94607771799273
 20
1.439319666668921
 30
0.0
 10
31.94644915649689
 20
1.439385430767199
 30
0.0
 10
31.94682059500105
 20
1.439451194865478
 30
0.0
 10
31.94719161233725
 20
1.43950970573938
 30
0.0
 10
31.94756262967345
 20
1.439568216613282
 30
0.0
 10
31.94793302580086
 20
1.439619536271444
 30
0.0
 10
31.94830342192826
 20
1.439670855929606
 30
0.0
 10
31.94867300102037
 20
1.439715053216386
 30
0.0
 10
31.94904258011249
 20
1.439759250503166
 30
0.0
 10
31.94941115082093
 20
1.43979640081958
 30
0.0
 10
31.94977972152938
 20
1.439833551135993
 30
0.0
 10
31.95014709722818
 20
1.439863736150374
 30
0.0
 10
31.95051447292698
 20
1.439893921164755
 30
0.0
 10
31.95088047193714
 20
1.439917228514567
 30
0.0
 10
31.95124647094729
 20
1.439940535864379
 30
0.0
 10
31.95161091674152
 20
1.439957058850601
 30
0.0
 10
31.95197536253574
 20
1.439973581836822
 30
0.0
 10
31.95233808392302
 20
1.439983419112315
 30
0.0
 10
31.9527008053103
 20
1.439993256387808
 30
0.0
 10
31.97805643615386
 20
1.440001713702821
 30
0.0
 10
32.00341206699742
 20
1.440010171017834
 30
0.0
 10
32.00373418259782
 20
1.440025680228141
 30
0.0
 10
32.00405629819822
 20
1.440041189438448
 30
0.0
 10
32.00438024643647
 20
1.440067319463139
 30
0.0
 10
32.00470419467472
 20
1.440093449487829
 30
0.0
 10
32.00502947073295
 20
1.440130398150689
 30
0.0
 10
32.00535474679117
 20
1.440167346813548
 30
0.0
 10
32.00568082648255
 20
1.440215281017604
 30
0.0
 10
32.00600690617393
 20
1.44026321522166
 30
0.0
 10
32.00633324823823
 20
1.4403222688983
 30
0.0
 10
32.00665959030252
 20
1.44038132257494
 30
0.0
 10
32.006985638943
 20
1.44045159483165
 30
0.0
 10
32.00731168758349
 20
1.44052186708836
 30
0.0
 10
32.00763687522549
 20
1.440603420586662
 30
0.0
 10
32.00796206286749
 20
1.440684974084965
 30
0.0
 10
32.00828581311478
 20
1.440777833678009
 30
0.0
 10
32.00860956336208
 20
1.440870693271052
 30
0.0
 10
32.0089312941226
 20
1.440974844927473
 30
0.0
 10
32.00925302488312
 20
1.441078996583893
 30
0.0
 10
32.00957215163163
 20
1.441194386621
 30
0.0
 10
32.00989127838014
 20
1.441309776658107
 30
0.0
 10
32.01020721752217
 20
1.441436311303264
 30
0.0
 10
32.0105231566642
 20
1.441562845948421
 30
0.0
 10
32.01083532896266
 20
1.441700391242738
 30
0.0
 10
32.01114750126113
 20
1.441837936537055
 30
0.0
 10
32.01145533528477
 20
1.441986318590288
 30
0.0
 10
32.01176316930841
 20
1.442134700643522
 30
0.0
 10
32.01206610486022
 20
1.442293706243529
 30
0.0
 10
32.01236904041202
 20
1.442452711843536
 30
0.0
 10
32.01266653189496
 20
1.442622089417875
 30
0.0
 10
32.01296402337789
 20
1.442791466992214
 30
0.0
 10
32.0132555430561
 20
1.442970927913668
 30
0.0
 10
32.01354706273433
 20
1.443150388835123
 30
0.0
 10
32.01383210384878
 20
1.443339609057211
 30
0.0
 10
32.01411714496323
 20
1.4435288292793
 30
0.0
 10
32.01439522466356
 20
1.443727451282371
 30
0.0
 10
32.01467330436388
 20
1.443926073285442
 30
0.0
 10
32.01494396642062
 20
1.444133708308873
 30
0.0
 10
32.01521462847736
 20
1.444341343332305
 30
0.0
 10
32.01547744574306
 20
1.444557573863795
 30
0.0
 10
32.01574026300875
 20
1.444773804395285
 30
0.0
 10
32.01599483960018
 20
1.44499818688429
 30
0.0
 10
32.01624941619161
 20
1.445222569373296
 30
0.0
 10
32.01649538937089
 20
1.445454637132529
 30
0.0
 10
32.01674136255016
 20
1.445686704891761
 30
0.0
 10
32.0169784042873
 20
1.445925971148277
 30
0.0
 10
32.01721544602443
 20
1.446165237404793
 30
0.0
 10
32.01744326422953
 20
1.44641119846069
 30
0.0
 10
32.01767108243463
 20
1.446657159516587
 30
0.0
 10
32.01788942185378
 20
1.446909297978675
 30
0.0
 10
32.01810776127293
 20
1.447161436440763
 30
0.0
 10
32.01831640404687
 20
1.447419224478766
 30
0.0
 10
32.01852504682082
 20
1.447677012516769
 30
0.0
 10
32.01872381271122
 20
1.447939915110629
 30
0.0
 10
32.01892257860163
 20
1.448202817704489
 30
0.0
 10
32.01911132489462
 20
1.448470295843079
 30
0.0
 10
32.01930007118763
 20
1.448737773981669
 30
0.0
 10
32.01947869228894
 20
1.449009287777679
 30
0.0
 10
32.01965731339025
 20
1.44928080157369
 30
0.0
 10
32.01982574013006
 20
1.449555813262416
 30
0.0
 10
32.01999416686988
 20
1.449830824951142
 30
0.0
 10
32.03375039852371
 20
1.474915328141515
 30
0.0
 10
32.04750663017753
 20
1.499999831331887
 30
0.0
  0
SPLINE
  5
44
330
1F
100
AcDbEntity
  8
DEFAULT
100
AcDbSpline
210
0.0
220
0.0
230
1.0
 70
     8
 71
     2
 72
   260
 73
   257
 74
     0
 42
0.0000000001
 43
0.0000000001
 40
0.0
 40
0.0
 40
0.0
 40
1.0
 40
1.0
 40
2.0
 40
2.0
 40
3.0
 40
3.0
 40
4.0
 40
4.0
 40
5.0
 40
5.0
 40
6.0
 40
6.0
 40
7.0
 40
7.0
 40
8.0
 40
8.0
 40
9.0
 40
9.0
 40
10.0
 40
10.0
 40
11.0
 40
11.0
 40
12.0
 40
12.0
 40
13.0
 40
13.0
 40
14.0
 40
14.0
 40
15.0
 40
15.0
 40
16.0
 40
16.0
 40
17.0
 40
17.0
 40
18.0
 40
18.0
 40
19.0
 40
19.0
 40
20.0
 40
20.0
 40
21.0
 40
21.0
 40
22.0
 40
22.0
 40
23.0
 40
23.0
 40
24.0
 40
24.0
 40
25.0
 40
25.0
 40
26.0
 40
26.0
 40
27.0
 40
27.0
 40
28.0
 40
28.0
 40
29.0
 40
29.0
 40
30.0
 40
30.0
 40
31.0
 40
31.0
 40
32.0
 40
32.0
 40
33.0
 40
33.0
 40
34.0
 40
34.0
 40
35.0
 40
35.0
 40
36.0
 40
36.0
 40
37.0
 40
37.0
 40
38.0
 40
38.0
 40
39.0
 40
39.0
 40
40.0
 40
40.0
 40
41.0
 40
41.0
 40
42.0
 40
42.0
 40
43.0
 40
43.0
 40
44.0
 40
44.0
 40
45.0
 40
45.0
 40
46.0
 40
46.0
 40
47.0
 40
47.0
 40
48.0
 40
48.0
 40
49.0
 40
49.0
 40
50.0
 40
50.0
 40
51.0
 40
51.0
 40
52.0
 40
52.0
 40
53.0
 40
53.0
 40
54.0
 40
54.0
 40
55.0
 40
55.0
 40
56.0
 40
56.0
 40
57.0
 40
57.0
 40
58.0
 40
58.0
 40
59.0
 40
59.0
 40
60.0
 40
60.0
 40
61.0
 40
61.0
 40
62.0
 40
62.0
 40
63.0
 40
63.0
 40
64.0
 40
64.0
 40
65.0
 40
65.0
 40
66.0
 40
66.0
 40
67.0
 40
67.0
 40
68.0
 40
68.0
 40
69.0
 40
69.0
 40
70.0
 40
70.0
 40
71.0
 40
71.0
 40
72.0
 40
72.0
 40
73.0
 40
73.0
 40
74.0
 40
74.0
 40
75.0
 40
75.0
 40
76.0
 40
76.0
 40
77.0
 40
77.0
 40
78.0
 40
78.0
 40
79.0
 40
79.0
 40
80.0
 40
80.0
 40
81.0
 40
81.0
 40
82.0
 40
82.0
 40
83.0
 40
83.0
 40
84.0
 40
84.0
 40
85.0
 40
85.0
 40
86.0
 40
86.0
 40
87.0
 40
87.0
 40
88.0
 40
88.0
 40
89.0
 40
89.0
 40
90.0
 40
90.0
 40
91.0
 40
91.0
 40
92.0
 40
92.0
 40
93.0
 40
93.0
 40
94.0
 40
94.0
 40
95.0
 40
95.0
 40
96.0
 40
96.0
 40
97.0
 40
97.0
 40
98.0
 40
98.0
 40
99.0
 40
99.0
 40
100.0
 40
100.0
 40
101.0
 40
101.0
 40
102.0
 40
102.0
 40
103.0
 40
103.0
 40
104.0
 40
104.0
 40
105.0
 40
105.0
 40
106.0
 40
106.0
 40
107.0
 40
107.0
 40
108.0
 40
108.0
 40
109.0
 40
109.0
 40
110.0
 40
110.0
 40
111.0
 40
111.0
 40
112.0
 40
112.0
 40
113.0
 40
113.0
 40
114.0
 40
114.0
 40
115.0
 40
115.0
 40
116.0
 40
116.0
 40
117.0
 40
117.0
 40
118.0
 40
118.0
 40
119.0
 40
119.0
 40
120.0
 40
120.0
 40
121.0
 40
121.0
 40
122.0
 40
122.0
 40
123.0
 40
123.0
 40
124.0
 40
124.0
 40
125.0
 40
125.0
 40
126.0
 40
126.0
 40
127.0
 40
127.0
 40
128.0
 40
128.0
 40
128.0
 10
32.13611746789107
 20
1.499999331503211
 30
0.0
 10
32.15267101192769
 20
0.8689915005577165
 30
0.0
 10
32.16922455596432
 20
0.237983669612222
 30
0.0
 10
32.16938774377544
 20
0.2352269595235739
 30
0.0
 10
32.16955093158657
 20
0.2324702494349257
 30
0.0
 10
32.1697771408272
 20
0.229694465711863
 30
0.0
 10
32.17000335006783
 20
0.2269186819888003
 30
0.0
 10
32.17029398461094
 20
0.2241257273098723
 30
0.0
 10
32.17058461915406
 20
0.2213327726309443
 30
0.0
 10
32.17094101825545
 20
0.2185246431869786
 30
0.0
 10
32.17129741735684
 20
0.2157165137430128
 30
0.0
 10
32.17172084907655
 20
0.2128952973053813
 30
0.0
 10
32.17214428079626
 20
0.2100740808677498
 30
0.0
 10
32.17263593540905
 20
0.2072419543586128
 30
0.0
 10
32.17312759002183
 20
0.2044098278494758
 30
0.0
 10
32.17368857345701
 20
0.2015690544007573
 30
0.0
 10
32.1742495568922
 20
0.1987282809520389
 30
0.0
 10
32.17488088424535
 20
0.1958812064432948
 30
0.0
 10
32.17551221159851
 20
0.1930341319345508
 30
0.0
 10
32.17621480075982
 20
0.1901831810036467
 30
0.0
 10
32.17691738992112
 20
0.1873322300727427
 30
0.0
 10
32.17769205536651
 20
0.1844799015973412
 30
0.0
 10
32.17846672081191
 20
0.1816275731219398
 30
0.0
 10
32.17931416760496
 20
0.1787764351741739
 30
0.0
 10
32.18016161439801
 20
0.1759252972264079
 30
0.0
 10
32.18108243245079
 20
0.1730779815077502
 30
0.0
 10
32.18200325050357
 20
0.1702306657890924
 30
0.0
 10
32.1829979091457
 20
0.1673898615572749
 30
0.0
 10
32.18399256778784
 20
0.1645490573254575
 30
0.0
 10
32.18506141069238
 20
0.161717504830296
 30
0.0
 10
32.18613025359691
 20
0.1588859523351345
 30
0.0
 10
32.18727349411127
 20
0.1560664357852125
 30
0.0
 10
32.18841673462562
 20
0.1532469192352905
 30
0.0
 10
32.18963445155435
 20
0.1504422593225892
 30
0.0
 10
32.1908521684831
 20
0.1476375994098879
 30
0.0
 10
32.19214430236778
 20
0.144850645424542
 30
0.0
 10
32.19343643625247
 20
0.142063691439196
 30
0.0
 10
32.19480278619096
 20
0.1392973130115379
 30
0.0
 10
32.19616913612945
 20
0.1365309345838798
 30
0.0
 10
32.19760935717429
 20
0.1337880130957288
 30
0.0
 10
32.19904957821913
 20
0.1310450916075778
 30
0.0
 10
32.20056317939098
 20
0.1283285113192559
 30
0.0
 10
32.20207678056283
 20
0.1256119310309341
 30
0.0
 10
32.20366312351064
 20
0.1229245699746752
 30
0.0
 10
32.20524946645844
 20
0.1202372089184164
 30
0.0
 10
32.20690776479321
 20
0.1175819296125979
 30
0.0
 10
32.20856606312798
 20
0.1149266503067795
 30
0.0
 10
32.21029538245217
 20
0.1123062903486785
 30
0.0
 10
32.21202470177636
 20
0.1096859303905776
 30
0.0
 10
32.21382396042497
 20
0.1071032929880703
 30
0.0
 10
32.21562321907359
 20
0.1045206555855629
 30
0.0
 10
32.2174911895771
 20
0.1019785000902848
 30
0.0
 10
32.21935916008061
 20
0.0994363445950068
 30
0.0
 10
32.22129447135374
 20
0.096937377100928
 30
0.0
 10
32.22322978262689
 20
0.0944384096068493
 30
0.0
 10
32.22523092288068
 20
0.0919852736789432
 30
0.0
 10
32.22723206313447
 20
0.0895321377510372
 30
0.0
 10
32.22929738350255
 20
0.0871274053487193
 30
0.0
 10
32.23136270387063
 20
0.0847226729464014
 30
0.0
 10
32.23349042273396
 20
0.0823688356056525
 30
0.0
 10
32.23561814159729
 20
0.0800149982649036
 30
0.0
 10
32.23780634958518
 20
0.0777144586014825
 30
0.0
 10
32.23999455757307
 20
0.0754139189380615
 30
0.0
 10
32.24224122321197
 20
0.0731689825319519
 30
0.0
 10
32.24448788885087
 20
0.0709240461258423
 30
0.0
 10
32.24679086482612
 20
0.0687369138440997
 30
0.0
 10
32.24909384080138
 20
0.0665497815623571
 30
0.0
 10
32.2514508707919
 20
0.0644225423738571
 30
0.0
 10
32.25380790078242
 20
0.0622953031853571
 30
0.0
 10
32.25621662682229
 20
0.060229927516643
 30
0.0
 10
32.25862535286215
 20
0.0581645518479289
 30
0.0
 10
32.26108332317914
 20
0.0561628855244785
 30
0.0
 10
32.26354129349611
 20
0.0541612192010281
 30
0.0
 10
32.26604597077222
 20
0.0522249780128742
 30
0.0
 10
32.26855064804833
 20
0.0502887368247203
 30
0.0
 10
32.27109941804464
 20
0.0484195017495497
 30
0.0
 10
32.27364818804095
 20
0.0465502666743791
 30
0.0
 10
32.27623836852568
 20
0.0447494797850808
 30
0.0
 10
32.27882854901042
 20
0.0429486928957826
 30
0.0
 10
32.28145739892727
 20
0.0412176539730197
 30
0.0
 10
32.28408624884413
 20
0.0394866150502569
 30
0.0
 10
32.28675097765667
 20
0.0378264789140799
 30
0.0
 10
32.28941570646921
 20
0.0361663427779028
 30
0.0
 10
32.29211348361638
 20
0.034578117345814
 30
0.0
 10
32.29481126076356
 20
0.0329898919137253
 30
0.0
 10
32.29753922516159
 20
0.0314744369860324
 30
0.0
 10
32.30026718955961
 20
0.0299589820583395
 30
0.0
 10
32.3030224590864
 20
0.0285170088251895
 30
0.0
 10
32.30577772861319
 20
0.0270750355920396
 30
0.0
 10
32.30855740951316
 20
0.0257071068503082
 30
0.0
 10
32.31133709041314
 20
0.0243391781085768
 30
0.0
 10
32.31413828656239
 20
0.0230457091708566
 30
0.0
 10
32.31693948271164
 20
0.0217522402331364
 30
0.0
 10
32.31975930468629
 20
0.0205335005055235
 30
0.0
 10
32.32257912666095
 20
0.0193147607779106
 30
0.0
 10
32.32541470055513
 20
0.0181708759781721
 30
0.0
 10
32.32825027444931
 20
0.0170269911784336
 30
0.0
 10
32.33109875039283
 20
0.0159579461615224
 30
0.0
 10
32.33394722633634
 20
0.0148889011446113
 30
0.0
 10
32.3368057866665
 20
0.0138945432984109
 30
0.0
 10
32.33966434699665
 20
0.0129001854522104
 30
0.0
 10
32.34253021404347
 20
0.0119802286228801
 30
0.0
 10
32.34539608109029
 20
0.0110602717935497
 30
0.0
 10
32.34826652453891
 20
0.0102143006969225
 30
0.0
 10
32.35113696798752
 20
0.0093683296002954
 30
0.0
 10
32.35400931178688
 20
0.0085958046734621
 30
0.0
 10
32.35688165558623
 20
0.0078232797466289
 30
0.0
 10
32.35975328437815
 20
0.0071235423921295
 30
0.0
 10
32.36262491317006
 20
0.0064238050376302
 30
0.0
 10
32.36549327821815
 20
0.0057960832115563
 30
0.0
 10
32.36836164326623
 20
0.0051683613854823
 30
0.0
 10
32.37122426786881
 20
0.0046117754802484
 30
0.0
 10
32.37408689247139
 20
0.0040551895750145
 30
0.0
 10
32.37694137684812
 20
0.0035687585475672
 30
0.0
 10
32.37979586122486
 20
0.0030823275201198
 30
0.0
 10
32.38263988687119
 20
0.0026649752168693
 30
0.0
 10
32.38548391251752
 20
0.0022476229136188
 30
0.0
 10
32.38831524602585
 20
0.0018981845443819
 30
0.0
 10
32.39114657953417
 20
0.001548746175145
 30
0.0
 10
32.39396307588491
 20
0.0012659748898127
 30
0.0
 10
32.39677957223564
 20
0.0009832036044804
 30
0.0
 10
32.39957917756559
 20
0.0007657771279407
 30
0.0
 10
32.40237878289555
 20
0.000548350651401
 30
0.0
 10
32.40515953675428
 20
0.0003948779343937
 30
0.0
 10
32.40794029061302
 20
0.0002414052173865
 30
0.0
 10
32.41070032772179
 20
0.0001504330633967
 30
0.0
 10
32.41346036483056
 20
0.0000594609094069
 30
0.0
 10
33.38337991636082
 20
0.0000294805403653
 30
0.0
 10
34.35329946789107
 20
-0.0000004998286764
 30
0.0
 10
34.35603701942132
 20
0.0000294805403638
 30
0.0
 10
34.35877457095158
 20
0.0000594609094039
 30
0.0
 10
34.36153460806034
 20
0.0001504330633937
 30
0.0
 10
34.3642946451691
 20
0.0002414052173835
 30
0.0
 10
34.36707539902785
 20
0.0003948779343908
 30
0.0
 10
34.36985615288659
 20
0.0005483506513982
 30
0.0
 10
34.37265575821654
 20
0.0007657771279379
 30
0.0
 10
34.37545536354649
 20
0.0009832036044775
 30
0.0
 10
34.37827185989723
 20
0.0012659748898098
 30
0.0
 10
34.38108835624798
 20
0.0015487461751422
 30
0.0
 10
34.3839196897563
 20
0.0018981845443791
 30
0.0
 10
34.38675102326462
 20
0.002247622913616
 30
0.0
 10
34.38959504891095
 20
0.0026649752168665
 30
0.0
 10
34.39243907455728
 20
0.003082327520117
 30
0.0
 10
34.39529355893402
 20
0.0035687585475644
 30
0.0
 10
34.39814804331075
 20
0.0040551895750118
 30
0.0
 10
34.40101066791332
 20
0.0046117754802457
 30
0.0
 10
34.40387329251589
 20
0.0051683613854796
 30
0.0
 10
34.40674165756398
 20
0.0057960832115536
 30
0.0
 10
34.40961002261207
 20
0.0064238050376276
 30
0.0
 10
34.41248165140399
 20
0.0071235423921269
 30
0.0
 10
34.41535328019592
 20
0.0078232797466263
 30
0.0
 10
34.41822562399526
 20
0.0085958046734596
 30
0.0
 10
34.4210979677946
 20
0.0093683296002928
 30
0.0
 10
34.42396841124322
 20
0.01021430069692
 30
0.0
 10
34.42683885469185
 20
0.0110602717935472
 30
0.0
 10
34.42970472173867
 20
0.0119802286228776
 30
0.0
 10
34.4325705887855
 20
0.012900185452208
 30
0.0
 10
34.43542914911565
 20
0.0138945432984084
 30
0.0
 10
34.4382877094458
 20
0.0148889011446089
 30
0.0
 10
34.44113618538931
 20
0.0159579461615201
 30
0.0
 10
34.44398466133281
 20
0.0170269911784313
 30
0.0
 10
34.446820235227
 20
0.0181708759781698
 30
0.0
 10
34.44965580912119
 20
0.0193147607779083
 30
0.0
 10
34.45247563109585
 20
0.0205335005055212
 30
0.0
 10
34.4552954530705
 20
0.0217522402331342
 30
0.0
 10
34.45809664921975
 20
0.0230457091708544
 30
0.0
 10
34.460897845369
 20
0.0243391781085746
 30
0.0
 10
34.46367752626898
 20
0.025707106850306
 30
0.0
 10
34.46645720716895
 20
0.0270750355920375
 30
0.0
 10
34.46921247669573
 20
0.0285170088251874
 30
0.0
 10
34.47196774622251
 20
0.0299589820583374
 30
0.0
 10
34.47469571062053
 20
0.0314744369860304
 30
0.0
 10
34.47742367501855
 20
0.0329898919137234
 30
0.0
 10
34.48012145216573
 20
0.0345781173458121
 30
0.0
 10
34.48281922931292
 20
0.0361663427779008
 30
0.0
 10
34.48548395812547
 20
0.0378264789140779
 30
0.0
 10
34.48814868693801
 20
0.0394866150502551
 30
0.0
 10
34.49077753685487
 20
0.041217653973018
 30
0.0
 10
34.49340638677172
 20
0.0429486928957808
 30
0.0
 10
34.49599656725646
 20
0.0447494797850791
 30
0.0
 10
34.49858674774119
 20
0.0465502666743774
 30
0.0
 10
34.5011355177375
 20
0.0484195017495481
 30
0.0
 10
34.50368428773381
 20
0.0502887368247187
 30
0.0
 10
34.50618896500992
 20
0.0522249780128726
 30
0.0
 10
34.50869364228603
 20
0.0541612192010265
 30
0.0
 10
34.511151612603
 20
0.0561628855244769
 30
0.0
 10
34.51360958291998
 20
0.0581645518479274
 30
0.0
 10
34.51601830895985
 20
0.0602299275166416
 30
0.0
 10
34.51842703499973
 20
0.0622953031853557
 30
0.0
 10
34.52078406499024
 20
0.0644225423738557
 30
0.0
 10
34.52314109498075
 20
0.0665497815623557
 30
0.0
 10
34.52544407095601
 20
0.0687369138440984
 30
0.0
 10
34.52774704693128
 20
0.070924046125841
 30
0.0
 10
34.52999371257016
 20
0.0731689825319506
 30
0.0
 10
34.53224037820905
 20
0.0754139189380603
 30
0.0
 10
34.53442858619695
 20
0.0777144586014814
 30
0.0
 10
34.53661679418485
 20
0.0800149982649025
 30
0.0
 10
34.53874451304817
 20
0.0823688356056514
 30
0.0
 10
34.5408722319115
 20
0.0847226729464003
 30
0.0
 10
34.54293755227959
 20
0.0871274053487183
 30
0.0
 10
34.54500287264768
 20
0.0895321377510363
 30
0.0
 10
34.54700401290147
 20
0.0919852736789424
 30
0.0
 10
34.54900515315526
 20
0.0944384096068484
 30
0.0
 10
34.55094046442839
 20
0.0969373771009272
 30
0.0
 10
34.55287577570152
 20
0.099436344595006
 30
0.0
 10
34.55474374620504
 20
0.1019785000902841
 30
0.0
 10
34.55661171670855
 20
0.1045206555855621
 30
0.0
 10
34.55841097535717
 20
0.1071032929880695
 30
0.0
 10
34.56021023400579
 20
0.1096859303905769
 30
0.0
 10
34.56193955332998
 20
0.112306290348678
 30
0.0
 10
34.56366887265417
 20
0.114926650306779
 30
0.0
 10
34.56532717098893
 20
0.1175819296125974
 30
0.0
 10
34.56698546932369
 20
0.1202372089184159
 30
0.0
 10
34.56857181227149
 20
0.1229245699746748
 30
0.0
 10
34.5701581552193
 20
0.1256119310309337
 30
0.0
 10
34.57167175639116
 20
0.1283285113192556
 30
0.0
 10
34.57318535756301
 20
0.1310450916075775
 30
0.0
 10
34.57462557860786
 20
0.1337880130957285
 30
0.0
 10
34.5760657996527
 20
0.1365309345838795
 30
0.0
 10
34.57743214959118
 20
0.1392973130115376
 30
0.0
 10
34.57879849952966
 20
0.1420636914391958
 30
0.0
 10
34.58009063341435
 20
0.1448506454245418
 30
0.0
 10
34.58138276729904
 20
0.1476375994098879
 30
0.0
 10
34.58260048422778
 20
0.1504422593225892
 30
0.0
 10
34.58381820115653
 20
0.1532469192352905
 30
0.0
 10
34.58496144167087
 20
0.1560664357852126
 30
0.0
 10
34.58610468218522
 20
0.1588859523351346
 30
0.0
 10
34.58717352508976
 20
0.1617175048302961
 30
0.0
 10
34.58824236799431
 20
0.1645490573254576
 30
0.0
 10
34.58923702663644
 20
0.1673898615572751
 30
0.0
 10
34.59023168527858
 20
0.1702306657890927
 30
0.0
 10
34.59115250333136
 20
0.1730779815077504
 30
0.0
 10
34.59207332138414
 20
0.1759252972264082
 30
0.0
 10
34.5929207681772
 20
0.1787764351741742
 30
0.0
 10
34.59376821497025
 20
0.1816275731219403
 30
0.0
 10
34.59454288041564
 20
0.1844799015973418
 30
0.0
 10
34.59531754586103
 20
0.1873322300727433
 30
0.0
 10
34.59602013502234
 20
0.1901831810036473
 30
0.0
 10
34.59672272418364
 20
0.1930341319345514
 30
0.0
 10
34.5973540515368
 20
0.1958812064432955
 30
0.0
 10
34.59798537888995
 20
0.1987282809520396
 30
0.0
 10
34.59854636232512
 20
0.2015690544007581
 30
0.0
 10
34.5991073457603
 20
0.2044098278494765
 30
0.0
 10
34.59959900037308
 20
0.2072419543586135
 30
0.0
 10
34.60009065498587
 20
0.2100740808677506
 30
0.0
 10
34.60051408670559
 20
0.2128952973053821
 30
0.0
 10
34.60093751842531
 20
0.2157165137430137
 30
0.0
 10
34.6012939175267
 20
0.2185246431869795
 30
0.0
 10
34.60165031662809
 20
0.2213327726309452
 30
0.0
 10
34.6019409511712
 20
0.2241257273098732
 30
0.0
 10
34.60223158571432
 20
0.2269186819888013
 30
0.0
 10
34.60245779495495
 20
0.2296944657118641
 30
0.0
 10
34.60268400419559
 20
0.2324702494349268
 30
0.0
 10
34.60284719200671
 20
0.235226959523575
 30
0.0
 10
34.60301037981784
 20
0.2379836696122232
 30
0.0
 10
34.61956392385445
 20
0.8689915005577171
 30
0.0
 10
34.63611746789106
 20
1.499999331503211
 30
0.0
  0
SPLINE
  5
45
330
1F
100
AcDbEntity
  8
DEFAULT
100
AcDbSpline
210
0.0
220
0.0
230
1.0
 70
     8
 71
     2
 72
   260
 73
   257
 74
     0
 42
0.0000000001
 43
0.0000000001
 40
0.0
 40
0.0
 40
0.0
 40
1.0
 40
1.0
 40
2.0
 40
2.0
 40
3.0
 40
3.0
 40
4.0
 40
4.0
 40
5.0
 40
5.0
 40
6.0
 40
6.0
 40
7.0
 40
7.0
 40
8.0
 40
8.0
 40
9.0
 40
9.0
 40
10.0
 40
10.0
 40
11.0
 40
11.0
 40
12.0
 40
12.0
 40
13.0
 40
13.0
 40
14.0
 40
14.0
 40
15.0
 40
15.0
 40
16.0
 40
16.0
 40
17.0
 40
17.0
 40
18.0
 40
18.0
 40
19.0
 40
19.0
 40
20.0
 40
20.0
 40
21.0
 40
21.0
 40
22.0
 40
22.0
 40
23.0
 40
23.0
 40
24.0
 40
24.0
 40
25.0
 40
25.0
 40
26.0
 40
26.0
 40
27.0
 40
27.0
 40
28.0
 40
28.0
 40
29.0
 40
29.0
 40
30.0
 40
30.0
 40
31.0
 40
31.0
 40
32.0
 40
32.0
 40
33.0
 40
33.0
 40
34.0
 40
34.0
 40
35.0
 40
35.0
 40
36.0
 40
36.0
 40
37.0
 40
37.0
 40
38.0
 40
38.0
 40
39.0
 40
39.0
 40
40.0
 40
40.0
 40
41.0
 40
41.0
 40
42.0
 40
42.0
 40
43.0
 40
43.0
 40
44.0
 40
44.0
 40
45.0
 40
45.0
 40
46.0
 40
46.0
 40
47.0
 40
47.0
 40
48.0
 40
48.0
 40
49.0
 40
49.0
 40
50.0
 40
50.0
 40
51.0
 40
51.0
 40
52.0
 40
52.0
 40
53.0
 40
53.0
 40
54.0
 40
54.0
 40
55.0
 40
55.0
 40
56.0
 40
56.0
 40
57.0
 40
57.0
 40
58.0
 40
58.0
 40
59.0
 40
59.0
 40
60.0
 40
60.0
 40
61.0
 40
61.0
 40
62.0
 40
62.0
 40
63.0
 40
63.0
 40
64.0
 40
64.0
 40
65.0
 40
65.0
 40
66.0
 40
66.0
 40
67.0
 40
67.0
 40
68.0
 40
68.0
 40
69.0
 40
69.0
 40
70.0
 40
70.0
 40
71.0
 40
71.0
 40
72.0
 40
72.0
 40
73.0
 40
73.0
 40
74.0
 40
74.0
 40
75.0
 40
75.0
 40
76.0
 40
76.0
 40
77.0
 40
77.0
 40
78.0
 40
78.0
 40
79.0
 40
79.0
 40
80.0
 40
80.0
 40
81.0
 40
81.0
 40
82.0
 40
82.0
 40
83.0
 40
83.0
 40
84.0
 40
84.0
 40
85.0
 40
85.0
 40
86.0
 40
86.0
 40
87.0
 40
87.0
 40
88.0
 40
88.0
 40
89.0
 40
89.0
 40
90.0
 40
90.0
 40
91.0
 40
91.0
 40
92.0
 40
92.0
 40
93.0
 40
93.0
 40
94.0
 40
94.0
 40
95.0
 40
95.0
 40
96.0
 40
96.0
 40
97.0
 40
97.0
 40
98.0
 40
98.0
 40
99.0
 40
99.0
 40
100.0
 40
100.0
 40
101.0
 40
101.0
 40
102.0
 40
102.0
 40
103.0
 40
103.0
 40
104.0
 40
104.0
 40
105.0
 40
105.0
 40
106.0
 40
106.0
 40
107.0
 40
107.0
 40
108.0
 40
108.0
 40
109.0
 40
109.0
 40
110.0
 40
110.0
 40
111.0
 40
111.0
 40
112.0
 40
112.0
 40
113.0
 40
113.0
 40
114.0
 40
114.0
 40
115.0
 40
115.0
 40
116.0
 40
116.0
 40
117.0
 40
117.0
 40
118.0
 40
118.0
 40
119.0
 40
119.0
 40
120.0
 40
120.0
 40
121.0
 40
121.0
 40
122.0
 40
122.0
 40
123.0
 40
123.0
 40
124.0
 40
124.0
 40
125.0
 40
125.0
 40
126.0
 40
126.0
 40
127.0
 40
127.0
 40
128.0
 40
128.0
 40
128.0
 10
12.0451754994949
 20
1.499999831331887
 30
0.0
 10
12.06172904353151
 20
0.8689920003863926
 30
0.0
 10
12.07828258756812
 20
0.2379841694408982
 30
0.0
 10
12.07844577537924
 20
0.23522745935225
 30
0.0
 10
12.07860896319037
 20
0.2324707492636017
 30
0.0
 10
12.078835172431
 20
0.2296949655405389
 30
0.0
 10
12.07906138167163
 20
0.2269191818174762
 30
0.0
 10
12.07935201621474
 20
0.2241262271385482
 30
0.0
 10
12.07964265075786
 20
0.2213332724596202
 30
0.0
 10
12.07999904985925
 20
0.2185251430156545
 30
0.0
 10
12.08035544896065
 20
0.2157170135716887
 30
0.0
 10
12.08077888068036
 20
0.2128957971340572
 30
0.0
 10
12.08120231240007
 20
0.2100745806964256
 30
0.0
 10
12.08169396701285
 20
0.2072424541872885
 30
0.0
 10
12.08218562162564
 20
0.2044103276781515
 30
0.0
 10
12.08274660506082
 20
0.201569554229433
 30
0.0
 10
12.083307588496
 20
0.1987287807807145
 30
0.0
 10
12.08393891584916
 20
0.1958817062719704
 30
0.0
 10
12.08457024320232
 20
0.1930346317632263
 30
0.0
 10
12.08527283236362
 20
0.1901836808323222
 30
0.0
 10
12.08597542152492
 20
0.1873327299014182
 30
0.0
 10
12.08675008697031
 20
0.1844804014260166
 30
0.0
 10
12.08752475241571
 20
0.1816280729506151
 30
0.0
 10
12.08837219920876
 20
0.1787769350028491
 30
0.0
 10
12.08921964600181
 20
0.1759257970550831
 30
0.0
 10
12.09014046405459
 20
0.1730784813364253
 30
0.0
 10
12.09106128210737
 20
0.1702311656177676
 30
0.0
 10
12.09205594074951
 20
0.16739036138595
 30
0.0
 10
12.09305059939165
 20
0.1645495571541325
 30
0.0
 10
12.09411944229619
 20
0.161718004658971
 30
0.0
 10
12.09518828520073
 20
0.1588864521638094
 30
0.0
 10
12.09633152571508
 20
0.1560669356138874
 30
0.0
 10
12.09747476622943
 20
0.1532474190639654
 30
0.0
 10
12.09869248315817
 20
0.150442759151264
 30
0.0
 10
12.09991020008691
 20
0.1476380992385627
 30
0.0
 10
12.1012023339716
 20
0.1448511452532167
 30
0.0
 10
12.10249446785629
 20
0.1420641912678708
 30
0.0
 10
12.10386081779477
 20
0.1392978128402126
 30
0.0
 10
12.10522716773326
 20
0.1365314344125545
 30
0.0
 10
12.1066673887781
 20
0.1337885129244035
 30
0.0
 10
12.10810760982294
 20
0.1310455914362524
 30
0.0
 10
12.10962121099479
 20
0.1283290111479305
 30
0.0
 10
12.11113481216665
 20
0.1256124308596086
 30
0.0
 10
12.11272115511445
 20
0.1229250698033497
 30
0.0
 10
12.11430749806226
 20
0.1202377087470908
 30
0.0
 10
12.11596579639702
 20
0.1175824294412724
 30
0.0
 10
12.11762409473179
 20
0.1149271501354539
 30
0.0
 10
12.11935341405598
 20
0.1123067901773529
 30
0.0
 10
12.12108273338017
 20
0.1096864302192519
 30
0.0
 10
12.12288199202879
 20
0.1071037928167445
 30
0.0
 10
12.12468125067741
 20
0.1045211554142371
 30
0.0
 10
12.12654922118092
 20
0.101978999918959
 30
0.0
 10
12.12841719168444
 20
0.099436844423681
 30
0.0
 10
12.13035250295757
 20
0.0969378769296022
 30
0.0
 10
12.1322878142307
 20
0.0944389094355234
 30
0.0
 10
12.13428895448449
 20
0.0919857735076173
 30
0.0
 10
12.13629009473828
 20
0.0895326375797112
 30
0.0
 10
12.13835541510636
 20
0.0871279051773932
 30
0.0
 10
12.14042073547445
 20
0.0847231727750753
 30
0.0
 10
12.14254845433778
 20
0.0823693354343263
 30
0.0
 10
12.14467617320111
 20
0.0800154980935774
 30
0.0
 10
12.14686438118901
 20
0.0777149584301563
 30
0.0
 10
12.14905258917691
 20
0.0754144187667352
 30
0.0
 10
12.1512992548158
 20
0.0731694823606256
 30
0.0
 10
12.15354592045469
 20
0.070924545954516
 30
0.0
 10
12.15584889642995
 20
0.0687374136727733
 30
0.0
 10
12.15815187240521
 20
0.0665502813910307
 30
0.0
 10
12.16050890239572
 20
0.0644230422025307
 30
0.0
 10
12.16286593238624
 20
0.0622958030140307
 30
0.0
 10
12.16527465842611
 20
0.0602304273453166
 30
0.0
 10
12.16768338446598
 20
0.0581650516766025
 30
0.0
 10
12.17014135478295
 20
0.056163385353152
 30
0.0
 10
12.17259932509993
 20
0.0541617190297015
 30
0.0
 10
12.17510400237603
 20
0.0522254778415476
 30
0.0
 10
12.17760867965214
 20
0.0502892366533937
 30
0.0
 10
12.18015744964845
 20
0.0484200015782231
 30
0.0
 10
12.18270621964477
 20
0.0465507665030524
 30
0.0
 10
12.1852964001295
 20
0.0447499796137542
 30
0.0
 10
12.18788658061424
 20
0.0429491927244559
 30
0.0
 10
12.19051543053109
 20
0.0412181538016931
 30
0.0
 10
12.19314428044795
 20
0.0394871148789302
 30
0.0
 10
12.19580900926049
 20
0.0378269787427531
 30
0.0
 10
12.19847373807303
 20
0.036166842606576
 30
0.0
 10
12.20117151522021
 20
0.0345786171744873
 30
0.0
 10
12.20386929236739
 20
0.0329903917423985
 30
0.0
 10
12.20659725676541
 20
0.0314749368147055
 30
0.0
 10
12.20932522116344
 20
0.0299594818870126
 30
0.0
 10
12.21208049069022
 20
0.0285175086538626
 30
0.0
 10
12.21483576021701
 20
0.0270755354207127
 30
0.0
 10
12.21761544111699
 20
0.0257076066789812
 30
0.0
 10
12.22039512201697
 20
0.0243396779372498
 30
0.0
 10
12.22319631816621
 20
0.0230462089995296
 30
0.0
 10
12.22599751431546
 20
0.0217527400618094
 30
0.0
 10
12.22881733629011
 20
0.0205340003341965
 30
0.0
 10
12.23163715826477
 20
0.0193152606065836
 30
0.0
 10
12.23447273215895
 20
0.0181713758068451
 30
0.0
 10
12.23730830605314
 20
0.0170274910071066
 30
0.0
 10
12.24015678199665
 20
0.0159584459901954
 30
0.0
 10
12.24300525794016
 20
0.0148894009732842
 30
0.0
 10
12.24586381827031
 20
0.0138950431270837
 30
0.0
 10
12.24872237860047
 20
0.0129006852808833
 30
0.0
 10
12.25158824564729
 20
0.0119807284515529
 30
0.0
 10
12.25445411269412
 20
0.0110607716222225
 30
0.0
 10
12.25732455614273
 20
0.0102148005255953
 30
0.0
 10
12.26019499959135
 20
0.0093688294289682
 30
0.0
 10
12.2630673433907
 20
0.0085963045021349
 30
0.0
 10
12.26593968719005
 20
0.0078237795753016
 30
0.0
 10
12.26881131598197
 20
0.0071240422208023
 30
0.0
 10
12.2716829447739
 20
0.006424304866303
 30
0.0
 10
12.27455130982198
 20
0.005796583040229
 30
0.0
 10
12.27741967487006
 20
0.005168861214155
 30
0.0
 10
12.28028229947264
 20
0.0046122753089211
 30
0.0
 10
12.28314492407522
 20
0.0040556894036873
 30
0.0
 10
12.28599940845195
 20
0.0035692583762399
 30
0.0
 10
12.28885389282869
 20
0.0030828273487925
 30
0.0
 10
12.29169791847502
 20
0.002665475045542
 30
0.0
 10
12.29454194412136
 20
0.0022481227422915
 30
0.0
 10
12.29737327762967
 20
0.0018986843730546
 30
0.0
 10
12.30020461113799
 20
0.0015492460038177
 30
0.0
 10
12.30302110748873
 20
0.0012664747184854
 30
0.0
 10
12.30583760383947
 20
0.0009837034331531
 30
0.0
 10
12.30863720916942
 20
0.0007662769566134
 30
0.0
 10
12.31143681449937
 20
0.0005488504800737
 30
0.0
 10
12.31421756835811
 20
0.0003953777630664
 30
0.0
 10
12.31699832221686
 20
0.0002419050460591
 30
0.0
 10
12.31975835932562
 20
0.0001509328920693
 30
0.0
 10
12.32251839643439
 20
0.0000599607380795
 30
0.0
 10
13.29243794796463
 20
0.0000299803690396
 30
0.0
 10
14.26235749949487
 20
-0.0000000000000002
 30
0.0
 10
14.26509505102512
 20
0.00002998036904
 30
0.0
 10
14.26783260255538
 20
0.0000599607380801
 30
0.0
 10
14.27059263966414
 20
0.0001509328920699
 30
0.0
 10
14.2733526767729
 20
0.0002419050460596
 30
0.0
 10
14.27613343063164
 20
0.0003953777630668
 30
0.0
 10
14.27891418449039
 20
0.0005488504800741
 30
0.0
 10
14.28171378982034
 20
0.0007662769566137
 30
0.0
 10
14.28451339515029
 20
0.0009837034331534
 30
0.0
 10
14.28732989150103
 20
0.0012664747184857
 30
0.0
 10
14.29014638785177
 20
0.001549246003818
 30
0.0
 10
14.29297772136009
 20
0.0018986843730549
 30
0.0
 10
14.29580905486841
 20
0.0022481227422918
 30
0.0
 10
14.29865308051474
 20
0.0026654750455423
 30
0.0
 10
14.30149710616107
 20
0.0030828273487927
 30
0.0
 10
14.3043515905378
 20
0.0035692583762401
 30
0.0
 10
14.30720607491454
 20
0.0040556894036874
 30
0.0
 10
14.31006869951712
 20
0.0046122753089213
 30
0.0
 10
14.3129313241197
 20
0.0051688612141551
 30
0.0
 10
14.31579968916778
 20
0.0057965830402291
 30
0.0
 10
14.31866805421587
 20
0.006424304866303
 30
0.0
 10
14.32153968300779
 20
0.0071240422208023
 30
0.0
 10
14.32441131179971
 20
0.0078237795753016
 30
0.0
 10
14.32728365559906
 20
0.0085963045021349
 30
0.0
 10
14.33015599939841
 20
0.0093688294289681
 30
0.0
 10
14.33302644284703
 20
0.0102148005255953
 30
0.0
 10
14.33589688629565
 20
0.0110607716222224
 30
0.0
 10
14.33876275334247
 20
0.0119807284515527
 30
0.0
 10
14.34162862038929
 20
0.012900685280883
 30
0.0
 10
14.34448718071944
 20
0.0138950431270835
 30
0.0
 10
14.3473457410496
 20
0.0148894009732839
 30
0.0
 10
14.35019421699311
 20
0.015958445990195
 30
0.0
 10
14.35304269293662
 20
0.0170274910071062
 30
0.0
 10
14.3558782668308
 20
0.0181713758068447
 30
0.0
 10
14.35871384072499
 20
0.0193152606065832
 30
0.0
 10
14.36153366269964
 20
0.020534000334196
 30
0.0
 10
14.3643534846743
 20
0.0217527400618089
 30
0.0
 10
14.36715468082355
 20
0.0230462089995291
 30
0.0
 10
14.3699558769728
 20
0.0243396779372493
 30
0.0
 10
14.37273555787277
 20
0.0257076066789807
 30
0.0
 10
14.37551523877275
 20
0.0270755354207121
 30
0.0
 10
14.37827050829953
 20
0.028517508653862
 30
0.0
 10
14.38102577782632
 20
0.0299594818870119
 30
0.0
 10
14.38375374222434
 20
0.0314749368147048
 30
0.0
 10
14.38648170662237
 20
0.0329903917423978
 30
0.0
 10
14.38917948376954
 20
0.0345786171744865
 30
0.0
 10
14.39187726091672
 20
0.0361668426065752
 30
0.0
 10
14.39454198972926
 20
0.0378269787427522
 30
0.0
 10
14.39720671854181
 20
0.0394871148789293
 30
0.0
 10
14.39983556845866
 20
0.0412181538016922
 30
0.0
 10
14.40246441837552
 20
0.042949192724455
 30
0.0
 10
14.40505459886025
 20
0.0447499796137533
 30
0.0
 10
14.40764477934499
 20
0.0465507665030515
 30
0.0
 10
14.4101935493413
 20
0.0484200015782221
 30
0.0
 10
14.41274231933762
 20
0.0502892366533927
 30
0.0
 10
14.41524699661372
 20
0.0522254778415466
 30
0.0
 10
14.41775167388983
 20
0.0541617190297005
 30
0.0
 10
14.4202096442068
 20
0.0561633853531509
 30
0.0
 10
14.42266761452378
 20
0.0581650516766014
 30
0.0
 10
14.42507634056365
 20
0.0602304273453154
 30
0.0
 10
14.42748506660352
 20
0.0622958030140295
 30
0.0
 10
14.42984209659403
 20
0.0644230422025295
 30
0.0
 10
14.43219912658455
 20
0.0665502813910295
 30
0.0
 10
14.43450210255981
 20
0.0687374136727721
 30
0.0
 10
14.43680507853507
 20
0.0709245459545147
 30
0.0
 10
14.43905174417396
 20
0.0731694823606243
 30
0.0
 10
14.44129840981285
 20
0.0754144187667339
 30
0.0
 10
14.44348661780075
 20
0.0777149584301549
 30
0.0
 10
14.44567482578865
 20
0.080015498093576
 30
0.0
 10
14.44780254465198
 20
0.082369335434325
 30
0.0
 10
14.44993026351531
 20
0.0847231727750739
 30
0.0
 10
14.45199558388339
 20
0.0871279051773918
 30
0.0
 10
14.45406090425148
 20
0.0895326375797097
 30
0.0
 10
14.45606204450527
 20
0.0919857735076157
 30
0.0
 10
14.45806318475906
 20
0.0944389094355218
 30
0.0
 10
14.45999849603219
 20
0.0969378769296006
 30
0.0
 10
14.46193380730532
 20
0.0994368444236794
 30
0.0
 10
14.46380177780883
 20
0.1019789999189575
 30
0.0
 10
14.46566974831235
 20
0.1045211554142355
 30
0.0
 10
14.46746900696096
 20
0.1071037928167428
 30
0.0
 10
14.46926826560958
 20
0.1096864302192502
 30
0.0
 10
14.47099758493377
 20
0.1123067901773512
 30
0.0
 10
14.47272690425796
 20
0.1149271501354521
 30
0.0
 10
14.47438520259272
 20
0.1175824294412706
 30
0.0
 10
14.47604350092749
 20
0.1202377087470891
 30
0.0
 10
14.47762984387529
 20
0.1229250698033479
 30
0.0
 10
14.4792161868231
 20
0.1256124308596068
 30
0.0
 10
14.48072978799496
 20
0.1283290111479287
 30
0.0
 10
14.48224338916682
 20
0.1310455914362506
 30
0.0
 10
14.48368361021165
 20
0.1337885129244016
 30
0.0
 10
14.48512383125649
 20
0.1365314344125526
 30
0.0
 10
14.48649018119498
 20
0.1392978128402107
 30
0.0
 10
14.48785653113347
 20
0.1420641912678688
 30
0.0
 10
14.48914866501816
 20
0.1448511452532148
 30
0.0
 10
14.49044079890285
 20
0.1476380992385608
 30
0.0
 10
14.49165851583159
 20
0.1504427591512621
 30
0.0
 10
14.49287623276033
 20
0.1532474190639634
 30
0.0
 10
14.49401947327468
 20
0.1560669356138855
 30
0.0
 10
14.49516271378903
 20
0.1588864521638075
 30
0.0
 10
14.49623155669357
 20
0.161718004658969
 30
0.0
 10
14.49730039959811
 20
0.1645495571541305
 30
0.0
 10
14.49829505824024
 20
0.167390361385948
 30
0.0
 10
14.49928971688238
 20
0.1702311656177656
 30
0.0
 10
14.50021053493516
 20
0.1730784813364233
 30
0.0
 10
14.50113135298794
 20
0.175925797055081
 30
0.0
 10
14.50197879978099
 20
0.178776935002847
 30
0.0
 10
14.50282624657404
 20
0.1816280729506131
 30
0.0
 10
14.50360091201944
 20
0.1844804014260146
 30
0.0
 10
14.50437557746484
 20
0.1873327299014161
 30
0.0
 10
14.50507816662614
 20
0.1901836808323202
 30
0.0
 10
14.50578075578744
 20
0.1930346317632242
 30
0.0
 10
14.50641208314059
 20
0.1958817062719682
 30
0.0
 10
14.50704341049375
 20
0.1987287807807123
 30
0.0
 10
14.50760439392893
 20
0.2015695542294308
 30
0.0
 10
14.50816537736411
 20
0.2044103276781493
 30
0.0
 10
14.5086570319769
 20
0.2072424541872863
 30
0.0
 10
14.50914868658969
 20
0.2100745806964233
 30
0.0
 10
14.50957211830939
 20
0.2128957971340548
 30
0.0
 10
14.5099955500291
 20
0.2157170135716864
 30
0.0
 10
14.51035194913049
 20
0.2185251430156522
 30
0.0
 10
14.51070834823189
 20
0.2213332724596179
 30
0.0
 10
14.510998982775
 20
0.2241262271385459
 30
0.0
 10
14.51128961731811
 20
0.2269191818174739
 30
0.0
 10
14.51151582655874
 20
0.2296949655405367
 30
0.0
 10
14.51174203579938
 20
0.2324707492635995
 30
0.0
 10
14.5119052236105
 20
0.2352274593522477
 30
0.0
 10
14.51206841142163
 20
0.2379841694408959
 30
0.0
 10
14.52862195545826
 20
0.8689920003863915
 30
0.0
 10
14.5451754994949
 20
1.499999831331887
 30
0.0
  0
SPLINE
  5
46
330
1F
100
AcDbEntity
  8
DEFAULT
100
AcDbSpline
210
0.0
220
0.0
230
1.0
 70
     8
 71
     2
 72
   386
 73
   383
 74
     0
 42
0.0000000001
 43
0.0000000001
 40
0.0
 40
0.0
 40
0.0
 40
1.0
 40
1.0
 40
2.0
 40
2.0
 40
3.0
 40
3.0
 40
4.0
 40
4.0
 40
5.0
 40
5.0
 40
6.0
 40
6.0
 40
7.0
 40
7.0
 40
8.0
 40
8.0
 40
9.0
 40
9.0
 40
10.0
 40
10.0
 40
11.0
 40
11.0
 40
12.0
 40
12.0
 40
13.0
 40
13.0
 40
14.0
 40
14.0
 40
15.0
 40
15.0
 40
16.0
 40
16.0
 40
17.0
 40
17.0
 40
18.0
 40
18.0
 40
19.0
 40
19.0
 40
20.0
 40
20.0
 40
21.0
 40
21.0
 40
22.0
 40
22.0
 40
23.0
 40
23.0
 40
24.0
 40
24.0
 40
25.0
 40
25.0
 40
26.0
 40
26.0
 40
27.0
 40
27.0
 40
28.0
 40
28.0
 40
29.0
 40
29.0
 40
30.0
 40
30.0
 40
31.0
 40
31.0
 40
32.0
 40
32.0
 40
33.0
 40
33.0
 40
34.0
 40
34.0
 40
35.0
 40
35.0
 40
36.0
 40
36.0
 40
37.0
 40
37.0
 40
38.0
 40
38.0
 40
39.0
 40
39.0
 40
40.0
 40
40.0
 40
41.0
 40
41.0
 40
42.0
 40
42.0
 40
43.0
 40
43.0
 40
44.0
 40
44.0
 40
45.0
 40
45.0
 40
46.0
 40
46.0
 40
47.0
 40
47.0
 40
48.0
 40
48.0
 40
49.0
 40
49.0
 40
50.0
 40
50.0
 40
51.0
 40
51.0
 40
52.0
 40
52.0
 40
53.0
 40
53.0
 40
54.0
 40
54.0
 40
55.0
 40
55.0
 40
56.0
 40
56.0
 40
57.0
 40
57.0
 40
58.0
 40
58.0
 40
59.0
 40
59.0
 40
60.0
 40
60.0
 40
61.0
 40
61.0
 40
62.0
 40
62.0
 40
63.0
 40
63.0
 40
64.0
 40
64.0
 40
65.0
 40
65.0
 40
66.0
 40
66.0
 40
67.0
 40
67.0
 40
68.0
 40
68.0
 40
69.0
 40
69.0
 40
70.0
 40
70.0
 40
71.0
 40
71.0
 40
72.0
 40
72.0
 40
73.0
 40
73.0
 40
74.0
 40
74.0
 40
75.0
 40
75.0
 40
76.0
 40
76.0
 40
77.0
 40
77.0
 40
78.0
 40
78.0
 40
79.0
 40
79.0
 40
80.0
 40
80.0
 40
81.0
 40
81.0
 40
82.0
 40
82.0
 40
83.0
 40
83.0
 40
84.0
 40
84.0
 40
85.0
 40
85.0
 40
86.0
 40
86.0
 40
87.0
 40
87.0
 40
88.0
 40
88.0
 40
89.0
 40
89.0
 40
90.0
 40
90.0
 40
91.0
 40
91.0
 40
92.0
 40
92.0
 40
93.0
 40
93.0
 40
94.0
 40
94.0
 40
95.0
 40
95.0
 40
96.0
 40
96.0
 40
97.0
 40
97.0
 40
98.0
 40
98.0
 40
99.0
 40
99.0
 40
100.0
 40
100.0
 40
101.0
 40
101.0
 40
102.0
 40
102.0
 40
103.0
 40
103.0
 40
104.0
 40
104.0
 40
105.0
 40
105.0
 40
106.0
 40
106.0
 40
107.0
 40
107.0
 40
108.0
 40
108.0
 40
109.0
 40
109.0
 40
110.0
 40
110.0
 40
111.0
 40
111.0
 40
112.0
 40
112.0
 40
113.0
 40
113.0
 40
114.0
 40
114.0
 40
115.0
 40
115.0
 40
116.0
 40
116.0
 40
117.0
 40
117.0
 40
118.0
 40
118.0
 40
119.0
 40
119.0
 40
120.0
 40
120.0
 40
121.0
 40
121.0
 40
122.0
 40
122.0
 40
123.0
 40
123.0
 40
124.0
 40
124.0
 40
125.0
 40
125.0
 40
126.0
 40
126.0
 40
127.0
 40
127.0
 40
128.0
 40
128.0
 40
129.0
 40
129.0
 40
130.0
 40
130.0
 40
131.0
 40
131.0
 40
132.0
 40
132.0
 40
133.0
 40
133.0
 40
134.0
 40
134.0
 40
135.0
 40
135.0
 40
136.0
 40
136.0
 40
137.0
 40
137.0
 40
138.0
 40
138.0
 40
139.0
 40
139.0
 40
140.0
 40
140.0
 40
141.0
 40
141.0
 40
142.0
 40
142.0
 40
143.0
 40
143.0
 40
144.0
 40
144.0
 40
145.0
 40
145.0
 40
146.0
 40
146.0
 40
147.0
 40
147.0
 40
148.0
 40
148.0
 40
149.0
 40
149.0
 40
150.0
 40
150.0
 40
151.0
 40
151.0
 40
152.0
 40
152.0
 40
153.0
 40
153.0
 40
154.0
 40
154.0
 40
155.0
 40
155.0
 40
156.0
 40
156.0
 40
157.0
 40
157.0
 40
158.0
 40
158.0
 40
159.0
 40
159.0
 40
160.0
 40
160.0
 40
161.0
 40
161.0
 40
162.0
 40
162.0
 40
163.0
 40
163.0
 40
164.0
 40
164.0
 40
165.0
 40
165.0
 40
166.0
 40
166.0
 40
167.0
 40
167.0
 40
168.0
 40
168.0
 40
169.0
 40
169.0
 40
170.0
 40
170.0
 40
171.0
 40
171.0
 40
172.0
 40
172.0
 40
173.0
 40
173.0
 40
174.0
 40
174.0
 40
175.0
 40
175.0
 40
176.0
 40
176.0
 40
177.0
 40
177.0
 40
178.0
 40
178.0
 40
179.0
 40
179.0
 40
180.0
 40
180.0
 40
181.0
 40
181.0
 40
182.0
 40
182.0
 40
183.0
 40
183.0
 40
184.0
 40
184.0
 40
185.0
 40
185.0
 40
186.0
 40
186.0
 40
187.0
 40
187.0
 40
188.0
 40
188.0
 40
189.0
 40
189.0
 40
190.0
 40
190.0
 40
191.0
 40
191.0
 40
191.0
 10
14.53970550050188
 20
1.290077783707146
 30
0.0
 10
14.54326749509967
 20
1.290189596334407
 30
0.0
 10
14.54682948969746
 20
1.290301408961668
 30
0.0
 10
14.55039996849281
 20
1.290486851501969
 30
0.0
 10
14.55397044728817
 20
1.290672294042269
 30
0.0
 10
14.55754716700485
 20
1.290931940541353
 30
0.0
 10
14.56112388672154
 20
1.291191587040437
 30
0.0
 10
14.56470456861725
 20
1.291525921703409
 30
0.0
 10
14.56828525051297
 20
1.291860256366382
 30
0.0
 10
14.57186758482586
 20
1.29226967117974
 30
0.0
 10
14.57544991913876
 20
1.292679085993099
 30
0.0
 10
14.57903156971143
 20
1.293163878608524
 30
0.0
 10
14.58261322028411
 20
1.293648671223949
 30
0.0
 10
14.58619182934723
 20
1.294209043118609
 30
0.0
 10
14.58977043841036
 20
1.294769415013268
 30
0.0
 10
14.59334363150668
 20
1.295405469939992
 30
0.0
 10
14.596916824603
 20
1.296041524866716
 30
0.0
 10
14.60048221563125
 20
1.296753267605874
 30
0.0
 10
14.60404760665951
 20
1.297465010345032
 30
0.0
 10
14.60760280301679
 20
1.298252345768303
 30
0.0
 10
14.61115799937407
 20
1.299039681191573
 30
0.0
 10
14.614700607174
 20
1.29990241364602
 30
0.0
 10
14.61824321497393
 20
1.300765146100467
 30
0.0
 10
14.62177084431745
 20
1.301702979119492
 30
0.0
 10
14.62529847366098
 20
1.302640812138517
 30
0.0
 10
14.62880874393583
 20
1.303653348484302
 30
0.0
 10
14.63231901421068
 20
1.304665884830088
 30
0.0
 10
14.63580955939519
 20
1.305752626870158
 30
0.0
 10
14.63930010457971
 20
1.306839368910227
 30
0.0
 10
14.64276857852641
 20
1.307999719328701
 30
0.0
 10
14.64623705247312
 20
1.309160069747176
 30
0.0
 10
14.64968113414745
 20
1.310393332589236
 30
0.0
 10
14.65312521582178
 20
1.311626595431296
 30
0.0
 10
14.65654261447149
 20
1.312931977477291
 30
0.0
 10
14.65996001312121
 20
1.314237359523285
 30
0.0
 10
14.6633484733523
 20
1.315613971986883
 30
0.0
 10
14.6667369335834
 20
1.316990584450482
 30
0.0
 10
14.67009424031895
 20
1.318437444993242
 30
0.0
 10
14.67345154705451
 20
1.319884305536002
 30
0.0
 10
14.67677553035362
 20
1.321400340588782
 30
0.0
 10
14.68009951365273
 20
1.322916375641563
 30
0.0
 10
14.68338805336748
 20
1.32450042302133
 30
0.0
 10
14.68667659308224
 20
1.326084470401096
 30
0.0
 10
14.68992762333187
 20
1.327735282209885
 30
0.0
 10
14.69317865358151
 20
1.329386094018675
 30
0.0
 10
14.6963901670241
 20
1.331102339809823
 30
0.0
 10
14.69960168046669
 20
1.332818585600971
 30
0.0
 10
14.70277173235005
 20
1.334598855796169
 30
0.0
 10
14.70594178423341
 20
1.336379125991367
 30
0.0
 10
14.70906849620848
 20
1.338221935530715
 30
0.0
 10
14.71219520818355
 20
1.340064745070062
 30
0.0
 10
14.7152767718651
 20
1.341968537276051
 30
0.0
 10
14.71835833554665
 20
1.343872329482041
 30
0.0
 10
14.72139301580788
 20
1.345835480117331
 30
0.0
 10
14.72442769606911
 20
1.347798630752622
 30
0.0
 10
14.72741383405858
 20
1.349819452250558
 30
0.0
 10
14.73039997204806
 20
1.351840273748495
 30
0.0
 10
14.73333598791923
 20
1.353917019594622
 30
0.0
 10
14.7362720037904
 20
1.35599376544075
 30
0.0
 10
14.73915639913581
 20
1.358124634683005
 30
0.0
 10
14.74204079448122
 20
1.36025550392526
 30
0.0
 10
14.74487215446564
 20
1.362438645790203
 30
0.0
 10
14.74770351445006
 20
1.364621787655146
 30
0.0
 10
14.75048050963844
 20
1.366855306247405
 30
0.0
 10
14.75325750482683
 20
1.369088824839664
 30
0.0
 10
14.75353428120727
 20
1.369320351624347
 30
0.0
 10
14.75381105758772
 20
1.369551878409029
 30
0.0
 10
14.75408511713721
 20
1.36978969123482
 30
0.0
 10
14.7543591766867
 20
1.37002750406061
 30
0.0
 10
14.75463032555507
 20
1.370271577896113
 30
0.0
 10
14.75490147442344
 20
1.370515651731617
 30
0.0
 10
14.75516951770542
 20
1.370765954162655
 30
0.0
 10
14.7554375609874
 20
1.371016256593693
 30
0.0
 10
14.75570230305065
 20
1.37127274768342
 30
0.0
 10
14.7559670451139
 20
1.371529238773148
 30
0.0
 10
14.75622828993947
 20
1.37179187093844
 30
0.0
 10
14.75648953476504
 20
1.372054503103733
 30
0.0
 10
14.75674708629953
 20
1.372323221008915
 30
0.0
 10
14.75700463783403
 20
1.372591938914097
 30
0.0
 10
14.7572583003524
 20
1.372866679383048
 30
0.0
 10
14.75751196287078
 20
1.373141419851999
 30
0.0
 10
14.75776154134876
 20
1.373422111799613
 30
0.0
 10
14.75801111982674
 20
1.373702803747227
 30
0.0
 10
14.75825642032176
 20
1.373989368131145
 30
0.0
 10
14.75850172081679
 20
1.374275932515064
 30
0.0
 10
14.75874255085618
 20
1.374568282308525
 30
0.0
 10
14.75898338089557
 20
1.374860632101987
 30
0.0
 10
14.75921954987063
 20
1.375158672288548
 30
0.0
 10
14.7594557188457
 20
1.375456712475109
 30
0.0
 10
14.75968703841043
 20
1.37576034006592
 30
0.0
 10
14.75991835797516
 20
1.37606396765673
 30
0.0
 10
14.76014464244797
 20
1.376373071730936
 30
0.0
 10
14.76037092692078
 20
1.376682175805142
 30
0.0
 10
14.76059199368787
 20
1.37699663757388
 30
0.0
 10
14.76081306045497
 20
1.377311099342619
 30
0.0
 10
14.76102873037365
 20
1.377630792236971
 30
0.0
 10
14.76124440029234
 20
1.377950485131322
 30
0.0
 10
14.76145449809274
 20
1.378275274914464
 30
0.0
 10
14.76166459589314
 20
1.378600064697605
 30
0.0
 10
14.7618689505766
 20
1.378929809601266
 30
0.0
 10
14.76207330526006
 20
1.379259554504927
 30
0.0
 10
14.76227175049256
 20
1.37959410539016
 30
0.0
 10
14.76247019572506
 20
1.379928656275393
 30
0.0
 10
14.762662570224
 20
1.380267856817491
 30
0.0
 10
14.76285494472295
 20
1.380607057359589
 30
0.0
 10
14.76304109263552
 20
1.380950744256897
 30
0.0
 10
14.7632272405481
 20
1.381294431154206
 30
0.0
 10
14.76340701181955
 20
1.381642434360392
 30
0.0
 10
14.763586783091
 20
1.381990437566579
 30
0.0
 10
14.76376003382119
 20
1.382342580545831
 30
0.0
 10
14.76393328455138
 20
1.382694723525084
 30
0.0
 10
14.76409987733794
 20
1.383050823529539
 30
0.0
 10
14.7642664701245
 20
1.383406923533994
 30
0.0
 10
14.76442627439095
 20
1.38376679190259
 30
0.0
 10
14.76458607865741
 20
1.384126660271185
 30
0.0
 10
14.76473897096483
 20
1.384490102748976
 30
0.0
 10
14.76489186327226
 20
1.384853545226767
 30
0.0
 10
14.76503772761286
 20
1.385220362303647
 30
0.0
 10
14.76518359195347
 20
1.385587179380527
 30
0.0
 10
14.76532232002484
 20
1.385957166648151
 30
0.0
 10
14.76546104809622
 20
1.386327153915775
 30
0.0
 10
14.76559253955483
 20
1.386700102441386
 30
0.0
 10
14.76572403101345
 20
1.387073050966997
 30
0.0
 10
14.7658481937063
 20
1.387448747682737
 30
0.0
 10
14.76597235639915
 20
1.387824444398477
 30
0.0
 10
14.76608910657239
 20
1.388202672504691
 30
0.0
 10
14.76620585674564
 20
1.388580900610904
 30
0.0
 10
14.7663151192293
 20
1.388961439991828
 30
0.0
 10
14.76642438171297
 20
1.389341979372751
 30
0.0
 10
14.76652609008082
 20
1.389724607022925
 30
0.0
 10
14.76662779844868
 20
1.390107234673098
 30
0.0
 10
14.76672189515266
 20
1.390491725132774
 30
0.0
 10
14.76681599185665
 20
1.39087621559245
 30
0.0
 10
14.76690242833518
 20
1.391262341390205
 30
0.0
 10
14.76698886481371
 20
1.391648467187961
 30
0.0
 10
14.76706760157351
 20
1.392035999288695
 30
0.0
 10
14.76714633833332
 20
1.39242353138943
 30
0.0
 10
14.76721734500445
 20
1.392812239645898
 30
0.0
 10
14.76728835167559
 20
1.393200947902365
 30
0.0
 10
14.76735160703959
 20
1.393590601508374
 30
0.0
 10
14.7674148624036
 20
1.393980255114383
 30
0.0
 10
14.76747035439472
 20
1.394370623057808
 30
0.0
 10
14.76752584638584
 20
1.394760991001234
 30
0.0
 10
14.76757357206548
 20
1.395151842514978
 30
0.0
 10
14.76762129774513
 20
1.395542694028721
 30
0.0
 10
14.76766126324993
 20
1.395933799037806
 30
0.0
 10
14.76770122875473
 20
1.396324904046891
 30
0.0
 10
14.7677334492186
 20
1.396716033609895
 30
0.0
 10
14.76776566968247
 20
1.3971071631729
 30
0.0
 10
14.76779016913323
 20
1.397498089915995
 30
0.0
 10
14.767814668584
 20
1.397889016659091
 30
0.0
 10
14.76783147981532
 20
1.398279515201006
 30
0.0
 10
14.76784829104665
 20
1.398670013742922
 30
0.0
 10
14.76785745546614
 20
1.399059861109235
 30
0.0
 10
14.76786661988563
 20
1.399449708475548
 30
0.0
 10
14.76786818733996
 20
1.399838684500772
 30
0.0
 10
14.76786975479429
 20
1.400227660525996
 30
0.0
 10
14.76786378337254
 20
1.400615548242047
 30
0.0
 10
14.7678578119508
 20
1.401003435958097
 30
0.0
 10
14.76784436776703
 20
1.401390021967789
 30
0.0
 10
14.76783092358327
 20
1.40177660797748
 30
0.0
 10
14.76781008053968
 20
1.402161682811843
 30
0.0
 10
14.7677892374961
 20
1.402546757646206
 30
0.0
 10
14.76776107702802
 20
1.402930116104505
 30
0.0
 10
14.76773291655995
 20
1.403313474562803
 30
0.0
 10
14.76769752736411
 20
1.403694916034255
 30
0.0
 10
14.76766213816827
 20
1.404076357505707
 30
0.0
 10
14.76761961591572
 20
1.404455686272037
 30
0.0
 10
14.76757709366317
 20
1.404835015038366
 30
0.0
 10
14.7675275406984
 20
1.40521204055643
 30
0.0
 10
14.76747798773364
 20
1.405589066074495
 30
0.0
 10
14.76742151276138
 20
1.405963603238363
 30
0.0
 10
14.76736503778913
 20
1.406338140402231
 30
0.0
 10
14.76730175555039
 20
1.406710009784208
 30
0.0
 10
14.76723847331165
 20
1.407081879166185
 30
0.0
 10
14.76716850425051
 20
1.407450907236405
 30
0.0
 10
14.76709853518938
 20
1.407819935306625
 30
0.0
 10
14.76702200511213
 20
1.408185954630955
 30
0.0
 10
14.76694547503489
 20
1.408551973955285
 30
0.0
 10
14.76686251476303
 20
1.408914823371407
 30
0.0
 10
14.76677955449118
 20
1.40927767278753
 30
0.0
 10
14.76669029950979
 20
1.409637197559182
 30
0.0
 10
14.7666010445284
 20
1.409996722330834
 30
0.0
 10
14.76650563463138
 20
1.410352774280291
 30
0.0
 10
14.76641022473436
 20
1.410708826229747
 30
0.0
 10
14.76630880366798
 20
1.411061263848759
 30
0.0
 10
14.76620738260161
 20
1.411413701467771
 30
0.0
 10
14.76610009770784
 20
1.411762390007249
 30
0.0
 10
14.76599281281407
 20
1.412111078546727
 30
0.0
 10
14.76587981467487
 20
1.412455890085565
 30
0.0
 10
14.76576681653568
 20
1.412800701624403
 30
0.0
 10
14.76564825861978
 20
1.413141515117938
 30
0.0
 10
14.76552970070389
 20
1.413482328611472
 30
0.0
 10
14.76540501326144
 20
1.413820947657737
 30
0.0
 10
14.76528032581899
 20
1.414159566704002
 30
0.0
 10
14.76514880443846
 20
1.41449774669046
 30
0.0
 10
14.76501728305793
 20
1.414835926676919
 30
0.0
 10
14.76487888596632
 20
1.415173476659926
 30
0.0
 10
14.76474048887471
 20
1.415511026642933
 30
0.0
 10
14.76459518089415
 20
1.415847752197033
 30
0.0
 10
14.76444987291359
 20
1.416184477751133
 30
0.0
 10
14.76429762570358
 20
1.416520181230722
 30
0.0
 10
14.76414537849358
 20
1.41685588471031
 30
0.0
 10
14.76398617078218
 20
1.417190365528543
 30
0.0
 10
14.76382696307079
 20
1.417524846346776
 30
0.0
 10
14.76366078087331
 20
1.417857901271271
 30
0.0
 10
14.76349459867584
 20
1.418190956195766
 30
0.0
 10
14.76332143549993
 20
1.418522379660556
 30
0.0
 10
14.76314827232402
 20
1.418853803125346
 30
0.0
 10
14.76296812935967
 20
1.419183387558419
 30
0.0
 10
14.76278798639533
 20
1.419512971991493
 30
0.0
 10
14.76260087268878
 20
1.419840508157149
 30
0.0
 10
14.76241375898223
 20
1.420168044322806
 30
0.0
 10
14.76221969159231
 20
1.420493321677969
 30
0.0
 10
14.7620256242024
 20
1.420818599033132
 30
0.0
 10
14.76182462833839
 20
1.421141406096623
 30
0.0
 10
14.76162363247438
 20
1.421464213160113
 30
0.0
 10
14.76141574161408
 20
1.42178433789382
 30
0.0
 10
14.76120785075378
 20
1.422104462627527
 30
0.0
 10
14.76099310674092
 20
1.422421692828277
 30
0.0
 10
14.76077836272807
 20
1.422738923029028
 30
0.0
 10
14.76055681584801
 20
1.423053046729899
 30
0.0
 10
14.76033526896796
 20
1.423367170430771
 30
0.0
 10
14.76010697800082
 20
1.423677976310462
 30
0.0
 10
14.75987868703369
 20
1.423988782190153
 30
0.0
 10
14.75964371928417
 20
1.424296059988983
 30
0.0
 10
14.75940875153466
 20
1.424603337787813
 30
0.0
 10
14.75916718283785
 20
1.424906878728812
 30
0.0
 10
14.75892561414104
 20
1.425210419669811
 30
0.0
 10
14.75867752884367
 20
1.425510016883317
 30
0.0
 10
14.7584294435463
 20
1.425809614096823
 30
0.0
 10
14.758174934463
 20
1.426105063046935
 30
0.0
 10
14.7579204253797
 20
1.426400511997048
 30
0.0
 10
14.75765959372395
 20
1.42669161090824
 30
0.0
 10
14.75739876206821
 20
1.426982709819432
 30
0.0
 10
14.7571317173578
 20
1.427269260101581
 30
0.0
 10
14.7568646726474
 20
1.427555810383729
 30
0.0
 10
14.75659153258434
 20
1.427837617053812
 30
0.0
 10
14.75631839252129
 20
1.428119423723895
 30
0.0
 10
14.75603928284628
 20
1.428396295822566
 30
0.0
 10
14.75576017317127
 20
1.428673167921236
 30
0.0
 10
14.75547522749293
 20
1.428944918922505
 30
0.0
 10
14.7551902818146
 20
1.429216669923774
 30
0.0
 10
14.75489964141389
 20
1.429483118136025
 30
0.0
 10
14.75460900101319
 20
1.429749566348276
 30
0.0
 10
14.75431281462348
 20
1.43001053530487
 30
0.0
 10
14.75401662823378
 20
1.430271504261463
 30
0.0
 10
14.75371505179723
 20
1.430526823099213
 30
0.0
 10
14.75341347536069
 20
1.430782141936962
 30
0.0
 10
14.75310667176175
 20
1.431031645760828
 30
0.0
 10
14.75279986816282
 20
1.431281149584694
 30
0.0
 10
14.75248800693979
 20
1.431524679817079
 30
0.0
 10
14.75217614571676
 20
1.431768210049464
 30
0.0
 10
14.7518594027524
 20
1.432005614762588
 30
0.0
 10
14.75154265978805
 20
1.432243019475712
 30
0.0
 10
14.75122121698048
 20
1.432474153705611
 30
0.0
 10
14.75089977417291
 20
1.43270528793551
 30
0.0
 10
14.75057381908803
 20
1.432930013976307
 30
0.0
 10
14.75024786400315
 20
1.433154740017105
 30
0.0
 10
14.74991758951003
 20
1.433372927694302
 30
0.0
 10
14.74958731501692
 20
1.433591115371499
 30
0.0
 10
14.7492529189076
 20
1.43380264229315
 30
0.0
 10
14.74891852279828
 20
1.434014169214801
 30
0.0
 10
14.74858020739353
 20
1.43421892099955
 30
0.0
 10
14.74824189198879
 20
1.434423672784298
 30
0.0
 10
14.74789986373162
 20
1.434621543265394
 30
0.0
 10
14.74755783547446
 20
1.434819413746491
 30
0.0
 10
14.74721230451285
 20
1.43501030515103
 30
0.0
 10
14.74686677355125
 20
1.435201196555569
 30
0.0
 10
14.74651795331213
 20
1.435385019658335
 30
0.0
 10
14.74616913307301
 20
1.4355688427611
 30
0.0
 10
14.74581723982901
 20
1.435745517012542
 30
0.0
 10
14.74546534658501
 20
1.435922191263984
 30
0.0
 10
14.74511059901609
 20
1.436091644892001
 30
0.0
 10
14.74475585144717
 20
1.436261098520019
 30
0.0
 10
14.74439847019868
 20
1.436423268605362
 30
0.0
 10
14.7440410889502
 20
1.436585438690705
 30
0.0
 10
14.74368129618946
 20
1.436740271215962
 30
0.0
 10
14.74332150342873
 20
1.43689510374122
 30
0.0
 10
14.74295952240173
 20
1.437042553613491
 30
0.0
 10
14.74259754137474
 20
1.437190003485761
 30
0.0
 10
14.7422335959649
 20
1.43733003453326
 30
0.0
 10
14.74186965055506
 20
1.437470065580758
 30
0.0
 10
14.74150396484573
 20
1.437602650523736
 30
0.0
 10
14.7411382791364
 20
1.437735235466715
 30
0.0
 10
14.74077107697883
 20
1.437860355863212
 30
0.0
 10
14.74040387482127
 20
1.437985476259709
 30
0.0
 10
14.7400353794097
 20
1.438103122426766
 30
0.0
 10
14.73966688399814
 20
1.438220768593822
 30
0.0
 10
14.73929731745356
 20
1.438330939504924
 30
0.0
 10
14.73892775090899
 20
1.438441110416026
 30
0.0
 10
14.73855733387304
 20
1.438543813575635
 30
0.0
 10
14.7381869168371
 20
1.438646516735245
 30
0.0
 10
14.73781586807762
 20
1.438741768031394
 30
0.0
 10
14.73744481931815
 20
1.438837019327544
 30
0.0
 10
14.73707335534755
 20
1.438924842863552
 30
0.0
 10
14.73670189137696
 20
1.439012666399561
 30
0.0
 10
14.73633022608472
 20
1.439093094306017
 30
0.0
 10
14.73595856079249
 20
1.439173522212472
 30
0.0
 10
14.73558690509285
 20
1.439246594440696
 30
0.0
 10
14.73521524939322
 20
1.439319666668921
 30
0.0
 10
14.73484381088906
 20
1.439385430767199
 30
0.0
 10
14.73447237238491
 20
1.439451194865478
 30
0.0
 10
14.73410135504871
 20
1.43950970573938
 30
0.0
 10
14.73373033771251
 20
1.439568216613282
 30
0.0
 10
14.73335994158511
 20
1.439619536271444
 30
0.0
 10
14.73298954545771
 20
1.439670855929606
 30
0.0
 10
14.73261996636559
 20
1.439715053216386
 30
0.0
 10
14.73225038727348
 20
1.439759250503166
 30
0.0
 10
14.73188181656503
 20
1.43979640081958
 30
0.0
 10
14.73151324585659
 20
1.439833551135993
 30
0.0
 10
14.73114587015779
 20
1.439863736150374
 30
0.0
 10
14.73077849445899
 20
1.439893921164755
 30
0.0
 10
14.73041249544882
 20
1.439917228514567
 30
0.0
 10
14.73004649643865
 20
1.439940535864379
 30
0.0
 10
14.72968205064443
 20
1.439957058850601
 30
0.0
 10
14.72931760485022
 20
1.439973581836822
 30
0.0
 10
14.72895488346294
 20
1.439983419112315
 30
0.0
 10
14.72859216207567
 20
1.439993256387808
 30
0.0
 10
14.7032365312321
 20
1.440001713702821
 30
0.0
 10
14.67788090038853
 20
1.440010171017834
 30
0.0
 10
14.67755878478814
 20
1.440025680228141
 30
0.0
 10
14.67723666918775
 20
1.440041189438448
 30
0.0
 10
14.6769127209495
 20
1.440067319463139
 30
0.0
 10
14.67658877271125
 20
1.440093449487829
 30
0.0
 10
14.67626349665301
 20
1.440130398150689
 30
0.0
 10
14.67593822059478
 20
1.440167346813548
 30
0.0
 10
14.6756121409034
 20
1.440215281017604
 30
0.0
 10
14.67528606121203
 20
1.44026321522166
 30
0.0
 10
14.67495971914773
 20
1.4403222688983
 30
0.0
 10
14.67463337708343
 20
1.44038132257494
 30
0.0
 10
14.67430732844295
 20
1.44045159483165
 30
0.0
 10
14.67398127980248
 20
1.44052186708836
 30
0.0
 10
14.67365609216048
 20
1.440603420586662
 30
0.0
 10
14.67333090451849
 20
1.440684974084965
 30
0.0
 10
14.67300715427119
 20
1.440777833678009
 30
0.0
 10
14.67268340402389
 20
1.440870693271052
 30
0.0
 10
14.67236167326336
 20
1.440974844927473
 30
0.0
 10
14.67203994250284
 20
1.441078996583893
 30
0.0
 10
14.67172081575433
 20
1.441194386621
 30
0.0
 10
14.67140168900582
 20
1.441309776658107
 30
0.0
 10
14.67108574986378
 20
1.441436311303264
 30
0.0
 10
14.67076981072175
 20
1.441562845948421
 30
0.0
 10
14.67045763842329
 20
1.441700391242738
 30
0.0
 10
14.67014546612483
 20
1.441837936537055
 30
0.0
 10
14.66983763210119
 20
1.441986318590288
 30
0.0
 10
14.66952979807755
 20
1.442134700643522
 30
0.0
 10
14.66922686252575
 20
1.442293706243529
 30
0.0
 10
14.66892392697395
 20
1.442452711843536
 30
0.0
 10
14.668626435491
 20
1.442622089417875
 30
0.0
 10
14.66832894400806
 20
1.442791466992214
 30
0.0
 10
14.66803742432984
 20
1.442970927913668
 30
0.0
 10
14.66774590465163
 20
1.443150388835123
 30
0.0
 10
14.66746086353717
 20
1.443339609057211
 30
0.0
 10
14.66717582242272
 20
1.4435288292793
 30
0.0
 10
14.6668977427224
 20
1.443727451282371
 30
0.0
 10
14.66661966302208
 20
1.443926073285442
 30
0.0
 10
14.66634900096534
 20
1.444133708308873
 30
0.0
 10
14.6660783389086
 20
1.444341343332305
 30
0.0
 10
14.6658155216429
 20
1.444557573863795
 30
0.0
 10
14.66555270437721
 20
1.444773804395285
 30
0.0
 10
14.66529812778578
 20
1.44499818688429
 30
0.0
 10
14.66504355119436
 20
1.445222569373296
 30
0.0
 10
14.66479757801507
 20
1.445454637132529
 30
0.0
 10
14.66455160483579
 20
1.445686704891761
 30
0.0
 10
14.66431456309866
 20
1.445925971148277
 30
0.0
 10
14.66407752136154
 20
1.446165237404793
 30
0.0
 10
14.66384970315644
 20
1.44641119846069
 30
0.0
 10
14.66362188495134
 20
1.446657159516587
 30
0.0
 10
14.66340354553218
 20
1.446909297978675
 30
0.0
 10
14.66318520611303
 20
1.447161436440763
 30
0.0
 10
14.66297656333908
 20
1.447419224478766
 30
0.0
 10
14.66276792056514
 20
1.447677012516769
 30
0.0
 10
14.66256915467474
 20
1.447939915110629
 30
0.0
 10
14.66237038878434
 20
1.448202817704489
 30
0.0
 10
14.66218164249133
 20
1.448470295843079
 30
0.0
 10
14.66199289619833
 20
1.448737773981669
 30
0.0
 10
14.66181427509702
 20
1.449009287777679
 30
0.0
 10
14.66163565399572
 20
1.44928080157369
 30
0.0
 10
14.6614672272559
 20
1.449555813262416
 30
0.0
 10
14.66129880051609
 20
1.449830824951142
 30
0.0
 10
14.64754256886224
 20
1.474915328141515
 30
0.0
 10
14.6337863372084
 20
1.499999831331887
 30
0.0
  0
SPLINE
  5
47
330
1F
100
AcDbEntity
  8
DEFAULT
100
AcDbSpline
210
0.0
220
0.0
230
1.0
 70
    24
 71
     2
 72
     6
 73
     3
 74
     0
 42
0.0000000001
 43
0.0000000001
 40
0.0
 40
0.0
 40
0.0
 40
26.52999999999998
 40
26.52999999999998
 40
26.52999999999998
 10
11.97517549949487
 20
1.289999831331887
 30
0.0
 10
0.0000127752067538
 20
1.289999831331885
 30
0.0
 10
-11.97522029962906
 20
1.289999831331883
 30
0.0
  0
SPLINE
  5
48
330
1F
100
AcDbEntity
  8
DEFAULT
100
AcDbSpline
210
0.0
220
0.0
230
1.0
 70
    24
 71
     2
 72
     6
 73
     3
 74
     0
 42
0.0000000001
 43
0.0000000001
 40
0.0
 40
0.0
 40
0.0
 40
26.52999999999998
 40
26.52999999999998
 40
26.52999999999998
 10
-11.97522029962906
 20
0.6024998313318832
 30
0.0
 10
0.0000127752067538
 20
0.6024998313318849
 30
0.0
 10
11.97517549949487
 20
0.6024998313318866
 30
0.0
  0
SPLINE
  5
49
330
1F
100
AcDbEntity
  8
DEFAULT
100
AcDbSpline
210
0.0
220
0.0
230
1.0
 70
    11
 71
     2
 72
    12
 73
     9
 74
     0
 42
0.0000000001
 43
0.0000000001
 40
0.0
 40
0.0
 40
0.0
 40
1.0
 40
1.0
 40
2.0
 40
2.0
 40
3.0
 40
3.0
 40
4.0
 40
4.0
 40
4.0
 10
-11.97522029962906
 20
0.4174998313318845
 30
0.0
 10
0.0000127752067538
 20
0.4174998313318862
 30
0.0
 10
11.97517549949487
 20
0.4174998313318878
 30
0.0
 10
11.97517549949487
 20
0.9571673313318865
 30
0.0
 10
11.97517549949487
 20
1.496834831331885
 30
0.0
 10
0.0000127752067538
 20
1.496834831331883
 30
0.0
 10
-11.97522029962906
 20
1.496834831331881
 30
0.0
 10
-11.97522029962906
 20
0.9571673313318828
 30
0.0
 10
-11.97522029962906
 20
0.4174998313318845
 30
0.0
  0
SPLINE
  5
4A
330
1F
100
AcDbEntity
  8
DEFAULT
100
AcDbSpline
210
0.0
220
0.0
230
1.0
 70
    11
 71
     2
 72
   516
 73
   513
 74
     0
 42
0.0000000001
 43
0.0000000001
 40
0.0
 40
0.0
 40
0.0
 40
1.0
 40
1.0
 40
2.0
 40
2.0
 40
3.0
 40
3.0
 40
4.0
 40
4.0
 40
5.0
 40
5.0
 40
6.0
 40
6.0
 40
7.0
 40
7.0
 40
8.0
 40
8.0
 40
9.0
 40
9.0
 40
10.0
 40
10.0
 40
11.0
 40
11.0
 40
12.0
 40
12.0
 40
13.0
 40
13.0
 40
14.0
 40
14.0
 40
15.0
 40
15.0
 40
16.0
 40
16.0
 40
17.0
 40
17.0
 40
18.0
 40
18.0
 40
19.0
 40
19.0
 40
20.0
 40
20.0
 40
21.0
 40
21.0
 40
22.0
 40
22.0
 40
23.0
 40
23.0
 40
24.0
 40
24.0
 40
25.0
 40
25.0
 40
26.0
 40
26.0
 40
27.0
 40
27.0
 40
28.0
 40
28.0
 40
29.0
 40
29.0
 40
30.0
 40
30.0
 40
31.0
 40
31.0
 40
32.0
 40
32.0
 40
33.0
 40
33.0
 40
34.0
 40
34.0
 40
35.0
 40
35.0
 40
36.0
 40
36.0
 40
37.0
 40
37.0
 40
38.0
 40
38.0
 40
39.0
 40
39.0
 40
40.0
 40
40.0
 40
41.0
 40
41.0
 40
42.0
 40
42.0
 40
43.0
 40
43.0
 40
44.0
 40
44.0
 40
45.0
 40
45.0
 40
46.0
 40
46.0
 40
47.0
 40
47.0
 40
48.0
 40
48.0
 40
49.0
 40
49.0
 40
50.0
 40
50.0
 40
51.0
 40
51.0
 40
52.0
 40
52.0
 40
53.0
 40
53.0
 40
54.0
 40
54.0
 40
55.0
 40
55.0
 40
56.0
 40
56.0
 40
57.0
 40
57.0
 40
58.0
 40
58.0
 40
59.0
 40
59.0
 40
60.0
 40
60.0
 40
61.0
 40
61.0
 40
62.0
 40
62.0
 40
63.0
 40
63.0
 40
64.0
 40
64.0
 40
65.0
 40
65.0
 40
66.0
 40
66.0
 40
67.0
 40
67.0
 40
68.0
 40
68.0
 40
69.0
 40
69.0
 40
70.0
 40
70.0
 40
71.0
 40
71.0
 40
72.0
 40
72.0
 40
73.0
 40
73.0
 40
74.0
 40
74.0
 40
75.0
 40
75.0
 40
76.0
 40
76.0
 40
77.0
 40
77.0
 40
78.0
 40
78.0
 40
79.0
 40
79.0
 40
80.0
 40
80.0
 40
81.0
 40
81.0
 40
82.0
 40
82.0
 40
83.0
 40
83.0
 40
84.0
 40
84.0
 40
85.0
 40
85.0
 40
86.0
 40
86.0
 40
87.0
 40
87.0
 40
88.0
 40
88.0
 40
89.0
 40
89.0
 40
90.0
 40
90.0
 40
91.0
 40
91.0
 40
92.0
 40
92.0
 40
93.0
 40
93.0
 40
94.0
 40
94.0
 40
95.0
 40
95.0
 40
96.0
 40
96.0
 40
97.0
 40
97.0
 40
98.0
 40
98.0
 40
99.0
 40
99.0
 40
100.0
 40
100.0
 40
101.0
 40
101.0
 40
102.0
 40
102.0
 40
103.0
 40
103.0
 40
104.0
 40
104.0
 40
105.0
 40
105.0
 40
106.0
 40
106.0
 40
107.0
 40
107.0
 40
108.0
 40
108.0
 40
109.0
 40
109.0
 40
110.0
 40
110.0
 40
111.0
 40
111.0
 40
112.0
 40
112.0
 40
113.0
 40
113.0
 40
114.0
 40
114.0
 40
115.0
 40
115.0
 40
116.0
 40
116.0
 40
117.0
 40
117.0
 40
118.0
 40
118.0
 40
119.0
 40
119.0
 40
120.0
 40
120.0
 40
121.0
 40
121.0
 40
122.0
 40
122.0
 40
123.0
 40
123.0
 40
124.0
 40
124.0
 40
125.0
 40
125.0
 40
126.0
 40
126.0
 40
127.0
 40
127.0
 40
128.0
 40
128.0
 40
129.0
 40
129.0
 40
130.0
 40
130.0
 40
131.0
 40
131.0
 40
132.0
 40
132.0
 40
133.0
 40
133.0
 40
134.0
 40
134.0
 40
135.0
 40
135.0
 40
136.0
 40
136.0
 40
137.0
 40
137.0
 40
138.0
 40
138.0
 40
139.0
 40
139.0
 40
140.0
 40
140.0
 40
141.0
 40
141.0
 40
142.0
 40
142.0
 40
143.0
 40
143.0
 40
144.0
 40
144.0
 40
145.0
 40
145.0
 40
146.0
 40
146.0
 40
147.0
 40
147.0
 40
148.0
 40
148.0
 40
149.0
 40
149.0
 40
150.0
 40
150.0
 40
151.0
 40
151.0
 40
152.0
 40
152.0
 40
153.0
 40
153.0
 40
154.0
 40
154.0
 40
155.0
 40
155.0
 40
156.0
 40
156.0
 40
157.0
 40
157.0
 40
158.0
 40
158.0
 40
159.0
 40
159.0
 40
160.0
 40
160.0
 40
161.0
 40
161.0
 40
162.0
 40
162.0
 40
163.0
 40
163.0
 40
164.0
 40
164.0
 40
165.0
 40
165.0
 40
166.0
 40
166.0
 40
167.0
 40
167.0
 40
168.0
 40
168.0
 40
169.0
 40
169.0
 40
170.0
 40
170.0
 40
171.0
 40
171.0
 40
172.0
 40
172.0
 40
173.0
 40
173.0
 40
174.0
 40
174.0
 40
175.0
 40
175.0
 40
176.0
 40
176.0
 40
177.0
 40
177.0
 40
178.0
 40
178.0
 40
179.0
 40
179.0
 40
180.0
 40
180.0
 40
181.0
 40
181.0
 40
182.0
 40
182.0
 40
183.0
 40
183.0
 40
184.0
 40
184.0
 40
185.0
 40
185.0
 40
186.0
 40
186.0
 40
187.0
 40
187.0
 40
188.0
 40
188.0
 40
189.0
 40
189.0
 40
190.0
 40
190.0
 40
191.0
 40
191.0
 40
192.0
 40
192.0
 40
193.0
 40
193.0
 40
194.0
 40
194.0
 40
195.0
 40
195.0
 40
196.0
 40
196.0
 40
197.0
 40
197.0
 40
198.0
 40
198.0
 40
199.0
 40
199.0
 40
200.0
 40
200.0
 40
201.0
 40
201.0
 40
202.0
 40
202.0
 40
203.0
 40
203.0
 40
204.0
 40
204.0
 40
205.0
 40
205.0
 40
206.0
 40
206.0
 40
207.0
 40
207.0
 40
208.0
 40
208.0
 40
209.0
 40
209.0
 40
210.0
 40
210.0
 40
211.0
 40
211.0
 40
212.0
 40
212.0
 40
213.0
 40
213.0
 40
214.0
 40
214.0
 40
215.0
 40
215.0
 40
216.0
 40
216.0
 40
217.0
 40
217.0
 40
218.0
 40
218.0
 40
219.0
 40
219.0
 40
220.0
 40
220.0
 40
221.0
 40
221.0
 40
222.0
 40
222.0
 40
223.0
 40
223.0
 40
224.0
 40
224.0
 40
225.0
 40
225.0
 40
226.0
 40
226.0
 40
227.0
 40
227.0
 40
228.0
 40
228.0
 40
229.0
 40
229.0
 40
230.0
 40
230.0
 40
231.0
 40
231.0
 40
232.0
 40
232.0
 40
233.0
 40
233.0
 40
234.0
 40
234.0
 40
235.0
 40
235.0
 40
236.0
 40
236.0
 40
237.0
 40
237.0
 40
238.0
 40
238.0
 40
239.0
 40
239.0
 40
240.0
 40
240.0
 40
241.0
 40
241.0
 40
242.0
 40
242.0
 40
243.0
 40
243.0
 40
244.0
 40
244.0
 40
245.0
 40
245.0
 40
246.0
 40
246.0
 40
247.0
 40
247.0
 40
248.0
 40
248.0
 40
249.0
 40
249.0
 40
250.0
 40
250.0
 40
251.0
 40
251.0
 40
252.0
 40
252.0
 40
253.0
 40
253.0
 40
254.0
 40
254.0
 40
255.0
 40
255.0
 40
256.0
 40
256.0
 40
256.0
 10
18.25017549949488
 20
23.12499983133189
 30
0.0
 10
18.25005231934166
 20
12.80140185945109
 30
0.0
 10
18.24992913918845
 20
2.477803887570283
 30
0.0
 10
18.2495552226945
 20
2.466611737376756
 30
0.0
 10
18.24918130620055
 20
2.45541958718323
 30
0.0
 10
18.24855024430895
 20
2.444140589562856
 30
0.0
 10
18.24791918241734
 20
2.432861591942483
 30
0.0
 10
18.24702479526255
 20
2.421503492688333
 30
0.0
 10
18.24613040810776
 20
2.410145393434183
 30
0.0
 10
18.2449667735657
 20
2.398716348391102
 30
0.0
 10
18.24380313902364
 20
2.38728730334802
 30
0.0
 10
18.24236462159338
 20
2.375795871451461
 30
0.0
 10
18.24092610416313
 20
2.364304439554902
 30
0.0
 10
18.23920738401625
 20
2.352759573680927
 30
0.0
 10
18.23748866386937
 20
2.341214707806953
 30
0.0
 10
18.2354847658904
 20
2.329625743363349
 30
0.0
 10
18.23348086791146
 20
2.318036778919744
 30
0.0
 10
18.23118719054126
 20
2.306413420123021
 30
0.0
 10
18.22889351317106
 20
2.294790061326298
 30
0.0
 10
18.22630585685434
 20
2.283142365125871
 30
0.0
 10
18.22371820053763
 20
2.271494668925443
 30
0.0
 10
18.22083279556715
 20
2.259833026554405
 30
0.0
 10
18.21794739059669
 20
2.248171384183368
 30
0.0
 10
18.21476092413929
 20
2.236506500334944
 30
0.0
 10
18.21157445768192
 20
2.224841616486519
 30
0.0
 10
18.20808409976627
 20
2.213184486136185
 30
0.0
 10
18.20459374185062
 20
2.201527355785851
 30
0.0
 10
18.20079717009359
 20
2.18988923870123
 30
0.0
 10
18.19700059833655
 20
2.17825112161661
 30
0.0
 10
18.19289602118443
 20
2.166643514620167
 30
0.0
 10
18.1887914440323
 20
2.155035907623723
 30
0.0
 10
18.1843776222948
 20
2.14347051469687
 30
0.0
 10
18.17996380055731
 20
2.131905121770016
 30
0.0
 10
18.17524006701709
 20
2.120393822111091
 30
0.0
 10
18.17051633347688
 20
2.108882522452167
 30
0.0
 10
18.16548261036426
 20
2.097437336624604
 30
0.0
 10
18.16044888725164
 20
2.085992150797042
 30
0.0
 10
18.15510570138474
 20
2.0746252051275
 30
0.0
 10
18.14976251551785
 20
2.063258259457958
 30
0.0
 10
18.14411101092124
 20
2.051981748866921
 30
0.0
 10
18.13845950632464
 20
2.040705238275885
 30
0.0
 10
18.13250145415532
 20
2.029531387744849
 30
0.0
 10
18.12654340198599
 20
2.018357537213813
 30
0.0
 10
18.12028120761416
 20
2.007298562113275
 30
0.0
 10
18.11401901324232
 20
1.996239587012737
 30
0.0
 10
18.10745572035547
 20
1.985307652533492
 30
0.0
 10
18.10089242746863
 20
1.974375718054247
 30
0.0
 10
18.09403171909108
 20
1.963582898000496
 30
0.0
 10
18.08717101071353
 20
1.952790077946746
 30
0.0
 10
18.08001720705861
 20
1.942148313163067
 30
0.0
 10
18.0728634034037
 20
1.931506548379387
 30
0.0
 10
18.06542145650378
 20
1.921027605094237
 30
0.0
 10
18.05797950960389
 20
1.910548661809087
 30
0.0
 10
18.05025499469177
 20
1.900244090185126
 30
0.0
 10
18.04253047977966
 20
1.889939518561165
 30
0.0
 10
18.03452958342469
 20
1.879820611746911
 30
0.0
 10
18.02652868706972
 20
1.869701704932658
 30
0.0
 10
18.01825819210289
 20
1.859779458910856
 30
0.0
 10
18.00998769713605
 20
1.849857212889053
 30
0.0
 10
18.00145496442834
 20
1.840142287414374
 30
0.0
 10
17.99292223172064
 20
1.830427361939695
 30
0.0
 10
17.98413517890997
 20
1.820930042852123
 30
0.0
 10
17.97534812609929
 20
1.811432723764552
 30
0.0
 10
17.96631520339036
 20
1.802162886954946
 30
0.0
 10
17.95728228068143
 20
1.792893050145341
 30
0.0
 10
17.94801244387182
 20
1.783860127436406
 30
0.0
 10
17.93874260706222
 20
1.774827204727471
 30
0.0
 10
17.92924528797464
 20
1.766040151916801
 30
0.0
 10
17.91974796888708
 20
1.757253099106132
 30
0.0
 10
17.9100330434124
 20
1.748720366398429
 30
0.0
 10
17.90031811793772
 20
1.740187633690726
 30
0.0
 10
17.89039587191591
 20
1.731917138723886
 30
0.0
 10
17.8804736258941
 20
1.723646643757046
 30
0.0
 10
17.87035471907986
 20
1.715645747402079
 30
0.0
 10
17.86023581226561
 20
1.707644851047113
 30
0.0
 10
17.84993124064164
 20
1.699920336134995
 30
0.0
 10
17.83962666901768
 20
1.692195821222876
 30
0.0
 10
17.82914772573253
 20
1.684753874322973
 30
0.0
 10
17.81866878244738
 20
1.67731192742307
 30
0.0
 10
17.8080270176637
 20
1.670158123768153
 30
0.0
 10
17.79738525288002
 20
1.663004320113237
 30
0.0
 10
17.78659243282627
 20
1.656143611735688
 30
0.0
 10
17.77579961277253
 20
1.64928290335814
 30
0.0
 10
17.76486767829327
 20
1.642719610471298
 30
0.0
 10
17.75393574381404
 20
1.636156317584457
 30
0.0
 10
17.7428767687135
 20
1.629894123212615
 30
0.0
 10
17.73181779361296
 20
1.623631928840774
 30
0.0
 10
17.72064394308192
 20
1.617673876671455
 30
0.0
 10
17.70947009255089
 20
1.611715824502136
 30
0.0
 10
17.69819358195985
 20
1.606064319905534
 30
0.0
 10
17.68691707136882
 20
1.600412815308931
 30
0.0
 10
17.67555012569927
 20
1.595069629442033
 30
0.0
 10
17.66418318002973
 20
1.589726443575135
 30
0.0
 10
17.65273799420216
 20
1.584692720462511
 30
0.0
 10
17.6412928083746
 20
1.579658997349888
 30
0.0
 10
17.62978150871567
 20
1.574935263809673
 30
0.0
 10
17.61827020905675
 20
1.570211530269458
 30
0.0
 10
17.60670481612989
 20
1.565797708531965
 30
0.0
 10
17.59513942320305
 20
1.561383886794472
 30
0.0
 10
17.58353181620659
 20
1.557279309642341
 30
0.0
 10
17.57192420921016
 20
1.55317473249021
 30
0.0
 10
17.56028609212554
 20
1.549378160733179
 30
0.0
 10
17.54864797504091
 20
1.545581588976148
 30
0.0
 10
17.53699084469057
 20
1.542091231060502
 30
0.0
 10
17.52533371434025
 20
1.538600873144856
 30
0.0
 10
17.51366883049182
 20
1.535414406687469
 30
0.0
 10
17.50200394664341
 20
1.532227940230083
 30
0.0
 10
17.49034230427237
 20
1.529342535259613
 30
0.0
 10
17.47868066190133
 20
1.526457130289143
 30
0.0
 10
17.46703296570089
 20
1.523869473972424
 30
0.0
 10
17.45538526950047
 20
1.521281817655705
 30
0.0
 10
17.44376191070375
 20
1.518988140285509
 30
0.0
 10
17.43213855190703
 20
1.516694462915313
 30
0.0
 10
17.42054958746342
 20
1.514690564936355
 30
0.0
 10
17.40896062301982
 20
1.512686666957397
 30
0.0
 10
17.39741575714584
 20
1.510967946810521
 30
0.0
 10
17.38587089127187
 20
1.509249226663644
 30
0.0
 10
17.37437945937531
 20
1.507810709233388
 30
0.0
 10
17.36288802747875
 20
1.506372191803132
 30
0.0
 10
17.35145898243567
 20
1.505208557261071
 30
0.0
 10
17.34002993739259
 20
1.504044922719009
 30
0.0
 10
17.32867183813844
 20
1.503150535564214
 30
0.0
 10
17.31731373888429
 20
1.502256148409419
 30
0.0
 10
17.30603474126391
 20
1.501625086517818
 30
0.0
 10
17.29475574364353
 20
1.500994024626218
 30
0.0
 10
17.28356359345
 20
1.50062010813227
 30
0.0
 10
17.27237144325649
 20
1.500246191638322
 30
0.0
 10
0.0111107470875638
 20
1.500123011485103
 30
0.0
 10
-17.25022029962906
 20
1.499999831331884
 30
0.0
 10
-17.26131827150986
 20
1.500123011485102
 30
0.0
 10
-17.27241624339067
 20
1.500246191638319
 30
0.0
 10
-17.28360839358419
 20
1.500620108132267
 30
0.0
 10
-17.29480054377772
 20
1.500994024626215
 30
0.0
 10
-17.3060795413981
 20
1.501625086517815
 30
0.0
 10
-17.31735853901847
 20
1.502256148409416
 30
0.0
 10
-17.32871663827262
 20
1.503150535564211
 30
0.0
 10
-17.34007473752676
 20
1.504044922719006
 30
0.0
 10
-17.35150378256984
 20
1.505208557261068
 30
0.0
 10
-17.36293282761293
 20
1.506372191803129
 30
0.0
 10
-17.37442425950949
 20
1.507810709233385
 30
0.0
 10
-17.38591569140605
 20
1.509249226663641
 30
0.0
 10
-17.39746055728002
 20
1.510967946810517
 30
0.0
 10
-17.40900542315399
 20
1.512686666957393
 30
0.0
 10
-17.42059438759759
 20
1.514690564936352
 30
0.0
 10
-17.4321833520412
 20
1.51669446291531
 30
0.0
 10
-17.44380671083792
 20
1.518988140285506
 30
0.0
 10
-17.45543006963465
 20
1.521281817655701
 30
0.0
 10
-17.46707776583508
 20
1.52386947397242
 30
0.0
 10
-17.4787254620355
 20
1.526457130289139
 30
0.0
 10
-17.49038710440654
 20
1.529342535259609
 30
0.0
 10
-17.50204874677758
 20
1.532227940230079
 30
0.0
 10
-17.51371363062601
 20
1.535414406687466
 30
0.0
 10
-17.52537851447443
 20
1.538600873144853
 30
0.0
 10
-17.53703564482476
 20
1.542091231060498
 30
0.0
 10
-17.54869277517509
 20
1.545581588976144
 30
0.0
 10
-17.56033089225971
 20
1.549378160733176
 30
0.0
 10
-17.57196900934433
 20
1.553174732490207
 30
0.0
 10
-17.58357661634078
 20
1.557279309642337
 30
0.0
 10
-17.59518422333722
 20
1.561383886794468
 30
0.0
 10
-17.60674961626407
 20
1.565797708531961
 30
0.0
 10
-17.61831500919093
 20
1.570211530269455
 30
0.0
 10
-17.62982630884985
 20
1.57493526380967
 30
0.0
 10
-17.64133760850877
 20
1.579658997349884
 30
0.0
 10
-17.65278279433633
 20
1.584692720462508
 30
0.0
 10
-17.6642279801639
 20
1.589726443575132
 30
0.0
 10
-17.67559492583344
 20
1.595069629442029
 30
0.0
 10
-17.68696187150298
 20
1.600412815308927
 30
0.0
 10
-17.69823838209402
 20
1.60606431990553
 30
0.0
 10
-17.70951489268506
 20
1.611715824502132
 30
0.0
 10
-17.7206887432161
 20
1.617673876671451
 30
0.0
 10
-17.73186259374714
 20
1.62363192884077
 30
0.0
 10
-17.74292156884768
 20
1.629894123212612
 30
0.0
 10
-17.75398054394821
 20
1.636156317584454
 30
0.0
 10
-17.76491247842745
 20
1.642719610471295
 30
0.0
 10
-17.7758444129067
 20
1.649282903358136
 30
0.0
 10
-17.78663723296044
 20
1.656143611735685
 30
0.0
 10
-17.79743005301419
 20
1.663004320113234
 30
0.0
 10
-17.80807181779787
 20
1.67015812376815
 30
0.0
 10
-17.81871358258155
 20
1.677311927423066
 30
0.0
 10
-17.8291925258667
 20
1.684753874322969
 30
0.0
 10
-17.83967146915185
 20
1.692195821222873
 30
0.0
 10
-17.84997604077581
 20
1.699920336134991
 30
0.0
 10
-17.86028061239978
 20
1.70764485104711
 30
0.0
 10
-17.87039951921403
 20
1.715645747402076
 30
0.0
 10
-17.88051842602828
 20
1.723646643757042
 30
0.0
 10
-17.89044067205008
 20
1.731917138723882
 30
0.0
 10
-17.90036291807189
 20
1.740187633690722
 30
0.0
 10
-17.91007784354657
 20
1.748720366398425
 30
0.0
 10
-17.91979276902124
 20
1.757253099106129
 30
0.0
 10
-17.92929008810881
 20
1.766040151916798
 30
0.0
 10
-17.93878740719639
 20
1.774827204727467
 30
0.0
 10
-17.94805724400599
 20
1.783860127436403
 30
0.0
 10
-17.9573270808156
 20
1.792893050145338
 30
0.0
 10
-17.96636000352453
 20
1.802162886954943
 30
0.0
 10
-17.97539292623347
 20
1.811432723764548
 30
0.0
 10
-17.98417997904414
 20
1.820930042852119
 30
0.0
 10
-17.99296703185481
 20
1.830427361939691
 30
0.0
 10
-18.00149976456252
 20
1.84014228741437
 30
0.0
 10
-18.01003249727022
 20
1.84985721288905
 30
0.0
 10
-18.01830299223705
 20
1.859779458910853
 30
0.0
 10
-18.02657348720389
 20
1.869701704932655
 30
0.0
 10
-18.03457438355886
 20
1.879820611746909
 30
0.0
 10
-18.04257527991383
 20
1.889939518561162
 30
0.0
 10
-18.05029979482594
 20
1.900244090185123
 30
0.0
 10
-18.05802430973806
 20
1.910548661809083
 30
0.0
 10
-18.06546625663797
 20
1.921027605094233
 30
0.0
 10
-18.07290820353787
 20
1.931506548379383
 30
0.0
 10
-18.08006200719278
 20
1.942148313163063
 30
0.0
 10
-18.0872158108477
 20
1.952790077946742
 30
0.0
 10
-18.09407651922526
 20
1.963582898000493
 30
0.0
 10
-18.10093722760281
 20
1.974375718054244
 30
0.0
 10
-18.10750052048965
 20
1.985307652533489
 30
0.0
 10
-18.11406381337649
 20
1.996239587012734
 30
0.0
 10
-18.12032600774833
 20
2.007298562113272
 30
0.0
 10
-18.12658820212017
 20
2.018357537213809
 30
0.0
 10
-18.13254625428949
 20
2.029531387744846
 30
0.0
 10
-18.13850430645881
 20
2.040705238275882
 30
0.0
 10
-18.14415581105541
 20
2.051981748866918
 30
0.0
 10
-18.14980731565201
 20
2.063258259457954
 30
0.0
 10
-18.15515050151891
 20
2.074625205127496
 30
0.0
 10
-18.16049368738581
 20
2.085992150797039
 30
0.0
 10
-18.16552741049843
 20
2.097437336624601
 30
0.0
 10
-18.17056113361105
 20
2.108882522452163
 30
0.0
 10
-18.17528486715127
 20
2.120393822111088
 30
0.0
 10
-18.18000860069149
 20
2.131905121770012
 30
0.0
 10
-18.18442242242899
 20
2.143470514696865
 30
0.0
 10
-18.18883624416648
 20
2.155035907623719
 30
0.0
 10
-18.19294082131861
 20
2.166643514620163
 30
0.0
 10
-18.19704539847073
 20
2.178251121616606
 30
0.0
 10
-18.20084197022777
 20
2.189889238701227
 30
0.0
 10
-18.2046385419848
 20
2.201527355785848
 30
0.0
 10
-18.20812889990045
 20
2.213184486136181
 30
0.0
 10
-18.21161925781609
 20
2.224841616486515
 30
0.0
 10
-18.21480572427347
 20
2.236506500334939
 30
0.0
 10
-18.21799219073086
 20
2.248171384183364
 30
0.0
 10
-18.22087759570133
 20
2.259833026554402
 30
0.0
 10
-18.2237630006718
 20
2.271494668925439
 30
0.0
 10
-18.22635065698852
 20
2.283142365125867
 30
0.0
 10
-18.22893831330524
 20
2.294790061326294
 30
0.0
 10
-18.23123199067543
 20
2.306413420123017
 30
0.0
 10
-18.23352566804563
 20
2.31803677891974
 30
0.0
 10
-18.23552956602459
 20
2.329625743363344
 30
0.0
 10
-18.23753346400355
 20
2.341214707806949
 30
0.0
 10
-18.23925218415043
 20
2.352759573680924
 30
0.0
 10
-18.2409709042973
 20
2.364304439554899
 30
0.0
 10
-18.24240942172756
 20
2.375795871451458
 30
0.0
 10
-18.24384793915781
 20
2.387287303348017
 30
0.0
 10
-18.24501157369988
 20
2.398716348391098
 30
0.0
 10
-18.24617520824194
 20
2.410145393434179
 30
0.0
 10
-18.24706959539674
 20
2.42150349268833
 30
0.0
 10
-18.24796398255153
 20
2.43286159194248
 30
0.0
 10
-18.24859504444313
 20
2.444140589562853
 30
0.0
 10
-18.24922610633473
 20
2.455419587183226
 30
0.0
 10
-18.24960002282868
 20
2.466611737376752
 30
0.0
 10
-18.24997393932263
 20
2.477803887570279
 30
0.0
 10
-18.25009711947584
 20
12.80140185945108
 30
0.0
 10
-18.25022029962906
 20
23.12499983133188
 30
0.0
 10
-18.25017410707161
 20
23.12916157078718
 30
0.0
 10
-18.25012791451415
 20
23.13332331024249
 30
0.0
 10
-18.24998769582892
 20
23.13752036656506
 30
0.0
 10
-18.24984747714369
 20
23.14171742288763
 30
0.0
 10
-18.24961082893434
 20
23.14594704699527
 30
0.0
 10
-18.24937418072499
 20
23.15017667110291
 30
0.0
 10
-18.24903878554194
 20
23.15443595832322
 30
0.0
 10
-18.24870339035889
 20
23.15869524554353
 30
0.0
 10
-18.24826702740562
 20
23.16298113743468
 30
0.0
 10
-18.24783066445234
 20
23.16726702932583
 30
0.0
 10
-18.24729122041599
 20
23.17157631628704
 30
0.0
 10
-18.24675177637965
 20
23.17588560324825
 30
0.0
 10
-18.24610725632457
 20
23.18021492795099
 30
0.0
 10
-18.24546273626949
 20
23.18454425265373
 30
0.0
 10
-18.24471127452738
 20
23.18889011432008
 30
0.0
 10
-18.24395981278527
 20
23.19323597598644
 30
0.0
 10
-18.24309968377145
 20
23.19759473553521
 30
0.0
 10
-18.24223955475763
 20
23.20195349508398
 30
0.0
 10
-18.24126918363886
 20
23.20632138115914
 30
0.0
 10
-18.24029881252009
 20
23.2106892672343
 30
0.0
 10
-18.23921678565617
 20
23.21506238312345
 30
0.0
 10
-18.23813475879224
 20
23.21943549901259
 30
0.0
 10
-18.23693983387072
 20
23.22380983045574
 30
0.0
 10
-18.2357449089492
 20
23.2281841618989
 30
0.0
 10
-18.23443602473083
 20
23.23255558578028
 30
0.0
 10
-18.23312714051246
 20
23.23692700966165
 30
0.0
 10
-18.23170342610358
 20
23.24129130356839
 30
0.0
 10
-18.23027971169469
 20
23.24565559747512
 30
0.0
 10
-18.22874049526264
 20
23.25000845009879
 30
0.0
 10
-18.22720127883059
 20
23.25436130272245
 30
0.0
 10
-18.22554609567903
 20
23.25869832507002
 30
0.0
 10
-18.22389091252747
 20
23.26303534741759
 30
0.0
 10
-18.22211951244989
 20
23.26735208478969
 30
0.0
 10
-18.22034811237231
 20
23.27166882216178
 30
0.0
 10
-18.21846046620507
 20
23.27596076684712
 30
0.0
 10
-18.21657282003784
 20
23.28025271153246
 30
0.0
 10
-18.21456912533776
 20
23.28451531615853
 30
0.0
 10
-18.21256543063767
 20
23.28877792078461
 30
0.0
 10
-18.21044611641395
 20
23.29300661225625
 30
0.0
 10
-18.20832680219022
 20
23.29723530372789
 30
0.0
 10
-18.20609253262672
 20
23.30142549767703
 30
0.0
 10
-18.20385826306323
 20
23.30561569162617
 30
0.0
 10
-18.20150994017379
 20
23.30976280728887
 30
0.0
 10
-18.19916161728435
 20
23.31390992295157
 30
0.0
 10
-18.19670038245178
 20
23.31800939838129
 30
0.0
 10
-18.19423914761921
 20
23.322108873811
 30
0.0
 10
-18.19166638197763
 20
23.32615618133116
 30
0.0
 10
-18.18909361633605
 20
23.33020348885131
 30
0.0
 10
-18.18641093996545
 20
23.3341941506452
 30
0.0
 10
-18.18372826359486
 20
23.33818481243908
 30
0.0
 10
-18.1809375335074
 20
23.34211441617101
 30
0.0
 10
-18.17814680341994
 20
23.34604401990294
 30
0.0
 10
-18.17525011032789
 20
23.34990823426192
 30
0.0
 10
-18.17235341723585
 20
23.35377244862091
 30
0.0
 10
-18.16935308110273
 20
23.35756703867625
 30
0.0
 10
-18.16635274496962
 20
23.3613616287316
 30
0.0
 10
-18.16325130935706
 20
23.36508247098978
 30
0.0
 10
-18.16014987374449
 20
23.36880331324795
 30
0.0
 10
-18.1569500989791
 20
23.37244641030095
 30
0.0
 10
-18.15375032421372
 20
23.37608950735396
 30
0.0
 10
-18.15045517940972
 20
23.3796510020118
 30
0.0
 10
-18.14716003460571
 20
23.38321249666964
 30
0.0
 10
-18.14377268858986
 20
23.38668868547325
 30
0.0
 10
-18.14038534257401
 20
23.39016487427685
 30
0.0
 10
-18.13690915377041
 20
23.3935522202927
 30
0.0
 10
-18.13343296496681
 20
23.39693956630855
 30
0.0
 10
-18.12987147030897
 20
23.40023471111255
 30
0.0
 10
-18.12630997565113
 20
23.40352985591655
 30
0.0
 10
-18.12266687859812
 20
23.40672963068194
 30
0.0
 10
-18.11902378154512
 20
23.40992940544733
 30
0.0
 10
-18.11530293928695
 20
23.41303084105989
 30
0.0
 10
-18.11158209702877
 20
23.41613227667245
 30
0.0
 10
-18.10778750697343
 20
23.41913261280556
 30
0.0
 10
-18.10399291691808
 20
23.42213294893867
 30
0.0
 10
-18.1001287025591
 20
23.42502964203072
 30
0.0
 10
-18.09626448820011
 20
23.42792633512277
 30
0.0
 10
-18.09233488446818
 20
23.43071706521024
 30
0.0
 10
-18.08840528073625
 20
23.4335077952977
 30
0.0
 10
-18.08441461894237
 20
23.43619047166829
 30
0.0
 10
-18.08042395714848
 20
23.43887314803888
 30
0.0
 10
-18.07637664962833
 20
23.44144591368046
 30
0.0
 10
-18.07232934210817
 20
23.44401867932204
 30
0.0
 10
-18.06822986667846
 20
23.4464799141546
 30
0.0
 10
-18.06413039124874
 20
23.44894114898717
 30
0.0
 10
-18.05998327558604
 20
23.45128947187661
 30
0.0
 10
-18.05583615992334
 20
23.45363779476606
 30
0.0
 10
-18.0516459659742
 20
23.45587206432955
 30
0.0
 10
-18.04745577202506
 20
23.45810633389304
 30
0.0
 10
-18.04322708055342
 20
23.46022564811677
 30
0.0
 10
-18.03899838908178
 20
23.4623449623405
 30
0.0
 10
-18.0347357844557
 20
23.46434865704058
 30
0.0
 10
-18.03047317982963
 20
23.46635235174067
 30
0.0
 10
-18.02618123514429
 20
23.46823999790791
 30
0.0
 10
-18.02188929045895
 20
23.47012764407514
 30
0.0
 10
-18.01757255308686
 20
23.47189904415272
 30
0.0
 10
-18.01325581571476
 20
23.4736704442303
 30
0.0
 10
-18.00891879336719
 20
23.47532562738186
 30
0.0
 10
-18.00458177101963
 20
23.47698081053342
 30
0.0
 10
-18.00022891839596
 20
23.47852002696547
 30
0.0
 10
-17.99587606577229
 20
23.48005924339752
 30
0.0
 10
-17.99151177186556
 20
23.48148295780641
 30
0.0
 10
-17.98714747795883
 20
23.48290667221529
 30
0.0
 10
-17.98277605407745
 20
23.48421555643365
 30
0.0
 10
-17.97840463019608
 20
23.48552444065202
 30
0.0
 10
-17.97403029875292
 20
23.48671936557355
 30
0.0
 10
-17.96965596730976
 20
23.48791429049507
 30
0.0
 10
-17.96528285142062
 20
23.488996317359
 30
0.0
 10
-17.96090973553148
 20
23.49007834422292
 30
0.0
 10
-17.95654184945631
 20
23.49104871534168
 30
0.0
 10
-17.95217396338115
 20
23.49201908646045
 30
0.0
 10
-17.94781520383238
 20
23.49287921547428
 30
0.0
 10
-17.94345644428361
 20
23.4937393444881
 30
0.0
 10
-17.93911058261726
 20
23.49449080623021
 30
0.0
 10
-17.93476472095091
 20
23.49524226797232
 30
0.0
 10
-17.93043539624817
 20
23.49588678802739
 30
0.0
 10
-17.92610607154543
 20
23.49653130808247
 30
0.0
 10
-17.92179678458422
 20
23.49707075211882
 30
0.0
 10
-17.91748749762301
 20
23.49761019615516
 30
0.0
 10
-17.91320160573185
 20
23.49804655910844
 30
0.0
 10
-17.9089157138407
 20
23.49848292206172
 30
0.0
 10
-17.9046564266204
 20
23.49881831724476
 30
0.0
 10
-17.90039713940009
 20
23.49915371242781
 30
0.0
 10
-17.89616751529245
 20
23.49939036063716
 30
0.0
 10
-17.89193789118481
 20
23.49962700884651
 30
0.0
 10
-17.88774083486224
 20
23.49976722753174
 30
0.0
 10
-17.88354377853967
 20
23.49990744621697
 30
0.0
 10
-0.0041489642485466
 20
23.49995363877443
 30
0.0
 10
17.87517549949488
 20
23.49999983133189
 30
0.0
 10
17.87933723895017
 20
23.49995363877444
 30
0.0
 10
17.88349897840548
 20
23.49990744621698
 30
0.0
 10
17.88769603472804
 20
23.49976722753175
 30
0.0
 10
17.89189309105063
 20
23.49962700884652
 30
0.0
 10
17.89612271515827
 20
23.49939036063716
 30
0.0
 10
17.90035233926591
 20
23.49915371242781
 30
0.0
 10
17.90461162648621
 20
23.49881831724476
 30
0.0
 10
17.90887091370652
 20
23.49848292206172
 30
0.0
 10
17.91315680559768
 20
23.49804655910845
 30
0.0
 10
17.91744269748884
 20
23.49761019615518
 30
0.0
 10
17.92175198445004
 20
23.49707075211883
 30
0.0
 10
17.92606127141125
 20
23.49653130808248
 30
0.0
 10
17.93039059611399
 20
23.4958867880274
 30
0.0
 10
17.93471992081673
 20
23.49524226797232
 30
0.0
 10
17.93906578248308
 20
23.49449080623021
 30
0.0
 10
17.94341164414942
 20
23.4937393444881
 30
0.0
 10
17.9477704036982
 20
23.49287921547428
 30
0.0
 10
17.95212916324698
 20
23.49201908646046
 30
0.0
 10
17.95649704932213
 20
23.49104871534169
 30
0.0
 10
17.9608649353973
 20
23.49007834422292
 30
0.0
 10
17.96523805128644
 20
23.48899631735899
 30
0.0
 10
17.96961116717558
 20
23.48791429049506
 30
0.0
 10
17.97398549861873
 20
23.48671936557354
 30
0.0
 10
17.9783598300619
 20
23.48552444065202
 30
0.0
 10
17.98273125394327
 20
23.48421555643365
 30
0.0
 10
17.98710267782464
 20
23.48290667221529
 30
0.0
 10
17.99146697173138
 20
23.48148295780641
 30
0.0
 10
17.99583126563811
 20
23.48005924339752
 30
0.0
 10
18.00018411826177
 20
23.47852002696547
 30
0.0
 10
18.00453697088545
 20
23.47698081053342
 30
0.0
 10
18.00887399323301
 20
23.47532562738186
 30
0.0
 10
18.01321101558058
 20
23.4736704442303
 30
0.0
 10
18.01752775295268
 20
23.47189904415271
 30
0.0
 10
18.02184449032478
 20
23.47012764407513
 30
0.0
 10
18.02613643501011
 20
23.4682399979079
 30
0.0
 10
18.03042837969545
 20
23.46635235174067
 30
0.0
 10
18.03469098432153
 20
23.46434865704058
 30
0.0
 10
18.03895358894761
 20
23.4623449623405
 30
0.0
 10
18.04318228041924
 20
23.46022564811678
 30
0.0
 10
18.04741097189089
 20
23.45810633389305
 30
0.0
 10
18.05160116584003
 20
23.45587206432955
 30
0.0
 10
18.05579135978916
 20
23.45363779476606
 30
0.0
 10
18.05993847545187
 20
23.45128947187661
 30
0.0
 10
18.06408559111457
 20
23.44894114898717
 30
0.0
 10
18.06818506654428
 20
23.4464799141546
 30
0.0
 10
18.072284541974
 20
23.44401867932204
 30
0.0
 10
18.07633184949415
 20
23.44144591368046
 30
0.0
 10
18.08037915701431
 20
23.43887314803888
 30
0.0
 10
18.08436981880818
 20
23.43619047166828
 30
0.0
 10
18.08836048060207
 20
23.43350779529769
 30
0.0
 10
18.092290084334
 20
23.43071706521022
 30
0.0
 10
18.09621968806593
 20
23.42792633512276
 30
0.0
 10
18.10008390242491
 20
23.42502964203072
 30
0.0
 10
18.1039481167839
 20
23.42213294893867
 30
0.0
 10
18.10774270683924
 20
23.41913261280556
 30
0.0
 10
18.11153729689459
 20
23.41613227667245
 30
0.0
 10
18.11525813915276
 20
23.41303084105989
 30
0.0
 10
18.11897898141094
 20
23.40992940544732
 30
0.0
 10
18.12262207846394
 20
23.40672963068193
 30
0.0
 10
18.12626517551695
 20
23.40352985591654
 30
0.0
 10
18.12982667017479
 20
23.40023471111254
 30
0.0
 10
18.13338816483263
 20
23.39693956630854
 30
0.0
 10
18.13686435363623
 20
23.39355222029269
 30
0.0
 10
18.14034054243984
 20
23.39016487427684
 30
0.0
 10
18.14372788845568
 20
23.38668868547324
 30
0.0
 10
18.14711523447153
 20
23.38321249666964
 30
0.0
 10
18.15041037927553
 20
23.37965100201179
 30
0.0
 10
18.15370552407953
 20
23.37608950735395
 30
0.0
 10
18.15690529884492
 20
23.37244641030095
 30
0.0
 10
18.16010507361032
 20
23.36880331324794
 30
0.0
 10
18.16320650922288
 20
23.36508247098977
 30
0.0
 10
18.16630794483543
 20
23.36136162873159
 30
0.0
 10
18.16930828096855
 20
23.35756703867624
 30
0.0
 10
18.17230861710167
 20
23.3537724486209
 30
0.0
 10
18.17520531019371
 20
23.34990823426192
 30
0.0
 10
18.17810200328575
 20
23.34604401990293
 30
0.0
 10
18.18089273337322
 20
23.342114416171
 30
0.0
 10
18.18368346346069
 20
23.33818481243907
 30
0.0
 10
18.18636613983128
 20
23.33419415064519
 30
0.0
 10
18.18904881620186
 20
23.33020348885131
 30
0.0
 10
18.19162158184345
 20
23.32615618133116
 30
0.0
 10
18.19419434748504
 20
23.322108873811
 30
0.0
 10
18.1966555823176
 20
23.31800939838129
 30
0.0
 10
18.19911681715017
 20
23.31390992295157
 30
0.0
 10
18.20146514003961
 20
23.30976280728887
 30
0.0
 10
18.20381346292904
 20
23.30561569162617
 30
0.0
 10
18.20604773249254
 20
23.30142549767703
 30
0.0
 10
18.20828200205604
 20
23.29723530372789
 30
0.0
 10
18.21040131627976
 20
23.29300661225625
 30
0.0
 10
18.21252063050349
 20
23.28877792078461
 30
0.0
 10
18.21452432520358
 20
23.28451531615853
 30
0.0
 10
18.21652801990367
 20
23.28025271153245
 30
0.0
 10
18.2184156660709
 20
23.27596076684711
 30
0.0
 10
18.22030331223813
 20
23.27166882216178
 30
0.0
 10
18.22207471231571
 20
23.26735208478969
 30
0.0
 10
18.22384611239329
 20
23.26303534741759
 30
0.0
 10
18.22550129554484
 20
23.25869832507002
 30
0.0
 10
18.22715647869641
 20
23.25436130272245
 30
0.0
 10
18.22869569512846
 20
23.25000845009879
 30
0.0
 10
18.2302349115605
 20
23.24565559747512
 30
0.0
 10
18.23165862596939
 20
23.24129130356839
 30
0.0
 10
18.23308234037829
 20
23.23692700966165
 30
0.0
 10
18.23439122459665
 20
23.23255558578028
 30
0.0
 10
18.23570010881502
 20
23.2281841618989
 30
0.0
 10
18.23689503373654
 20
23.22380983045574
 30
0.0
 10
18.23808995865805
 20
23.21943549901258
 30
0.0
 10
18.23917198552198
 20
23.21506238312344
 30
0.0
 10
18.24025401238591
 20
23.2106892672343
 30
0.0
 10
18.24122438350468
 20
23.20632138115914
 30
0.0
 10
18.24219475462345
 20
23.20195349508398
 30
0.0
 10
18.24305488363727
 20
23.19759473553521
 30
0.0
 10
18.24391501265109
 20
23.19323597598644
 30
0.0
 10
18.2446664743932
 20
23.18889011432009
 30
0.0
 10
18.24541793613531
 20
23.18454425265374
 30
0.0
 10
18.24606245619039
 20
23.180214927951
 30
0.0
 10
18.24670697624547
 20
23.17588560324826
 30
0.0
 10
18.24724642028182
 20
23.17157631628705
 30
0.0
 10
18.24778586431817
 20
23.16726702932584
 30
0.0
 10
18.24822222727144
 20
23.16298113743468
 30
0.0
 10
18.24865859022471
 20
23.15869524554353
 30
0.0
 10
18.24899398540776
 20
23.15443595832323
 30
0.0
 10
18.2493293805908
 20
23.15017667110292
 30
0.0
 10
18.24956602880016
 20
23.14594704699528
 30
0.0
 10
18.24980267700951
 20
23.14171742288764
 30
0.0
 10
18.24994289569474
 20
23.13752036656506
 30
0.0
 10
18.25008311437997
 20
23.13332331024249
 30
0.0
 10
18.25012930693742
 20
23.12916157078719
 30
0.0
 10
18.25017549949488
 20
23.12499983133189
 30
0.0
  0
SPLINE
  5
4B
330
1F
100
AcDbEntity
  8
DEFAULT
100
AcDbSpline
210
0.0
220
0.0
230
1.0
 70
     8
 71
     2
 72
   252
 73
   249
 74
     0
 42
0.0000000001
 43
0.0000000001
 40
0.0
 40
0.0
 40
0.0
 40
1.0
 40
1.0
 40
2.0
 40
2.0
 40
3.0
 40
3.0
 40
4.0
 40
4.0
 40
5.0
 40
5.0
 40
6.0
 40
6.0
 40
7.0
 40
7.0
 40
8.0
 40
8.0
 40
9.0
 40
9.0
 40
10.0
 40
10.0
 40
11.0
 40
11.0
 40
12.0
 40
12.0
 40
13.0
 40
13.0
 40
14.0
 40
14.0
 40
15.0
 40
15.0
 40
16.0
 40
16.0
 40
17.0
 40
17.0
 40
18.0
 40
18.0
 40
19.0
 40
19.0
 40
20.0
 40
20.0
 40
21.0
 40
21.0
 40
22.0
 40
22.0
 40
23.0
 40
23.0
 40
24.0
 40
24.0
 40
25.0
 40
25.0
 40
26.0
 40
26.0
 40
27.0
 40
27.0
 40
28.0
 40
28.0
 40
29.0
 40
29.0
 40
30.0
 40
30.0
 40
31.0
 40
31.0
 40
32.0
 40
32.0
 40
33.0
 40
33.0
 40
34.0
 40
34.0
 40
35.0
 40
35.0
 40
36.0
 40
36.0
 40
37.0
 40
37.0
 40
38.0
 40
38.0
 40
39.0
 40
39.0
 40
40.0
 40
40.0
 40
41.0
 40
41.0
 40
42.0
 40
42.0
 40
43.0
 40
43.0
 40
44.0
 40
44.0
 40
45.0
 40
45.0
 40
46.0
 40
46.0
 40
47.0
 40
47.0
 40
48.0
 40
48.0
 40
49.0
 40
49.0
 40
50.0
 40
50.0
 40
51.0
 40
51.0
 40
52.0
 40
52.0
 40
53.0
 40
53.0
 40
54.0
 40
54.0
 40
55.0
 40
55.0
 40
56.0
 40
56.0
 40
57.0
 40
57.0
 40
58.0
 40
58.0
 40
59.0
 40
59.0
 40
60.0
 40
60.0
 40
61.0
 40
61.0
 40
62.0
 40
62.0
 40
63.0
 40
63.0
 40
64.0
 40
64.0
 40
65.0
 40
65.0
 40
66.0
 40
66.0
 40
67.0
 40
67.0
 40
68.0
 40
68.0
 40
69.0
 40
69.0
 40
70.0
 40
70.0
 40
71.0
 40
71.0
 40
72.0
 40
72.0
 40
73.0
 40
73.0
 40
74.0
 40
74.0
 40
75.0
 40
75.0
 40
76.0
 40
76.0
 40
77.0
 40
77.0
 40
78.0
 40
78.0
 40
79.0
 40
79.0
 40
80.0
 40
80.0
 40
81.0
 40
81.0
 40
82.0
 40
82.0
 40
83.0
 40
83.0
 40
84.0
 40
84.0
 40
85.0
 40
85.0
 40
86.0
 40
86.0
 40
87.0
 40
87.0
 40
88.0
 40
88.0
 40
89.0
 40
89.0
 40
90.0
 40
90.0
 40
91.0
 40
91.0
 40
92.0
 40
92.0
 40
93.0
 40
93.0
 40
94.0
 40
94.0
 40
95.0
 40
95.0
 40
96.0
 40
96.0
 40
97.0
 40
97.0
 40
98.0
 40
98.0
 40
99.0
 40
99.0
 40
100.0
 40
100.0
 40
101.0
 40
101.0
 40
102.0
 40
102.0
 40
103.0
 40
103.0
 40
104.0
 40
104.0
 40
105.0
 40
105.0
 40
106.0
 40
106.0
 40
107.0
 40
107.0
 40
108.0
 40
108.0
 40
109.0
 40
109.0
 40
110.0
 40
110.0
 40
111.0
 40
111.0
 40
112.0
 40
112.0
 40
113.0
 40
113.0
 40
114.0
 40
114.0
 40
115.0
 40
115.0
 40
116.0
 40
116.0
 40
117.0
 40
117.0
 40
118.0
 40
118.0
 40
119.0
 40
119.0
 40
120.0
 40
120.0
 40
121.0
 40
121.0
 40
122.0
 40
122.0
 40
123.0
 40
123.0
 40
124.0
 40
124.0
 40
124.0
 10
-14.53975030063606
 20
1.290077783707143
 30
0.0
 10
-14.54554511389074
 20
1.290296946721696
 30
0.0
 10
-14.55133992714542
 20
1.290516109736249
 30
0.0
 10
-14.55712422172146
 20
1.290928213292607
 30
0.0
 10
-14.5629085162975
 20
1.291340316848964
 30
0.0
 10
-14.5686758699536
 20
1.29194490339289
 30
0.0
 10
-14.5744432236097
 20
1.292549489936816
 30
0.0
 10
-14.58018723291387
 20
1.293345888202243
 30
0.0
 10
-14.58593124221804
 20
1.29414228646767
 30
0.0
 10
-14.59164552965729
 20
1.295129612221998
 30
0.0
 10
-14.59735981709655
 20
1.296116937976326
 30
0.0
 10
-14.60303803815777
 20
1.297294095002175
 30
0.0
 10
-14.60871625921899
 20
1.298471252028023
 30
0.0
 10
-14.61435210943317
 20
1.299836933340355
 30
0.0
 10
-14.61998795964736
 20
1.301202614652686
 30
0.0
 10
-14.62557518158941
 20
1.302755303949932
 30
0.0
 10
-14.63116240353147
 20
1.304307993247177
 30
0.0
 10
-14.63669479376776
 20
1.306045966594775
 30
0.0
 10
-14.64222718400406
 20
1.307783939942373
 30
0.0
 10
-14.64769859998002
 20
1.309705267686832
 30
0.0
 10
-14.65317001595597
 20
1.311626595431292
 30
0.0
 10
-14.6585743828161
 20
1.313729144342668
 30
0.0
 10
-14.66397874967622
 20
1.315831693254045
 30
0.0
 10
-14.66931006700896
 20
1.318113128894442
 30
0.0
 10
-14.67464138434169
 20
1.320394564534838
 30
0.0
 10
-14.67989373284158
 20
1.322852353850308
 30
0.0
 10
-14.68514608134148
 20
1.325310143165778
 30
0.0
 10
-14.69031362938135
 20
1.327941557298748
 30
0.0
 10
-14.69548117742122
 20
1.330572971431718
 30
0.0
 10
-14.70055818752695
 20
1.33337508875081
 30
0.0
 10
-14.70563519763267
 20
1.336177206069902
 30
0.0
 10
-14.71061603285344
 20
1.33914691541379
 30
0.0
 10
-14.7155968680742
 20
1.342116624757677
 30
0.0
 10
-14.72047599824115
 20
1.345250628889374
 30
0.0
 10
-14.72535512840811
 20
1.348384633021072
 30
0.0
 10
-14.73012713627445
 20
1.351679452288822
 30
0.0
 10
-14.7348991441408
 20
1.354974271556573
 30
0.0
 10
-14.73955873139649
 20
1.358426247757269
 30
0.0
 10
-14.74421831865218
 20
1.361878223957965
 30
0.0
 10
-14.7487603118066
 20
1.365483524398813
 30
0.0
 10
-14.75330230496102
 20
1.36908882483966
 30
0.0
 10
-14.75382881289593
 20
1.369536699212718
 30
0.0
 10
-14.75435532083083
 20
1.369984573585776
 30
0.0
 10
-14.75486603731917
 20
1.370450374753764
 30
0.0
 10
-14.75537675380751
 20
1.370916175921753
 30
0.0
 10
-14.75587106879287
 20
1.371399347480107
 30
0.0
 10
-14.75636538377824
 20
1.37188251903846
 30
0.0
 10
-14.75684270679601
 20
1.372382483833493
 30
0.0
 10
-14.75732002981377
 20
1.372882448628527
 30
0.0
 10
-14.75777979069639
 20
1.37339860944685
 30
0.0
 10
-14.75823955157901
 20
1.373914770265173
 30
0.0
 10
-14.75868120113711
 20
1.37444651054707
 30
0.0
 10
-14.75912285069521
 20
1.374978250828967
 30
0.0
 10
-14.75954586137358
 20
1.375524935404882
 30
0.0
 10
-14.75996887205195
 20
1.376071619980797
 30
0.0
 10
-14.76037273855974
 20
1.376632595830054
 30
0.0
 10
-14.76077660506752
 20
1.377193571679312
 30
0.0
 10
-14.76116084498178
 20
1.377768168710153
 30
0.0
 10
-14.76154508489604
 20
1.378342765740993
 30
0.0
 10
-14.76190923923801
 20
1.378930297591009
 30
0.0
 10
-14.76227339357998
 20
1.379517829441025
 30
0.0
 10
-14.76261702736334
 20
1.380117594297027
 30
0.0
 10
-14.7629606611467
 20
1.380717359153028
 30
0.0
 10
-14.76328336389715
 20
1.381328640589365
 30
0.0
 10
-14.7636060666476
 20
1.381939922025702
 30
0.0
 10
-14.76390745289319
 20
1.382561989860046
 30
0.0
 10
-14.76420883913879
 20
1.38318405769439
 30
0.0
 10
-14.76448854887039
 20
1.38381616885994
 30
0.0
 10
-14.76476825860198
 20
1.38444828002549
 30
0.0
 10
-14.76502595770325
 20
1.385089679458579
 30
0.0
 10
-14.76528365680451
 20
1.385731078891668
 30
0.0
 10
-14.76551903745107
 20
1.386381000433691
 30
0.0
 10
-14.76575441809762
 20
1.387030921975714
 30
0.0
 10
-14.76596719912473
 20
1.387688589288314
 30
0.0
 10
-14.76617998015184
 20
1.388346256600915
 30
0.0
 10
-14.76636990739024
 20
1.38901088409333
 30
0.0
 10
-14.76655983462864
 20
1.389675511585744
 30
0.0
 10
-14.76672668120819
 20
1.390346305353197
 30
0.0
 10
-14.76689352778773
 20
1.391017099120651
 30
0.0
 10
-14.76703709440836
 20
1.391693257892686
 30
0.0
 10
-14.76718066102899
 20
1.392369416664722
 30
0.0
 10
-14.76730077619882
 20
1.393050132762326
 30
0.0
 10
-14.76742089136865
 20
1.39373084885993
 30
0.0
 10
-14.76751741160879
 20
1.394415309160315
 30
0.0
 10
-14.76761393184893
 20
1.3950997694607
 30
0.0
 10
-14.76768674186491
 20
1.395787156368586
 30
0.0
 10
-14.7677595518809
 20
1.396474543276471
 30
0.0
 10
-14.76780856470036
 20
1.397164035700714
 30
0.0
 10
-14.76785757751983
 20
1.397853528124956
 30
0.0
 10
-14.76788273459643
 20
1.398544302459349
 30
0.0
 10
-14.76790789167304
 20
1.399235076793743
 30
0.0
 10
-14.76790916295637
 20
1.399926307900826
 30
0.0
 10
-14.76791043423971
 20
1.400617539007908
 30
0.0
 10
-14.76788781821122
 20
1.401308401204598
 30
0.0
 10
-14.76786520218273
 20
1.401999263401288
 30
0.0
 10
-14.76781872585751
 20
1.402688931445171
 30
0.0
 10
-14.76777224953229
 20
1.403378599489054
 30
0.0
 10
-14.76770196842681
 20
1.404066249564145
 30
0.0
 10
-14.76763168732132
 20
1.404753899639236
 30
0.0
 10
-14.76753768538713
 20
1.405438710340034
 30
0.0
 10
-14.76744368345293
 20
1.406123521040832
 30
0.0
 10
-14.76732607297636
 20
1.406804674353501
 30
0.0
 10
-14.76720846249979
 20
1.40748582766617
 30
0.0
 10
-14.76706738396783
 20
1.408162509945663
 30
0.0
 10
-14.76692630543587
 20
1.408839192225157
 30
0.0
 10
-14.76676192736837
 20
1.409510595167126
 30
0.0
 10
-14.76659754930087
 20
1.410181998109095
 30
0.0
 10
-14.76641006804922
 20
1.410847319715417
 30
0.0
 10
-14.76622258679757
 20
1.411512641321739
 30
0.0
 10
-14.76601222631016
 20
1.412171086858514
 30
0.0
 10
-14.76580186582275
 20
1.412829532395288
 30
0.0
 10
-14.76556887737748
 20
1.413480315342152
 30
0.0
 10
-14.76533588893221
 20
1.414131098289017
 30
0.0
 10
-14.76508055083631
 20
1.414773441278659
 30
0.0
 10
-14.76482521274041
 20
1.415415784268301
 30
0.0
 10
-14.76454782999802
 20
1.416048920015026
 30
0.0
 10
-14.76427044725562
 20
1.416682055761751
 30
0.0
 10
-14.76397135120344
 20
1.417305227978019
 30
0.0
 10
-14.76367225515125
 20
1.417928400194286
 30
0.0
 10
-14.76335180306277
 20
1.4185408644941
 30
0.0
 10
-14.76303135097429
 20
1.419153328793914
 30
0.0
 10
-14.76268992563301
 20
1.419754353582002
 30
0.0
 10
-14.76234850029173
 20
1.420355378370089
 30
0.0
 10
-14.76198650953395
 20
1.420944245715798
 30
0.0
 10
-14.76162451877618
 20
1.421533113061507
 30
0.0
 10
-14.76124239500379
 20
1.422109119556383
 30
0.0
 10
-14.76086027123141
 20
1.422685126051259
 30
0.0
 10
-14.76045847089543
 20
1.423247583649275
 30
0.0
 10
-14.76005667055945
 20
1.42381004124729
 30
0.0
 10
-14.75963567361474
 20
1.424358278086721
 30
0.0
 10
-14.75921467667004
 20
1.424906514926151
 30
0.0
 10
-14.75877498600205
 20
1.425439876132125
 30
0.0
 10
-14.75833529533405
 20
1.425973237338099
 30
0.0
 10
-14.75787743615806
 20
1.42649108580485
 30
0.0
 10
-14.75741957698206
 20
1.427008934271601
 30
0.0
 10
-14.75694409621583
 20
1.427510651423498
 30
0.0
 10
-14.7564686154496
 20
1.428012368575395
 30
0.0
 10
-14.7559760810601
 20
1.42849735510584
 30
0.0
 10
-14.75548354667059
 20
1.428982341636284
 30
0.0
 10
-14.75497454699549
 20
1.429450018223585
 30
0.0
 10
-14.75446554732039
 20
1.429917694810886
 30
0.0
 10
-14.75394069036536
 20
1.43036750281027
 30
0.0
 10
-14.75341583341032
 20
1.430817310809655
 30
0.0
 10
-14.75287574612269
 20
1.43124871292057
 30
0.0
 10
-14.75233565883506
 20
1.431680115031486
 30
0.0
 10
-14.75178098635499
 20
1.432092595939415
 30
0.0
 10
-14.75122631387491
 20
1.432505076847344
 30
0.0
 10
-14.7506577187647
 20
1.432898143839352
 30
0.0
 10
-14.75008912365449
 20
1.43329121083136
 30
0.0
 10
-14.74950728510719
 20
1.433664394384647
 30
0.0
 10
-14.7489254465599
 20
1.434037577937934
 30
0.0
 10
-14.748331059588
 20
1.434390432280683
 30
0.0
 10
-14.74773667261611
 20
1.434743286623432
 30
0.0
 10
-14.74713044722131
 20
1.435075390267289
 30
0.0
 10
-14.74652422182651
 20
1.435407493911147
 30
0.0
 10
-14.74590688215165
 20
1.435718450154695
 30
0.0
 10
-14.74528954247679
 20
1.436029406398244
 30
0.0
 10
-14.74466182594082
 20
1.436318843800866
 30
0.0
 10
-14.74403410940486
 20
1.436608281203488
 30
0.0
 10
-14.74339676582203
 20
1.436875854029054
 30
0.0
 10
-14.74275942223919
 20
1.437143426854621
 30
0.0
 10
-14.74211321292334
 20
1.43738881548448
 30
0.0
 10
-14.74146700360749
 20
1.43763420411434
 30
0.0
 10
-14.74081270046268
 20
1.437857115429102
 30
0.0
 10
-14.74015839731787
 20
1.438080026743863
 30
0.0
 10
-14.73949678191632
 20
1.438280194473536
 30
0.0
 10
-14.73883516651478
 20
1.438480362203209
 30
0.0
 10
-14.73816702916331
 20
1.438657547245261
 30
0.0
 10
-14.73749889181183
 20
1.438834732287313
 30
0.0
 10
-14.73682503060777
 20
1.438988722992282
 30
0.0
 10
-14.73615116940371
 20
1.439142713697251
 30
0.0
 10
-14.7354723892816
 20
1.439273326121564
 30
0.0
 10
-14.73479360915948
 20
1.439403938545878
 30
0.0
 10
-14.73411072092956
 20
1.439511016671573
 30
0.0
 10
-14.73342783269965
 20
1.439618094797267
 30
0.0
 10
-14.73274165207935
 20
1.439701510718357
 30
0.0
 10
-14.73205547145906
 20
1.439784926639447
 30
0.0
 10
-14.73136681809861
 20
1.439844580714706
 30
0.0
 10
-14.73067816473815
 20
1.439904234789964
 30
0.0
 10
-14.72998786124147
 20
1.43994005576195
 30
0.0
 10
-14.7292975577448
 20
1.439975876733935
 30
0.0
 10
-14.72860642868693
 20
1.439987821814106
 30
0.0
 10
-14.72791529962907
 20
1.439999766894277
 30
0.0
 10
-14.70324029962907
 20
1.43999985403213
 30
0.0
 10
-14.67856529962907
 20
1.439999941169983
 30
0.0
 10
-14.67822040396815
 20
1.440005890623304
 30
0.0
 10
-14.67787550830723
 20
1.440011840076624
 30
0.0
 10
-14.67753102303669
 20
1.440029681357345
 30
0.0
 10
-14.67718653776615
 20
1.440047522638066
 30
0.0
 10
-14.67684287278805
 20
1.440077234516898
 30
0.0
 10
-14.67649920780995
 20
1.440106946395731
 30
0.0
 10
-14.67615677205029
 20
1.440148493518594
 30
0.0
 10
-14.67581433629062
 20
1.440190040641457
 30
0.0
 10
-14.67547353721274
 20
1.440243373571545
 30
0.0
 10
-14.67513273813486
 20
1.440296706501632
 30
0.0
 10
-14.67479398125463
 20
1.440361761778241
 30
0.0
 10
-14.6744552243744
 20
1.440426817054849
 30
0.0
 10
-14.67411891277769
 20
1.440503517268887
 30
0.0
 10
-14.67378260118098
 20
1.440580217482925
 30
0.0
 10
-14.67344913504401
 20
1.440668471369023
 30
0.0
 10
-14.67311566890704
 20
1.440756725255121
 30
0.0
 10
-14.67278544502023
 20
1.440856427800226
 30
0.0
 10
-14.67245522113343
 20
1.440956130345332
 30
0.0
 10
-14.67212863242927
 20
1.441067162913666
 30
0.0
 10
-14.67180204372511
 20
1.441178195482
 30
0.0
 10
-14.67147947881058
 20
1.441300425956221
 30
0.0
 10
-14.67115691389605
 20
1.441422656430442
 30
0.0
 10
-14.67083875659023
 20
1.44155593936885
 30
0.0
 10
-14.67052059928441
 20
1.441689222307259
 30
0.0
 10
-14.67020722816179
 20
1.44183339911686
 30
0.0
 10
-14.66989385703918
 20
1.441977575926462
 30
0.0
 10
-14.66958564497918
 20
1.442132475051674
 30
0.0
 10
-14.66927743291919
 20
1.442287374176887
 30
0.0
 10
-14.66897474666249
 20
1.442452811303675
 30
0.0
 10
-14.66867206040579
 20
1.442618248430463
 30
0.0
 10
-14.6683752601179
 20
1.442794026705652
 30
0.0
 10
-14.66807845983002
 20
1.442969804980842
 30
0.0
 10
-14.66778789867279
 20
1.443155715246357
 30
0.0
 10
-14.66749733751556
 20
1.443341625511872
 30
0.0
 10
-14.66721336122688
 20
1.443537446553607
 30
0.0
 10
-14.66692938493821
 20
1.443733267595342
 30
0.0
 10
-14.66665233142068
 20
1.443938766406389
 30
0.0
 10
-14.66637527790315
 20
1.444144265217435
 30
0.0
 10
-14.66610547682197
 20
1.444359197275334
 30
0.0
 10
-14.6658356757408
 20
1.444574129333233
 30
0.0
 10
-14.66557344813152
 20
1.44479823889093
 30
0.0
 10
-14.66531122052225
 20
1.445022348448627
 30
0.0
 10
-14.66505687840878
 20
1.445255368838787
 30
0.0
 10
-14.66480253629531
 20
1.445488389228948
 30
0.0
 10
-14.66455638231861
 20
1.445730043181262
 30
0.0
 10
-14.6643102283419
 20
1.445971697133576
 30
0.0
 10
-14.66407255539989
 20
1.446221697104684
 30
0.0
 10
-14.66383488245788
 20
1.446471697075791
 30
0.0
 10
-14.66360597335694
 20
1.446729745591426
 30
0.0
 10
-14.663377064256
 20
1.446987794107061
 30
0.0
 10
-14.66315719137441
 20
1.447253584116018
 30
0.0
 10
-14.66293731849283
 20
1.447519374124975
 30
0.0
 10
-14.66272674345674
 20
1.447792589364467
 30
0.0
 10
-14.66251616842065
 20
1.448065804603958
 30
0.0
 10
-14.66231514179269
 20
1.448346119975936
 30
0.0
 10
-14.66211411516473
 20
1.448626435347914
 30
0.0
 10
-14.66192287614592
 20
1.448913517305902
 30
0.0
 10
-14.66173163712712
 20
1.449200599263891
 30
0.0
 10
-14.66155041327224
 20
1.449494106209873
 30
0.0
 10
-14.66136918941736
 20
1.449787613155855
 30
0.0
 10
-14.66119819636417
 20
1.450087195846737
 30
0.0
 10
-14.66102720331098
 20
1.450386778537619
 30
0.0
 10
-14.64742917032678
 20
1.475193304934752
 30
0.0
 10
-14.63383113734258
 20
1.499999831331884
 30
0.0
  0
SPLINE
  5
4C
330
1F
100
AcDbEntity
  8
DEFAULT
100
AcDbSpline
210
0.0
220
0.0
230
1.0
 70
     8
 71
     2
 72
   190
 73
   187
 74
     0
 42
0.0000000001
 43
0.0000000001
 40
0.0
 40
0.0
 40
0.0
 40
1.0
 40
1.0
 40
2.0
 40
2.0
 40
3.0
 40
3.0
 40
4.0
 40
4.0
 40
5.0
 40
5.0
 40
6.0
 40
6.0
 40
7.0
 40
7.0
 40
8.0
 40
8.0
 40
9.0
 40
9.0
 40
10.0
 40
10.0
 40
11.0
 40
11.0
 40
12.0
 40
12.0
 40
13.0
 40
13.0
 40
14.0
 40
14.0
 40
15.0
 40
15.0
 40
16.0
 40
16.0
 40
17.0
 40
17.0
 40
18.0
 40
18.0
 40
19.0
 40
19.0
 40
20.0
 40
20.0
 40
21.0
 40
21.0
 40
22.0
 40
22.0
 40
23.0
 40
23.0
 40
24.0
 40
24.0
 40
25.0
 40
25.0
 40
26.0
 40
26.0
 40
27.0
 40
27.0
 40
28.0
 40
28.0
 40
29.0
 40
29.0
 40
30.0
 40
30.0
 40
31.0
 40
31.0
 40
32.0
 40
32.0
 40
33.0
 40
33.0
 40
34.0
 40
34.0
 40
35.0
 40
35.0
 40
36.0
 40
36.0
 40
37.0
 40
37.0
 40
38.0
 40
38.0
 40
39.0
 40
39.0
 40
40.0
 40
40.0
 40
41.0
 40
41.0
 40
42.0
 40
42.0
 40
43.0
 40
43.0
 40
44.0
 40
44.0
 40
45.0
 40
45.0
 40
46.0
 40
46.0
 40
47.0
 40
47.0
 40
48.0
 40
48.0
 40
49.0
 40
49.0
 40
50.0
 40
50.0
 40
51.0
 40
51.0
 40
52.0
 40
52.0
 40
53.0
 40
53.0
 40
54.0
 40
54.0
 40
55.0
 40
55.0
 40
56.0
 40
56.0
 40
57.0
 40
57.0
 40
58.0
 40
58.0
 40
59.0
 40
59.0
 40
60.0
 40
60.0
 40
61.0
 40
61.0
 40
62.0
 40
62.0
 40
63.0
 40
63.0
 40
64.0
 40
64.0
 40
65.0
 40
65.0
 40
66.0
 40
66.0
 40
67.0
 40
67.0
 40
68.0
 40
68.0
 40
69.0
 40
69.0
 40
70.0
 40
70.0
 40
71.0
 40
71.0
 40
72.0
 40
72.0
 40
73.0
 40
73.0
 40
74.0
 40
74.0
 40
75.0
 40
75.0
 40
76.0
 40
76.0
 40
77.0
 40
77.0
 40
78.0
 40
78.0
 40
79.0
 40
79.0
 40
80.0
 40
80.0
 40
81.0
 40
81.0
 40
82.0
 40
82.0
 40
83.0
 40
83.0
 40
84.0
 40
84.0
 40
85.0
 40
85.0
 40
86.0
 40
86.0
 40
87.0
 40
87.0
 40
88.0
 40
88.0
 40
89.0
 40
89.0
 40
90.0
 40
90.0
 40
91.0
 40
91.0
 40
92.0
 40
92.0
 40
93.0
 40
93.0
 40
93.0
 10
-14.54522029962908
 20
1.499999831331884
 30
0.0
 10
-14.52876838393423
 20
0.8717278291243513
 30
0.0
 10
-14.51231646823939
 20
0.2434558269168186
 30
0.0
 10
-14.51213057476722
 20
0.2391694659014618
 30
0.0
 10
-14.51194468129505
 20
0.234883104886105
 30
0.0
 10
-14.51161179760217
 20
0.2306056482137364
 30
0.0
 10
-14.5112789139093
 20
0.2263281915413678
 30
0.0
 10
-14.51079943215875
 20
0.2220646783904726
 30
0.0
 10
-14.5103199504082
 20
0.2178011652395775
 30
0.0
 10
-14.50969443546696
 20
0.2135566183620816
 30
0.0
 10
-14.50906892052572
 20
0.2093120714845858
 30
0.0
 10
-14.50829810929932
 20
0.2050914912886616
 30
0.0
 10
-14.50752729807293
 20
0.2008709110927373
 30
0.0
 10
-14.50661209863727
 20
0.196679269751932
 30
0.0
 10
-14.50569689920162
 20
0.1924876284111267
 30
0.0
 10
-14.50463838973322
 20
0.1883298640067528
 30
0.0
 10
-14.50357988026482
 20
0.1841720996023788
 30
0.0
 10
-14.50237930777061
 20
0.1800531103060685
 30
0.0
 10
-14.5011787352764
 20
0.1759341210097582
 30
0.0
 10
-14.49983751412467
 20
0.171858759313034
 30
0.0
 10
-14.49849629297295
 20
0.1677833976163097
 30
0.0
 10
-14.49701600322711
 20
0.1637564646139695
 30
0.0
 10
-14.49553571348127
 20
0.1597295316116294
 30
0.0
 10
-14.49391809903841
 20
0.1557557713456819
 30
0.0
 10
-14.49230048459555
 20
0.1517820110797345
 30
0.0
 10
-14.49054745113199
 20
0.1478661049505466
 30
0.0
 10
-14.48879441766843
 20
0.1439501988213588
 30
0.0
 10
-14.48690803039469
 20
0.1400967600725996
 30
0.0
 10
-14.48502164312095
 20
0.1362433213238405
 30
0.0
 10
-14.48300412434877
 20
0.1324568896077196
 30
0.0
 10
-14.48098660557658
 20
0.1286704578915987
 30
0.0
 10
-14.47884033210084
 20
0.1249554939208008
 30
0.0
 10
-14.47669405862511
 20
0.1212405299500029
 30
0.0
 10
-14.47442155892383
 20
0.1176014102426196
 30
0.0
 10
-14.47214905922255
 20
0.1139622905352363
 30
0.0
 10
-14.46975301047811
 20
0.1104033022588854
 30
0.0
 10
-14.46735696173366
 20
0.1068443139825346
 30
0.0
 10
-14.46484018667885
 20
0.1033696499037412
 30
0.0
 10
-14.46232341162404
 20
0.0998949858249478
 30
0.0
 10
-14.45968887521671
 20
0.0965087393697378
 30
0.0
 10
-14.45705433880938
 20
0.0931224929145277
 30
0.0
 10
-14.45430514473946
 20
0.0898286533460514
 30
0.0
 10
-14.45155595066953
 20
0.086534813777575
 30
0.0
 10
-14.44869533770263
 20
0.0833372614964435
 30
0.0
 10
-14.44583472473573
 20
0.0801397092153119
 30
0.0
 10
-14.44286606289764
 20
0.0770422111881812
 30
0.0
 10
-14.43989740105956
 20
0.0739447131610505
 30
0.0
 10
-14.43682418766611
 20
0.0709509184828409
 30
0.0
 10
-14.43375097427266
 20
0.0679571238046313
 30
0.0
 10
-14.43057682980956
 20
0.0650705593996075
 30
0.0
 10
-14.42740268534646
 20
0.0621839949945838
 30
0.0
 10
-14.42413134920413
 20
0.0594080614613629
 30
0.0
 10
-14.4208600130618
 20
0.056632127928142
 30
0.0
 10
-14.41749533913005
 20
0.0539700955335218
 30
0.0
 10
-14.41413066519831
 20
0.0513080631389017
 30
0.0
 10
-14.41067661732618
 20
0.0487630679652312
 30
0.0
 10
-14.40722256945405
 20
0.0462180727915606
 30
0.0
 10
-14.40368321678006
 20
0.0437931130421891
 30
0.0
 10
-14.40014386410607
 20
0.0413681532928175
 30
0.0
 10
-14.39652337626447
 20
0.0390660857599771
 30
0.0
 10
-14.39290288842286
 20
0.0367640182271367
 30
0.0
 10
-14.38920553063146
 20
0.0345875549264176
 30
0.0
 10
-14.38550817284006
 20
0.0324110916256985
 30
0.0
 10
-14.38173830087551
 20
0.0303627966010823
 30
0.0
 10
-14.37796842891096
 20
0.0283145015764661
 30
0.0
 10
-14.37413048397726
 20
0.0263967878796815
 30
0.0
 10
-14.37029253904356
 20
0.0244790741828969
 30
0.0
 10
-14.36639104253999
 20
0.0226942010306563
 30
0.0
 10
-14.36248954603642
 20
0.0209093278784157
 30
0.0
 10
-14.35852909423098
 20
0.019259397990881
 30
0.0
 10
-14.35456864242554
 20
0.0176094681033462
 30
0.0
 10
-14.35055390104019
 20
0.0160964252269598
 30
0.0
 10
-14.34653915965485
 20
0.0145833823505733
 30
0.0
 10
-14.34247485836893
 20
0.0132090089681733
 30
0.0
 10
-14.33841055708302
 20
0.0118346355857733
 30
0.0
 10
-14.33430148396129
 20
0.010600550816689
 30
0.0
 10
-14.33019241083957
 20
0.0093664660476047
 30
0.0
 10
-14.32604340669153
 20
0.0082741237402073
 30
0.0
 10
-14.32189440254349
 20
0.00718178143281
 30
0.0
 10
-14.31771035522051
 20
0.0062324684517659
 30
0.0
 10
-14.31352630789752
 20
0.0052831554707217
 30
0.0
 10
-14.30931214653455
 20
0.0044779901809649
 30
0.0
 10
-14.30509798517158
 20
0.003672824891208
 30
0.0
 10
-14.30085867438029
 20
0.0030127558404188
 30
0.0
 10
-14.296619363589
 20
0.0023526867896297
 30
0.0
 10
-14.29235989760904
 20
0.0018384915907717
 30
0.0
 10
-14.28810043162908
 20
0.0013242963919137
 30
0.0
 10
-14.28382582844449
 20
0.0009565808071444
 30
0.0
 10
-14.2795512252599
 20
0.0005888652223751
 30
0.0
 10
-14.27526652068754
 20
0.0003680624494112
 30
0.0
 10
-14.27098181611518
 20
0.0001472596764472
 30
0.0
 10
-14.26669205787212
 20
0.0000736298382233
 30
0.0
 10
-14.26240229962906
 20
-0.0000000000000006
 30
0.0
 10
-13.29522029962906
 20
-0.0000000000000021
 30
0.0
 10
-12.32803829962907
 20
-0.0000000000000036
 30
0.0
 10
-12.32374854138601
 20
0.0000736298382209
 30
0.0
 10
-12.31945878314295
 20
0.0001472596764455
 30
0.0
 10
-12.31517407857059
 20
0.0003680624494095
 30
0.0
 10
-12.31088937399823
 20
0.0005888652223734
 30
0.0
 10
-12.30661477081364
 20
0.0009565808071427
 30
0.0
 10
-12.30234016762905
 20
0.0013242963919119
 30
0.0
 10
-12.29808070164909
 20
0.0018384915907699
 30
0.0
 10
-12.29382123566913
 20
0.002352686789628
 30
0.0
 10
-12.28958192487784
 20
0.0030127558404171
 30
0.0
 10
-12.28534261408655
 20
0.0036728248912063
 30
0.0
 10
-12.28112845272358
 20
0.0044779901809631
 30
0.0
 10
-12.27691429136061
 20
0.0052831554707199
 30
0.0
 10
-12.27273024403762
 20
0.006232468451764
 30
0.0
 10
-12.26854619671464
 20
0.0071817814328082
 30
0.0
 10
-12.2643971925666
 20
0.0082741237402055
 30
0.0
 10
-12.26024818841856
 20
0.0093664660476029
 30
0.0
 10
-12.25613911529683
 20
0.0106005508166872
 30
0.0
 10
-12.25203004217511
 20
0.0118346355857716
 30
0.0
 10
-12.24796574088919
 20
0.0132090089681717
 30
0.0
 10
-12.24390143960327
 20
0.0145833823505717
 30
0.0
 10
-12.23988669821792
 20
0.0160964252269581
 30
0.0
 10
-12.23587195683258
 20
0.0176094681033445
 30
0.0
 10
-12.23191150502714
 20
0.0192593979908793
 30
0.0
 10
-12.22795105322171
 20
0.0209093278784141
 30
0.0
 10
-12.22404955671814
 20
0.0226942010306548
 30
0.0
 10
-12.22014806021457
 20
0.0244790741828954
 30
0.0
 10
-12.21631011528086
 20
0.0263967878796799
 30
0.0
 10
-12.21247217034716
 20
0.0283145015764644
 30
0.0
 10
-12.20870229838261
 20
0.0303627966010806
 30
0.0
 10
-12.20493242641806
 20
0.0324110916256969
 30
0.0
 10
-12.20123506862666
 20
0.034587554926416
 30
0.0
 10
-12.19753771083527
 20
0.0367640182271352
 30
0.0
 10
-12.19391722299367
 20
0.0390660857599756
 30
0.0
 10
-12.19029673515206
 20
0.041368153292816
 30
0.0
 10
-12.18675738247807
 20
0.0437931130421876
 30
0.0
 10
-12.18321802980407
 20
0.0462180727915591
 30
0.0
 10
-12.17976398193194
 20
0.0487630679652297
 30
0.0
 10
-12.17630993405982
 20
0.0513080631389002
 30
0.0
 10
-12.17294526012808
 20
0.0539700955335204
 30
0.0
 10
-12.16958058619633
 20
0.0566321279281406
 30
0.0
 10
-12.166309250054
 20
0.0594080614613615
 30
0.0
 10
-12.16303791391167
 20
0.0621839949945824
 30
0.0
 10
-12.15986376944857
 20
0.0650705593996062
 30
0.0
 10
-12.15668962498547
 20
0.0679571238046299
 30
0.0
 10
-12.15361641159202
 20
0.0709509184828395
 30
0.0
 10
-12.15054319819857
 20
0.0739447131610492
 30
0.0
 10
-12.14757453636049
 20
0.0770422111881799
 30
0.0
 10
-12.1446058745224
 20
0.0801397092153106
 30
0.0
 10
-12.1417452615555
 20
0.0833372614964422
 30
0.0
 10
-12.1388846485886
 20
0.0865348137775739
 30
0.0
 10
-12.13613545451867
 20
0.0898286533460503
 30
0.0
 10
-12.13338626044875
 20
0.0931224929145266
 30
0.0
 10
-12.13075172404142
 20
0.0965087393697366
 30
0.0
 10
-12.12811718763409
 20
0.0998949858249465
 30
0.0
 10
-12.12560041257928
 20
0.10336964990374
 30
0.0
 10
-12.12308363752447
 20
0.1068443139825334
 30
0.0
 10
-12.12068758878002
 20
0.1104033022588843
 30
0.0
 10
-12.11829154003557
 20
0.1139622905352353
 30
0.0
 10
-12.1160190403343
 20
0.1176014102426186
 30
0.0
 10
-12.11374654063302
 20
0.1212405299500019
 30
0.0
 10
-12.11160026715728
 20
0.1249554939207998
 30
0.0
 10
-12.10945399368155
 20
0.1286704578915977
 30
0.0
 10
-12.10743647490937
 20
0.1324568896077187
 30
0.0
 10
-12.10541895613718
 20
0.1362433213238397
 30
0.0
 10
-12.10353256886344
 20
0.1400967600725989
 30
0.0
 10
-12.1016461815897
 20
0.1439501988213581
 30
0.0
 10
-12.09989314812614
 20
0.1478661049505459
 30
0.0
 10
-12.09814011466258
 20
0.1517820110797337
 30
0.0
 10
-12.09652250021972
 20
0.1557557713456811
 30
0.0
 10
-12.09490488577686
 20
0.1597295316116285
 30
0.0
 10
-12.09342459603102
 20
0.1637564646139688
 30
0.0
 10
-12.09194430628518
 20
0.167783397616309
 30
0.0
 10
-12.09060308513345
 20
0.1718587593130333
 30
0.0
 10
-12.08926186398172
 20
0.1759341210097576
 30
0.0
 10
-12.08806129148751
 20
0.180053110306068
 30
0.0
 10
-12.08686071899331
 20
0.1841720996023783
 30
0.0
 10
-12.08580220952491
 20
0.1883298640067523
 30
0.0
 10
-12.08474370005651
 20
0.1924876284111262
 30
0.0
 10
-12.08382850062086
 20
0.1966792697519316
 30
0.0
 10
-12.0829133011852
 20
0.200870911092737
 30
0.0
 10
-12.0821424899588
 20
0.2050914912886612
 30
0.0
 10
-12.0813716787324
 20
0.2093120714845855
 30
0.0
 10
-12.08074616379116
 20
0.2135566183620813
 30
0.0
 10
-12.08012064884993
 20
0.2178011652395771
 30
0.0
 10
-12.07964116709937
 20
0.2220646783904723
 30
0.0
 10
-12.07916168534882
 20
0.2263281915413674
 30
0.0
 10
-12.07882880165595
 20
0.2306056482137361
 30
0.0
 10
-12.07849591796308
 20
0.2348831048861047
 30
0.0
 10
-12.07831002449092
 20
0.2391694659014623
 30
0.0
 10
-12.07812413101875
 20
0.2434558269168198
 30
0.0
 10
-12.06167221532391
 20
0.871727829124352
 30
0.0
 10
-12.04522029962908
 20
1.499999831331884
 30
0.0
  0
ENDSEC
  0
SECTION
  2
OBJECTS
  0
DICTIONARY
  5
C
330
0
100
AcDbDictionary
281
     1
  3
ACAD_GROUP
350
D
  3
ACAD_LAYOUT
350
1A
  3
ACAD_MLEADERSTYLE
350
4E
  3
ACAD_MLINESTYLE
350
17
  3
ACAD_PLOTSETTINGS
350
19
  3
ACAD_PLOTSTYLENAME
350
E
  3
ACAD_TABLESTYLE
350
4D
  3
ACAD_VISUALSTYLE
350
2A
  0
DICTIONARY
  5
D
102
{ACAD_REACTORS
330
C
102
}
330
C
100
AcDbDictionary
281
     1
  0
DICTIONARY
  5
1A
102
{ACAD_REACTORS
330
C
102
}
330
C
100
AcDbDictionary
281
     1
  3
Layout1
350
1E
  3
Layout2
350
26
  3
Model
350
22
  0
DICTIONARY
  5
4E
102
{ACAD_REACTORS
330
C
102
}
330
C
100
AcDbDictionary
281
     1
  0
DICTIONARY
  5
17
102
{ACAD_REACTORS
330
C
102
}
330
C
100
AcDbDictionary
281
     1
  3
Standard
350
18
  0
DICTIONARY
  5
19
102
{ACAD_REACTORS
330
C
102
}
330
C
100
AcDbDictionary
281
     1
  0
ACDBDICTIONARYWDFLT
  5
E
102
{ACAD_REACTORS
330
C
102
}
330
C
100
AcDbDictionary
281
     1
  3
Normal
350
F
100
AcDbDictionaryWithDefault
340
F
  0
DICTIONARY
  5
4D
102
{ACAD_REACTORS
330
C
102
}
330
C
100
AcDbDictionary
281
     1
  0
DICTIONARY
  5
2A
102
{ACAD_REACTORS
330
C
102
}
330
C
100
AcDbDictionary
281
     1
  3
2dWireframe
350
2F
  3
3D Hidden
350
31
  3
3dWireframe
350
30
  3
Basic
350
32
  3
Brighten
350
36
  3
ColorChange
350
3A
  3
Conceptual
350
34
  3
Dim
350
35
  3
Facepattern
350
39
  3
Flat
350
2B
  3
FlatWithEdges
350
2C
  3
Gouraud
350
2D
  3
GouraudWithEdges
350
2E
  3
Linepattern
350
38
  3
Realistic
350
33
  3
Thicken
350
37
  0
LAYOUT
  5
1E
102
{ACAD_REACTORS
330
1A
102
}
330
1A
100
AcDbPlotSettings
  1

  2
none_device
  4

  6

 40
0.0
 41
0.0
 42
0.0
 43
0.0
 44
0.0
 45
0.0
 46
0.0
 47
0.0
 48
0.0
 49
0.0
140
0.0
141
0.0
142
1.0
143
1.0
 70
   688
 72
     0
 73
     0
 74
     5
  7

 75
    16
 76
     0
 77
     2
 78
   300
147
1.0
148
0.0
149
0.0
100
AcDbLayout
  1
Layout1
 70
     1
 71
     1
 10
0.0
 20
0.0
 11
12.0
 21
9.0
 12
0.0
 22
0.0
 32
0.0
 14
1.000000000000000E+20
 24
1.000000000000000E+20
 34
1.000000000000000E+20
 15
-1.000000000000000E+20
 25
-1.000000000000000E+20
 35
-1.000000000000000E+20
146
0.0
 13
0.0
 23
0.0
 33
0.0
 16
1.0
 26
0.0
 36
0.0
 17
0.0
 27
1.0
 37
0.0
 76
     0
330
1B
  0
LAYOUT
  5
26
102
{ACAD_REACTORS
330
1A
102
}
330
1A
100
AcDbPlotSettings
  1

  2
none_device
  4

  6

 40
0.0
 41
0.0
 42
0.0
 43
0.0
 44
0.0
 45
0.0
 46
0.0
 47
0.0
 48
0.0
 49
0.0
140
0.0
141
0.0
142
1.0
143
1.0
 70
   688
 72
     0
 73
     0
 74
     5
  7

 75
    16
 76
     0
 77
     2
 78
   300
147
1.0
148
0.0
149
0.0
100
AcDbLayout
  1
Layout2
 70
     1
 71
     2
 10
0.0
 20
0.0
 11
0.0
 21
0.0
 12
0.0
 22
0.0
 32
0.0
 14
0.0
 24
0.0
 34
0.0
 15
0.0
 25
0.0
 35
0.0
146
0.0
 13
0.0
 23
0.0
 33
0.0
 16
1.0
 26
0.0
 36
0.0
 17
0.0
 27
1.0
 37
0.0
 76
     0
330
23
  0
LAYOUT
  5
22
102
{ACAD_REACTORS
330
1A
102
}
330
1A
100
AcDbPlotSettings
  1

  2
none_device
  4

  6

 40
0.0
 41
0.0
 42
0.0
 43
0.0
 44
0.0
 45
0.0
 46
0.0
 47
0.0
 48
0.0
 49
0.0
140
0.0
141
0.0
142
1.0
143
1.0
 70
  1712
 72
     0
 73
     0
 74
     0
  7

 75
     0
 76
     0
 77
     2
 78
   300
147
1.0
148
0.0
149
0.0
100
AcDbLayout
  1
Model
 70
     1
 71
     0
 10
0.0
 20
0.0
 11
12.0
 21
9.0
 12
0.0
 22
0.0
 32
0.0
 14
-18.25022029962906
 24
-0.0000004998286764
 34
0.0
 15
45.13643151242577
 25
49.25005260528809
 35
0.0
146
0.0
 13
0.0
 23
0.0
 33
0.0
 16
1.0
 26
0.0
 36
0.0
 17
0.0
 27
1.0
 37
0.0
 76
     0
330
1F
331
29
  0
MLINESTYLE
  5
18
102
{ACAD_REACTORS
330
17
102
}
330
17
100
AcDbMlineStyle
  2
Standard
 70
     0
  3

 62
   256
 51
90.0
 52
90.0
 71
     2
 49
0.5
 62
   256
  6
BYLAYER
 49
-0.5
 62
   256
  6
BYLAYER
  0
ACDBPLACEHOLDER
  5
F
102
{ACAD_REACTORS
330
E
102
}
330
E
  0
VISUALSTYLE
  5
2F
102
{ACAD_REACTORS
330
2A
102
}
330
2A
100
AcDbVisualStyle
  2
2dWireframe
 70
     4
 71
     0
 72
     2
 73
     0
 90
        0
 40
-0.6
 41
-30.0
 62
     5
 63
     7
421
 16777215
 74
     1
 91
        4
 64
     7
 65
   257
 75
     1
175
     1
 42
1.0
 92
        0
 66
   257
 43
1.0
 76
     1
 77
     6
 78
     2
 67
     7
 79
     5
170
     0
171
     0
290
     0
174
     0
 93
        1
 44
0.0
173
     0
291
     0
 45
0.0
1001
ACAD
1000
AcDbSavedByObjectVersion
1070
     0
  0
VISUALSTYLE
  5
31
102
{ACAD_REACTORS
330
2A
102
}
330
2A
100
AcDbVisualStyle
  2
3D Hidden
 70
     6
 71
     1
 72
     2
 73
     2
 90
        0
 40
-0.6
 41
-30.0
 62
     5
 63
     7
421
 16777215
 74
     2
 91
        2
 64
     7
 65
   257
 75
     2
175
     1
 42
40.0
 92
        0
 66
   257
 43
1.0
 76
     1
 77
     6
 78
     2
 67
     7
 79
     3
170
     0
171
     0
290
     0
174
     0
 93
        1
 44
0.0
173
     0
291
     0
 45
0.0
1001
ACAD
1000
AcDbSavedByObjectVersion
1070
     0
  0
VISUALSTYLE
  5
30
102
{ACAD_REACTORS
330
2A
102
}
330
2A
100
AcDbVisualStyle
  2
3dWireframe
 70
     5
 71
     0
 72
     2
 73
     0
 90
        0
 40
-0.6
 41
-30.0
 62
     5
 63
     7
421
 16777215
 74
     1
 91
        4
 64
     7
 65
   257
 75
     1
175
     1
 42
1.0
 92
        0
 66
   257
 43
1.0
 76
     1
 77
     6
 78
     2
 67
     7
 79
     5
170
     0
171
     0
290
     0
174
     0
 93
        1
 44
0.0
173
     0
291
     0
 45
0.0
1001
ACAD
1000
AcDbSavedByObjectVersion
1070
     0
  0
VISUALSTYLE
  5
32
102
{ACAD_REACTORS
330
2A
102
}
330
2A
100
AcDbVisualStyle
  2
Basic
 70
     7
 71
     1
 72
     0
 73
     1
 90
        0
 40
-0.6
 41
-30.0
 62
     5
 63
     7
421
 16777215
 74
     0
 91
        4
 64
     7
 65
   257
 75
     1
175
     1
 42
1.0
 92
        8
 66
     7
 43
1.0
 76
     1
 77
     6
 78
     2
 67
     7
 79
     5
170
     0
171
     0
290
     0
174
     0
 93
        1
 44
0.0
173
     0
291
     1
 45
0.0
1001
ACAD
1000
AcDbSavedByObjectVersion
1070
     0
  0
VISUALSTYLE
  5
36
102
{ACAD_REACTORS
330
2A
102
}
330
2A
100
AcDbVisualStyle
  2
Brighten
 70
    12
 71
     2
 72
     2
 73
     0
 90
        0
 40
-0.6
 41
-30.0
 62
     5
 63
     7
421
 16777215
 74
     1
 91
        4
 64
     7
 65
   257
 75
     1
175
     1
 42
1.0
 92
        8
 66
     7
 43
1.0
 76
     1
 77
     6
 78
     2
 67
     7
 79
     5
170
     0
171
     0
290
     0
174
     0
 93
        1
 44
50.0
173
     0
291
     1
 45
0.0
1001
ACAD
1000
AcDbSavedByObjectVersion
1070
     0
  0
VISUALSTYLE
  5
3A
102
{ACAD_REACTORS
330
2A
102
}
330
2A
100
AcDbVisualStyle
  2
ColorChange
 70
    16
 71
     2
 72
     2
 73
     3
 90
        0
 40
-0.6
 41
-30.0
 62
     5
 63
     8
421
  8421504
 74
     1
 91
        4
 64
     7
 65
   257
 75
     1
175
     1
 42
1.0
 92
        8
 66
     8
424
  8421504
 43
1.0
 76
     1
 77
     6
 78
     2
 67
     7
 79
     5
170
     0
171
     0
290
     0
174
     0
 93
        1
 44
0.0
173
     0
291
     1
 45
0.0
1001
ACAD
1000
AcDbSavedByObjectVersion
1070
     0
  0
VISUALSTYLE
  5
34
102
{ACAD_REACTORS
330
2A
102
}
330
2A
100
AcDbVisualStyle
  2
Conceptual
 70
     9
 71
     3
 72
     2
 73
     0
 90
        0
 40
-0.6
 41
-30.0
 62
     5
 63
     7
421
 16777215
 74
     2
 91
        2
 64
     7
 65
   257
 75
     1
175
     1
 42
40.0
 92
        8
 66
     7
 43
1.0
 76
     1
 77
     6
 78
     2
 67
     7
 79
     3
170
     0
171
     0
290
     0
174
     0
 93
        1
 44
0.0
173
     0
291
     0
 45
0.0
1001
ACAD
1000
AcDbSavedByObjectVersion
1070
     0
  0
VISUALSTYLE
  5
35
102
{ACAD_REACTORS
330
2A
102
}
330
2A
100
AcDbVisualStyle
  2
Dim
 70
    11
 71
     2
 72
     2
 73
     0
 90
        0
 40
-0.6
 41
-30.0
 62
     5
 63
     7
421
 16777215
 74
     1
 91
        4
 64
     7
 65
   257
 75
     1
175
     1
 42
1.0
 92
        8
 66
     7
 43
1.0
 76
     1
 77
     6
 78
     2
 67
     7
 79
     5
170
     0
171
     0
290
     0
174
     0
 93
        1
 44
-50.0
173
     0
291
     1
 45
0.0
1001
ACAD
1000
AcDbSavedByObjectVersion
1070
     0
  0
VISUALSTYLE
  5
39
102
{ACAD_REACTORS
330
2A
102
}
330
2A
100
AcDbVisualStyle
  2
Facepattern
 70
    15
 71
     2
 72
     2
 73
     0
 90
        0
 40
-0.6
 41
-30.0
 62
     5
 63
     7
421
 16777215
 74
     1
 91
        4
 64
     7
 65
   257
 75
     1
175
     1
 42
1.0
 92
        8
 66
     7
 43
1.0
 76
     1
 77
     6
 78
     2
 67
     7
 79
     5
170
     0
171
     0
290
     0
174
     0
 93
        1
 44
0.0
173
     0
291
     1
 45
0.0
1001
ACAD
1000
AcDbSavedByObjectVersion
1070
     0
  0
VISUALSTYLE
  5
2B
102
{ACAD_REACTORS
330
2A
102
}
330
2A
100
AcDbVisualStyle
  2
Flat
 70
     0
 71
     2
 72
     1
 73
     1
 90
        2
 40
-0.6
 41
30.0
 62
     5
 63
     7
421
 16777215
 74
     0
 91
        4
 64
     7
 65
   257
 75
     1
175
     1
 42
1.0
 92
        8
 66
     7
 43
1.0
 76
     1
 77
     6
 78
     2
 67
     7
 79
     5
170
     0
171
     0
290
     0
174
     0
 93
       13
 44
0.0
173
     0
291
     1
 45
0.0
1001
ACAD
1000
AcDbSavedByObjectVersion
1070
     0
  0
VISUALSTYLE
  5
2C
102
{ACAD_REACTORS
330
2A
102
}
330
2A
100
AcDbVisualStyle
  2
FlatWithEdges
 70
     1
 71
     2
 72
     1
 73
     1
 90
        2
 40
-0.6
 41
30.0
 62
     5
 63
     7
421
 16777215
 74
     1
 91
        4
 64
     7
 65
   257
 75
     1
175
     1
 42
1.0
 92
        0
 66
   257
 43
1.0
 76
     1
 77
     6
 78
     2
 67
     7
 79
     5
170
     0
171
     0
290
     0
174
     0
 93
       13
 44
0.0
173
     0
291
     1
 45
0.0
1001
ACAD
1000
AcDbSavedByObjectVersion
1070
     0
  0
VISUALSTYLE
  5
2D
102
{ACAD_REACTORS
330
2A
102
}
330
2A
100
AcDbVisualStyle
  2
Gouraud
 70
     2
 71
     2
 72
     2
 73
     1
 90
        2
 40
-0.6
 41
30.0
 62
     5
 63
     7
421
 16777215
 74
     0
 91
        4
 64
     7
 65
   257
 75
     1
175
     1
 42
1.0
 92
        0
 66
     7
 43
1.0
 76
     1
 77
     6
 78
     2
 67
     7
 79
     5
170
     0
171
     0
290
     0
174
     0
 93
       13
 44
0.0
173
     0
291
     1
 45
0.0
1001
ACAD
1000
AcDbSavedByObjectVersion
1070
     0
  0
VISUALSTYLE
  5
2E
102
{ACAD_REACTORS
330
2A
102
}
330
2A
100
AcDbVisualStyle
  2
GouraudWithEdges
 70
     3
 71
     2
 72
     2
 73
     1
 90
        2
 40
-0.6
 41
30.0
 62
     5
 63
     7
421
 16777215
 74
     1
 91
        4
 64
     7
 65
   257
 75
     1
175
     1
 42
1.0
 92
        0
 66
   257
 43
1.0
 76
     1
 77
     6
 78
     2
 67
     7
 79
     5
170
     0
171
     0
290
     0
174
     0
 93
       13
 44
0.0
173
     0
291
     1
 45
0.0
1001
ACAD
1000
AcDbSavedByObjectVersion
1070
     0
  0
VISUALSTYLE
  5
38
102
{ACAD_REACTORS
330
2A
102
}
330
2A
100
AcDbVisualStyle
  2
Linepattern
 70
    14
 71
     2
 72
     2
 73
     0
 90
        0
 40
-0.6
 41
-30.0
 62
     5
 63
     7
421
 16777215
 74
     1
 91
        4
 64
     7
 65
   257
 75
     7
175
     7
 42
1.0
 92
        8
 66
     7
 43
1.0
 76
     1
 77
     6
 78
     2
 67
     7
 79
     5
170
     0
171
     0
290
     0
174
     0
 93
        1
 44
0.0
173
     0
291
     1
 45
0.0
1001
ACAD
1000
AcDbSavedByObjectVersion
1070
     0
  0
VISUALSTYLE
  5
33
102
{ACAD_REACTORS
330
2A
102
}
330
2A
100
AcDbVisualStyle
  2
Realistic
 70
     8
 71
     2
 72
     2
 73
     0
 90
        0
 40
-0.6
 41
-30.0
 62
     5
 63
     7
421
 16777215
 74
     1
 91
        0
 64
     7
 65
   257
 75
     1
175
     1
 42
1.0
 92
        8
 66
     8
424
  7895160
 43
1.0
 76
     1
 77
     6
 78
     2
 67
     7
 79
     5
170
     0
171
     0
290
     0
174
     0
 93
       13
 44
0.0
173
     0
291
     0
 45
0.0
1001
ACAD
1000
AcDbSavedByObjectVersion
1070
     0
  0
VISUALSTYLE
  5
37
102
{ACAD_REACTORS
330
2A
102
}
330
2A
100
AcDbVisualStyle
  2
Thicken
 70
    13
 71
     2
 72
     2
 73
     0
 90
        0
 40
-0.6
 41
-30.0
 62
     5
 63
     7
421
 16777215
 74
     1
 91
        4
 64
     7
 65
   257
 75
     1
175
     1
 42
1.0
 92
       12
 66
     7
 43
1.0
 76
     1
 77
     6
 78
     2
 67
     7
 79
     5
170
     0
171
     0
290
     0
174
     0
 93
        1
 44
0.0
173
     0
291
     1
 45
0.0
1001
ACAD
1000
AcDbSavedByObjectVersion
1070
     0
  0
ENDSEC
  0
EOF
