  0
SECTION
  2
HEADER
  9
$ACADVER
  1
AC1018
  9
$ACADMAINTVER
 70
     0
  9
$DWGCODEPAGE
  3
ANSI_1252
  9
$INSBASE
 10
0.0
 20
0.0
 30
0.0
  9
$EXTMIN
 10
-29.00014117581147
 20
-0.0000000000000017
 30
0.0
  9
$EXTMAX
 10
56.13623443206403
 20
53.75003504942636
 30
0.0
  9
$LIMMIN
 10
0.0
 20
0.0
  9
$LIMMAX
 10
12.0
 20
9.0
  9
$ORTHOMODE
 70
     0
  9
$REGENMODE
 70
     1
  9
$FILLMODE
 70
     1
  9
$QTEXTMODE
 70
     0
  9
$MIRRTEXT
 70
     1
  9
$LTSCALE
 40
0.0393700787401575
  9
$ATTMODE
 70
     1
  9
$TEXTSIZE
 40
0.2
  9
$TRACEWID
 40
0.05
  9
$TEXTSTYLE
  7
Standard
  9
$CLAYER
  8
DEFAULT
  9
$CELTYPE
  6
ByLayer
  9
$CECOLOR
 62
   256
  9
$CELTSCALE
 40
1.0
  9
$DISPSILH
 70
     0
  9
$DIMSCALE
 40
1.0
  9
$DIMASZ
 40
0.18
  9
$DIMEXO
 40
0.0625
  9
$DIMDLI
 40
0.38
  9
$DIMRND
 40
0.0
  9
$DIMDLE
 40
0.0
  9
$DIMEXE
 40
0.18
  9
$DIMTP
 40
0.0
  9
$DIMTM
 40
0.0
  9
$DIMTXT
 40
0.18
  9
$DIMCEN
 40
0.09
  9
$DIMTSZ
 40
0.0
  9
$DIMTOL
 70
     0
  9
$DIMLIM
 70
     0
  9
$DIMTIH
 70
     1
  9
$DIMTOH
 70
     1
  9
$DIMSE1
 70
     0
  9
$DIMSE2
 70
     0
  9
$DIMTAD
 70
     0
  9
$DIMZIN
 70
     0
  9
$DIMBLK
  1

  9
$DIMASO
 70
     1
  9
$DIMSHO
 70
     1
  9
$DIMPOST
  1

  9
$DIMAPOST
  1

  9
$DIMALT
 70
     0
  9
$DIMALTD
 70
     2
  9
$DIMALTF
 40
25.4
  9
$DIMLFAC
 40
1.0
  9
$DIMTOFL
 70
     0
  9
$DIMTVP
 40
0.0
  9
$DIMTIX
 70
     0
  9
$DIMSOXD
 70
     0
  9
$DIMSAH
 70
     0
  9
$DIMBLK1
  1

  9
$DIMBLK2
  1

  9
$DIMSTYLE
  2
Standard
  9
$DIMCLRD
 70
     0
  9
$DIMCLRE
 70
     0
  9
$DIMCLRT
 70
     0
  9
$DIMTFAC
 40
1.0
  9
$DIMGAP
 40
0.09
  9
$DIMJUST
 70
     0
  9
$DIMSD1
 70
     0
  9
$DIMSD2
 70
     0
  9
$DIMTOLJ
 70
     1
  9
$DIMTZIN
 70
     0
  9
$DIMALTZ
 70
     0
  9
$DIMALTTZ
 70
     0
  9
$DIMUPT
 70
     0
  9
$DIMDEC
 70
     4
  9
$DIMTDEC
 70
     4
  9
$DIMALTU
 70
     2
  9
$DIMALTTD
 70
     2
  9
$DIMTXSTY
  7
Standard
  9
$DIMAUNIT
 70
     0
  9
$DIMADEC
 70
     0
  9
$DIMALTRND
 40
0.0
  9
$DIMAZIN
 70
     0
  9
$DIMDSEP
 70
    46
  9
$DIMATFIT
 70
     3
  9
$DIMFRAC
 70
     0
  9
$DIMLDRBLK
  1

  9
$DIMLUNIT
 70
     2
  9
$DIMLWD
 70
    -2
  9
$DIMLWE
 70
    -2
  9
$DIMTMOVE
 70
     2
  9
$LUNITS
 70
     2
  9
$LUPREC
 70
     3
  9
$SKETCHINC
 40
0.1
  9
$FILLETRAD
 40
0.5
  9
$AUNITS
 70
     0
  9
$AUPREC
 70
     0
  9
$MENU
  1
.
  9
$ELEVATION
 40
0.0
  9
$PELEVATION
 40
0.0
  9
$THICKNESS
 40
0.0
  9
$LIMCHECK
 70
     0
  9
$CHAMFERA
 40
0.5
  9
$CHAMFERB
 40
0.5
  9
$CHAMFERC
 40
1.0
  9
$CHAMFERD
 40
0.0
  9
$SKPOLY
 70
     0
  9
$TDCREATE
 40
2456045.407241979
  9
$TDUCREATE
 40
2456045.573908646
  9
$TDUPDATE
 40
2456045.407241991
  9
$TDUUPDATE
 40
2456045.573908657
  9
$TDINDWG
 40
0.0000000116
  9
$TDUSRTIMER
 40
0.0000000116
  9
$USRTIMER
 70
     1
  9
$ANGBASE
 50
0.0
  9
$ANGDIR
 70
     0
  9
$PDMODE
 70
     0
  9
$PDSIZE
 40
0.0
  9
$PLINEWID
 40
0.0
  9
$SPLFRAME
 70
     0
  9
$SPLINETYPE
 70
     6
  9
$SPLINESEGS
 70
     8
  9
$HANDSEED
  5
4F
  9
$SURFTAB1
 70
     6
  9
$SURFTAB2
 70
     6
  9
$SURFTYPE
 70
     6
  9
$SURFU
 70
     6
  9
$SURFV
 70
     6
  9
$UCSBASE
  2

  9
$UCSNAME
  2

  9
$UCSORG
 10
0.0
 20
0.0
 30
0.0
  9
$UCSXDIR
 10
1.0
 20
0.0
 30
0.0
  9
$UCSYDIR
 10
0.0
 20
1.0
 30
0.0
  9
$UCSORTHOREF
  2

  9
$UCSORTHOVIEW
 70
     0
  9
$UCSORGTOP
 10
0.0
 20
0.0
 30
0.0
  9
$UCSORGBOTTOM
 10
0.0
 20
0.0
 30
0.0
  9
$UCSORGLEFT
 10
0.0
 20
0.0
 30
0.0
  9
$UCSORGRIGHT
 10
0.0
 20
0.0
 30
0.0
  9
$UCSORGFRONT
 10
0.0
 20
0.0
 30
0.0
  9
$UCSORGBACK
 10
0.0
 20
0.0
 30
0.0
  9
$PUCSBASE
  2

  9
$PUCSNAME
  2

  9
$PUCSORG
 10
0.0
 20
0.0
 30
0.0
  9
$PUCSXDIR
 10
1.0
 20
0.0
 30
0.0
  9
$PUCSYDIR
 10
0.0
 20
1.0
 30
0.0
  9
$PUCSORTHOREF
  2

  9
$PUCSORTHOVIEW
 70
     0
  9
$PUCSORGTOP
 10
0.0
 20
0.0
 30
0.0
  9
$PUCSORGBOTTOM
 10
0.0
 20
0.0
 30
0.0
  9
$PUCSORGLEFT
 10
0.0
 20
0.0
 30
0.0
  9
$PUCSORGRIGHT
 10
0.0
 20
0.0
 30
0.0
  9
$PUCSORGFRONT
 10
0.0
 20
0.0
 30
0.0
  9
$PUCSORGBACK
 10
0.0
 20
0.0
 30
0.0
  9
$USERI1
 70
     0
  9
$USERI2
 70
     0
  9
$USERI3
 70
     0
  9
$USERI4
 70
     0
  9
$USERI5
 70
     0
  9
$USERR1
 40
0.0
  9
$USERR2
 40
0.0
  9
$USERR3
 40
0.0
  9
$USERR4
 40
0.0
  9
$USERR5
 40
0.0
  9
$WORLDVIEW
 70
     1
  9
$SHADEDGE
 70
     3
  9
$SHADEDIF
 70
    70
  9
$TILEMODE
 70
     1
  9
$MAXACTVP
 70
    64
  9
$PINSBASE
 10
0.0
 20
0.0
 30
0.0
  9
$PLIMCHECK
 70
     0
  9
$PEXTMIN
 10
1.000000000000000E+20
 20
1.000000000000000E+20
 30
1.000000000000000E+20
  9
$PEXTMAX
 10
-1.000000000000000E+20
 20
-1.000000000000000E+20
 30
-1.000000000000000E+20
  9
$PLIMMIN
 10
0.0
 20
0.0
  9
$PLIMMAX
 10
12.0
 20
9.0
  9
$UNITMODE
 70
     0
  9
$VISRETAIN
 70
     1
  9
$PLINEGEN
 70
     0
  9
$PSLTSCALE
 70
     1
  9
$TREEDEPTH
 70
  3020
  9
$CMLSTYLE
  2
Standard
  9
$CMLJUST
 70
     0
  9
$CMLSCALE
 40
1.0
  9
$PROXYGRAPHICS
 70
     1
  9
$MEASUREMENT
 70
     0
  9
$CELWEIGHT
370
    -1
  9
$ENDCAPS
280
     0
  9
$JOINSTYLE
280
     0
  9
$LWDISPLAY
290
     0
  9
$INSUNITS
 70
     1
  9
$HYPERLINKBASE
  1

  9
$STYLESHEET
  1

  9
$XEDIT
290
     1
  9
$CEPSNTYPE
380
     0
  9
$PSTYLEMODE
290
     1
  9
$FINGERPRINTGUID
  2
{7FD40FDB-DA75-4E98-AAE8-2159FD6A7D5B}
  9
$VERSIONGUID
  2
{FAEB1C32-E019-11D5-929B-00C0DF256EC4}
  9
$EXTNAMES
290
     1
  9
$PSVPSCALE
 40
0.0
  9
$OLESTARTUP
290
     0
  9
$SORTENTS
280
   127
  9
$INDEXCTL
280
     0
  9
$HIDETEXT
280
     1
  9
$XCLIPFRAME
290
     0
  9
$HALOGAP
280
     0
  9
$OBSCOLOR
 70
   257
  9
$OBSLTYPE
280
     0
  9
$INTERSECTIONDISPLAY
280
     0
  9
$INTERSECTIONCOLOR
 70
   257
  9
$DIMASSOC
280
     2
  9
$PROJECTNAME
  1

  0
ENDSEC
  0
SECTION
  2
CLASSES
  0
CLASS
  1
ACDBDICTIONARYWDFLT
  2
AcDbDictionaryWithDefault
  3
ObjectDBX Classes
 90
        0
 91
        4
280
     0
281
     0
  0
CLASS
  1
VISUALSTYLE
  2
AcDbVisualStyle
  3
ObjectDBX Classes
 90
     4095
 91
        4
280
     0
281
     0
  0
ENDSEC
  0
SECTION
  2
TABLES
  0
TABLE
  2
VPORT
  5
8
330
0
100
AcDbSymbolTable
 70
     1
  0
VPORT
  5
29
330
8
100
AcDbSymbolTableRecord
100
AcDbViewportTableRecord
  2
*Active
 70
     0
 10
0.0
 20
0.0
 11
1.0
 21
1.0
 12
13.56804662812628
 22
26.87501752471318
 13
0.0
 23
0.0
 14
0.5
 24
0.5
 15
0.5
 25
0.5
 16
0.0
 26
0.0
 36
1.0
 17
0.0
 27
0.0
 37
0.0
 40
54.82503575041488
 41
1.583931536595046
 42
50.0
 43
0.0
 44
0.0
 50
0.0
 51
0.0
 71
     0
 72
   100
 73
     1
 74
     3
 75
     0
 76
     0
 77
     0
 78
     0
281
     0
 65
     1
110
0.0
120
0.0
130
0.0
111
1.0
121
0.0
131
0.0
112
0.0
122
1.0
132
0.0
 79
     0
146
0.0
  0
ENDTAB
  0
TABLE
  2
LTYPE
  5
5
330
0
100
AcDbSymbolTable
 70
     1
  0
LTYPE
  5
14
330
5
100
AcDbSymbolTableRecord
100
AcDbLinetypeTableRecord
  2
ByBlock
 70
     0
  3

 72
    65
 73
     0
 40
0.0
  0
LTYPE
  5
15
330
5
100
AcDbSymbolTableRecord
100
AcDbLinetypeTableRecord
  2
ByLayer
 70
     0
  3

 72
    65
 73
     0
 40
0.0
  0
LTYPE
  5
16
330
5
100
AcDbSymbolTableRecord
100
AcDbLinetypeTableRecord
  2
Continuous
 70
     0
  3
Solid line
 72
    65
 73
     0
 40
0.0
  0
ENDTAB
  0
TABLE
  2
LAYER
  5
2
330
0
100
AcDbSymbolTable
 70
     2
  0
LAYER
  5
10
330
2
100
AcDbSymbolTableRecord
100
AcDbLayerTableRecord
  2
0
 70
     0
 62
     7
  6
Continuous
370
    -3
390
F
  0
LAYER
  5
3B
330
2
100
AcDbSymbolTableRecord
100
AcDbLayerTableRecord
  2
DEFAULT
 70
     0
 62
     7
  6
Continuous
370
    -3
390
F
  0
ENDTAB
  0
TABLE
  2
STYLE
  5
3
330
0
100
AcDbSymbolTable
 70
     1
  0
STYLE
  5
11
330
3
100
AcDbSymbolTableRecord
100
AcDbTextStyleTableRecord
  2
Standard
 70
     0
 40
0.0
 41
1.0
 50
0.0
 71
     0
 42
0.2
  3
txt
  4

  0
ENDTAB
  0
TABLE
  2
VIEW
  5
6
330
0
100
AcDbSymbolTable
 70
     0
  0
ENDTAB
  0
TABLE
  2
UCS
  5
7
330
0
100
AcDbSymbolTable
 70
     0
  0
ENDTAB
  0
TABLE
  2
APPID
  5
9
330
0
100
AcDbSymbolTable
 70
     1
  0
APPID
  5
12
330
9
100
AcDbSymbolTableRecord
100
AcDbRegAppTableRecord
  2
ACAD
 70
     0
  0
ENDTAB
  0
TABLE
  2
DIMSTYLE
  5
A
330
0
100
AcDbSymbolTable
 70
     1
100
AcDbDimStyleTable
  0
DIMSTYLE
105
27
330
A
100
AcDbSymbolTableRecord
100
AcDbDimStyleTableRecord
  2
Standard
 70
     0
340
11
  0
ENDTAB
  0
TABLE
  2
BLOCK_RECORD
  5
1
330
0
100
AcDbSymbolTable
 70
     1
  0
BLOCK_RECORD
  5
1F
330
1
100
AcDbSymbolTableRecord
100
AcDbBlockTableRecord
  2
*Model_Space
340
22
  0
BLOCK_RECORD
  5
1B
330
1
100
AcDbSymbolTableRecord
100
AcDbBlockTableRecord
  2
*Paper_Space
340
1E
  0
BLOCK_RECORD
  5
23
330
1
100
AcDbSymbolTableRecord
100
AcDbBlockTableRecord
  2
*Paper_Space0
340
26
  0
ENDTAB
  0
ENDSEC
  0
SECTION
  2
BLOCKS
  0
BLOCK
  5
20
330
1F
100
AcDbEntity
  8
0
100
AcDbBlockBegin
  2
*Model_Space
 70
     0
 10
0.0
 20
0.0
 30
0.0
  3
*Model_Space
  1

  0
ENDBLK
  5
21
330
1F
100
AcDbEntity
  8
0
100
AcDbBlockEnd
  0
BLOCK
  5
1C
330
1B
100
AcDbEntity
 67
     1
  8
0
100
AcDbBlockBegin
  2
*Paper_Space
 70
     0
 10
0.0
 20
0.0
 30
0.0
  3
*Paper_Space
  1

  0
ENDBLK
  5
1D
330
1B
100
AcDbEntity
 67
     1
  8
0
100
AcDbBlockEnd
  0
BLOCK
  5
24
330
23
100
AcDbEntity
  8
0
100
AcDbBlockBegin
  2
*Paper_Space0
 70
     0
 10
0.0
 20
0.0
 30
0.0
  3
*Paper_Space0
  1

  0
ENDBLK
  5
25
330
23
100
AcDbEntity
  8
0
100
AcDbBlockEnd
  0
ENDSEC
  0
SECTION
  2
ENTITIES
  0
SPLINE
  5
3C
330
1F
100
AcDbEntity
  8
DEFAULT
100
AcDbSpline
210
0.0
220
0.0
230
1.0
 70
    11
 71
     2
 72
   516
 73
   513
 74
     0
 42
0.0000000001
 43
0.0000000001
 40
0.0
 40
0.0
 40
0.0
 40
1.0
 40
1.0
 40
2.0
 40
2.0
 40
3.0
 40
3.0
 40
4.0
 40
4.0
 40
5.0
 40
5.0
 40
6.0
 40
6.0
 40
7.0
 40
7.0
 40
8.0
 40
8.0
 40
9.0
 40
9.0
 40
10.0
 40
10.0
 40
11.0
 40
11.0
 40
12.0
 40
12.0
 40
13.0
 40
13.0
 40
14.0
 40
14.0
 40
15.0
 40
15.0
 40
16.0
 40
16.0
 40
17.0
 40
17.0
 40
18.0
 40
18.0
 40
19.0
 40
19.0
 40
20.0
 40
20.0
 40
21.0
 40
21.0
 40
22.0
 40
22.0
 40
23.0
 40
23.0
 40
24.0
 40
24.0
 40
25.0
 40
25.0
 40
26.0
 40
26.0
 40
27.0
 40
27.0
 40
28.0
 40
28.0
 40
29.0
 40
29.0
 40
30.0
 40
30.0
 40
31.0
 40
31.0
 40
32.0
 40
32.0
 40
33.0
 40
33.0
 40
34.0
 40
34.0
 40
35.0
 40
35.0
 40
36.0
 40
36.0
 40
37.0
 40
37.0
 40
38.0
 40
38.0
 40
39.0
 40
39.0
 40
40.0
 40
40.0
 40
41.0
 40
41.0
 40
42.0
 40
42.0
 40
43.0
 40
43.0
 40
44.0
 40
44.0
 40
45.0
 40
45.0
 40
46.0
 40
46.0
 40
47.0
 40
47.0
 40
48.0
 40
48.0
 40
49.0
 40
49.0
 40
50.0
 40
50.0
 40
51.0
 40
51.0
 40
52.0
 40
52.0
 40
53.0
 40
53.0
 40
54.0
 40
54.0
 40
55.0
 40
55.0
 40
56.0
 40
56.0
 40
57.0
 40
57.0
 40
58.0
 40
58.0
 40
59.0
 40
59.0
 40
60.0
 40
60.0
 40
61.0
 40
61.0
 40
62.0
 40
62.0
 40
63.0
 40
63.0
 40
64.0
 40
64.0
 40
65.0
 40
65.0
 40
66.0
 40
66.0
 40
67.0
 40
67.0
 40
68.0
 40
68.0
 40
69.0
 40
69.0
 40
70.0
 40
70.0
 40
71.0
 40
71.0
 40
72.0
 40
72.0
 40
73.0
 40
73.0
 40
74.0
 40
74.0
 40
75.0
 40
75.0
 40
76.0
 40
76.0
 40
77.0
 40
77.0
 40
78.0
 40
78.0
 40
79.0
 40
79.0
 40
80.0
 40
80.0
 40
81.0
 40
81.0
 40
82.0
 40
82.0
 40
83.0
 40
83.0
 40
84.0
 40
84.0
 40
85.0
 40
85.0
 40
86.0
 40
86.0
 40
87.0
 40
87.0
 40
88.0
 40
88.0
 40
89.0
 40
89.0
 40
90.0
 40
90.0
 40
91.0
 40
91.0
 40
92.0
 40
92.0
 40
93.0
 40
93.0
 40
94.0
 40
94.0
 40
95.0
 40
95.0
 40
96.0
 40
96.0
 40
97.0
 40
97.0
 40
98.0
 40
98.0
 40
99.0
 40
99.0
 40
100.0
 40
100.0
 40
101.0
 40
101.0
 40
102.0
 40
102.0
 40
103.0
 40
103.0
 40
104.0
 40
104.0
 40
105.0
 40
105.0
 40
106.0
 40
106.0
 40
107.0
 40
107.0
 40
108.0
 40
108.0
 40
109.0
 40
109.0
 40
110.0
 40
110.0
 40
111.0
 40
111.0
 40
112.0
 40
112.0
 40
113.0
 40
113.0
 40
114.0
 40
114.0
 40
115.0
 40
115.0
 40
116.0
 40
116.0
 40
117.0
 40
117.0
 40
118.0
 40
118.0
 40
119.0
 40
119.0
 40
120.0
 40
120.0
 40
121.0
 40
121.0
 40
122.0
 40
122.0
 40
123.0
 40
123.0
 40
124.0
 40
124.0
 40
125.0
 40
125.0
 40
126.0
 40
126.0
 40
127.0
 40
127.0
 40
128.0
 40
128.0
 40
129.0
 40
129.0
 40
130.0
 40
130.0
 40
131.0
 40
131.0
 40
132.0
 40
132.0
 40
133.0
 40
133.0
 40
134.0
 40
134.0
 40
135.0
 40
135.0
 40
136.0
 40
136.0
 40
137.0
 40
137.0
 40
138.0
 40
138.0
 40
139.0
 40
139.0
 40
140.0
 40
140.0
 40
141.0
 40
141.0
 40
142.0
 40
142.0
 40
143.0
 40
143.0
 40
144.0
 40
144.0
 40
145.0
 40
145.0
 40
146.0
 40
146.0
 40
147.0
 40
147.0
 40
148.0
 40
148.0
 40
149.0
 40
149.0
 40
150.0
 40
150.0
 40
151.0
 40
151.0
 40
152.0
 40
152.0
 40
153.0
 40
153.0
 40
154.0
 40
154.0
 40
155.0
 40
155.0
 40
156.0
 40
156.0
 40
157.0
 40
157.0
 40
158.0
 40
158.0
 40
159.0
 40
159.0
 40
160.0
 40
160.0
 40
161.0
 40
161.0
 40
162.0
 40
162.0
 40
163.0
 40
163.0
 40
164.0
 40
164.0
 40
165.0
 40
165.0
 40
166.0
 40
166.0
 40
167.0
 40
167.0
 40
168.0
 40
168.0
 40
169.0
 40
169.0
 40
170.0
 40
170.0
 40
171.0
 40
171.0
 40
172.0
 40
172.0
 40
173.0
 40
173.0
 40
174.0
 40
174.0
 40
175.0
 40
175.0
 40
176.0
 40
176.0
 40
177.0
 40
177.0
 40
178.0
 40
178.0
 40
179.0
 40
179.0
 40
180.0
 40
180.0
 40
181.0
 40
181.0
 40
182.0
 40
182.0
 40
183.0
 40
183.0
 40
184.0
 40
184.0
 40
185.0
 40
185.0
 40
186.0
 40
186.0
 40
187.0
 40
187.0
 40
188.0
 40
188.0
 40
189.0
 40
189.0
 40
190.0
 40
190.0
 40
191.0
 40
191.0
 40
192.0
 40
192.0
 40
193.0
 40
193.0
 40
194.0
 40
194.0
 40
195.0
 40
195.0
 40
196.0
 40
196.0
 40
197.0
 40
197.0
 40
198.0
 40
198.0
 40
199.0
 40
199.0
 40
200.0
 40
200.0
 40
201.0
 40
201.0
 40
202.0
 40
202.0
 40
203.0
 40
203.0
 40
204.0
 40
204.0
 40
205.0
 40
205.0
 40
206.0
 40
206.0
 40
207.0
 40
207.0
 40
208.0
 40
208.0
 40
209.0
 40
209.0
 40
210.0
 40
210.0
 40
211.0
 40
211.0
 40
212.0
 40
212.0
 40
213.0
 40
213.0
 40
214.0
 40
214.0
 40
215.0
 40
215.0
 40
216.0
 40
216.0
 40
217.0
 40
217.0
 40
218.0
 40
218.0
 40
219.0
 40
219.0
 40
220.0
 40
220.0
 40
221.0
 40
221.0
 40
222.0
 40
222.0
 40
223.0
 40
223.0
 40
224.0
 40
224.0
 40
225.0
 40
225.0
 40
226.0
 40
226.0
 40
227.0
 40
227.0
 40
228.0
 40
228.0
 40
229.0
 40
229.0
 40
230.0
 40
230.0
 40
231.0
 40
231.0
 40
232.0
 40
232.0
 40
233.0
 40
233.0
 40
234.0
 40
234.0
 40
235.0
 40
235.0
 40
236.0
 40
236.0
 40
237.0
 40
237.0
 40
238.0
 40
238.0
 40
239.0
 40
239.0
 40
240.0
 40
240.0
 40
241.0
 40
241.0
 40
242.0
 40
242.0
 40
243.0
 40
243.0
 40
244.0
 40
244.0
 40
245.0
 40
245.0
 40
246.0
 40
246.0
 40
247.0
 40
247.0
 40
248.0
 40
248.0
 40
249.0
 40
249.0
 40
250.0
 40
250.0
 40
251.0
 40
251.0
 40
252.0
 40
252.0
 40
253.0
 40
253.0
 40
254.0
 40
254.0
 40
255.0
 40
255.0
 40
256.0
 40
256.0
 40
256.0
 10
28.62512318015322
 20
53.75003504942636
 30
0.0
 10
-0.0041707372844328
 20
53.7499888568689
 30
0.0
 10
-28.63346465472208
 20
53.74994266431145
 30
0.0
 10
-28.63766171104465
 20
53.74980244562622
 30
0.0
 10
-28.64185876736722
 20
53.74966222694099
 30
0.0
 10
-28.64608839147486
 20
53.74942557873163
 30
0.0
 10
-28.6503180155825
 20
53.74918893052228
 30
0.0
 10
-28.65457730280281
 20
53.74885353533924
 30
0.0
 10
-28.65883659002311
 20
53.74851814015619
 30
0.0
 10
-28.66312248191426
 20
53.74808177720291
 30
0.0
 10
-28.66740837380542
 20
53.74764541424963
 30
0.0
 10
-28.67171766076663
 20
53.74710597021328
 30
0.0
 10
-28.67602694772784
 20
53.74656652617694
 30
0.0
 10
-28.68035627243058
 20
53.74592200612186
 30
0.0
 10
-28.68468559713332
 20
53.74527748606678
 30
0.0
 10
-28.68903145879968
 20
53.74452602432467
 30
0.0
 10
-28.69337732046603
 20
53.74377456258257
 30
0.0
 10
-28.6977360800148
 20
53.74291443356874
 30
0.0
 10
-28.70209483956357
 20
53.74205430455492
 30
0.0
 10
-28.70646272563873
 20
53.74108393343614
 30
0.0
 10
-28.71083061171389
 20
53.74011356231738
 30
0.0
 10
-28.71520372760303
 20
53.73903153545345
 30
0.0
 10
-28.71957684349217
 20
53.73794950858953
 30
0.0
 10
-28.72395117493533
 20
53.73675458366801
 30
0.0
 10
-28.72832550637848
 20
53.73555965874649
 30
0.0
 10
-28.73269693025986
 20
53.73425077452812
 30
0.0
 10
-28.73706835414123
 20
53.73294189030976
 30
0.0
 10
-28.74143264804797
 20
53.73151817590088
 30
0.0
 10
-28.7457969419547
 20
53.730094461492
 30
0.0
 10
-28.75014979457837
 20
53.72855524505995
 30
0.0
 10
-28.75450264720203
 20
53.7270160286279
 30
0.0
 10
-28.7588396695496
 20
53.72536084547634
 30
0.0
 10
-28.76317669189717
 20
53.72370566232478
 30
0.0
 10
-28.76749342926927
 20
53.7219342622472
 30
0.0
 10
-28.77181016664136
 20
53.72016286216962
 30
0.0
 10
-28.7761021113267
 20
53.71827521600238
 30
0.0
 10
-28.78039405601204
 20
53.71638756983515
 30
0.0
 10
-28.78465666063812
 20
53.71438387513506
 30
0.0
 10
-28.78891926526419
 20
53.71238018043498
 30
0.0
 10
-28.79314795673583
 20
53.71026086621126
 30
0.0
 10
-28.79737664820747
 20
53.70814155198753
 30
0.0
 10
-28.80156684215662
 20
53.70590728242404
 30
0.0
 10
-28.80575703610576
 20
53.70367301286054
 30
0.0
 10
-28.80990415176846
 20
53.70132468997109
 30
0.0
 10
-28.81405126743115
 20
53.69897636708165
 30
0.0
 10
-28.81815074286087
 20
53.69651513224908
 30
0.0
 10
-28.82225021829059
 20
53.69405389741652
 30
0.0
 10
-28.82629752581074
 20
53.69148113177494
 30
0.0
 10
-28.8303448333309
 20
53.68890836613335
 30
0.0
 10
-28.83433549512478
 20
53.68622568976275
 30
0.0
 10
-28.83832615691866
 20
53.68354301339216
 30
0.0
 10
-28.84225576065059
 20
53.6807522833047
 30
0.0
 10
-28.84618536438252
 20
53.67796155321724
 30
0.0
 10
-28.8500495787415
 20
53.67506486012519
 30
0.0
 10
-28.85391379310049
 20
53.67216816703314
 30
0.0
 10
-28.85770838315584
 20
53.66916783090004
 30
0.0
 10
-28.86150297321119
 20
53.66616749476693
 30
0.0
 10
-28.86522381546937
 20
53.66306605915436
 30
0.0
 10
-28.86894465772754
 20
53.65996462354179
 30
0.0
 10
-28.87258775478054
 20
53.6567648487764
 30
0.0
 10
-28.87623085183354
 20
53.65356507401102
 30
0.0
 10
-28.87979234649138
 20
53.65026992920702
 30
0.0
 10
-28.88335384114922
 20
53.64697478440302
 30
0.0
 10
-28.88683002995283
 20
53.64358743838717
 30
0.0
 10
-28.89030621875643
 20
53.64020009237132
 30
0.0
 10
-28.89369356477228
 20
53.63672390356771
 30
0.0
 10
-28.89708091078813
 20
53.63324771476412
 30
0.0
 10
-28.90037605559213
 20
53.62968622010627
 30
0.0
 10
-28.90367120039613
 20
53.62612472544843
 30
0.0
 10
-28.90687097516152
 20
53.62248162839542
 30
0.0
 10
-28.91007074992691
 20
53.61883853134242
 30
0.0
 10
-28.91317218553948
 20
53.61511768908424
 30
0.0
 10
-28.91627362115204
 20
53.61139684682607
 30
0.0
 10
-28.91927395728515
 20
53.60760225677072
 30
0.0
 10
-28.92227429341826
 20
53.60380766671538
 30
0.0
 10
-28.92517098651031
 20
53.59994345235639
 30
0.0
 10
-28.92806767960235
 20
53.59607923799741
 30
0.0
 10
-28.93085840968982
 20
53.59214963426547
 30
0.0
 10
-28.93364913977728
 20
53.58822003053354
 30
0.0
 10
-28.93633181614788
 20
53.58422936873966
 30
0.0
 10
-28.93901449251847
 20
53.58023870694578
 30
0.0
 10
-28.94158725816005
 20
53.57619139942562
 30
0.0
 10
-28.94416002380163
 20
53.57214409190548
 30
0.0
 10
-28.9466212586342
 20
53.56804461647576
 30
0.0
 10
-28.94908249346676
 20
53.56394514104605
 30
0.0
 10
-28.9514308163562
 20
53.55979802538336
 30
0.0
 10
-28.95377913924564
 20
53.55565090972066
 30
0.0
 10
-28.95601340880913
 20
53.55146071577151
 30
0.0
 10
-28.95824767837263
 20
53.54727052182237
 30
0.0
 10
-28.96036699259636
 20
53.54304183035073
 30
0.0
 10
-28.96248630682008
 20
53.53881313887909
 30
0.0
 10
-28.96449000152017
 20
53.53455053425301
 30
0.0
 10
-28.96649369622025
 20
53.53028792962694
 30
0.0
 10
-28.96838134238749
 20
53.5259959849416
 30
0.0
 10
-28.97026898855472
 20
53.52170404025626
 30
0.0
 10
-28.9720403886323
 20
53.51738730288416
 30
0.0
 10
-28.97381178870988
 20
53.51307056551207
 30
0.0
 10
-28.97546697186144
 20
53.5087335431645
 30
0.0
 10
-28.97712215501301
 20
53.50439652081693
 30
0.0
 10
-28.97866137144506
 20
53.50004366819326
 30
0.0
 10
-28.9802005878771
 20
53.4956908155696
 30
0.0
 10
-28.98162430228599
 20
53.49132652166286
 30
0.0
 10
-28.98304801669487
 20
53.48696222775612
 30
0.0
 10
-28.98435690091324
 20
53.48259080387474
 30
0.0
 10
-28.98566578513161
 20
53.47821937999337
 30
0.0
 10
-28.98686071005313
 20
53.47384504855021
 30
0.0
 10
-28.98805563497465
 20
53.46947071710705
 30
0.0
 10
-28.98913766183858
 20
53.46509760121791
 30
0.0
 10
-28.9902196887025
 20
53.46072448532877
 30
0.0
 10
-28.99119005982127
 20
53.45635659925361
 30
0.0
 10
-28.99216043094004
 20
53.45198871317845
 30
0.0
 10
-28.99302055995387
 20
53.44762995362968
 30
0.0
 10
-28.99388068896769
 20
53.44327119408091
 30
0.0
 10
-28.9946321507098
 20
53.43892533241456
 30
0.0
 10
-28.99538361245191
 20
53.4345794707482
 30
0.0
 10
-28.99602813250699
 20
53.43025014604546
 30
0.0
 10
-28.99667265256206
 20
53.42592082134272
 30
0.0
 10
-28.99721209659841
 20
53.42161153438151
 30
0.0
 10
-28.99775154063475
 20
53.4173022474203
 30
0.0
 10
-28.99818790358803
 20
53.41301635552915
 30
0.0
 10
-28.9986242665413
 20
53.408730463638
 30
0.0
 10
-28.99895966172435
 20
53.40447117641769
 30
0.0
 10
-28.99929505690739
 20
53.40021188919738
 30
0.0
 10
-28.99953170511674
 20
53.39598226508974
 30
0.0
 10
-28.9997683533261
 20
53.39175264098211
 30
0.0
 10
-28.99990857201133
 20
53.38755558465953
 30
0.0
 10
-29.00004879069656
 20
53.38335852833696
 30
0.0
 10
-29.00009498325402
 20
45.87917926416848
 30
0.0
 10
-29.00014117581147
 20
38.375
 30
0.0
 10
-29.00009498325402
 20
38.3708382605447
 30
0.0
 10
-29.00004879069656
 20
38.3666765210894
 30
0.0
 10
-28.99990857201133
 20
38.36247946476683
 30
0.0
 10
-28.9997683533261
 20
38.35828240844425
 30
0.0
 10
-28.99953170511674
 20
38.3540527843366
 30
0.0
 10
-28.99929505690739
 20
38.34982316022896
 30
0.0
 10
-28.99895966172435
 20
38.34556387300866
 30
0.0
 10
-28.9986242665413
 20
38.34130458578836
 30
0.0
 10
-28.99818790358803
 20
38.3370186938972
 30
0.0
 10
-28.99775154063475
 20
38.33273280200604
 30
0.0
 10
-28.99721209659841
 20
38.32842351504483
 30
0.0
 10
-28.99667265256206
 20
38.32411422808362
 30
0.0
 10
-28.99602813250699
 20
38.31978490338089
 30
0.0
 10
-28.99538361245191
 20
38.31545557867815
 30
0.0
 10
-28.9946321507098
 20
38.31110971701179
 30
0.0
 10
-28.99388068896769
 20
38.30676385534544
 30
0.0
 10
-28.99302055995387
 20
38.30240509579667
 30
0.0
 10
-28.99216043094004
 20
38.2980463362479
 30
0.0
 10
-28.99119005982127
 20
38.29367845017274
 30
0.0
 10
-28.9902196887025
 20
38.28931056409758
 30
0.0
 10
-28.98913766183858
 20
38.28493744820845
 30
0.0
 10
-28.98805563497465
 20
38.28056433231931
 30
0.0
 10
-28.98686071005313
 20
38.27619000087614
 30
0.0
 10
-28.98566578513161
 20
38.27181566943298
 30
0.0
 10
-28.98435690091324
 20
38.2674442455516
 30
0.0
 10
-28.98304801669487
 20
38.26307282167023
 30
0.0
 10
-28.98162430228599
 20
38.2587085277635
 30
0.0
 10
-28.9802005878771
 20
38.25434423385676
 30
0.0
 10
-28.97866137144506
 20
38.2499913812331
 30
0.0
 10
-28.97712215501301
 20
38.24563852860943
 30
0.0
 10
-28.97546697186144
 20
38.24130150626186
 30
0.0
 10
-28.97381178870988
 20
38.2369644839143
 30
0.0
 10
-28.9720403886323
 20
38.2326477465422
 30
0.0
 10
-28.97026898855472
 20
38.2283310091701
 30
0.0
 10
-28.96838134238749
 20
38.22403906448476
 30
0.0
 10
-28.96649369622025
 20
38.21974711979943
 30
0.0
 10
-28.96449000152017
 20
38.21548451517335
 30
0.0
 10
-28.96248630682008
 20
38.21122191054727
 30
0.0
 10
-28.96036699259636
 20
38.20699321907564
 30
0.0
 10
-28.95824767837263
 20
38.202764527604
 30
0.0
 10
-28.95601340880913
 20
38.19857433365487
 30
0.0
 10
-28.95377913924564
 20
38.19438413970573
 30
0.0
 10
-28.9514308163562
 20
38.19023702404303
 30
0.0
 10
-28.94908249346676
 20
38.18608990838032
 30
0.0
 10
-28.9466212586342
 20
38.1819904329506
 30
0.0
 10
-28.94416002380163
 20
38.17789095752088
 30
0.0
 10
-28.94158725816005
 20
38.17384365000073
 30
0.0
 10
-28.93901449251847
 20
38.16979634248057
 30
0.0
 10
-28.93633181614788
 20
38.16580568068669
 30
0.0
 10
-28.93364913977728
 20
38.16181501889281
 30
0.0
 10
-28.93085840968982
 20
38.15788541516088
 30
0.0
 10
-28.92806767960235
 20
38.15395581142894
 30
0.0
 10
-28.92517098651031
 20
38.15009159706996
 30
0.0
 10
-28.92227429341826
 20
38.14622738271098
 30
0.0
 10
-28.91927395728515
 20
38.14243279265564
 30
0.0
 10
-28.91627362115204
 20
38.1386382026003
 30
0.0
 10
-28.91317218553948
 20
38.13491736034212
 30
0.0
 10
-28.91007074992691
 20
38.13119651808395
 30
0.0
 10
-28.90687097516152
 20
38.12755342103094
 30
0.0
 10
-28.90367120039613
 20
38.12391032397794
 30
0.0
 10
-28.90037605559213
 20
38.1203488293201
 30
0.0
 10
-28.89708091078813
 20
38.11678733466226
 30
0.0
 10
-28.89369356477228
 20
38.11331114585866
 30
0.0
 10
-28.89030621875643
 20
38.10983495705505
 30
0.0
 10
-28.88683002995283
 20
38.1064476110392
 30
0.0
 10
-28.88335384114922
 20
38.10306026502335
 30
0.0
 10
-28.87979234649138
 20
38.09976512021935
 30
0.0
 10
-28.87623085183354
 20
38.09646997541535
 30
0.0
 10
-28.87258775478054
 20
38.09327020064996
 30
0.0
 10
-28.86894465772754
 20
38.09007042588457
 30
0.0
 10
-28.86522381546937
 20
38.08696899027201
 30
0.0
 10
-28.86150297321119
 20
38.08386755465944
 30
0.0
 10
-28.85770838315584
 20
38.08086721852632
 30
0.0
 10
-28.85391379310049
 20
38.0778668823932
 30
0.0
 10
-28.8500495787415
 20
38.07497018930115
 30
0.0
 10
-28.84618536438252
 20
38.07207349620911
 30
0.0
 10
-28.84225576065059
 20
38.06928276612165
 30
0.0
 10
-28.83832615691866
 20
38.06649203603419
 30
0.0
 10
-28.83433549512478
 20
38.06380935966359
 30
0.0
 10
-28.8303448333309
 20
38.061126683293
 30
0.0
 10
-28.82629752581074
 20
38.05855391765142
 30
0.0
 10
-28.82225021829059
 20
38.05598115200984
 30
0.0
 10
-28.81815074286087
 20
38.05351991717728
 30
0.0
 10
-28.81405126743115
 20
38.05105868234471
 30
0.0
 10
-28.80990415176846
 20
38.04871035945527
 30
0.0
 10
-28.80575703610576
 20
38.04636203656583
 30
0.0
 10
-28.80156684215662
 20
38.04412776700234
 30
0.0
 10
-28.79737664820747
 20
38.04189349743884
 30
0.0
 10
-28.79314795673583
 20
38.03977418321512
 30
0.0
 10
-28.78891926526419
 20
38.03765486899139
 30
0.0
 10
-28.78465666063812
 20
38.0356511742913
 30
0.0
 10
-28.78039405601204
 20
38.03364747959122
 30
0.0
 10
-28.7761021113267
 20
38.03175983342398
 30
0.0
 10
-28.77181016664136
 20
38.02987218725674
 30
0.0
 10
-28.76749342926927
 20
38.02810078717917
 30
0.0
 10
-28.76317669189717
 20
38.02632938710159
 30
0.0
 10
-28.7588396695496
 20
38.02467420395003
 30
0.0
 10
-28.75450264720203
 20
38.02301902079846
 30
0.0
 10
-28.75014979457837
 20
38.02147980436641
 30
0.0
 10
-28.7457969419547
 20
38.01994058793436
 30
0.0
 10
-28.74143264804797
 20
38.01851687352547
 30
0.0
 10
-28.73706835414123
 20
38.01709315911659
 30
0.0
 10
-28.73269693025986
 20
38.01578427489822
 30
0.0
 10
-28.72832550637848
 20
38.01447539067986
 30
0.0
 10
-28.72395117493533
 20
38.01328046575834
 30
0.0
 10
-28.71957684349217
 20
38.01208554083682
 30
0.0
 10
-28.71520372760303
 20
38.0110035139729
 30
0.0
 10
-28.71083061171389
 20
38.00992148710897
 30
0.0
 10
-28.70646272563873
 20
38.00895111599019
 30
0.0
 10
-28.70209483956357
 20
38.00798074487142
 30
0.0
 10
-28.6977360800148
 20
38.0071206158576
 30
0.0
 10
-28.69337732046603
 20
38.00626048684378
 30
0.0
 10
-28.68903145879968
 20
38.00550902510167
 30
0.0
 10
-28.68468559713332
 20
38.00475756335956
 30
0.0
 10
-28.68035627243058
 20
38.00411304330449
 30
0.0
 10
-28.67602694772784
 20
38.0034685232494
 30
0.0
 10
-28.67171766076663
 20
38.00292907921306
 30
0.0
 10
-28.66740837380542
 20
38.00238963517671
 30
0.0
 10
-28.66312248191426
 20
38.00195327222345
 30
0.0
 10
-28.65883659002311
 20
38.00151690927017
 30
0.0
 10
-28.65457730280281
 20
38.00118151408711
 30
0.0
 10
-28.6503180155825
 20
38.00084611890406
 30
0.0
 10
-28.64608839147486
 20
38.00060947069471
 30
0.0
 10
-28.64185876736722
 20
38.00037282248537
 30
0.0
 10
-28.63766171104465
 20
38.00023260380014
 30
0.0
 10
-28.63346465472208
 20
38.00009238511491
 30
0.0
 10
-0.0041707372844328
 20
38.00004619255746
 30
0.0
 10
28.62512318015322
 20
38.0
 30
0.0
 10
28.62928491960852
 20
38.00004619255746
 30
0.0
 10
28.63344665906382
 20
38.00009238511491
 30
0.0
 10
28.63764371538639
 20
38.00023260380014
 30
0.0
 10
28.64184077170897
 20
38.00037282248537
 30
0.0
 10
28.64607039581661
 20
38.00060947069472
 30
0.0
 10
28.65030001992425
 20
38.00084611890407
 30
0.0
 10
28.65455930714455
 20
38.00118151408712
 30
0.0
 10
28.65881859436486
 20
38.00151690927017
 30
0.0
 10
28.66310448625602
 20
38.00195327222345
 30
0.0
 10
28.66739037814718
 20
38.00238963517673
 30
0.0
 10
28.67169966510839
 20
38.00292907921308
 30
0.0
 10
28.6760089520696
 20
38.00346852324941
 30
0.0
 10
28.68033827677234
 20
38.00411304330448
 30
0.0
 10
28.68466760147508
 20
38.00475756335955
 30
0.0
 10
28.68901346314143
 20
38.00550902510167
 30
0.0
 10
28.69335932480778
 20
38.00626048684379
 30
0.0
 10
28.69771808435654
 20
38.00712061585762
 30
0.0
 10
28.70207684390532
 20
38.00798074487144
 30
0.0
 10
28.70644472998048
 20
38.00895111599021
 30
0.0
 10
28.71081261605564
 20
38.00992148710898
 30
0.0
 10
28.71518573194478
 20
38.01100351397291
 30
0.0
 10
28.71955884783392
 20
38.01208554083683
 30
0.0
 10
28.72393317927708
 20
38.01328046575835
 30
0.0
 10
28.72830751072024
 20
38.01447539067987
 30
0.0
 10
28.73267893460162
 20
38.01578427489824
 30
0.0
 10
28.737050358483
 20
38.01709315911661
 30
0.0
 10
28.74141465238973
 20
38.0185168735255
 30
0.0
 10
28.74577894629646
 20
38.01994058793439
 30
0.0
 10
28.75013179892012
 20
38.02147980436644
 30
0.0
 10
28.75448465154379
 20
38.02301902079848
 30
0.0
 10
28.75882167389136
 20
38.02467420395004
 30
0.0
 10
28.76315869623893
 20
38.0263293871016
 30
0.0
 10
28.76747543361103
 20
38.02810078717917
 30
0.0
 10
28.77179217098312
 20
38.02987218725675
 30
0.0
 10
28.77608411566845
 20
38.03175983342398
 30
0.0
 10
28.78037606035379
 20
38.03364747959122
 30
0.0
 10
28.78463866497987
 20
38.03565117429131
 30
0.0
 10
28.78890126960595
 20
38.0376548689914
 30
0.0
 10
28.79312996107759
 20
38.03977418321513
 30
0.0
 10
28.79735865254923
 20
38.04189349743885
 30
0.0
 10
28.80154884649837
 20
38.04412776700235
 30
0.0
 10
28.80573904044751
 20
38.04636203656585
 30
0.0
 10
28.80988615611021
 20
38.04871035945528
 30
0.0
 10
28.81403327177291
 20
38.05105868234472
 30
0.0
 10
28.81813274720262
 20
38.05351991717728
 30
0.0
 10
28.82223222263234
 20
38.05598115200985
 30
0.0
 10
28.82627953015249
 20
38.05855391765143
 30
0.0
 10
28.83032683767265
 20
38.06112668329301
 30
0.0
 10
28.83431749946653
 20
38.06380935966361
 30
0.0
 10
28.83830816126042
 20
38.06649203603421
 30
0.0
 10
28.84223776499235
 20
38.06928276612167
 30
0.0
 10
28.84616736872428
 20
38.07207349620912
 30
0.0
 10
28.85003158308326
 20
38.07497018930117
 30
0.0
 10
28.85389579744225
 20
38.07786688239322
 30
0.0
 10
28.85769038749759
 20
38.08086721852632
 30
0.0
 10
28.86148497755294
 20
38.08386755465943
 30
0.0
 10
28.86520581981111
 20
38.086968990272
 30
0.0
 10
28.86892666206929
 20
38.09007042588456
 30
0.0
 10
28.87256975912229
 20
38.09327020064995
 30
0.0
 10
28.8762128561753
 20
38.09646997541534
 30
0.0
 10
28.87977435083314
 20
38.09976512021934
 30
0.0
 10
28.88333584549098
 20
38.10306026502334
 30
0.0
 10
28.88681203429458
 20
38.10644761103919
 30
0.0
 10
28.89028822309818
 20
38.10983495705505
 30
0.0
 10
28.89367556911403
 20
38.11331114585865
 30
0.0
 10
28.89706291512989
 20
38.11678733466225
 30
0.0
 10
28.90035805993388
 20
38.12034882932008
 30
0.0
 10
28.90365320473788
 20
38.12391032397792
 30
0.0
 10
28.90685297950327
 20
38.12755342103092
 30
0.0
 10
28.91005275426866
 20
38.13119651808393
 30
0.0
 10
28.91315418988122
 20
38.13491736034211
 30
0.0
 10
28.91625562549379
 20
38.13863820260029
 30
0.0
 10
28.9192559616269
 20
38.14243279265564
 30
0.0
 10
28.92225629776002
 20
38.14622738271098
 30
0.0
 10
28.92515299085206
 20
38.15009159706997
 30
0.0
 10
28.92804968394411
 20
38.15395581142895
 30
0.0
 10
28.93084041403157
 20
38.15788541516088
 30
0.0
 10
28.93363114411904
 20
38.16181501889282
 30
0.0
 10
28.93631382048963
 20
38.1658056806867
 30
0.0
 10
28.93899649686022
 20
38.16979634248058
 30
0.0
 10
28.9415692625018
 20
38.17384365000073
 30
0.0
 10
28.94414202814338
 20
38.17789095752089
 30
0.0
 10
28.94660326297594
 20
38.1819904329506
 30
0.0
 10
28.94906449780851
 20
38.18608990838032
 30
0.0
 10
28.95141282069795
 20
38.19023702404303
 30
0.0
 10
28.9537611435874
 20
38.19438413970574
 30
0.0
 10
28.95599541315089
 20
38.19857433365488
 30
0.0
 10
28.95822968271439
 20
38.20276452760401
 30
0.0
 10
28.96034899693811
 20
38.20699321907564
 30
0.0
 10
28.96246831116184
 20
38.21122191054728
 30
0.0
 10
28.96447200586192
 20
38.21548451517336
 30
0.0
 10
28.96647570056201
 20
38.21974711979944
 30
0.0
 10
28.96836334672924
 20
38.22403906448478
 30
0.0
 10
28.97025099289648
 20
38.22833100917011
 30
0.0
 10
28.97202239297406
 20
38.23264774654221
 30
0.0
 10
28.97379379305164
 20
38.23696448391431
 30
0.0
 10
28.9754489762032
 20
38.24130150626188
 30
0.0
 10
28.97710415935476
 20
38.24563852860945
 30
0.0
 10
28.97864337578681
 20
38.24999138123312
 30
0.0
 10
28.98018259221886
 20
38.25434423385678
 30
0.0
 10
28.98160630662774
 20
38.25870852776352
 30
0.0
 10
28.98303002103663
 20
38.26307282167025
 30
0.0
 10
28.98433890525499
 20
38.26744424555163
 30
0.0
 10
28.98564778947336
 20
38.271815669433
 30
0.0
 10
28.98684271439488
 20
38.27619000087616
 30
0.0
 10
28.9880376393164
 20
38.28056433231931
 30
0.0
 10
28.98911966618032
 20
38.28493744820845
 30
0.0
 10
28.99020169304425
 20
38.28931056409759
 30
0.0
 10
28.99117206416302
 20
38.29367845017275
 30
0.0
 10
28.9921424352818
 20
38.29804633624791
 30
0.0
 10
28.99300256429562
 20
38.30240509579669
 30
0.0
 10
28.99386269330944
 20
38.30676385534546
 30
0.0
 10
28.99461415505155
 20
38.3111097170118
 30
0.0
 10
28.99536561679366
 20
38.31545557867815
 30
0.0
 10
28.99601013684874
 20
38.31978490338089
 30
0.0
 10
28.99665465690382
 20
38.32411422808364
 30
0.0
 10
28.99719410094016
 20
38.32842351504485
 30
0.0
 10
28.99773354497651
 20
38.33273280200606
 30
0.0
 10
28.99816990792978
 20
38.33701869389722
 30
0.0
 10
28.99860627088305
 20
38.34130458578837
 30
0.0
 10
28.9989416660661
 20
38.34556387300869
 30
0.0
 10
28.99927706124915
 20
38.34982316022899
 30
0.0
 10
28.9995137094585
 20
38.35405278433663
 30
0.0
 10
28.99975035766785
 20
38.35828240844426
 30
0.0
 10
28.99989057635307
 20
38.36247946476684
 30
0.0
 10
29.00003079503831
 20
38.3666765210894
 30
0.0
 10
29.00007698759576
 20
45.87085578525788
 30
0.0
 10
29.00012318015322
 20
53.37503504942636
 30
0.0
 10
29.00007698759576
 20
53.37919678888166
 30
0.0
 10
29.00003079503831
 20
53.38335852833695
 30
0.0
 10
28.99989057635307
 20
53.38755558465952
 30
0.0
 10
28.99975035766785
 20
53.39175264098211
 30
0.0
 10
28.99951370945849
 20
53.39598226508974
 30
0.0
 10
28.99927706124914
 20
53.40021188919738
 30
0.0
 10
28.9989416660661
 20
53.40447117641769
 30
0.0
 10
28.99860627088305
 20
53.408730463638
 30
0.0
 10
28.99816990792978
 20
53.41301635552916
 30
0.0
 10
28.99773354497651
 20
53.41730224742032
 30
0.0
 10
28.99719410094016
 20
53.42161153438153
 30
0.0
 10
28.99665465690381
 20
53.42592082134274
 30
0.0
 10
28.99601013684873
 20
53.43025014604547
 30
0.0
 10
28.99536561679366
 20
53.43457947074821
 30
0.0
 10
28.99461415505154
 20
53.43892533241457
 30
0.0
 10
28.99386269330943
 20
53.44327119408092
 30
0.0
 10
28.99300256429561
 20
53.44762995362969
 30
0.0
 10
28.99214243528179
 20
53.45198871317847
 30
0.0
 10
28.99117206416302
 20
53.45635659925362
 30
0.0
 10
28.99020169304425
 20
53.46072448532878
 30
0.0
 10
28.98911966618032
 20
53.46509760121792
 30
0.0
 10
28.9880376393164
 20
53.46947071710707
 30
0.0
 10
28.98684271439488
 20
53.47384504855022
 30
0.0
 10
28.98564778947336
 20
53.47821937999338
 30
0.0
 10
28.98433890525499
 20
53.48259080387476
 30
0.0
 10
28.98303002103663
 20
53.48696222775614
 30
0.0
 10
28.98160630662774
 20
53.49132652166287
 30
0.0
 10
28.98018259221885
 20
53.4956908155696
 30
0.0
 10
28.9786433757868
 20
53.50004366819326
 30
0.0
 10
28.97710415935475
 20
53.50439652081693
 30
0.0
 10
28.97544897620319
 20
53.5087335431645
 30
0.0
 10
28.97379379305163
 20
53.51307056551207
 30
0.0
 10
28.97202239297405
 20
53.51738730288416
 30
0.0
 10
28.97025099289647
 20
53.52170404025626
 30
0.0
 10
28.96836334672923
 20
53.52599598494159
 30
0.0
 10
28.966475700562
 20
53.53028792962693
 30
0.0
 10
28.96447200586191
 20
53.53455053425301
 30
0.0
 10
28.96246831116183
 20
53.53881313887909
 30
0.0
 10
28.9603489969381
 20
53.54304183035072
 30
0.0
 10
28.95822968271438
 20
53.54727052182236
 30
0.0
 10
28.95599541315088
 20
53.5514607157715
 30
0.0
 10
28.95376114358739
 20
53.55565090972064
 30
0.0
 10
28.95141282069795
 20
53.55979802538334
 30
0.0
 10
28.94906449780851
 20
53.56394514104604
 30
0.0
 10
28.94660326297594
 20
53.56804461647576
 30
0.0
 10
28.94414202814338
 20
53.57214409190547
 30
0.0
 10
28.9415692625018
 20
53.57619139942562
 30
0.0
 10
28.93899649686022
 20
53.58023870694579
 30
0.0
 10
28.93631382048962
 20
53.58422936873967
 30
0.0
 10
28.93363114411903
 20
53.58822003053355
 30
0.0
 10
28.93084041403156
 20
53.59214963426548
 30
0.0
 10
28.9280496839441
 20
53.59607923799741
 30
0.0
 10
28.92515299085205
 20
53.59994345235639
 30
0.0
 10
28.92225629776001
 20
53.60380766671538
 30
0.0
 10
28.9192559616269
 20
53.60760225677073
 30
0.0
 10
28.91625562549379
 20
53.61139684682608
 30
0.0
 10
28.91315418988122
 20
53.61511768908424
 30
0.0
 10
28.91005275426865
 20
53.61883853134242
 30
0.0
 10
28.90685297950326
 20
53.62248162839542
 30
0.0
 10
28.90365320473787
 20
53.62612472544843
 30
0.0
 10
28.90035805993387
 20
53.62968622010627
 30
0.0
 10
28.89706291512988
 20
53.63324771476411
 30
0.0
 10
28.89367556911403
 20
53.63672390356771
 30
0.0
 10
28.89028822309818
 20
53.64020009237132
 30
0.0
 10
28.88681203429457
 20
53.64358743838717
 30
0.0
 10
28.88333584549097
 20
53.64697478440302
 30
0.0
 10
28.87977435083313
 20
53.65026992920701
 30
0.0
 10
28.87621285617529
 20
53.65356507401101
 30
0.0
 10
28.87256975912228
 20
53.6567648487764
 30
0.0
 10
28.86892666206928
 20
53.6599646235418
 30
0.0
 10
28.8652058198111
 20
53.66306605915436
 30
0.0
 10
28.86148497755293
 20
53.66616749476693
 30
0.0
 10
28.85769038749758
 20
53.66916783090004
 30
0.0
 10
28.85389579744224
 20
53.67216816703315
 30
0.0
 10
28.85003158308325
 20
53.67506486012519
 30
0.0
 10
28.84616736872427
 20
53.67796155321724
 30
0.0
 10
28.84223776499234
 20
53.6807522833047
 30
0.0
 10
28.83830816126041
 20
53.68354301339217
 30
0.0
 10
28.83431749946653
 20
53.68622568976276
 30
0.0
 10
28.83032683767265
 20
53.68890836613335
 30
0.0
 10
28.82627953015249
 20
53.69148113177493
 30
0.0
 10
28.82223222263234
 20
53.69405389741651
 30
0.0
 10
28.81813274720262
 20
53.69651513224908
 30
0.0
 10
28.81403327177291
 20
53.69897636708164
 30
0.0
 10
28.80988615611021
 20
53.70132468997109
 30
0.0
 10
28.80573904044751
 20
53.70367301286053
 30
0.0
 10
28.80154884649837
 20
53.70590728242402
 30
0.0
 10
28.79735865254923
 20
53.70814155198752
 30
0.0
 10
28.79312996107759
 20
53.71026086621124
 30
0.0
 10
28.78890126960595
 20
53.71238018043497
 30
0.0
 10
28.78463866497987
 20
53.71438387513506
 30
0.0
 10
28.78037606035379
 20
53.71638756983514
 30
0.0
 10
28.77608411566845
 20
53.71827521600238
 30
0.0
 10
28.77179217098312
 20
53.72016286216962
 30
0.0
 10
28.76747543361102
 20
53.7219342622472
 30
0.0
 10
28.76315869623892
 20
53.72370566232478
 30
0.0
 10
28.75882167389135
 20
53.72536084547634
 30
0.0
 10
28.75448465154378
 20
53.7270160286279
 30
0.0
 10
28.75013179892011
 20
53.72855524505995
 30
0.0
 10
28.74577894629645
 20
53.730094461492
 30
0.0
 10
28.74141465238971
 20
53.73151817590089
 30
0.0
 10
28.73705035848299
 20
53.73294189030978
 30
0.0
 10
28.73267893460161
 20
53.73425077452814
 30
0.0
 10
28.72830751072024
 20
53.7355596587465
 30
0.0
 10
28.72393317927708
 20
53.73675458366802
 30
0.0
 10
28.71955884783392
 20
53.73794950858955
 30
0.0
 10
28.71518573194478
 20
53.73903153545347
 30
0.0
 10
28.71081261605564
 20
53.74011356231739
 30
0.0
 10
28.70644472998048
 20
53.74108393343617
 30
0.0
 10
28.70207684390532
 20
53.74205430455494
 30
0.0
 10
28.69771808435654
 20
53.74291443356876
 30
0.0
 10
28.69335932480777
 20
53.74377456258257
 30
0.0
 10
28.68901346314141
 20
53.74452602432468
 30
0.0
 10
28.68466760147507
 20
53.74527748606679
 30
0.0
 10
28.68033827677232
 20
53.74592200612187
 30
0.0
 10
28.67600895206959
 20
53.74656652617696
 30
0.0
 10
28.67169966510838
 20
53.74710597021331
 30
0.0
 10
28.66739037814717
 20
53.74764541424966
 30
0.0
 10
28.66310448625601
 20
53.74808177720293
 30
0.0
 10
28.65881859436486
 20
53.74851814015619
 30
0.0
 10
28.65455930714455
 20
53.74885353533924
 30
0.0
 10
28.65030001992425
 20
53.74918893052228
 30
0.0
 10
28.64607039581661
 20
53.74942557873163
 30
0.0
 10
28.64184077170897
 20
53.74966222694099
 30
0.0
 10
28.63764371538639
 20
53.74980244562622
 30
0.0
 10
28.63344665906382
 20
53.74994266431144
 30
0.0
 10
28.62928491960852
 20
53.7499888568689
 30
0.0
 10
28.62512318015322
 20
53.75003504942636
 30
0.0
  0
SPLINE
  5
3D
330
1F
100
AcDbEntity
  8
DEFAULT
100
AcDbSpline
210
0.0
220
0.0
230
1.0
 70
    11
 71
     2
 72
    12
 73
     9
 74
     0
 42
0.0000000001
 43
0.0000000001
 40
0.0
 40
0.0
 40
0.0
 40
1.0
 40
1.0
 40
2.0
 40
2.0
 40
3.0
 40
3.0
 40
4.0
 40
4.0
 40
4.0
 10
45.8309747917276
 20
0.4174999999999995
 30
0.0
 10
48.26110461189582
 20
0.4174999999999995
 30
0.0
 10
50.69123443206404
 20
0.4174999999999995
 30
0.0
 10
50.69123443206404
 20
0.9571674999999977
 30
0.0
 10
50.69123443206404
 20
1.496834999999996
 30
0.0
 10
48.26110461189582
 20
1.496834999999996
 30
0.0
 10
45.8309747917276
 20
1.496834999999996
 30
0.0
 10
45.8309747917276
 20
0.9571674999999977
 30
0.0
 10
45.8309747917276
 20
0.4174999999999995
 30
0.0
  0
SPLINE
  5
3E
330
1F
100
AcDbEntity
  8
DEFAULT
100
AcDbSpline
210
0.0
220
0.0
230
1.0
 70
    24
 71
     2
 72
     6
 73
     3
 74
     0
 42
0.0000000001
 43
0.0000000001
 40
0.0
 40
0.0
 40
0.0
 40
5.360000000000014
 40
5.360000000000014
 40
5.360000000000014
 10
50.69123443206404
 20
1.289999999999998
 30
0.0
 10
48.26110461189582
 20
1.289999999999998
 30
0.0
 10
45.8309747917276
 20
1.289999999999998
 30
0.0
  0
SPLINE
  5
3F
330
1F
100
AcDbEntity
  8
DEFAULT
100
AcDbSpline
210
0.0
220
0.0
230
1.0
 70
    24
 71
     2
 72
     6
 73
     3
 74
     0
 42
0.0000000001
 43
0.0000000001
 40
0.0
 40
0.0
 40
0.0
 40
5.360000000000014
 40
5.360000000000014
 40
5.360000000000014
 10
45.8309747917276
 20
0.6024999999999983
 30
0.0
 10
48.26110461189582
 20
0.6024999999999983
 30
0.0
 10
50.69123443206404
 20
0.6024999999999983
 30
0.0
  0
SPLINE
  5
40
330
1F
100
AcDbEntity
  8
DEFAULT
100
AcDbSpline
210
0.0
220
0.0
230
1.0
 70
    11
 71
     2
 72
   516
 73
   513
 74
     0
 42
0.0000000001
 43
0.0000000001
 40
0.0
 40
0.0
 40
0.0
 40
1.0
 40
1.0
 40
2.0
 40
2.0
 40
3.0
 40
3.0
 40
4.0
 40
4.0
 40
5.0
 40
5.0
 40
6.0
 40
6.0
 40
7.0
 40
7.0
 40
8.0
 40
8.0
 40
9.0
 40
9.0
 40
10.0
 40
10.0
 40
11.0
 40
11.0
 40
12.0
 40
12.0
 40
13.0
 40
13.0
 40
14.0
 40
14.0
 40
15.0
 40
15.0
 40
16.0
 40
16.0
 40
17.0
 40
17.0
 40
18.0
 40
18.0
 40
19.0
 40
19.0
 40
20.0
 40
20.0
 40
21.0
 40
21.0
 40
22.0
 40
22.0
 40
23.0
 40
23.0
 40
24.0
 40
24.0
 40
25.0
 40
25.0
 40
26.0
 40
26.0
 40
27.0
 40
27.0
 40
28.0
 40
28.0
 40
29.0
 40
29.0
 40
30.0
 40
30.0
 40
31.0
 40
31.0
 40
32.0
 40
32.0
 40
33.0
 40
33.0
 40
34.0
 40
34.0
 40
35.0
 40
35.0
 40
36.0
 40
36.0
 40
37.0
 40
37.0
 40
38.0
 40
38.0
 40
39.0
 40
39.0
 40
40.0
 40
40.0
 40
41.0
 40
41.0
 40
42.0
 40
42.0
 40
43.0
 40
43.0
 40
44.0
 40
44.0
 40
45.0
 40
45.0
 40
46.0
 40
46.0
 40
47.0
 40
47.0
 40
48.0
 40
48.0
 40
49.0
 40
49.0
 40
50.0
 40
50.0
 40
51.0
 40
51.0
 40
52.0
 40
52.0
 40
53.0
 40
53.0
 40
54.0
 40
54.0
 40
55.0
 40
55.0
 40
56.0
 40
56.0
 40
57.0
 40
57.0
 40
58.0
 40
58.0
 40
59.0
 40
59.0
 40
60.0
 40
60.0
 40
61.0
 40
61.0
 40
62.0
 40
62.0
 40
63.0
 40
63.0
 40
64.0
 40
64.0
 40
65.0
 40
65.0
 40
66.0
 40
66.0
 40
67.0
 40
67.0
 40
68.0
 40
68.0
 40
69.0
 40
69.0
 40
70.0
 40
70.0
 40
71.0
 40
71.0
 40
72.0
 40
72.0
 40
73.0
 40
73.0
 40
74.0
 40
74.0
 40
75.0
 40
75.0
 40
76.0
 40
76.0
 40
77.0
 40
77.0
 40
78.0
 40
78.0
 40
79.0
 40
79.0
 40
80.0
 40
80.0
 40
81.0
 40
81.0
 40
82.0
 40
82.0
 40
83.0
 40
83.0
 40
84.0
 40
84.0
 40
85.0
 40
85.0
 40
86.0
 40
86.0
 40
87.0
 40
87.0
 40
88.0
 40
88.0
 40
89.0
 40
89.0
 40
90.0
 40
90.0
 40
91.0
 40
91.0
 40
92.0
 40
92.0
 40
93.0
 40
93.0
 40
94.0
 40
94.0
 40
95.0
 40
95.0
 40
96.0
 40
96.0
 40
97.0
 40
97.0
 40
98.0
 40
98.0
 40
99.0
 40
99.0
 40
100.0
 40
100.0
 40
101.0
 40
101.0
 40
102.0
 40
102.0
 40
103.0
 40
103.0
 40
104.0
 40
104.0
 40
105.0
 40
105.0
 40
106.0
 40
106.0
 40
107.0
 40
107.0
 40
108.0
 40
108.0
 40
109.0
 40
109.0
 40
110.0
 40
110.0
 40
111.0
 40
111.0
 40
112.0
 40
112.0
 40
113.0
 40
113.0
 40
114.0
 40
114.0
 40
115.0
 40
115.0
 40
116.0
 40
116.0
 40
117.0
 40
117.0
 40
118.0
 40
118.0
 40
119.0
 40
119.0
 40
120.0
 40
120.0
 40
121.0
 40
121.0
 40
122.0
 40
122.0
 40
123.0
 40
123.0
 40
124.0
 40
124.0
 40
125.0
 40
125.0
 40
126.0
 40
126.0
 40
127.0
 40
127.0
 40
128.0
 40
128.0
 40
129.0
 40
129.0
 40
130.0
 40
130.0
 40
131.0
 40
131.0
 40
132.0
 40
132.0
 40
133.0
 40
133.0
 40
134.0
 40
134.0
 40
135.0
 40
135.0
 40
136.0
 40
136.0
 40
137.0
 40
137.0
 40
138.0
 40
138.0
 40
139.0
 40
139.0
 40
140.0
 40
140.0
 40
141.0
 40
141.0
 40
142.0
 40
142.0
 40
143.0
 40
143.0
 40
144.0
 40
144.0
 40
145.0
 40
145.0
 40
146.0
 40
146.0
 40
147.0
 40
147.0
 40
148.0
 40
148.0
 40
149.0
 40
149.0
 40
150.0
 40
150.0
 40
151.0
 40
151.0
 40
152.0
 40
152.0
 40
153.0
 40
153.0
 40
154.0
 40
154.0
 40
155.0
 40
155.0
 40
156.0
 40
156.0
 40
157.0
 40
157.0
 40
158.0
 40
158.0
 40
159.0
 40
159.0
 40
160.0
 40
160.0
 40
161.0
 40
161.0
 40
162.0
 40
162.0
 40
163.0
 40
163.0
 40
164.0
 40
164.0
 40
165.0
 40
165.0
 40
166.0
 40
166.0
 40
167.0
 40
167.0
 40
168.0
 40
168.0
 40
169.0
 40
169.0
 40
170.0
 40
170.0
 40
171.0
 40
171.0
 40
172.0
 40
172.0
 40
173.0
 40
173.0
 40
174.0
 40
174.0
 40
175.0
 40
175.0
 40
176.0
 40
176.0
 40
177.0
 40
177.0
 40
178.0
 40
178.0
 40
179.0
 40
179.0
 40
180.0
 40
180.0
 40
181.0
 40
181.0
 40
182.0
 40
182.0
 40
183.0
 40
183.0
 40
184.0
 40
184.0
 40
185.0
 40
185.0
 40
186.0
 40
186.0
 40
187.0
 40
187.0
 40
188.0
 40
188.0
 40
189.0
 40
189.0
 40
190.0
 40
190.0
 40
191.0
 40
191.0
 40
192.0
 40
192.0
 40
193.0
 40
193.0
 40
194.0
 40
194.0
 40
195.0
 40
195.0
 40
196.0
 40
196.0
 40
197.0
 40
197.0
 40
198.0
 40
198.0
 40
199.0
 40
199.0
 40
200.0
 40
200.0
 40
201.0
 40
201.0
 40
202.0
 40
202.0
 40
203.0
 40
203.0
 40
204.0
 40
204.0
 40
205.0
 40
205.0
 40
206.0
 40
206.0
 40
207.0
 40
207.0
 40
208.0
 40
208.0
 40
209.0
 40
209.0
 40
210.0
 40
210.0
 40
211.0
 40
211.0
 40
212.0
 40
212.0
 40
213.0
 40
213.0
 40
214.0
 40
214.0
 40
215.0
 40
215.0
 40
216.0
 40
216.0
 40
217.0
 40
217.0
 40
218.0
 40
218.0
 40
219.0
 40
219.0
 40
220.0
 40
220.0
 40
221.0
 40
221.0
 40
222.0
 40
222.0
 40
223.0
 40
223.0
 40
224.0
 40
224.0
 40
225.0
 40
225.0
 40
226.0
 40
226.0
 40
227.0
 40
227.0
 40
228.0
 40
228.0
 40
229.0
 40
229.0
 40
230.0
 40
230.0
 40
231.0
 40
231.0
 40
232.0
 40
232.0
 40
233.0
 40
233.0
 40
234.0
 40
234.0
 40
235.0
 40
235.0
 40
236.0
 40
236.0
 40
237.0
 40
237.0
 40
238.0
 40
238.0
 40
239.0
 40
239.0
 40
240.0
 40
240.0
 40
241.0
 40
241.0
 40
242.0
 40
242.0
 40
243.0
 40
243.0
 40
244.0
 40
244.0
 40
245.0
 40
245.0
 40
246.0
 40
246.0
 40
247.0
 40
247.0
 40
248.0
 40
248.0
 40
249.0
 40
249.0
 40
250.0
 40
250.0
 40
251.0
 40
251.0
 40
252.0
 40
252.0
 40
253.0
 40
253.0
 40
254.0
 40
254.0
 40
255.0
 40
255.0
 40
256.0
 40
256.0
 40
256.0
 10
56.13623443206403
 20
2.499999999999992
 30
0.0
 10
56.13611125191082
 20
14.7610979718808
 30
0.0
 10
56.13598807175761
 20
27.02219594376161
 30
0.0
 10
56.13561415526366
 20
27.03338809395513
 30
0.0
 10
56.13524023876971
 20
27.04458024414866
 30
0.0
 10
56.13460917687812
 20
27.05585924176903
 30
0.0
 10
56.13397811498651
 20
27.06713823938941
 30
0.0
 10
56.13308372783172
 20
27.07849633864356
 30
0.0
 10
56.13218934067692
 20
27.08985443789771
 30
0.0
 10
56.13102570613485
 20
27.10128348294079
 30
0.0
 10
56.12986207159278
 20
27.11271252798387
 30
0.0
 10
56.12842355416252
 20
27.12420395988043
 30
0.0
 10
56.12698503673227
 20
27.13569539177699
 30
0.0
 10
56.12526631658539
 20
27.14724025765096
 30
0.0
 10
56.12354759643851
 20
27.15878512352494
 30
0.0
 10
56.12154369845955
 20
27.17037408796855
 30
0.0
 10
56.1195398004806
 20
27.18196305241215
 30
0.0
 10
56.11724612311041
 20
27.19358641120888
 30
0.0
 10
56.11495244574022
 20
27.2052097700056
 30
0.0
 10
56.1123647894235
 20
27.21685746620603
 30
0.0
 10
56.10977713310678
 20
27.22850516240646
 30
0.0
 10
56.10689172813632
 20
27.24016680477749
 30
0.0
 10
56.10400632316585
 20
27.25182844714853
 30
0.0
 10
56.10081985670845
 20
27.26349333099695
 30
0.0
 10
56.09763339025107
 20
27.27515821484538
 30
0.0
 10
56.09414303233542
 20
27.28681534519571
 30
0.0
 10
56.09065267441977
 20
27.29847247554604
 30
0.0
 10
56.08685610266275
 20
27.31011059263066
 30
0.0
 10
56.08305953090572
 20
27.32174870971529
 30
0.0
 10
56.07895495375359
 20
27.33335631671173
 30
0.0
 10
56.07485037660146
 20
27.34496392370817
 30
0.0
 10
56.07043655486396
 20
27.35652931663503
 30
0.0
 10
56.06602273312647
 20
27.36809470956188
 30
0.0
 10
56.06129899958626
 20
27.3796060092208
 30
0.0
 10
56.05657526604604
 20
27.39111730887972
 30
0.0
 10
56.05154154293342
 20
27.40256249470729
 30
0.0
 10
56.0465078198208
 20
27.41400768053485
 30
0.0
 10
56.0411646339539
 20
27.42537462620439
 30
0.0
 10
56.03582144808701
 20
27.43674157187394
 30
0.0
 10
56.03016994349041
 20
27.44801808246498
 30
0.0
 10
56.0245184388938
 20
27.45929459305601
 30
0.0
 10
56.01856038672449
 20
27.47046844358704
 30
0.0
 10
56.01260233455517
 20
27.48164229411808
 30
0.0
 10
56.00634014018333
 20
27.49270126921862
 30
0.0
 10
56.00007794581148
 20
27.50376024431916
 30
0.0
 10
55.99351465292464
 20
27.51469217879841
 30
0.0
 10
55.9869513600378
 20
27.52562411327765
 30
0.0
 10
55.98009065166025
 20
27.5364169333314
 30
0.0
 10
55.97322994328269
 20
27.54720975338515
 30
0.0
 10
55.96607613962777
 20
27.55785151816883
 30
0.0
 10
55.95892233597286
 20
27.56849328295251
 30
0.0
 10
55.95148038907296
 20
27.57897222623766
 30
0.0
 10
55.94403844217305
 20
27.58945116952281
 30
0.0
 10
55.93631392726093
 20
27.59975574114677
 30
0.0
 10
55.92858941234882
 20
27.61006031277073
 30
0.0
 10
55.92058851599386
 20
27.62017921958498
 30
0.0
 10
55.91258761963889
 20
27.63029812639924
 30
0.0
 10
55.90431712467205
 20
27.64022037242104
 30
0.0
 10
55.89604662970522
 20
27.65014261844285
 30
0.0
 10
55.8875138969975
 20
27.65985754391752
 30
0.0
 10
55.8789811642898
 20
27.6695724693922
 30
0.0
 10
55.87019411147914
 20
27.67906978847977
 30
0.0
 10
55.86140705866847
 20
27.68856710756734
 30
0.0
 10
55.85237413595953
 20
27.69783694437695
 30
0.0
 10
55.84334121325059
 20
27.70710678118655
 30
0.0
 10
55.83407137644099
 20
27.71613970389549
 30
0.0
 10
55.82480153963139
 20
27.72517262660443
 30
0.0
 10
55.81530422054381
 20
27.73395967941509
 30
0.0
 10
55.80580690145624
 20
27.74274673222576
 30
0.0
 10
55.79609197598156
 20
27.75127946493347
 30
0.0
 10
55.78637705050689
 20
27.75981219764117
 30
0.0
 10
55.77645480448508
 20
27.76808269260801
 30
0.0
 10
55.76653255846328
 20
27.77635318757485
 30
0.0
 10
55.75641365164903
 20
27.78435408392981
 30
0.0
 10
55.74629474483477
 20
27.79235498028478
 30
0.0
 10
55.73599017321081
 20
27.8000794951969
 30
0.0
 10
55.72568560158684
 20
27.80780401010902
 30
0.0
 10
55.71520665830169
 20
27.81524595700892
 30
0.0
 10
55.70472771501654
 20
27.82268790390882
 30
0.0
 10
55.69408595023286
 20
27.82984170756374
 30
0.0
 10
55.68344418544918
 20
27.83699551121866
 30
0.0
 10
55.67265136539544
 20
27.84385621959621
 30
0.0
 10
55.6618585453417
 20
27.85071692797376
 30
0.0
 10
55.65092661086245
 20
27.8572802208606
 30
0.0
 10
55.6399946763832
 20
27.86384351374744
 30
0.0
 10
55.62893570128266
 20
27.87010570811928
 30
0.0
 10
55.61787672618213
 20
27.87636790249112
 30
0.0
 10
55.6067028756511
 20
27.88232595466044
 30
0.0
 10
55.59552902512005
 20
27.88828400682976
 30
0.0
 10
55.58425251452901
 20
27.89393551142636
 30
0.0
 10
55.57297600393798
 20
27.89958701602296
 30
0.0
 10
55.56160905826844
 20
27.90493020188986
 30
0.0
 10
55.5502421125989
 20
27.91027338775676
 30
0.0
 10
55.53879692677134
 20
27.91530711086938
 30
0.0
 10
55.52735174094377
 20
27.920340833982
 30
0.0
 10
55.51584044128484
 20
27.92506456752222
 30
0.0
 10
55.50432914162592
 20
27.92978830106244
 30
0.0
 10
55.49276374869907
 20
27.93420212279993
 30
0.0
 10
55.48119835577222
 20
27.93861594453743
 30
0.0
 10
55.46959074877577
 20
27.94272052168956
 30
0.0
 10
55.45798314177932
 20
27.94682509884169
 30
0.0
 10
55.44634502469469
 20
27.95062167059872
 30
0.0
 10
55.43470690761007
 20
27.95441824235575
 30
0.0
 10
55.42304977725974
 20
27.9579086002714
 30
0.0
 10
55.41139264690941
 20
27.96139895818704
 30
0.0
 10
55.39972776306099
 20
27.96458542464443
 30
0.0
 10
55.38806287921256
 20
27.96777189110182
 30
0.0
 10
55.37640123684152
 20
27.97065729607229
 30
0.0
 10
55.36473959447048
 20
27.97354270104276
 30
0.0
 10
55.35309189827005
 20
27.97613035735947
 30
0.0
 10
55.34144420206963
 20
27.97871801367619
 30
0.0
 10
55.3298208432729
 20
27.98101169104638
 30
0.0
 10
55.31819748447617
 20
27.98330536841658
 30
0.0
 10
55.30660852003256
 20
27.98530926639554
 30
0.0
 10
55.29501955558896
 20
27.9873131643745
 30
0.0
 10
55.28347468971498
 20
27.98903188452137
 30
0.0
 10
55.27192982384101
 20
27.99075060466825
 30
0.0
 10
55.26043839194445
 20
27.99218912209851
 30
0.0
 10
55.2489469600479
 20
27.99362763952876
 30
0.0
 10
55.23751791500482
 20
27.99479127407082
 30
0.0
 10
55.22608886996174
 20
27.99595490861288
 30
0.0
 10
55.21473077070759
 20
27.99684929576767
 30
0.0
 10
55.20337267145344
 20
27.99774368292247
 30
0.0
 10
55.19209367383306
 20
27.99837474481407
 30
0.0
 10
55.18081467621269
 20
27.99900580670567
 30
0.0
 10
55.16962252601917
 20
27.99937972319962
 30
0.0
 10
55.15843037582565
 20
27.99975363969357
 30
0.0
 10
48.27220258377663
 20
27.99987681984678
 30
0.0
 10
41.38597479172761
 20
28.0
 30
0.0
 10
41.3748768198468
 20
27.99987681984678
 30
0.0
 10
41.363778847966
 20
27.99975363969357
 30
0.0
 10
41.35258669777248
 20
27.99937972319962
 30
0.0
 10
41.34139454757896
 20
27.99900580670567
 30
0.0
 10
41.33011554995859
 20
27.99837474481407
 30
0.0
 10
41.31883655233822
 20
27.99774368292247
 30
0.0
 10
41.30747845308406
 20
27.99684929576767
 30
0.0
 10
41.29612035382991
 20
27.99595490861288
 30
0.0
 10
41.28469130878683
 20
27.99479127407082
 30
0.0
 10
41.27326226374375
 20
27.99362763952876
 30
0.0
 10
41.26177083184719
 20
27.9921891220985
 30
0.0
 10
41.25027939995063
 20
27.99075060466824
 30
0.0
 10
41.23873453407666
 20
27.98903188452137
 30
0.0
 10
41.22718966820268
 20
27.98731316437449
 30
0.0
 10
41.21560070375907
 20
27.98530926639554
 30
0.0
 10
41.20401173931547
 20
27.98330536841658
 30
0.0
 10
41.19238838051875
 20
27.98101169104638
 30
0.0
 10
41.18076502172204
 20
27.97871801367619
 30
0.0
 10
41.1691173255216
 20
27.97613035735947
 30
0.0
 10
41.15746962932116
 20
27.97354270104275
 30
0.0
 10
41.14580798695013
 20
27.97065729607228
 30
0.0
 10
41.13414634457911
 20
27.9677718911018
 30
0.0
 10
41.12248146073068
 20
27.96458542464442
 30
0.0
 10
41.11081657688224
 20
27.96139895818703
 30
0.0
 10
41.09915944653191
 20
27.95790860027138
 30
0.0
 10
41.08750231618158
 20
27.95441824235574
 30
0.0
 10
41.07586419909696
 20
27.95062167059871
 30
0.0
 10
41.06422608201233
 20
27.94682509884167
 30
0.0
 10
41.0526184750159
 20
27.94272052168954
 30
0.0
 10
41.04101086801946
 20
27.93861594453742
 30
0.0
 10
41.0294454750926
 20
27.93420212279992
 30
0.0
 10
41.01788008216573
 20
27.92978830106243
 30
0.0
 10
41.00636878250681
 20
27.92506456752221
 30
0.0
 10
40.99485748284788
 20
27.920340833982
 30
0.0
 10
40.98341229702032
 20
27.91530711086938
 30
0.0
 10
40.97196711119277
 20
27.91027338775676
 30
0.0
 10
40.96060016552323
 20
27.90493020188987
 30
0.0
 10
40.94923321985369
 20
27.89958701602297
 30
0.0
 10
40.93795670926265
 20
27.89393551142636
 30
0.0
 10
40.9266801986716
 20
27.88828400682976
 30
0.0
 10
40.91550634814057
 20
27.88232595466044
 30
0.0
 10
40.90433249760954
 20
27.87636790249112
 30
0.0
 10
40.89327352250901
 20
27.87010570811928
 30
0.0
 10
40.88221454740847
 20
27.86384351374743
 30
0.0
 10
40.87128261292922
 20
27.85728022086059
 30
0.0
 10
40.86035067844998
 20
27.85071692797375
 30
0.0
 10
40.84955785839622
 20
27.8438562195962
 30
0.0
 10
40.83876503834247
 20
27.83699551121865
 30
0.0
 10
40.82812327355879
 20
27.82984170756374
 30
0.0
 10
40.81748150877512
 20
27.82268790390882
 30
0.0
 10
40.80700256548997
 20
27.81524595700892
 30
0.0
 10
40.79652362220482
 20
27.80780401010901
 30
0.0
 10
40.78621905058085
 20
27.8000794951969
 30
0.0
 10
40.77591447895689
 20
27.79235498028478
 30
0.0
 10
40.76579557214264
 20
27.78435408392981
 30
0.0
 10
40.75567666532839
 20
27.77635318757485
 30
0.0
 10
40.74575441930658
 20
27.76808269260801
 30
0.0
 10
40.73583217328478
 20
27.75981219764117
 30
0.0
 10
40.7261172478101
 20
27.75127946493347
 30
0.0
 10
40.71640232233543
 20
27.74274673222576
 30
0.0
 10
40.70690500324785
 20
27.73395967941509
 30
0.0
 10
40.69740768416028
 20
27.72517262660442
 30
0.0
 10
40.68813784735067
 20
27.71613970389549
 30
0.0
 10
40.67886801054107
 20
27.70710678118655
 30
0.0
 10
40.66983508783214
 20
27.69783694437695
 30
0.0
 10
40.66080216512321
 20
27.68856710756734
 30
0.0
 10
40.65201511231254
 20
27.67906978847977
 30
0.0
 10
40.64322805950187
 20
27.66957246939219
 30
0.0
 10
40.63469532679416
 20
27.65985754391751
 30
0.0
 10
40.62616259408645
 20
27.65014261844284
 30
0.0
 10
40.61789209911962
 20
27.64022037242104
 30
0.0
 10
40.60962160415278
 20
27.63029812639924
 30
0.0
 10
40.60162070779781
 20
27.62017921958498
 30
0.0
 10
40.59361981144284
 20
27.61006031277073
 30
0.0
 10
40.58589529653072
 20
27.59975574114677
 30
0.0
 10
40.5781707816186
 20
27.5894511695228
 30
0.0
 10
40.5707288347187
 20
27.57897222623765
 30
0.0
 10
40.5632868878188
 20
27.5684932829525
 30
0.0
 10
40.55613308416387
 20
27.55785151816882
 30
0.0
 10
40.54897928050895
 20
27.54720975338514
 30
0.0
 10
40.54211857213141
 20
27.53641693333139
 30
0.0
 10
40.53525786375386
 20
27.52562411327764
 30
0.0
 10
40.52869457086702
 20
27.51469217879839
 30
0.0
 10
40.52213127798019
 20
27.50376024431915
 30
0.0
 10
40.51586908360835
 20
27.49270126921861
 30
0.0
 10
40.50960688923651
 20
27.48164229411807
 30
0.0
 10
40.50364883706718
 20
27.47046844358704
 30
0.0
 10
40.49769078489786
 20
27.459294593056
 30
0.0
 10
40.49203928030125
 20
27.44801808246497
 30
0.0
 10
40.48638777570464
 20
27.43674157187393
 30
0.0
 10
40.48104458983775
 20
27.42537462620439
 30
0.0
 10
40.47570140397085
 20
27.41400768053484
 30
0.0
 10
40.47066768085823
 20
27.40256249470728
 30
0.0
 10
40.4656339577456
 20
27.39111730887971
 30
0.0
 10
40.46091022420539
 20
27.37960600922079
 30
0.0
 10
40.45618649066518
 20
27.36809470956187
 30
0.0
 10
40.45177266892769
 20
27.35652931663502
 30
0.0
 10
40.4473588471902
 20
27.34496392370817
 30
0.0
 10
40.44325427003808
 20
27.33335631671173
 30
0.0
 10
40.43914969288595
 20
27.32174870971528
 30
0.0
 10
40.43535312112891
 20
27.31011059263066
 30
0.0
 10
40.43155654937186
 20
27.29847247554603
 30
0.0
 10
40.42806619145622
 20
27.2868153451957
 30
0.0
 10
40.42457583354059
 20
27.27515821484537
 30
0.0
 10
40.4213893670832
 20
27.26349333099694
 30
0.0
 10
40.41820290062581
 20
27.25182844714852
 30
0.0
 10
40.41531749565534
 20
27.24016680477748
 30
0.0
 10
40.41243209068487
 20
27.22850516240644
 30
0.0
 10
40.40984443436815
 20
27.21685746620602
 30
0.0
 10
40.40725677805143
 20
27.20520977000559
 30
0.0
 10
40.40496310068123
 20
27.19358641120887
 30
0.0
 10
40.40266942331103
 20
27.18196305241214
 30
0.0
 10
40.40066552533208
 20
27.17037408796853
 30
0.0
 10
40.39866162735313
 20
27.15878512352493
 30
0.0
 10
40.39694290720625
 20
27.14724025765096
 30
0.0
 10
40.39522418705936
 20
27.13569539177698
 30
0.0
 10
40.39378566962911
 20
27.12420395988043
 30
0.0
 10
40.39234715219885
 20
27.11271252798387
 30
0.0
 10
40.39118351765679
 20
27.10128348294079
 30
0.0
 10
40.39001988311473
 20
27.0898544378977
 30
0.0
 10
40.38912549595994
 20
27.07849633864355
 30
0.0
 10
40.38823110880514
 20
27.06713823938941
 30
0.0
 10
40.38760004691354
 20
27.05585924176903
 30
0.0
 10
40.38696898502194
 20
27.04458024414866
 30
0.0
 10
40.38659506852798
 20
27.03338809395513
 30
0.0
 10
40.38622115203403
 20
27.02219594376161
 30
0.0
 10
40.38609797188082
 20
14.7610979718808
 30
0.0
 10
40.38597479172761
 20
2.499999999999992
 30
0.0
 10
40.38609797188083
 20
2.48890202811919
 30
0.0
 10
40.38622115203405
 20
2.477804056238387
 30
0.0
 10
40.386595068528
 20
2.466611906044861
 30
0.0
 10
40.38696898502194
 20
2.455419755851334
 30
0.0
 10
40.38760004691353
 20
2.444140758230961
 30
0.0
 10
40.38823110880514
 20
2.432861760610587
 30
0.0
 10
40.38912549595993
 20
2.421503661356437
 30
0.0
 10
40.39001988311473
 20
2.410145562102287
 30
0.0
 10
40.39118351765678
 20
2.398716517059206
 30
0.0
 10
40.39234715219885
 20
2.387287472016124
 30
0.0
 10
40.39378566962911
 20
2.375796040119565
 30
0.0
 10
40.39522418705936
 20
2.364304608223006
 30
0.0
 10
40.39694290720625
 20
2.352759742349031
 30
0.0
 10
40.39866162735313
 20
2.341214876475056
 30
0.0
 10
40.40066552533208
 20
2.329625912031451
 30
0.0
 10
40.40266942331103
 20
2.318036947587847
 30
0.0
 10
40.40496310068123
 20
2.306413588791124
 30
0.0
 10
40.40725677805143
 20
2.294790229994401
 30
0.0
 10
40.40984443436815
 20
2.283142533793973
 30
0.0
 10
40.41243209068487
 20
2.271494837593545
 30
0.0
 10
40.41531749565534
 20
2.259833195222508
 30
0.0
 10
40.41820290062581
 20
2.248171552851471
 30
0.0
 10
40.42138936708319
 20
2.236506669003046
 30
0.0
 10
40.42457583354057
 20
2.224841785154622
 30
0.0
 10
40.42806619145622
 20
2.213184654804288
 30
0.0
 10
40.43155654937186
 20
2.201527524453954
 30
0.0
 10
40.43535312112891
 20
2.189889407369334
 30
0.0
 10
40.43914969288595
 20
2.178251290284713
 30
0.0
 10
40.44325427003808
 20
2.16664368328827
 30
0.0
 10
40.4473588471902
 20
2.155036076291826
 30
0.0
 10
40.45177266892769
 20
2.143470683364972
 30
0.0
 10
40.45618649066518
 20
2.131905290438119
 30
0.0
 10
40.4609102242054
 20
2.120393990779195
 30
0.0
 10
40.46563395774562
 20
2.10888269112027
 30
0.0
 10
40.47066768085824
 20
2.097437505292708
 30
0.0
 10
40.47570140397087
 20
2.085992319465146
 30
0.0
 10
40.48104458983777
 20
2.074625373795604
 30
0.0
 10
40.48638777570466
 20
2.063258428126062
 30
0.0
 10
40.49203928030126
 20
2.051981917535025
 30
0.0
 10
40.49769078489786
 20
2.040705406943988
 30
0.0
 10
40.50364883706719
 20
2.029531556412952
 30
0.0
 10
40.50960688923652
 20
2.018357705881916
 30
0.0
 10
40.51586908360835
 20
2.007298730781379
 30
0.0
 10
40.52213127798019
 20
1.996239755680841
 30
0.0
 10
40.52869457086703
 20
1.985307821201596
 30
0.0
 10
40.53525786375388
 20
1.97437588672235
 30
0.0
 10
40.54211857213141
 20
1.963583066668599
 30
0.0
 10
40.54897928050895
 20
1.952790246614849
 30
0.0
 10
40.55613308416387
 20
1.94214848183117
 30
0.0
 10
40.5632868878188
 20
1.93150671704749
 30
0.0
 10
40.5707288347187
 20
1.92102777376234
 30
0.0
 10
40.5781707816186
 20
1.91054883047719
 30
0.0
 10
40.58589529653072
 20
1.90024425885323
 30
0.0
 10
40.59361981144284
 20
1.889939687229269
 30
0.0
 10
40.60162070779781
 20
1.879820780415016
 30
0.0
 10
40.60962160415278
 20
1.869701873600762
 30
0.0
 10
40.61789209911962
 20
1.859779627578959
 30
0.0
 10
40.62616259408645
 20
1.849857381557156
 30
0.0
 10
40.63469532679416
 20
1.840142456082477
 30
0.0
 10
40.64322805950186
 20
1.830427530607798
 30
0.0
 10
40.65201511231253
 20
1.820930211520226
 30
0.0
 10
40.66080216512319
 20
1.811432892432655
 30
0.0
 10
40.66983508783212
 20
1.802163055623049
 30
0.0
 10
40.67886801054105
 20
1.792893218813444
 30
0.0
 10
40.68813784735066
 20
1.783860296104509
 30
0.0
 10
40.69740768416027
 20
1.774827373395574
 30
0.0
 10
40.70690500324784
 20
1.766040320584904
 30
0.0
 10
40.71640232233541
 20
1.757253267774235
 30
0.0
 10
40.72611724781009
 20
1.748720535066532
 30
0.0
 10
40.73583217328478
 20
1.740187802358829
 30
0.0
 10
40.74575441930659
 20
1.731917307391989
 30
0.0
 10
40.75567666532839
 20
1.723646812425149
 30
0.0
 10
40.76579557214264
 20
1.715645916070183
 30
0.0
 10
40.77591447895689
 20
1.707645019715217
 30
0.0
 10
40.78621905058085
 20
1.699920504803099
 30
0.0
 10
40.79652362220482
 20
1.69219598989098
 30
0.0
 10
40.80700256548997
 20
1.684754042991076
 30
0.0
 10
40.81748150877512
 20
1.677312096091173
 30
0.0
 10
40.82812327355879
 20
1.670158292436256
 30
0.0
 10
40.83876503834247
 20
1.66300448878134
 30
0.0
 10
40.84955785839622
 20
1.656143780403792
 30
0.0
 10
40.86035067844998
 20
1.649283072026243
 30
0.0
 10
40.87128261292923
 20
1.642719779139401
 30
0.0
 10
40.88221454740847
 20
1.63615648625256
 30
0.0
 10
40.89327352250901
 20
1.629894291880718
 30
0.0
 10
40.90433249760955
 20
1.623632097508877
 30
0.0
 10
40.91550634814058
 20
1.617674045339558
 30
0.0
 10
40.92668019867161
 20
1.611715993170239
 30
0.0
 10
40.93795670926265
 20
1.606064488573637
 30
0.0
 10
40.94923321985369
 20
1.600412983977034
 30
0.0
 10
40.96060016552323
 20
1.595069798110136
 30
0.0
 10
40.97196711119278
 20
1.589726612243239
 30
0.0
 10
40.98341229702034
 20
1.584692889130615
 30
0.0
 10
40.9948574828479
 20
1.579659166017991
 30
0.0
 10
41.00636878250683
 20
1.574935432477776
 30
0.0
 10
41.01788008216575
 20
1.570211698937561
 30
0.0
 10
41.0294454750926
 20
1.565797877200068
 30
0.0
 10
41.04101086801946
 20
1.561384055462575
 30
0.0
 10
41.05261847501589
 20
1.557279478310444
 30
0.0
 10
41.06422608201233
 20
1.553174901158314
 30
0.0
 10
41.07586419909696
 20
1.549378329401283
 30
0.0
 10
41.08750231618158
 20
1.545581757644251
 30
0.0
 10
41.09915944653191
 20
1.542091399728605
 30
0.0
 10
41.11081657688224
 20
1.53860104181296
 30
0.0
 10
41.12248146073068
 20
1.535414575355574
 30
0.0
 10
41.13414634457911
 20
1.532228108898187
 30
0.0
 10
41.14580798695013
 20
1.529342703927717
 30
0.0
 10
41.15746962932116
 20
1.526457298957247
 30
0.0
 10
41.1691173255216
 20
1.523869642640528
 30
0.0
 10
41.18076502172202
 20
1.521281986323809
 30
0.0
 10
41.19238838051875
 20
1.518988308953613
 30
0.0
 10
41.20401173931547
 20
1.516694631583417
 30
0.0
 10
41.21560070375907
 20
1.514690733604459
 30
0.0
 10
41.22718966820268
 20
1.512686835625501
 30
0.0
 10
41.23873453407666
 20
1.510968115478625
 30
0.0
 10
41.25027939995063
 20
1.509249395331748
 30
0.0
 10
41.26177083184719
 20
1.507810877901492
 30
0.0
 10
41.27326226374374
 20
1.506372360471236
 30
0.0
 10
41.28469130878682
 20
1.505208725929175
 30
0.0
 10
41.29612035382991
 20
1.504045091387113
 30
0.0
 10
41.30747845308405
 20
1.503150704232318
 30
0.0
 10
41.3188365523382
 20
1.502256317077523
 30
0.0
 10
41.33011554995858
 20
1.501625255185922
 30
0.0
 10
41.34139454757896
 20
1.500994193294322
 30
0.0
 10
41.35258669777248
 20
1.500620276800375
 30
0.0
 10
41.363778847966
 20
1.500246360306427
 30
0.0
 10
48.25000664001502
 20
1.500123180153212
 30
0.0
 10
55.13623443206403
 20
1.499999999999996
 30
0.0
 10
55.14733240394483
 20
1.500123180153213
 30
0.0
 10
55.15843037582564
 20
1.50024636030643
 30
0.0
 10
55.16962252601915
 20
1.500620276800378
 30
0.0
 10
55.18081467621268
 20
1.500994193294326
 30
0.0
 10
55.19209367383306
 20
1.501625255185926
 30
0.0
 10
55.20337267145344
 20
1.502256317077527
 30
0.0
 10
55.21473077070759
 20
1.503150704232322
 30
0.0
 10
55.22608886996174
 20
1.504045091387117
 30
0.0
 10
55.23751791500482
 20
1.505208725929179
 30
0.0
 10
55.2489469600479
 20
1.50637236047124
 30
0.0
 10
55.26043839194445
 20
1.507810877901496
 30
0.0
 10
55.27192982384101
 20
1.509249395331752
 30
0.0
 10
55.28347468971498
 20
1.510968115478628
 30
0.0
 10
55.29501955558896
 20
1.512686835625504
 30
0.0
 10
55.30660852003256
 20
1.514690733604463
 30
0.0
 10
55.31819748447617
 20
1.516694631583421
 30
0.0
 10
55.32982084327289
 20
1.518988308953617
 30
0.0
 10
55.34144420206962
 20
1.521281986323813
 30
0.0
 10
55.35309189827005
 20
1.523869642640532
 30
0.0
 10
55.36473959447048
 20
1.526457298957251
 30
0.0
 10
55.37640123684152
 20
1.529342703927721
 30
0.0
 10
55.38806287921256
 20
1.532228108898191
 30
0.0
 10
55.39972776306099
 20
1.535414575355578
 30
0.0
 10
55.41139264690941
 20
1.538601041812964
 30
0.0
 10
55.42304977725975
 20
1.542091399728609
 30
0.0
 10
55.43470690761008
 20
1.545581757644255
 30
0.0
 10
55.44634502469469
 20
1.549378329401287
 30
0.0
 10
55.45798314177931
 20
1.553174901158318
 30
0.0
 10
55.46959074877574
 20
1.557279478310448
 30
0.0
 10
55.48119835577219
 20
1.561384055462579
 30
0.0
 10
55.49276374869905
 20
1.565797877200072
 30
0.0
 10
55.5043291416259
 20
1.570211698937565
 30
0.0
 10
55.51584044128482
 20
1.57493543247778
 30
0.0
 10
55.52735174094375
 20
1.579659166017995
 30
0.0
 10
55.53879692677131
 20
1.584692889130618
 30
0.0
 10
55.55024211259887
 20
1.589726612243242
 30
0.0
 10
55.5616090582684
 20
1.59506979811014
 30
0.0
 10
55.57297600393795
 20
1.600412983977038
 30
0.0
 10
55.58425251452898
 20
1.606064488573641
 30
0.0
 10
55.59552902512003
 20
1.611715993170243
 30
0.0
 10
55.60670287565107
 20
1.617674045339561
 30
0.0
 10
55.61787672618211
 20
1.62363209750888
 30
0.0
 10
55.62893570128264
 20
1.629894291880722
 30
0.0
 10
55.63999467638318
 20
1.636156486252563
 30
0.0
 10
55.65092661086243
 20
1.642719779139404
 30
0.0
 10
55.66185854534167
 20
1.649283072026245
 30
0.0
 10
55.67265136539541
 20
1.656143780403795
 30
0.0
 10
55.68344418544916
 20
1.663004488781344
 30
0.0
 10
55.69408595023285
 20
1.67015829243626
 30
0.0
 10
55.70472771501653
 20
1.677312096091176
 30
0.0
 10
55.71520665830168
 20
1.684754042991079
 30
0.0
 10
55.72568560158683
 20
1.692195989890983
 30
0.0
 10
55.73599017321079
 20
1.699920504803101
 30
0.0
 10
55.74629474483475
 20
1.707645019715219
 30
0.0
 10
55.75641365164901
 20
1.715645916070186
 30
0.0
 10
55.76653255846326
 20
1.723646812425152
 30
0.0
 10
55.77645480448507
 20
1.731917307391992
 30
0.0
 10
55.78637705050687
 20
1.740187802358832
 30
0.0
 10
55.79609197598154
 20
1.748720535066535
 30
0.0
 10
55.80580690145621
 20
1.757253267774238
 30
0.0
 10
55.81530422054379
 20
1.766040320584907
 30
0.0
 10
55.82480153963137
 20
1.774827373395576
 30
0.0
 10
55.83407137644097
 20
1.783860296104511
 30
0.0
 10
55.84334121325057
 20
1.792893218813447
 30
0.0
 10
55.85237413595951
 20
1.802163055623052
 30
0.0
 10
55.86140705866845
 20
1.811432892432657
 30
0.0
 10
55.87019411147911
 20
1.820930211520229
 30
0.0
 10
55.87898116428978
 20
1.8304275306078
 30
0.0
 10
55.88751389699748
 20
1.84014245608248
 30
0.0
 10
55.89604662970519
 20
1.849857381557159
 30
0.0
 10
55.90431712467203
 20
1.859779627578962
 30
0.0
 10
55.91258761963887
 20
1.869701873600764
 30
0.0
 10
55.92058851599383
 20
1.879820780415017
 30
0.0
 10
55.9285894123488
 20
1.88993968722927
 30
0.0
 10
55.93631392726091
 20
1.900244258853231
 30
0.0
 10
55.94403844217303
 20
1.910548830477192
 30
0.0
 10
55.95148038907293
 20
1.921027773762342
 30
0.0
 10
55.95892233597284
 20
1.931506717047492
 30
0.0
 10
55.96607613962775
 20
1.942148481831171
 30
0.0
 10
55.97322994328267
 20
1.952790246614851
 30
0.0
 10
55.98009065166022
 20
1.963583066668602
 30
0.0
 10
55.98695136003777
 20
1.974375886722352
 30
0.0
 10
55.99351465292462
 20
1.985307821201597
 30
0.0
 10
56.00007794581146
 20
1.996239755680842
 30
0.0
 10
56.0063401401833
 20
2.007298730781379
 30
0.0
 10
56.01260233455515
 20
2.018357705881917
 30
0.0
 10
56.01856038672446
 20
2.029531556412953
 30
0.0
 10
56.02451843889378
 20
2.04070540694399
 30
0.0
 10
56.03016994349039
 20
2.051981917535026
 30
0.0
 10
56.03582144808699
 20
2.063258428126063
 30
0.0
 10
56.04116463395388
 20
2.074625373795605
 30
0.0
 10
56.04650781982078
 20
2.085992319465147
 30
0.0
 10
56.05154154293341
 20
2.097437505292709
 30
0.0
 10
56.05657526604603
 20
2.108882691120272
 30
0.0
 10
56.06129899958624
 20
2.120393990779196
 30
0.0
 10
56.06602273312646
 20
2.13190529043812
 30
0.0
 10
56.07043655486395
 20
2.143470683364973
 30
0.0
 10
56.07485037660145
 20
2.155036076291827
 30
0.0
 10
56.07895495375358
 20
2.166643683288271
 30
0.0
 10
56.08305953090571
 20
2.178251290284714
 30
0.0
 10
56.08685610266274
 20
2.189889407369335
 30
0.0
 10
56.09065267441978
 20
2.201527524453956
 30
0.0
 10
56.09414303233542
 20
2.21318465480429
 30
0.0
 10
56.09763339025107
 20
2.224841785154624
 30
0.0
 10
56.10081985670845
 20
2.236506669003048
 30
0.0
 10
56.10400632316585
 20
2.248171552851471
 30
0.0
 10
56.10689172813632
 20
2.259833195222509
 30
0.0
 10
56.10977713310678
 20
2.271494837593546
 30
0.0
 10
56.1123647894235
 20
2.283142533793974
 30
0.0
 10
56.11495244574022
 20
2.294790229994402
 30
0.0
 10
56.11724612311041
 20
2.306413588791125
 30
0.0
 10
56.1195398004806
 20
2.318036947587848
 30
0.0
 10
56.12154369845955
 20
2.329625912031452
 30
0.0
 10
56.12354759643851
 20
2.341214876475057
 30
0.0
 10
56.12526631658539
 20
2.352759742349031
 30
0.0
 10
56.12698503673227
 20
2.364304608223006
 30
0.0
 10
56.12842355416252
 20
2.375796040119566
 30
0.0
 10
56.12986207159278
 20
2.387287472016125
 30
0.0
 10
56.13102570613485
 20
2.398716517059206
 30
0.0
 10
56.13218934067691
 20
2.410145562102287
 30
0.0
 10
56.1330837278317
 20
2.421503661356438
 30
0.0
 10
56.1339781149865
 20
2.432861760610588
 30
0.0
 10
56.1346091768781
 20
2.444140758230961
 30
0.0
 10
56.1352402387697
 20
2.455419755851334
 30
0.0
 10
56.13561415526365
 20
2.466611906044861
 30
0.0
 10
56.1359880717576
 20
2.477804056238387
 30
0.0
 10
56.13611125191082
 20
2.48890202811919
 30
0.0
 10
56.13623443206403
 20
2.499999999999992
 30
0.0
  0
SPLINE
  5
41
330
1F
100
AcDbEntity
  8
DEFAULT
100
AcDbSpline
210
0.0
220
0.0
230
1.0
 70
     8
 71
     2
 72
   386
 73
   383
 74
     0
 42
0.0000000001
 43
0.0000000001
 40
0.0
 40
0.0
 40
0.0
 40
1.0
 40
1.0
 40
2.0
 40
2.0
 40
3.0
 40
3.0
 40
4.0
 40
4.0
 40
5.0
 40
5.0
 40
6.0
 40
6.0
 40
7.0
 40
7.0
 40
8.0
 40
8.0
 40
9.0
 40
9.0
 40
10.0
 40
10.0
 40
11.0
 40
11.0
 40
12.0
 40
12.0
 40
13.0
 40
13.0
 40
14.0
 40
14.0
 40
15.0
 40
15.0
 40
16.0
 40
16.0
 40
17.0
 40
17.0
 40
18.0
 40
18.0
 40
19.0
 40
19.0
 40
20.0
 40
20.0
 40
21.0
 40
21.0
 40
22.0
 40
22.0
 40
23.0
 40
23.0
 40
24.0
 40
24.0
 40
25.0
 40
25.0
 40
26.0
 40
26.0
 40
27.0
 40
27.0
 40
28.0
 40
28.0
 40
29.0
 40
29.0
 40
30.0
 40
30.0
 40
31.0
 40
31.0
 40
32.0
 40
32.0
 40
33.0
 40
33.0
 40
34.0
 40
34.0
 40
35.0
 40
35.0
 40
36.0
 40
36.0
 40
37.0
 40
37.0
 40
38.0
 40
38.0
 40
39.0
 40
39.0
 40
40.0
 40
40.0
 40
41.0
 40
41.0
 40
42.0
 40
42.0
 40
43.0
 40
43.0
 40
44.0
 40
44.0
 40
45.0
 40
45.0
 40
46.0
 40
46.0
 40
47.0
 40
47.0
 40
48.0
 40
48.0
 40
49.0
 40
49.0
 40
50.0
 40
50.0
 40
51.0
 40
51.0
 40
52.0
 40
52.0
 40
53.0
 40
53.0
 40
54.0
 40
54.0
 40
55.0
 40
55.0
 40
56.0
 40
56.0
 40
57.0
 40
57.0
 40
58.0
 40
58.0
 40
59.0
 40
59.0
 40
60.0
 40
60.0
 40
61.0
 40
61.0
 40
62.0
 40
62.0
 40
63.0
 40
63.0
 40
64.0
 40
64.0
 40
65.0
 40
65.0
 40
66.0
 40
66.0
 40
67.0
 40
67.0
 40
68.0
 40
68.0
 40
69.0
 40
69.0
 40
70.0
 40
70.0
 40
71.0
 40
71.0
 40
72.0
 40
72.0
 40
73.0
 40
73.0
 40
74.0
 40
74.0
 40
75.0
 40
75.0
 40
76.0
 40
76.0
 40
77.0
 40
77.0
 40
78.0
 40
78.0
 40
79.0
 40
79.0
 40
80.0
 40
80.0
 40
81.0
 40
81.0
 40
82.0
 40
82.0
 40
83.0
 40
83.0
 40
84.0
 40
84.0
 40
85.0
 40
85.0
 40
86.0
 40
86.0
 40
87.0
 40
87.0
 40
88.0
 40
88.0
 40
89.0
 40
89.0
 40
90.0
 40
90.0
 40
91.0
 40
91.0
 40
92.0
 40
92.0
 40
93.0
 40
93.0
 40
94.0
 40
94.0
 40
95.0
 40
95.0
 40
96.0
 40
96.0
 40
97.0
 40
97.0
 40
98.0
 40
98.0
 40
99.0
 40
99.0
 40
100.0
 40
100.0
 40
101.0
 40
101.0
 40
102.0
 40
102.0
 40
103.0
 40
103.0
 40
104.0
 40
104.0
 40
105.0
 40
105.0
 40
106.0
 40
106.0
 40
107.0
 40
107.0
 40
108.0
 40
108.0
 40
109.0
 40
109.0
 40
110.0
 40
110.0
 40
111.0
 40
111.0
 40
112.0
 40
112.0
 40
113.0
 40
113.0
 40
114.0
 40
114.0
 40
115.0
 40
115.0
 40
116.0
 40
116.0
 40
117.0
 40
117.0
 40
118.0
 40
118.0
 40
119.0
 40
119.0
 40
120.0
 40
120.0
 40
121.0
 40
121.0
 40
122.0
 40
122.0
 40
123.0
 40
123.0
 40
124.0
 40
124.0
 40
125.0
 40
125.0
 40
126.0
 40
126.0
 40
127.0
 40
127.0
 40
128.0
 40
128.0
 40
129.0
 40
129.0
 40
130.0
 40
130.0
 40
131.0
 40
131.0
 40
132.0
 40
132.0
 40
133.0
 40
133.0
 40
134.0
 40
134.0
 40
135.0
 40
135.0
 40
136.0
 40
136.0
 40
137.0
 40
137.0
 40
138.0
 40
138.0
 40
139.0
 40
139.0
 40
140.0
 40
140.0
 40
141.0
 40
141.0
 40
142.0
 40
142.0
 40
143.0
 40
143.0
 40
144.0
 40
144.0
 40
145.0
 40
145.0
 40
146.0
 40
146.0
 40
147.0
 40
147.0
 40
148.0
 40
148.0
 40
149.0
 40
149.0
 40
150.0
 40
150.0
 40
151.0
 40
151.0
 40
152.0
 40
152.0
 40
153.0
 40
153.0
 40
154.0
 40
154.0
 40
155.0
 40
155.0
 40
156.0
 40
156.0
 40
157.0
 40
157.0
 40
158.0
 40
158.0
 40
159.0
 40
159.0
 40
160.0
 40
160.0
 40
161.0
 40
161.0
 40
162.0
 40
162.0
 40
163.0
 40
163.0
 40
164.0
 40
164.0
 40
165.0
 40
165.0
 40
166.0
 40
166.0
 40
167.0
 40
167.0
 40
168.0
 40
168.0
 40
169.0
 40
169.0
 40
170.0
 40
170.0
 40
171.0
 40
171.0
 40
172.0
 40
172.0
 40
173.0
 40
173.0
 40
174.0
 40
174.0
 40
175.0
 40
175.0
 40
176.0
 40
176.0
 40
177.0
 40
177.0
 40
178.0
 40
178.0
 40
179.0
 40
179.0
 40
180.0
 40
180.0
 40
181.0
 40
181.0
 40
182.0
 40
182.0
 40
183.0
 40
183.0
 40
184.0
 40
184.0
 40
185.0
 40
185.0
 40
186.0
 40
186.0
 40
187.0
 40
187.0
 40
188.0
 40
188.0
 40
189.0
 40
189.0
 40
190.0
 40
190.0
 40
191.0
 40
191.0
 40
191.0
 10
53.2557639821428
 20
1.290078283535823
 30
0.0
 10
53.25932597674058
 20
1.290190096163084
 30
0.0
 10
53.26288797133837
 20
1.290301908790345
 30
0.0
 10
53.26645845013373
 20
1.290487351330645
 30
0.0
 10
53.27002892892909
 20
1.290672793870946
 30
0.0
 10
53.27360564864577
 20
1.29093244037003
 30
0.0
 10
53.27718236836246
 20
1.291192086869114
 30
0.0
 10
53.28076305025817
 20
1.291526421532087
 30
0.0
 10
53.28434373215389
 20
1.291860756195059
 30
0.0
 10
53.28792606646678
 20
1.292270171008418
 30
0.0
 10
53.29150840077968
 20
1.292679585821777
 30
0.0
 10
53.29509005135235
 20
1.293164378437202
 30
0.0
 10
53.29867170192502
 20
1.293649171052627
 30
0.0
 10
53.30225031098814
 20
1.294209542947287
 30
0.0
 10
53.30582892005128
 20
1.294769914841946
 30
0.0
 10
53.30940211314759
 20
1.29540596976867
 30
0.0
 10
53.31297530624391
 20
1.296042024695394
 30
0.0
 10
53.31654069727217
 20
1.296753767434552
 30
0.0
 10
53.32010608830043
 20
1.29746551017371
 30
0.0
 10
53.3236612846577
 20
1.298252845596981
 30
0.0
 10
53.32721648101499
 20
1.299040181020251
 30
0.0
 10
53.33075908881492
 20
1.299902913474698
 30
0.0
 10
53.33430169661485
 20
1.300765645929146
 30
0.0
 10
53.33782932595837
 20
1.301703478948171
 30
0.0
 10
53.34135695530189
 20
1.302641311967197
 30
0.0
 10
53.34486722557673
 20
1.303653848312982
 30
0.0
 10
53.34837749585159
 20
1.304666384658768
 30
0.0
 10
53.3518680410361
 20
1.305753126698837
 30
0.0
 10
53.35535858622062
 20
1.306839868738907
 30
0.0
 10
53.35882706016732
 20
1.308000219157381
 30
0.0
 10
53.36229553411403
 20
1.309160569575856
 30
0.0
 10
53.36573961578836
 20
1.310393832417916
 30
0.0
 10
53.3691836974627
 20
1.311627095259976
 30
0.0
 10
53.37260109611241
 20
1.312932477305971
 30
0.0
 10
53.37601849476212
 20
1.314237859351965
 30
0.0
 10
53.37940695499321
 20
1.315614471815564
 30
0.0
 10
53.3827954152243
 20
1.316991084279162
 30
0.0
 10
53.38615272195986
 20
1.318437944821922
 30
0.0
 10
53.38951002869541
 20
1.319884805364683
 30
0.0
 10
53.39283401199452
 20
1.321400840417464
 30
0.0
 10
53.39615799529364
 20
1.322916875470244
 30
0.0
 10
53.39944653500839
 20
1.324500922850011
 30
0.0
 10
53.40273507472315
 20
1.326084970229777
 30
0.0
 10
53.40598610497278
 20
1.327735782038566
 30
0.0
 10
53.40923713522242
 20
1.329386593847356
 30
0.0
 10
53.41244864866501
 20
1.331102839638505
 30
0.0
 10
53.4156601621076
 20
1.332819085429653
 30
0.0
 10
53.41883021399096
 20
1.334599355624851
 30
0.0
 10
53.42200026587432
 20
1.336379625820049
 30
0.0
 10
53.42512697784939
 20
1.338222435359397
 30
0.0
 10
53.42825368982446
 20
1.340065244898744
 30
0.0
 10
53.43133525350601
 20
1.341969037104733
 30
0.0
 10
53.43441681718756
 20
1.343872829310723
 30
0.0
 10
53.43745149744879
 20
1.345835979946013
 30
0.0
 10
53.44048617771003
 20
1.347799130581304
 30
0.0
 10
53.4434723156995
 20
1.349819952079241
 30
0.0
 10
53.44645845368898
 20
1.351840773577178
 30
0.0
 10
53.44939446956015
 20
1.353917519423306
 30
0.0
 10
53.45233048543131
 20
1.355994265269433
 30
0.0
 10
53.45521488077672
 20
1.358125134511687
 30
0.0
 10
53.45809927612213
 20
1.360256003753942
 30
0.0
 10
53.46093063610655
 20
1.362439145618885
 30
0.0
 10
53.46376199609098
 20
1.364622287483828
 30
0.0
 10
53.46653899127936
 20
1.366855806076087
 30
0.0
 10
53.46931598646775
 20
1.369089324668346
 30
0.0
 10
53.46959276284819
 20
1.369320851453029
 30
0.0
 10
53.46986953922864
 20
1.369552378237712
 30
0.0
 10
53.47014359877812
 20
1.369790191063502
 30
0.0
 10
53.47041765832761
 20
1.370028003889292
 30
0.0
 10
53.47068880719598
 20
1.370272077724795
 30
0.0
 10
53.47095995606434
 20
1.370516151560299
 30
0.0
 10
53.47122799934633
 20
1.370766453991337
 30
0.0
 10
53.47149604262831
 20
1.371016756422375
 30
0.0
 10
53.47176078469155
 20
1.371273247512102
 30
0.0
 10
53.47202552675481
 20
1.37152973860183
 30
0.0
 10
53.47228677158038
 20
1.371792370767122
 30
0.0
 10
53.47254801640595
 20
1.372055002932415
 30
0.0
 10
53.47280556794044
 20
1.372323720837597
 30
0.0
 10
53.47306311947494
 20
1.372592438742779
 30
0.0
 10
53.4733167819933
 20
1.37286717921173
 30
0.0
 10
53.47357044451168
 20
1.373141919680681
 30
0.0
 10
53.47382002298966
 20
1.373422611628294
 30
0.0
 10
53.47406960146764
 20
1.373703303575908
 30
0.0
 10
53.47431490196267
 20
1.373989867959827
 30
0.0
 10
53.4745602024577
 20
1.374276432343746
 30
0.0
 10
53.47480103249709
 20
1.374568782137207
 30
0.0
 10
53.47504186253648
 20
1.374861131930669
 30
0.0
 10
53.47527803151154
 20
1.375159172117229
 30
0.0
 10
53.47551420048661
 20
1.37545721230379
 30
0.0
 10
53.47574552005133
 20
1.375760839894601
 30
0.0
 10
53.47597683961606
 20
1.376064467485411
 30
0.0
 10
53.47620312408888
 20
1.376373571559617
 30
0.0
 10
53.47642940856169
 20
1.376682675633823
 30
0.0
 10
53.47665047532878
 20
1.376997137402561
 30
0.0
 10
53.47687154209588
 20
1.377311599171299
 30
0.0
 10
53.47708721201457
 20
1.37763129206565
 30
0.0
 10
53.47730288193325
 20
1.377950984960002
 30
0.0
 10
53.47751297973365
 20
1.378275774743144
 30
0.0
 10
53.47772307753405
 20
1.378600564526285
 30
0.0
 10
53.4779274322175
 20
1.378930309429946
 30
0.0
 10
53.47813178690095
 20
1.379260054333607
 30
0.0
 10
53.47833023213346
 20
1.379594605218839
 30
0.0
 10
53.47852867736597
 20
1.379929156104072
 30
0.0
 10
53.47872105186492
 20
1.38026835664617
 30
0.0
 10
53.47891342636386
 20
1.380607557188269
 30
0.0
 10
53.47909957427643
 20
1.380951244085578
 30
0.0
 10
53.47928572218901
 20
1.381294930982886
 30
0.0
 10
53.47946549346046
 20
1.381642934189072
 30
0.0
 10
53.47964526473191
 20
1.381990937395258
 30
0.0
 10
53.4798185154621
 20
1.38234308037451
 30
0.0
 10
53.47999176619229
 20
1.382695223353763
 30
0.0
 10
53.48015835897884
 20
1.383051323358218
 30
0.0
 10
53.4803249517654
 20
1.383407423362673
 30
0.0
 10
53.48048475603186
 20
1.383767291731268
 30
0.0
 10
53.48064456029831
 20
1.384127160099864
 30
0.0
 10
53.48079745260574
 20
1.384490602577654
 30
0.0
 10
53.48095034491316
 20
1.384854045055445
 30
0.0
 10
53.48109620925377
 20
1.385220862132325
 30
0.0
 10
53.48124207359438
 20
1.385587679209205
 30
0.0
 10
53.48138080166575
 20
1.38595766647683
 30
0.0
 10
53.48151952973712
 20
1.386327653744454
 30
0.0
 10
53.48165102119574
 20
1.386700602270065
 30
0.0
 10
53.48178251265436
 20
1.387073550795675
 30
0.0
 10
53.4819066753472
 20
1.387449247511415
 30
0.0
 10
53.48203083804005
 20
1.387824944227155
 30
0.0
 10
53.48214758821329
 20
1.388203172333369
 30
0.0
 10
53.48226433838654
 20
1.388581400439583
 30
0.0
 10
53.4823736008702
 20
1.388961939820506
 30
0.0
 10
53.48248286335387
 20
1.389342479201429
 30
0.0
 10
53.48258457172172
 20
1.389725106851603
 30
0.0
 10
53.48268628008957
 20
1.390107734501776
 30
0.0
 10
53.48278037679356
 20
1.390492224961452
 30
0.0
 10
53.48287447349754
 20
1.390876715421128
 30
0.0
 10
53.48296090997607
 20
1.391262841218883
 30
0.0
 10
53.48304734645461
 20
1.391648967016639
 30
0.0
 10
53.48312608321442
 20
1.392036499117373
 30
0.0
 10
53.48320481997421
 20
1.392424031218108
 30
0.0
 10
53.48327582664535
 20
1.392812739474576
 30
0.0
 10
53.48334683331648
 20
1.393201447731043
 30
0.0
 10
53.48341008868049
 20
1.393591101337052
 30
0.0
 10
53.4834733440445
 20
1.393980754943061
 30
0.0
 10
53.48352883603562
 20
1.394371122886486
 30
0.0
 10
53.48358432802675
 20
1.394761490829911
 30
0.0
 10
53.48363205370639
 20
1.395152342343654
 30
0.0
 10
53.48367977938602
 20
1.395543193857398
 30
0.0
 10
53.48371974489082
 20
1.395934298866483
 30
0.0
 10
53.48375971039563
 20
1.396325403875568
 30
0.0
 10
53.4837919308595
 20
1.396716533438572
 30
0.0
 10
53.48382415132336
 20
1.397107663001577
 30
0.0
 10
53.48384865077412
 20
1.397498589744673
 30
0.0
 10
53.48387315022489
 20
1.397889516487768
 30
0.0
 10
53.48388996145621
 20
1.398280015029683
 30
0.0
 10
53.48390677268754
 20
1.398670513571599
 30
0.0
 10
53.48391593710703
 20
1.399060360937912
 30
0.0
 10
53.48392510152652
 20
1.399450208304225
 30
0.0
 10
53.48392666898084
 20
1.399839184329449
 30
0.0
 10
53.48392823643518
 20
1.400228160354673
 30
0.0
 10
53.48392226501343
 20
1.400616048070724
 30
0.0
 10
53.48391629359169
 20
1.401003935786775
 30
0.0
 10
53.48390284940793
 20
1.401390521796466
 30
0.0
 10
53.48388940522417
 20
1.401777107806157
 30
0.0
 10
53.48386856218058
 20
1.40216218264052
 30
0.0
 10
53.483847719137
 20
1.402547257474883
 30
0.0
 10
53.48381955866893
 20
1.402930615933181
 30
0.0
 10
53.48379139820085
 20
1.40331397439148
 30
0.0
 10
53.48375600900501
 20
1.403695415862932
 30
0.0
 10
53.48372061980917
 20
1.404076857334384
 30
0.0
 10
53.48367809755662
 20
1.404456186100714
 30
0.0
 10
53.48363557530408
 20
1.404835514867043
 30
0.0
 10
53.48358602233931
 20
1.405212540385107
 30
0.0
 10
53.48353646937455
 20
1.405589565903172
 30
0.0
 10
53.48347999440229
 20
1.40596410306704
 30
0.0
 10
53.48342351943003
 20
1.406338640230908
 30
0.0
 10
53.48336023719129
 20
1.406710509612885
 30
0.0
 10
53.48329695495256
 20
1.407082378994862
 30
0.0
 10
53.48322698589142
 20
1.407451407065082
 30
0.0
 10
53.48315701683028
 20
1.407820435135301
 30
0.0
 10
53.48308048675302
 20
1.408186454459631
 30
0.0
 10
53.48300395667578
 20
1.408552473783961
 30
0.0
 10
53.48292099640393
 20
1.408915323200084
 30
0.0
 10
53.48283803613209
 20
1.409278172616207
 30
0.0
 10
53.4827487811507
 20
1.409637697387859
 30
0.0
 10
53.48265952616932
 20
1.40999722215951
 30
0.0
 10
53.4825641162723
 20
1.410353274108966
 30
0.0
 10
53.48246870637527
 20
1.410709326058423
 30
0.0
 10
53.48236728530889
 20
1.411061763677435
 30
0.0
 10
53.48226586424251
 20
1.411414201296447
 30
0.0
 10
53.48215857934874
 20
1.411762889835925
 30
0.0
 10
53.48205129445498
 20
1.412111578375403
 30
0.0
 10
53.48193829631579
 20
1.412456389914241
 30
0.0
 10
53.4818252981766
 20
1.412801201453079
 30
0.0
 10
53.48170674026069
 20
1.413142014946613
 30
0.0
 10
53.48158818234479
 20
1.413482828440148
 30
0.0
 10
53.48146349490234
 20
1.413821447486413
 30
0.0
 10
53.48133880745991
 20
1.414160066532678
 30
0.0
 10
53.48120728607937
 20
1.414498246519136
 30
0.0
 10
53.48107576469884
 20
1.414836426505595
 30
0.0
 10
53.48093736760722
 20
1.415173976488602
 30
0.0
 10
53.4807989705156
 20
1.415511526471609
 30
0.0
 10
53.48065366253505
 20
1.415848252025709
 30
0.0
 10
53.48050835455449
 20
1.416184977579809
 30
0.0
 10
53.48035610734449
 20
1.416520681059398
 30
0.0
 10
53.48020386013449
 20
1.416856384538986
 30
0.0
 10
53.48004465242309
 20
1.417190865357219
 30
0.0
 10
53.4798854447117
 20
1.417525346175452
 30
0.0
 10
53.47971926251422
 20
1.417858401099947
 30
0.0
 10
53.47955308031675
 20
1.418191456024442
 30
0.0
 10
53.47937991714083
 20
1.418522879489232
 30
0.0
 10
53.47920675396492
 20
1.418854302954023
 30
0.0
 10
53.47902661100058
 20
1.419183887387096
 30
0.0
 10
53.47884646803624
 20
1.419513471820169
 30
0.0
 10
53.47865935432968
 20
1.419841007985825
 30
0.0
 10
53.47847224062313
 20
1.420168544151482
 30
0.0
 10
53.47827817323321
 20
1.420493821506645
 30
0.0
 10
53.4780841058433
 20
1.420819098861808
 30
0.0
 10
53.47788310997929
 20
1.421141905925298
 30
0.0
 10
53.47768211411528
 20
1.421464712988789
 30
0.0
 10
53.47747422325497
 20
1.421784837722496
 30
0.0
 10
53.47726633239467
 20
1.422104962456203
 30
0.0
 10
53.47705158838183
 20
1.422422192656954
 30
0.0
 10
53.47683684436898
 20
1.422739422857705
 30
0.0
 10
53.47661529748893
 20
1.423053546558576
 30
0.0
 10
53.47639375060887
 20
1.423367670259447
 30
0.0
 10
53.47616545964173
 20
1.423678476139138
 30
0.0
 10
53.47593716867459
 20
1.423989282018829
 30
0.0
 10
53.47570220092507
 20
1.424296559817659
 30
0.0
 10
53.47546723317555
 20
1.424603837616489
 30
0.0
 10
53.47522566447874
 20
1.424907378557488
 30
0.0
 10
53.47498409578194
 20
1.425210919498487
 30
0.0
 10
53.47473601048457
 20
1.425510516711993
 30
0.0
 10
53.4744879251872
 20
1.425810113925499
 30
0.0
 10
53.4742334161039
 20
1.426105562875612
 30
0.0
 10
53.4739789070206
 20
1.426401011825724
 30
0.0
 10
53.47371807536484
 20
1.426692110736916
 30
0.0
 10
53.47345724370909
 20
1.426983209648108
 30
0.0
 10
53.47319019899869
 20
1.427269759930256
 30
0.0
 10
53.47292315428829
 20
1.427556310212405
 30
0.0
 10
53.47265001422524
 20
1.427838116882488
 30
0.0
 10
53.47237687416218
 20
1.428119923552571
 30
0.0
 10
53.47209776448717
 20
1.428396795651242
 30
0.0
 10
53.47181865481217
 20
1.428673667749912
 30
0.0
 10
53.47153370913384
 20
1.428945418751181
 30
0.0
 10
53.4712487634555
 20
1.42921716975245
 30
0.0
 10
53.47095812305479
 20
1.429483617964701
 30
0.0
 10
53.47066748265409
 20
1.429750066176953
 30
0.0
 10
53.47037129626438
 20
1.430011035133546
 30
0.0
 10
53.47007510987468
 20
1.430272004090139
 30
0.0
 10
53.46977353343812
 20
1.430527322927889
 30
0.0
 10
53.46947195700157
 20
1.430782641765639
 30
0.0
 10
53.46916515340263
 20
1.431032145589505
 30
0.0
 10
53.4688583498037
 20
1.43128164941337
 30
0.0
 10
53.46854648858067
 20
1.431525179645756
 30
0.0
 10
53.46823462735765
 20
1.431768709878141
 30
0.0
 10
53.46791788439329
 20
1.432006114591265
 30
0.0
 10
53.46760114142893
 20
1.432243519304389
 30
0.0
 10
53.46727969862137
 20
1.432474653534288
 30
0.0
 10
53.4669582558138
 20
1.432705787764187
 30
0.0
 10
53.46663230072892
 20
1.432930513804984
 30
0.0
 10
53.46630634564404
 20
1.433155239845781
 30
0.0
 10
53.46597607115093
 20
1.433373427522978
 30
0.0
 10
53.46564579665782
 20
1.433591615200176
 30
0.0
 10
53.46531140054849
 20
1.433803142121826
 30
0.0
 10
53.46497700443917
 20
1.434014669043477
 30
0.0
 10
53.46463868903442
 20
1.434219420828226
 30
0.0
 10
53.46430037362968
 20
1.434424172612974
 30
0.0
 10
53.46395834537251
 20
1.434622043094071
 30
0.0
 10
53.46361631711535
 20
1.434819913575167
 30
0.0
 10
53.46327078615374
 20
1.435010804979707
 30
0.0
 10
53.46292525519215
 20
1.435201696384246
 30
0.0
 10
53.46257643495302
 20
1.435385519487012
 30
0.0
 10
53.4622276147139
 20
1.435569342589777
 30
0.0
 10
53.4618757214699
 20
1.435746016841219
 30
0.0
 10
53.46152382822591
 20
1.435922691092661
 30
0.0
 10
53.46116908065699
 20
1.436092144720678
 30
0.0
 10
53.46081433308806
 20
1.436261598348695
 30
0.0
 10
53.46045695183957
 20
1.436423768434039
 30
0.0
 10
53.46009957059109
 20
1.436585938519382
 30
0.0
 10
53.45973977783035
 20
1.43674077104464
 30
0.0
 10
53.45937998506962
 20
1.436895603569897
 30
0.0
 10
53.45901800404262
 20
1.437043053442168
 30
0.0
 10
53.45865602301563
 20
1.437190503314438
 30
0.0
 10
53.45829207760579
 20
1.437330534361937
 30
0.0
 10
53.45792813219595
 20
1.437470565409435
 30
0.0
 10
53.45756244648662
 20
1.437603150352413
 30
0.0
 10
53.45719676077729
 20
1.437735735295391
 30
0.0
 10
53.45682955861972
 20
1.437860855691888
 30
0.0
 10
53.45646235646215
 20
1.437985976088385
 30
0.0
 10
53.45609386105059
 20
1.438103622255442
 30
0.0
 10
53.45572536563904
 20
1.438221268422498
 30
0.0
 10
53.45535579909446
 20
1.4383314393336
 30
0.0
 10
53.45498623254989
 20
1.438441610244703
 30
0.0
 10
53.45461581551394
 20
1.438544313404313
 30
0.0
 10
53.45424539847799
 20
1.438647016563922
 30
0.0
 10
53.4538743497185
 20
1.438742267860071
 30
0.0
 10
53.45350330095903
 20
1.438837519156221
 30
0.0
 10
53.45313183698843
 20
1.438925342692229
 30
0.0
 10
53.45276037301785
 20
1.439013166228238
 30
0.0
 10
53.45238870772561
 20
1.439093594134694
 30
0.0
 10
53.45201704243338
 20
1.439174022041149
 30
0.0
 10
53.45164538673374
 20
1.439247094269374
 30
0.0
 10
53.45127373103411
 20
1.439320166497598
 30
0.0
 10
53.45090229252995
 20
1.439385930595876
 30
0.0
 10
53.4505308540258
 20
1.439451694694155
 30
0.0
 10
53.4501598366896
 20
1.439510205568057
 30
0.0
 10
53.4497888193534
 20
1.439568716441959
 30
0.0
 10
53.449418423226
 20
1.439620036100121
 30
0.0
 10
53.4490480270986
 20
1.439671355758283
 30
0.0
 10
53.44867844800649
 20
1.439715553045063
 30
0.0
 10
53.44830886891438
 20
1.439759750331843
 30
0.0
 10
53.44794029820593
 20
1.439796900648256
 30
0.0
 10
53.44757172749748
 20
1.43983405096467
 30
0.0
 10
53.44720435179867
 20
1.439864235979051
 30
0.0
 10
53.44683697609988
 20
1.439894420993432
 30
0.0
 10
53.44647097708971
 20
1.439917728343244
 30
0.0
 10
53.44610497807954
 20
1.439941035693056
 30
0.0
 10
53.44574053228533
 20
1.439957558679277
 30
0.0
 10
53.44537608649112
 20
1.439974081665499
 30
0.0
 10
53.44501336510383
 20
1.439983918940992
 30
0.0
 10
53.44465064371656
 20
1.439993756216485
 30
0.0
 10
53.41929501287299
 20
1.440002213531498
 30
0.0
 10
53.39393938202942
 20
1.440010670846511
 30
0.0
 10
53.39361726642903
 20
1.440026180056817
 30
0.0
 10
53.39329515082865
 20
1.440041689267124
 30
0.0
 10
53.3929712025904
 20
1.440067819291814
 30
0.0
 10
53.39264725435215
 20
1.440093949316505
 30
0.0
 10
53.39232197829392
 20
1.440130897979365
 30
0.0
 10
53.39199670223569
 20
1.440167846642225
 30
0.0
 10
53.39167062254431
 20
1.44021578084628
 30
0.0
 10
53.39134454285294
 20
1.440263715050336
 30
0.0
 10
53.39101820078865
 20
1.440322768726976
 30
0.0
 10
53.39069185872435
 20
1.440381822403616
 30
0.0
 10
53.39036581008386
 20
1.440452094660327
 30
0.0
 10
53.39003976144338
 20
1.440522366917037
 30
0.0
 10
53.38971457380138
 20
1.44060392041534
 30
0.0
 10
53.38938938615939
 20
1.440685473913642
 30
0.0
 10
53.38906563591209
 20
1.440778333506686
 30
0.0
 10
53.38874188566479
 20
1.440871193099729
 30
0.0
 10
53.38842015490427
 20
1.44097534475615
 30
0.0
 10
53.38809842414375
 20
1.44107949641257
 30
0.0
 10
53.38777929739524
 20
1.441194886449677
 30
0.0
 10
53.38746017064673
 20
1.441310276486784
 30
0.0
 10
53.38714423150469
 20
1.441436811131941
 30
0.0
 10
53.38682829236266
 20
1.441563345777098
 30
0.0
 10
53.3865161200642
 20
1.441700891071415
 30
0.0
 10
53.38620394776574
 20
1.441838436365732
 30
0.0
 10
53.3858961137421
 20
1.441986818418965
 30
0.0
 10
53.38558827971846
 20
1.442135200472199
 30
0.0
 10
53.38528534416665
 20
1.442294206072205
 30
0.0
 10
53.38498240861485
 20
1.442453211672212
 30
0.0
 10
53.38468491713191
 20
1.442622589246551
 30
0.0
 10
53.38438742564896
 20
1.44279196682089
 30
0.0
 10
53.38409590597075
 20
1.442971427742345
 30
0.0
 10
53.38380438629255
 20
1.4431508886638
 30
0.0
 10
53.38351934517809
 20
1.443340108885888
 30
0.0
 10
53.38323430406362
 20
1.443529329107977
 30
0.0
 10
53.3829562243633
 20
1.443727951111047
 30
0.0
 10
53.38267814466298
 20
1.443926573114118
 30
0.0
 10
53.38240748260624
 20
1.444134208137549
 30
0.0
 10
53.3821368205495
 20
1.444341843160981
 30
0.0
 10
53.38187400328381
 20
1.444558073692471
 30
0.0
 10
53.38161118601811
 20
1.444774304223961
 30
0.0
 10
53.38135660942669
 20
1.444998686712966
 30
0.0
 10
53.38110203283526
 20
1.445223069201972
 30
0.0
 10
53.38085605965597
 20
1.445455136961205
 30
0.0
 10
53.38061008647669
 20
1.445687204720437
 30
0.0
 10
53.38037304473957
 20
1.445926470976953
 30
0.0
 10
53.38013600300245
 20
1.446165737233469
 30
0.0
 10
53.37990818479734
 20
1.446411698289366
 30
0.0
 10
53.37968036659225
 20
1.446657659345263
 30
0.0
 10
53.37946202717309
 20
1.446909797807351
 30
0.0
 10
53.37924368775394
 20
1.447161936269439
 30
0.0
 10
53.37903504498
 20
1.447419724307442
 30
0.0
 10
53.37882640220605
 20
1.447677512345446
 30
0.0
 10
53.37862763631565
 20
1.447940414939306
 30
0.0
 10
53.37842887042525
 20
1.448203317533165
 30
0.0
 10
53.37824012413225
 20
1.448470795671755
 30
0.0
 10
53.37805137783925
 20
1.448738273810345
 30
0.0
 10
53.37787275673794
 20
1.449009787606355
 30
0.0
 10
53.37769413563663
 20
1.449281301402366
 30
0.0
 10
53.37752570889681
 20
1.449556313091092
 30
0.0
 10
53.377357282157
 20
1.449831324779818
 30
0.0
 10
53.36360105050316
 20
1.474915827970191
 30
0.0
 10
53.34984481884932
 20
1.500000331160564
 30
0.0
  0
SPLINE
  5
42
330
1F
100
AcDbEntity
  8
DEFAULT
100
AcDbSpline
210
0.0
220
0.0
230
1.0
 70
     8
 71
     2
 72
   260
 73
   257
 74
     0
 42
0.0000000001
 43
0.0000000001
 40
0.0
 40
0.0
 40
0.0
 40
1.0
 40
1.0
 40
2.0
 40
2.0
 40
3.0
 40
3.0
 40
4.0
 40
4.0
 40
5.0
 40
5.0
 40
6.0
 40
6.0
 40
7.0
 40
7.0
 40
8.0
 40
8.0
 40
9.0
 40
9.0
 40
10.0
 40
10.0
 40
11.0
 40
11.0
 40
12.0
 40
12.0
 40
13.0
 40
13.0
 40
14.0
 40
14.0
 40
15.0
 40
15.0
 40
16.0
 40
16.0
 40
17.0
 40
17.0
 40
18.0
 40
18.0
 40
19.0
 40
19.0
 40
20.0
 40
20.0
 40
21.0
 40
21.0
 40
22.0
 40
22.0
 40
23.0
 40
23.0
 40
24.0
 40
24.0
 40
25.0
 40
25.0
 40
26.0
 40
26.0
 40
27.0
 40
27.0
 40
28.0
 40
28.0
 40
29.0
 40
29.0
 40
30.0
 40
30.0
 40
31.0
 40
31.0
 40
32.0
 40
32.0
 40
33.0
 40
33.0
 40
34.0
 40
34.0
 40
35.0
 40
35.0
 40
36.0
 40
36.0
 40
37.0
 40
37.0
 40
38.0
 40
38.0
 40
39.0
 40
39.0
 40
40.0
 40
40.0
 40
41.0
 40
41.0
 40
42.0
 40
42.0
 40
43.0
 40
43.0
 40
44.0
 40
44.0
 40
45.0
 40
45.0
 40
46.0
 40
46.0
 40
47.0
 40
47.0
 40
48.0
 40
48.0
 40
49.0
 40
49.0
 40
50.0
 40
50.0
 40
51.0
 40
51.0
 40
52.0
 40
52.0
 40
53.0
 40
53.0
 40
54.0
 40
54.0
 40
55.0
 40
55.0
 40
56.0
 40
56.0
 40
57.0
 40
57.0
 40
58.0
 40
58.0
 40
59.0
 40
59.0
 40
60.0
 40
60.0
 40
61.0
 40
61.0
 40
62.0
 40
62.0
 40
63.0
 40
63.0
 40
64.0
 40
64.0
 40
65.0
 40
65.0
 40
66.0
 40
66.0
 40
67.0
 40
67.0
 40
68.0
 40
68.0
 40
69.0
 40
69.0
 40
70.0
 40
70.0
 40
71.0
 40
71.0
 40
72.0
 40
72.0
 40
73.0
 40
73.0
 40
74.0
 40
74.0
 40
75.0
 40
75.0
 40
76.0
 40
76.0
 40
77.0
 40
77.0
 40
78.0
 40
78.0
 40
79.0
 40
79.0
 40
80.0
 40
80.0
 40
81.0
 40
81.0
 40
82.0
 40
82.0
 40
83.0
 40
83.0
 40
84.0
 40
84.0
 40
85.0
 40
85.0
 40
86.0
 40
86.0
 40
87.0
 40
87.0
 40
88.0
 40
88.0
 40
89.0
 40
89.0
 40
90.0
 40
90.0
 40
91.0
 40
91.0
 40
92.0
 40
92.0
 40
93.0
 40
93.0
 40
94.0
 40
94.0
 40
95.0
 40
95.0
 40
96.0
 40
96.0
 40
97.0
 40
97.0
 40
98.0
 40
98.0
 40
99.0
 40
99.0
 40
100.0
 40
100.0
 40
101.0
 40
101.0
 40
102.0
 40
102.0
 40
103.0
 40
103.0
 40
104.0
 40
104.0
 40
105.0
 40
105.0
 40
106.0
 40
106.0
 40
107.0
 40
107.0
 40
108.0
 40
108.0
 40
109.0
 40
109.0
 40
110.0
 40
110.0
 40
111.0
 40
111.0
 40
112.0
 40
112.0
 40
113.0
 40
113.0
 40
114.0
 40
114.0
 40
115.0
 40
115.0
 40
116.0
 40
116.0
 40
117.0
 40
117.0
 40
118.0
 40
118.0
 40
119.0
 40
119.0
 40
120.0
 40
120.0
 40
121.0
 40
121.0
 40
122.0
 40
122.0
 40
123.0
 40
123.0
 40
124.0
 40
124.0
 40
125.0
 40
125.0
 40
126.0
 40
126.0
 40
127.0
 40
127.0
 40
128.0
 40
128.0
 40
128.0
 10
50.76123398113579
 20
1.499999831331888
 30
0.0
 10
50.77778752517241
 20
0.8689920003863933
 30
0.0
 10
50.79434106920904
 20
0.2379841694408987
 30
0.0
 10
50.79450425702016
 20
0.2352274593522505
 30
0.0
 10
50.79466744483128
 20
0.2324707492636024
 30
0.0
 10
50.79489365407191
 20
0.2296949655405397
 30
0.0
 10
50.79511986331254
 20
0.226919181817477
 30
0.0
 10
50.79541049785566
 20
0.224126227138549
 30
0.0
 10
50.79570113239878
 20
0.221333272459621
 30
0.0
 10
50.79605753150017
 20
0.2185251430156552
 30
0.0
 10
50.79641393060157
 20
0.2157170135716895
 30
0.0
 10
50.79683736232127
 20
0.212895797134058
 30
0.0
 10
50.79726079404097
 20
0.2100745806964266
 30
0.0
 10
50.79775244865375
 20
0.2072424541872895
 30
0.0
 10
50.79824410326655
 20
0.2044103276781525
 30
0.0
 10
50.79880508670173
 20
0.2015695542294341
 30
0.0
 10
50.79936607013691
 20
0.1987287807807156
 30
0.0
 10
50.79999739749007
 20
0.1958817062719716
 30
0.0
 10
50.80062872484324
 20
0.1930346317632276
 30
0.0
 10
50.80133131400454
 20
0.1901836808323236
 30
0.0
 10
50.80203390316584
 20
0.1873327299014195
 30
0.0
 10
50.80280856861124
 20
0.184480401426018
 30
0.0
 10
50.80358323405663
 20
0.1816280729506165
 30
0.0
 10
50.80443068084968
 20
0.1787769350028506
 30
0.0
 10
50.80527812764272
 20
0.1759257970550846
 30
0.0
 10
50.8061989456955
 20
0.1730784813364269
 30
0.0
 10
50.80711976374828
 20
0.1702311656177692
 30
0.0
 10
50.80811442239041
 20
0.1673903613859517
 30
0.0
 10
50.80910908103255
 20
0.1645495571541342
 30
0.0
 10
50.81017792393709
 20
0.1617180046589727
 30
0.0
 10
50.81124676684164
 20
0.1588864521638112
 30
0.0
 10
50.81239000735599
 20
0.1560669356138892
 30
0.0
 10
50.81353324787034
 20
0.1532474190639672
 30
0.0
 10
50.81475096479909
 20
0.1504427591512659
 30
0.0
 10
50.81596868172783
 20
0.1476380992385646
 30
0.0
 10
50.81726081561251
 20
0.1448511452532186
 30
0.0
 10
50.8185529494972
 20
0.1420641912678726
 30
0.0
 10
50.81991929943569
 20
0.1392978128402145
 30
0.0
 10
50.82128564937418
 20
0.1365314344125564
 30
0.0
 10
50.82272587041902
 20
0.1337885129244055
 30
0.0
 10
50.82416609146385
 20
0.1310455914362545
 30
0.0
 10
50.8256796926357
 20
0.1283290111479326
 30
0.0
 10
50.82719329380756
 20
0.1256124308596107
 30
0.0
 10
50.82877963675536
 20
0.1229250698033519
 30
0.0
 10
50.83036597970317
 20
0.1202377087470931
 30
0.0
 10
50.83202427803793
 20
0.1175824294412746
 30
0.0
 10
50.8336825763727
 20
0.1149271501354562
 30
0.0
 10
50.83541189569689
 20
0.1123067901773552
 30
0.0
 10
50.83714121502107
 20
0.1096864302192542
 30
0.0
 10
50.83894047366969
 20
0.1071037928167468
 30
0.0
 10
50.84073973231831
 20
0.1045211554142395
 30
0.0
 10
50.84260770282182
 20
0.1019789999189615
 30
0.0
 10
50.84447567332533
 20
0.0994368444236835
 30
0.0
 10
50.84641098459846
 20
0.0969378769296048
 30
0.0
 10
50.84834629587159
 20
0.094438909435526
 30
0.0
 10
50.85034743612538
 20
0.09198577350762
 30
0.0
 10
50.85234857637918
 20
0.0895326375797139
 30
0.0
 10
50.85441389674726
 20
0.087127905177396
 30
0.0
 10
50.85647921711534
 20
0.084723172775078
 30
0.0
 10
50.85860693597867
 20
0.0823693354343291
 30
0.0
 10
50.86073465484201
 20
0.0800154980935802
 30
0.0
 10
50.8629228628299
 20
0.0777149584301592
 30
0.0
 10
50.8651110708178
 20
0.0754144187667381
 30
0.0
 10
50.8673577364567
 20
0.0731694823606285
 30
0.0
 10
50.86960440209559
 20
0.0709245459545189
 30
0.0
 10
50.87190737807084
 20
0.0687374136727763
 30
0.0
 10
50.87421035404611
 20
0.0665502813910337
 30
0.0
 10
50.87656738403662
 20
0.0644230422025337
 30
0.0
 10
50.87892441402713
 20
0.0622958030140337
 30
0.0
 10
50.881333140067
 20
0.0602304273453196
 30
0.0
 10
50.88374186610687
 20
0.0581650516766055
 30
0.0
 10
50.88619983642385
 20
0.0561633853531551
 30
0.0
 10
50.88865780674083
 20
0.0541617190297046
 30
0.0
 10
50.89116248401693
 20
0.0522254778415508
 30
0.0
 10
50.89366716129303
 20
0.0502892366533969
 30
0.0
 10
50.89621593128935
 20
0.0484200015782262
 30
0.0
 10
50.89876470128566
 20
0.0465507665030556
 30
0.0
 10
50.90135488177039
 20
0.0447499796137574
 30
0.0
 10
50.90394506225513
 20
0.0429491927244592
 30
0.0
 10
50.90657391217198
 20
0.0412181538016963
 30
0.0
 10
50.90920276208884
 20
0.0394871148789335
 30
0.0
 10
50.91186749090139
 20
0.0378269787427564
 30
0.0
 10
50.91453221971393
 20
0.0361668426065793
 30
0.0
 10
50.91722999686111
 20
0.0345786171744906
 30
0.0
 10
50.91992777400829
 20
0.0329903917424019
 30
0.0
 10
50.92265573840631
 20
0.0314749368147089
 30
0.0
 10
50.92538370280433
 20
0.029959481887016
 30
0.0
 10
50.92813897233112
 20
0.028517508653866
 30
0.0
 10
50.93089424185791
 20
0.0270755354207161
 30
0.0
 10
50.93367392275789
 20
0.0257076066789847
 30
0.0
 10
50.93645360365787
 20
0.0243396779372533
 30
0.0
 10
50.93925479980712
 20
0.0230462089995331
 30
0.0
 10
50.94205599595637
 20
0.0217527400618129
 30
0.0
 10
50.94487581793102
 20
0.0205340003342
 30
0.0
 10
50.94769563990568
 20
0.0193152606065871
 30
0.0
 10
50.95053121379986
 20
0.0181713758068486
 30
0.0
 10
50.95336678769404
 20
0.0170274910071101
 30
0.0
 10
50.95621526363755
 20
0.0159584459901989
 30
0.0
 10
50.95906373958106
 20
0.0148894009732878
 30
0.0
 10
50.96192229991121
 20
0.0138950431270874
 30
0.0
 10
50.96478086024136
 20
0.0129006852808869
 30
0.0
 10
50.96764672728818
 20
0.0119807284515566
 30
0.0
 10
50.97051259433501
 20
0.0110607716222262
 30
0.0
 10
50.97338303778363
 20
0.010214800525599
 30
0.0
 10
50.97625348123225
 20
0.0093688294289718
 30
0.0
 10
50.9791258250316
 20
0.0085963045021385
 30
0.0
 10
50.98199816883096
 20
0.0078237795753053
 30
0.0
 10
50.98486979762288
 20
0.007124042220806
 30
0.0
 10
50.98774142641479
 20
0.0064243048663067
 30
0.0
 10
50.99060979146287
 20
0.0057965830402328
 30
0.0
 10
50.99347815651096
 20
0.0051688612141588
 30
0.0
 10
50.99634078111353
 20
0.0046122753089249
 30
0.0
 10
50.99920340571611
 20
0.004055689403691
 30
0.0
 10
51.00205789009284
 20
0.0035692583762436
 30
0.0
 10
51.00491237446957
 20
0.0030828273487962
 30
0.0
 10
51.00775640011591
 20
0.0026654750455457
 30
0.0
 10
51.01060042576224
 20
0.0022481227422953
 30
0.0
 10
51.01343175927057
 20
0.0018986843730584
 30
0.0
 10
51.01626309277889
 20
0.0015492460038215
 30
0.0
 10
51.01907958912962
 20
0.0012664747184891
 30
0.0
 10
51.02189608548036
 20
0.0009837034331568
 30
0.0
 10
51.0246956908103
 20
0.0007662769566172
 30
0.0
 10
51.02749529614026
 20
0.0005488504800775
 30
0.0
 10
51.030276049999
 20
0.0003953777630702
 30
0.0
 10
51.03305680385775
 20
0.0002419050460629
 30
0.0
 10
51.03581684096651
 20
0.0001509328920731
 30
0.0
 10
51.03857687807528
 20
0.0000599607380833
 30
0.0
 10
52.00849642960554
 20
0.0000299803690418
 30
0.0
 10
52.9784159811358
 20
0.0000000000000003
 30
0.0
 10
52.98115353266605
 20
0.0000299803690404
 30
0.0
 10
52.9838910841963
 20
0.0000599607380806
 30
0.0
 10
52.98665112130507
 20
0.0001509328920705
 30
0.0
 10
52.98941115841383
 20
0.0002419050460603
 30
0.0
 10
52.99219191227256
 20
0.0003953777630676
 30
0.0
 10
52.9949726661313
 20
0.0005488504800749
 30
0.0
 10
52.99777227146125
 20
0.0007662769566146
 30
0.0
 10
53.00057187679121
 20
0.0009837034331542
 30
0.0
 10
53.00338837314196
 20
0.0012664747184866
 30
0.0
 10
53.00620486949271
 20
0.0015492460038189
 30
0.0
 10
53.00903620300102
 20
0.0018986843730558
 30
0.0
 10
53.01186753650933
 20
0.0022481227422927
 30
0.0
 10
53.01471156215565
 20
0.0026654750455432
 30
0.0
 10
53.01755558780199
 20
0.0030828273487937
 30
0.0
 10
53.02041007217873
 20
0.0035692583762411
 30
0.0
 10
53.02326455655547
 20
0.0040556894036885
 30
0.0
 10
53.02612718115805
 20
0.0046122753089224
 30
0.0
 10
53.02898980576063
 20
0.0051688612141563
 30
0.0
 10
53.03185817080872
 20
0.0057965830402303
 30
0.0
 10
53.0347265358568
 20
0.0064243048663043
 30
0.0
 10
53.03759816464871
 20
0.0071240422208036
 30
0.0
 10
53.04046979344064
 20
0.007823779575303
 30
0.0
 10
53.04334213723999
 20
0.0085963045021362
 30
0.0
 10
53.04621448103934
 20
0.0093688294289695
 30
0.0
 10
53.04908492448796
 20
0.0102148005255967
 30
0.0
 10
53.05195536793657
 20
0.0110607716222239
 30
0.0
 10
53.05482123498339
 20
0.0119807284515543
 30
0.0
 10
53.05768710203021
 20
0.0129006852808846
 30
0.0
 10
53.06054566236037
 20
0.0138950431270851
 30
0.0
 10
53.06340422269052
 20
0.0148894009732856
 30
0.0
 10
53.06625269863403
 20
0.0159584459901968
 30
0.0
 10
53.06910117457754
 20
0.017027491007108
 30
0.0
 10
53.07193674847173
 20
0.0181713758068465
 30
0.0
 10
53.07477232236592
 20
0.019315260606585
 30
0.0
 10
53.07759214434057
 20
0.0205340003341979
 30
0.0
 10
53.08041196631523
 20
0.0217527400618108
 30
0.0
 10
53.08321316246448
 20
0.0230462089995311
 30
0.0
 10
53.08601435861373
 20
0.0243396779372513
 30
0.0
 10
53.0887940395137
 20
0.0257076066789827
 30
0.0
 10
53.09157372041367
 20
0.0270755354207141
 30
0.0
 10
53.09432898994045
 20
0.0285175086538641
 30
0.0
 10
53.09708425946723
 20
0.0299594818870141
 30
0.0
 10
53.09981222386526
 20
0.0314749368147071
 30
0.0
 10
53.10254018826328
 20
0.0329903917424
 30
0.0
 10
53.10523796541045
 20
0.0345786171744887
 30
0.0
 10
53.10793574255764
 20
0.0361668426065775
 30
0.0
 10
53.11060047137019
 20
0.0378269787427546
 30
0.0
 10
53.11326520018274
 20
0.0394871148789317
 30
0.0
 10
53.11589405009958
 20
0.0412181538016946
 30
0.0
 10
53.11852290001644
 20
0.0429491927244575
 30
0.0
 10
53.12111308050117
 20
0.0447499796137557
 30
0.0
 10
53.12370326098591
 20
0.046550766503054
 30
0.0
 10
53.12625203098222
 20
0.0484200015782247
 30
0.0
 10
53.12880080097854
 20
0.0502892366533953
 30
0.0
 10
53.13130547825465
 20
0.0522254778415492
 30
0.0
 10
53.13381015553075
 20
0.0541617190297031
 30
0.0
 10
53.13626812584772
 20
0.0561633853531535
 30
0.0
 10
53.1387260961647
 20
0.058165051676604
 30
0.0
 10
53.14113482220458
 20
0.0602304273453182
 30
0.0
 10
53.14354354824445
 20
0.0622958030140323
 30
0.0
 10
53.14590057823496
 20
0.0644230422025323
 30
0.0
 10
53.14825760822548
 20
0.0665502813910323
 30
0.0
 10
53.15056058420074
 20
0.0687374136727749
 30
0.0
 10
53.152863560176
 20
0.0709245459545176
 30
0.0
 10
53.15511022581489
 20
0.0731694823606272
 30
0.0
 10
53.15735689145379
 20
0.0754144187667369
 30
0.0
 10
53.15954509944169
 20
0.0777149584301579
 30
0.0
 10
53.16173330742959
 20
0.080015498093579
 30
0.0
 10
53.16386102629292
 20
0.082369335434328
 30
0.0
 10
53.16598874515625
 20
0.0847231727750769
 30
0.0
 10
53.16805406552433
 20
0.0871279051773949
 30
0.0
 10
53.17011938589241
 20
0.0895326375797128
 30
0.0
 10
53.1721205261462
 20
0.0919857735076189
 30
0.0
 10
53.1741216664
 20
0.094438909435525
 30
0.0
 10
53.17605697767313
 20
0.0969378769296038
 30
0.0
 10
53.17799228894626
 20
0.0994368444236826
 30
0.0
 10
53.17986025944977
 20
0.1019789999189606
 30
0.0
 10
53.18172822995329
 20
0.1045211554142387
 30
0.0
 10
53.1835274886019
 20
0.1071037928167461
 30
0.0
 10
53.18532674725052
 20
0.1096864302192535
 30
0.0
 10
53.18705606657471
 20
0.1123067901773545
 30
0.0
 10
53.1887853858989
 20
0.1149271501354555
 30
0.0
 10
53.19044368423366
 20
0.117582429441274
 30
0.0
 10
53.19210198256843
 20
0.1202377087470925
 30
0.0
 10
53.19368832551623
 20
0.1229250698033514
 30
0.0
 10
53.19527466846403
 20
0.1256124308596102
 30
0.0
 10
53.19678826963589
 20
0.1283290111479321
 30
0.0
 10
53.19830187080775
 20
0.131045591436254
 30
0.0
 10
53.19974209185258
 20
0.133788512924405
 30
0.0
 10
53.20118231289743
 20
0.136531434412556
 30
0.0
 10
53.20254866283592
 20
0.1392978128402141
 30
0.0
 10
53.2039150127744
 20
0.1420641912678723
 30
0.0
 10
53.20520714665909
 20
0.1448511452532183
 30
0.0
 10
53.20649928054378
 20
0.1476380992385643
 30
0.0
 10
53.20771699747252
 20
0.1504427591512656
 30
0.0
 10
53.20893471440127
 20
0.153247419063967
 30
0.0
 10
53.21007795491561
 20
0.156066935613889
 30
0.0
 10
53.21122119542996
 20
0.158886452163811
 30
0.0
 10
53.2122900383345
 20
0.1617180046589726
 30
0.0
 10
53.21335888123904
 20
0.1645495571541341
 30
0.0
 10
53.21435353988117
 20
0.1673903613859516
 30
0.0
 10
53.21534819852331
 20
0.1702311656177692
 30
0.0
 10
53.21626901657609
 20
0.1730784813364269
 30
0.0
 10
53.21718983462888
 20
0.1759257970550847
 30
0.0
 10
53.21803728142192
 20
0.1787769350028507
 30
0.0
 10
53.21888472821497
 20
0.1816280729506167
 30
0.0
 10
53.21965939366036
 20
0.1844804014260182
 30
0.0
 10
53.22043405910577
 20
0.1873327299014197
 30
0.0
 10
53.22113664826707
 20
0.1901836808323238
 30
0.0
 10
53.22183923742837
 20
0.1930346317632279
 30
0.0
 10
53.22247056478153
 20
0.195881706271972
 30
0.0
 10
53.22310189213469
 20
0.198728780780716
 30
0.0
 10
53.22366287556986
 20
0.2015695542294345
 30
0.0
 10
53.22422385900504
 20
0.204410327678153
 30
0.0
 10
53.22471551361784
 20
0.20724245418729
 30
0.0
 10
53.22520716823063
 20
0.210074580696427
 30
0.0
 10
53.22563059995034
 20
0.2128957971340585
 30
0.0
 10
53.22605403167003
 20
0.2157170135716901
 30
0.0
 10
53.22641043077142
 20
0.2185251430156558
 30
0.0
 10
53.22676682987282
 20
0.2213332724596216
 30
0.0
 10
53.22705746441594
 20
0.2241262271385496
 30
0.0
 10
53.22734809895904
 20
0.2269191818174777
 30
0.0
 10
53.22757430819968
 20
0.2296949655405404
 30
0.0
 10
53.22780051744032
 20
0.2324707492636032
 30
0.0
 10
53.22796370525144
 20
0.2352274593522514
 30
0.0
 10
53.22812689306257
 20
0.2379841694408996
 30
0.0
 10
53.24468043709918
 20
0.8689920003863938
 30
0.0
 10
53.26123398113579
 20
1.499999831331888
 30
0.0
  0
SPLINE
  5
43
330
1F
100
AcDbEntity
  8
DEFAULT
100
AcDbSpline
210
0.0
220
0.0
230
1.0
 70
     8
 71
     2
 72
   260
 73
   257
 74
     0
 42
0.0000000001
 43
0.0000000001
 40
0.0
 40
0.0
 40
0.0
 40
1.0
 40
1.0
 40
2.0
 40
2.0
 40
3.0
 40
3.0
 40
4.0
 40
4.0
 40
5.0
 40
5.0
 40
6.0
 40
6.0
 40
7.0
 40
7.0
 40
8.0
 40
8.0
 40
9.0
 40
9.0
 40
10.0
 40
10.0
 40
11.0
 40
11.0
 40
12.0
 40
12.0
 40
13.0
 40
13.0
 40
14.0
 40
14.0
 40
15.0
 40
15.0
 40
16.0
 40
16.0
 40
17.0
 40
17.0
 40
18.0
 40
18.0
 40
19.0
 40
19.0
 40
20.0
 40
20.0
 40
21.0
 40
21.0
 40
22.0
 40
22.0
 40
23.0
 40
23.0
 40
24.0
 40
24.0
 40
25.0
 40
25.0
 40
26.0
 40
26.0
 40
27.0
 40
27.0
 40
28.0
 40
28.0
 40
29.0
 40
29.0
 40
30.0
 40
30.0
 40
31.0
 40
31.0
 40
32.0
 40
32.0
 40
33.0
 40
33.0
 40
34.0
 40
34.0
 40
35.0
 40
35.0
 40
36.0
 40
36.0
 40
37.0
 40
37.0
 40
38.0
 40
38.0
 40
39.0
 40
39.0
 40
40.0
 40
40.0
 40
41.0
 40
41.0
 40
42.0
 40
42.0
 40
43.0
 40
43.0
 40
44.0
 40
44.0
 40
45.0
 40
45.0
 40
46.0
 40
46.0
 40
47.0
 40
47.0
 40
48.0
 40
48.0
 40
49.0
 40
49.0
 40
50.0
 40
50.0
 40
51.0
 40
51.0
 40
52.0
 40
52.0
 40
53.0
 40
53.0
 40
54.0
 40
54.0
 40
55.0
 40
55.0
 40
56.0
 40
56.0
 40
57.0
 40
57.0
 40
58.0
 40
58.0
 40
59.0
 40
59.0
 40
60.0
 40
60.0
 40
61.0
 40
61.0
 40
62.0
 40
62.0
 40
63.0
 40
63.0
 40
64.0
 40
64.0
 40
65.0
 40
65.0
 40
66.0
 40
66.0
 40
67.0
 40
67.0
 40
68.0
 40
68.0
 40
69.0
 40
69.0
 40
70.0
 40
70.0
 40
71.0
 40
71.0
 40
72.0
 40
72.0
 40
73.0
 40
73.0
 40
74.0
 40
74.0
 40
75.0
 40
75.0
 40
76.0
 40
76.0
 40
77.0
 40
77.0
 40
78.0
 40
78.0
 40
79.0
 40
79.0
 40
80.0
 40
80.0
 40
81.0
 40
81.0
 40
82.0
 40
82.0
 40
83.0
 40
83.0
 40
84.0
 40
84.0
 40
85.0
 40
85.0
 40
86.0
 40
86.0
 40
87.0
 40
87.0
 40
88.0
 40
88.0
 40
89.0
 40
89.0
 40
90.0
 40
90.0
 40
91.0
 40
91.0
 40
92.0
 40
92.0
 40
93.0
 40
93.0
 40
94.0
 40
94.0
 40
95.0
 40
95.0
 40
96.0
 40
96.0
 40
97.0
 40
97.0
 40
98.0
 40
98.0
 40
99.0
 40
99.0
 40
100.0
 40
100.0
 40
101.0
 40
101.0
 40
102.0
 40
102.0
 40
103.0
 40
103.0
 40
104.0
 40
104.0
 40
105.0
 40
105.0
 40
106.0
 40
106.0
 40
107.0
 40
107.0
 40
108.0
 40
108.0
 40
109.0
 40
109.0
 40
110.0
 40
110.0
 40
111.0
 40
111.0
 40
112.0
 40
112.0
 40
113.0
 40
113.0
 40
114.0
 40
114.0
 40
115.0
 40
115.0
 40
116.0
 40
116.0
 40
117.0
 40
117.0
 40
118.0
 40
118.0
 40
119.0
 40
119.0
 40
120.0
 40
120.0
 40
121.0
 40
121.0
 40
122.0
 40
122.0
 40
123.0
 40
123.0
 40
124.0
 40
124.0
 40
125.0
 40
125.0
 40
126.0
 40
126.0
 40
127.0
 40
127.0
 40
128.0
 40
128.0
 40
128.0
 10
43.26097434079936
 20
1.499999831331888
 30
0.0
 10
43.27752788483599
 20
0.8689920003863933
 30
0.0
 10
43.29408142887262
 20
0.2379841694408987
 30
0.0
 10
43.29424461668373
 20
0.2352274593522505
 30
0.0
 10
43.29440780449485
 20
0.2324707492636024
 30
0.0
 10
43.29463401373549
 20
0.2296949655405397
 30
0.0
 10
43.29486022297613
 20
0.226919181817477
 30
0.0
 10
43.29515085751924
 20
0.224126227138549
 30
0.0
 10
43.29544149206235
 20
0.221333272459621
 30
0.0
 10
43.29579789116374
 20
0.2185251430156552
 30
0.0
 10
43.29615429026514
 20
0.2157170135716895
 30
0.0
 10
43.29657772198485
 20
0.212895797134058
 30
0.0
 10
43.29700115370456
 20
0.2100745806964266
 30
0.0
 10
43.29749280831734
 20
0.2072424541872895
 30
0.0
 10
43.29798446293012
 20
0.2044103276781525
 30
0.0
 10
43.29854544636531
 20
0.2015695542294341
 30
0.0
 10
43.2991064298005
 20
0.1987287807807156
 30
0.0
 10
43.29973775715365
 20
0.1958817062719716
 30
0.0
 10
43.30036908450681
 20
0.1930346317632276
 30
0.0
 10
43.30107167366812
 20
0.1901836808323236
 30
0.0
 10
43.30177426282942
 20
0.1873327299014195
 30
0.0
 10
43.30254892827482
 20
0.184480401426018
 30
0.0
 10
43.30332359372021
 20
0.1816280729506165
 30
0.0
 10
43.30417104051325
 20
0.1787769350028506
 30
0.0
 10
43.30501848730631
 20
0.1759257970550846
 30
0.0
 10
43.30593930535909
 20
0.1730784813364269
 30
0.0
 10
43.30686012341187
 20
0.1702311656177692
 30
0.0
 10
43.30785478205401
 20
0.1673903613859517
 30
0.0
 10
43.30884944069614
 20
0.1645495571541342
 30
0.0
 10
43.30991828360068
 20
0.1617180046589727
 30
0.0
 10
43.31098712650522
 20
0.1588864521638112
 30
0.0
 10
43.31213036701957
 20
0.1560669356138892
 30
0.0
 10
43.31327360753392
 20
0.1532474190639672
 30
0.0
 10
43.31449132446267
 20
0.1504427591512659
 30
0.0
 10
43.31570904139141
 20
0.1476380992385646
 30
0.0
 10
43.3170011752761
 20
0.1448511452532186
 30
0.0
 10
43.31829330916079
 20
0.1420641912678726
 30
0.0
 10
43.31965965909927
 20
0.1392978128402145
 30
0.0
 10
43.32102600903774
 20
0.1365314344125564
 30
0.0
 10
43.32246623008258
 20
0.1337885129244055
 30
0.0
 10
43.32390645112743
 20
0.1310455914362545
 30
0.0
 10
43.32542005229928
 20
0.1283290111479326
 30
0.0
 10
43.32693365347114
 20
0.1256124308596107
 30
0.0
 10
43.32851999641895
 20
0.1229250698033519
 30
0.0
 10
43.33010633936676
 20
0.1202377087470931
 30
0.0
 10
43.33176463770152
 20
0.1175824294412746
 30
0.0
 10
43.33342293603628
 20
0.1149271501354562
 30
0.0
 10
43.33515225536047
 20
0.1123067901773552
 30
0.0
 10
43.33688157468467
 20
0.1096864302192542
 30
0.0
 10
43.33868083333328
 20
0.1071037928167468
 30
0.0
 10
43.34048009198189
 20
0.1045211554142395
 30
0.0
 10
43.3423480624854
 20
0.1019789999189615
 30
0.0
 10
43.34421603298892
 20
0.0994368444236835
 30
0.0
 10
43.34615134426205
 20
0.0969378769296048
 30
0.0
 10
43.34808665553518
 20
0.094438909435526
 30
0.0
 10
43.35008779578897
 20
0.09198577350762
 30
0.0
 10
43.35208893604277
 20
0.0895326375797139
 30
0.0
 10
43.35415425641085
 20
0.087127905177396
 30
0.0
 10
43.35621957677893
 20
0.084723172775078
 30
0.0
 10
43.35834729564226
 20
0.0823693354343291
 30
0.0
 10
43.36047501450559
 20
0.0800154980935802
 30
0.0
 10
43.36266322249349
 20
0.0777149584301592
 30
0.0
 10
43.36485143048139
 20
0.0754144187667381
 30
0.0
 10
43.36709809612028
 20
0.0731694823606285
 30
0.0
 10
43.36934476175917
 20
0.0709245459545189
 30
0.0
 10
43.37164773773443
 20
0.0687374136727763
 30
0.0
 10
43.37395071370968
 20
0.0665502813910337
 30
0.0
 10
43.3763077437002
 20
0.0644230422025337
 30
0.0
 10
43.37866477369072
 20
0.0622958030140337
 30
0.0
 10
43.38107349973059
 20
0.0602304273453196
 30
0.0
 10
43.38348222577046
 20
0.0581650516766055
 30
0.0
 10
43.38594019608743
 20
0.0561633853531551
 30
0.0
 10
43.38839816640441
 20
0.0541617190297046
 30
0.0
 10
43.39090284368051
 20
0.0522254778415508
 30
0.0
 10
43.39340752095661
 20
0.0502892366533969
 30
0.0
 10
43.39595629095293
 20
0.0484200015782262
 30
0.0
 10
43.39850506094925
 20
0.0465507665030556
 30
0.0
 10
43.40109524143399
 20
0.0447499796137574
 30
0.0
 10
43.40368542191872
 20
0.0429491927244592
 30
0.0
 10
43.40631427183557
 20
0.0412181538016963
 30
0.0
 10
43.40894312175242
 20
0.0394871148789335
 30
0.0
 10
43.41160785056497
 20
0.0378269787427564
 30
0.0
 10
43.41427257937752
 20
0.0361668426065793
 30
0.0
 10
43.4169703565247
 20
0.0345786171744906
 30
0.0
 10
43.41966813367188
 20
0.0329903917424019
 30
0.0
 10
43.4223960980699
 20
0.0314749368147089
 30
0.0
 10
43.42512406246791
 20
0.029959481887016
 30
0.0
 10
43.4278793319947
 20
0.028517508653866
 30
0.0
 10
43.43063460152148
 20
0.0270755354207161
 30
0.0
 10
43.43341428242147
 20
0.0257076066789847
 30
0.0
 10
43.43619396332144
 20
0.0243396779372533
 30
0.0
 10
43.43899515947069
 20
0.0230462089995331
 30
0.0
 10
43.44179635561994
 20
0.0217527400618129
 30
0.0
 10
43.4446161775946
 20
0.0205340003342
 30
0.0
 10
43.44743599956926
 20
0.0193152606065871
 30
0.0
 10
43.45027157346344
 20
0.0181713758068486
 30
0.0
 10
43.45310714735763
 20
0.0170274910071101
 30
0.0
 10
43.45595562330114
 20
0.0159584459901989
 30
0.0
 10
43.45880409924464
 20
0.0148894009732878
 30
0.0
 10
43.46166265957479
 20
0.0138950431270874
 30
0.0
 10
43.46452121990495
 20
0.0129006852808869
 30
0.0
 10
43.46738708695176
 20
0.0119807284515566
 30
0.0
 10
43.47025295399858
 20
0.0110607716222262
 30
0.0
 10
43.47312339744721
 20
0.010214800525599
 30
0.0
 10
43.47599384089583
 20
0.0093688294289718
 30
0.0
 10
43.47886618469518
 20
0.0085963045021385
 30
0.0
 10
43.48173852849452
 20
0.0078237795753053
 30
0.0
 10
43.48461015728644
 20
0.007124042220806
 30
0.0
 10
43.48748178607836
 20
0.0064243048663067
 30
0.0
 10
43.49035015112645
 20
0.0057965830402328
 30
0.0
 10
43.49321851617454
 20
0.0051688612141588
 30
0.0
 10
43.49608114077711
 20
0.0046122753089249
 30
0.0
 10
43.49894376537969
 20
0.004055689403691
 30
0.0
 10
43.50179824975642
 20
0.0035692583762436
 30
0.0
 10
43.50465273413315
 20
0.0030828273487962
 30
0.0
 10
43.50749675977949
 20
0.0026654750455457
 30
0.0
 10
43.51034078542583
 20
0.0022481227422953
 30
0.0
 10
43.51317211893415
 20
0.0018986843730584
 30
0.0
 10
43.51600345244247
 20
0.0015492460038215
 30
0.0
 10
43.5188199487932
 20
0.0012664747184891
 30
0.0
 10
43.52163644514393
 20
0.0009837034331568
 30
0.0
 10
43.52443605047389
 20
0.0007662769566172
 30
0.0
 10
43.52723565580384
 20
0.0005488504800775
 30
0.0
 10
43.53001640966258
 20
0.0003953777630702
 30
0.0
 10
43.53279716352132
 20
0.0002419050460629
 30
0.0
 10
43.53555720063009
 20
0.0001509328920731
 30
0.0
 10
43.53831723773885
 20
0.0000599607380833
 30
0.0
 10
44.50823678926911
 20
0.0000299803690418
 30
0.0
 10
45.47815634079937
 20
0.0000000000000003
 30
0.0
 10
45.48089389232963
 20
0.0000299803690404
 30
0.0
 10
45.48363144385988
 20
0.0000599607380806
 30
0.0
 10
45.48639148096863
 20
0.0001509328920705
 30
0.0
 10
45.48915151807739
 20
0.0002419050460603
 30
0.0
 10
45.49193227193614
 20
0.0003953777630676
 30
0.0
 10
45.49471302579487
 20
0.0005488504800749
 30
0.0
 10
45.49751263112483
 20
0.0007662769566146
 30
0.0
 10
45.50031223645478
 20
0.0009837034331542
 30
0.0
 10
45.50312873280552
 20
0.0012664747184866
 30
0.0
 10
45.50594522915627
 20
0.0015492460038189
 30
0.0
 10
45.50877656266458
 20
0.0018986843730558
 30
0.0
 10
45.5116078961729
 20
0.0022481227422927
 30
0.0
 10
45.51445192181923
 20
0.0026654750455432
 30
0.0
 10
45.51729594746556
 20
0.0030828273487937
 30
0.0
 10
45.5201504318423
 20
0.0035692583762411
 30
0.0
 10
45.52300491621904
 20
0.0040556894036885
 30
0.0
 10
45.52586754082162
 20
0.0046122753089224
 30
0.0
 10
45.52873016542419
 20
0.0051688612141563
 30
0.0
 10
45.53159853047227
 20
0.0057965830402303
 30
0.0
 10
45.53446689552035
 20
0.0064243048663043
 30
0.0
 10
45.53733852431228
 20
0.0071240422208036
 30
0.0
 10
45.5402101531042
 20
0.007823779575303
 30
0.0
 10
45.54308249690355
 20
0.0085963045021362
 30
0.0
 10
45.5459548407029
 20
0.0093688294289695
 30
0.0
 10
45.54882528415152
 20
0.0102148005255967
 30
0.0
 10
45.55169572760013
 20
0.0110607716222239
 30
0.0
 10
45.55456159464696
 20
0.0119807284515543
 30
0.0
 10
45.55742746169378
 20
0.0129006852808846
 30
0.0
 10
45.56028602202394
 20
0.0138950431270851
 30
0.0
 10
45.5631445823541
 20
0.0148894009732856
 30
0.0
 10
45.56599305829761
 20
0.0159584459901968
 30
0.0
 10
45.56884153424112
 20
0.017027491007108
 30
0.0
 10
45.5716771081353
 20
0.0181713758068465
 30
0.0
 10
45.57451268202949
 20
0.019315260606585
 30
0.0
 10
45.57733250400414
 20
0.0205340003341979
 30
0.0
 10
45.58015232597879
 20
0.0217527400618108
 30
0.0
 10
45.58295352212804
 20
0.0230462089995311
 30
0.0
 10
45.58575471827729
 20
0.0243396779372513
 30
0.0
 10
45.58853439917726
 20
0.0257076066789827
 30
0.0
 10
45.59131408007723
 20
0.0270755354207141
 30
0.0
 10
45.59406934960402
 20
0.0285175086538641
 30
0.0
 10
45.59682461913081
 20
0.0299594818870141
 30
0.0
 10
45.59955258352883
 20
0.0314749368147071
 30
0.0
 10
45.60228054792685
 20
0.0329903917424
 30
0.0
 10
45.60497832507403
 20
0.0345786171744887
 30
0.0
 10
45.60767610222121
 20
0.0361668426065775
 30
0.0
 10
45.61034083103376
 20
0.0378269787427546
 30
0.0
 10
45.61300555984631
 20
0.0394871148789317
 30
0.0
 10
45.61563440976316
 20
0.0412181538016946
 30
0.0
 10
45.61826325968001
 20
0.0429491927244575
 30
0.0
 10
45.62085344016475
 20
0.0447499796137557
 30
0.0
 10
45.62344362064948
 20
0.046550766503054
 30
0.0
 10
45.62599239064579
 20
0.0484200015782247
 30
0.0
 10
45.62854116064211
 20
0.0502892366533953
 30
0.0
 10
45.63104583791821
 20
0.0522254778415492
 30
0.0
 10
45.63355051519432
 20
0.0541617190297031
 30
0.0
 10
45.63600848551129
 20
0.0561633853531535
 30
0.0
 10
45.63846645582827
 20
0.058165051676604
 30
0.0
 10
45.64087518186814
 20
0.0602304273453182
 30
0.0
 10
45.64328390790801
 20
0.0622958030140323
 30
0.0
 10
45.64564093789852
 20
0.0644230422025323
 30
0.0
 10
45.64799796788903
 20
0.0665502813910323
 30
0.0
 10
45.65030094386431
 20
0.0687374136727749
 30
0.0
 10
45.65260391983958
 20
0.0709245459545176
 30
0.0
 10
45.65485058547847
 20
0.0731694823606272
 30
0.0
 10
45.65709725111736
 20
0.0754144187667369
 30
0.0
 10
45.65928545910526
 20
0.0777149584301579
 30
0.0
 10
45.66147366709315
 20
0.080015498093579
 30
0.0
 10
45.66360138595648
 20
0.082369335434328
 30
0.0
 10
45.66572910481982
 20
0.0847231727750769
 30
0.0
 10
45.66779442518789
 20
0.0871279051773949
 30
0.0
 10
45.66985974555597
 20
0.0895326375797128
 30
0.0
 10
45.67186088580977
 20
0.0919857735076189
 30
0.0
 10
45.67386202606357
 20
0.094438909435525
 30
0.0
 10
45.6757973373367
 20
0.0969378769296038
 30
0.0
 10
45.67773264860983
 20
0.0994368444236826
 30
0.0
 10
45.67960061911334
 20
0.1019789999189606
 30
0.0
 10
45.68146858961686
 20
0.1045211554142387
 30
0.0
 10
45.68326784826547
 20
0.1071037928167461
 30
0.0
 10
45.68506710691408
 20
0.1096864302192535
 30
0.0
 10
45.68679642623827
 20
0.1123067901773545
 30
0.0
 10
45.68852574556247
 20
0.1149271501354555
 30
0.0
 10
45.69018404389723
 20
0.117582429441274
 30
0.0
 10
45.69184234223199
 20
0.1202377087470925
 30
0.0
 10
45.69342868517979
 20
0.1229250698033514
 30
0.0
 10
45.69501502812759
 20
0.1256124308596102
 30
0.0
 10
45.69652862929946
 20
0.1283290111479321
 30
0.0
 10
45.69804223047132
 20
0.131045591436254
 30
0.0
 10
45.69948245151616
 20
0.133788512924405
 30
0.0
 10
45.70092267256101
 20
0.136531434412556
 30
0.0
 10
45.70228902249949
 20
0.1392978128402141
 30
0.0
 10
45.70365537243798
 20
0.1420641912678723
 30
0.0
 10
45.70494750632267
 20
0.1448511452532183
 30
0.0
 10
45.70623964020736
 20
0.1476380992385643
 30
0.0
 10
45.70745735713609
 20
0.1504427591512656
 30
0.0
 10
45.70867507406484
 20
0.153247419063967
 30
0.0
 10
45.70981831457918
 20
0.156066935613889
 30
0.0
 10
45.71096155509353
 20
0.158886452163811
 30
0.0
 10
45.71203039799808
 20
0.1617180046589726
 30
0.0
 10
45.71309924090261
 20
0.1645495571541341
 30
0.0
 10
45.71409389954475
 20
0.1673903613859516
 30
0.0
 10
45.71508855818688
 20
0.1702311656177692
 30
0.0
 10
45.71600937623967
 20
0.1730784813364269
 30
0.0
 10
45.71693019429245
 20
0.1759257970550847
 30
0.0
 10
45.7177776410855
 20
0.1787769350028507
 30
0.0
 10
45.71862508787854
 20
0.1816280729506167
 30
0.0
 10
45.71939975332394
 20
0.1844804014260182
 30
0.0
 10
45.72017441876935
 20
0.1873327299014197
 30
0.0
 10
45.72087700793065
 20
0.1901836808323238
 30
0.0
 10
45.72157959709195
 20
0.1930346317632279
 30
0.0
 10
45.7222109244451
 20
0.195881706271972
 30
0.0
 10
45.72284225179826
 20
0.198728780780716
 30
0.0
 10
45.72340323523343
 20
0.2015695542294345
 30
0.0
 10
45.72396421866861
 20
0.204410327678153
 30
0.0
 10
45.7244558732814
 20
0.20724245418729
 30
0.0
 10
45.72494752789419
 20
0.210074580696427
 30
0.0
 10
45.7253709596139
 20
0.2128957971340585
 30
0.0
 10
45.72579439133361
 20
0.2157170135716901
 30
0.0
 10
45.726150790435
 20
0.2185251430156558
 30
0.0
 10
45.7265071895364
 20
0.2213332724596216
 30
0.0
 10
45.72679782407951
 20
0.2241262271385496
 30
0.0
 10
45.72708845862262
 20
0.2269191818174777
 30
0.0
 10
45.72731466786326
 20
0.2296949655405404
 30
0.0
 10
45.7275408771039
 20
0.2324707492636032
 30
0.0
 10
45.72770406491502
 20
0.2352274593522514
 30
0.0
 10
45.72786725272614
 20
0.2379841694408996
 30
0.0
 10
45.74442079676275
 20
0.8689920003863938
 30
0.0
 10
45.76097434079936
 20
1.499999831331888
 30
0.0
  0
SPLINE
  5
44
330
1F
100
AcDbEntity
  8
DEFAULT
100
AcDbSpline
210
0.0
220
0.0
230
1.0
 70
     8
 71
     2
 72
   386
 73
   383
 74
     0
 42
0.0000000001
 43
0.0000000001
 40
0.0
 40
0.0
 40
0.0
 40
1.0
 40
1.0
 40
2.0
 40
2.0
 40
3.0
 40
3.0
 40
4.0
 40
4.0
 40
5.0
 40
5.0
 40
6.0
 40
6.0
 40
7.0
 40
7.0
 40
8.0
 40
8.0
 40
9.0
 40
9.0
 40
10.0
 40
10.0
 40
11.0
 40
11.0
 40
12.0
 40
12.0
 40
13.0
 40
13.0
 40
14.0
 40
14.0
 40
15.0
 40
15.0
 40
16.0
 40
16.0
 40
17.0
 40
17.0
 40
18.0
 40
18.0
 40
19.0
 40
19.0
 40
20.0
 40
20.0
 40
21.0
 40
21.0
 40
22.0
 40
22.0
 40
23.0
 40
23.0
 40
24.0
 40
24.0
 40
25.0
 40
25.0
 40
26.0
 40
26.0
 40
27.0
 40
27.0
 40
28.0
 40
28.0
 40
29.0
 40
29.0
 40
30.0
 40
30.0
 40
31.0
 40
31.0
 40
32.0
 40
32.0
 40
33.0
 40
33.0
 40
34.0
 40
34.0
 40
35.0
 40
35.0
 40
36.0
 40
36.0
 40
37.0
 40
37.0
 40
38.0
 40
38.0
 40
39.0
 40
39.0
 40
40.0
 40
40.0
 40
41.0
 40
41.0
 40
42.0
 40
42.0
 40
43.0
 40
43.0
 40
44.0
 40
44.0
 40
45.0
 40
45.0
 40
46.0
 40
46.0
 40
47.0
 40
47.0
 40
48.0
 40
48.0
 40
49.0
 40
49.0
 40
50.0
 40
50.0
 40
51.0
 40
51.0
 40
52.0
 40
52.0
 40
53.0
 40
53.0
 40
54.0
 40
54.0
 40
55.0
 40
55.0
 40
56.0
 40
56.0
 40
57.0
 40
57.0
 40
58.0
 40
58.0
 40
59.0
 40
59.0
 40
60.0
 40
60.0
 40
61.0
 40
61.0
 40
62.0
 40
62.0
 40
63.0
 40
63.0
 40
64.0
 40
64.0
 40
65.0
 40
65.0
 40
66.0
 40
66.0
 40
67.0
 40
67.0
 40
68.0
 40
68.0
 40
69.0
 40
69.0
 40
70.0
 40
70.0
 40
71.0
 40
71.0
 40
72.0
 40
72.0
 40
73.0
 40
73.0
 40
74.0
 40
74.0
 40
75.0
 40
75.0
 40
76.0
 40
76.0
 40
77.0
 40
77.0
 40
78.0
 40
78.0
 40
79.0
 40
79.0
 40
80.0
 40
80.0
 40
81.0
 40
81.0
 40
82.0
 40
82.0
 40
83.0
 40
83.0
 40
84.0
 40
84.0
 40
85.0
 40
85.0
 40
86.0
 40
86.0
 40
87.0
 40
87.0
 40
88.0
 40
88.0
 40
89.0
 40
89.0
 40
90.0
 40
90.0
 40
91.0
 40
91.0
 40
92.0
 40
92.0
 40
93.0
 40
93.0
 40
94.0
 40
94.0
 40
95.0
 40
95.0
 40
96.0
 40
96.0
 40
97.0
 40
97.0
 40
98.0
 40
98.0
 40
99.0
 40
99.0
 40
100.0
 40
100.0
 40
101.0
 40
101.0
 40
102.0
 40
102.0
 40
103.0
 40
103.0
 40
104.0
 40
104.0
 40
105.0
 40
105.0
 40
106.0
 40
106.0
 40
107.0
 40
107.0
 40
108.0
 40
108.0
 40
109.0
 40
109.0
 40
110.0
 40
110.0
 40
111.0
 40
111.0
 40
112.0
 40
112.0
 40
113.0
 40
113.0
 40
114.0
 40
114.0
 40
115.0
 40
115.0
 40
116.0
 40
116.0
 40
117.0
 40
117.0
 40
118.0
 40
118.0
 40
119.0
 40
119.0
 40
120.0
 40
120.0
 40
121.0
 40
121.0
 40
122.0
 40
122.0
 40
123.0
 40
123.0
 40
124.0
 40
124.0
 40
125.0
 40
125.0
 40
126.0
 40
126.0
 40
127.0
 40
127.0
 40
128.0
 40
128.0
 40
129.0
 40
129.0
 40
130.0
 40
130.0
 40
131.0
 40
131.0
 40
132.0
 40
132.0
 40
133.0
 40
133.0
 40
134.0
 40
134.0
 40
135.0
 40
135.0
 40
136.0
 40
136.0
 40
137.0
 40
137.0
 40
138.0
 40
138.0
 40
139.0
 40
139.0
 40
140.0
 40
140.0
 40
141.0
 40
141.0
 40
142.0
 40
142.0
 40
143.0
 40
143.0
 40
144.0
 40
144.0
 40
145.0
 40
145.0
 40
146.0
 40
146.0
 40
147.0
 40
147.0
 40
148.0
 40
148.0
 40
149.0
 40
149.0
 40
150.0
 40
150.0
 40
151.0
 40
151.0
 40
152.0
 40
152.0
 40
153.0
 40
153.0
 40
154.0
 40
154.0
 40
155.0
 40
155.0
 40
156.0
 40
156.0
 40
157.0
 40
157.0
 40
158.0
 40
158.0
 40
159.0
 40
159.0
 40
160.0
 40
160.0
 40
161.0
 40
161.0
 40
162.0
 40
162.0
 40
163.0
 40
163.0
 40
164.0
 40
164.0
 40
165.0
 40
165.0
 40
166.0
 40
166.0
 40
167.0
 40
167.0
 40
168.0
 40
168.0
 40
169.0
 40
169.0
 40
170.0
 40
170.0
 40
171.0
 40
171.0
 40
172.0
 40
172.0
 40
173.0
 40
173.0
 40
174.0
 40
174.0
 40
175.0
 40
175.0
 40
176.0
 40
176.0
 40
177.0
 40
177.0
 40
178.0
 40
178.0
 40
179.0
 40
179.0
 40
180.0
 40
180.0
 40
181.0
 40
181.0
 40
182.0
 40
182.0
 40
183.0
 40
183.0
 40
184.0
 40
184.0
 40
185.0
 40
185.0
 40
186.0
 40
186.0
 40
187.0
 40
187.0
 40
188.0
 40
188.0
 40
189.0
 40
189.0
 40
190.0
 40
190.0
 40
191.0
 40
191.0
 40
191.0
 10
43.26644433979239
 20
1.290078283535823
 30
0.0
 10
43.2628823451946
 20
1.290190096163084
 30
0.0
 10
43.2593203505968
 20
1.290301908790345
 30
0.0
 10
43.25574987180146
 20
1.290487351330645
 30
0.0
 10
43.2521793930061
 20
1.290672793870946
 30
0.0
 10
43.24860267328941
 20
1.29093244037003
 30
0.0
 10
43.24502595357273
 20
1.291192086869114
 30
0.0
 10
43.24144527167701
 20
1.291526421532087
 30
0.0
 10
43.2378645897813
 20
1.291860756195059
 30
0.0
 10
43.2342822554684
 20
1.292270171008418
 30
0.0
 10
43.23069992115551
 20
1.292679585821777
 30
0.0
 10
43.22711827058284
 20
1.293164378437202
 30
0.0
 10
43.22353662001016
 20
1.293649171052627
 30
0.0
 10
43.21995801094703
 20
1.294209542947287
 30
0.0
 10
43.21637940188391
 20
1.294769914841946
 30
0.0
 10
43.21280620878758
 20
1.29540596976867
 30
0.0
 10
43.20923301569127
 20
1.296042024695394
 30
0.0
 10
43.20566762466301
 20
1.296753767434552
 30
0.0
 10
43.20210223363475
 20
1.29746551017371
 30
0.0
 10
43.19854703727747
 20
1.298252845596981
 30
0.0
 10
43.19499184092019
 20
1.299040181020251
 30
0.0
 10
43.19144923312027
 20
1.299902913474698
 30
0.0
 10
43.18790662532034
 20
1.300765645929146
 30
0.0
 10
43.18437899597681
 20
1.301703478948171
 30
0.0
 10
43.18085136663328
 20
1.302641311967197
 30
0.0
 10
43.17734109635843
 20
1.303653848312982
 30
0.0
 10
43.17383082608357
 20
1.304666384658768
 30
0.0
 10
43.17034028089905
 20
1.305753126698837
 30
0.0
 10
43.16684973571454
 20
1.306839868738907
 30
0.0
 10
43.16338126176784
 20
1.308000219157381
 30
0.0
 10
43.15991278782114
 20
1.309160569575856
 30
0.0
 10
43.15646870614681
 20
1.310393832417916
 30
0.0
 10
43.15302462447247
 20
1.311627095259976
 30
0.0
 10
43.14960722582275
 20
1.312932477305971
 30
0.0
 10
43.14618982717303
 20
1.314237859351965
 30
0.0
 10
43.14280136694195
 20
1.315614471815564
 30
0.0
 10
43.13941290671087
 20
1.316991084279162
 30
0.0
 10
43.13605559997531
 20
1.318437944821922
 30
0.0
 10
43.13269829323976
 20
1.319884805364683
 30
0.0
 10
43.12937430994064
 20
1.321400840417464
 30
0.0
 10
43.12605032664153
 20
1.322916875470244
 30
0.0
 10
43.12276178692678
 20
1.324500922850011
 30
0.0
 10
43.11947324721203
 20
1.326084970229777
 30
0.0
 10
43.11622221696239
 20
1.327735782038566
 30
0.0
 10
43.11297118671276
 20
1.329386593847356
 30
0.0
 10
43.10975967327016
 20
1.331102839638505
 30
0.0
 10
43.10654815982758
 20
1.332819085429653
 30
0.0
 10
43.10337810794422
 20
1.334599355624851
 30
0.0
 10
43.10020805606086
 20
1.336379625820049
 30
0.0
 10
43.09708134408578
 20
1.338222435359397
 30
0.0
 10
43.09395463211071
 20
1.340065244898744
 30
0.0
 10
43.09087306842916
 20
1.341969037104733
 30
0.0
 10
43.08779150474761
 20
1.343872829310723
 30
0.0
 10
43.08475682448639
 20
1.345835979946013
 30
0.0
 10
43.08172214422517
 20
1.347799130581304
 30
0.0
 10
43.07873600623569
 20
1.349819952079241
 30
0.0
 10
43.07574986824621
 20
1.351840773577178
 30
0.0
 10
43.07281385237504
 20
1.353917519423306
 30
0.0
 10
43.06987783650388
 20
1.355994265269433
 30
0.0
 10
43.06699344115847
 20
1.358125134511687
 30
0.0
 10
43.06410904581305
 20
1.360256003753942
 30
0.0
 10
43.06127768582864
 20
1.362439145618885
 30
0.0
 10
43.05844632584422
 20
1.364622287483828
 30
0.0
 10
43.05566933065582
 20
1.366855806076087
 30
0.0
 10
43.05289233546743
 20
1.369089324668346
 30
0.0
 10
43.05261555908699
 20
1.369320851453029
 30
0.0
 10
43.05233878270654
 20
1.369552378237712
 30
0.0
 10
43.05206472315705
 20
1.369790191063502
 30
0.0
 10
43.05179066360756
 20
1.370028003889292
 30
0.0
 10
43.05151951473918
 20
1.370272077724795
 30
0.0
 10
43.05124836587081
 20
1.370516151560299
 30
0.0
 10
43.05098032258884
 20
1.370766453991337
 30
0.0
 10
43.05071227930686
 20
1.371016756422375
 30
0.0
 10
43.05044753724362
 20
1.371273247512102
 30
0.0
 10
43.05018279518038
 20
1.37152973860183
 30
0.0
 10
43.0499215503548
 20
1.371792370767122
 30
0.0
 10
43.04966030552922
 20
1.372055002932415
 30
0.0
 10
43.04940275399473
 20
1.372323720837597
 30
0.0
 10
43.04914520246024
 20
1.372592438742779
 30
0.0
 10
43.04889153994186
 20
1.37286717921173
 30
0.0
 10
43.0486378774235
 20
1.373141919680681
 30
0.0
 10
43.04838829894551
 20
1.373422611628294
 30
0.0
 10
43.04813872046753
 20
1.373703303575908
 30
0.0
 10
43.0478934199725
 20
1.373989867959827
 30
0.0
 10
43.04764811947747
 20
1.374276432343746
 30
0.0
 10
43.04740728943808
 20
1.374568782137207
 30
0.0
 10
43.0471664593987
 20
1.374861131930669
 30
0.0
 10
43.04693029042362
 20
1.375159172117229
 30
0.0
 10
43.04669412144855
 20
1.37545721230379
 30
0.0
 10
43.04646280188383
 20
1.375760839894601
 30
0.0
 10
43.04623148231911
 20
1.376064467485411
 30
0.0
 10
43.0460051978463
 20
1.376373571559617
 30
0.0
 10
43.04577891337348
 20
1.376682675633823
 30
0.0
 10
43.04555784660639
 20
1.376997137402561
 30
0.0
 10
43.0453367798393
 20
1.377311599171299
 30
0.0
 10
43.04512110992061
 20
1.37763129206565
 30
0.0
 10
43.04490544000191
 20
1.377950984960002
 30
0.0
 10
43.04469534220151
 20
1.378275774743144
 30
0.0
 10
43.04448524440112
 20
1.378600564526285
 30
0.0
 10
43.04428088971766
 20
1.378930309429946
 30
0.0
 10
43.04407653503421
 20
1.379260054333607
 30
0.0
 10
43.0438780898017
 20
1.379594605218839
 30
0.0
 10
43.0436796445692
 20
1.379929156104072
 30
0.0
 10
43.04348727007025
 20
1.38026835664617
 30
0.0
 10
43.04329489557131
 20
1.380607557188269
 30
0.0
 10
43.04310874765874
 20
1.380951244085578
 30
0.0
 10
43.04292259974616
 20
1.381294930982886
 30
0.0
 10
43.04274282847471
 20
1.381642934189072
 30
0.0
 10
43.04256305720325
 20
1.381990937395258
 30
0.0
 10
43.04238980647307
 20
1.38234308037451
 30
0.0
 10
43.04221655574288
 20
1.382695223353763
 30
0.0
 10
43.04204996295633
 20
1.383051323358218
 30
0.0
 10
43.04188337016976
 20
1.383407423362673
 30
0.0
 10
43.04172356590331
 20
1.383767291731268
 30
0.0
 10
43.04156376163686
 20
1.384127160099864
 30
0.0
 10
43.04141086932943
 20
1.384490602577654
 30
0.0
 10
43.04125797702199
 20
1.384854045055445
 30
0.0
 10
43.04111211268139
 20
1.385220862132325
 30
0.0
 10
43.04096624834079
 20
1.385587679209205
 30
0.0
 10
43.04082752026941
 20
1.38595766647683
 30
0.0
 10
43.04068879219803
 20
1.386327653744454
 30
0.0
 10
43.04055730073942
 20
1.386700602270065
 30
0.0
 10
43.0404258092808
 20
1.387073550795675
 30
0.0
 10
43.04030164658796
 20
1.387449247511415
 30
0.0
 10
43.04017748389511
 20
1.387824944227155
 30
0.0
 10
43.04006073372186
 20
1.388203172333369
 30
0.0
 10
43.03994398354862
 20
1.388581400439583
 30
0.0
 10
43.03983472106496
 20
1.388961939820506
 30
0.0
 10
43.03972545858129
 20
1.389342479201429
 30
0.0
 10
43.03962375021344
 20
1.389725106851603
 30
0.0
 10
43.03952204184557
 20
1.390107734501776
 30
0.0
 10
43.03942794514159
 20
1.390492224961452
 30
0.0
 10
43.03933384843761
 20
1.390876715421128
 30
0.0
 10
43.03924741195908
 20
1.391262841218883
 30
0.0
 10
43.03916097548055
 20
1.391648967016639
 30
0.0
 10
43.03908223872075
 20
1.392036499117373
 30
0.0
 10
43.03900350196095
 20
1.392424031218108
 30
0.0
 10
43.03893249528981
 20
1.392812739474576
 30
0.0
 10
43.03886148861868
 20
1.393201447731043
 30
0.0
 10
43.03879823325467
 20
1.393591101337052
 30
0.0
 10
43.03873497789066
 20
1.393980754943061
 30
0.0
 10
43.03867948589954
 20
1.394371122886486
 30
0.0
 10
43.03862399390842
 20
1.394761490829911
 30
0.0
 10
43.03857626822878
 20
1.395152342343654
 30
0.0
 10
43.03852854254914
 20
1.395543193857398
 30
0.0
 10
43.03848857704434
 20
1.395934298866483
 30
0.0
 10
43.03844861153954
 20
1.396325403875568
 30
0.0
 10
43.03841639107567
 20
1.396716533438572
 30
0.0
 10
43.03838417061179
 20
1.397107663001577
 30
0.0
 10
43.03835967116103
 20
1.397498589744673
 30
0.0
 10
43.03833517171027
 20
1.397889516487768
 30
0.0
 10
43.03831836047894
 20
1.398280015029683
 30
0.0
 10
43.03830154924761
 20
1.398670513571599
 30
0.0
 10
43.03829238482812
 20
1.399060360937912
 30
0.0
 10
43.03828322040862
 20
1.399450208304225
 30
0.0
 10
43.0382816529543
 20
1.399839184329449
 30
0.0
 10
43.03828008549996
 20
1.400228160354673
 30
0.0
 10
43.03828605692171
 20
1.400616048070724
 30
0.0
 10
43.03829202834346
 20
1.401003935786775
 30
0.0
 10
43.03830547252723
 20
1.401390521796466
 30
0.0
 10
43.03831891671099
 20
1.401777107806157
 30
0.0
 10
43.03833975975459
 20
1.40216218264052
 30
0.0
 10
43.03836060279818
 20
1.402547257474883
 30
0.0
 10
43.03838876326625
 20
1.402930615933181
 30
0.0
 10
43.03841692373432
 20
1.40331397439148
 30
0.0
 10
43.03845231293016
 20
1.403695415862932
 30
0.0
 10
43.038487702126
 20
1.404076857334384
 30
0.0
 10
43.03853022437854
 20
1.404456186100714
 30
0.0
 10
43.03857274663108
 20
1.404835514867043
 30
0.0
 10
43.03862229959585
 20
1.405212540385107
 30
0.0
 10
43.03867185256062
 20
1.405589565903172
 30
0.0
 10
43.03872832753287
 20
1.40596410306704
 30
0.0
 10
43.03878480250513
 20
1.406338640230908
 30
0.0
 10
43.03884808474386
 20
1.406710509612885
 30
0.0
 10
43.0389113669826
 20
1.407082378994862
 30
0.0
 10
43.03898133604375
 20
1.407451407065082
 30
0.0
 10
43.0390513051049
 20
1.407820435135301
 30
0.0
 10
43.03912783518214
 20
1.408186454459631
 30
0.0
 10
43.03920436525939
 20
1.408552473783961
 30
0.0
 10
43.03928732553124
 20
1.408915323200084
 30
0.0
 10
43.03937028580309
 20
1.409278172616207
 30
0.0
 10
43.03945954078448
 20
1.409637697387859
 30
0.0
 10
43.03954879576587
 20
1.40999722215951
 30
0.0
 10
43.03964420566289
 20
1.410353274108966
 30
0.0
 10
43.0397396155599
 20
1.410709326058423
 30
0.0
 10
43.03984103662627
 20
1.411061763677435
 30
0.0
 10
43.03994245769265
 20
1.411414201296447
 30
0.0
 10
43.04004974258642
 20
1.411762889835925
 30
0.0
 10
43.0401570274802
 20
1.412111578375403
 30
0.0
 10
43.04027002561939
 20
1.412456389914241
 30
0.0
 10
43.04038302375859
 20
1.412801201453079
 30
0.0
 10
43.04050158167449
 20
1.413142014946613
 30
0.0
 10
43.04062013959039
 20
1.413482828440148
 30
0.0
 10
43.04074482703283
 20
1.413821447486413
 30
0.0
 10
43.04086951447528
 20
1.414160066532678
 30
0.0
 10
43.04100103585581
 20
1.414498246519136
 30
0.0
 10
43.04113255723634
 20
1.414836426505595
 30
0.0
 10
43.04127095432794
 20
1.415173976488602
 30
0.0
 10
43.04140935141955
 20
1.415511526471609
 30
0.0
 10
43.04155465940012
 20
1.415848252025709
 30
0.0
 10
43.04169996738069
 20
1.416184977579809
 30
0.0
 10
43.04185221459069
 20
1.416520681059398
 30
0.0
 10
43.04200446180069
 20
1.416856384538986
 30
0.0
 10
43.04216366951209
 20
1.417190865357219
 30
0.0
 10
43.04232287722348
 20
1.417525346175452
 30
0.0
 10
43.04248905942096
 20
1.417858401099947
 30
0.0
 10
43.04265524161843
 20
1.418191456024442
 30
0.0
 10
43.04282840479434
 20
1.418522879489232
 30
0.0
 10
43.04300156797026
 20
1.418854302954023
 30
0.0
 10
43.0431817109346
 20
1.419183887387096
 30
0.0
 10
43.04336185389894
 20
1.419513471820169
 30
0.0
 10
43.0435489676055
 20
1.419841007985825
 30
0.0
 10
43.04373608131205
 20
1.420168544151482
 30
0.0
 10
43.04393014870196
 20
1.420493821506645
 30
0.0
 10
43.04412421609187
 20
1.420819098861808
 30
0.0
 10
43.04432521195588
 20
1.421141905925298
 30
0.0
 10
43.04452620781989
 20
1.421464712988789
 30
0.0
 10
43.04473409868018
 20
1.421784837722496
 30
0.0
 10
43.04494198954048
 20
1.422104962456203
 30
0.0
 10
43.04515673355334
 20
1.422422192656954
 30
0.0
 10
43.04537147756619
 20
1.422739422857705
 30
0.0
 10
43.04559302444626
 20
1.423053546558576
 30
0.0
 10
43.04581457132632
 20
1.423367670259447
 30
0.0
 10
43.04604286229345
 20
1.423678476139138
 30
0.0
 10
43.04627115326058
 20
1.423989282018829
 30
0.0
 10
43.04650612101008
 20
1.424296559817659
 30
0.0
 10
43.0467410887596
 20
1.424603837616489
 30
0.0
 10
43.04698265745641
 20
1.424907378557488
 30
0.0
 10
43.04722422615322
 20
1.425210919498487
 30
0.0
 10
43.04747231145059
 20
1.425510516711993
 30
0.0
 10
43.04772039674796
 20
1.425810113925499
 30
0.0
 10
43.04797490583127
 20
1.426105562875612
 30
0.0
 10
43.04822941491457
 20
1.426401011825724
 30
0.0
 10
43.04849024657032
 20
1.426692110736916
 30
0.0
 10
43.04875107822607
 20
1.426983209648108
 30
0.0
 10
43.04901812293647
 20
1.427269759930256
 30
0.0
 10
43.04928516764686
 20
1.427556310212405
 30
0.0
 10
43.04955830770993
 20
1.427838116882488
 30
0.0
 10
43.04983144777299
 20
1.428119923552571
 30
0.0
 10
43.05011055744799
 20
1.428396795651242
 30
0.0
 10
43.05038966712299
 20
1.428673667749912
 30
0.0
 10
43.05067461280133
 20
1.428945418751181
 30
0.0
 10
43.05095955847967
 20
1.42921716975245
 30
0.0
 10
43.05125019888037
 20
1.429483617964701
 30
0.0
 10
43.05154083928107
 20
1.429750066176953
 30
0.0
 10
43.05183702567077
 20
1.430011035133546
 30
0.0
 10
43.05213321206048
 20
1.430272004090139
 30
0.0
 10
43.05243478849702
 20
1.430527322927889
 30
0.0
 10
43.05273636493357
 20
1.430782641765639
 30
0.0
 10
43.05304316853251
 20
1.431032145589505
 30
0.0
 10
43.05334997213144
 20
1.43128164941337
 30
0.0
 10
43.05366183335448
 20
1.431525179645756
 30
0.0
 10
43.05397369457751
 20
1.431768709878141
 30
0.0
 10
43.05429043754185
 20
1.432006114591265
 30
0.0
 10
43.0546071805062
 20
1.432243519304389
 30
0.0
 10
43.05492862331378
 20
1.432474653534288
 30
0.0
 10
43.05525006612135
 20
1.432705787764187
 30
0.0
 10
43.05557602120624
 20
1.432930513804984
 30
0.0
 10
43.05590197629112
 20
1.433155239845781
 30
0.0
 10
43.05623225078423
 20
1.433373427522978
 30
0.0
 10
43.05656252527734
 20
1.433591615200176
 30
0.0
 10
43.05689692138667
 20
1.433803142121826
 30
0.0
 10
43.057231317496
 20
1.434014669043477
 30
0.0
 10
43.05756963290074
 20
1.434219420828226
 30
0.0
 10
43.05790794830548
 20
1.434424172612974
 30
0.0
 10
43.05824997656265
 20
1.434622043094071
 30
0.0
 10
43.05859200481981
 20
1.434819913575167
 30
0.0
 10
43.05893753578141
 20
1.435010804979707
 30
0.0
 10
43.05928306674301
 20
1.435201696384246
 30
0.0
 10
43.05963188698214
 20
1.435385519487012
 30
0.0
 10
43.05998070722126
 20
1.435569342589777
 30
0.0
 10
43.06033260046527
 20
1.435746016841219
 30
0.0
 10
43.06068449370927
 20
1.435922691092661
 30
0.0
 10
43.06103924127819
 20
1.436092144720678
 30
0.0
 10
43.06139398884711
 20
1.436261598348695
 30
0.0
 10
43.06175137009559
 20
1.436423768434039
 30
0.0
 10
43.06210875134406
 20
1.436585938519382
 30
0.0
 10
43.0624685441048
 20
1.43674077104464
 30
0.0
 10
43.06282833686554
 20
1.436895603569897
 30
0.0
 10
43.06319031789253
 20
1.437043053442168
 30
0.0
 10
43.06355229891953
 20
1.437190503314438
 30
0.0
 10
43.06391624432936
 20
1.437330534361937
 30
0.0
 10
43.06428018973921
 20
1.437470565409435
 30
0.0
 10
43.06464587544853
 20
1.437603150352413
 30
0.0
 10
43.06501156115785
 20
1.437735735295391
 30
0.0
 10
43.06537876331542
 20
1.437860855691888
 30
0.0
 10
43.06574596547298
 20
1.437985976088385
 30
0.0
 10
43.06611446088455
 20
1.438103622255442
 30
0.0
 10
43.06648295629611
 20
1.438221268422498
 30
0.0
 10
43.0668525228407
 20
1.4383314393336
 30
0.0
 10
43.06722208938528
 20
1.438441610244703
 30
0.0
 10
43.06759250642122
 20
1.438544313404313
 30
0.0
 10
43.06796292345715
 20
1.438647016563922
 30
0.0
 10
43.06833397221664
 20
1.438742267860071
 30
0.0
 10
43.06870502097612
 20
1.438837519156221
 30
0.0
 10
43.06907648494671
 20
1.438925342692229
 30
0.0
 10
43.06944794891729
 20
1.439013166228238
 30
0.0
 10
43.06981961420953
 20
1.439093594134694
 30
0.0
 10
43.07019127950176
 20
1.439174022041149
 30
0.0
 10
43.07056293520139
 20
1.439247094269374
 30
0.0
 10
43.07093459090103
 20
1.439320166497598
 30
0.0
 10
43.07130602940519
 20
1.439385930595876
 30
0.0
 10
43.07167746790935
 20
1.439451694694155
 30
0.0
 10
43.07204848524555
 20
1.439510205568057
 30
0.0
 10
43.07241950258175
 20
1.439568716441959
 30
0.0
 10
43.07278989870916
 20
1.439620036100121
 30
0.0
 10
43.07316029483656
 20
1.439671355758283
 30
0.0
 10
43.07352987392868
 20
1.439715553045063
 30
0.0
 10
43.07389945302079
 20
1.439759750331843
 30
0.0
 10
43.07426802372924
 20
1.439796900648256
 30
0.0
 10
43.07463659443768
 20
1.43983405096467
 30
0.0
 10
43.07500397013648
 20
1.439864235979051
 30
0.0
 10
43.07537134583527
 20
1.439894420993432
 30
0.0
 10
43.07573734484544
 20
1.439917728343244
 30
0.0
 10
43.07610334385559
 20
1.439941035693056
 30
0.0
 10
43.07646778964981
 20
1.439957558679277
 30
0.0
 10
43.07683223544404
 20
1.439974081665499
 30
0.0
 10
43.07719495683131
 20
1.439983918940992
 30
0.0
 10
43.07755767821858
 20
1.439993756216485
 30
0.0
 10
43.10291330906216
 20
1.440002213531498
 30
0.0
 10
43.12826893990574
 20
1.440010670846511
 30
0.0
 10
43.12859105550613
 20
1.440026180056817
 30
0.0
 10
43.12891317110652
 20
1.440041689267124
 30
0.0
 10
43.12923711934477
 20
1.440067819291814
 30
0.0
 10
43.12956106758301
 20
1.440093949316505
 30
0.0
 10
43.12988634364125
 20
1.440130897979365
 30
0.0
 10
43.13021161969949
 20
1.440167846642225
 30
0.0
 10
43.13053769939086
 20
1.44021578084628
 30
0.0
 10
43.13086377908223
 20
1.440263715050336
 30
0.0
 10
43.13119012114654
 20
1.440322768726976
 30
0.0
 10
43.13151646321084
 20
1.440381822403616
 30
0.0
 10
43.13184251185132
 20
1.440452094660327
 30
0.0
 10
43.1321685604918
 20
1.440522366917037
 30
0.0
 10
43.1324937481338
 20
1.44060392041534
 30
0.0
 10
43.13281893577579
 20
1.440685473913642
 30
0.0
 10
43.13314268602308
 20
1.440778333506686
 30
0.0
 10
43.13346643627038
 20
1.440871193099729
 30
0.0
 10
43.13378816703091
 20
1.44097534475615
 30
0.0
 10
43.13410989779143
 20
1.44107949641257
 30
0.0
 10
43.13442902453994
 20
1.441194886449677
 30
0.0
 10
43.13474815128845
 20
1.441310276486784
 30
0.0
 10
43.13506409043048
 20
1.441436811131941
 30
0.0
 10
43.1353800295725
 20
1.441563345777098
 30
0.0
 10
43.13569220187097
 20
1.441700891071415
 30
0.0
 10
43.13600437416944
 20
1.441838436365732
 30
0.0
 10
43.13631220819308
 20
1.441986818418965
 30
0.0
 10
43.13662004221673
 20
1.442135200472199
 30
0.0
 10
43.13692297776853
 20
1.442294206072205
 30
0.0
 10
43.13722591332033
 20
1.442453211672212
 30
0.0
 10
43.13752340480328
 20
1.442622589246551
 30
0.0
 10
43.13782089628621
 20
1.44279196682089
 30
0.0
 10
43.13811241596443
 20
1.442971427742345
 30
0.0
 10
43.13840393564264
 20
1.4431508886638
 30
0.0
 10
43.13868897675709
 20
1.443340108885888
 30
0.0
 10
43.13897401787155
 20
1.443529329107977
 30
0.0
 10
43.13925209757187
 20
1.443727951111047
 30
0.0
 10
43.13953017727219
 20
1.443926573114118
 30
0.0
 10
43.13980083932893
 20
1.444134208137549
 30
0.0
 10
43.14007150138568
 20
1.444341843160981
 30
0.0
 10
43.14033431865137
 20
1.444558073692471
 30
0.0
 10
43.14059713591706
 20
1.444774304223961
 30
0.0
 10
43.14085171250849
 20
1.444998686712966
 30
0.0
 10
43.14110628909992
 20
1.445223069201972
 30
0.0
 10
43.14135226227921
 20
1.445455136961205
 30
0.0
 10
43.14159823545849
 20
1.445687204720437
 30
0.0
 10
43.14183527719562
 20
1.445926470976953
 30
0.0
 10
43.14207231893275
 20
1.446165737233469
 30
0.0
 10
43.14230013713784
 20
1.446411698289366
 30
0.0
 10
43.14252795534294
 20
1.446657659345263
 30
0.0
 10
43.14274629476209
 20
1.446909797807351
 30
0.0
 10
43.14296463418125
 20
1.447161936269439
 30
0.0
 10
43.1431732769552
 20
1.447419724307442
 30
0.0
 10
43.14338191972914
 20
1.447677512345446
 30
0.0
 10
43.14358068561954
 20
1.447940414939306
 30
0.0
 10
43.14377945150994
 20
1.448203317533165
 30
0.0
 10
43.14396819780295
 20
1.448470795671755
 30
0.0
 10
43.14415694409595
 20
1.448738273810345
 30
0.0
 10
43.14433556519725
 20
1.449009787606355
 30
0.0
 10
43.14451418629857
 20
1.449281301402366
 30
0.0
 10
43.14468261303838
 20
1.449556313091092
 30
0.0
 10
43.14485103977819
 20
1.449831324779818
 30
0.0
 10
43.15860727143201
 20
1.474915827970191
 30
0.0
 10
43.17236350308583
 20
1.500000331160564
 30
0.0
  0
SPLINE
  5
45
330
1F
100
AcDbEntity
  8
DEFAULT
100
AcDbSpline
210
0.0
220
0.0
230
1.0
 70
    11
 71
     2
 72
    12
 73
     9
 74
     0
 42
0.0000000001
 43
0.0000000001
 40
0.0
 40
0.0
 40
0.0
 40
1.0
 40
1.0
 40
2.0
 40
2.0
 40
3.0
 40
3.0
 40
4.0
 40
4.0
 40
4.0
 10
-22.72514117581147
 20
0.4174999999999969
 30
0.0
 10
-0.0000089978291271
 20
0.4174999999999969
 30
0.0
 10
22.72512318015322
 20
0.4174999999999969
 30
0.0
 10
22.72512318015322
 20
0.9571674999999954
 30
0.0
 10
22.72512318015322
 20
1.496834999999994
 30
0.0
 10
-0.0000089978291271
 20
1.496834999999994
 30
0.0
 10
-22.72514117581147
 20
1.496834999999994
 30
0.0
 10
-22.72514117581147
 20
0.9571674999999954
 30
0.0
 10
-22.72514117581147
 20
0.4174999999999969
 30
0.0
  0
SPLINE
  5
46
330
1F
100
AcDbEntity
  8
DEFAULT
100
AcDbSpline
210
0.0
220
0.0
230
1.0
 70
    11
 71
     2
 72
   516
 73
   513
 74
     0
 42
0.0000000001
 43
0.0000000001
 40
0.0
 40
0.0
 40
0.0
 40
1.0
 40
1.0
 40
2.0
 40
2.0
 40
3.0
 40
3.0
 40
4.0
 40
4.0
 40
5.0
 40
5.0
 40
6.0
 40
6.0
 40
7.0
 40
7.0
 40
8.0
 40
8.0
 40
9.0
 40
9.0
 40
10.0
 40
10.0
 40
11.0
 40
11.0
 40
12.0
 40
12.0
 40
13.0
 40
13.0
 40
14.0
 40
14.0
 40
15.0
 40
15.0
 40
16.0
 40
16.0
 40
17.0
 40
17.0
 40
18.0
 40
18.0
 40
19.0
 40
19.0
 40
20.0
 40
20.0
 40
21.0
 40
21.0
 40
22.0
 40
22.0
 40
23.0
 40
23.0
 40
24.0
 40
24.0
 40
25.0
 40
25.0
 40
26.0
 40
26.0
 40
27.0
 40
27.0
 40
28.0
 40
28.0
 40
29.0
 40
29.0
 40
30.0
 40
30.0
 40
31.0
 40
31.0
 40
32.0
 40
32.0
 40
33.0
 40
33.0
 40
34.0
 40
34.0
 40
35.0
 40
35.0
 40
36.0
 40
36.0
 40
37.0
 40
37.0
 40
38.0
 40
38.0
 40
39.0
 40
39.0
 40
40.0
 40
40.0
 40
41.0
 40
41.0
 40
42.0
 40
42.0
 40
43.0
 40
43.0
 40
44.0
 40
44.0
 40
45.0
 40
45.0
 40
46.0
 40
46.0
 40
47.0
 40
47.0
 40
48.0
 40
48.0
 40
49.0
 40
49.0
 40
50.0
 40
50.0
 40
51.0
 40
51.0
 40
52.0
 40
52.0
 40
53.0
 40
53.0
 40
54.0
 40
54.0
 40
55.0
 40
55.0
 40
56.0
 40
56.0
 40
57.0
 40
57.0
 40
58.0
 40
58.0
 40
59.0
 40
59.0
 40
60.0
 40
60.0
 40
61.0
 40
61.0
 40
62.0
 40
62.0
 40
63.0
 40
63.0
 40
64.0
 40
64.0
 40
65.0
 40
65.0
 40
66.0
 40
66.0
 40
67.0
 40
67.0
 40
68.0
 40
68.0
 40
69.0
 40
69.0
 40
70.0
 40
70.0
 40
71.0
 40
71.0
 40
72.0
 40
72.0
 40
73.0
 40
73.0
 40
74.0
 40
74.0
 40
75.0
 40
75.0
 40
76.0
 40
76.0
 40
77.0
 40
77.0
 40
78.0
 40
78.0
 40
79.0
 40
79.0
 40
80.0
 40
80.0
 40
81.0
 40
81.0
 40
82.0
 40
82.0
 40
83.0
 40
83.0
 40
84.0
 40
84.0
 40
85.0
 40
85.0
 40
86.0
 40
86.0
 40
87.0
 40
87.0
 40
88.0
 40
88.0
 40
89.0
 40
89.0
 40
90.0
 40
90.0
 40
91.0
 40
91.0
 40
92.0
 40
92.0
 40
93.0
 40
93.0
 40
94.0
 40
94.0
 40
95.0
 40
95.0
 40
96.0
 40
96.0
 40
97.0
 40
97.0
 40
98.0
 40
98.0
 40
99.0
 40
99.0
 40
100.0
 40
100.0
 40
101.0
 40
101.0
 40
102.0
 40
102.0
 40
103.0
 40
103.0
 40
104.0
 40
104.0
 40
105.0
 40
105.0
 40
106.0
 40
106.0
 40
107.0
 40
107.0
 40
108.0
 40
108.0
 40
109.0
 40
109.0
 40
110.0
 40
110.0
 40
111.0
 40
111.0
 40
112.0
 40
112.0
 40
113.0
 40
113.0
 40
114.0
 40
114.0
 40
115.0
 40
115.0
 40
116.0
 40
116.0
 40
117.0
 40
117.0
 40
118.0
 40
118.0
 40
119.0
 40
119.0
 40
120.0
 40
120.0
 40
121.0
 40
121.0
 40
122.0
 40
122.0
 40
123.0
 40
123.0
 40
124.0
 40
124.0
 40
125.0
 40
125.0
 40
126.0
 40
126.0
 40
127.0
 40
127.0
 40
128.0
 40
128.0
 40
129.0
 40
129.0
 40
130.0
 40
130.0
 40
131.0
 40
131.0
 40
132.0
 40
132.0
 40
133.0
 40
133.0
 40
134.0
 40
134.0
 40
135.0
 40
135.0
 40
136.0
 40
136.0
 40
137.0
 40
137.0
 40
138.0
 40
138.0
 40
139.0
 40
139.0
 40
140.0
 40
140.0
 40
141.0
 40
141.0
 40
142.0
 40
142.0
 40
143.0
 40
143.0
 40
144.0
 40
144.0
 40
145.0
 40
145.0
 40
146.0
 40
146.0
 40
147.0
 40
147.0
 40
148.0
 40
148.0
 40
149.0
 40
149.0
 40
150.0
 40
150.0
 40
151.0
 40
151.0
 40
152.0
 40
152.0
 40
153.0
 40
153.0
 40
154.0
 40
154.0
 40
155.0
 40
155.0
 40
156.0
 40
156.0
 40
157.0
 40
157.0
 40
158.0
 40
158.0
 40
159.0
 40
159.0
 40
160.0
 40
160.0
 40
161.0
 40
161.0
 40
162.0
 40
162.0
 40
163.0
 40
163.0
 40
164.0
 40
164.0
 40
165.0
 40
165.0
 40
166.0
 40
166.0
 40
167.0
 40
167.0
 40
168.0
 40
168.0
 40
169.0
 40
169.0
 40
170.0
 40
170.0
 40
171.0
 40
171.0
 40
172.0
 40
172.0
 40
173.0
 40
173.0
 40
174.0
 40
174.0
 40
175.0
 40
175.0
 40
176.0
 40
176.0
 40
177.0
 40
177.0
 40
178.0
 40
178.0
 40
179.0
 40
179.0
 40
180.0
 40
180.0
 40
181.0
 40
181.0
 40
182.0
 40
182.0
 40
183.0
 40
183.0
 40
184.0
 40
184.0
 40
185.0
 40
185.0
 40
186.0
 40
186.0
 40
187.0
 40
187.0
 40
188.0
 40
188.0
 40
189.0
 40
189.0
 40
190.0
 40
190.0
 40
191.0
 40
191.0
 40
192.0
 40
192.0
 40
193.0
 40
193.0
 40
194.0
 40
194.0
 40
195.0
 40
195.0
 40
196.0
 40
196.0
 40
197.0
 40
197.0
 40
198.0
 40
198.0
 40
199.0
 40
199.0
 40
200.0
 40
200.0
 40
201.0
 40
201.0
 40
202.0
 40
202.0
 40
203.0
 40
203.0
 40
204.0
 40
204.0
 40
205.0
 40
205.0
 40
206.0
 40
206.0
 40
207.0
 40
207.0
 40
208.0
 40
208.0
 40
209.0
 40
209.0
 40
210.0
 40
210.0
 40
211.0
 40
211.0
 40
212.0
 40
212.0
 40
213.0
 40
213.0
 40
214.0
 40
214.0
 40
215.0
 40
215.0
 40
216.0
 40
216.0
 40
217.0
 40
217.0
 40
218.0
 40
218.0
 40
219.0
 40
219.0
 40
220.0
 40
220.0
 40
221.0
 40
221.0
 40
222.0
 40
222.0
 40
223.0
 40
223.0
 40
224.0
 40
224.0
 40
225.0
 40
225.0
 40
226.0
 40
226.0
 40
227.0
 40
227.0
 40
228.0
 40
228.0
 40
229.0
 40
229.0
 40
230.0
 40
230.0
 40
231.0
 40
231.0
 40
232.0
 40
232.0
 40
233.0
 40
233.0
 40
234.0
 40
234.0
 40
235.0
 40
235.0
 40
236.0
 40
236.0
 40
237.0
 40
237.0
 40
238.0
 40
238.0
 40
239.0
 40
239.0
 40
240.0
 40
240.0
 40
241.0
 40
241.0
 40
242.0
 40
242.0
 40
243.0
 40
243.0
 40
244.0
 40
244.0
 40
245.0
 40
245.0
 40
246.0
 40
246.0
 40
247.0
 40
247.0
 40
248.0
 40
248.0
 40
249.0
 40
249.0
 40
250.0
 40
250.0
 40
251.0
 40
251.0
 40
252.0
 40
252.0
 40
253.0
 40
253.0
 40
254.0
 40
254.0
 40
255.0
 40
255.0
 40
256.0
 40
256.0
 40
256.0
 10
29.00012318015322
 20
27.625
 30
0.0
 10
29.0
 20
15.0514020281192
 30
0.0
 10
28.99987681984679
 20
2.477804056238393
 30
0.0
 10
28.99950290335284
 20
2.466611906044867
 30
0.0
 10
28.99912898685889
 20
2.45541975585134
 30
0.0
 10
28.99849792496729
 20
2.444140758230967
 30
0.0
 10
28.99786686307569
 20
2.432861760610594
 30
0.0
 10
28.99697247592089
 20
2.421503661356444
 30
0.0
 10
28.9960780887661
 20
2.410145562102294
 30
0.0
 10
28.99491445422404
 20
2.398716517059212
 30
0.0
 10
28.99375081968198
 20
2.38728747201613
 30
0.0
 10
28.99231230225172
 20
2.375796040119571
 30
0.0
 10
28.99087378482146
 20
2.364304608223012
 30
0.0
 10
28.98915506467458
 20
2.352759742349038
 30
0.0
 10
28.98743634452771
 20
2.341214876475064
 30
0.0
 10
28.98543244654875
 20
2.329625912031459
 30
0.0
 10
28.9834285485698
 20
2.318036947587854
 30
0.0
 10
28.9811348711996
 20
2.306413588791131
 30
0.0
 10
28.9788411938294
 20
2.294790229994408
 30
0.0
 10
28.97625353751268
 20
2.28314253379398
 30
0.0
 10
28.97366588119597
 20
2.271494837593552
 30
0.0
 10
28.9707804762255
 20
2.259833195222515
 30
0.0
 10
28.96789507125503
 20
2.248171552851477
 30
0.0
 10
28.96470860479764
 20
2.236506669003053
 30
0.0
 10
28.96152213834026
 20
2.224841785154629
 30
0.0
 10
28.95803178042461
 20
2.213184654804295
 30
0.0
 10
28.95454142250896
 20
2.201527524453962
 30
0.0
 10
28.95074485075192
 20
2.189889407369341
 30
0.0
 10
28.9469482789949
 20
2.17825129028472
 30
0.0
 10
28.94284370184277
 20
2.166643683288276
 30
0.0
 10
28.93873912469065
 20
2.155036076291833
 30
0.0
 10
28.93432530295315
 20
2.143470683364979
 30
0.0
 10
28.92991148121566
 20
2.131905290438126
 30
0.0
 10
28.92518774767544
 20
2.120393990779202
 30
0.0
 10
28.92046401413523
 20
2.108882691120277
 30
0.0
 10
28.9154302910226
 20
2.097437505292715
 30
0.0
 10
28.91039656790998
 20
2.085992319465153
 30
0.0
 10
28.90505338204308
 20
2.074625373795611
 30
0.0
 10
28.89971019617619
 20
2.063258428126069
 30
0.0
 10
28.89405869157958
 20
2.051981917535032
 30
0.0
 10
28.88840718698298
 20
2.040705406943996
 30
0.0
 10
28.88244913481366
 20
2.02953155641296
 30
0.0
 10
28.87649108264435
 20
2.018357705881924
 30
0.0
 10
28.8702288882725
 20
2.007298730781386
 30
0.0
 10
28.86396669390066
 20
1.996239755680848
 30
0.0
 10
28.85740340101382
 20
1.985307821201603
 30
0.0
 10
28.85084010812698
 20
1.974375886722358
 30
0.0
 10
28.84397939974943
 20
1.963583066668607
 30
0.0
 10
28.83711869137188
 20
1.952790246614857
 30
0.0
 10
28.82996488771696
 20
1.942148481831177
 30
0.0
 10
28.82281108406205
 20
1.931506717047497
 30
0.0
 10
28.81536913716214
 20
1.921027773762348
 30
0.0
 10
28.80792719026224
 20
1.910548830477198
 30
0.0
 10
28.80020267535012
 20
1.900244258853237
 30
0.0
 10
28.792478160438
 20
1.889939687229276
 30
0.0
 10
28.78447726408304
 20
1.879820780415022
 30
0.0
 10
28.77647636772808
 20
1.869701873600769
 30
0.0
 10
28.76820587276124
 20
1.859779627578966
 30
0.0
 10
28.7599353777944
 20
1.849857381557164
 30
0.0
 10
28.75140264508669
 20
1.840142456082485
 30
0.0
 10
28.74286991237898
 20
1.830427530607806
 30
0.0
 10
28.73408285956831
 20
1.820930211520234
 30
0.0
 10
28.72529580675765
 20
1.811432892432662
 30
0.0
 10
28.71626288404871
 20
1.802163055623057
 30
0.0
 10
28.70722996133978
 20
1.792893218813452
 30
0.0
 10
28.69796012453017
 20
1.783860296104517
 30
0.0
 10
28.68869028772057
 20
1.774827373395581
 30
0.0
 10
28.67919296863299
 20
1.766040320584912
 30
0.0
 10
28.66969564954542
 20
1.757253267774243
 30
0.0
 10
28.65998072407074
 20
1.74872053506654
 30
0.0
 10
28.65026579859607
 20
1.740187802358836
 30
0.0
 10
28.64034355257427
 20
1.731917307391996
 30
0.0
 10
28.63042130655247
 20
1.723646812425156
 30
0.0
 10
28.62030239973821
 20
1.71564591607019
 30
0.0
 10
28.61018349292395
 20
1.707645019715224
 30
0.0
 10
28.59987892129999
 20
1.699920504803106
 30
0.0
 10
28.58957434967603
 20
1.692195989890987
 30
0.0
 10
28.57909540639088
 20
1.684754042991083
 30
0.0
 10
28.56861646310573
 20
1.67731209609118
 30
0.0
 10
28.55797469832205
 20
1.670158292436264
 30
0.0
 10
28.54733293353837
 20
1.663004488781348
 30
0.0
 10
28.53654011348462
 20
1.656143780403799
 30
0.0
 10
28.52574729343087
 20
1.64928307202625
 30
0.0
 10
28.51481535895162
 20
1.642719779139409
 30
0.0
 10
28.50388342447238
 20
1.636156486252568
 30
0.0
 10
28.49282444937184
 20
1.629894291880726
 30
0.0
 10
28.48176547427131
 20
1.623632097508885
 30
0.0
 10
28.47059162374027
 20
1.617674045339566
 30
0.0
 10
28.45941777320923
 20
1.611715993170247
 30
0.0
 10
28.44814126261819
 20
1.606064488573645
 30
0.0
 10
28.43686475202716
 20
1.600412983977042
 30
0.0
 10
28.42549780635761
 20
1.595069798110144
 30
0.0
 10
28.41413086068807
 20
1.589726612243246
 30
0.0
 10
28.40268567486051
 20
1.584692889130622
 30
0.0
 10
28.39124048903295
 20
1.579659166017998
 30
0.0
 10
28.37972918937402
 20
1.574935432477783
 30
0.0
 10
28.3682178897151
 20
1.570211698937569
 30
0.0
 10
28.35665249678825
 20
1.565797877200076
 30
0.0
 10
28.3450871038614
 20
1.561384055462583
 30
0.0
 10
28.33347949686495
 20
1.557279478310452
 30
0.0
 10
28.3218718898685
 20
1.553174901158321
 30
0.0
 10
28.31023377278387
 20
1.54937832940129
 30
0.0
 10
28.29859565569926
 20
1.545581757644259
 30
0.0
 10
28.28693852534893
 20
1.542091399728613
 30
0.0
 10
28.2752813949986
 20
1.538601041812967
 30
0.0
 10
28.26361651115017
 20
1.53541457535558
 30
0.0
 10
28.25195162730175
 20
1.532228108898193
 30
0.0
 10
28.2402899849307
 20
1.529342703927723
 30
0.0
 10
28.22862834255967
 20
1.526457298957254
 30
0.0
 10
28.21698064635924
 20
1.523869642640535
 30
0.0
 10
28.20533295015881
 20
1.521281986323816
 30
0.0
 10
28.19370959136209
 20
1.51898830895362
 30
0.0
 10
28.18208623256537
 20
1.516694631583424
 30
0.0
 10
28.17049726812176
 20
1.514690733604466
 30
0.0
 10
28.15890830367816
 20
1.512686835625508
 30
0.0
 10
28.14736343780418
 20
1.510968115478632
 30
0.0
 10
28.1358185719302
 20
1.509249395331755
 30
0.0
 10
28.12432714003364
 20
1.507810877901499
 30
0.0
 10
28.11283570813709
 20
1.506372360471243
 30
0.0
 10
28.10140666309401
 20
1.505208725929181
 30
0.0
 10
28.08997761805093
 20
1.50404509138712
 30
0.0
 10
28.07861951879677
 20
1.503150704232325
 30
0.0
 10
28.06726141954262
 20
1.50225631707753
 30
0.0
 10
28.05598242192224
 20
1.501625255185929
 30
0.0
 10
28.04470342430188
 20
1.500994193294328
 30
0.0
 10
28.03351127410835
 20
1.50062027680038
 30
0.0
 10
28.02231912391483
 20
1.500246360306433
 30
0.0
 10
0.0110889740516775
 20
1.500123180153214
 30
0.0
 10
-28.00014117581147
 20
1.499999999999995
 30
0.0
 10
-28.01123914769228
 20
1.500123180153212
 30
0.0
 10
-28.02233711957308
 20
1.500246360306429
 30
0.0
 10
-28.0335292697666
 20
1.500620276800377
 30
0.0
 10
-28.04472141996012
 20
1.500994193294325
 30
0.0
 10
-28.0560004175805
 20
1.501625255185926
 30
0.0
 10
-28.06727941520087
 20
1.502256317077527
 30
0.0
 10
-28.07863751445502
 20
1.503150704232322
 30
0.0
 10
-28.08999561370917
 20
1.504045091387116
 30
0.0
 10
-28.10142465875225
 20
1.505208725929178
 30
0.0
 10
-28.11285370379533
 20
1.50637236047124
 30
0.0
 10
-28.12434513569189
 20
1.507810877901496
 30
0.0
 10
-28.13583656758845
 20
1.509249395331751
 30
0.0
 10
-28.14738143346243
 20
1.510968115478628
 30
0.0
 10
-28.1589262993364
 20
1.512686835625504
 30
0.0
 10
-28.17051526378
 20
1.514690733604463
 30
0.0
 10
-28.18210422822361
 20
1.516694631583421
 30
0.0
 10
-28.19372758702033
 20
1.518988308953617
 30
0.0
 10
-28.20535094581705
 20
1.521281986323812
 30
0.0
 10
-28.21699864201748
 20
1.523869642640531
 30
0.0
 10
-28.22864633821791
 20
1.52645729895725
 30
0.0
 10
-28.24030798058895
 20
1.52934270392772
 30
0.0
 10
-28.25196962295999
 20
1.53222810889819
 30
0.0
 10
-28.26363450680841
 20
1.535414575355577
 30
0.0
 10
-28.27529939065683
 20
1.538601041812964
 30
0.0
 10
-28.28695652100716
 20
1.542091399728609
 30
0.0
 10
-28.29861365135749
 20
1.545581757644255
 30
0.0
 10
-28.31025176844211
 20
1.549378329401286
 30
0.0
 10
-28.32188988552674
 20
1.553174901158317
 30
0.0
 10
-28.33349749252319
 20
1.557279478310448
 30
0.0
 10
-28.34510509951963
 20
1.561384055462579
 30
0.0
 10
-28.35667049244648
 20
1.565797877200072
 30
0.0
 10
-28.36823588537333
 20
1.570211698937565
 30
0.0
 10
-28.37974718503226
 20
1.57493543247778
 30
0.0
 10
-28.39125848469118
 20
1.579659166017995
 30
0.0
 10
-28.40270367051875
 20
1.584692889130618
 30
0.0
 10
-28.41414885634631
 20
1.589726612243242
 30
0.0
 10
-28.42551580201585
 20
1.59506979811014
 30
0.0
 10
-28.43688274768539
 20
1.600412983977038
 30
0.0
 10
-28.44815925827643
 20
1.606064488573641
 30
0.0
 10
-28.45943576886747
 20
1.611715993170243
 30
0.0
 10
-28.47060961939851
 20
1.617674045339562
 30
0.0
 10
-28.48178346992954
 20
1.623632097508881
 30
0.0
 10
-28.49284244503008
 20
1.629894291880722
 30
0.0
 10
-28.50390142013062
 20
1.636156486252564
 30
0.0
 10
-28.51483335460986
 20
1.642719779139405
 30
0.0
 10
-28.5257652890891
 20
1.649283072026246
 30
0.0
 10
-28.53655810914285
 20
1.656143780403795
 30
0.0
 10
-28.5473509291966
 20
1.663004488781344
 30
0.0
 10
-28.55799269398028
 20
1.67015829243626
 30
0.0
 10
-28.56863445876396
 20
1.677312096091176
 30
0.0
 10
-28.57911340204911
 20
1.684754042991079
 30
0.0
 10
-28.58959234533426
 20
1.692195989890983
 30
0.0
 10
-28.59989691695822
 20
1.699920504803102
 30
0.0
 10
-28.61020148858218
 20
1.70764501971522
 30
0.0
 10
-28.62032039539644
 20
1.715645916070186
 30
0.0
 10
-28.63043930221069
 20
1.723646812425153
 30
0.0
 10
-28.64036154823249
 20
1.731917307391993
 30
0.0
 10
-28.65028379425429
 20
1.740187802358833
 30
0.0
 10
-28.65999871972897
 20
1.748720535066536
 30
0.0
 10
-28.66971364520365
 20
1.757253267774239
 30
0.0
 10
-28.67921096429123
 20
1.766040320584908
 30
0.0
 10
-28.6887082833788
 20
1.774827373395578
 30
0.0
 10
-28.6979781201884
 20
1.783860296104513
 30
0.0
 10
-28.707247956998
 20
1.792893218813448
 30
0.0
 10
-28.71628087970694
 20
1.802163055623053
 30
0.0
 10
-28.72531380241587
 20
1.811432892432658
 30
0.0
 10
-28.73410085522654
 20
1.82093021152023
 30
0.0
 10
-28.74288790803721
 20
1.830427530607802
 30
0.0
 10
-28.75142064074492
 20
1.840142456082481
 30
0.0
 10
-28.75995337345262
 20
1.84985738155716
 30
0.0
 10
-28.76822386841946
 20
1.859779627578962
 30
0.0
 10
-28.7764943633863
 20
1.869701873600765
 30
0.0
 10
-28.78449525974127
 20
1.879820780415018
 30
0.0
 10
-28.79249615609623
 20
1.889939687229272
 30
0.0
 10
-28.80022067100835
 20
1.900244258853233
 30
0.0
 10
-28.80794518592047
 20
1.910548830477194
 30
0.0
 10
-28.81538713282038
 20
1.921027773762344
 30
0.0
 10
-28.82282907972028
 20
1.931506717047494
 30
0.0
 10
-28.82998288337519
 20
1.942148481831174
 30
0.0
 10
-28.83713668703011
 20
1.952790246614853
 30
0.0
 10
-28.84399739540766
 20
1.963583066668603
 30
0.0
 10
-28.85085810378521
 20
1.974375886722354
 30
0.0
 10
-28.85742139667206
 20
1.9853078212016
 30
0.0
 10
-28.8639846895589
 20
1.996239755680845
 30
0.0
 10
-28.87024688393074
 20
2.007298730781383
 30
0.0
 10
-28.87650907830258
 20
2.01835770588192
 30
0.0
 10
-28.8824671304719
 20
2.029531556412956
 30
0.0
 10
-28.88842518264122
 20
2.040705406943992
 30
0.0
 10
-28.89407668723782
 20
2.051981917535029
 30
0.0
 10
-28.89972819183442
 20
2.063258428126066
 30
0.0
 10
-28.90507137770132
 20
2.074625373795608
 30
0.0
 10
-28.91041456356822
 20
2.08599231946515
 30
0.0
 10
-28.91544828668084
 20
2.097437505292712
 30
0.0
 10
-28.92048200979346
 20
2.108882691120274
 30
0.0
 10
-28.92520574333368
 20
2.120393990779198
 30
0.0
 10
-28.92992947687389
 20
2.131905290438123
 30
0.0
 10
-28.93434329861139
 20
2.143470683364977
 30
0.0
 10
-28.93875712034888
 20
2.15503607629183
 30
0.0
 10
-28.94286169750101
 20
2.166643683288274
 30
0.0
 10
-28.94696627465314
 20
2.178251290284717
 30
0.0
 10
-28.95076284641017
 20
2.189889407369337
 30
0.0
 10
-28.9545594181672
 20
2.201527524453958
 30
0.0
 10
-28.95804977608285
 20
2.213184654804292
 30
0.0
 10
-28.96154013399849
 20
2.224841785154626
 30
0.0
 10
-28.96472660045588
 20
2.23650666900305
 30
0.0
 10
-28.96791306691327
 20
2.248171552851474
 30
0.0
 10
-28.97079847188374
 20
2.259833195222511
 30
0.0
 10
-28.97368387685421
 20
2.271494837593549
 30
0.0
 10
-28.97627153317093
 20
2.283142533793976
 30
0.0
 10
-28.97885918948765
 20
2.294790229994404
 30
0.0
 10
-28.98115286685785
 20
2.306413588791127
 30
0.0
 10
-28.98344654422804
 20
2.31803694758785
 30
0.0
 10
-28.985450442207
 20
2.329625912031455
 30
0.0
 10
-28.98745434018596
 20
2.34121487647506
 30
0.0
 10
-28.98917306033284
 20
2.352759742349035
 30
0.0
 10
-28.99089178047971
 20
2.364304608223009
 30
0.0
 10
-28.99233029790997
 20
2.375796040119568
 30
0.0
 10
-28.99376881534022
 20
2.387287472016127
 30
0.0
 10
-28.99493244988228
 20
2.398716517059208
 30
0.0
 10
-28.99609608442435
 20
2.41014556210229
 30
0.0
 10
-28.99699047157915
 20
2.42150366135644
 30
0.0
 10
-28.99788485873394
 20
2.43286176061059
 30
0.0
 10
-28.99851592062554
 20
2.444140758230963
 30
0.0
 10
-28.99914698251713
 20
2.455419755851337
 30
0.0
 10
-28.99952089901109
 20
2.466611906044863
 30
0.0
 10
-28.99989481550504
 20
2.47780405623839
 30
0.0
 10
-29.00001799565825
 20
15.0514020281192
 30
0.0
 10
-29.00014117581147
 20
27.625
 30
0.0
 10
-29.00009498325402
 20
27.6291617394553
 30
0.0
 10
-29.00004879069656
 20
27.6333234789106
 30
0.0
 10
-28.99990857201133
 20
27.63752053523317
 30
0.0
 10
-28.9997683533261
 20
27.64171759155574
 30
0.0
 10
-28.99953170511674
 20
27.64594721566338
 30
0.0
 10
-28.99929505690739
 20
27.65017683977102
 30
0.0
 10
-28.99895966172435
 20
27.65443612699133
 30
0.0
 10
-28.9986242665413
 20
27.65869541421164
 30
0.0
 10
-28.99818790358803
 20
27.66298130610279
 30
0.0
 10
-28.99775154063475
 20
27.66726719799395
 30
0.0
 10
-28.99721209659841
 20
27.67157648495516
 30
0.0
 10
-28.99667265256206
 20
27.67588577191637
 30
0.0
 10
-28.99602813250699
 20
27.68021509661911
 30
0.0
 10
-28.99538361245191
 20
27.68454442132185
 30
0.0
 10
-28.9946321507098
 20
27.6888902829882
 30
0.0
 10
-28.99388068896769
 20
27.69323614465455
 30
0.0
 10
-28.99302055995387
 20
27.69759490420332
 30
0.0
 10
-28.99216043094004
 20
27.7019536637521
 30
0.0
 10
-28.99119005982127
 20
27.70632154982726
 30
0.0
 10
-28.9902196887025
 20
27.71068943590242
 30
0.0
 10
-28.98913766183858
 20
27.71506255179156
 30
0.0
 10
-28.98805563497465
 20
27.7194356676807
 30
0.0
 10
-28.98686071005313
 20
27.72380999912385
 30
0.0
 10
-28.98566578513161
 20
27.72818433056701
 30
0.0
 10
-28.98435690091324
 20
27.73255575444838
 30
0.0
 10
-28.98304801669487
 20
27.73692717832976
 30
0.0
 10
-28.98162430228599
 20
27.7412914722365
 30
0.0
 10
-28.9802005878771
 20
27.74565576614323
 30
0.0
 10
-28.97866137144506
 20
27.75000861876689
 30
0.0
 10
-28.97712215501301
 20
27.75436147139056
 30
0.0
 10
-28.97546697186144
 20
27.75869849373813
 30
0.0
 10
-28.97381178870988
 20
27.7630355160857
 30
0.0
 10
-28.9720403886323
 20
27.7673522534578
 30
0.0
 10
-28.97026898855472
 20
27.7716689908299
 30
0.0
 10
-28.96838134238749
 20
27.77596093551524
 30
0.0
 10
-28.96649369622025
 20
27.78025288020057
 30
0.0
 10
-28.96449000152017
 20
27.78451548482665
 30
0.0
 10
-28.96248630682008
 20
27.78877808945272
 30
0.0
 10
-28.96036699259636
 20
27.79300678092436
 30
0.0
 10
-28.95824767837263
 20
27.797235472396
 30
0.0
 10
-28.95601340880913
 20
27.80142566634515
 30
0.0
 10
-28.95377913924564
 20
27.80561586029429
 30
0.0
 10
-28.9514308163562
 20
27.80976297595699
 30
0.0
 10
-28.94908249346676
 20
27.81391009161968
 30
0.0
 10
-28.9466212586342
 20
27.8180095670494
 30
0.0
 10
-28.94416002380163
 20
27.82210904247912
 30
0.0
 10
-28.94158725816005
 20
27.82615634999927
 30
0.0
 10
-28.93901449251847
 20
27.83020365751942
 30
0.0
 10
-28.93633181614788
 20
27.8341943193133
 30
0.0
 10
-28.93364913977728
 20
27.83818498110718
 30
0.0
 10
-28.93085840968982
 20
27.84211458483912
 30
0.0
 10
-28.92806767960235
 20
27.84604418857105
 30
0.0
 10
-28.92517098651031
 20
27.84990840293003
 30
0.0
 10
-28.92227429341826
 20
27.85377261728902
 30
0.0
 10
-28.91927395728515
 20
27.85756720734437
 30
0.0
 10
-28.91627362115204
 20
27.86136179739971
 30
0.0
 10
-28.91317218553948
 20
27.86508263965789
 30
0.0
 10
-28.91007074992691
 20
27.86880348191606
 30
0.0
 10
-28.90687097516152
 20
27.87244657896906
 30
0.0
 10
-28.90367120039613
 20
27.87608967602207
 30
0.0
 10
-28.90037605559213
 20
27.87965117067991
 30
0.0
 10
-28.89708091078813
 20
27.88321266533775
 30
0.0
 10
-28.89369356477228
 20
27.88668885414135
 30
0.0
 10
-28.89030621875643
 20
27.89016504294495
 30
0.0
 10
-28.88683002995283
 20
27.89355238896081
 30
0.0
 10
-28.88335384114922
 20
27.89693973497666
 30
0.0
 10
-28.87979234649138
 20
27.90023487978065
 30
0.0
 10
-28.87623085183354
 20
27.90353002458465
 30
0.0
 10
-28.87258775478054
 20
27.90672979935005
 30
0.0
 10
-28.86894465772754
 20
27.90992957411544
 30
0.0
 10
-28.86522381546937
 20
27.91303100972801
 30
0.0
 10
-28.86150297321119
 20
27.91613244534057
 30
0.0
 10
-28.85770838315584
 20
27.91913278147368
 30
0.0
 10
-28.85391379310049
 20
27.92213311760679
 30
0.0
 10
-28.8500495787415
 20
27.92502981069883
 30
0.0
 10
-28.84618536438252
 20
27.92792650379088
 30
0.0
 10
-28.84225576065059
 20
27.93071723387834
 30
0.0
 10
-28.83832615691866
 20
27.9335079639658
 30
0.0
 10
-28.83433549512478
 20
27.93619064033639
 30
0.0
 10
-28.8303448333309
 20
27.93887331670699
 30
0.0
 10
-28.82629752581074
 20
27.94144608234857
 30
0.0
 10
-28.82225021829059
 20
27.94401884799015
 30
0.0
 10
-28.81815074286087
 20
27.94648008282272
 30
0.0
 10
-28.81405126743115
 20
27.94894131765529
 30
0.0
 10
-28.80990415176846
 20
27.95128964054474
 30
0.0
 10
-28.80575703610576
 20
27.95363796343418
 30
0.0
 10
-28.80156684215662
 20
27.95587223299767
 30
0.0
 10
-28.79737664820747
 20
27.95810650256116
 30
0.0
 10
-28.79314795673583
 20
27.96022581678488
 30
0.0
 10
-28.78891926526419
 20
27.96234513100861
 30
0.0
 10
-28.78465666063812
 20
27.9643488257087
 30
0.0
 10
-28.78039405601204
 20
27.96635252040878
 30
0.0
 10
-28.7761021113267
 20
27.96824016657602
 30
0.0
 10
-28.77181016664136
 20
27.97012781274325
 30
0.0
 10
-28.76749342926927
 20
27.97189921282083
 30
0.0
 10
-28.76317669189717
 20
27.97367061289841
 30
0.0
 10
-28.7588396695496
 20
27.97532579604997
 30
0.0
 10
-28.75450264720203
 20
27.97698097920154
 30
0.0
 10
-28.75014979457837
 20
27.97852019563359
 30
0.0
 10
-28.7457969419547
 20
27.98005941206563
 30
0.0
 10
-28.74143264804797
 20
27.98148312647452
 30
0.0
 10
-28.73706835414123
 20
27.9829068408834
 30
0.0
 10
-28.73269693025986
 20
27.98421572510177
 30
0.0
 10
-28.72832550637848
 20
27.98552460932014
 30
0.0
 10
-28.72395117493533
 20
27.98671953424166
 30
0.0
 10
-28.71957684349217
 20
27.98791445916318
 30
0.0
 10
-28.71520372760303
 20
27.9889964860271
 30
0.0
 10
-28.71083061171389
 20
27.99007851289103
 30
0.0
 10
-28.70646272563873
 20
27.9910488840098
 30
0.0
 10
-28.70209483956357
 20
27.99201925512857
 30
0.0
 10
-28.6977360800148
 20
27.99287938414239
 30
0.0
 10
-28.69337732046603
 20
27.99373951315621
 30
0.0
 10
-28.68903145879968
 20
27.99449097489833
 30
0.0
 10
-28.68468559713332
 20
27.99524243664044
 30
0.0
 10
-28.68035627243058
 20
27.99588695669551
 30
0.0
 10
-28.67602694772784
 20
27.99653147675059
 30
0.0
 10
-28.67171766076663
 20
27.99707092078694
 30
0.0
 10
-28.66740837380542
 20
27.99761036482328
 30
0.0
 10
-28.66312248191426
 20
27.99804672777655
 30
0.0
 10
-28.65883659002311
 20
27.99848309072983
 30
0.0
 10
-28.65457730280281
 20
27.99881848591288
 30
0.0
 10
-28.6503180155825
 20
27.99915388109592
 30
0.0
 10
-28.64608839147486
 20
27.99939052930527
 30
0.0
 10
-28.64185876736722
 20
27.99962717751462
 30
0.0
 10
-28.63766171104465
 20
27.99976739619985
 30
0.0
 10
-28.63346465472208
 20
27.99990761488509
 30
0.0
 10
-0.0041707372844328
 20
27.99995380744254
 30
0.0
 10
28.62512318015322
 20
28.0
 30
0.0
 10
28.62928491960852
 20
27.99995380744254
 30
0.0
 10
28.63344665906382
 20
27.99990761488509
 30
0.0
 10
28.63764371538639
 20
27.99976739619986
 30
0.0
 10
28.64184077170897
 20
27.99962717751463
 30
0.0
 10
28.64607039581661
 20
27.99939052930528
 30
0.0
 10
28.65030001992425
 20
27.99915388109593
 30
0.0
 10
28.65455930714455
 20
27.99881848591288
 30
0.0
 10
28.65881859436486
 20
27.99848309072983
 30
0.0
 10
28.66310448625601
 20
27.99804672777656
 30
0.0
 10
28.66739037814717
 20
27.99761036482329
 30
0.0
 10
28.67169966510838
 20
27.99707092078694
 30
0.0
 10
28.67600895206959
 20
27.99653147675059
 30
0.0
 10
28.68033827677232
 20
27.99588695669551
 30
0.0
 10
28.68466760147507
 20
27.99524243664044
 30
0.0
 10
28.68901346314141
 20
27.99449097489833
 30
0.0
 10
28.69335932480777
 20
27.99373951315622
 30
0.0
 10
28.69771808435654
 20
27.9928793841424
 30
0.0
 10
28.70207684390532
 20
27.99201925512857
 30
0.0
 10
28.70644472998048
 20
27.9910488840098
 30
0.0
 10
28.71081261605564
 20
27.99007851289103
 30
0.0
 10
28.71518573194478
 20
27.9889964860271
 30
0.0
 10
28.71955884783392
 20
27.98791445916317
 30
0.0
 10
28.72393317927708
 20
27.98671953424166
 30
0.0
 10
28.72830751072024
 20
27.98552460932014
 30
0.0
 10
28.73267893460161
 20
27.98421572510178
 30
0.0
 10
28.73705035848299
 20
27.98290684088341
 30
0.0
 10
28.74141465238971
 20
27.98148312647452
 30
0.0
 10
28.74577894629645
 20
27.98005941206562
 30
0.0
 10
28.75013179892011
 20
27.97852019563358
 30
0.0
 10
28.75448465154378
 20
27.97698097920153
 30
0.0
 10
28.75882167389135
 20
27.97532579604997
 30
0.0
 10
28.76315869623892
 20
27.97367061289841
 30
0.0
 10
28.76747543361102
 20
27.97189921282083
 30
0.0
 10
28.77179217098312
 20
27.97012781274325
 30
0.0
 10
28.77608411566845
 20
27.96824016657602
 30
0.0
 10
28.78037606035379
 20
27.96635252040878
 30
0.0
 10
28.78463866497987
 20
27.9643488257087
 30
0.0
 10
28.78890126960595
 20
27.96234513100861
 30
0.0
 10
28.79312996107759
 20
27.96022581678488
 30
0.0
 10
28.79735865254923
 20
27.95810650256116
 30
0.0
 10
28.80154884649837
 20
27.95587223299766
 30
0.0
 10
28.80573904044751
 20
27.95363796343416
 30
0.0
 10
28.80988615611021
 20
27.95128964054472
 30
0.0
 10
28.81403327177291
 20
27.94894131765528
 30
0.0
 10
28.81813274720262
 20
27.94648008282272
 30
0.0
 10
28.82223222263234
 20
27.94401884799015
 30
0.0
 10
28.82627953015249
 20
27.94144608234857
 30
0.0
 10
28.83032683767265
 20
27.93887331670699
 30
0.0
 10
28.83431749946653
 20
27.93619064033639
 30
0.0
 10
28.83830816126041
 20
27.9335079639658
 30
0.0
 10
28.84223776499234
 20
27.93071723387834
 30
0.0
 10
28.84616736872427
 20
27.92792650379088
 30
0.0
 10
28.85003158308325
 20
27.92502981069883
 30
0.0
 10
28.85389579744224
 20
27.92213311760679
 30
0.0
 10
28.85769038749758
 20
27.91913278147367
 30
0.0
 10
28.86148497755293
 20
27.91613244534056
 30
0.0
 10
28.8652058198111
 20
27.913031009728
 30
0.0
 10
28.86892666206928
 20
27.90992957411544
 30
0.0
 10
28.87256975912228
 20
27.90672979935005
 30
0.0
 10
28.87621285617529
 20
27.90353002458465
 30
0.0
 10
28.87977435083313
 20
27.90023487978065
 30
0.0
 10
28.88333584549097
 20
27.89693973497666
 30
0.0
 10
28.88681203429457
 20
27.89355238896081
 30
0.0
 10
28.89028822309818
 20
27.89016504294495
 30
0.0
 10
28.89367556911403
 20
27.88668885414135
 30
0.0
 10
28.89706291512988
 20
27.88321266533775
 30
0.0
 10
28.90035805993387
 20
27.87965117067991
 30
0.0
 10
28.90365320473787
 20
27.87608967602207
 30
0.0
 10
28.90685297950326
 20
27.87244657896906
 30
0.0
 10
28.91005275426865
 20
27.86880348191606
 30
0.0
 10
28.91315418988122
 20
27.86508263965789
 30
0.0
 10
28.91625562549379
 20
27.86136179739971
 30
0.0
 10
28.9192559616269
 20
27.85756720734437
 30
0.0
 10
28.92225629776001
 20
27.85377261728902
 30
0.0
 10
28.92515299085205
 20
27.84990840293003
 30
0.0
 10
28.9280496839441
 20
27.84604418857105
 30
0.0
 10
28.93084041403156
 20
27.84211458483912
 30
0.0
 10
28.93363114411903
 20
27.83818498110718
 30
0.0
 10
28.93631382048962
 20
27.8341943193133
 30
0.0
 10
28.93899649686022
 20
27.83020365751942
 30
0.0
 10
28.9415692625018
 20
27.82615634999927
 30
0.0
 10
28.94414202814338
 20
27.82210904247912
 30
0.0
 10
28.94660326297594
 20
27.8180095670494
 30
0.0
 10
28.94906449780851
 20
27.81391009161968
 30
0.0
 10
28.95141282069795
 20
27.80976297595697
 30
0.0
 10
28.95376114358739
 20
27.80561586029427
 30
0.0
 10
28.95599541315088
 20
27.80142566634514
 30
0.0
 10
28.95822968271438
 20
27.797235472396
 30
0.0
 10
28.9603489969381
 20
27.79300678092437
 30
0.0
 10
28.96246831116183
 20
27.78877808945273
 30
0.0
 10
28.96447200586191
 20
27.78451548482665
 30
0.0
 10
28.966475700562
 20
27.78025288020057
 30
0.0
 10
28.96836334672923
 20
27.77596093551523
 30
0.0
 10
28.97025099289647
 20
27.77166899082989
 30
0.0
 10
28.97202239297405
 20
27.76735225345779
 30
0.0
 10
28.97379379305163
 20
27.7630355160857
 30
0.0
 10
28.97544897620319
 20
27.75869849373813
 30
0.0
 10
28.97710415935475
 20
27.75436147139056
 30
0.0
 10
28.9786433757868
 20
27.75000861876689
 30
0.0
 10
28.98018259221885
 20
27.74565576614323
 30
0.0
 10
28.98160630662774
 20
27.7412914722365
 30
0.0
 10
28.98303002103663
 20
27.73692717832976
 30
0.0
 10
28.98433890525499
 20
27.73255575444838
 30
0.0
 10
28.98564778947336
 20
27.72818433056701
 30
0.0
 10
28.98684271439488
 20
27.72380999912385
 30
0.0
 10
28.9880376393164
 20
27.7194356676807
 30
0.0
 10
28.98911966618032
 20
27.71506255179156
 30
0.0
 10
28.99020169304425
 20
27.71068943590242
 30
0.0
 10
28.99117206416302
 20
27.70632154982726
 30
0.0
 10
28.99214243528179
 20
27.7019536637521
 30
0.0
 10
28.99300256429561
 20
27.69759490420333
 30
0.0
 10
28.99386269330943
 20
27.69323614465456
 30
0.0
 10
28.99461415505154
 20
27.68889028298821
 30
0.0
 10
28.99536561679366
 20
27.68454442132186
 30
0.0
 10
28.99601013684873
 20
27.68021509661911
 30
0.0
 10
28.99665465690381
 20
27.67588577191637
 30
0.0
 10
28.99719410094016
 20
27.67157648495516
 30
0.0
 10
28.99773354497651
 20
27.66726719799395
 30
0.0
 10
28.99816990792978
 20
27.66298130610279
 30
0.0
 10
28.99860627088305
 20
27.65869541421164
 30
0.0
 10
28.9989416660661
 20
27.65443612699134
 30
0.0
 10
28.99927706124914
 20
27.65017683977103
 30
0.0
 10
28.99951370945849
 20
27.64594721566339
 30
0.0
 10
28.99975035766785
 20
27.64171759155575
 30
0.0
 10
28.99989057635307
 20
27.63752053523318
 30
0.0
 10
29.00003079503831
 20
27.6333234789106
 30
0.0
 10
29.00007698759576
 20
27.6291617394553
 30
0.0
 10
29.00012318015322
 20
27.625
 30
0.0
  0
SPLINE
  5
47
330
1F
100
AcDbEntity
  8
DEFAULT
100
AcDbSpline
210
0.0
220
0.0
230
1.0
 70
    24
 71
     2
 72
     6
 73
     3
 74
     0
 42
0.0000000001
 43
0.0000000001
 40
0.0
 40
0.0
 40
0.0
 40
47.7
 40
47.7
 40
47.7
 10
-22.72514117581147
 20
0.6024999999999956
 30
0.0
 10
-0.0000089978291271
 20
0.6024999999999956
 30
0.0
 10
22.72512318015322
 20
0.6024999999999956
 30
0.0
  0
SPLINE
  5
48
330
1F
100
AcDbEntity
  8
DEFAULT
100
AcDbSpline
210
0.0
220
0.0
230
1.0
 70
    24
 71
     2
 72
     6
 73
     3
 74
     0
 42
0.0000000001
 43
0.0000000001
 40
0.0
 40
0.0
 40
0.0
 40
47.7
 40
47.7
 40
47.7
 10
22.72512318015322
 20
1.289999999999996
 30
0.0
 10
-0.0000089978291271
 20
1.289999999999996
 30
0.0
 10
-22.72514117581147
 20
1.289999999999996
 30
0.0
  0
SPLINE
  5
49
330
1F
100
AcDbEntity
  8
DEFAULT
100
AcDbSpline
210
0.0
220
0.0
230
1.0
 70
     8
 71
     2
 72
   386
 73
   383
 74
     0
 42
0.0000000001
 43
0.0000000001
 40
0.0
 40
0.0
 40
0.0
 40
1.0
 40
1.0
 40
2.0
 40
2.0
 40
3.0
 40
3.0
 40
4.0
 40
4.0
 40
5.0
 40
5.0
 40
6.0
 40
6.0
 40
7.0
 40
7.0
 40
8.0
 40
8.0
 40
9.0
 40
9.0
 40
10.0
 40
10.0
 40
11.0
 40
11.0
 40
12.0
 40
12.0
 40
13.0
 40
13.0
 40
14.0
 40
14.0
 40
15.0
 40
15.0
 40
16.0
 40
16.0
 40
17.0
 40
17.0
 40
18.0
 40
18.0
 40
19.0
 40
19.0
 40
20.0
 40
20.0
 40
21.0
 40
21.0
 40
22.0
 40
22.0
 40
23.0
 40
23.0
 40
24.0
 40
24.0
 40
25.0
 40
25.0
 40
26.0
 40
26.0
 40
27.0
 40
27.0
 40
28.0
 40
28.0
 40
29.0
 40
29.0
 40
30.0
 40
30.0
 40
31.0
 40
31.0
 40
32.0
 40
32.0
 40
33.0
 40
33.0
 40
34.0
 40
34.0
 40
35.0
 40
35.0
 40
36.0
 40
36.0
 40
37.0
 40
37.0
 40
38.0
 40
38.0
 40
39.0
 40
39.0
 40
40.0
 40
40.0
 40
41.0
 40
41.0
 40
42.0
 40
42.0
 40
43.0
 40
43.0
 40
44.0
 40
44.0
 40
45.0
 40
45.0
 40
46.0
 40
46.0
 40
47.0
 40
47.0
 40
48.0
 40
48.0
 40
49.0
 40
49.0
 40
50.0
 40
50.0
 40
51.0
 40
51.0
 40
52.0
 40
52.0
 40
53.0
 40
53.0
 40
54.0
 40
54.0
 40
55.0
 40
55.0
 40
56.0
 40
56.0
 40
57.0
 40
57.0
 40
58.0
 40
58.0
 40
59.0
 40
59.0
 40
60.0
 40
60.0
 40
61.0
 40
61.0
 40
62.0
 40
62.0
 40
63.0
 40
63.0
 40
64.0
 40
64.0
 40
65.0
 40
65.0
 40
66.0
 40
66.0
 40
67.0
 40
67.0
 40
68.0
 40
68.0
 40
69.0
 40
69.0
 40
70.0
 40
70.0
 40
71.0
 40
71.0
 40
72.0
 40
72.0
 40
73.0
 40
73.0
 40
74.0
 40
74.0
 40
75.0
 40
75.0
 40
76.0
 40
76.0
 40
77.0
 40
77.0
 40
78.0
 40
78.0
 40
79.0
 40
79.0
 40
80.0
 40
80.0
 40
81.0
 40
81.0
 40
82.0
 40
82.0
 40
83.0
 40
83.0
 40
84.0
 40
84.0
 40
85.0
 40
85.0
 40
86.0
 40
86.0
 40
87.0
 40
87.0
 40
88.0
 40
88.0
 40
89.0
 40
89.0
 40
90.0
 40
90.0
 40
91.0
 40
91.0
 40
92.0
 40
92.0
 40
93.0
 40
93.0
 40
94.0
 40
94.0
 40
95.0
 40
95.0
 40
96.0
 40
96.0
 40
97.0
 40
97.0
 40
98.0
 40
98.0
 40
99.0
 40
99.0
 40
100.0
 40
100.0
 40
101.0
 40
101.0
 40
102.0
 40
102.0
 40
103.0
 40
103.0
 40
104.0
 40
104.0
 40
105.0
 40
105.0
 40
106.0
 40
106.0
 40
107.0
 40
107.0
 40
108.0
 40
108.0
 40
109.0
 40
109.0
 40
110.0
 40
110.0
 40
111.0
 40
111.0
 40
112.0
 40
112.0
 40
113.0
 40
113.0
 40
114.0
 40
114.0
 40
115.0
 40
115.0
 40
116.0
 40
116.0
 40
117.0
 40
117.0
 40
118.0
 40
118.0
 40
119.0
 40
119.0
 40
120.0
 40
120.0
 40
121.0
 40
121.0
 40
122.0
 40
122.0
 40
123.0
 40
123.0
 40
124.0
 40
124.0
 40
125.0
 40
125.0
 40
126.0
 40
126.0
 40
127.0
 40
127.0
 40
128.0
 40
128.0
 40
129.0
 40
129.0
 40
130.0
 40
130.0
 40
131.0
 40
131.0
 40
132.0
 40
132.0
 40
133.0
 40
133.0
 40
134.0
 40
134.0
 40
135.0
 40
135.0
 40
136.0
 40
136.0
 40
137.0
 40
137.0
 40
138.0
 40
138.0
 40
139.0
 40
139.0
 40
140.0
 40
140.0
 40
141.0
 40
141.0
 40
142.0
 40
142.0
 40
143.0
 40
143.0
 40
144.0
 40
144.0
 40
145.0
 40
145.0
 40
146.0
 40
146.0
 40
147.0
 40
147.0
 40
148.0
 40
148.0
 40
149.0
 40
149.0
 40
150.0
 40
150.0
 40
151.0
 40
151.0
 40
152.0
 40
152.0
 40
153.0
 40
153.0
 40
154.0
 40
154.0
 40
155.0
 40
155.0
 40
156.0
 40
156.0
 40
157.0
 40
157.0
 40
158.0
 40
158.0
 40
159.0
 40
159.0
 40
160.0
 40
160.0
 40
161.0
 40
161.0
 40
162.0
 40
162.0
 40
163.0
 40
163.0
 40
164.0
 40
164.0
 40
165.0
 40
165.0
 40
166.0
 40
166.0
 40
167.0
 40
167.0
 40
168.0
 40
168.0
 40
169.0
 40
169.0
 40
170.0
 40
170.0
 40
171.0
 40
171.0
 40
172.0
 40
172.0
 40
173.0
 40
173.0
 40
174.0
 40
174.0
 40
175.0
 40
175.0
 40
176.0
 40
176.0
 40
177.0
 40
177.0
 40
178.0
 40
178.0
 40
179.0
 40
179.0
 40
180.0
 40
180.0
 40
181.0
 40
181.0
 40
182.0
 40
182.0
 40
183.0
 40
183.0
 40
184.0
 40
184.0
 40
185.0
 40
185.0
 40
186.0
 40
186.0
 40
187.0
 40
187.0
 40
188.0
 40
188.0
 40
189.0
 40
189.0
 40
190.0
 40
190.0
 40
191.0
 40
191.0
 40
191.0
 10
25.289652730232
 20
1.290077783707147
 30
0.0
 10
25.29321472482979
 20
1.290189596334407
 30
0.0
 10
25.29677671942758
 20
1.290301408961668
 30
0.0
 10
25.30034719822293
 20
1.290486851501969
 30
0.0
 10
25.30391767701829
 20
1.290672294042269
 30
0.0
 10
25.30749439673497
 20
1.290931940541353
 30
0.0
 10
25.31107111645166
 20
1.291191587040437
 30
0.0
 10
25.31465179834737
 20
1.29152592170341
 30
0.0
 10
25.31823248024308
 20
1.291860256366383
 30
0.0
 10
25.32181481455597
 20
1.292269671179741
 30
0.0
 10
25.32539714886887
 20
1.292679085993099
 30
0.0
 10
25.32897879944154
 20
1.293163878608524
 30
0.0
 10
25.33256045001422
 20
1.293648671223949
 30
0.0
 10
25.33613905907734
 20
1.294209043118609
 30
0.0
 10
25.33971766814047
 20
1.294769415013268
 30
0.0
 10
25.34329086123678
 20
1.295405469939992
 30
0.0
 10
25.3468640543331
 20
1.296041524866716
 30
0.0
 10
25.35042944536136
 20
1.296753267605874
 30
0.0
 10
25.35399483638962
 20
1.297465010345032
 30
0.0
 10
25.3575500327469
 20
1.298252345768303
 30
0.0
 10
25.36110522910418
 20
1.299039681191573
 30
0.0
 10
25.3646478369041
 20
1.29990241364602
 30
0.0
 10
25.36819044470403
 20
1.300765146100467
 30
0.0
 10
25.37171807404755
 20
1.301702979119493
 30
0.0
 10
25.37524570339108
 20
1.302640812138518
 30
0.0
 10
25.37875597366592
 20
1.303653348484303
 30
0.0
 10
25.38226624394078
 20
1.304665884830088
 30
0.0
 10
25.38575678912529
 20
1.305752626870158
 30
0.0
 10
25.38924733430981
 20
1.306839368910227
 30
0.0
 10
25.39271580825651
 20
1.307999719328701
 30
0.0
 10
25.39618428220322
 20
1.309160069747176
 30
0.0
 10
25.39962836387755
 20
1.310393332589236
 30
0.0
 10
25.40307244555188
 20
1.311626595431296
 30
0.0
 10
25.40648984420159
 20
1.312931977477291
 30
0.0
 10
25.40990724285131
 20
1.314237359523285
 30
0.0
 10
25.4132957030824
 20
1.315613971986883
 30
0.0
 10
25.4166841633135
 20
1.316990584450482
 30
0.0
 10
25.42004147004905
 20
1.318437444993242
 30
0.0
 10
25.4233987767846
 20
1.319884305536002
 30
0.0
 10
25.42672276008371
 20
1.321400340588783
 30
0.0
 10
25.43004674338283
 20
1.322916375641564
 30
0.0
 10
25.43333528309758
 20
1.32450042302133
 30
0.0
 10
25.43662382281234
 20
1.326084470401097
 30
0.0
 10
25.43987485306197
 20
1.327735282209886
 30
0.0
 10
25.4431258833116
 20
1.329386094018675
 30
0.0
 10
25.44633739675419
 20
1.331102339809823
 30
0.0
 10
25.44954891019678
 20
1.332818585600972
 30
0.0
 10
25.45271896208014
 20
1.33459885579617
 30
0.0
 10
25.45588901396351
 20
1.336379125991368
 30
0.0
 10
25.45901572593858
 20
1.338221935530715
 30
0.0
 10
25.46214243791365
 20
1.340064745070063
 30
0.0
 10
25.4652240015952
 20
1.341968537276053
 30
0.0
 10
25.46830556527675
 20
1.343872329482042
 30
0.0
 10
25.47134024553797
 20
1.345835480117332
 30
0.0
 10
25.4743749257992
 20
1.347798630752622
 30
0.0
 10
25.47736106378867
 20
1.349819452250559
 30
0.0
 10
25.48034720177815
 20
1.351840273748496
 30
0.0
 10
25.48328321764932
 20
1.353917019594624
 30
0.0
 10
25.48621923352049
 20
1.355993765440751
 30
0.0
 10
25.4891036288659
 20
1.358124634683005
 30
0.0
 10
25.49198802421131
 20
1.36025550392526
 30
0.0
 10
25.49481938419572
 20
1.362438645790203
 30
0.0
 10
25.49765074418014
 20
1.364621787655146
 30
0.0
 10
25.50042773936853
 20
1.366855306247405
 30
0.0
 10
25.50320473455692
 20
1.369088824839664
 30
0.0
 10
25.50348151093736
 20
1.369320351624347
 30
0.0
 10
25.50375828731781
 20
1.36955187840903
 30
0.0
 10
25.5040323468673
 20
1.36978969123482
 30
0.0
 10
25.50430640641679
 20
1.37002750406061
 30
0.0
 10
25.50457755528515
 20
1.370271577896113
 30
0.0
 10
25.50484870415352
 20
1.370515651731617
 30
0.0
 10
25.5051167474355
 20
1.370765954162655
 30
0.0
 10
25.50538479071749
 20
1.371016256593693
 30
0.0
 10
25.50564953278074
 20
1.37127274768342
 30
0.0
 10
25.50591427484399
 20
1.371529238773148
 30
0.0
 10
25.50617551966956
 20
1.37179187093844
 30
0.0
 10
25.50643676449513
 20
1.372054503103733
 30
0.0
 10
25.50669431602962
 20
1.372323221008915
 30
0.0
 10
25.50695186756412
 20
1.372591938914098
 30
0.0
 10
25.50720553008249
 20
1.372866679383049
 30
0.0
 10
25.50745919260087
 20
1.373141419852
 30
0.0
 10
25.50770877107885
 20
1.373422111799613
 30
0.0
 10
25.50795834955683
 20
1.373702803747227
 30
0.0
 10
25.50820365005186
 20
1.373989368131146
 30
0.0
 10
25.50844895054689
 20
1.374275932515065
 30
0.0
 10
25.50868978058627
 20
1.374568282308527
 30
0.0
 10
25.50893061062566
 20
1.374860632101988
 30
0.0
 10
25.50916677960073
 20
1.375158672288548
 30
0.0
 10
25.5094029485758
 20
1.375456712475109
 30
0.0
 10
25.50963426814052
 20
1.37576034006592
 30
0.0
 10
25.50986558770525
 20
1.376063967656731
 30
0.0
 10
25.51009187217806
 20
1.376373071730936
 30
0.0
 10
25.51031815665087
 20
1.376682175805142
 30
0.0
 10
25.51053922341797
 20
1.37699663757388
 30
0.0
 10
25.51076029018507
 20
1.377311099342619
 30
0.0
 10
25.51097596010375
 20
1.377630792236971
 30
0.0
 10
25.51119163002244
 20
1.377950485131322
 30
0.0
 10
25.51140172782284
 20
1.378275274914464
 30
0.0
 10
25.51161182562324
 20
1.378600064697605
 30
0.0
 10
25.51181618030669
 20
1.378929809601267
 30
0.0
 10
25.51202053499015
 20
1.379259554504928
 30
0.0
 10
25.51221898022265
 20
1.379594105390161
 30
0.0
 10
25.51241742545516
 20
1.379928656275393
 30
0.0
 10
25.5126097999541
 20
1.380267856817492
 30
0.0
 10
25.51280217445305
 20
1.38060705735959
 30
0.0
 10
25.51298832236562
 20
1.380950744256898
 30
0.0
 10
25.5131744702782
 20
1.381294431154206
 30
0.0
 10
25.51335424154965
 20
1.381642434360392
 30
0.0
 10
25.5135340128211
 20
1.381990437566579
 30
0.0
 10
25.51370726355129
 20
1.382342580545831
 30
0.0
 10
25.51388051428148
 20
1.382694723525084
 30
0.0
 10
25.51404710706803
 20
1.383050823529539
 30
0.0
 10
25.51421369985459
 20
1.383406923533994
 30
0.0
 10
25.51437350412105
 20
1.38376679190259
 30
0.0
 10
25.51453330838751
 20
1.384126660271185
 30
0.0
 10
25.51468620069493
 20
1.384490102748976
 30
0.0
 10
25.51483909300236
 20
1.384853545226767
 30
0.0
 10
25.51498495734296
 20
1.385220362303647
 30
0.0
 10
25.51513082168357
 20
1.385587179380527
 30
0.0
 10
25.51526954975494
 20
1.385957166648151
 30
0.0
 10
25.51540827782632
 20
1.386327153915775
 30
0.0
 10
25.51553976928493
 20
1.386700102441386
 30
0.0
 10
25.51567126074356
 20
1.387073050966997
 30
0.0
 10
25.5157954234364
 20
1.387448747682737
 30
0.0
 10
25.51591958612925
 20
1.387824444398477
 30
0.0
 10
25.5160363363025
 20
1.388202672504691
 30
0.0
 10
25.51615308647575
 20
1.388580900610904
 30
0.0
 10
25.51626234895941
 20
1.388961439991828
 30
0.0
 10
25.51637161144307
 20
1.389341979372751
 30
0.0
 10
25.51647331981092
 20
1.389724607022925
 30
0.0
 10
25.51657502817878
 20
1.390107234673098
 30
0.0
 10
25.51666912488276
 20
1.390491725132774
 30
0.0
 10
25.51676322158675
 20
1.39087621559245
 30
0.0
 10
25.51684965806528
 20
1.391262341390205
 30
0.0
 10
25.51693609454382
 20
1.391648467187961
 30
0.0
 10
25.51701483130362
 20
1.392035999288695
 30
0.0
 10
25.51709356806342
 20
1.39242353138943
 30
0.0
 10
25.51716457473455
 20
1.392812239645898
 30
0.0
 10
25.51723558140569
 20
1.393200947902365
 30
0.0
 10
25.5172988367697
 20
1.393590601508374
 30
0.0
 10
25.51736209213371
 20
1.393980255114383
 30
0.0
 10
25.51741758412483
 20
1.394370623057808
 30
0.0
 10
25.51747307611595
 20
1.394760991001234
 30
0.0
 10
25.51752080179559
 20
1.395151842514978
 30
0.0
 10
25.51756852747523
 20
1.395542694028721
 30
0.0
 10
25.51760849298003
 20
1.395933799037806
 30
0.0
 10
25.51764845848483
 20
1.396324904046891
 30
0.0
 10
25.5176806789487
 20
1.396716033609895
 30
0.0
 10
25.51771289941258
 20
1.3971071631729
 30
0.0
 10
25.51773739886334
 20
1.397498089915995
 30
0.0
 10
25.51776189831411
 20
1.397889016659091
 30
0.0
 10
25.51777870954542
 20
1.398279515201006
 30
0.0
 10
25.51779552077675
 20
1.398670013742922
 30
0.0
 10
25.51780468519624
 20
1.399059861109235
 30
0.0
 10
25.51781384961573
 20
1.399449708475548
 30
0.0
 10
25.51781541707006
 20
1.399838684500772
 30
0.0
 10
25.5178169845244
 20
1.400227660525996
 30
0.0
 10
25.51781101310265
 20
1.400615548242047
 30
0.0
 10
25.5178050416809
 20
1.401003435958097
 30
0.0
 10
25.51779159749714
 20
1.401390021967789
 30
0.0
 10
25.51777815331338
 20
1.40177660797748
 30
0.0
 10
25.51775731026979
 20
1.402161682811843
 30
0.0
 10
25.5177364672262
 20
1.402546757646206
 30
0.0
 10
25.51770830675813
 20
1.402930116104505
 30
0.0
 10
25.51768014629006
 20
1.403313474562803
 30
0.0
 10
25.51764475709422
 20
1.403694916034255
 30
0.0
 10
25.51760936789838
 20
1.404076357505707
 30
0.0
 10
25.51756684564583
 20
1.404455686272037
 30
0.0
 10
25.51752432339328
 20
1.404835015038366
 30
0.0
 10
25.51747477042851
 20
1.40521204055643
 30
0.0
 10
25.51742521746375
 20
1.405589066074495
 30
0.0
 10
25.51736874249148
 20
1.405963603238363
 30
0.0
 10
25.51731226751923
 20
1.406338140402231
 30
0.0
 10
25.51724898528049
 20
1.406710009784208
 30
0.0
 10
25.51718570304176
 20
1.407081879166185
 30
0.0
 10
25.51711573398062
 20
1.407450907236405
 30
0.0
 10
25.51704576491949
 20
1.407819935306625
 30
0.0
 10
25.51696923484224
 20
1.408185954630955
 30
0.0
 10
25.516892704765
 20
1.408551973955285
 30
0.0
 10
25.51680974449314
 20
1.408914823371407
 30
0.0
 10
25.51672678422129
 20
1.40927767278753
 30
0.0
 10
25.5166375292399
 20
1.409637197559182
 30
0.0
 10
25.51654827425851
 20
1.409996722330834
 30
0.0
 10
25.51645286436149
 20
1.410352774280291
 30
0.0
 10
25.51635745446447
 20
1.410708826229747
 30
0.0
 10
25.51625603339809
 20
1.411061263848759
 30
0.0
 10
25.51615461233172
 20
1.411413701467771
 30
0.0
 10
25.51604732743795
 20
1.411762390007248
 30
0.0
 10
25.51594004254418
 20
1.412111078546726
 30
0.0
 10
25.51582704440498
 20
1.412455890085564
 30
0.0
 10
25.51571404626579
 20
1.412800701624403
 30
0.0
 10
25.51559548834989
 20
1.413141515117938
 30
0.0
 10
25.51547693043399
 20
1.413482328611472
 30
0.0
 10
25.51535224299154
 20
1.413820947657737
 30
0.0
 10
25.5152275555491
 20
1.414159566704002
 30
0.0
 10
25.51509603416856
 20
1.41449774669046
 30
0.0
 10
25.51496451278804
 20
1.414835926676919
 30
0.0
 10
25.51482611569643
 20
1.415173476659926
 30
0.0
 10
25.51468771860482
 20
1.415511026642932
 30
0.0
 10
25.51454241062425
 20
1.415847752197032
 30
0.0
 10
25.51439710264369
 20
1.416184477751132
 30
0.0
 10
25.51424485543369
 20
1.416520181230721
 30
0.0
 10
25.51409260822369
 20
1.41685588471031
 30
0.0
 10
25.51393340051229
 20
1.417190365528542
 30
0.0
 10
25.5137741928009
 20
1.417524846346775
 30
0.0
 10
25.51360801060342
 20
1.41785790127127
 30
0.0
 10
25.51344182840595
 20
1.418190956195765
 30
0.0
 10
25.51326866523003
 20
1.418522379660555
 30
0.0
 10
25.51309550205412
 20
1.418853803125346
 30
0.0
 10
25.51291535908978
 20
1.419183387558419
 30
0.0
 10
25.51273521612544
 20
1.419512971991492
 30
0.0
 10
25.51254810241889
 20
1.419840508157149
 30
0.0
 10
25.51236098871234
 20
1.420168044322806
 30
0.0
 10
25.51216692132243
 20
1.420493321677968
 30
0.0
 10
25.51197285393251
 20
1.420818599033131
 30
0.0
 10
25.5117718580685
 20
1.421141406096622
 30
0.0
 10
25.51157086220449
 20
1.421464213160113
 30
0.0
 10
25.51136297134419
 20
1.42178433789382
 30
0.0
 10
25.51115508048389
 20
1.422104462627527
 30
0.0
 10
25.51094033647103
 20
1.422421692828277
 30
0.0
 10
25.51072559245818
 20
1.422738923029028
 30
0.0
 10
25.51050404557812
 20
1.423053046729899
 30
0.0
 10
25.51028249869807
 20
1.423367170430771
 30
0.0
 10
25.51005420773093
 20
1.423677976310462
 30
0.0
 10
25.5098259167638
 20
1.423988782190153
 30
0.0
 10
25.50959094901428
 20
1.424296059988983
 30
0.0
 10
25.50935598126476
 20
1.424603337787813
 30
0.0
 10
25.50911441256795
 20
1.424906878728812
 30
0.0
 10
25.50887284387114
 20
1.425210419669811
 30
0.0
 10
25.50862475857377
 20
1.425510016883317
 30
0.0
 10
25.5083766732764
 20
1.425809614096823
 30
0.0
 10
25.5081221641931
 20
1.426105063046935
 30
0.0
 10
25.5078676551098
 20
1.426400511997048
 30
0.0
 10
25.50760682345405
 20
1.42669161090824
 30
0.0
 10
25.50734599179831
 20
1.426982709819432
 30
0.0
 10
25.5070789470879
 20
1.427269260101581
 30
0.0
 10
25.5068119023775
 20
1.427555810383729
 30
0.0
 10
25.50653876231444
 20
1.427837617053812
 30
0.0
 10
25.50626562225139
 20
1.428119423723895
 30
0.0
 10
25.50598651257638
 20
1.428396295822566
 30
0.0
 10
25.50570740290137
 20
1.428673167921236
 30
0.0
 10
25.50542245722303
 20
1.428944918922505
 30
0.0
 10
25.5051375115447
 20
1.429216669923774
 30
0.0
 10
25.50484687114399
 20
1.429483118136025
 30
0.0
 10
25.50455623074329
 20
1.429749566348276
 30
0.0
 10
25.50426004435358
 20
1.43001053530487
 30
0.0
 10
25.50396385796388
 20
1.430271504261463
 30
0.0
 10
25.50366228152733
 20
1.430526823099213
 30
0.0
 10
25.50336070509078
 20
1.430782141936962
 30
0.0
 10
25.50305390149184
 20
1.431031645760828
 30
0.0
 10
25.50274709789291
 20
1.431281149584694
 30
0.0
 10
25.50243523666988
 20
1.431524679817079
 30
0.0
 10
25.50212337544686
 20
1.431768210049464
 30
0.0
 10
25.5018066324825
 20
1.432005614762588
 30
0.0
 10
25.50148988951814
 20
1.432243019475712
 30
0.0
 10
25.50116844671057
 20
1.432474153705611
 30
0.0
 10
25.50084700390301
 20
1.43270528793551
 30
0.0
 10
25.50052104881813
 20
1.432930013976307
 30
0.0
 10
25.50019509373325
 20
1.433154740017105
 30
0.0
 10
25.49986481924013
 20
1.433372927694303
 30
0.0
 10
25.49953454474702
 20
1.4335911153715
 30
0.0
 10
25.4992001486377
 20
1.43380264229315
 30
0.0
 10
25.49886575252838
 20
1.434014169214801
 30
0.0
 10
25.49852743712363
 20
1.43421892099955
 30
0.0
 10
25.49818912171889
 20
1.434423672784298
 30
0.0
 10
25.49784709346171
 20
1.434621543265394
 30
0.0
 10
25.49750506520455
 20
1.434819413746491
 30
0.0
 10
25.49715953424295
 20
1.43501030515103
 30
0.0
 10
25.49681400328135
 20
1.43520119655557
 30
0.0
 10
25.49646518304222
 20
1.435385019658336
 30
0.0
 10
25.4961163628031
 20
1.435568842761101
 30
0.0
 10
25.4957644695591
 20
1.435745517012543
 30
0.0
 10
25.49541257631511
 20
1.435922191263985
 30
0.0
 10
25.49505782874618
 20
1.436091644892002
 30
0.0
 10
25.49470308117726
 20
1.436261098520019
 30
0.0
 10
25.49434569992878
 20
1.436423268605362
 30
0.0
 10
25.4939883186803
 20
1.436585438690705
 30
0.0
 10
25.49362852591956
 20
1.436740271215963
 30
0.0
 10
25.49326873315882
 20
1.436895103741221
 30
0.0
 10
25.49290675213183
 20
1.437042553613491
 30
0.0
 10
25.49254477110484
 20
1.437190003485761
 30
0.0
 10
25.49218082569499
 20
1.43733003453326
 30
0.0
 10
25.49181688028516
 20
1.437470065580759
 30
0.0
 10
25.49145119457583
 20
1.437602650523737
 30
0.0
 10
25.4910855088665
 20
1.437735235466715
 30
0.0
 10
25.49071830670893
 20
1.437860355863212
 30
0.0
 10
25.49035110455136
 20
1.437985476259709
 30
0.0
 10
25.4899826091398
 20
1.438103122426766
 30
0.0
 10
25.48961411372824
 20
1.438220768593822
 30
0.0
 10
25.48924454718366
 20
1.438330939504924
 30
0.0
 10
25.48887498063908
 20
1.438441110416026
 30
0.0
 10
25.48850456360313
 20
1.438543813575635
 30
0.0
 10
25.48813414656719
 20
1.438646516735245
 30
0.0
 10
25.48776309780771
 20
1.438741768031394
 30
0.0
 10
25.48739204904824
 20
1.438837019327544
 30
0.0
 10
25.48702058507764
 20
1.438924842863553
 30
0.0
 10
25.48664912110705
 20
1.439012666399562
 30
0.0
 10
25.48627745581481
 20
1.439093094306017
 30
0.0
 10
25.48590579052258
 20
1.439173522212473
 30
0.0
 10
25.48553413482294
 20
1.439246594440698
 30
0.0
 10
25.48516247912331
 20
1.439319666668922
 30
0.0
 10
25.48479104061915
 20
1.4393854307672
 30
0.0
 10
25.484419602115
 20
1.439451194865479
 30
0.0
 10
25.4840485847788
 20
1.43950970573938
 30
0.0
 10
25.4836775674426
 20
1.439568216613282
 30
0.0
 10
25.4833071713152
 20
1.439619536271444
 30
0.0
 10
25.4829367751878
 20
1.439670855929606
 30
0.0
 10
25.48256719609568
 20
1.439715053216386
 30
0.0
 10
25.48219761700357
 20
1.439759250503166
 30
0.0
 10
25.48182904629512
 20
1.43979640081958
 30
0.0
 10
25.48146047558668
 20
1.439833551135993
 30
0.0
 10
25.48109309988788
 20
1.439863736150374
 30
0.0
 10
25.48072572418908
 20
1.439893921164756
 30
0.0
 10
25.48035972517891
 20
1.439917228514568
 30
0.0
 10
25.47999372616874
 20
1.43994053586438
 30
0.0
 10
25.47962928037452
 20
1.439957058850601
 30
0.0
 10
25.47926483458031
 20
1.439973581836823
 30
0.0
 10
25.47890211319303
 20
1.439983419112315
 30
0.0
 10
25.47853939180576
 20
1.439993256387808
 30
0.0
 10
25.45318376096219
 20
1.440001713702821
 30
0.0
 10
25.42782813011863
 20
1.440010171017834
 30
0.0
 10
25.42750601451824
 20
1.440025680228141
 30
0.0
 10
25.42718389891785
 20
1.440041189438448
 30
0.0
 10
25.42685995067959
 20
1.440067319463139
 30
0.0
 10
25.42653600244134
 20
1.440093449487829
 30
0.0
 10
25.42621072638311
 20
1.440130398150689
 30
0.0
 10
25.42588545032488
 20
1.440167346813549
 30
0.0
 10
25.4255593706335
 20
1.440215281017605
 30
0.0
 10
25.42523329094213
 20
1.44026321522166
 30
0.0
 10
25.42490694887783
 20
1.4403222688983
 30
0.0
 10
25.42458060681353
 20
1.44038132257494
 30
0.0
 10
25.42425455817305
 20
1.440451594831651
 30
0.0
 10
25.42392850953258
 20
1.440521867088361
 30
0.0
 10
25.42360332189057
 20
1.440603420586664
 30
0.0
 10
25.42327813424858
 20
1.440684974084966
 30
0.0
 10
25.42295438400128
 20
1.440777833678009
 30
0.0
 10
25.42263063375398
 20
1.440870693271053
 30
0.0
 10
25.42230890299346
 20
1.440974844927474
 30
0.0
 10
25.42198717223294
 20
1.441078996583894
 30
0.0
 10
25.42166804548443
 20
1.441194386621001
 30
0.0
 10
25.42134891873593
 20
1.441309776658108
 30
0.0
 10
25.42103297959389
 20
1.441436311303265
 30
0.0
 10
25.42071704045185
 20
1.441562845948422
 30
0.0
 10
25.42040486815339
 20
1.441700391242739
 30
0.0
 10
25.42009269585493
 20
1.441837936537056
 30
0.0
 10
25.41978486183129
 20
1.441986318590289
 30
0.0
 10
25.41947702780765
 20
1.442134700643522
 30
0.0
 10
25.41917409225585
 20
1.442293706243529
 30
0.0
 10
25.41887115670406
 20
1.442452711843536
 30
0.0
 10
25.41857366522111
 20
1.442622089417875
 30
0.0
 10
25.41827617373816
 20
1.442791466992214
 30
0.0
 10
25.41798465405995
 20
1.442970927913669
 30
0.0
 10
25.41769313438174
 20
1.443150388835124
 30
0.0
 10
25.41740809326728
 20
1.443339609057213
 30
0.0
 10
25.41712305215283
 20
1.443528829279301
 30
0.0
 10
25.41684497245251
 20
1.443727451282371
 30
0.0
 10
25.41656689275219
 20
1.443926073285442
 30
0.0
 10
25.41629623069544
 20
1.444133708308873
 30
0.0
 10
25.4160255686387
 20
1.444341343332305
 30
0.0
 10
25.41576275137301
 20
1.444557573863795
 30
0.0
 10
25.41549993410732
 20
1.444773804395285
 30
0.0
 10
25.41524535751589
 20
1.44499818688429
 30
0.0
 10
25.41499078092446
 20
1.445222569373296
 30
0.0
 10
25.41474480774518
 20
1.445454637132529
 30
0.0
 10
25.4144988345659
 20
1.445686704891761
 30
0.0
 10
25.41426179282877
 20
1.445925971148277
 30
0.0
 10
25.41402475109164
 20
1.446165237404793
 30
0.0
 10
25.41379693288654
 20
1.44641119846069
 30
0.0
 10
25.41356911468145
 20
1.446657159516587
 30
0.0
 10
25.41335077526229
 20
1.446909297978675
 30
0.0
 10
25.41313243584314
 20
1.447161436440763
 30
0.0
 10
25.41292379306919
 20
1.447419224478766
 30
0.0
 10
25.41271515029524
 20
1.447677012516769
 30
0.0
 10
25.41251638440484
 20
1.447939915110629
 30
0.0
 10
25.41231761851445
 20
1.448202817704489
 30
0.0
 10
25.41212887222144
 20
1.448470295843079
 30
0.0
 10
25.41194012592844
 20
1.448737773981669
 30
0.0
 10
25.41176150482713
 20
1.449009287777679
 30
0.0
 10
25.41158288372583
 20
1.44928080157369
 30
0.0
 10
25.41141445698601
 20
1.449555813262416
 30
0.0
 10
25.41124603024619
 20
1.449830824951142
 30
0.0
 10
25.39748979859234
 20
1.474915328141515
 30
0.0
 10
25.38373356693849
 20
1.499999831331888
 30
0.0
  0
SPLINE
  5
4A
330
1F
100
AcDbEntity
  8
DEFAULT
100
AcDbSpline
210
0.0
220
0.0
230
1.0
 70
     8
 71
     2
 72
   260
 73
   257
 74
     0
 42
0.0000000001
 43
0.0000000001
 40
0.0
 40
0.0
 40
0.0
 40
1.0
 40
1.0
 40
2.0
 40
2.0
 40
3.0
 40
3.0
 40
4.0
 40
4.0
 40
5.0
 40
5.0
 40
6.0
 40
6.0
 40
7.0
 40
7.0
 40
8.0
 40
8.0
 40
9.0
 40
9.0
 40
10.0
 40
10.0
 40
11.0
 40
11.0
 40
12.0
 40
12.0
 40
13.0
 40
13.0
 40
14.0
 40
14.0
 40
15.0
 40
15.0
 40
16.0
 40
16.0
 40
17.0
 40
17.0
 40
18.0
 40
18.0
 40
19.0
 40
19.0
 40
20.0
 40
20.0
 40
21.0
 40
21.0
 40
22.0
 40
22.0
 40
23.0
 40
23.0
 40
24.0
 40
24.0
 40
25.0
 40
25.0
 40
26.0
 40
26.0
 40
27.0
 40
27.0
 40
28.0
 40
28.0
 40
29.0
 40
29.0
 40
30.0
 40
30.0
 40
31.0
 40
31.0
 40
32.0
 40
32.0
 40
33.0
 40
33.0
 40
34.0
 40
34.0
 40
35.0
 40
35.0
 40
36.0
 40
36.0
 40
37.0
 40
37.0
 40
38.0
 40
38.0
 40
39.0
 40
39.0
 40
40.0
 40
40.0
 40
41.0
 40
41.0
 40
42.0
 40
42.0
 40
43.0
 40
43.0
 40
44.0
 40
44.0
 40
45.0
 40
45.0
 40
46.0
 40
46.0
 40
47.0
 40
47.0
 40
48.0
 40
48.0
 40
49.0
 40
49.0
 40
50.0
 40
50.0
 40
51.0
 40
51.0
 40
52.0
 40
52.0
 40
53.0
 40
53.0
 40
54.0
 40
54.0
 40
55.0
 40
55.0
 40
56.0
 40
56.0
 40
57.0
 40
57.0
 40
58.0
 40
58.0
 40
59.0
 40
59.0
 40
60.0
 40
60.0
 40
61.0
 40
61.0
 40
62.0
 40
62.0
 40
63.0
 40
63.0
 40
64.0
 40
64.0
 40
65.0
 40
65.0
 40
66.0
 40
66.0
 40
67.0
 40
67.0
 40
68.0
 40
68.0
 40
69.0
 40
69.0
 40
70.0
 40
70.0
 40
71.0
 40
71.0
 40
72.0
 40
72.0
 40
73.0
 40
73.0
 40
74.0
 40
74.0
 40
75.0
 40
75.0
 40
76.0
 40
76.0
 40
77.0
 40
77.0
 40
78.0
 40
78.0
 40
79.0
 40
79.0
 40
80.0
 40
80.0
 40
81.0
 40
81.0
 40
82.0
 40
82.0
 40
83.0
 40
83.0
 40
84.0
 40
84.0
 40
85.0
 40
85.0
 40
86.0
 40
86.0
 40
87.0
 40
87.0
 40
88.0
 40
88.0
 40
89.0
 40
89.0
 40
90.0
 40
90.0
 40
91.0
 40
91.0
 40
92.0
 40
92.0
 40
93.0
 40
93.0
 40
94.0
 40
94.0
 40
95.0
 40
95.0
 40
96.0
 40
96.0
 40
97.0
 40
97.0
 40
98.0
 40
98.0
 40
99.0
 40
99.0
 40
100.0
 40
100.0
 40
101.0
 40
101.0
 40
102.0
 40
102.0
 40
103.0
 40
103.0
 40
104.0
 40
104.0
 40
105.0
 40
105.0
 40
106.0
 40
106.0
 40
107.0
 40
107.0
 40
108.0
 40
108.0
 40
109.0
 40
109.0
 40
110.0
 40
110.0
 40
111.0
 40
111.0
 40
112.0
 40
112.0
 40
113.0
 40
113.0
 40
114.0
 40
114.0
 40
115.0
 40
115.0
 40
116.0
 40
116.0
 40
117.0
 40
117.0
 40
118.0
 40
118.0
 40
119.0
 40
119.0
 40
120.0
 40
120.0
 40
121.0
 40
121.0
 40
122.0
 40
122.0
 40
123.0
 40
123.0
 40
124.0
 40
124.0
 40
125.0
 40
125.0
 40
126.0
 40
126.0
 40
127.0
 40
127.0
 40
128.0
 40
128.0
 40
128.0
 10
22.79512272922499
 20
1.499999831331888
 30
0.0
 10
22.8116762732616
 20
0.8689920003863933
 30
0.0
 10
22.82822981729821
 20
0.2379841694408986
 30
0.0
 10
22.82839300510933
 20
0.2352274593522504
 30
0.0
 10
22.82855619292046
 20
0.2324707492636022
 30
0.0
 10
22.82878240216109
 20
0.2296949655405394
 30
0.0
 10
22.82900861140173
 20
0.2269191818174767
 30
0.0
 10
22.82929924594484
 20
0.2241262271385486
 30
0.0
 10
22.82958988048796
 20
0.2213332724596206
 30
0.0
 10
22.82994627958935
 20
0.2185251430156548
 30
0.0
 10
22.83030267869074
 20
0.2157170135716891
 30
0.0
 10
22.83072611041045
 20
0.2128957971340575
 30
0.0
 10
22.83114954213016
 20
0.210074580696426
 30
0.0
 10
22.83164119674294
 20
0.207242454187289
 30
0.0
 10
22.83213285135573
 20
0.2044103276781519
 30
0.0
 10
22.83269383479091
 20
0.2015695542294334
 30
0.0
 10
22.83325481822609
 20
0.1987287807807149
 30
0.0
 10
22.83388614557925
 20
0.1958817062719709
 30
0.0
 10
22.83451747293241
 20
0.1930346317632268
 30
0.0
 10
22.83522006209371
 20
0.1901836808323227
 30
0.0
 10
22.83592265125501
 20
0.1873327299014186
 30
0.0
 10
22.8366973167004
 20
0.1844804014260171
 30
0.0
 10
22.8374719821458
 20
0.1816280729506156
 30
0.0
 10
22.83831942893885
 20
0.1787769350028495
 30
0.0
 10
22.8391668757319
 20
0.1759257970550835
 30
0.0
 10
22.84008769378468
 20
0.1730784813364257
 30
0.0
 10
22.84100851183747
 20
0.170231165617768
 30
0.0
 10
22.8420031704796
 20
0.1673903613859505
 30
0.0
 10
22.84299782912174
 20
0.1645495571541329
 30
0.0
 10
22.84406667202628
 20
0.1617180046589714
 30
0.0
 10
22.84513551493082
 20
0.1588864521638099
 30
0.0
 10
22.84627875544517
 20
0.1560669356138879
 30
0.0
 10
22.84742199595952
 20
0.1532474190639659
 30
0.0
 10
22.84863971288826
 20
0.1504427591512645
 30
0.0
 10
22.849857429817
 20
0.1476380992385632
 30
0.0
 10
22.85114956370169
 20
0.1448511452532171
 30
0.0
 10
22.85244169758639
 20
0.1420641912678711
 30
0.0
 10
22.85380804752487
 20
0.139297812840213
 30
0.0
 10
22.85517439746336
 20
0.1365314344125549
 30
0.0
 10
22.85661461850819
 20
0.1337885129244039
 30
0.0
 10
22.85805483955303
 20
0.1310455914362528
 30
0.0
 10
22.85956844072488
 20
0.1283290111479309
 30
0.0
 10
22.86108204189674
 20
0.1256124308596089
 30
0.0
 10
22.86266838484454
 20
0.1229250698033501
 30
0.0
 10
22.86425472779235
 20
0.1202377087470912
 30
0.0
 10
22.86591302612711
 20
0.1175824294412727
 30
0.0
 10
22.86757132446188
 20
0.1149271501354542
 30
0.0
 10
22.86930064378607
 20
0.1123067901773532
 30
0.0
 10
22.87102996311026
 20
0.1096864302192522
 30
0.0
 10
22.87282922175887
 20
0.1071037928167448
 30
0.0
 10
22.87462848040749
 20
0.1045211554142374
 30
0.0
 10
22.876496450911
 20
0.1019789999189593
 30
0.0
 10
22.87836442141452
 20
0.0994368444236813
 30
0.0
 10
22.88029973268765
 20
0.0969378769296025
 30
0.0
 10
22.88223504396079
 20
0.0944389094355237
 30
0.0
 10
22.88423618421458
 20
0.0919857735076176
 30
0.0
 10
22.88623732446837
 20
0.0895326375797116
 30
0.0
 10
22.88830264483645
 20
0.0871279051773936
 30
0.0
 10
22.89036796520454
 20
0.0847231727750756
 30
0.0
 10
22.89249568406787
 20
0.0823693354343266
 30
0.0
 10
22.8946234029312
 20
0.0800154980935777
 30
0.0
 10
22.8968116109191
 20
0.0777149584301567
 30
0.0
 10
22.898999818907
 20
0.0754144187667356
 30
0.0
 10
22.90124648454589
 20
0.073169482360626
 30
0.0
 10
22.90349315018478
 20
0.0709245459545163
 30
0.0
 10
22.90579612616004
 20
0.0687374136727737
 30
0.0
 10
22.90809910213531
 20
0.0665502813910311
 30
0.0
 10
22.91045613212582
 20
0.064423042202531
 30
0.0
 10
22.91281316211634
 20
0.062295803014031
 30
0.0
 10
22.91522188815621
 20
0.0602304273453169
 30
0.0
 10
22.91763061419608
 20
0.0581650516766028
 30
0.0
 10
22.92008858451305
 20
0.0561633853531523
 30
0.0
 10
22.92254655483003
 20
0.0541617190297018
 30
0.0
 10
22.92505123210613
 20
0.0522254778415479
 30
0.0
 10
22.92755590938223
 20
0.050289236653394
 30
0.0
 10
22.93010467937854
 20
0.0484200015782233
 30
0.0
 10
22.93265344937486
 20
0.0465507665030527
 30
0.0
 10
22.93524362985959
 20
0.0447499796137544
 30
0.0
 10
22.93783381034433
 20
0.0429491927244562
 30
0.0
 10
22.94046266026118
 20
0.0412181538016934
 30
0.0
 10
22.94309151017804
 20
0.0394871148789305
 30
0.0
 10
22.94575623899058
 20
0.0378269787427533
 30
0.0
 10
22.94842096780313
 20
0.0361668426065762
 30
0.0
 10
22.95111874495031
 20
0.0345786171744875
 30
0.0
 10
22.95381652209749
 20
0.0329903917423988
 30
0.0
 10
22.95654448649551
 20
0.0314749368147059
 30
0.0
 10
22.95927245089353
 20
0.0299594818870129
 30
0.0
 10
22.96202772042032
 20
0.0285175086538629
 30
0.0
 10
22.96478298994711
 20
0.0270755354207129
 30
0.0
 10
22.96756267084708
 20
0.0257076066789815
 30
0.0
 10
22.97034235174706
 20
0.0243396779372501
 30
0.0
 10
22.97314354789631
 20
0.0230462089995299
 30
0.0
 10
22.97594474404556
 20
0.0217527400618097
 30
0.0
 10
22.97876456602021
 20
0.0205340003341968
 30
0.0
 10
22.98158438799486
 20
0.0193152606065838
 30
0.0
 10
22.98441996188905
 20
0.0181713758068453
 30
0.0
 10
22.98725553578324
 20
0.0170274910071068
 30
0.0
 10
22.99010401172674
 20
0.0159584459901956
 30
0.0
 10
22.99295248767025
 20
0.0148894009732845
 30
0.0
 10
22.99581104800041
 20
0.013895043127084
 30
0.0
 10
22.99866960833057
 20
0.0129006852808835
 30
0.0
 10
23.00153547537739
 20
0.0119807284515532
 30
0.0
 10
23.00440134242421
 20
0.0110607716222228
 30
0.0
 10
23.00727178587282
 20
0.0102148005255956
 30
0.0
 10
23.01014222932144
 20
0.0093688294289684
 30
0.0
 10
23.01301457312079
 20
0.0085963045021351
 30
0.0
 10
23.01588691692014
 20
0.0078237795753019
 30
0.0
 10
23.01875854571206
 20
0.0071240422208025
 30
0.0
 10
23.02163017450399
 20
0.0064243048663032
 30
0.0
 10
23.02449853955207
 20
0.0057965830402292
 30
0.0
 10
23.02736690460016
 20
0.0051688612141553
 30
0.0
 10
23.03022952920273
 20
0.0046122753089214
 30
0.0
 10
23.03309215380531
 20
0.0040556894036875
 30
0.0
 10
23.03594663818204
 20
0.0035692583762401
 30
0.0
 10
23.03880112255878
 20
0.0030828273487927
 30
0.0
 10
23.04164514820511
 20
0.0026654750455422
 30
0.0
 10
23.04448917385145
 20
0.0022481227422917
 30
0.0
 10
23.04732050735976
 20
0.0018986843730548
 30
0.0
 10
23.05015184086809
 20
0.0015492460038179
 30
0.0
 10
23.05296833721882
 20
0.0012664747184856
 30
0.0
 10
23.05578483356956
 20
0.0009837034331533
 30
0.0
 10
23.05858443889951
 20
0.0007662769566136
 30
0.0
 10
23.06138404422947
 20
0.0005488504800739
 30
0.0
 10
23.06416479808821
 20
0.0003953777630666
 30
0.0
 10
23.06694555194695
 20
0.0002419050460593
 30
0.0
 10
23.06970558905571
 20
0.0001509328920695
 30
0.0
 10
23.07246562616448
 20
0.0000599607380797
 30
0.0
 10
24.04238517769472
 20
0.00002998036904
 30
0.0
 10
25.01230472922497
 20
0.0000000000000003
 30
0.0
 10
25.01504228075522
 20
0.0000299803690404
 30
0.0
 10
25.01777983228547
 20
0.0000599607380806
 30
0.0
 10
25.02053986939423
 20
0.0001509328920704
 30
0.0
 10
25.023299906503
 20
0.0002419050460601
 30
0.0
 10
25.02608066036174
 20
0.0003953777630674
 30
0.0
 10
25.02886141422048
 20
0.0005488504800746
 30
0.0
 10
25.03166101955043
 20
0.0007662769566143
 30
0.0
 10
25.03446062488038
 20
0.0009837034331539
 30
0.0
 10
25.03727712123112
 20
0.0012664747184862
 30
0.0
 10
25.04009361758187
 20
0.0015492460038185
 30
0.0
 10
25.04292495109018
 20
0.0018986843730553
 30
0.0
 10
25.0457562845985
 20
0.0022481227422922
 30
0.0
 10
25.04860031024483
 20
0.0026654750455427
 30
0.0
 10
25.05144433589117
 20
0.0030828273487932
 30
0.0
 10
25.0542988202679
 20
0.0035692583762406
 30
0.0
 10
25.05715330464464
 20
0.0040556894036879
 30
0.0
 10
25.06001592924721
 20
0.0046122753089218
 30
0.0
 10
25.0628785538498
 20
0.0051688612141556
 30
0.0
 10
25.06574691889788
 20
0.0057965830402295
 30
0.0
 10
25.06861528394597
 20
0.0064243048663035
 30
0.0
 10
25.07148691273789
 20
0.0071240422208027
 30
0.0
 10
25.07435854152981
 20
0.007823779575302
 30
0.0
 10
25.07723088532916
 20
0.0085963045021352
 30
0.0
 10
25.08010322912851
 20
0.0093688294289685
 30
0.0
 10
25.08297367257712
 20
0.0102148005255956
 30
0.0
 10
25.08584411602574
 20
0.0110607716222228
 30
0.0
 10
25.08870998307255
 20
0.0119807284515532
 30
0.0
 10
25.09157585011938
 20
0.0129006852808835
 30
0.0
 10
25.09443441044954
 20
0.0138950431270839
 30
0.0
 10
25.0972929707797
 20
0.0148894009732843
 30
0.0
 10
25.10014144672321
 20
0.0159584459901954
 30
0.0
 10
25.10298992266672
 20
0.0170274910071066
 30
0.0
 10
25.1058254965609
 20
0.0181713758068451
 30
0.0
 10
25.10866107045509
 20
0.0193152606065836
 30
0.0
 10
25.11148089242974
 20
0.0205340003341965
 30
0.0
 10
25.1143007144044
 20
0.0217527400618093
 30
0.0
 10
25.11710191055365
 20
0.0230462089995295
 30
0.0
 10
25.1199031067029
 20
0.0243396779372497
 30
0.0
 10
25.12268278760287
 20
0.0257076066789811
 30
0.0
 10
25.12546246850285
 20
0.0270755354207125
 30
0.0
 10
25.12821773802963
 20
0.0285175086538624
 30
0.0
 10
25.13097300755642
 20
0.0299594818870123
 30
0.0
 10
25.13370097195444
 20
0.0314749368147052
 30
0.0
 10
25.13642893635246
 20
0.0329903917423982
 30
0.0
 10
25.13912671349964
 20
0.0345786171744869
 30
0.0
 10
25.14182449064683
 20
0.0361668426065756
 30
0.0
 10
25.14448921945937
 20
0.0378269787427526
 30
0.0
 10
25.14715394827191
 20
0.0394871148789297
 30
0.0
 10
25.14978279818876
 20
0.0412181538016926
 30
0.0
 10
25.15241164810561
 20
0.0429491927244554
 30
0.0
 10
25.15500182859034
 20
0.0447499796137536
 30
0.0
 10
25.15759200907508
 20
0.0465507665030518
 30
0.0
 10
25.1601407790714
 20
0.0484200015782224
 30
0.0
 10
25.16268954906772
 20
0.0502892366533931
 30
0.0
 10
25.16519422634382
 20
0.0522254778415469
 30
0.0
 10
25.16769890361992
 20
0.0541617190297008
 30
0.0
 10
25.1701568739369
 20
0.0561633853531513
 30
0.0
 10
25.17261484425388
 20
0.0581650516766017
 30
0.0
 10
25.17502357029375
 20
0.0602304273453158
 30
0.0
 10
25.17743229633362
 20
0.0622958030140298
 30
0.0
 10
25.17978932632413
 20
0.0644230422025298
 30
0.0
 10
25.18214635631465
 20
0.0665502813910298
 30
0.0
 10
25.18444933228991
 20
0.0687374136727724
 30
0.0
 10
25.18675230826517
 20
0.0709245459545151
 30
0.0
 10
25.18899897390406
 20
0.0731694823606246
 30
0.0
 10
25.19124563954296
 20
0.0754144187667342
 30
0.0
 10
25.19343384753086
 20
0.0777149584301552
 30
0.0
 10
25.19562205551876
 20
0.0800154980935763
 30
0.0
 10
25.19774977438209
 20
0.0823693354343253
 30
0.0
 10
25.19987749324542
 20
0.0847231727750742
 30
0.0
 10
25.2019428136135
 20
0.0871279051773921
 30
0.0
 10
25.20400813398158
 20
0.08953263757971
 30
0.0
 10
25.20600927423537
 20
0.0919857735076161
 30
0.0
 10
25.20801041448917
 20
0.0944389094355221
 30
0.0
 10
25.20994572576229
 20
0.0969378769296009
 30
0.0
 10
25.21188103703542
 20
0.0994368444236797
 30
0.0
 10
25.21374900753893
 20
0.1019789999189577
 30
0.0
 10
25.21561697804245
 20
0.1045211554142357
 30
0.0
 10
25.21741623669107
 20
0.1071037928167431
 30
0.0
 10
25.21921549533969
 20
0.1096864302192505
 30
0.0
 10
25.22094481466388
 20
0.1123067901773515
 30
0.0
 10
25.22267413398807
 20
0.1149271501354524
 30
0.0
 10
25.22433243232283
 20
0.1175824294412709
 30
0.0
 10
25.22599073065759
 20
0.1202377087470893
 30
0.0
 10
25.22757707360539
 20
0.1229250698033481
 30
0.0
 10
25.2291634165532
 20
0.125612430859607
 30
0.0
 10
25.23067701772506
 20
0.1283290111479289
 30
0.0
 10
25.23219061889693
 20
0.1310455914362508
 30
0.0
 10
25.23363083994176
 20
0.1337885129244018
 30
0.0
 10
25.2350710609866
 20
0.1365314344125528
 30
0.0
 10
25.23643741092508
 20
0.1392978128402109
 30
0.0
 10
25.23780376086357
 20
0.1420641912678691
 30
0.0
 10
25.23909589474826
 20
0.144851145253215
 30
0.0
 10
25.24038802863295
 20
0.147638099238561
 30
0.0
 10
25.24160574556169
 20
0.1504427591512623
 30
0.0
 10
25.24282346249043
 20
0.1532474190639637
 30
0.0
 10
25.24396670300478
 20
0.1560669356138857
 30
0.0
 10
25.24510994351913
 20
0.1588864521638077
 30
0.0
 10
25.24617878642367
 20
0.1617180046589692
 30
0.0
 10
25.24724762932822
 20
0.1645495571541307
 30
0.0
 10
25.24824228797035
 20
0.1673903613859482
 30
0.0
 10
25.24923694661249
 20
0.1702311656177657
 30
0.0
 10
25.25015776466527
 20
0.1730784813364235
 30
0.0
 10
25.25107858271805
 20
0.1759257970550812
 30
0.0
 10
25.2519260295111
 20
0.1787769350028472
 30
0.0
 10
25.25277347630415
 20
0.1816280729506132
 30
0.0
 10
25.25354814174955
 20
0.1844804014260147
 30
0.0
 10
25.25432280719495
 20
0.1873327299014162
 30
0.0
 10
25.25502539635624
 20
0.1901836808323203
 30
0.0
 10
25.25572798551754
 20
0.1930346317632244
 30
0.0
 10
25.2563593128707
 20
0.1958817062719684
 30
0.0
 10
25.25699064022386
 20
0.1987287807807125
 30
0.0
 10
25.25755162365903
 20
0.201569554229431
 30
0.0
 10
25.25811260709421
 20
0.2044103276781494
 30
0.0
 10
25.258604261707
 20
0.2072424541872865
 30
0.0
 10
25.25909591631979
 20
0.2100745806964235
 30
0.0
 10
25.2595193480395
 20
0.212895797134055
 30
0.0
 10
25.25994277975921
 20
0.2157170135716865
 30
0.0
 10
25.2602991788606
 20
0.2185251430156523
 30
0.0
 10
25.26065557796199
 20
0.2213332724596181
 30
0.0
 10
25.2609462125051
 20
0.2241262271385461
 30
0.0
 10
25.26123684704822
 20
0.2269191818174741
 30
0.0
 10
25.26146305628885
 20
0.2296949655405369
 30
0.0
 10
25.26168926552949
 20
0.2324707492635996
 30
0.0
 10
25.26185245334061
 20
0.2352274593522478
 30
0.0
 10
25.26201564115174
 20
0.237984169440896
 30
0.0
 10
25.27856918518836
 20
0.868992000386392
 30
0.0
 10
25.29512272922499
 20
1.499999831331888
 30
0.0
  0
SPLINE
  5
4B
330
1F
100
AcDbEntity
  8
DEFAULT
100
AcDbSpline
210
0.0
220
0.0
230
1.0
 70
     8
 71
     2
 72
   190
 73
   187
 74
     0
 42
0.0000000001
 43
0.0000000001
 40
0.0
 40
0.0
 40
0.0
 40
1.0
 40
1.0
 40
2.0
 40
2.0
 40
3.0
 40
3.0
 40
4.0
 40
4.0
 40
5.0
 40
5.0
 40
6.0
 40
6.0
 40
7.0
 40
7.0
 40
8.0
 40
8.0
 40
9.0
 40
9.0
 40
10.0
 40
10.0
 40
11.0
 40
11.0
 40
12.0
 40
12.0
 40
13.0
 40
13.0
 40
14.0
 40
14.0
 40
15.0
 40
15.0
 40
16.0
 40
16.0
 40
17.0
 40
17.0
 40
18.0
 40
18.0
 40
19.0
 40
19.0
 40
20.0
 40
20.0
 40
21.0
 40
21.0
 40
22.0
 40
22.0
 40
23.0
 40
23.0
 40
24.0
 40
24.0
 40
25.0
 40
25.0
 40
26.0
 40
26.0
 40
27.0
 40
27.0
 40
28.0
 40
28.0
 40
29.0
 40
29.0
 40
30.0
 40
30.0
 40
31.0
 40
31.0
 40
32.0
 40
32.0
 40
33.0
 40
33.0
 40
34.0
 40
34.0
 40
35.0
 40
35.0
 40
36.0
 40
36.0
 40
37.0
 40
37.0
 40
38.0
 40
38.0
 40
39.0
 40
39.0
 40
40.0
 40
40.0
 40
41.0
 40
41.0
 40
42.0
 40
42.0
 40
43.0
 40
43.0
 40
44.0
 40
44.0
 40
45.0
 40
45.0
 40
46.0
 40
46.0
 40
47.0
 40
47.0
 40
48.0
 40
48.0
 40
49.0
 40
49.0
 40
50.0
 40
50.0
 40
51.0
 40
51.0
 40
52.0
 40
52.0
 40
53.0
 40
53.0
 40
54.0
 40
54.0
 40
55.0
 40
55.0
 40
56.0
 40
56.0
 40
57.0
 40
57.0
 40
58.0
 40
58.0
 40
59.0
 40
59.0
 40
60.0
 40
60.0
 40
61.0
 40
61.0
 40
62.0
 40
62.0
 40
63.0
 40
63.0
 40
64.0
 40
64.0
 40
65.0
 40
65.0
 40
66.0
 40
66.0
 40
67.0
 40
67.0
 40
68.0
 40
68.0
 40
69.0
 40
69.0
 40
70.0
 40
70.0
 40
71.0
 40
71.0
 40
72.0
 40
72.0
 40
73.0
 40
73.0
 40
74.0
 40
74.0
 40
75.0
 40
75.0
 40
76.0
 40
76.0
 40
77.0
 40
77.0
 40
78.0
 40
78.0
 40
79.0
 40
79.0
 40
80.0
 40
80.0
 40
81.0
 40
81.0
 40
82.0
 40
82.0
 40
83.0
 40
83.0
 40
84.0
 40
84.0
 40
85.0
 40
85.0
 40
86.0
 40
86.0
 40
87.0
 40
87.0
 40
88.0
 40
88.0
 40
89.0
 40
89.0
 40
90.0
 40
90.0
 40
91.0
 40
91.0
 40
92.0
 40
92.0
 40
93.0
 40
93.0
 40
93.0
 10
-25.29514167581148
 20
1.499999831331886
 30
0.0
 10
-25.27868976011664
 20
0.8717278291243532
 30
0.0
 10
-25.2622378444218
 20
0.2434558269168204
 30
0.0
 10
-25.26205195094963
 20
0.2391694659014636
 30
0.0
 10
-25.26186605747745
 20
0.2348831048861068
 30
0.0
 10
-25.26153317378458
 20
0.2306056482137382
 30
0.0
 10
-25.26120029009171
 20
0.2263281915413696
 30
0.0
 10
-25.26072080834115
 20
0.2220646783904745
 30
0.0
 10
-25.2602413265906
 20
0.2178011652395794
 30
0.0
 10
-25.25961581164937
 20
0.2135566183620835
 30
0.0
 10
-25.25899029670813
 20
0.2093120714845876
 30
0.0
 10
-25.25821948548173
 20
0.2050914912886634
 30
0.0
 10
-25.25744867425533
 20
0.2008709110927392
 30
0.0
 10
-25.25653347481968
 20
0.1966792697519338
 30
0.0
 10
-25.25561827538403
 20
0.1924876284111285
 30
0.0
 10
-25.25455976591563
 20
0.1883298640067546
 30
0.0
 10
-25.25350125644722
 20
0.1841720996023807
 30
0.0
 10
-25.25230068395302
 20
0.1800531103060704
 30
0.0
 10
-25.25110011145881
 20
0.1759341210097601
 30
0.0
 10
-25.24975889030708
 20
0.1718587593130358
 30
0.0
 10
-25.24841766915535
 20
0.1677833976163115
 30
0.0
 10
-25.24693737940952
 20
0.1637564646139714
 30
0.0
 10
-25.24545708966368
 20
0.1597295316116312
 30
0.0
 10
-25.24383947522082
 20
0.1557557713456838
 30
0.0
 10
-25.24222186077795
 20
0.1517820110797364
 30
0.0
 10
-25.24046882731439
 20
0.1478661049505486
 30
0.0
 10
-25.23871579385084
 20
0.1439501988213607
 30
0.0
 10
-25.2368294065771
 20
0.1400967600726016
 30
0.0
 10
-25.23494301930336
 20
0.1362433213238424
 30
0.0
 10
-25.23292550053117
 20
0.1324568896077215
 30
0.0
 10
-25.23090798175898
 20
0.1286704578916005
 30
0.0
 10
-25.22876170828324
 20
0.1249554939208026
 30
0.0
 10
-25.22661543480751
 20
0.1212405299500047
 30
0.0
 10
-25.22434293510624
 20
0.1176014102426214
 30
0.0
 10
-25.22207043540496
 20
0.1139622905352382
 30
0.0
 10
-25.21967438666051
 20
0.1104033022588873
 30
0.0
 10
-25.21727833791607
 20
0.1068443139825364
 30
0.0
 10
-25.21476156286126
 20
0.103369649903743
 30
0.0
 10
-25.21224478780645
 20
0.0998949858249496
 30
0.0
 10
-25.20961025139912
 20
0.0965087393697396
 30
0.0
 10
-25.20697571499178
 20
0.0931224929145295
 30
0.0
 10
-25.20422652092186
 20
0.0898286533460532
 30
0.0
 10
-25.20147732685193
 20
0.0865348137775769
 30
0.0
 10
-25.19861671388503
 20
0.0833372614964453
 30
0.0
 10
-25.19575610091813
 20
0.0801397092153137
 30
0.0
 10
-25.19278743908005
 20
0.0770422111881831
 30
0.0
 10
-25.18981877724197
 20
0.0739447131610524
 30
0.0
 10
-25.18674556384852
 20
0.0709509184828428
 30
0.0
 10
-25.18367235045506
 20
0.0679571238046331
 30
0.0
 10
-25.18049820599197
 20
0.0650705593996094
 30
0.0
 10
-25.17732406152887
 20
0.0621839949945857
 30
0.0
 10
-25.17405272538654
 20
0.0594080614613648
 30
0.0
 10
-25.17078138924421
 20
0.0566321279281439
 30
0.0
 10
-25.16741671531247
 20
0.0539700955335237
 30
0.0
 10
-25.16405204138072
 20
0.0513080631389035
 30
0.0
 10
-25.16059799350859
 20
0.0487630679652329
 30
0.0
 10
-25.15714394563646
 20
0.0462180727915624
 30
0.0
 10
-25.15360459296247
 20
0.0437931130421908
 30
0.0
 10
-25.15006524028847
 20
0.0413681532928193
 30
0.0
 10
-25.14644475244687
 20
0.0390660857599789
 30
0.0
 10
-25.14282426460526
 20
0.0367640182271385
 30
0.0
 10
-25.13912690681387
 20
0.0345875549264194
 30
0.0
 10
-25.13542954902247
 20
0.0324110916257003
 30
0.0
 10
-25.13165967705792
 20
0.0303627966010841
 30
0.0
 10
-25.12788980509337
 20
0.0283145015764679
 30
0.0
 10
-25.12405186015967
 20
0.0263967878796834
 30
0.0
 10
-25.12021391522597
 20
0.0244790741828988
 30
0.0
 10
-25.11631241872239
 20
0.0226942010306582
 30
0.0
 10
-25.11241092221882
 20
0.0209093278784176
 30
0.0
 10
-25.10845047041339
 20
0.0192593979908828
 30
0.0
 10
-25.10449001860795
 20
0.017609468103348
 30
0.0
 10
-25.10047527722261
 20
0.0160964252269616
 30
0.0
 10
-25.09646053583726
 20
0.0145833823505751
 30
0.0
 10
-25.09239623455134
 20
0.0132090089681752
 30
0.0
 10
-25.08833193326542
 20
0.0118346355857752
 30
0.0
 10
-25.0842228601437
 20
0.0106005508166909
 30
0.0
 10
-25.08011378702197
 20
0.0093664660476065
 30
0.0
 10
-25.07596478287394
 20
0.0082741237402092
 30
0.0
 10
-25.0718157787259
 20
0.0071817814328118
 30
0.0
 10
-25.06763173140291
 20
0.0062324684517677
 30
0.0
 10
-25.06344768407992
 20
0.0052831554707236
 30
0.0
 10
-25.05923352271696
 20
0.0044779901809667
 30
0.0
 10
-25.05501936135399
 20
0.0036728248912099
 30
0.0
 10
-25.0507800505627
 20
0.0030127558404208
 30
0.0
 10
-25.0465407397714
 20
0.0023526867896316
 30
0.0
 10
-25.04228127379144
 20
0.0018384915907735
 30
0.0
 10
-25.03802180781148
 20
0.0013242963919155
 30
0.0
 10
-25.0337472046269
 20
0.0009565808071463
 30
0.0
 10
-25.02947260144231
 20
0.000588865222377
 30
0.0
 10
-25.02518789686994
 20
0.0003680624494131
 30
0.0
 10
-25.02090319229758
 20
0.0001472596764491
 30
0.0
 10
-25.01661343405452
 20
0.0000736298382251
 30
0.0
 10
-25.01232367581146
 20
0.0000000000000012
 30
0.0
 10
-24.04514167581147
 20
-0.0000000000000003
 30
0.0
 10
-23.07795967581148
 20
-0.0000000000000017
 30
0.0
 10
-23.07366991756842
 20
0.0000736298382228
 30
0.0
 10
-23.06938015932536
 20
0.0001472596764473
 30
0.0
 10
-23.065095454753
 20
0.0003680624494113
 30
0.0
 10
-23.06081075018063
 20
0.0005888652223752
 30
0.0
 10
-23.05653614699605
 20
0.0009565808071445
 30
0.0
 10
-23.05226154381146
 20
0.0013242963919138
 30
0.0
 10
-23.0480020778315
 20
0.0018384915907718
 30
0.0
 10
-23.04374261185154
 20
0.0023526867896298
 30
0.0
 10
-23.03950330106025
 20
0.0030127558404189
 30
0.0
 10
-23.03526399026895
 20
0.0036728248912081
 30
0.0
 10
-23.03104982890599
 20
0.0044779901809649
 30
0.0
 10
-23.02683566754302
 20
0.0052831554707218
 30
0.0
 10
-23.02265162022003
 20
0.0062324684517659
 30
0.0
 10
-23.01846757289704
 20
0.00718178143281
 30
0.0
 10
-23.014318568749
 20
0.0082741237402074
 30
0.0
 10
-23.01016956460097
 20
0.0093664660476048
 30
0.0
 10
-23.00606049147925
 20
0.0106005508166891
 30
0.0
 10
-23.00195141835752
 20
0.0118346355857734
 30
0.0
 10
-22.9978871170716
 20
0.0132090089681734
 30
0.0
 10
-22.99382281578568
 20
0.0145833823505735
 30
0.0
 10
-22.98980807440034
 20
0.0160964252269599
 30
0.0
 10
-22.98579333301499
 20
0.0176094681033463
 30
0.0
 10
-22.98183288120956
 20
0.0192593979908811
 30
0.0
 10
-22.97787242940412
 20
0.0209093278784159
 30
0.0
 10
-22.97397093290055
 20
0.0226942010306566
 30
0.0
 10
-22.97006943639697
 20
0.0244790741828972
 30
0.0
 10
-22.96623149146327
 20
0.0263967878796817
 30
0.0
 10
-22.96239354652957
 20
0.0283145015764663
 30
0.0
 10
-22.95862367456502
 20
0.0303627966010825
 30
0.0
 10
-22.95485380260047
 20
0.0324110916256987
 30
0.0
 10
-22.95115644480908
 20
0.0345875549264179
 30
0.0
 10
-22.94745908701768
 20
0.036764018227137
 30
0.0
 10
-22.94383859917608
 20
0.0390660857599774
 30
0.0
 10
-22.94021811133447
 20
0.0413681532928178
 30
0.0
 10
-22.93667875866048
 20
0.0437931130421894
 30
0.0
 10
-22.93313940598648
 20
0.0462180727915609
 30
0.0
 10
-22.92968535811435
 20
0.0487630679652315
 30
0.0
 10
-22.92623131024222
 20
0.0513080631389021
 30
0.0
 10
-22.92286663631048
 20
0.0539700955335222
 30
0.0
 10
-22.91950196237873
 20
0.0566321279281424
 30
0.0
 10
-22.9162306262364
 20
0.0594080614613633
 30
0.0
 10
-22.91295929009407
 20
0.0621839949945843
 30
0.0
 10
-22.90978514563098
 20
0.0650705593996081
 30
0.0
 10
-22.90661100116788
 20
0.0679571238046318
 30
0.0
 10
-22.90353778777443
 20
0.0709509184828414
 30
0.0
 10
-22.90046457438097
 20
0.073944713161051
 30
0.0
 10
-22.89749591254289
 20
0.0770422111881817
 30
0.0
 10
-22.89452725070481
 20
0.0801397092153124
 30
0.0
 10
-22.89166663773791
 20
0.083337261496444
 30
0.0
 10
-22.88880602477101
 20
0.0865348137775757
 30
0.0
 10
-22.88605683070108
 20
0.0898286533460521
 30
0.0
 10
-22.88330763663115
 20
0.0931224929145284
 30
0.0
 10
-22.88067310022382
 20
0.0965087393697384
 30
0.0
 10
-22.87803856381649
 20
0.0998949858249484
 30
0.0
 10
-22.87552178876169
 20
0.1033696499037418
 30
0.0
 10
-22.87300501370688
 20
0.1068443139825352
 30
0.0
 10
-22.87060896496243
 20
0.1104033022588861
 30
0.0
 10
-22.86821291621798
 20
0.1139622905352371
 30
0.0
 10
-22.86594041651671
 20
0.1176014102426204
 30
0.0
 10
-22.86366791681543
 20
0.1212405299500037
 30
0.0
 10
-22.8615216433397
 20
0.1249554939208016
 30
0.0
 10
-22.85937536986396
 20
0.1286704578915996
 30
0.0
 10
-22.85735785109177
 20
0.1324568896077206
 30
0.0
 10
-22.85534033231958
 20
0.1362433213238415
 30
0.0
 10
-22.85345394504584
 20
0.1400967600726007
 30
0.0
 10
-22.8515675577721
 20
0.14395019882136
 30
0.0
 10
-22.84981452430854
 20
0.1478661049505477
 30
0.0
 10
-22.84806149084498
 20
0.1517820110797355
 30
0.0
 10
-22.84644387640212
 20
0.1557557713456829
 30
0.0
 10
-22.84482626195926
 20
0.1597295316116304
 30
0.0
 10
-22.84334597221343
 20
0.1637564646139706
 30
0.0
 10
-22.84186568246759
 20
0.1677833976163108
 30
0.0
 10
-22.84052446131586
 20
0.1718587593130352
 30
0.0
 10
-22.83918324016413
 20
0.1759341210097595
 30
0.0
 10
-22.83798266766992
 20
0.1800531103060698
 30
0.0
 10
-22.83678209517571
 20
0.1841720996023801
 30
0.0
 10
-22.83572358570731
 20
0.1883298640067541
 30
0.0
 10
-22.83466507623892
 20
0.192487628411128
 30
0.0
 10
-22.83374987680327
 20
0.1966792697519334
 30
0.0
 10
-22.83283467736761
 20
0.2008709110927388
 30
0.0
 10
-22.83206386614121
 20
0.2050914912886631
 30
0.0
 10
-22.83129305491481
 20
0.2093120714845873
 30
0.0
 10
-22.83066753997358
 20
0.2135566183620831
 30
0.0
 10
-22.83004202503234
 20
0.2178011652395789
 30
0.0
 10
-22.82956254328179
 20
0.2220646783904741
 30
0.0
 10
-22.82908306153123
 20
0.2263281915413692
 30
0.0
 10
-22.82875017783836
 20
0.2306056482137379
 30
0.0
 10
-22.82841729414549
 20
0.2348831048861065
 30
0.0
 10
-22.82823140067332
 20
0.239169465901464
 30
0.0
 10
-22.82804550720116
 20
0.2434558269168216
 30
0.0
 10
-22.81159359150632
 20
0.8717278291243539
 30
0.0
 10
-22.79514167581148
 20
1.499999831331886
 30
0.0
  0
SPLINE
  5
4C
330
1F
100
AcDbEntity
  8
DEFAULT
100
AcDbSpline
210
0.0
220
0.0
230
1.0
 70
     8
 71
     2
 72
   252
 73
   249
 74
     0
 42
0.0000000001
 43
0.0000000001
 40
0.0
 40
0.0
 40
0.0
 40
1.0
 40
1.0
 40
2.0
 40
2.0
 40
3.0
 40
3.0
 40
4.0
 40
4.0
 40
5.0
 40
5.0
 40
6.0
 40
6.0
 40
7.0
 40
7.0
 40
8.0
 40
8.0
 40
9.0
 40
9.0
 40
10.0
 40
10.0
 40
11.0
 40
11.0
 40
12.0
 40
12.0
 40
13.0
 40
13.0
 40
14.0
 40
14.0
 40
15.0
 40
15.0
 40
16.0
 40
16.0
 40
17.0
 40
17.0
 40
18.0
 40
18.0
 40
19.0
 40
19.0
 40
20.0
 40
20.0
 40
21.0
 40
21.0
 40
22.0
 40
22.0
 40
23.0
 40
23.0
 40
24.0
 40
24.0
 40
25.0
 40
25.0
 40
26.0
 40
26.0
 40
27.0
 40
27.0
 40
28.0
 40
28.0
 40
29.0
 40
29.0
 40
30.0
 40
30.0
 40
31.0
 40
31.0
 40
32.0
 40
32.0
 40
33.0
 40
33.0
 40
34.0
 40
34.0
 40
35.0
 40
35.0
 40
36.0
 40
36.0
 40
37.0
 40
37.0
 40
38.0
 40
38.0
 40
39.0
 40
39.0
 40
40.0
 40
40.0
 40
41.0
 40
41.0
 40
42.0
 40
42.0
 40
43.0
 40
43.0
 40
44.0
 40
44.0
 40
45.0
 40
45.0
 40
46.0
 40
46.0
 40
47.0
 40
47.0
 40
48.0
 40
48.0
 40
49.0
 40
49.0
 40
50.0
 40
50.0
 40
51.0
 40
51.0
 40
52.0
 40
52.0
 40
53.0
 40
53.0
 40
54.0
 40
54.0
 40
55.0
 40
55.0
 40
56.0
 40
56.0
 40
57.0
 40
57.0
 40
58.0
 40
58.0
 40
59.0
 40
59.0
 40
60.0
 40
60.0
 40
61.0
 40
61.0
 40
62.0
 40
62.0
 40
63.0
 40
63.0
 40
64.0
 40
64.0
 40
65.0
 40
65.0
 40
66.0
 40
66.0
 40
67.0
 40
67.0
 40
68.0
 40
68.0
 40
69.0
 40
69.0
 40
70.0
 40
70.0
 40
71.0
 40
71.0
 40
72.0
 40
72.0
 40
73.0
 40
73.0
 40
74.0
 40
74.0
 40
75.0
 40
75.0
 40
76.0
 40
76.0
 40
77.0
 40
77.0
 40
78.0
 40
78.0
 40
79.0
 40
79.0
 40
80.0
 40
80.0
 40
81.0
 40
81.0
 40
82.0
 40
82.0
 40
83.0
 40
83.0
 40
84.0
 40
84.0
 40
85.0
 40
85.0
 40
86.0
 40
86.0
 40
87.0
 40
87.0
 40
88.0
 40
88.0
 40
89.0
 40
89.0
 40
90.0
 40
90.0
 40
91.0
 40
91.0
 40
92.0
 40
92.0
 40
93.0
 40
93.0
 40
94.0
 40
94.0
 40
95.0
 40
95.0
 40
96.0
 40
96.0
 40
97.0
 40
97.0
 40
98.0
 40
98.0
 40
99.0
 40
99.0
 40
100.0
 40
100.0
 40
101.0
 40
101.0
 40
102.0
 40
102.0
 40
103.0
 40
103.0
 40
104.0
 40
104.0
 40
105.0
 40
105.0
 40
106.0
 40
106.0
 40
107.0
 40
107.0
 40
108.0
 40
108.0
 40
109.0
 40
109.0
 40
110.0
 40
110.0
 40
111.0
 40
111.0
 40
112.0
 40
112.0
 40
113.0
 40
113.0
 40
114.0
 40
114.0
 40
115.0
 40
115.0
 40
116.0
 40
116.0
 40
117.0
 40
117.0
 40
118.0
 40
118.0
 40
119.0
 40
119.0
 40
120.0
 40
120.0
 40
121.0
 40
121.0
 40
122.0
 40
122.0
 40
123.0
 40
123.0
 40
124.0
 40
124.0
 40
124.0
 10
-25.28967167681847
 20
1.290077783707145
 30
0.0
 10
-25.29546649007315
 20
1.290296946721698
 30
0.0
 10
-25.30126130332783
 20
1.290516109736251
 30
0.0
 10
-25.30704559790387
 20
1.290928213292609
 30
0.0
 10
-25.31282989247991
 20
1.291340316848966
 30
0.0
 10
-25.31859724613601
 20
1.291944903392892
 30
0.0
 10
-25.3243645997921
 20
1.292549489936818
 30
0.0
 10
-25.33010860909628
 20
1.293345888202245
 30
0.0
 10
-25.33585261840045
 20
1.294142286467672
 30
0.0
 10
-25.34156690583971
 20
1.295129612222
 30
0.0
 10
-25.34728119327896
 20
1.296116937976327
 30
0.0
 10
-25.35295941434018
 20
1.297294095002176
 30
0.0
 10
-25.35863763540139
 20
1.298471252028025
 30
0.0
 10
-25.36427348561558
 20
1.299836933340356
 30
0.0
 10
-25.36990933582977
 20
1.301202614652687
 30
0.0
 10
-25.37549655777182
 20
1.302755303949933
 30
0.0
 10
-25.38108377971387
 20
1.304307993247179
 30
0.0
 10
-25.38661616995017
 20
1.306045966594777
 30
0.0
 10
-25.39214856018646
 20
1.307783939942375
 30
0.0
 10
-25.39761997616242
 20
1.309705267686835
 30
0.0
 10
-25.40309139213837
 20
1.311626595431294
 30
0.0
 10
-25.4084957589985
 20
1.313729144342671
 30
0.0
 10
-25.41390012585863
 20
1.315831693254047
 30
0.0
 10
-25.41923144319136
 20
1.318113128894443
 30
0.0
 10
-25.4245627605241
 20
1.32039456453484
 30
0.0
 10
-25.42981510902399
 20
1.32285235385031
 30
0.0
 10
-25.43506745752388
 20
1.325310143165779
 30
0.0
 10
-25.44023500556376
 20
1.327941557298749
 30
0.0
 10
-25.44540255360363
 20
1.33057297143172
 30
0.0
 10
-25.45047956370936
 20
1.333375088750812
 30
0.0
 10
-25.45555657381508
 20
1.336177206069904
 30
0.0
 10
-25.46053740903584
 20
1.339146915413791
 30
0.0
 10
-25.46551824425661
 20
1.342116624757679
 30
0.0
 10
-25.47039737442356
 20
1.345250628889377
 30
0.0
 10
-25.47527650459051
 20
1.348384633021074
 30
0.0
 10
-25.48004851245685
 20
1.351679452288824
 30
0.0
 10
-25.4848205203232
 20
1.354974271556575
 30
0.0
 10
-25.4894801075789
 20
1.358426247757271
 30
0.0
 10
-25.49413969483459
 20
1.361878223957967
 30
0.0
 10
-25.49868168798901
 20
1.365483524398814
 30
0.0
 10
-25.50322368114343
 20
1.369088824839662
 30
0.0
 10
-25.50375018907834
 20
1.36953669921272
 30
0.0
 10
-25.50427669701324
 20
1.369984573585778
 30
0.0
 10
-25.50478741350158
 20
1.370450374753766
 30
0.0
 10
-25.50529812998992
 20
1.370916175921754
 30
0.0
 10
-25.50579244497528
 20
1.371399347480108
 30
0.0
 10
-25.50628675996065
 20
1.371882519038462
 30
0.0
 10
-25.50676408297842
 20
1.372382483833495
 30
0.0
 10
-25.50724140599618
 20
1.372882448628529
 30
0.0
 10
-25.5077011668788
 20
1.373398609446852
 30
0.0
 10
-25.50816092776142
 20
1.373914770265175
 30
0.0
 10
-25.50860257731952
 20
1.374446510547072
 30
0.0
 10
-25.50904422687762
 20
1.374978250828968
 30
0.0
 10
-25.50946723755599
 20
1.375524935404884
 30
0.0
 10
-25.50989024823436
 20
1.376071619980799
 30
0.0
 10
-25.51029411474214
 20
1.376632595830056
 30
0.0
 10
-25.51069798124993
 20
1.377193571679313
 30
0.0
 10
-25.51108222116419
 20
1.377768168710154
 30
0.0
 10
-25.51146646107844
 20
1.378342765740995
 30
0.0
 10
-25.51183061542041
 20
1.378930297591011
 30
0.0
 10
-25.51219476976239
 20
1.379517829441027
 30
0.0
 10
-25.51253840354575
 20
1.380117594297029
 30
0.0
 10
-25.5128820373291
 20
1.38071735915303
 30
0.0
 10
-25.51320474007956
 20
1.381328640589367
 30
0.0
 10
-25.51352744283001
 20
1.381939922025704
 30
0.0
 10
-25.51382882907561
 20
1.382561989860048
 30
0.0
 10
-25.5141302153212
 20
1.383184057694391
 30
0.0
 10
-25.51440992505279
 20
1.383816168859942
 30
0.0
 10
-25.51468963478438
 20
1.384448280025492
 30
0.0
 10
-25.51494733388565
 20
1.385089679458581
 30
0.0
 10
-25.51520503298691
 20
1.38573107889167
 30
0.0
 10
-25.51544041363347
 20
1.386381000433693
 30
0.0
 10
-25.51567579428003
 20
1.387030921975716
 30
0.0
 10
-25.51588857530714
 20
1.387688589288317
 30
0.0
 10
-25.51610135633425
 20
1.388346256600917
 30
0.0
 10
-25.51629128357265
 20
1.389010884093332
 30
0.0
 10
-25.51648121081105
 20
1.389675511585746
 30
0.0
 10
-25.5166480573906
 20
1.390346305353199
 30
0.0
 10
-25.51681490397014
 20
1.391017099120653
 30
0.0
 10
-25.51695847059077
 20
1.391693257892689
 30
0.0
 10
-25.5171020372114
 20
1.392369416664724
 30
0.0
 10
-25.51722215238123
 20
1.393050132762328
 30
0.0
 10
-25.51734226755105
 20
1.393730848859932
 30
0.0
 10
-25.5174387877912
 20
1.394415309160316
 30
0.0
 10
-25.51753530803134
 20
1.395099769460701
 30
0.0
 10
-25.51760811804733
 20
1.395787156368587
 30
0.0
 10
-25.51768092806331
 20
1.396474543276473
 30
0.0
 10
-25.51772994088277
 20
1.397164035700715
 30
0.0
 10
-25.51777895370224
 20
1.397853528124958
 30
0.0
 10
-25.51780411077884
 20
1.398544302459352
 30
0.0
 10
-25.51782926785544
 20
1.399235076793745
 30
0.0
 10
-25.51783053913878
 20
1.399926307900828
 30
0.0
 10
-25.51783181042212
 20
1.40061753900791
 30
0.0
 10
-25.51780919439363
 20
1.4013084012046
 30
0.0
 10
-25.51778657836514
 20
1.40199926340129
 30
0.0
 10
-25.51774010203992
 20
1.402688931445173
 30
0.0
 10
-25.51769362571469
 20
1.403378599489056
 30
0.0
 10
-25.51762334460921
 20
1.404066249564146
 30
0.0
 10
-25.51755306350373
 20
1.404753899639237
 30
0.0
 10
-25.51745906156954
 20
1.405438710340035
 30
0.0
 10
-25.51736505963534
 20
1.406123521040834
 30
0.0
 10
-25.51724744915877
 20
1.406804674353503
 30
0.0
 10
-25.51712983868219
 20
1.407485827666172
 30
0.0
 10
-25.51698876015023
 20
1.408162509945666
 30
0.0
 10
-25.51684768161828
 20
1.408839192225159
 30
0.0
 10
-25.51668330355078
 20
1.409510595167128
 30
0.0
 10
-25.51651892548328
 20
1.410181998109097
 30
0.0
 10
-25.51633144423162
 20
1.410847319715419
 30
0.0
 10
-25.51614396297997
 20
1.411512641321741
 30
0.0
 10
-25.51593360249257
 20
1.412171086858515
 30
0.0
 10
-25.51572324200516
 20
1.412829532395289
 30
0.0
 10
-25.51549025355989
 20
1.413480315342154
 30
0.0
 10
-25.51525726511462
 20
1.414131098289019
 30
0.0
 10
-25.51500192701872
 20
1.414773441278661
 30
0.0
 10
-25.51474658892282
 20
1.415415784268303
 30
0.0
 10
-25.51446920618043
 20
1.416048920015028
 30
0.0
 10
-25.51419182343803
 20
1.416682055761753
 30
0.0
 10
-25.51389272738585
 20
1.41730522797802
 30
0.0
 10
-25.51359363133366
 20
1.417928400194288
 30
0.0
 10
-25.51327317924518
 20
1.418540864494102
 30
0.0
 10
-25.51295272715669
 20
1.419153328793916
 30
0.0
 10
-25.51261130181542
 20
1.419754353582003
 30
0.0
 10
-25.51226987647414
 20
1.420355378370091
 30
0.0
 10
-25.51190788571637
 20
1.4209442457158
 30
0.0
 10
-25.51154589495859
 20
1.421533113061509
 30
0.0
 10
-25.5111637711862
 20
1.422109119556385
 30
0.0
 10
-25.51078164741382
 20
1.422685126051261
 30
0.0
 10
-25.51037984707784
 20
1.423247583649276
 30
0.0
 10
-25.50997804674186
 20
1.423810041247291
 30
0.0
 10
-25.50955704979716
 20
1.424358278086722
 30
0.0
 10
-25.50913605285245
 20
1.424906514926153
 30
0.0
 10
-25.50869636218445
 20
1.425439876132127
 30
0.0
 10
-25.50825667151645
 20
1.425973237338101
 30
0.0
 10
-25.50779881234046
 20
1.426491085804852
 30
0.0
 10
-25.50734095316446
 20
1.427008934271603
 30
0.0
 10
-25.50686547239824
 20
1.4275106514235
 30
0.0
 10
-25.50638999163201
 20
1.428012368575397
 30
0.0
 10
-25.5058974572425
 20
1.428497355105841
 30
0.0
 10
-25.50540492285299
 20
1.428982341636285
 30
0.0
 10
-25.5048959231779
 20
1.429450018223587
 30
0.0
 10
-25.5043869235028
 20
1.429917694810888
 30
0.0
 10
-25.50386206654776
 20
1.430367502810272
 30
0.0
 10
-25.50333720959272
 20
1.430817310809656
 30
0.0
 10
-25.5027971223051
 20
1.431248712920572
 30
0.0
 10
-25.50225703501747
 20
1.431680115031487
 30
0.0
 10
-25.50170236253739
 20
1.432092595939416
 30
0.0
 10
-25.50114769005731
 20
1.432505076847346
 30
0.0
 10
-25.50057909494711
 20
1.432898143839354
 30
0.0
 10
-25.5000104998369
 20
1.433291210831362
 30
0.0
 10
-25.49942866128961
 20
1.433664394384649
 30
0.0
 10
-25.49884682274231
 20
1.434037577937936
 30
0.0
 10
-25.49825243577042
 20
1.434390432280685
 30
0.0
 10
-25.49765804879852
 20
1.434743286623434
 30
0.0
 10
-25.49705182340372
 20
1.435075390267291
 30
0.0
 10
-25.49644559800892
 20
1.435407493911149
 30
0.0
 10
-25.49582825833406
 20
1.435718450154698
 30
0.0
 10
-25.4952109186592
 20
1.436029406398246
 30
0.0
 10
-25.49458320212324
 20
1.436318843800867
 30
0.0
 10
-25.49395548558727
 20
1.436608281203489
 30
0.0
 10
-25.49331814200444
 20
1.436875854029056
 30
0.0
 10
-25.4926807984216
 20
1.437143426854623
 30
0.0
 10
-25.49203458910575
 20
1.437388815484482
 30
0.0
 10
-25.49138837978989
 20
1.437634204114341
 30
0.0
 10
-25.49073407664508
 20
1.437857115429103
 30
0.0
 10
-25.49007977350027
 20
1.438080026743865
 30
0.0
 10
-25.48941815809873
 20
1.438280194473538
 30
0.0
 10
-25.48875654269719
 20
1.438480362203211
 30
0.0
 10
-25.48808840534572
 20
1.438657547245263
 30
0.0
 10
-25.48742026799424
 20
1.438834732287315
 30
0.0
 10
-25.48674640679018
 20
1.438988722992284
 30
0.0
 10
-25.48607254558611
 20
1.439142713697253
 30
0.0
 10
-25.485393765464
 20
1.439273326121566
 30
0.0
 10
-25.48471498534189
 20
1.439403938545879
 30
0.0
 10
-25.48403209711198
 20
1.439511016671574
 30
0.0
 10
-25.48334920888206
 20
1.439618094797269
 30
0.0
 10
-25.48266302826177
 20
1.439701510718359
 30
0.0
 10
-25.48197684764147
 20
1.439784926639448
 30
0.0
 10
-25.48128819428102
 20
1.439844580714707
 30
0.0
 10
-25.48059954092056
 20
1.439904234789966
 30
0.0
 10
-25.47990923742388
 20
1.439940055761951
 30
0.0
 10
-25.4792189339272
 20
1.439975876733937
 30
0.0
 10
-25.47852780486934
 20
1.439987821814108
 30
0.0
 10
-25.47783667581148
 20
1.439999766894279
 30
0.0
 10
-25.45316167581148
 20
1.439999854032132
 30
0.0
 10
-25.42848667581148
 20
1.439999941169985
 30
0.0
 10
-25.42814178015056
 20
1.440005890623306
 30
0.0
 10
-25.42779688448964
 20
1.440011840076626
 30
0.0
 10
-25.4274523992191
 20
1.440029681357347
 30
0.0
 10
-25.42710791394856
 20
1.440047522638068
 30
0.0
 10
-25.42676424897046
 20
1.440077234516901
 30
0.0
 10
-25.42642058399236
 20
1.440106946395733
 30
0.0
 10
-25.4260781482327
 20
1.440148493518596
 30
0.0
 10
-25.42573571247303
 20
1.440190040641458
 30
0.0
 10
-25.42539491339515
 20
1.440243373571546
 30
0.0
 10
-25.42505411431726
 20
1.440296706501634
 30
0.0
 10
-25.42471535743704
 20
1.440361761778242
 30
0.0
 10
-25.42437660055681
 20
1.440426817054851
 30
0.0
 10
-25.4240402889601
 20
1.440503517268889
 30
0.0
 10
-25.42370397736339
 20
1.440580217482927
 30
0.0
 10
-25.42337051122642
 20
1.440668471369025
 30
0.0
 10
-25.42303704508945
 20
1.440756725255122
 30
0.0
 10
-25.42270682120265
 20
1.440856427800228
 30
0.0
 10
-25.42237659731584
 20
1.440956130345334
 30
0.0
 10
-25.42205000861168
 20
1.441067162913668
 30
0.0
 10
-25.42172341990752
 20
1.441178195482002
 30
0.0
 10
-25.42140085499299
 20
1.441300425956223
 30
0.0
 10
-25.42107829007845
 20
1.441422656430444
 30
0.0
 10
-25.42076013277264
 20
1.441555939368853
 30
0.0
 10
-25.42044197546682
 20
1.441689222307261
 30
0.0
 10
-25.42012860434421
 20
1.441833399116863
 30
0.0
 10
-25.41981523322159
 20
1.441977575926464
 30
0.0
 10
-25.4195070211616
 20
1.442132475051676
 30
0.0
 10
-25.4191988091016
 20
1.442287374176888
 30
0.0
 10
-25.4188961228449
 20
1.442452811303676
 30
0.0
 10
-25.41859343658819
 20
1.442618248430464
 30
0.0
 10
-25.41829663630031
 20
1.442794026705654
 30
0.0
 10
-25.41799983601243
 20
1.442969804980844
 30
0.0
 10
-25.4177092748552
 20
1.443155715246359
 30
0.0
 10
-25.41741871369796
 20
1.443341625511873
 30
0.0
 10
-25.41713473740928
 20
1.443537446553608
 30
0.0
 10
-25.41685076112061
 20
1.443733267595344
 30
0.0
 10
-25.41657370760309
 20
1.443938766406391
 30
0.0
 10
-25.41629665408556
 20
1.444144265217437
 30
0.0
 10
-25.41602685300439
 20
1.444359197275336
 30
0.0
 10
-25.41575705192321
 20
1.444574129333235
 30
0.0
 10
-25.41549482431394
 20
1.444798238890932
 30
0.0
 10
-25.41523259670466
 20
1.445022348448629
 30
0.0
 10
-25.41497825459119
 20
1.445255368838789
 30
0.0
 10
-25.41472391247771
 20
1.445488389228949
 30
0.0
 10
-25.41447775850101
 20
1.445730043181264
 30
0.0
 10
-25.41423160452431
 20
1.445971697133578
 30
0.0
 10
-25.4139939315823
 20
1.446221697104686
 30
0.0
 10
-25.41375625864029
 20
1.446471697075793
 30
0.0
 10
-25.41352734953935
 20
1.446729745591428
 30
0.0
 10
-25.41329844043841
 20
1.446987794107063
 30
0.0
 10
-25.41307856755682
 20
1.447253584116019
 30
0.0
 10
-25.41285869467524
 20
1.447519374124976
 30
0.0
 10
-25.41264811963914
 20
1.447792589364468
 30
0.0
 10
-25.41243754460305
 20
1.448065804603959
 30
0.0
 10
-25.4122365179751
 20
1.448346119975938
 30
0.0
 10
-25.41203549134714
 20
1.448626435347916
 30
0.0
 10
-25.41184425232833
 20
1.448913517305904
 30
0.0
 10
-25.41165301330952
 20
1.449200599263893
 30
0.0
 10
-25.41147178945464
 20
1.449494106209875
 30
0.0
 10
-25.41129056559977
 20
1.449787613155857
 30
0.0
 10
-25.41111957254657
 20
1.450087195846739
 30
0.0
 10
-25.41094857949338
 20
1.450386778537621
 30
0.0
 10
-25.39735054650919
 20
1.475193304934753
 30
0.0
 10
-25.38375251352499
 20
1.499999831331886
 30
0.0
  0
ENDSEC
  0
SECTION
  2
OBJECTS
  0
DICTIONARY
  5
C
330
0
100
AcDbDictionary
281
     1
  3
ACAD_GROUP
350
D
  3
ACAD_LAYOUT
350
1A
  3
ACAD_MLEADERSTYLE
350
4E
  3
ACAD_MLINESTYLE
350
17
  3
ACAD_PLOTSETTINGS
350
19
  3
ACAD_PLOTSTYLENAME
350
E
  3
ACAD_TABLESTYLE
350
4D
  3
ACAD_VISUALSTYLE
350
2A
  0
DICTIONARY
  5
D
102
{ACAD_REACTORS
330
C
102
}
330
C
100
AcDbDictionary
281
     1
  0
DICTIONARY
  5
1A
102
{ACAD_REACTORS
330
C
102
}
330
C
100
AcDbDictionary
281
     1
  3
Layout1
350
1E
  3
Layout2
350
26
  3
Model
350
22
  0
DICTIONARY
  5
4E
102
{ACAD_REACTORS
330
C
102
}
330
C
100
AcDbDictionary
281
     1
  0
DICTIONARY
  5
17
102
{ACAD_REACTORS
330
C
102
}
330
C
100
AcDbDictionary
281
     1
  3
Standard
350
18
  0
DICTIONARY
  5
19
102
{ACAD_REACTORS
330
C
102
}
330
C
100
AcDbDictionary
281
     1
  0
ACDBDICTIONARYWDFLT
  5
E
102
{ACAD_REACTORS
330
C
102
}
330
C
100
AcDbDictionary
281
     1
  3
Normal
350
F
100
AcDbDictionaryWithDefault
340
F
  0
DICTIONARY
  5
4D
102
{ACAD_REACTORS
330
C
102
}
330
C
100
AcDbDictionary
281
     1
  0
DICTIONARY
  5
2A
102
{ACAD_REACTORS
330
C
102
}
330
C
100
AcDbDictionary
281
     1
  3
2dWireframe
350
2F
  3
3D Hidden
350
31
  3
3dWireframe
350
30
  3
Basic
350
32
  3
Brighten
350
36
  3
ColorChange
350
3A
  3
Conceptual
350
34
  3
Dim
350
35
  3
Facepattern
350
39
  3
Flat
350
2B
  3
FlatWithEdges
350
2C
  3
Gouraud
350
2D
  3
GouraudWithEdges
350
2E
  3
Linepattern
350
38
  3
Realistic
350
33
  3
Thicken
350
37
  0
LAYOUT
  5
1E
102
{ACAD_REACTORS
330
1A
102
}
330
1A
100
AcDbPlotSettings
  1

  2
none_device
  4

  6

 40
0.0
 41
0.0
 42
0.0
 43
0.0
 44
0.0
 45
0.0
 46
0.0
 47
0.0
 48
0.0
 49
0.0
140
0.0
141
0.0
142
1.0
143
1.0
 70
   688
 72
     0
 73
     0
 74
     5
  7

 75
    16
 76
     0
 77
     2
 78
   300
147
1.0
148
0.0
149
0.0
100
AcDbLayout
  1
Layout1
 70
     1
 71
     1
 10
0.0
 20
0.0
 11
12.0
 21
9.0
 12
0.0
 22
0.0
 32
0.0
 14
1.000000000000000E+20
 24
1.000000000000000E+20
 34
1.000000000000000E+20
 15
-1.000000000000000E+20
 25
-1.000000000000000E+20
 35
-1.000000000000000E+20
146
0.0
 13
0.0
 23
0.0
 33
0.0
 16
1.0
 26
0.0
 36
0.0
 17
0.0
 27
1.0
 37
0.0
 76
     0
330
1B
  0
LAYOUT
  5
26
102
{ACAD_REACTORS
330
1A
102
}
330
1A
100
AcDbPlotSettings
  1

  2
none_device
  4

  6

 40
0.0
 41
0.0
 42
0.0
 43
0.0
 44
0.0
 45
0.0
 46
0.0
 47
0.0
 48
0.0
 49
0.0
140
0.0
141
0.0
142
1.0
143
1.0
 70
   688
 72
     0
 73
     0
 74
     5
  7

 75
    16
 76
     0
 77
     2
 78
   300
147
1.0
148
0.0
149
0.0
100
AcDbLayout
  1
Layout2
 70
     1
 71
     2
 10
0.0
 20
0.0
 11
0.0
 21
0.0
 12
0.0
 22
0.0
 32
0.0
 14
0.0
 24
0.0
 34
0.0
 15
0.0
 25
0.0
 35
0.0
146
0.0
 13
0.0
 23
0.0
 33
0.0
 16
1.0
 26
0.0
 36
0.0
 17
0.0
 27
1.0
 37
0.0
 76
     0
330
23
  0
LAYOUT
  5
22
102
{ACAD_REACTORS
330
1A
102
}
330
1A
100
AcDbPlotSettings
  1

  2
none_device
  4

  6

 40
0.0
 41
0.0
 42
0.0
 43
0.0
 44
0.0
 45
0.0
 46
0.0
 47
0.0
 48
0.0
 49
0.0
140
0.0
141
0.0
142
1.0
143
1.0
 70
  1712
 72
     0
 73
     0
 74
     0
  7

 75
     0
 76
     0
 77
     2
 78
   300
147
1.0
148
0.0
149
0.0
100
AcDbLayout
  1
Model
 70
     1
 71
     0
 10
0.0
 20
0.0
 11
12.0
 21
9.0
 12
0.0
 22
0.0
 32
0.0
 14
-29.00014117581147
 24
-0.0000000000000017
 34
0.0
 15
56.13623443206403
 25
53.75003504942636
 35
0.0
146
0.0
 13
0.0
 23
0.0
 33
0.0
 16
1.0
 26
0.0
 36
0.0
 17
0.0
 27
1.0
 37
0.0
 76
     0
330
1F
331
29
  0
MLINESTYLE
  5
18
102
{ACAD_REACTORS
330
17
102
}
330
17
100
AcDbMlineStyle
  2
Standard
 70
     0
  3

 62
   256
 51
90.0
 52
90.0
 71
     2
 49
0.5
 62
   256
  6
BYLAYER
 49
-0.5
 62
   256
  6
BYLAYER
  0
ACDBPLACEHOLDER
  5
F
102
{ACAD_REACTORS
330
E
102
}
330
E
  0
VISUALSTYLE
  5
2F
102
{ACAD_REACTORS
330
2A
102
}
330
2A
100
AcDbVisualStyle
  2
2dWireframe
 70
     4
 71
     0
 72
     2
 73
     0
 90
        0
 40
-0.6
 41
-30.0
 62
     5
 63
     7
421
 16777215
 74
     1
 91
        4
 64
     7
 65
   257
 75
     1
175
     1
 42
1.0
 92
        0
 66
   257
 43
1.0
 76
     1
 77
     6
 78
     2
 67
     7
 79
     5
170
     0
171
     0
290
     0
174
     0
 93
        1
 44
0.0
173
     0
291
     0
 45
0.0
1001
ACAD
1000
AcDbSavedByObjectVersion
1070
     0
  0
VISUALSTYLE
  5
31
102
{ACAD_REACTORS
330
2A
102
}
330
2A
100
AcDbVisualStyle
  2
3D Hidden
 70
     6
 71
     1
 72
     2
 73
     2
 90
        0
 40
-0.6
 41
-30.0
 62
     5
 63
     7
421
 16777215
 74
     2
 91
        2
 64
     7
 65
   257
 75
     2
175
     1
 42
40.0
 92
        0
 66
   257
 43
1.0
 76
     1
 77
     6
 78
     2
 67
     7
 79
     3
170
     0
171
     0
290
     0
174
     0
 93
        1
 44
0.0
173
     0
291
     0
 45
0.0
1001
ACAD
1000
AcDbSavedByObjectVersion
1070
     0
  0
VISUALSTYLE
  5
30
102
{ACAD_REACTORS
330
2A
102
}
330
2A
100
AcDbVisualStyle
  2
3dWireframe
 70
     5
 71
     0
 72
     2
 73
     0
 90
        0
 40
-0.6
 41
-30.0
 62
     5
 63
     7
421
 16777215
 74
     1
 91
        4
 64
     7
 65
   257
 75
     1
175
     1
 42
1.0
 92
        0
 66
   257
 43
1.0
 76
     1
 77
     6
 78
     2
 67
     7
 79
     5
170
     0
171
     0
290
     0
174
     0
 93
        1
 44
0.0
173
     0
291
     0
 45
0.0
1001
ACAD
1000
AcDbSavedByObjectVersion
1070
     0
  0
VISUALSTYLE
  5
32
102
{ACAD_REACTORS
330
2A
102
}
330
2A
100
AcDbVisualStyle
  2
Basic
 70
     7
 71
     1
 72
     0
 73
     1
 90
        0
 40
-0.6
 41
-30.0
 62
     5
 63
     7
421
 16777215
 74
     0
 91
        4
 64
     7
 65
   257
 75
     1
175
     1
 42
1.0
 92
        8
 66
     7
 43
1.0
 76
     1
 77
     6
 78
     2
 67
     7
 79
     5
170
     0
171
     0
290
     0
174
     0
 93
        1
 44
0.0
173
     0
291
     1
 45
0.0
1001
ACAD
1000
AcDbSavedByObjectVersion
1070
     0
  0
VISUALSTYLE
  5
36
102
{ACAD_REACTORS
330
2A
102
}
330
2A
100
AcDbVisualStyle
  2
Brighten
 70
    12
 71
     2
 72
     2
 73
     0
 90
        0
 40
-0.6
 41
-30.0
 62
     5
 63
     7
421
 16777215
 74
     1
 91
        4
 64
     7
 65
   257
 75
     1
175
     1
 42
1.0
 92
        8
 66
     7
 43
1.0
 76
     1
 77
     6
 78
     2
 67
     7
 79
     5
170
     0
171
     0
290
     0
174
     0
 93
        1
 44
50.0
173
     0
291
     1
 45
0.0
1001
ACAD
1000
AcDbSavedByObjectVersion
1070
     0
  0
VISUALSTYLE
  5
3A
102
{ACAD_REACTORS
330
2A
102
}
330
2A
100
AcDbVisualStyle
  2
ColorChange
 70
    16
 71
     2
 72
     2
 73
     3
 90
        0
 40
-0.6
 41
-30.0
 62
     5
 63
     8
421
  8421504
 74
     1
 91
        4
 64
     7
 65
   257
 75
     1
175
     1
 42
1.0
 92
        8
 66
     8
424
  8421504
 43
1.0
 76
     1
 77
     6
 78
     2
 67
     7
 79
     5
170
     0
171
     0
290
     0
174
     0
 93
        1
 44
0.0
173
     0
291
     1
 45
0.0
1001
ACAD
1000
AcDbSavedByObjectVersion
1070
     0
  0
VISUALSTYLE
  5
34
102
{ACAD_REACTORS
330
2A
102
}
330
2A
100
AcDbVisualStyle
  2
Conceptual
 70
     9
 71
     3
 72
     2
 73
     0
 90
        0
 40
-0.6
 41
-30.0
 62
     5
 63
     7
421
 16777215
 74
     2
 91
        2
 64
     7
 65
   257
 75
     1
175
     1
 42
40.0
 92
        8
 66
     7
 43
1.0
 76
     1
 77
     6
 78
     2
 67
     7
 79
     3
170
     0
171
     0
290
     0
174
     0
 93
        1
 44
0.0
173
     0
291
     0
 45
0.0
1001
ACAD
1000
AcDbSavedByObjectVersion
1070
     0
  0
VISUALSTYLE
  5
35
102
{ACAD_REACTORS
330
2A
102
}
330
2A
100
AcDbVisualStyle
  2
Dim
 70
    11
 71
     2
 72
     2
 73
     0
 90
        0
 40
-0.6
 41
-30.0
 62
     5
 63
     7
421
 16777215
 74
     1
 91
        4
 64
     7
 65
   257
 75
     1
175
     1
 42
1.0
 92
        8
 66
     7
 43
1.0
 76
     1
 77
     6
 78
     2
 67
     7
 79
     5
170
     0
171
     0
290
     0
174
     0
 93
        1
 44
-50.0
173
     0
291
     1
 45
0.0
1001
ACAD
1000
AcDbSavedByObjectVersion
1070
     0
  0
VISUALSTYLE
  5
39
102
{ACAD_REACTORS
330
2A
102
}
330
2A
100
AcDbVisualStyle
  2
Facepattern
 70
    15
 71
     2
 72
     2
 73
     0
 90
        0
 40
-0.6
 41
-30.0
 62
     5
 63
     7
421
 16777215
 74
     1
 91
        4
 64
     7
 65
   257
 75
     1
175
     1
 42
1.0
 92
        8
 66
     7
 43
1.0
 76
     1
 77
     6
 78
     2
 67
     7
 79
     5
170
     0
171
     0
290
     0
174
     0
 93
        1
 44
0.0
173
     0
291
     1
 45
0.0
1001
ACAD
1000
AcDbSavedByObjectVersion
1070
     0
  0
VISUALSTYLE
  5
2B
102
{ACAD_REACTORS
330
2A
102
}
330
2A
100
AcDbVisualStyle
  2
Flat
 70
     0
 71
     2
 72
     1
 73
     1
 90
        2
 40
-0.6
 41
30.0
 62
     5
 63
     7
421
 16777215
 74
     0
 91
        4
 64
     7
 65
   257
 75
     1
175
     1
 42
1.0
 92
        8
 66
     7
 43
1.0
 76
     1
 77
     6
 78
     2
 67
     7
 79
     5
170
     0
171
     0
290
     0
174
     0
 93
       13
 44
0.0
173
     0
291
     1
 45
0.0
1001
ACAD
1000
AcDbSavedByObjectVersion
1070
     0
  0
VISUALSTYLE
  5
2C
102
{ACAD_REACTORS
330
2A
102
}
330
2A
100
AcDbVisualStyle
  2
FlatWithEdges
 70
     1
 71
     2
 72
     1
 73
     1
 90
        2
 40
-0.6
 41
30.0
 62
     5
 63
     7
421
 16777215
 74
     1
 91
        4
 64
     7
 65
   257
 75
     1
175
     1
 42
1.0
 92
        0
 66
   257
 43
1.0
 76
     1
 77
     6
 78
     2
 67
     7
 79
     5
170
     0
171
     0
290
     0
174
     0
 93
       13
 44
0.0
173
     0
291
     1
 45
0.0
1001
ACAD
1000
AcDbSavedByObjectVersion
1070
     0
  0
VISUALSTYLE
  5
2D
102
{ACAD_REACTORS
330
2A
102
}
330
2A
100
AcDbVisualStyle
  2
Gouraud
 70
     2
 71
     2
 72
     2
 73
     1
 90
        2
 40
-0.6
 41
30.0
 62
     5
 63
     7
421
 16777215
 74
     0
 91
        4
 64
     7
 65
   257
 75
     1
175
     1
 42
1.0
 92
        0
 66
     7
 43
1.0
 76
     1
 77
     6
 78
     2
 67
     7
 79
     5
170
     0
171
     0
290
     0
174
     0
 93
       13
 44
0.0
173
     0
291
     1
 45
0.0
1001
ACAD
1000
AcDbSavedByObjectVersion
1070
     0
  0
VISUALSTYLE
  5
2E
102
{ACAD_REACTORS
330
2A
102
}
330
2A
100
AcDbVisualStyle
  2
GouraudWithEdges
 70
     3
 71
     2
 72
     2
 73
     1
 90
        2
 40
-0.6
 41
30.0
 62
     5
 63
     7
421
 16777215
 74
     1
 91
        4
 64
     7
 65
   257
 75
     1
175
     1
 42
1.0
 92
        0
 66
   257
 43
1.0
 76
     1
 77
     6
 78
     2
 67
     7
 79
     5
170
     0
171
     0
290
     0
174
     0
 93
       13
 44
0.0
173
     0
291
     1
 45
0.0
1001
ACAD
1000
AcDbSavedByObjectVersion
1070
     0
  0
VISUALSTYLE
  5
38
102
{ACAD_REACTORS
330
2A
102
}
330
2A
100
AcDbVisualStyle
  2
Linepattern
 70
    14
 71
     2
 72
     2
 73
     0
 90
        0
 40
-0.6
 41
-30.0
 62
     5
 63
     7
421
 16777215
 74
     1
 91
        4
 64
     7
 65
   257
 75
     7
175
     7
 42
1.0
 92
        8
 66
     7
 43
1.0
 76
     1
 77
     6
 78
     2
 67
     7
 79
     5
170
     0
171
     0
290
     0
174
     0
 93
        1
 44
0.0
173
     0
291
     1
 45
0.0
1001
ACAD
1000
AcDbSavedByObjectVersion
1070
     0
  0
VISUALSTYLE
  5
33
102
{ACAD_REACTORS
330
2A
102
}
330
2A
100
AcDbVisualStyle
  2
Realistic
 70
     8
 71
     2
 72
     2
 73
     0
 90
        0
 40
-0.6
 41
-30.0
 62
     5
 63
     7
421
 16777215
 74
     1
 91
        0
 64
     7
 65
   257
 75
     1
175
     1
 42
1.0
 92
        8
 66
     8
424
  7895160
 43
1.0
 76
     1
 77
     6
 78
     2
 67
     7
 79
     5
170
     0
171
     0
290
     0
174
     0
 93
       13
 44
0.0
173
     0
291
     0
 45
0.0
1001
ACAD
1000
AcDbSavedByObjectVersion
1070
     0
  0
VISUALSTYLE
  5
37
102
{ACAD_REACTORS
330
2A
102
}
330
2A
100
AcDbVisualStyle
  2
Thicken
 70
    13
 71
     2
 72
     2
 73
     0
 90
        0
 40
-0.6
 41
-30.0
 62
     5
 63
     7
421
 16777215
 74
     1
 91
        4
 64
     7
 65
   257
 75
     1
175
     1
 42
1.0
 92
       12
 66
     7
 43
1.0
 76
     1
 77
     6
 78
     2
 67
     7
 79
     5
170
     0
171
     0
290
     0
174
     0
 93
        1
 44
0.0
173
     0
291
     1
 45
0.0
1001
ACAD
1000
AcDbSavedByObjectVersion
1070
     0
  0
ENDSEC
  0
EOF
