  0
SECTION
  2
HEADER
  9
$ACADVER
  1
AC1018
  9
$ACADMAINTVER
 70
     0
  9
$DWGCODEPAGE
  3
ANSI_1252
  9
$INSBASE
 10
0.0
 20
0.0
 30
0.0
  9
$EXTMIN
 10
-29.00012318015322
 20
-0.0000003311605639
 30
0.0
  9
$EXTMAX
 10
56.125
 20
49.25
 30
0.0
  9
$LIMMIN
 10
0.0
 20
0.0
  9
$LIMMAX
 10
12.0
 20
9.0
  9
$ORTHOMODE
 70
     0
  9
$REGENMODE
 70
     1
  9
$FILLMODE
 70
     1
  9
$QTEXTMODE
 70
     0
  9
$MIRRTEXT
 70
     1
  9
$LTSCALE
 40
0.0393700787401575
  9
$ATTMODE
 70
     1
  9
$TEXTSIZE
 40
0.2
  9
$TRACEWID
 40
0.05
  9
$TEXTSTYLE
  7
Standard
  9
$CLAYER
  8
DEFAULT
  9
$CELTYPE
  6
ByLayer
  9
$CECOLOR
 62
   256
  9
$CELTSCALE
 40
1.0
  9
$DISPSILH
 70
     0
  9
$DIMSCALE
 40
1.0
  9
$DIMASZ
 40
0.18
  9
$DIMEXO
 40
0.0625
  9
$DIMDLI
 40
0.38
  9
$DIMRND
 40
0.0
  9
$DIMDLE
 40
0.0
  9
$DIMEXE
 40
0.18
  9
$DIMTP
 40
0.0
  9
$DIMTM
 40
0.0
  9
$DIMTXT
 40
0.18
  9
$DIMCEN
 40
0.09
  9
$DIMTSZ
 40
0.0
  9
$DIMTOL
 70
     0
  9
$DIMLIM
 70
     0
  9
$DIMTIH
 70
     1
  9
$DIMTOH
 70
     1
  9
$DIMSE1
 70
     0
  9
$DIMSE2
 70
     0
  9
$DIMTAD
 70
     0
  9
$DIMZIN
 70
     0
  9
$DIMBLK
  1

  9
$DIMASO
 70
     1
  9
$DIMSHO
 70
     1
  9
$DIMPOST
  1

  9
$DIMAPOST
  1

  9
$DIMALT
 70
     0
  9
$DIMALTD
 70
     2
  9
$DIMALTF
 40
25.4
  9
$DIMLFAC
 40
1.0
  9
$DIMTOFL
 70
     0
  9
$DIMTVP
 40
0.0
  9
$DIMTIX
 70
     0
  9
$DIMSOXD
 70
     0
  9
$DIMSAH
 70
     0
  9
$DIMBLK1
  1

  9
$DIMBLK2
  1

  9
$DIMSTYLE
  2
Standard
  9
$DIMCLRD
 70
     0
  9
$DIMCLRE
 70
     0
  9
$DIMCLRT
 70
     0
  9
$DIMTFAC
 40
1.0
  9
$DIMGAP
 40
0.09
  9
$DIMJUST
 70
     0
  9
$DIMSD1
 70
     0
  9
$DIMSD2
 70
     0
  9
$DIMTOLJ
 70
     1
  9
$DIMTZIN
 70
     0
  9
$DIMALTZ
 70
     0
  9
$DIMALTTZ
 70
     0
  9
$DIMUPT
 70
     0
  9
$DIMDEC
 70
     4
  9
$DIMTDEC
 70
     4
  9
$DIMALTU
 70
     2
  9
$DIMALTTD
 70
     2
  9
$DIMTXSTY
  7
Standard
  9
$DIMAUNIT
 70
     0
  9
$DIMADEC
 70
     0
  9
$DIMALTRND
 40
0.0
  9
$DIMAZIN
 70
     0
  9
$DIMDSEP
 70
    46
  9
$DIMATFIT
 70
     3
  9
$DIMFRAC
 70
     0
  9
$DIMLDRBLK
  1

  9
$DIMLUNIT
 70
     2
  9
$DIMLWD
 70
    -2
  9
$DIMLWE
 70
    -2
  9
$DIMTMOVE
 70
     2
  9
$LUNITS
 70
     2
  9
$LUPREC
 70
     3
  9
$SKETCHINC
 40
0.1
  9
$FILLETRAD
 40
0.5
  9
$AUNITS
 70
     0
  9
$AUPREC
 70
     0
  9
$MENU
  1
.
  9
$ELEVATION
 40
0.0
  9
$PELEVATION
 40
0.0
  9
$THICKNESS
 40
0.0
  9
$LIMCHECK
 70
     0
  9
$CHAMFERA
 40
0.5
  9
$CHAMFERB
 40
0.5
  9
$CHAMFERC
 40
1.0
  9
$CHAMFERD
 40
0.0
  9
$SKPOLY
 70
     0
  9
$TDCREATE
 40
2456045.403618195
  9
$TDUCREATE
 40
2456045.570284861
  9
$TDUPDATE
 40
2456045.403618206
  9
$TDUUPDATE
 40
2456045.570284873
  9
$TDINDWG
 40
0.0000000116
  9
$TDUSRTIMER
 40
0.0000000116
  9
$USRTIMER
 70
     1
  9
$ANGBASE
 50
0.0
  9
$ANGDIR
 70
     0
  9
$PDMODE
 70
     0
  9
$PDSIZE
 40
0.0
  9
$PLINEWID
 40
0.0
  9
$SPLFRAME
 70
     0
  9
$SPLINETYPE
 70
     6
  9
$SPLINESEGS
 70
     8
  9
$HANDSEED
  5
51
  9
$SURFTAB1
 70
     6
  9
$SURFTAB2
 70
     6
  9
$SURFTYPE
 70
     6
  9
$SURFU
 70
     6
  9
$SURFV
 70
     6
  9
$UCSBASE
  2

  9
$UCSNAME
  2

  9
$UCSORG
 10
0.0
 20
0.0
 30
0.0
  9
$UCSXDIR
 10
1.0
 20
0.0
 30
0.0
  9
$UCSYDIR
 10
0.0
 20
1.0
 30
0.0
  9
$UCSORTHOREF
  2

  9
$UCSORTHOVIEW
 70
     0
  9
$UCSORGTOP
 10
0.0
 20
0.0
 30
0.0
  9
$UCSORGBOTTOM
 10
0.0
 20
0.0
 30
0.0
  9
$UCSORGLEFT
 10
0.0
 20
0.0
 30
0.0
  9
$UCSORGRIGHT
 10
0.0
 20
0.0
 30
0.0
  9
$UCSORGFRONT
 10
0.0
 20
0.0
 30
0.0
  9
$UCSORGBACK
 10
0.0
 20
0.0
 30
0.0
  9
$PUCSBASE
  2

  9
$PUCSNAME
  2

  9
$PUCSORG
 10
0.0
 20
0.0
 30
0.0
  9
$PUCSXDIR
 10
1.0
 20
0.0
 30
0.0
  9
$PUCSYDIR
 10
0.0
 20
1.0
 30
0.0
  9
$PUCSORTHOREF
  2

  9
$PUCSORTHOVIEW
 70
     0
  9
$PUCSORGTOP
 10
0.0
 20
0.0
 30
0.0
  9
$PUCSORGBOTTOM
 10
0.0
 20
0.0
 30
0.0
  9
$PUCSORGLEFT
 10
0.0
 20
0.0
 30
0.0
  9
$PUCSORGRIGHT
 10
0.0
 20
0.0
 30
0.0
  9
$PUCSORGFRONT
 10
0.0
 20
0.0
 30
0.0
  9
$PUCSORGBACK
 10
0.0
 20
0.0
 30
0.0
  9
$USERI1
 70
     0
  9
$USERI2
 70
     0
  9
$USERI3
 70
     0
  9
$USERI4
 70
     0
  9
$USERI5
 70
     0
  9
$USERR1
 40
0.0
  9
$USERR2
 40
0.0
  9
$USERR3
 40
0.0
  9
$USERR4
 40
0.0
  9
$USERR5
 40
0.0
  9
$WORLDVIEW
 70
     1
  9
$SHADEDGE
 70
     3
  9
$SHADEDIF
 70
    70
  9
$TILEMODE
 70
     1
  9
$MAXACTVP
 70
    64
  9
$PINSBASE
 10
0.0
 20
0.0
 30
0.0
  9
$PLIMCHECK
 70
     0
  9
$PEXTMIN
 10
1.000000000000000E+20
 20
1.000000000000000E+20
 30
1.000000000000000E+20
  9
$PEXTMAX
 10
-1.000000000000000E+20
 20
-1.000000000000000E+20
 30
-1.000000000000000E+20
  9
$PLIMMIN
 10
0.0
 20
0.0
  9
$PLIMMAX
 10
12.0
 20
9.0
  9
$UNITMODE
 70
     0
  9
$VISRETAIN
 70
     1
  9
$PLINEGEN
 70
     0
  9
$PSLTSCALE
 70
     1
  9
$TREEDEPTH
 70
  3020
  9
$CMLSTYLE
  2
Standard
  9
$CMLJUST
 70
     0
  9
$CMLSCALE
 40
1.0
  9
$PROXYGRAPHICS
 70
     1
  9
$MEASUREMENT
 70
     0
  9
$CELWEIGHT
370
    -1
  9
$ENDCAPS
280
     0
  9
$JOINSTYLE
280
     0
  9
$LWDISPLAY
290
     0
  9
$INSUNITS
 70
     1
  9
$HYPERLINKBASE
  1

  9
$STYLESHEET
  1

  9
$XEDIT
290
     1
  9
$CEPSNTYPE
380
     0
  9
$PSTYLEMODE
290
     1
  9
$FINGERPRINTGUID
  2
{538F9757-9F12-49BA-A1C5-F51BA3B2BAF0}
  9
$VERSIONGUID
  2
{FAEB1C32-E019-11D5-929B-00C0DF256EC4}
  9
$EXTNAMES
290
     1
  9
$PSVPSCALE
 40
0.0
  9
$OLESTARTUP
290
     0
  9
$SORTENTS
280
   127
  9
$INDEXCTL
280
     0
  9
$HIDETEXT
280
     1
  9
$XCLIPFRAME
290
     0
  9
$HALOGAP
280
     0
  9
$OBSCOLOR
 70
   257
  9
$OBSLTYPE
280
     0
  9
$INTERSECTIONDISPLAY
280
     0
  9
$INTERSECTIONCOLOR
 70
   257
  9
$DIMASSOC
280
     2
  9
$PROJECTNAME
  1

  0
ENDSEC
  0
SECTION
  2
CLASSES
  0
CLASS
  1
ACDBDICTIONARYWDFLT
  2
AcDbDictionaryWithDefault
  3
ObjectDBX Classes
 90
        0
 91
        4
280
     0
281
     0
  0
CLASS
  1
VISUALSTYLE
  2
AcDbVisualStyle
  3
ObjectDBX Classes
 90
     4095
 91
        4
280
     0
281
     0
  0
ENDSEC
  0
SECTION
  2
TABLES
  0
TABLE
  2
VPORT
  5
8
330
0
100
AcDbSymbolTable
 70
     1
  0
VPORT
  5
29
330
8
100
AcDbSymbolTableRecord
100
AcDbViewportTableRecord
  2
*Active
 70
     0
 10
0.0
 20
0.0
 11
1.0
 21
1.0
 12
13.56243840992339
 22
24.62499983441972
 13
0.0
 23
0.0
 14
0.5
 24
0.5
 15
0.5
 25
0.5
 16
0.0
 26
0.0
 36
1.0
 17
0.0
 27
0.0
 37
0.0
 40
50.23500033778377
 41
1.728428885436868
 42
50.0
 43
0.0
 44
0.0
 50
0.0
 51
0.0
 71
     0
 72
   100
 73
     1
 74
     3
 75
     0
 76
     0
 77
     0
 78
     0
281
     0
 65
     1
110
0.0
120
0.0
130
0.0
111
1.0
121
0.0
131
0.0
112
0.0
122
1.0
132
0.0
 79
     0
146
0.0
  0
ENDTAB
  0
TABLE
  2
LTYPE
  5
5
330
0
100
AcDbSymbolTable
 70
     1
  0
LTYPE
  5
14
330
5
100
AcDbSymbolTableRecord
100
AcDbLinetypeTableRecord
  2
ByBlock
 70
     0
  3

 72
    65
 73
     0
 40
0.0
  0
LTYPE
  5
15
330
5
100
AcDbSymbolTableRecord
100
AcDbLinetypeTableRecord
  2
ByLayer
 70
     0
  3

 72
    65
 73
     0
 40
0.0
  0
LTYPE
  5
16
330
5
100
AcDbSymbolTableRecord
100
AcDbLinetypeTableRecord
  2
Continuous
 70
     0
  3
Solid line
 72
    65
 73
     0
 40
0.0
  0
ENDTAB
  0
TABLE
  2
LAYER
  5
2
330
0
100
AcDbSymbolTable
 70
     2
  0
LAYER
  5
10
330
2
100
AcDbSymbolTableRecord
100
AcDbLayerTableRecord
  2
0
 70
     0
 62
     7
  6
Continuous
370
    -3
390
F
  0
LAYER
  5
3B
330
2
100
AcDbSymbolTableRecord
100
AcDbLayerTableRecord
  2
DEFAULT
 70
     0
 62
     7
  6
Continuous
370
    -3
390
F
  0
ENDTAB
  0
TABLE
  2
STYLE
  5
3
330
0
100
AcDbSymbolTable
 70
     1
  0
STYLE
  5
11
330
3
100
AcDbSymbolTableRecord
100
AcDbTextStyleTableRecord
  2
Standard
 70
     0
 40
0.0
 41
1.0
 50
0.0
 71
     0
 42
0.2
  3
txt
  4

  0
ENDTAB
  0
TABLE
  2
VIEW
  5
6
330
0
100
AcDbSymbolTable
 70
     0
  0
ENDTAB
  0
TABLE
  2
UCS
  5
7
330
0
100
AcDbSymbolTable
 70
     0
  0
ENDTAB
  0
TABLE
  2
APPID
  5
9
330
0
100
AcDbSymbolTable
 70
     1
  0
APPID
  5
12
330
9
100
AcDbSymbolTableRecord
100
AcDbRegAppTableRecord
  2
ACAD
 70
     0
  0
ENDTAB
  0
TABLE
  2
DIMSTYLE
  5
A
330
0
100
AcDbSymbolTable
 70
     1
100
AcDbDimStyleTable
  0
DIMSTYLE
105
27
330
A
100
AcDbSymbolTableRecord
100
AcDbDimStyleTableRecord
  2
Standard
 70
     0
340
11
  0
ENDTAB
  0
TABLE
  2
BLOCK_RECORD
  5
1
330
0
100
AcDbSymbolTable
 70
     1
  0
BLOCK_RECORD
  5
1F
330
1
100
AcDbSymbolTableRecord
100
AcDbBlockTableRecord
  2
*Model_Space
340
22
  0
BLOCK_RECORD
  5
1B
330
1
100
AcDbSymbolTableRecord
100
AcDbBlockTableRecord
  2
*Paper_Space
340
1E
  0
BLOCK_RECORD
  5
23
330
1
100
AcDbSymbolTableRecord
100
AcDbBlockTableRecord
  2
*Paper_Space0
340
26
  0
ENDTAB
  0
ENDSEC
  0
SECTION
  2
BLOCKS
  0
BLOCK
  5
20
330
1F
100
AcDbEntity
  8
0
100
AcDbBlockBegin
  2
*Model_Space
 70
     0
 10
0.0
 20
0.0
 30
0.0
  3
*Model_Space
  1

  0
ENDBLK
  5
21
330
1F
100
AcDbEntity
  8
0
100
AcDbBlockEnd
  0
BLOCK
  5
1C
330
1B
100
AcDbEntity
 67
     1
  8
0
100
AcDbBlockBegin
  2
*Paper_Space
 70
     0
 10
0.0
 20
0.0
 30
0.0
  3
*Paper_Space
  1

  0
ENDBLK
  5
1D
330
1B
100
AcDbEntity
 67
     1
  8
0
100
AcDbBlockEnd
  0
BLOCK
  5
24
330
23
100
AcDbEntity
  8
0
100
AcDbBlockBegin
  2
*Paper_Space0
 70
     0
 10
0.0
 20
0.0
 30
0.0
  3
*Paper_Space0
  1

  0
ENDBLK
  5
25
330
23
100
AcDbEntity
  8
0
100
AcDbBlockEnd
  0
ENDSEC
  0
SECTION
  2
ENTITIES
  0
SPLINE
  5
3C
330
1F
100
AcDbEntity
  8
DEFAULT
100
AcDbSpline
210
0.0
220
0.0
230
1.0
 70
    11
 71
     2
 72
   380
 73
   377
 74
     0
 42
0.0000000001
 43
0.0000000001
 40
0.0
 40
0.0
 40
0.0
 40
1.0
 40
1.0
 40
2.0
 40
2.0
 40
3.0
 40
3.0
 40
4.0
 40
4.0
 40
5.0
 40
5.0
 40
6.0
 40
6.0
 40
7.0
 40
7.0
 40
8.0
 40
8.0
 40
9.0
 40
9.0
 40
10.0
 40
10.0
 40
11.0
 40
11.0
 40
12.0
 40
12.0
 40
13.0
 40
13.0
 40
14.0
 40
14.0
 40
15.0
 40
15.0
 40
16.0
 40
16.0
 40
17.0
 40
17.0
 40
18.0
 40
18.0
 40
19.0
 40
19.0
 40
20.0
 40
20.0
 40
21.0
 40
21.0
 40
22.0
 40
22.0
 40
23.0
 40
23.0
 40
24.0
 40
24.0
 40
25.0
 40
25.0
 40
26.0
 40
26.0
 40
27.0
 40
27.0
 40
28.0
 40
28.0
 40
29.0
 40
29.0
 40
30.0
 40
30.0
 40
31.0
 40
31.0
 40
32.0
 40
32.0
 40
33.0
 40
33.0
 40
34.0
 40
34.0
 40
35.0
 40
35.0
 40
36.0
 40
36.0
 40
37.0
 40
37.0
 40
38.0
 40
38.0
 40
39.0
 40
39.0
 40
40.0
 40
40.0
 40
41.0
 40
41.0
 40
42.0
 40
42.0
 40
43.0
 40
43.0
 40
44.0
 40
44.0
 40
45.0
 40
45.0
 40
46.0
 40
46.0
 40
47.0
 40
47.0
 40
48.0
 40
48.0
 40
49.0
 40
49.0
 40
50.0
 40
50.0
 40
51.0
 40
51.0
 40
52.0
 40
52.0
 40
53.0
 40
53.0
 40
54.0
 40
54.0
 40
55.0
 40
55.0
 40
56.0
 40
56.0
 40
57.0
 40
57.0
 40
58.0
 40
58.0
 40
59.0
 40
59.0
 40
60.0
 40
60.0
 40
61.0
 40
61.0
 40
62.0
 40
62.0
 40
63.0
 40
63.0
 40
64.0
 40
64.0
 40
65.0
 40
65.0
 40
66.0
 40
66.0
 40
67.0
 40
67.0
 40
68.0
 40
68.0
 40
69.0
 40
69.0
 40
70.0
 40
70.0
 40
71.0
 40
71.0
 40
72.0
 40
72.0
 40
73.0
 40
73.0
 40
74.0
 40
74.0
 40
75.0
 40
75.0
 40
76.0
 40
76.0
 40
77.0
 40
77.0
 40
78.0
 40
78.0
 40
79.0
 40
79.0
 40
80.0
 40
80.0
 40
81.0
 40
81.0
 40
82.0
 40
82.0
 40
83.0
 40
83.0
 40
84.0
 40
84.0
 40
85.0
 40
85.0
 40
86.0
 40
86.0
 40
87.0
 40
87.0
 40
88.0
 40
88.0
 40
89.0
 40
89.0
 40
90.0
 40
90.0
 40
91.0
 40
91.0
 40
92.0
 40
92.0
 40
93.0
 40
93.0
 40
94.0
 40
94.0
 40
95.0
 40
95.0
 40
96.0
 40
96.0
 40
97.0
 40
97.0
 40
98.0
 40
98.0
 40
99.0
 40
99.0
 40
100.0
 40
100.0
 40
101.0
 40
101.0
 40
102.0
 40
102.0
 40
103.0
 40
103.0
 40
104.0
 40
104.0
 40
105.0
 40
105.0
 40
106.0
 40
106.0
 40
107.0
 40
107.0
 40
108.0
 40
108.0
 40
109.0
 40
109.0
 40
110.0
 40
110.0
 40
111.0
 40
111.0
 40
112.0
 40
112.0
 40
113.0
 40
113.0
 40
114.0
 40
114.0
 40
115.0
 40
115.0
 40
116.0
 40
116.0
 40
117.0
 40
117.0
 40
118.0
 40
118.0
 40
119.0
 40
119.0
 40
120.0
 40
120.0
 40
121.0
 40
121.0
 40
122.0
 40
122.0
 40
123.0
 40
123.0
 40
124.0
 40
124.0
 40
125.0
 40
125.0
 40
126.0
 40
126.0
 40
127.0
 40
127.0
 40
128.0
 40
128.0
 40
129.0
 40
129.0
 40
130.0
 40
130.0
 40
131.0
 40
131.0
 40
132.0
 40
132.0
 40
133.0
 40
133.0
 40
134.0
 40
134.0
 40
135.0
 40
135.0
 40
136.0
 40
136.0
 40
137.0
 40
137.0
 40
138.0
 40
138.0
 40
139.0
 40
139.0
 40
140.0
 40
140.0
 40
141.0
 40
141.0
 40
142.0
 40
142.0
 40
143.0
 40
143.0
 40
144.0
 40
144.0
 40
145.0
 40
145.0
 40
146.0
 40
146.0
 40
147.0
 40
147.0
 40
148.0
 40
148.0
 40
149.0
 40
149.0
 40
150.0
 40
150.0
 40
151.0
 40
151.0
 40
152.0
 40
152.0
 40
153.0
 40
153.0
 40
154.0
 40
154.0
 40
155.0
 40
155.0
 40
156.0
 40
156.0
 40
157.0
 40
157.0
 40
158.0
 40
158.0
 40
159.0
 40
159.0
 40
160.0
 40
160.0
 40
161.0
 40
161.0
 40
162.0
 40
162.0
 40
163.0
 40
163.0
 40
164.0
 40
164.0
 40
165.0
 40
165.0
 40
166.0
 40
166.0
 40
167.0
 40
167.0
 40
168.0
 40
168.0
 40
169.0
 40
169.0
 40
170.0
 40
170.0
 40
171.0
 40
171.0
 40
172.0
 40
172.0
 40
173.0
 40
173.0
 40
174.0
 40
174.0
 40
175.0
 40
175.0
 40
176.0
 40
176.0
 40
177.0
 40
177.0
 40
178.0
 40
178.0
 40
179.0
 40
179.0
 40
180.0
 40
180.0
 40
181.0
 40
181.0
 40
182.0
 40
182.0
 40
183.0
 40
183.0
 40
184.0
 40
184.0
 40
185.0
 40
185.0
 40
186.0
 40
186.0
 40
187.0
 40
187.0
 40
188.0
 40
188.0
 40
188.0
 10
28.62512318015322
 20
49.25
 30
0.0
 10
0.0
 20
49.25
 30
0.0
 10
-28.62512318015322
 20
49.25
 30
0.0
 10
-28.63152463831308
 20
49.24989069169366
 30
0.0
 10
-28.63792609647295
 20
49.24978138338732
 30
0.0
 10
-28.64432009081894
 20
49.2494535859169
 30
0.0
 10
-28.65071408516495
 20
49.24912578844646
 30
0.0
 10
-28.65709316058572
 20
49.24857988400912
 30
0.0
 10
-28.6634722360065
 20
49.24803397957178
 30
0.0
 10
-28.66982895478541
 20
49.2472706046677
 30
0.0
 10
-28.67618567356433
 20
49.24650722976362
 30
0.0
 10
-28.68251262405165
 20
49.24552727445379
 30
0.0
 10
-28.68883957453897
 20
49.24454731914395
 30
0.0
 10
-28.69512937979346
 20
49.24335192601241
 30
0.0
 10
-28.70141918504795
 20
49.24215653288087
 30
0.0
 10
-28.70766451143803
 20
49.24074709570256
 30
0.0
 10
-28.71390983782812
 20
49.23933765852424
 30
0.0
 10
-28.72010340358262
 20
49.23771582063983
 30
0.0
 10
-28.72629696933713
 20
49.23609398275542
 30
0.0
 10
-28.73243155303538
 20
49.23426163515536
 30
0.0
 10
-28.73856613673364
 20
49.23242928755531
 30
0.0
 10
-28.74463458572549
 20
49.23038856667493
 30
0.0
 10
-28.75070303471734
 20
49.22834784579456
 30
0.0
 10
-28.75669827346272
 20
49.22610113102313
 30
0.0
 10
-28.76269351220811
 20
49.22385441625169
 30
0.0
 10
-28.76860855052682
 20
49.22140432715812
 30
0.0
 10
-28.77452358884554
 20
49.21895423806455
 30
0.0
 10
-28.78035153006753
 20
49.21630363134312
 30
0.0
 10
-28.78617947128952
 20
49.21365302462169
 30
0.0
 10
-28.79191352029597
 20
49.21080499076129
 30
0.0
 10
-28.79764756930242
 20
49.20795695690089
 30
0.0
 10
-28.8032810404487
 20
49.20491481658159
 30
0.0
 10
-28.80891451159498
 20
49.20187267626228
 30
0.0
 10
-28.81444083650574
 20
49.19863997648361
 30
0.0
 10
-28.8199671614165
 20
49.19540727670493
 30
0.0
 10
-28.8253798966441
 20
49.19198778665023
 30
0.0
 10
-28.8307926318717
 20
49.18856829659553
 30
0.0
 10
-28.83608546640901
 20
49.18496600323721
 30
0.0
 10
-28.84137830094632
 20
49.1813637098789
 30
0.0
 10
-28.84654506358498
 20
49.17758281332993
 30
0.0
 10
-28.85171182622364
 20
49.17380191678095
 30
0.0
 10
-28.85674649274956
 20
49.16984682539756
 30
0.0
 10
-28.86178115927549
 20
49.16589173401415
 30
0.0
 10
-28.86667785949272
 20
49.16176705925596
 30
0.0
 10
-28.87157455970995
 20
49.15764238449776
 30
0.0
 10
-28.87632758428507
 20
49.15335293555104
 30
0.0
 10
-28.8810806088602
 20
49.14906348660431
 30
0.0
 10
-28.88568441597918
 20
49.14461426477465
 30
0.0
 10
-28.89028822309816
 20
49.14016504294498
 30
0.0
 10
-28.89473744492784
 20
49.13556123582599
 30
0.0
 10
-28.89918666675753
 20
49.13095742870699
 30
0.0
 10
-28.90347611570426
 20
49.12620440413187
 30
0.0
 10
-28.90776556465099
 20
49.12145137955674
 30
0.0
 10
-28.91189023940917
 20
49.1165546793395
 30
0.0
 10
-28.91601491416737
 20
49.11165797912227
 30
0.0
 10
-28.91997000555077
 20
49.10662331259635
 30
0.0
 10
-28.92392509693418
 20
49.10158864607043
 30
0.0
 10
-28.92770599348315
 20
49.09642188343177
 30
0.0
 10
-28.93148689003212
 20
49.0912551207931
 30
0.0
 10
-28.93508918339043
 20
49.08596228625579
 30
0.0
 10
-28.93869147674875
 20
49.08066945171848
 30
0.0
 10
-28.94211096680345
 20
49.07525671649088
 30
0.0
 10
-28.94553045685816
 20
49.06984398126328
 30
0.0
 10
-28.94876315663683
 20
49.06431765635252
 30
0.0
 10
-28.9519958564155
 20
49.05879133144176
 30
0.0
 10
-28.9550379967348
 20
49.05315786029549
 30
0.0
 10
-28.9580801370541
 20
49.0475243891492
 30
0.0
 10
-28.9609281709145
 20
49.04179034014275
 30
0.0
 10
-28.96377620477491
 20
49.0360562911363
 30
0.0
 10
-28.96642681149634
 20
49.03022834991431
 30
0.0
 10
-28.96907741821777
 20
49.02440040869232
 30
0.0
 10
-28.97152750731134
 20
49.01848537037361
 30
0.0
 10
-28.97397759640491
 20
49.01257033205489
 30
0.0
 10
-28.97622431117634
 20
49.00657509330951
 30
0.0
 10
-28.97847102594778
 20
49.00057985456412
 30
0.0
 10
-28.98051174682815
 20
48.99451140557227
 30
0.0
 10
-28.98255246770853
 20
48.98844295658041
 30
0.0
 10
-28.98438481530858
 20
48.98230837288216
 30
0.0
 10
-28.98621716290864
 20
48.97617378918391
 30
0.0
 10
-28.98783900079304
 20
48.9699802234294
 30
0.0
 10
-28.98946083867745
 20
48.96378665767489
 30
0.0
 10
-28.99087027585577
 20
48.95754133128481
 30
0.0
 10
-28.99227971303409
 20
48.95129600489473
 30
0.0
 10
-28.99347510616563
 20
48.94500619964024
 30
0.0
 10
-28.99467049929717
 20
48.93871639438575
 30
0.0
 10
-28.995650454607
 20
48.93238944389843
 30
0.0
 10
-28.99663040991684
 20
48.9260624934111
 30
0.0
 10
-28.99739378482091
 20
48.91970577463219
 30
0.0
 10
-28.998157159725
 20
48.91334905585329
 30
0.0
 10
-28.99870306416233
 20
48.90696998043251
 30
0.0
 10
-28.99924896859967
 20
48.90059090501173
 30
0.0
 10
-28.9995767660701
 20
48.89419691066573
 30
0.0
 10
-28.99990456354054
 20
48.88780291631973
 30
0.0
 10
-29.00001387184687
 20
48.88140145815986
 30
0.0
 10
-29.00012318015322
 20
48.875
 30
0.0
 10
-29.00012318015322
 20
41.375
 30
0.0
 10
-29.00012318015322
 20
33.875
 30
0.0
 10
-29.00001387184687
 20
33.86859854184014
 30
0.0
 10
-28.99990456354054
 20
33.86219708368027
 30
0.0
 10
-28.9995767660701
 20
33.85580308933427
 30
0.0
 10
-28.99924896859967
 20
33.84940909498827
 30
0.0
 10
-28.99870306416233
 20
33.84303001956749
 30
0.0
 10
-28.998157159725
 20
33.83665094414671
 30
0.0
 10
-28.99739378482091
 20
33.83029422536781
 30
0.0
 10
-28.99663040991684
 20
33.8239375065889
 30
0.0
 10
-28.995650454607
 20
33.81761055610157
 30
0.0
 10
-28.99467049929717
 20
33.81128360561425
 30
0.0
 10
-28.99347510616563
 20
33.80499380035976
 30
0.0
 10
-28.99227971303409
 20
33.79870399510527
 30
0.0
 10
-28.99087027585577
 20
33.79245866871519
 30
0.0
 10
-28.98946083867745
 20
33.78621334232511
 30
0.0
 10
-28.98783900079304
 20
33.7800197765706
 30
0.0
 10
-28.98621716290864
 20
33.77382621081609
 30
0.0
 10
-28.98438481530858
 20
33.76769162711784
 30
0.0
 10
-28.98255246770853
 20
33.76155704341959
 30
0.0
 10
-28.98051174682815
 20
33.75548859442773
 30
0.0
 10
-28.97847102594778
 20
33.74942014543588
 30
0.0
 10
-28.97622431117634
 20
33.74342490669049
 30
0.0
 10
-28.97397759640491
 20
33.73742966794511
 30
0.0
 10
-28.97152750731134
 20
33.73151462962639
 30
0.0
 10
-28.96907741821777
 20
33.72559959130768
 30
0.0
 10
-28.96642681149634
 20
33.71977165008569
 30
0.0
 10
-28.96377620477491
 20
33.7139437088637
 30
0.0
 10
-28.9609281709145
 20
33.70820965985725
 30
0.0
 10
-28.9580801370541
 20
33.7024756108508
 30
0.0
 10
-28.9550379967348
 20
33.69684213970451
 30
0.0
 10
-28.9519958564155
 20
33.69120866855824
 30
0.0
 10
-28.94876315663683
 20
33.68568234364748
 30
0.0
 10
-28.94553045685816
 20
33.68015601873672
 30
0.0
 10
-28.94211096680345
 20
33.67474328350912
 30
0.0
 10
-28.93869147674875
 20
33.66933054828152
 30
0.0
 10
-28.93508918339043
 20
33.66403771374421
 30
0.0
 10
-28.93148689003212
 20
33.6587448792069
 30
0.0
 10
-28.92770599348315
 20
33.65357811656823
 30
0.0
 10
-28.92392509693418
 20
33.64841135392957
 30
0.0
 10
-28.91997000555077
 20
33.64337668740365
 30
0.0
 10
-28.91601491416737
 20
33.63834202087773
 30
0.0
 10
-28.91189023940917
 20
33.6334453206605
 30
0.0
 10
-28.90776556465099
 20
33.62854862044326
 30
0.0
 10
-28.90347611570426
 20
33.62379559586813
 30
0.0
 10
-28.89918666675753
 20
33.61904257129301
 30
0.0
 10
-28.89473744492784
 20
33.61443876417401
 30
0.0
 10
-28.89028822309816
 20
33.60983495705502
 30
0.0
 10
-28.88568441597918
 20
33.60538573522535
 30
0.0
 10
-28.8810806088602
 20
33.60093651339569
 30
0.0
 10
-28.87632758428507
 20
33.59664706444896
 30
0.0
 10
-28.87157455970995
 20
33.59235761550224
 30
0.0
 10
-28.86667785949272
 20
33.58823294074404
 30
0.0
 10
-28.86178115927549
 20
33.58410826598585
 30
0.0
 10
-28.85674649274956
 20
33.58015317460244
 30
0.0
 10
-28.85171182622364
 20
33.57619808321905
 30
0.0
 10
-28.84654506358498
 20
33.57241718667007
 30
0.0
 10
-28.84137830094632
 20
33.5686362901211
 30
0.0
 10
-28.83608546640901
 20
33.56503399676279
 30
0.0
 10
-28.8307926318717
 20
33.56143170340447
 30
0.0
 10
-28.8253798966441
 20
33.55801221334977
 30
0.0
 10
-28.8199671614165
 20
33.55459272329507
 30
0.0
 10
-28.81444083650574
 20
33.55136002351639
 30
0.0
 10
-28.80891451159498
 20
33.54812732373772
 30
0.0
 10
-28.8032810404487
 20
33.54508518341841
 30
0.0
 10
-28.79764756930242
 20
33.54204304309911
 30
0.0
 10
-28.79191352029597
 20
33.53919500923871
 30
0.0
 10
-28.78617947128952
 20
33.53634697537831
 30
0.0
 10
-28.78035153006753
 20
33.53369636865688
 30
0.0
 10
-28.77452358884554
 20
33.53104576193545
 30
0.0
 10
-28.76860855052682
 20
33.52859567284188
 30
0.0
 10
-28.76269351220811
 20
33.52614558374831
 30
0.0
 10
-28.75669827346272
 20
33.52389886897687
 30
0.0
 10
-28.75070303471734
 20
33.52165215420544
 30
0.0
 10
-28.74463458572549
 20
33.51961143332507
 30
0.0
 10
-28.73856613673364
 20
33.51757071244469
 30
0.0
 10
-28.73243155303538
 20
33.51573836484464
 30
0.0
 10
-28.72629696933713
 20
33.51390601724458
 30
0.0
 10
-28.72010340358262
 20
33.51228417936017
 30
0.0
 10
-28.71390983782812
 20
33.51066234147576
 30
0.0
 10
-28.70766451143803
 20
33.50925290429744
 30
0.0
 10
-28.70141918504795
 20
33.50784346711913
 30
0.0
 10
-28.69512937979346
 20
33.50664807398759
 30
0.0
 10
-28.68883957453897
 20
33.50545268085605
 30
0.0
 10
-28.68251262405165
 20
33.50447272554621
 30
0.0
 10
-28.67618567356433
 20
33.50349277023638
 30
0.0
 10
-28.66982895478541
 20
33.5027293953323
 30
0.0
 10
-28.6634722360065
 20
33.50196602042822
 30
0.0
 10
-28.65709316058572
 20
33.50142011599088
 30
0.0
 10
-28.65071408516495
 20
33.50087421155354
 30
0.0
 10
-28.64432009081894
 20
33.5005464140831
 30
0.0
 10
-28.63792609647295
 20
33.50021861661268
 30
0.0
 10
-28.63152463831308
 20
33.50010930830634
 30
0.0
 10
-28.62512318015322
 20
33.5
 30
0.0
 10
0.0
 20
33.5
 30
0.0
 10
28.62512318015322
 20
33.5
 30
0.0
 10
28.63152463831308
 20
33.50010930830634
 30
0.0
 10
28.63792609647295
 20
33.50021861661268
 30
0.0
 10
28.64432009081894
 20
33.5005464140831
 30
0.0
 10
28.65071408516495
 20
33.50087421155354
 30
0.0
 10
28.65709316058572
 20
33.50142011599088
 30
0.0
 10
28.66347223600651
 20
33.50196602042821
 30
0.0
 10
28.66982895478542
 20
33.5027293953323
 30
0.0
 10
28.67618567356433
 20
33.50349277023638
 30
0.0
 10
28.68251262405165
 20
33.50447272554621
 30
0.0
 10
28.68883957453897
 20
33.50545268085605
 30
0.0
 10
28.69512937979346
 20
33.50664807398759
 30
0.0
 10
28.70141918504795
 20
33.50784346711913
 30
0.0
 10
28.70766451143803
 20
33.50925290429744
 30
0.0
 10
28.71390983782812
 20
33.51066234147576
 30
0.0
 10
28.72010340358262
 20
33.51228417936017
 30
0.0
 10
28.72629696933713
 20
33.51390601724458
 30
0.0
 10
28.73243155303538
 20
33.51573836484464
 30
0.0
 10
28.73856613673364
 20
33.51757071244469
 30
0.0
 10
28.74463458572549
 20
33.51961143332507
 30
0.0
 10
28.75070303471735
 20
33.52165215420544
 30
0.0
 10
28.75669827346272
 20
33.52389886897687
 30
0.0
 10
28.76269351220811
 20
33.52614558374831
 30
0.0
 10
28.76860855052683
 20
33.52859567284188
 30
0.0
 10
28.77452358884555
 20
33.53104576193545
 30
0.0
 10
28.78035153006753
 20
33.53369636865688
 30
0.0
 10
28.78617947128953
 20
33.53634697537831
 30
0.0
 10
28.79191352029597
 20
33.53919500923871
 30
0.0
 10
28.79764756930242
 20
33.54204304309911
 30
0.0
 10
28.8032810404487
 20
33.54508518341841
 30
0.0
 10
28.80891451159498
 20
33.54812732373772
 30
0.0
 10
28.81444083650574
 20
33.55136002351639
 30
0.0
 10
28.8199671614165
 20
33.55459272329506
 30
0.0
 10
28.8253798966441
 20
33.55801221334977
 30
0.0
 10
28.8307926318717
 20
33.56143170340447
 30
0.0
 10
28.83608546640901
 20
33.56503399676279
 30
0.0
 10
28.84137830094632
 20
33.5686362901211
 30
0.0
 10
28.84654506358498
 20
33.57241718667007
 30
0.0
 10
28.85171182622365
 20
33.57619808321905
 30
0.0
 10
28.85674649274957
 20
33.58015317460244
 30
0.0
 10
28.8617811592755
 20
33.58410826598585
 30
0.0
 10
28.86667785949273
 20
33.58823294074404
 30
0.0
 10
28.87157455970996
 20
33.59235761550224
 30
0.0
 10
28.87632758428508
 20
33.59664706444896
 30
0.0
 10
28.88108060886021
 20
33.60093651339569
 30
0.0
 10
28.88568441597918
 20
33.60538573522535
 30
0.0
 10
28.89028822309816
 20
33.60983495705502
 30
0.0
 10
28.89473744492784
 20
33.61443876417401
 30
0.0
 10
28.89918666675753
 20
33.61904257129301
 30
0.0
 10
28.90347611570426
 20
33.62379559586813
 30
0.0
 10
28.90776556465099
 20
33.62854862044326
 30
0.0
 10
28.91189023940918
 20
33.63344532066049
 30
0.0
 10
28.91601491416738
 20
33.63834202087772
 30
0.0
 10
28.91997000555078
 20
33.64337668740365
 30
0.0
 10
28.92392509693418
 20
33.64841135392957
 30
0.0
 10
28.92770599348315
 20
33.65357811656823
 30
0.0
 10
28.93148689003212
 20
33.6587448792069
 30
0.0
 10
28.93508918339043
 20
33.66403771374421
 30
0.0
 10
28.93869147674875
 20
33.66933054828152
 30
0.0
 10
28.94211096680345
 20
33.67474328350912
 30
0.0
 10
28.94553045685816
 20
33.68015601873672
 30
0.0
 10
28.94876315663683
 20
33.68568234364748
 30
0.0
 10
28.9519958564155
 20
33.69120866855824
 30
0.0
 10
28.9550379967348
 20
33.69684213970451
 30
0.0
 10
28.9580801370541
 20
33.7024756108508
 30
0.0
 10
28.9609281709145
 20
33.70820965985725
 30
0.0
 10
28.96377620477491
 20
33.7139437088637
 30
0.0
 10
28.96642681149634
 20
33.71977165008569
 30
0.0
 10
28.96907741821777
 20
33.72559959130768
 30
0.0
 10
28.97152750731134
 20
33.73151462962639
 30
0.0
 10
28.97397759640491
 20
33.73742966794511
 30
0.0
 10
28.97622431117634
 20
33.74342490669049
 30
0.0
 10
28.97847102594778
 20
33.74942014543588
 30
0.0
 10
28.98051174682815
 20
33.75548859442773
 30
0.0
 10
28.98255246770853
 20
33.76155704341958
 30
0.0
 10
28.98438481530858
 20
33.76769162711783
 30
0.0
 10
28.98621716290864
 20
33.77382621081609
 30
0.0
 10
28.98783900079304
 20
33.7800197765706
 30
0.0
 10
28.98946083867745
 20
33.7862133423251
 30
0.0
 10
28.99087027585577
 20
33.79245866871518
 30
0.0
 10
28.99227971303409
 20
33.79870399510527
 30
0.0
 10
28.99347510616563
 20
33.80499380035975
 30
0.0
 10
28.99467049929717
 20
33.81128360561424
 30
0.0
 10
28.995650454607
 20
33.81761055610157
 30
0.0
 10
28.99663040991684
 20
33.82393750658889
 30
0.0
 10
28.99739378482091
 20
33.8302942253678
 30
0.0
 10
28.998157159725
 20
33.83665094414671
 30
0.0
 10
28.99870306416233
 20
33.84303001956749
 30
0.0
 10
28.99924896859967
 20
33.84940909498827
 30
0.0
 10
28.9995767660701
 20
33.85580308933427
 30
0.0
 10
28.99990456354054
 20
33.86219708368027
 30
0.0
 10
29.00001387184687
 20
33.86859854184014
 30
0.0
 10
29.00012318015322
 20
33.875
 30
0.0
 10
29.00012318015322
 20
41.375
 30
0.0
 10
29.00012318015322
 20
48.875
 30
0.0
 10
29.00001387184687
 20
48.88140145815986
 30
0.0
 10
28.99990456354054
 20
48.88780291631973
 30
0.0
 10
28.9995767660701
 20
48.89419691066573
 30
0.0
 10
28.99924896859967
 20
48.90059090501173
 30
0.0
 10
28.99870306416233
 20
48.90696998043251
 30
0.0
 10
28.998157159725
 20
48.91334905585329
 30
0.0
 10
28.99739378482091
 20
48.91970577463219
 30
0.0
 10
28.99663040991684
 20
48.9260624934111
 30
0.0
 10
28.995650454607
 20
48.93238944389843
 30
0.0
 10
28.99467049929717
 20
48.93871639438575
 30
0.0
 10
28.99347510616563
 20
48.94500619964024
 30
0.0
 10
28.99227971303409
 20
48.95129600489473
 30
0.0
 10
28.99087027585577
 20
48.95754133128481
 30
0.0
 10
28.98946083867745
 20
48.96378665767489
 30
0.0
 10
28.98783900079304
 20
48.9699802234294
 30
0.0
 10
28.98621716290864
 20
48.97617378918391
 30
0.0
 10
28.98438481530858
 20
48.98230837288216
 30
0.0
 10
28.98255246770853
 20
48.98844295658041
 30
0.0
 10
28.98051174682815
 20
48.99451140557227
 30
0.0
 10
28.97847102594778
 20
49.00057985456412
 30
0.0
 10
28.97622431117634
 20
49.00657509330951
 30
0.0
 10
28.97397759640491
 20
49.01257033205489
 30
0.0
 10
28.97152750731134
 20
49.01848537037361
 30
0.0
 10
28.96907741821777
 20
49.02440040869232
 30
0.0
 10
28.96642681149634
 20
49.03022834991431
 30
0.0
 10
28.96377620477491
 20
49.0360562911363
 30
0.0
 10
28.9609281709145
 20
49.04179034014275
 30
0.0
 10
28.9580801370541
 20
49.0475243891492
 30
0.0
 10
28.9550379967348
 20
49.05315786029549
 30
0.0
 10
28.9519958564155
 20
49.05879133144176
 30
0.0
 10
28.94876315663683
 20
49.06431765635252
 30
0.0
 10
28.94553045685816
 20
49.06984398126328
 30
0.0
 10
28.94211096680345
 20
49.07525671649088
 30
0.0
 10
28.93869147674875
 20
49.08066945171848
 30
0.0
 10
28.93508918339043
 20
49.08596228625579
 30
0.0
 10
28.93148689003212
 20
49.09125512079309
 30
0.0
 10
28.92770599348315
 20
49.09642188343176
 30
0.0
 10
28.92392509693418
 20
49.10158864607043
 30
0.0
 10
28.91997000555078
 20
49.10662331259635
 30
0.0
 10
28.91601491416738
 20
49.11165797912227
 30
0.0
 10
28.91189023940918
 20
49.1165546793395
 30
0.0
 10
28.90776556465099
 20
49.12145137955673
 30
0.0
 10
28.90347611570426
 20
49.12620440413185
 30
0.0
 10
28.89918666675753
 20
49.13095742870698
 30
0.0
 10
28.89473744492784
 20
49.13556123582597
 30
0.0
 10
28.89028822309816
 20
49.14016504294497
 30
0.0
 10
28.88568441597918
 20
49.14461426477465
 30
0.0
 10
28.88108060886021
 20
49.14906348660431
 30
0.0
 10
28.87632758428508
 20
49.15335293555104
 30
0.0
 10
28.87157455970995
 20
49.15764238449776
 30
0.0
 10
28.86667785949272
 20
49.16176705925596
 30
0.0
 10
28.86178115927549
 20
49.16589173401415
 30
0.0
 10
28.85674649274956
 20
49.16984682539756
 30
0.0
 10
28.85171182622365
 20
49.17380191678095
 30
0.0
 10
28.84654506358498
 20
49.17758281332993
 30
0.0
 10
28.84137830094632
 20
49.1813637098789
 30
0.0
 10
28.83608546640901
 20
49.18496600323721
 30
0.0
 10
28.8307926318717
 20
49.18856829659553
 30
0.0
 10
28.8253798966441
 20
49.19198778665023
 30
0.0
 10
28.8199671614165
 20
49.19540727670493
 30
0.0
 10
28.81444083650574
 20
49.19863997648361
 30
0.0
 10
28.80891451159498
 20
49.20187267626228
 30
0.0
 10
28.8032810404487
 20
49.20491481658158
 30
0.0
 10
28.79764756930242
 20
49.20795695690088
 30
0.0
 10
28.79191352029597
 20
49.21080499076129
 30
0.0
 10
28.78617947128952
 20
49.21365302462169
 30
0.0
 10
28.78035153006753
 20
49.21630363134312
 30
0.0
 10
28.77452358884555
 20
49.21895423806455
 30
0.0
 10
28.76860855052683
 20
49.22140432715812
 30
0.0
 10
28.76269351220811
 20
49.22385441625169
 30
0.0
 10
28.75669827346272
 20
49.22610113102313
 30
0.0
 10
28.75070303471735
 20
49.22834784579456
 30
0.0
 10
28.74463458572549
 20
49.23038856667493
 30
0.0
 10
28.73856613673364
 20
49.23242928755531
 30
0.0
 10
28.73243155303538
 20
49.23426163515536
 30
0.0
 10
28.72629696933713
 20
49.23609398275542
 30
0.0
 10
28.72010340358262
 20
49.23771582063983
 30
0.0
 10
28.71390983782812
 20
49.23933765852424
 30
0.0
 10
28.70766451143803
 20
49.24074709570256
 30
0.0
 10
28.70141918504795
 20
49.24215653288087
 30
0.0
 10
28.69512937979346
 20
49.24335192601241
 30
0.0
 10
28.68883957453897
 20
49.24454731914395
 30
0.0
 10
28.68251262405165
 20
49.24552727445379
 30
0.0
 10
28.67618567356433
 20
49.24650722976362
 30
0.0
 10
28.66982895478542
 20
49.2472706046677
 30
0.0
 10
28.66347223600651
 20
49.24803397957178
 30
0.0
 10
28.65709316058572
 20
49.24857988400912
 30
0.0
 10
28.65071408516495
 20
49.24912578844646
 30
0.0
 10
28.64432009081894
 20
49.2494535859169
 30
0.0
 10
28.63792609647295
 20
49.24978138338732
 30
0.0
 10
28.63152463831308
 20
49.24989069169366
 30
0.0
 10
28.62512318015322
 20
49.25
 30
0.0
  0
SPLINE
  5
3D
330
1F
100
AcDbEntity
  8
DEFAULT
100
AcDbSpline
210
0.0
220
0.0
230
1.0
 70
     8
 71
     2
 72
   190
 73
   187
 74
     0
 42
0.0000000001
 43
0.0000000001
 40
0.0
 40
0.0
 40
0.0
 40
1.0
 40
1.0
 40
2.0
 40
2.0
 40
3.0
 40
3.0
 40
4.0
 40
4.0
 40
5.0
 40
5.0
 40
6.0
 40
6.0
 40
7.0
 40
7.0
 40
8.0
 40
8.0
 40
9.0
 40
9.0
 40
10.0
 40
10.0
 40
11.0
 40
11.0
 40
12.0
 40
12.0
 40
13.0
 40
13.0
 40
14.0
 40
14.0
 40
15.0
 40
15.0
 40
16.0
 40
16.0
 40
17.0
 40
17.0
 40
18.0
 40
18.0
 40
19.0
 40
19.0
 40
20.0
 40
20.0
 40
21.0
 40
21.0
 40
22.0
 40
22.0
 40
23.0
 40
23.0
 40
24.0
 40
24.0
 40
25.0
 40
25.0
 40
26.0
 40
26.0
 40
27.0
 40
27.0
 40
28.0
 40
28.0
 40
29.0
 40
29.0
 40
30.0
 40
30.0
 40
31.0
 40
31.0
 40
32.0
 40
32.0
 40
33.0
 40
33.0
 40
34.0
 40
34.0
 40
35.0
 40
35.0
 40
36.0
 40
36.0
 40
37.0
 40
37.0
 40
38.0
 40
38.0
 40
39.0
 40
39.0
 40
40.0
 40
40.0
 40
41.0
 40
41.0
 40
42.0
 40
42.0
 40
43.0
 40
43.0
 40
44.0
 40
44.0
 40
45.0
 40
45.0
 40
46.0
 40
46.0
 40
47.0
 40
47.0
 40
48.0
 40
48.0
 40
49.0
 40
49.0
 40
50.0
 40
50.0
 40
51.0
 40
51.0
 40
52.0
 40
52.0
 40
53.0
 40
53.0
 40
54.0
 40
54.0
 40
55.0
 40
55.0
 40
56.0
 40
56.0
 40
57.0
 40
57.0
 40
58.0
 40
58.0
 40
59.0
 40
59.0
 40
60.0
 40
60.0
 40
61.0
 40
61.0
 40
62.0
 40
62.0
 40
63.0
 40
63.0
 40
64.0
 40
64.0
 40
65.0
 40
65.0
 40
66.0
 40
66.0
 40
67.0
 40
67.0
 40
68.0
 40
68.0
 40
69.0
 40
69.0
 40
70.0
 40
70.0
 40
71.0
 40
71.0
 40
72.0
 40
72.0
 40
73.0
 40
73.0
 40
74.0
 40
74.0
 40
75.0
 40
75.0
 40
76.0
 40
76.0
 40
77.0
 40
77.0
 40
78.0
 40
78.0
 40
79.0
 40
79.0
 40
80.0
 40
80.0
 40
81.0
 40
81.0
 40
82.0
 40
82.0
 40
83.0
 40
83.0
 40
84.0
 40
84.0
 40
85.0
 40
85.0
 40
86.0
 40
86.0
 40
87.0
 40
87.0
 40
88.0
 40
88.0
 40
89.0
 40
89.0
 40
90.0
 40
90.0
 40
91.0
 40
91.0
 40
92.0
 40
92.0
 40
93.0
 40
93.0
 40
93.0
 10
50.875
 20
1.499999500171323
 30
0.0
 10
50.89145191569484
 20
0.8717274979637908
 30
0.0
 10
50.90790383138968
 20
0.2434554957562584
 30
0.0
 10
50.90808972486185
 20
0.2391691347409009
 30
0.0
 10
50.90827561833401
 20
0.2348827737255434
 30
0.0
 10
50.90860850202688
 20
0.2306053170531748
 30
0.0
 10
50.90894138571975
 20
0.2263278603808062
 30
0.0
 10
50.9094208674703
 20
0.2220643472299111
 30
0.0
 10
50.90990034922086
 20
0.217800834079016
 30
0.0
 10
50.9105258641621
 20
0.2135562872015201
 30
0.0
 10
50.91115137910333
 20
0.2093117403240242
 30
0.0
 10
50.91192219032973
 20
0.2050911601281
 30
0.0
 10
50.91269300155613
 20
0.2008705799321758
 30
0.0
 10
50.91360820099179
 20
0.1966789385913705
 30
0.0
 10
50.91452340042744
 20
0.1924872972505651
 30
0.0
 10
50.91558190989584
 20
0.1883295328461912
 30
0.0
 10
50.91664041936424
 20
0.1841717684418173
 30
0.0
 10
50.91784099185845
 20
0.180052779145507
 30
0.0
 10
50.91904156435265
 20
0.1759337898491967
 30
0.0
 10
50.92038278550439
 20
0.1718584281524724
 30
0.0
 10
50.92172400665611
 20
0.1677830664557481
 30
0.0
 10
50.92320429640195
 20
0.1637561334534079
 30
0.0
 10
50.92468458614779
 20
0.1597292004510678
 30
0.0
 10
50.92630220059064
 20
0.1557554401851204
 30
0.0
 10
50.9279198150335
 20
0.151781679919173
 30
0.0
 10
50.92967284849706
 20
0.1478657737899851
 30
0.0
 10
50.93142588196063
 20
0.1439498676607973
 30
0.0
 10
50.93331226923437
 20
0.1400964289120382
 30
0.0
 10
50.93519865650811
 20
0.136242990163279
 30
0.0
 10
50.9372161752803
 20
0.132456558447158
 30
0.0
 10
50.93923369405248
 20
0.1286701267310371
 30
0.0
 10
50.94137996752822
 20
0.1249551627602392
 30
0.0
 10
50.94352624100395
 20
0.1212401987894413
 30
0.0
 10
50.94579874070523
 20
0.1176010790820581
 30
0.0
 10
50.94807124040651
 20
0.1139619593746748
 30
0.0
 10
50.95046728915096
 20
0.1104029710983239
 30
0.0
 10
50.9528633378954
 20
0.106843982821973
 30
0.0
 10
50.95538011295021
 20
0.1033693187431796
 30
0.0
 10
50.95789688800502
 20
0.0998946546643862
 30
0.0
 10
50.96053142441235
 20
0.0965084082091762
 30
0.0
 10
50.96316596081968
 20
0.0931221617539661
 30
0.0
 10
50.9659151548896
 20
0.0898283221854898
 30
0.0
 10
50.96866434895953
 20
0.0865344826170135
 30
0.0
 10
50.97152496192643
 20
0.0833369303358819
 30
0.0
 10
50.97438557489333
 20
0.0801393780547503
 30
0.0
 10
50.97735423673141
 20
0.0770418800276196
 30
0.0
 10
50.9803228985695
 20
0.073944382000489
 30
0.0
 10
50.98339611196295
 20
0.0709505873222794
 30
0.0
 10
50.9864693253564
 20
0.0679567926440697
 30
0.0
 10
50.9896434698195
 20
0.065070228239046
 30
0.0
 10
50.9928176142826
 20
0.0621836638340223
 30
0.0
 10
50.99608895042493
 20
0.0594077303008014
 30
0.0
 10
50.99936028656725
 20
0.0566317967675805
 30
0.0
 10
51.00272496049899
 20
0.0539697643729603
 30
0.0
 10
51.00608963443074
 20
0.0513077319783402
 30
0.0
 10
51.00954368230287
 20
0.0487627368046696
 30
0.0
 10
51.012997730175
 20
0.046217741630999
 30
0.0
 10
51.016537082849
 20
0.0437927818816275
 30
0.0
 10
51.02007643552299
 20
0.0413678221322559
 30
0.0
 10
51.0236969233646
 20
0.0390657545994156
 30
0.0
 10
51.0273174112062
 20
0.0367636870665752
 30
0.0
 10
51.03101476899759
 20
0.034587223765856
 30
0.0
 10
51.03471212678899
 20
0.0324107604651369
 30
0.0
 10
51.03848199875354
 20
0.0303624654405207
 30
0.0
 10
51.04225187071809
 20
0.0283141704159045
 30
0.0
 10
51.0460898156518
 20
0.0263964567191199
 30
0.0
 10
51.0499277605855
 20
0.0244787430223354
 30
0.0
 10
51.05382925708906
 20
0.0226938698700948
 30
0.0
 10
51.05773075359264
 20
0.0209089967178542
 30
0.0
 10
51.06169120539808
 20
0.0192590668303195
 30
0.0
 10
51.06565165720352
 20
0.0176091369427847
 30
0.0
 10
51.06966639858886
 20
0.0160960940663982
 30
0.0
 10
51.0736811399742
 20
0.0145830511900117
 30
0.0
 10
51.07774544126012
 20
0.0132086778076118
 30
0.0
 10
51.08180974254604
 20
0.0118343044252118
 30
0.0
 10
51.08591881566777
 20
0.0106002196561275
 30
0.0
 10
51.09002788878949
 20
0.0093661348870431
 30
0.0
 10
51.09417689293753
 20
0.0082737925796458
 30
0.0
 10
51.09832589708557
 20
0.0071814502722484
 30
0.0
 10
51.10250994440855
 20
0.0062321372912043
 30
0.0
 10
51.10669399173154
 20
0.0052828243101602
 30
0.0
 10
51.11090815309451
 20
0.0044776590204034
 30
0.0
 10
51.11512231445748
 20
0.0036724937306465
 30
0.0
 10
51.11936162524877
 20
0.0030124246798573
 30
0.0
 10
51.12360093604006
 20
0.0023523556290682
 30
0.0
 10
51.12786040202002
 20
0.0018381604302101
 30
0.0
 10
51.13211986799998
 20
0.0013239652313521
 30
0.0
 10
51.13639447118457
 20
0.0009562496465829
 30
0.0
 10
51.14066907436916
 20
0.0005885340618136
 30
0.0
 10
51.14495377894151
 20
0.0003677312888496
 30
0.0
 10
51.14923848351388
 20
0.0001469285158857
 30
0.0
 10
51.15352824175694
 20
0.0000732986776618
 30
0.0
 10
51.157818
 20
-0.0000003311605621
 30
0.0
 10
52.125
 20
-0.000000331160563
 30
0.0
 10
53.092182
 20
-0.0000003311605639
 30
0.0
 10
53.09647175824306
 20
0.00007329867766
 30
0.0
 10
53.10076151648612
 20
0.0001469285158839
 30
0.0
 10
53.10504622105849
 20
0.0003677312888478
 30
0.0
 10
53.10933092563084
 20
0.0005885340618118
 30
0.0
 10
53.11360552881543
 20
0.0009562496465811
 30
0.0
 10
53.11788013200002
 20
0.0013239652313504
 30
0.0
 10
53.12213959797998
 20
0.0018381604302084
 30
0.0
 10
53.12639906395994
 20
0.0023523556290664
 30
0.0
 10
53.13063837475123
 20
0.0030124246798555
 30
0.0
 10
53.13487768554252
 20
0.0036724937306447
 30
0.0
 10
53.13909184690549
 20
0.0044776590204016
 30
0.0
 10
53.14330600826846
 20
0.0052828243101584
 30
0.0
 10
53.14749005559145
 20
0.0062321372912025
 30
0.0
 10
53.15167410291443
 20
0.0071814502722466
 30
0.0
 10
53.15582310706247
 20
0.008273792579644
 30
0.0
 10
53.15997211121051
 20
0.0093661348870414
 30
0.0
 10
53.16408118433223
 20
0.0106002196561258
 30
0.0
 10
53.16819025745396
 20
0.0118343044252101
 30
0.0
 10
53.17225455873988
 20
0.0132086778076101
 30
0.0
 10
53.1763188600258
 20
0.0145830511900101
 30
0.0
 10
53.18033360141114
 20
0.0160960940663965
 30
0.0
 10
53.18434834279648
 20
0.0176091369427829
 30
0.0
 10
53.18830879460192
 20
0.0192590668303177
 30
0.0
 10
53.19226924640736
 20
0.0209089967178525
 30
0.0
 10
53.19617074291094
 20
0.0226938698700931
 30
0.0
 10
53.2000722394145
 20
0.0244787430223338
 30
0.0
 10
53.2039101843482
 20
0.0263964567191183
 30
0.0
 10
53.20774812928191
 20
0.0283141704159029
 30
0.0
 10
53.21151800124646
 20
0.0303624654405191
 30
0.0
 10
53.21528787321101
 20
0.0324107604651353
 30
0.0
 10
53.21898523100241
 20
0.0345872237658544
 30
0.0
 10
53.2226825887938
 20
0.0367636870665736
 30
0.0
 10
53.2263030766354
 20
0.039065754599414
 30
0.0
 10
53.22992356447701
 20
0.0413678221322544
 30
0.0
 10
53.233462917151
 20
0.0437927818816259
 30
0.0
 10
53.237002269825
 20
0.0462177416309975
 30
0.0
 10
53.24045631769713
 20
0.0487627368046681
 30
0.0
 10
53.24391036556926
 20
0.0513077319783387
 30
0.0
 10
53.24727503950101
 20
0.0539697643729588
 30
0.0
 10
53.25063971343275
 20
0.056631796767579
 30
0.0
 10
53.25391104957508
 20
0.0594077303007999
 30
0.0
 10
53.25718238571741
 20
0.0621836638340209
 30
0.0
 10
53.2603565301805
 20
0.0650702282390447
 30
0.0
 10
53.2635306746436
 20
0.0679567926440684
 30
0.0
 10
53.26660388803705
 20
0.070950587322278
 30
0.0
 10
53.2696771014305
 20
0.0739443820004876
 30
0.0
 10
53.27264576326859
 20
0.0770418800276183
 30
0.0
 10
53.27561442510667
 20
0.080139378054749
 30
0.0
 10
53.27847503807357
 20
0.0833369303358807
 30
0.0
 10
53.28133565104047
 20
0.0865344826170124
 30
0.0
 10
53.2840848451104
 20
0.0898283221854887
 30
0.0
 10
53.28683403918032
 20
0.093122161753965
 30
0.0
 10
53.28946857558765
 20
0.096508408209175
 30
0.0
 10
53.29210311199498
 20
0.099894654664385
 30
0.0
 10
53.2946198870498
 20
0.1033693187431784
 30
0.0
 10
53.29713666210461
 20
0.1068439828219718
 30
0.0
 10
53.29953271084905
 20
0.1104029710983228
 30
0.0
 10
53.30192875959349
 20
0.1139619593746737
 30
0.0
 10
53.30420125929477
 20
0.117601079082057
 30
0.0
 10
53.30647375899605
 20
0.1212401987894403
 30
0.0
 10
53.30862003247178
 20
0.1249551627602382
 30
0.0
 10
53.31076630594752
 20
0.1286701267310362
 30
0.0
 10
53.3127838247197
 20
0.1324565584471571
 30
0.0
 10
53.31480134349189
 20
0.1362429901632781
 30
0.0
 10
53.31668773076564
 20
0.1400964289120373
 30
0.0
 10
53.31857411803938
 20
0.1439498676607965
 30
0.0
 10
53.32032715150294
 20
0.1478657737899843
 30
0.0
 10
53.3220801849665
 20
0.1517816799191721
 30
0.0
 10
53.32369779940936
 20
0.1557554401851196
 30
0.0
 10
53.32531541385222
 20
0.159729200451067
 30
0.0
 10
53.32679570359805
 20
0.1637561334534072
 30
0.0
 10
53.32827599334389
 20
0.1677830664557474
 30
0.0
 10
53.32961721449561
 20
0.1718584281524718
 30
0.0
 10
53.33095843564735
 20
0.1759337898491961
 30
0.0
 10
53.33215900814155
 20
0.1800527791455064
 30
0.0
 10
53.33335958063576
 20
0.1841717684418167
 30
0.0
 10
53.33441809010417
 20
0.1883295328461906
 30
0.0
 10
53.33547659957257
 20
0.1924872972505646
 30
0.0
 10
53.33639179900823
 20
0.19667893859137
 30
0.0
 10
53.33730699844387
 20
0.2008705799321754
 30
0.0
 10
53.33807780967027
 20
0.2050911601280996
 30
0.0
 10
53.33884862089667
 20
0.2093117403240239
 30
0.0
 10
53.3394741358379
 20
0.2135562872015198
 30
0.0
 10
53.34009965077914
 20
0.2178008340790156
 30
0.0
 10
53.3405791325297
 20
0.2220643472299108
 30
0.0
 10
53.34105861428025
 20
0.2263278603808059
 30
0.0
 10
53.34139149797312
 20
0.2306053170531745
 30
0.0
 10
53.34172438166599
 20
0.2348827737255431
 30
0.0
 10
53.34191027513815
 20
0.2391691347409006
 30
0.0
 10
53.34209616861032
 20
0.2434554957562582
 30
0.0
 10
53.35854808430516
 20
0.8717274979637907
 30
0.0
 10
53.375
 20
1.499999500171323
 30
0.0
  0
SPLINE
  5
3E
330
1F
100
AcDbEntity
  8
DEFAULT
100
AcDbSpline
210
0.0
220
0.0
230
1.0
 70
    11
 71
     2
 72
   380
 73
   377
 74
     0
 42
0.0000000001
 43
0.0000000001
 40
0.0
 40
0.0
 40
0.0
 40
1.0
 40
1.0
 40
2.0
 40
2.0
 40
3.0
 40
3.0
 40
4.0
 40
4.0
 40
5.0
 40
5.0
 40
6.0
 40
6.0
 40
7.0
 40
7.0
 40
8.0
 40
8.0
 40
9.0
 40
9.0
 40
10.0
 40
10.0
 40
11.0
 40
11.0
 40
12.0
 40
12.0
 40
13.0
 40
13.0
 40
14.0
 40
14.0
 40
15.0
 40
15.0
 40
16.0
 40
16.0
 40
17.0
 40
17.0
 40
18.0
 40
18.0
 40
19.0
 40
19.0
 40
20.0
 40
20.0
 40
21.0
 40
21.0
 40
22.0
 40
22.0
 40
23.0
 40
23.0
 40
24.0
 40
24.0
 40
25.0
 40
25.0
 40
26.0
 40
26.0
 40
27.0
 40
27.0
 40
28.0
 40
28.0
 40
29.0
 40
29.0
 40
30.0
 40
30.0
 40
31.0
 40
31.0
 40
32.0
 40
32.0
 40
33.0
 40
33.0
 40
34.0
 40
34.0
 40
35.0
 40
35.0
 40
36.0
 40
36.0
 40
37.0
 40
37.0
 40
38.0
 40
38.0
 40
39.0
 40
39.0
 40
40.0
 40
40.0
 40
41.0
 40
41.0
 40
42.0
 40
42.0
 40
43.0
 40
43.0
 40
44.0
 40
44.0
 40
45.0
 40
45.0
 40
46.0
 40
46.0
 40
47.0
 40
47.0
 40
48.0
 40
48.0
 40
49.0
 40
49.0
 40
50.0
 40
50.0
 40
51.0
 40
51.0
 40
52.0
 40
52.0
 40
53.0
 40
53.0
 40
54.0
 40
54.0
 40
55.0
 40
55.0
 40
56.0
 40
56.0
 40
57.0
 40
57.0
 40
58.0
 40
58.0
 40
59.0
 40
59.0
 40
60.0
 40
60.0
 40
61.0
 40
61.0
 40
62.0
 40
62.0
 40
63.0
 40
63.0
 40
64.0
 40
64.0
 40
65.0
 40
65.0
 40
66.0
 40
66.0
 40
67.0
 40
67.0
 40
68.0
 40
68.0
 40
69.0
 40
69.0
 40
70.0
 40
70.0
 40
71.0
 40
71.0
 40
72.0
 40
72.0
 40
73.0
 40
73.0
 40
74.0
 40
74.0
 40
75.0
 40
75.0
 40
76.0
 40
76.0
 40
77.0
 40
77.0
 40
78.0
 40
78.0
 40
79.0
 40
79.0
 40
80.0
 40
80.0
 40
81.0
 40
81.0
 40
82.0
 40
82.0
 40
83.0
 40
83.0
 40
84.0
 40
84.0
 40
85.0
 40
85.0
 40
86.0
 40
86.0
 40
87.0
 40
87.0
 40
88.0
 40
88.0
 40
89.0
 40
89.0
 40
90.0
 40
90.0
 40
91.0
 40
91.0
 40
92.0
 40
92.0
 40
93.0
 40
93.0
 40
94.0
 40
94.0
 40
95.0
 40
95.0
 40
96.0
 40
96.0
 40
97.0
 40
97.0
 40
98.0
 40
98.0
 40
99.0
 40
99.0
 40
100.0
 40
100.0
 40
101.0
 40
101.0
 40
102.0
 40
102.0
 40
103.0
 40
103.0
 40
104.0
 40
104.0
 40
105.0
 40
105.0
 40
106.0
 40
106.0
 40
107.0
 40
107.0
 40
108.0
 40
108.0
 40
109.0
 40
109.0
 40
110.0
 40
110.0
 40
111.0
 40
111.0
 40
112.0
 40
112.0
 40
113.0
 40
113.0
 40
114.0
 40
114.0
 40
115.0
 40
115.0
 40
116.0
 40
116.0
 40
117.0
 40
117.0
 40
118.0
 40
118.0
 40
119.0
 40
119.0
 40
120.0
 40
120.0
 40
121.0
 40
121.0
 40
122.0
 40
122.0
 40
123.0
 40
123.0
 40
124.0
 40
124.0
 40
125.0
 40
125.0
 40
126.0
 40
126.0
 40
127.0
 40
127.0
 40
128.0
 40
128.0
 40
129.0
 40
129.0
 40
130.0
 40
130.0
 40
131.0
 40
131.0
 40
132.0
 40
132.0
 40
133.0
 40
133.0
 40
134.0
 40
134.0
 40
135.0
 40
135.0
 40
136.0
 40
136.0
 40
137.0
 40
137.0
 40
138.0
 40
138.0
 40
139.0
 40
139.0
 40
140.0
 40
140.0
 40
141.0
 40
141.0
 40
142.0
 40
142.0
 40
143.0
 40
143.0
 40
144.0
 40
144.0
 40
145.0
 40
145.0
 40
146.0
 40
146.0
 40
147.0
 40
147.0
 40
148.0
 40
148.0
 40
149.0
 40
149.0
 40
150.0
 40
150.0
 40
151.0
 40
151.0
 40
152.0
 40
152.0
 40
153.0
 40
153.0
 40
154.0
 40
154.0
 40
155.0
 40
155.0
 40
156.0
 40
156.0
 40
157.0
 40
157.0
 40
158.0
 40
158.0
 40
159.0
 40
159.0
 40
160.0
 40
160.0
 40
161.0
 40
161.0
 40
162.0
 40
162.0
 40
163.0
 40
163.0
 40
164.0
 40
164.0
 40
165.0
 40
165.0
 40
166.0
 40
166.0
 40
167.0
 40
167.0
 40
168.0
 40
168.0
 40
169.0
 40
169.0
 40
170.0
 40
170.0
 40
171.0
 40
171.0
 40
172.0
 40
172.0
 40
173.0
 40
173.0
 40
174.0
 40
174.0
 40
175.0
 40
175.0
 40
176.0
 40
176.0
 40
177.0
 40
177.0
 40
178.0
 40
178.0
 40
179.0
 40
179.0
 40
180.0
 40
180.0
 40
181.0
 40
181.0
 40
182.0
 40
182.0
 40
183.0
 40
183.0
 40
184.0
 40
184.0
 40
185.0
 40
185.0
 40
186.0
 40
186.0
 40
187.0
 40
187.0
 40
188.0
 40
188.0
 40
188.0
 10
56.125
 20
2.499999999999993
 30
0.0
 10
56.125
 20
12.5
 30
0.0
 10
56.125
 20
22.5
 30
0.0
 10
56.12470851118309
 20
22.51707055509299
 30
0.0
 10
56.12441702236617
 20
22.53414111018598
 30
0.0
 10
56.12354289577836
 20
22.55119176177532
 30
0.0
 10
56.12266876919054
 20
22.56824241336466
 30
0.0
 10
56.12121302402432
 20
22.58525328115335
 30
0.0
 10
56.1197572788581
 20
22.60226414894203
 30
0.0
 10
56.11772161244721
 20
22.61921539901915
 30
0.0
 10
56.11568594603633
 20
22.63616664909626
 30
0.0
 10
56.11307273187677
 20
22.65303851706246
 30
0.0
 10
56.1104595177172
 20
22.66991038502866
 30
0.0
 10
56.10727180269976
 20
22.68668319904064
 30
0.0
 10
56.10408408768232
 20
22.70345601305263
 30
0.0
 10
56.10032558854013
 20
22.72011021675954
 30
0.0
 10
56.09656708939794
 20
22.73676442046645
 30
0.0
 10
56.09224218837286
 20
22.75328059581175
 30
0.0
 10
56.08791728734779
 20
22.76979677115704
 30
0.0
 10
56.08303102708098
 20
22.78615566101906
 30
0.0
 10
56.07814476681416
 20
22.80251455088107
 30
0.0
 10
56.07270284446649
 20
22.81869708152603
 30
0.0
 10
56.06726092211882
 20
22.83487961217099
 30
0.0
 10
56.06126968272832
 20
22.85086691549203
 30
0.0
 10
56.05527844333783
 20
22.86685421881307
 30
0.0
 10
56.04874487242164
 20
22.88262765432965
 30
0.0
 10
56.04221130150545
 20
22.89840108984624
 30
0.0
 10
56.03514301691499
 20
22.91394226643816
 30
0.0
 10
56.02807473232453
 20
22.92948344303008
 30
0.0
 10
56.02047997536344
 20
22.94477424038062
 30
0.0
 10
56.01288521840237
 20
22.96006503773116
 30
0.0
 10
56.00477284421756
 20
22.97508762745458
 30
0.0
 10
55.99666047003276
 20
22.99011021717801
 30
0.0
 10
55.98803993728963
 20
23.00484708360672
 30
0.0
 10
55.97941940454649
 20
23.01958395003543
 30
0.0
 10
55.9703007644006
 20
23.03401791064238
 30
0.0
 10
55.96118212425471
 20
23.04845187124933
 30
0.0
 10
55.95157600863257
 20
23.0625660966821
 30
0.0
 10
55.94196989301044
 20
23.07668032211488
 30
0.0
 10
55.93188750221317
 20
23.09045835581799
 30
0.0
 10
55.92180511141591
 20
23.10423638952109
 30
0.0
 10
55.91125820106016
 20
23.11766216692358
 30
0.0
 10
55.90071129070442
 20
23.13108794432606
 30
0.0
 10
55.88971215801589
 20
23.14414581157202
 30
0.0
 10
55.87871302532736
 20
23.15720367881799
 30
0.0
 10
55.86727449480274
 20
23.16987841101832
 30
0.0
 10
55.85583596427813
 20
23.18255314321865
 30
0.0
 10
55.84397137273234
 20
23.1948299622026
 30
0.0
 10
55.83210678118655
 20
23.20710678118655
 30
0.0
 10
55.8198299622026
 20
23.21897137273234
 30
0.0
 10
55.80755314321865
 20
23.23083596427813
 30
0.0
 10
55.79487841101832
 20
23.24227449480274
 30
0.0
 10
55.78220367881798
 20
23.25371302532736
 30
0.0
 10
55.76914581157202
 20
23.26471215801589
 30
0.0
 10
55.75608794432605
 20
23.27571129070442
 30
0.0
 10
55.74266216692357
 20
23.28625820106016
 30
0.0
 10
55.72923638952109
 20
23.29680511141591
 30
0.0
 10
55.71545835581798
 20
23.30688750221318
 30
0.0
 10
55.70168032211487
 20
23.31696989301044
 30
0.0
 10
55.68756609668209
 20
23.32657600863257
 30
0.0
 10
55.67345187124932
 20
23.33618212425471
 30
0.0
 10
55.65901791064238
 20
23.3453007644006
 30
0.0
 10
55.64458395003543
 20
23.35441940454649
 30
0.0
 10
55.62984708360672
 20
23.36303993728963
 30
0.0
 10
55.61511021717801
 20
23.37166047003276
 30
0.0
 10
55.60008762745458
 20
23.37977284421757
 30
0.0
 10
55.58506503773116
 20
23.38788521840237
 30
0.0
 10
55.56977424038062
 20
23.39547997536346
 30
0.0
 10
55.55448344303008
 20
23.40307473232454
 30
0.0
 10
55.53894226643816
 20
23.410143016915
 30
0.0
 10
55.52340108984623
 20
23.41721130150546
 30
0.0
 10
55.50762765432965
 20
23.42374487242164
 30
0.0
 10
55.49185421881307
 20
23.43027844333783
 30
0.0
 10
55.47586691549203
 20
23.43626968272832
 30
0.0
 10
55.45987961217099
 20
23.44226092211882
 30
0.0
 10
55.44369708152603
 20
23.44770284446649
 30
0.0
 10
55.42751455088107
 20
23.45314476681417
 30
0.0
 10
55.41115566101905
 20
23.45803102708098
 30
0.0
 10
55.39479677115703
 20
23.4629172873478
 30
0.0
 10
55.37828059581175
 20
23.46724218837287
 30
0.0
 10
55.36176442046645
 20
23.47156708939794
 30
0.0
 10
55.34511021675954
 20
23.47532558854014
 30
0.0
 10
55.32845601305263
 20
23.47908408768233
 30
0.0
 10
55.31168319904064
 20
23.48227180269976
 30
0.0
 10
55.29491038502865
 20
23.4854595177172
 30
0.0
 10
55.27803851706246
 20
23.48807273187676
 30
0.0
 10
55.26116664909625
 20
23.49068594603633
 30
0.0
 10
55.24421539901914
 20
23.49272161244721
 30
0.0
 10
55.22726414894203
 20
23.4947572788581
 30
0.0
 10
55.21025328115334
 20
23.49621302402432
 30
0.0
 10
55.19324241336466
 20
23.49766876919054
 30
0.0
 10
55.17619176177531
 20
23.49854289577836
 30
0.0
 10
55.15914111018598
 20
23.49941702236618
 30
0.0
 10
55.14207055509299
 20
23.49970851118309
 30
0.0
 10
55.125
 20
23.5
 30
0.0
 10
48.25
 20
23.5
 30
0.0
 10
41.375
 20
23.5
 30
0.0
 10
41.35792944490701
 20
23.49970851118309
 30
0.0
 10
41.34085888981402
 20
23.49941702236617
 30
0.0
 10
41.32380823822469
 20
23.49854289577836
 30
0.0
 10
41.30675758663534
 20
23.49766876919054
 30
0.0
 10
41.28974671884666
 20
23.49621302402432
 30
0.0
 10
41.27273585105797
 20
23.4947572788581
 30
0.0
 10
41.25578460098086
 20
23.49272161244721
 30
0.0
 10
41.23883335090375
 20
23.49068594603633
 30
0.0
 10
41.22196148293754
 20
23.48807273187676
 30
0.0
 10
41.20508961497135
 20
23.4854595177172
 30
0.0
 10
41.18831680095936
 20
23.48227180269976
 30
0.0
 10
41.17154398694737
 20
23.47908408768232
 30
0.0
 10
41.15488978324046
 20
23.47532558854013
 30
0.0
 10
41.13823557953355
 20
23.47156708939794
 30
0.0
 10
41.12171940418825
 20
23.46724218837287
 30
0.0
 10
41.10520322884296
 20
23.4629172873478
 30
0.0
 10
41.08884433898095
 20
23.45803102708098
 30
0.0
 10
41.07248544911893
 20
23.45314476681416
 30
0.0
 10
41.05630291847397
 20
23.44770284446649
 30
0.0
 10
41.04012038782901
 20
23.44226092211882
 30
0.0
 10
41.02413308450797
 20
23.43626968272832
 30
0.0
 10
41.00814578118693
 20
23.43027844333783
 30
0.0
 10
40.99237234567035
 20
23.42374487242164
 30
0.0
 10
40.97659891015377
 20
23.41721130150546
 30
0.0
 10
40.96105773356184
 20
23.41014301691499
 30
0.0
 10
40.94551655696992
 20
23.40307473232453
 30
0.0
 10
40.93022575961938
 20
23.39547997536345
 30
0.0
 10
40.91493496226884
 20
23.38788521840237
 30
0.0
 10
40.89991237254542
 20
23.37977284421757
 30
0.0
 10
40.88488978282199
 20
23.37166047003276
 30
0.0
 10
40.87015291639328
 20
23.36303993728963
 30
0.0
 10
40.85541604996457
 20
23.35441940454649
 30
0.0
 10
40.84098208935762
 20
23.3453007644006
 30
0.0
 10
40.82654812875067
 20
23.33618212425471
 30
0.0
 10
40.8124339033179
 20
23.32657600863257
 30
0.0
 10
40.79831967788512
 20
23.31696989301043
 30
0.0
 10
40.78454164418201
 20
23.30688750221317
 30
0.0
 10
40.77076361047891
 20
23.29680511141591
 30
0.0
 10
40.75733783307643
 20
23.28625820106016
 30
0.0
 10
40.74391205567395
 20
23.27571129070442
 30
0.0
 10
40.73085418842798
 20
23.26471215801589
 30
0.0
 10
40.71779632118202
 20
23.25371302532735
 30
0.0
 10
40.70512158898168
 20
23.24227449480274
 30
0.0
 10
40.69244685678135
 20
23.23083596427813
 30
0.0
 10
40.6801700377974
 20
23.21897137273234
 30
0.0
 10
40.66789321881345
 20
23.20710678118655
 30
0.0
 10
40.65602862726766
 20
23.1948299622026
 30
0.0
 10
40.64416403572187
 20
23.18255314321865
 30
0.0
 10
40.63272550519726
 20
23.16987841101832
 30
0.0
 10
40.62128697467264
 20
23.15720367881798
 30
0.0
 10
40.61028784198411
 20
23.14414581157202
 30
0.0
 10
40.59928870929558
 20
23.13108794432605
 30
0.0
 10
40.58874179893984
 20
23.11766216692357
 30
0.0
 10
40.57819488858409
 20
23.10423638952109
 30
0.0
 10
40.56811249778683
 20
23.09045835581798
 30
0.0
 10
40.55803010698956
 20
23.07668032211487
 30
0.0
 10
40.54842399136743
 20
23.0625660966821
 30
0.0
 10
40.53881787574529
 20
23.04845187124932
 30
0.0
 10
40.5296992355994
 20
23.03401791064238
 30
0.0
 10
40.52058059545351
 20
23.01958395003543
 30
0.0
 10
40.51196006271037
 20
23.00484708360671
 30
0.0
 10
40.50333952996724
 20
22.990110217178
 30
0.0
 10
40.49522715578244
 20
22.97508762745458
 30
0.0
 10
40.48711478159763
 20
22.96006503773116
 30
0.0
 10
40.47952002463656
 20
22.94477424038062
 30
0.0
 10
40.47192526767547
 20
22.92948344303008
 30
0.0
 10
40.46485698308501
 20
22.91394226643816
 30
0.0
 10
40.45778869849454
 20
22.89840108984623
 30
0.0
 10
40.45125512757835
 20
22.88262765432965
 30
0.0
 10
40.44472155666217
 20
22.86685421881306
 30
0.0
 10
40.43873031727168
 20
22.85086691549202
 30
0.0
 10
40.43273907788118
 20
22.83487961217098
 30
0.0
 10
40.42729715553351
 20
22.81869708152603
 30
0.0
 10
40.42185523318584
 20
22.80251455088107
 30
0.0
 10
40.41696897291902
 20
22.78615566101905
 30
0.0
 10
40.4120827126522
 20
22.76979677115703
 30
0.0
 10
40.40775781162714
 20
22.75328059581174
 30
0.0
 10
40.40343291060206
 20
22.73676442046645
 30
0.0
 10
40.39967441145987
 20
22.72011021675954
 30
0.0
 10
40.39591591231768
 20
22.70345601305263
 30
0.0
 10
40.39272819730024
 20
22.68668319904064
 30
0.0
 10
40.3895404822828
 20
22.66991038502865
 30
0.0
 10
40.38692726812323
 20
22.65303851706245
 30
0.0
 10
40.38431405396367
 20
22.63616664909625
 30
0.0
 10
40.38227838755279
 20
22.61921539901914
 30
0.0
 10
40.3802427211419
 20
22.60226414894203
 30
0.0
 10
40.37878697597568
 20
22.58525328115335
 30
0.0
 10
40.37733123080946
 20
22.56824241336466
 30
0.0
 10
40.37645710422164
 20
22.55119176177531
 30
0.0
 10
40.37558297763383
 20
22.53414111018597
 30
0.0
 10
40.37529148881691
 20
22.51707055509299
 30
0.0
 10
40.375
 20
22.5
 30
0.0
 10
40.375
 20
12.5
 30
0.0
 10
40.375
 20
2.499999999999993
 30
0.0
 10
40.37529148881691
 20
2.482929444907005
 30
0.0
 10
40.37558297763383
 20
2.465858889814017
 30
0.0
 10
40.37645710422164
 20
2.448808238224675
 30
0.0
 10
40.37733123080946
 20
2.431757586635333
 30
0.0
 10
40.37878697597568
 20
2.414746718846647
 30
0.0
 10
40.3802427211419
 20
2.397735851057961
 30
0.0
 10
40.38227838755279
 20
2.380784600980851
 30
0.0
 10
40.38431405396367
 20
2.363833350903741
 30
0.0
 10
40.38692726812323
 20
2.34696148293754
 30
0.0
 10
40.3895404822828
 20
2.33008961497134
 30
0.0
 10
40.39272819730024
 20
2.313316800959353
 30
0.0
 10
40.39591591231768
 20
2.296543986947365
 30
0.0
 10
40.39967441145987
 20
2.279889783240454
 30
0.0
 10
40.40343291060206
 20
2.263235579533543
 30
0.0
 10
40.40775781162714
 20
2.24671940418825
 30
0.0
 10
40.41208271265221
 20
2.230203228842957
 30
0.0
 10
40.41696897291902
 20
2.213844338980941
 30
0.0
 10
40.42185523318584
 20
2.197485449118925
 30
0.0
 10
40.42729715553351
 20
2.181302918473966
 30
0.0
 10
40.43273907788118
 20
2.165120387829006
 30
0.0
 10
40.43873031727168
 20
2.149133084507967
 30
0.0
 10
40.44472155666217
 20
2.133145781186927
 30
0.0
 10
40.45125512757836
 20
2.117372345670344
 30
0.0
 10
40.45778869849455
 20
2.101598910153761
 30
0.0
 10
40.46485698308501
 20
2.086057733561836
 30
0.0
 10
40.47192526767547
 20
2.070516556969912
 30
0.0
 10
40.47952002463656
 20
2.055225759619374
 30
0.0
 10
40.48711478159763
 20
2.039934962268835
 30
0.0
 10
40.49522715578244
 20
2.024912372545411
 30
0.0
 10
40.50333952996724
 20
2.009889782821987
 30
0.0
 10
40.51196006271037
 20
1.995152916393275
 30
0.0
 10
40.52058059545351
 20
1.980416049964563
 30
0.0
 10
40.5296992355994
 20
1.965982089357617
 30
0.0
 10
40.53881787574529
 20
1.95154812875067
 30
0.0
 10
40.54842399136743
 20
1.937433903317892
 30
0.0
 10
40.55803010698956
 20
1.923319677885115
 30
0.0
 10
40.56811249778683
 20
1.909541644182009
 30
0.0
 10
40.57819488858409
 20
1.895763610478904
 30
0.0
 10
40.58874179893984
 20
1.882337833076421
 30
0.0
 10
40.59928870929558
 20
1.868912055673938
 30
0.0
 10
40.61028784198412
 20
1.855854188427975
 30
0.0
 10
40.62128697467265
 20
1.842796321182012
 30
0.0
 10
40.63272550519726
 20
1.830121588981679
 30
0.0
 10
40.64416403572187
 20
1.817446856781345
 30
0.0
 10
40.65602862726766
 20
1.805170037797396
 30
0.0
 10
40.66789321881345
 20
1.792893218813446
 30
0.0
 10
40.6801700377974
 20
1.781028627267655
 30
0.0
 10
40.69244685678135
 20
1.769164035721863
 30
0.0
 10
40.70512158898168
 20
1.757725505197251
 30
0.0
 10
40.71779632118202
 20
1.746286974672639
 30
0.0
 10
40.73085418842798
 20
1.735287841984107
 30
0.0
 10
40.74391205567395
 20
1.724288709295575
 30
0.0
 10
40.75733783307643
 20
1.71374179893983
 30
0.0
 10
40.77076361047891
 20
1.703194888584085
 30
0.0
 10
40.78454164418202
 20
1.693112497786822
 30
0.0
 10
40.79831967788513
 20
1.683030106989559
 30
0.0
 10
40.81243390331791
 20
1.673423991367422
 30
0.0
 10
40.82654812875068
 20
1.663817875745285
 30
0.0
 10
40.84098208935762
 20
1.654699235599394
 30
0.0
 10
40.85541604996457
 20
1.645580595453503
 30
0.0
 10
40.87015291639328
 20
1.636960062710369
 30
0.0
 10
40.88488978282199
 20
1.628339529967235
 30
0.0
 10
40.89991237254542
 20
1.620227155782428
 30
0.0
 10
40.91493496226884
 20
1.612114781597621
 30
0.0
 10
40.93022575961938
 20
1.60452002463654
 30
0.0
 10
40.94551655696992
 20
1.59692526767546
 30
0.0
 10
40.96105773356184
 20
1.589856983084998
 30
0.0
 10
40.97659891015377
 20
1.582788698494536
 30
0.0
 10
40.99237234567035
 20
1.576255127578349
 30
0.0
 10
41.00814578118693
 20
1.569721556662163
 30
0.0
 10
41.02413308450797
 20
1.563730317271668
 30
0.0
 10
41.04012038782901
 20
1.557739077881173
 30
0.0
 10
41.05630291847397
 20
1.552297155533501
 30
0.0
 10
41.07248544911893
 20
1.54685523318583
 30
0.0
 10
41.08884433898095
 20
1.541968972919014
 30
0.0
 10
41.10520322884297
 20
1.537082712652197
 30
0.0
 10
41.12171940418825
 20
1.532757811627125
 30
0.0
 10
41.13823557953355
 20
1.528432910602052
 30
0.0
 10
41.15488978324046
 20
1.52467441145986
 30
0.0
 10
41.17154398694737
 20
1.520915912317669
 30
0.0
 10
41.18831680095936
 20
1.517728197300231
 30
0.0
 10
41.20508961497135
 20
1.514540482282794
 30
0.0
 10
41.22196148293754
 20
1.511927268123229
 30
0.0
 10
41.23883335090375
 20
1.509314053963663
 30
0.0
 10
41.25578460098086
 20
1.50727838755278
 30
0.0
 10
41.27273585105797
 20
1.505242721141898
 30
0.0
 10
41.28974671884666
 20
1.503786975975675
 30
0.0
 10
41.30675758663534
 20
1.502331230809453
 30
0.0
 10
41.32380823822469
 20
1.501457104221636
 30
0.0
 10
41.34085888981402
 20
1.500582977633819
 30
0.0
 10
41.35792944490701
 20
1.500291488816906
 30
0.0
 10
41.375
 20
1.499999999999993
 30
0.0
 10
48.25
 20
1.499999999999996
 30
0.0
 10
55.125
 20
1.499999999999998
 30
0.0
 10
55.14207055509299
 20
1.500291488816911
 30
0.0
 10
55.15914111018598
 20
1.500582977633824
 30
0.0
 10
55.17619176177531
 20
1.501457104221641
 30
0.0
 10
55.19324241336466
 20
1.502331230809458
 30
0.0
 10
55.21025328115334
 20
1.503786975975681
 30
0.0
 10
55.22726414894203
 20
1.505242721141903
 30
0.0
 10
55.24421539901914
 20
1.507278387552786
 30
0.0
 10
55.26116664909625
 20
1.509314053963668
 30
0.0
 10
55.27803851706246
 20
1.511927268123233
 30
0.0
 10
55.29491038502865
 20
1.514540482282798
 30
0.0
 10
55.31168319904064
 20
1.517728197300236
 30
0.0
 10
55.32845601305263
 20
1.520915912317674
 30
0.0
 10
55.34511021675954
 20
1.524674411459866
 30
0.0
 10
55.36176442046645
 20
1.528432910602057
 30
0.0
 10
55.37828059581175
 20
1.53275781162713
 30
0.0
 10
55.39479677115703
 20
1.537082712652202
 30
0.0
 10
55.41115566101905
 20
1.541968972919018
 30
0.0
 10
55.42751455088107
 20
1.546855233185835
 30
0.0
 10
55.44369708152603
 20
1.552297155533506
 30
0.0
 10
55.45987961217099
 20
1.557739077881177
 30
0.0
 10
55.47586691549203
 20
1.563730317271673
 30
0.0
 10
55.49185421881307
 20
1.569721556662168
 30
0.0
 10
55.50762765432965
 20
1.576255127578354
 30
0.0
 10
55.52340108984623
 20
1.58278869849454
 30
0.0
 10
55.53894226643816
 20
1.589856983085002
 30
0.0
 10
55.55448344303008
 20
1.596925267675464
 30
0.0
 10
55.56977424038062
 20
1.604520024636544
 30
0.0
 10
55.58506503773116
 20
1.612114781597625
 30
0.0
 10
55.60008762745458
 20
1.620227155782433
 30
0.0
 10
55.61511021717801
 20
1.62833952996724
 30
0.0
 10
55.62984708360672
 20
1.636960062710374
 30
0.0
 10
55.64458395003543
 20
1.645580595453507
 30
0.0
 10
55.65901791064238
 20
1.654699235599398
 30
0.0
 10
55.67345187124932
 20
1.663817875745289
 30
0.0
 10
55.68756609668209
 20
1.673423991367426
 30
0.0
 10
55.70168032211487
 20
1.683030106989563
 30
0.0
 10
55.71545835581798
 20
1.693112497786825
 30
0.0
 10
55.72923638952109
 20
1.703194888584088
 30
0.0
 10
55.74266216692357
 20
1.713741798939833
 30
0.0
 10
55.75608794432605
 20
1.724288709295578
 30
0.0
 10
55.76914581157202
 20
1.73528784198411
 30
0.0
 10
55.78220367881798
 20
1.746286974672643
 30
0.0
 10
55.79487841101832
 20
1.757725505197254
 30
0.0
 10
55.80755314321865
 20
1.769164035721866
 30
0.0
 10
55.8198299622026
 20
1.781028627267657
 30
0.0
 10
55.83210678118655
 20
1.792893218813449
 30
0.0
 10
55.84397137273234
 20
1.805170037797398
 30
0.0
 10
55.85583596427813
 20
1.817446856781348
 30
0.0
 10
55.86727449480274
 20
1.830121588981682
 30
0.0
 10
55.87871302532735
 20
1.842796321182015
 30
0.0
 10
55.88971215801588
 20
1.855854188427978
 30
0.0
 10
55.90071129070441
 20
1.868912055673941
 30
0.0
 10
55.91125820106016
 20
1.882337833076424
 30
0.0
 10
55.92180511141591
 20
1.895763610478906
 30
0.0
 10
55.93188750221317
 20
1.909541644182011
 30
0.0
 10
55.94196989301043
 20
1.923319677885117
 30
0.0
 10
55.95157600863257
 20
1.937433903317895
 30
0.0
 10
55.96118212425471
 20
1.951548128750673
 30
0.0
 10
55.9703007644006
 20
1.965982089357619
 30
0.0
 10
55.97941940454649
 20
1.980416049964565
 30
0.0
 10
55.98803993728963
 20
1.995152916393277
 30
0.0
 10
55.99666047003276
 20
2.009889782821989
 30
0.0
 10
56.00477284421756
 20
2.024912372545412
 30
0.0
 10
56.01288521840237
 20
2.039934962268836
 30
0.0
 10
56.02047997536344
 20
2.055225759619375
 30
0.0
 10
56.02807473232453
 20
2.070516556969914
 30
0.0
 10
56.03514301691499
 20
2.086057733561838
 30
0.0
 10
56.04221130150545
 20
2.101598910153762
 30
0.0
 10
56.04874487242164
 20
2.117372345670346
 30
0.0
 10
56.05527844333783
 20
2.133145781186929
 30
0.0
 10
56.06126968272832
 20
2.149133084507968
 30
0.0
 10
56.06726092211882
 20
2.165120387829007
 30
0.0
 10
56.07270284446649
 20
2.181302918473967
 30
0.0
 10
56.07814476681416
 20
2.197485449118926
 30
0.0
 10
56.08303102708098
 20
2.213844338980942
 30
0.0
 10
56.08791728734779
 20
2.230203228842958
 30
0.0
 10
56.09224218837286
 20
2.246719404188251
 30
0.0
 10
56.09656708939794
 20
2.263235579533544
 30
0.0
 10
56.10032558854013
 20
2.279889783240455
 30
0.0
 10
56.10408408768232
 20
2.296543986947365
 30
0.0
 10
56.10727180269976
 20
2.313316800959353
 30
0.0
 10
56.1104595177172
 20
2.330089614971341
 30
0.0
 10
56.11307273187677
 20
2.346961482937541
 30
0.0
 10
56.11568594603633
 20
2.363833350903741
 30
0.0
 10
56.11772161244721
 20
2.380784600980851
 30
0.0
 10
56.1197572788581
 20
2.397735851057962
 30
0.0
 10
56.12121302402432
 20
2.414746718846648
 30
0.0
 10
56.12266876919054
 20
2.431757586635334
 30
0.0
 10
56.12354289577836
 20
2.448808238224675
 30
0.0
 10
56.12441702236617
 20
2.465858889814017
 30
0.0
 10
56.12470851118309
 20
2.482929444907005
 30
0.0
 10
56.125
 20
2.499999999999993
 30
0.0
  0
SPLINE
  5
3F
330
1F
100
AcDbEntity
  8
DEFAULT
100
AcDbSpline
210
0.0
220
0.0
230
1.0
 70
    24
 71
     2
 72
     6
 73
     3
 74
     0
 42
0.0000000001
 43
0.0000000001
 40
0.0
 40
0.0
 40
0.0
 40
5.610000000000007
 40
5.610000000000007
 40
5.610000000000007
 10
50.80500000000001
 20
1.289999999999999
 30
0.0
 10
48.25
 20
1.289999999999999
 30
0.0
 10
45.695
 20
1.289999999999999
 30
0.0
  0
SPLINE
  5
40
330
1F
100
AcDbEntity
  8
DEFAULT
100
AcDbSpline
210
0.0
220
0.0
230
1.0
 70
    24
 71
     2
 72
     6
 73
     3
 74
     0
 42
0.0000000001
 43
0.0000000001
 40
0.0
 40
0.0
 40
0.0
 40
5.610000000000007
 40
5.610000000000007
 40
5.610000000000007
 10
45.695
 20
0.6024999999999991
 30
0.0
 10
48.25
 20
0.6024999999999991
 30
0.0
 10
50.80500000000001
 20
0.6024999999999991
 30
0.0
  0
SPLINE
  5
41
330
1F
100
AcDbEntity
  8
DEFAULT
100
AcDbSpline
210
0.0
220
0.0
230
1.0
 70
    11
 71
     2
 72
    12
 73
     9
 74
     0
 42
0.0000000001
 43
0.0000000001
 40
0.0
 40
0.0
 40
0.0
 40
1.0
 40
1.0
 40
2.0
 40
2.0
 40
3.0
 40
3.0
 40
4.0
 40
4.0
 40
4.0
 10
45.695
 20
0.4175000000000004
 30
0.0
 10
48.25
 20
0.4175000000000004
 30
0.0
 10
50.80500000000001
 20
0.4175000000000004
 30
0.0
 10
50.80500000000001
 20
0.9571674999999987
 30
0.0
 10
50.80500000000001
 20
1.496834999999997
 30
0.0
 10
48.25
 20
1.496834999999997
 30
0.0
 10
45.695
 20
1.496834999999997
 30
0.0
 10
45.695
 20
0.9571674999999987
 30
0.0
 10
45.695
 20
0.4175000000000004
 30
0.0
  0
SPLINE
  5
42
330
1F
100
AcDbEntity
  8
DEFAULT
100
AcDbSpline
210
0.0
220
0.0
230
1.0
 70
    24
 71
     2
 72
     6
 73
     3
 74
     0
 42
0.0000000001
 43
0.0000000001
 40
0.0
 40
0.0
 40
0.0
 40
16.25
 40
16.25
 40
16.25
 10
40.375
 20
5.0
 30
0.0
 10
48.25
 20
5.0
 30
0.0
 10
56.125
 20
5.0
 30
0.0
  0
SPLINE
  5
43
330
1F
100
AcDbEntity
  8
DEFAULT
100
AcDbSpline
210
0.0
220
0.0
230
1.0
 70
     8
 71
     2
 72
   252
 73
   249
 74
     0
 42
0.0000000001
 43
0.0000000001
 40
0.0
 40
0.0
 40
0.0
 40
1.0
 40
1.0
 40
2.0
 40
2.0
 40
3.0
 40
3.0
 40
4.0
 40
4.0
 40
5.0
 40
5.0
 40
6.0
 40
6.0
 40
7.0
 40
7.0
 40
8.0
 40
8.0
 40
9.0
 40
9.0
 40
10.0
 40
10.0
 40
11.0
 40
11.0
 40
12.0
 40
12.0
 40
13.0
 40
13.0
 40
14.0
 40
14.0
 40
15.0
 40
15.0
 40
16.0
 40
16.0
 40
17.0
 40
17.0
 40
18.0
 40
18.0
 40
19.0
 40
19.0
 40
20.0
 40
20.0
 40
21.0
 40
21.0
 40
22.0
 40
22.0
 40
23.0
 40
23.0
 40
24.0
 40
24.0
 40
25.0
 40
25.0
 40
26.0
 40
26.0
 40
27.0
 40
27.0
 40
28.0
 40
28.0
 40
29.0
 40
29.0
 40
30.0
 40
30.0
 40
31.0
 40
31.0
 40
32.0
 40
32.0
 40
33.0
 40
33.0
 40
34.0
 40
34.0
 40
35.0
 40
35.0
 40
36.0
 40
36.0
 40
37.0
 40
37.0
 40
38.0
 40
38.0
 40
39.0
 40
39.0
 40
40.0
 40
40.0
 40
41.0
 40
41.0
 40
42.0
 40
42.0
 40
43.0
 40
43.0
 40
44.0
 40
44.0
 40
45.0
 40
45.0
 40
46.0
 40
46.0
 40
47.0
 40
47.0
 40
48.0
 40
48.0
 40
49.0
 40
49.0
 40
50.0
 40
50.0
 40
51.0
 40
51.0
 40
52.0
 40
52.0
 40
53.0
 40
53.0
 40
54.0
 40
54.0
 40
55.0
 40
55.0
 40
56.0
 40
56.0
 40
57.0
 40
57.0
 40
58.0
 40
58.0
 40
59.0
 40
59.0
 40
60.0
 40
60.0
 40
61.0
 40
61.0
 40
62.0
 40
62.0
 40
63.0
 40
63.0
 40
64.0
 40
64.0
 40
65.0
 40
65.0
 40
66.0
 40
66.0
 40
67.0
 40
67.0
 40
68.0
 40
68.0
 40
69.0
 40
69.0
 40
70.0
 40
70.0
 40
71.0
 40
71.0
 40
72.0
 40
72.0
 40
73.0
 40
73.0
 40
74.0
 40
74.0
 40
75.0
 40
75.0
 40
76.0
 40
76.0
 40
77.0
 40
77.0
 40
78.0
 40
78.0
 40
79.0
 40
79.0
 40
80.0
 40
80.0
 40
81.0
 40
81.0
 40
82.0
 40
82.0
 40
83.0
 40
83.0
 40
84.0
 40
84.0
 40
85.0
 40
85.0
 40
86.0
 40
86.0
 40
87.0
 40
87.0
 40
88.0
 40
88.0
 40
89.0
 40
89.0
 40
90.0
 40
90.0
 40
91.0
 40
91.0
 40
92.0
 40
92.0
 40
93.0
 40
93.0
 40
94.0
 40
94.0
 40
95.0
 40
95.0
 40
96.0
 40
96.0
 40
97.0
 40
97.0
 40
98.0
 40
98.0
 40
99.0
 40
99.0
 40
100.0
 40
100.0
 40
101.0
 40
101.0
 40
102.0
 40
102.0
 40
103.0
 40
103.0
 40
104.0
 40
104.0
 40
105.0
 40
105.0
 40
106.0
 40
106.0
 40
107.0
 40
107.0
 40
108.0
 40
108.0
 40
109.0
 40
109.0
 40
110.0
 40
110.0
 40
111.0
 40
111.0
 40
112.0
 40
112.0
 40
113.0
 40
113.0
 40
114.0
 40
114.0
 40
115.0
 40
115.0
 40
116.0
 40
116.0
 40
117.0
 40
117.0
 40
118.0
 40
118.0
 40
119.0
 40
119.0
 40
120.0
 40
120.0
 40
121.0
 40
121.0
 40
122.0
 40
122.0
 40
123.0
 40
123.0
 40
124.0
 40
124.0
 40
124.0
 10
53.369530001007
 20
1.290077952375257
 30
0.0
 10
53.37532481426168
 20
1.29029711538981
 30
0.0
 10
53.38111962751636
 20
1.290516278404364
 30
0.0
 10
53.38690392209241
 20
1.290928381960721
 30
0.0
 10
53.39268821666845
 20
1.291340485517079
 30
0.0
 10
53.39845557032454
 20
1.291945072061005
 30
0.0
 10
53.40422292398063
 20
1.292549658604931
 30
0.0
 10
53.40996693328481
 20
1.293346056870359
 30
0.0
 10
53.41571094258897
 20
1.294142455135786
 30
0.0
 10
53.42142523002823
 20
1.295129780890114
 30
0.0
 10
53.42713951746749
 20
1.296117106644441
 30
0.0
 10
53.4328177385287
 20
1.29729426367029
 30
0.0
 10
53.43849595958992
 20
1.29847142069614
 30
0.0
 10
53.44413180980411
 20
1.299837102008471
 30
0.0
 10
53.44976766001829
 20
1.301202783320802
 30
0.0
 10
53.45535488196035
 20
1.302755472618048
 30
0.0
 10
53.4609421039024
 20
1.304308161915294
 30
0.0
 10
53.46647449413869
 20
1.306046135262892
 30
0.0
 10
53.47200688437498
 20
1.30778410861049
 30
0.0
 10
53.47747830035094
 20
1.30970543635495
 30
0.0
 10
53.4829497163269
 20
1.311626764099409
 30
0.0
 10
53.48835408318703
 20
1.313729313010786
 30
0.0
 10
53.49375845004716
 20
1.315831861922162
 30
0.0
 10
53.4990897673799
 20
1.318113297562558
 30
0.0
 10
53.50442108471263
 20
1.320394733202955
 30
0.0
 10
53.50967343321252
 20
1.322852522518425
 30
0.0
 10
53.51492578171241
 20
1.325310311833895
 30
0.0
 10
53.52009332975229
 20
1.327941725966865
 30
0.0
 10
53.52526087779216
 20
1.330573140099836
 30
0.0
 10
53.53033788789788
 20
1.333375257418928
 30
0.0
 10
53.5354148980036
 20
1.33617737473802
 30
0.0
 10
53.54039573322437
 20
1.339147084081908
 30
0.0
 10
53.54537656844514
 20
1.342116793425796
 30
0.0
 10
53.55025569861209
 20
1.345250797557493
 30
0.0
 10
53.55513482877904
 20
1.34838480168919
 30
0.0
 10
53.55990683664538
 20
1.35167962095694
 30
0.0
 10
53.56467884451173
 20
1.354974440224691
 30
0.0
 10
53.56933843176743
 20
1.358426416425388
 30
0.0
 10
53.57399801902312
 20
1.361878392626084
 30
0.0
 10
53.57854001217754
 20
1.365483693066932
 30
0.0
 10
53.58308200533195
 20
1.369088993507779
 30
0.0
 10
53.58360851326686
 20
1.369536867880836
 30
0.0
 10
53.58413502120177
 20
1.369984742253893
 30
0.0
 10
53.5846457376901
 20
1.370450543421881
 30
0.0
 10
53.58515645417844
 20
1.370916344589869
 30
0.0
 10
53.58565076916381
 20
1.371399516148223
 30
0.0
 10
53.58614508414917
 20
1.371882687706577
 30
0.0
 10
53.58662240716694
 20
1.372382652501611
 30
0.0
 10
53.5870997301847
 20
1.372882617296644
 30
0.0
 10
53.58755949106732
 20
1.373398778114967
 30
0.0
 10
53.58801925194994
 20
1.37391493893329
 30
0.0
 10
53.58846090150804
 20
1.374446679215187
 30
0.0
 10
53.58890255106614
 20
1.374978419497083
 30
0.0
 10
53.58932556174451
 20
1.375525104072999
 30
0.0
 10
53.58974857242288
 20
1.376071788648914
 30
0.0
 10
53.59015243893066
 20
1.376632764498171
 30
0.0
 10
53.59055630543845
 20
1.377193740347428
 30
0.0
 10
53.59094054535271
 20
1.377768337378269
 30
0.0
 10
53.59132478526697
 20
1.378342934409109
 30
0.0
 10
53.59168893960894
 20
1.378930466259126
 30
0.0
 10
53.59205309395091
 20
1.379517998109142
 30
0.0
 10
53.59239672773427
 20
1.380117762965143
 30
0.0
 10
53.59274036151763
 20
1.380717527821144
 30
0.0
 10
53.59306306426808
 20
1.381328809257482
 30
0.0
 10
53.59338576701853
 20
1.381940090693819
 30
0.0
 10
53.59368715326413
 20
1.382562158528163
 30
0.0
 10
53.59398853950972
 20
1.383184226362506
 30
0.0
 10
53.59426824924131
 20
1.383816337528057
 30
0.0
 10
53.5945479589729
 20
1.384448448693607
 30
0.0
 10
53.59480565807416
 20
1.385089848126696
 30
0.0
 10
53.59506335717543
 20
1.385731247559785
 30
0.0
 10
53.59529873782199
 20
1.386381169101808
 30
0.0
 10
53.59553411846856
 20
1.387031090643831
 30
0.0
 10
53.59574689949567
 20
1.387688757956432
 30
0.0
 10
53.59595968052277
 20
1.388346425269032
 30
0.0
 10
53.59614960776117
 20
1.389011052761447
 30
0.0
 10
53.59633953499957
 20
1.389675680253861
 30
0.0
 10
53.59650638157912
 20
1.390346474021314
 30
0.0
 10
53.59667322815866
 20
1.391017267788767
 30
0.0
 10
53.59681679477929
 20
1.391693426560803
 30
0.0
 10
53.59696036139992
 20
1.392369585332838
 30
0.0
 10
53.59708047656974
 20
1.393050301430443
 30
0.0
 10
53.59720059173957
 20
1.393731017528047
 30
0.0
 10
53.59729711197971
 20
1.394415477828431
 30
0.0
 10
53.59739363221986
 20
1.395099938128816
 30
0.0
 10
53.59746644223584
 20
1.395787325036701
 30
0.0
 10
53.59753925225183
 20
1.396474711944587
 30
0.0
 10
53.59758826507129
 20
1.39716420436883
 30
0.0
 10
53.59763727789076
 20
1.397853696793073
 30
0.0
 10
53.59766243496736
 20
1.398544471127467
 30
0.0
 10
53.59768759204396
 20
1.39923524546186
 30
0.0
 10
53.5976888633273
 20
1.399926476568942
 30
0.0
 10
53.59769013461064
 20
1.400617707676025
 30
0.0
 10
53.59766751858215
 20
1.401308569872715
 30
0.0
 10
53.59764490255366
 20
1.401999432069404
 30
0.0
 10
53.59759842622844
 20
1.402689100113288
 30
0.0
 10
53.59755194990321
 20
1.403378768157171
 30
0.0
 10
53.59748166879773
 20
1.404066418232262
 30
0.0
 10
53.59741138769225
 20
1.404754068307352
 30
0.0
 10
53.59731738575806
 20
1.40543887900815
 30
0.0
 10
53.59722338382387
 20
1.406123689708948
 30
0.0
 10
53.59710577334729
 20
1.406804843021618
 30
0.0
 10
53.59698816287072
 20
1.407485996334287
 30
0.0
 10
53.59684708433876
 20
1.408162678613781
 30
0.0
 10
53.5967060058068
 20
1.408839360893274
 30
0.0
 10
53.5965416277393
 20
1.409510763835243
 30
0.0
 10
53.5963772496718
 20
1.410182166777212
 30
0.0
 10
53.59618976842015
 20
1.410847488383534
 30
0.0
 10
53.5960022871685
 20
1.411512809989856
 30
0.0
 10
53.59579192668109
 20
1.41217125552663
 30
0.0
 10
53.59558156619368
 20
1.412829701063404
 30
0.0
 10
53.59534857774841
 20
1.413480484010269
 30
0.0
 10
53.59511558930314
 20
1.414131266957134
 30
0.0
 10
53.59486025120724
 20
1.414773609946776
 30
0.0
 10
53.59460491311134
 20
1.415415952936417
 30
0.0
 10
53.59432753036894
 20
1.416049088683142
 30
0.0
 10
53.59405014762655
 20
1.416682224429868
 30
0.0
 10
53.59375105157436
 20
1.417305396646136
 30
0.0
 10
53.59345195552218
 20
1.417928568862403
 30
0.0
 10
53.5931315034337
 20
1.418541033162217
 30
0.0
 10
53.59281105134522
 20
1.419153497462031
 30
0.0
 10
53.59246962600394
 20
1.419754522250118
 30
0.0
 10
53.59212820066266
 20
1.420355547038205
 30
0.0
 10
53.59176620990488
 20
1.420944414383914
 30
0.0
 10
53.59140421914711
 20
1.421533281729623
 30
0.0
 10
53.59102209537473
 20
1.422109288224499
 30
0.0
 10
53.59063997160234
 20
1.422685294719376
 30
0.0
 10
53.59023817126636
 20
1.423247752317391
 30
0.0
 10
53.58983637093038
 20
1.423810209915406
 30
0.0
 10
53.58941537398567
 20
1.424358446754837
 30
0.0
 10
53.58899437704097
 20
1.424906683594268
 30
0.0
 10
53.58855468637297
 20
1.425440044800242
 30
0.0
 10
53.58811499570498
 20
1.425973406006216
 30
0.0
 10
53.58765713652898
 20
1.426491254472967
 30
0.0
 10
53.58719927735299
 20
1.427009102939718
 30
0.0
 10
53.58672379658675
 20
1.427510820091615
 30
0.0
 10
53.58624831582053
 20
1.428012537243512
 30
0.0
 10
53.58575578143102
 20
1.428497523773956
 30
0.0
 10
53.58526324704152
 20
1.4289825103044
 30
0.0
 10
53.58475424736642
 20
1.429450186891702
 30
0.0
 10
53.58424524769132
 20
1.429917863479003
 30
0.0
 10
53.58372039073629
 20
1.430367671478387
 30
0.0
 10
53.58319553378125
 20
1.430817479477771
 30
0.0
 10
53.58265544649362
 20
1.431248881588687
 30
0.0
 10
53.58211535920599
 20
1.431680283699602
 30
0.0
 10
53.58156068672591
 20
1.432092764607531
 30
0.0
 10
53.58100601424584
 20
1.43250524551546
 30
0.0
 10
53.58043741913563
 20
1.432898312507469
 30
0.0
 10
53.57986882402542
 20
1.433291379499477
 30
0.0
 10
53.57928698547813
 20
1.433664563052764
 30
0.0
 10
53.57870514693084
 20
1.434037746606051
 30
0.0
 10
53.57811075995893
 20
1.4343906009488
 30
0.0
 10
53.57751637298703
 20
1.434743455291549
 30
0.0
 10
53.57691014759223
 20
1.435075558935407
 30
0.0
 10
53.57630392219744
 20
1.435407662579264
 30
0.0
 10
53.57568658252258
 20
1.435718618822813
 30
0.0
 10
53.57506924284772
 20
1.436029575066361
 30
0.0
 10
53.57444152631176
 20
1.436319012468982
 30
0.0
 10
53.57381380977579
 20
1.436608449871604
 30
0.0
 10
53.57317646619295
 20
1.436876022697171
 30
0.0
 10
53.57253912261012
 20
1.437143595522738
 30
0.0
 10
53.57189291329426
 20
1.437388984152597
 30
0.0
 10
53.57124670397842
 20
1.437634372782456
 30
0.0
 10
53.5705924008336
 20
1.437857284097218
 30
0.0
 10
53.56993809768879
 20
1.43808019541198
 30
0.0
 10
53.56927648228725
 20
1.438280363141653
 30
0.0
 10
53.56861486688571
 20
1.438480530871326
 30
0.0
 10
53.56794672953424
 20
1.438657715913378
 30
0.0
 10
53.56727859218277
 20
1.438834900955429
 30
0.0
 10
53.5666047309787
 20
1.438988891660399
 30
0.0
 10
53.56593086977463
 20
1.439142882365368
 30
0.0
 10
53.56525208965252
 20
1.439273494789681
 30
0.0
 10
53.56457330953041
 20
1.439404107213994
 30
0.0
 10
53.5638904213005
 20
1.439511185339689
 30
0.0
 10
53.56320753307058
 20
1.439618263465384
 30
0.0
 10
53.56252135245029
 20
1.439701679386474
 30
0.0
 10
53.56183517182999
 20
1.439785095307563
 30
0.0
 10
53.56114651846953
 20
1.439844749382822
 30
0.0
 10
53.56045786510908
 20
1.439904403458081
 30
0.0
 10
53.5597675616124
 20
1.439940224430066
 30
0.0
 10
53.55907725811572
 20
1.439976045402051
 30
0.0
 10
53.55838612905787
 20
1.439987990482222
 30
0.0
 10
53.557695
 20
1.439999935562394
 30
0.0
 10
53.53302
 20
1.440000022700247
 30
0.0
 10
53.508345
 20
1.4400001098381
 30
0.0
 10
53.50800010433908
 20
1.44000605929142
 30
0.0
 10
53.50765520867816
 20
1.44001200874474
 30
0.0
 10
53.50731072340762
 20
1.440029850025461
 30
0.0
 10
53.50696623813708
 20
1.440047691306182
 30
0.0
 10
53.50662257315898
 20
1.440077403185014
 30
0.0
 10
53.50627890818088
 20
1.440107115063847
 30
0.0
 10
53.50593647242121
 20
1.440148662186709
 30
0.0
 10
53.50559403666155
 20
1.440190209309572
 30
0.0
 10
53.50525323758366
 20
1.44024354223966
 30
0.0
 10
53.50491243850578
 20
1.440296875169748
 30
0.0
 10
53.50457368162556
 20
1.440361930446357
 30
0.0
 10
53.50423492474533
 20
1.440426985722965
 30
0.0
 10
53.50389861314862
 20
1.440503685937003
 30
0.0
 10
53.50356230155191
 20
1.440580386151041
 30
0.0
 10
53.50322883541494
 20
1.440668640037138
 30
0.0
 10
53.50289536927797
 20
1.440756893923236
 30
0.0
 10
53.50256514539117
 20
1.440856596468342
 30
0.0
 10
53.50223492150436
 20
1.440956299013448
 30
0.0
 10
53.5019083328002
 20
1.441067331581782
 30
0.0
 10
53.50158174409604
 20
1.441178364150116
 30
0.0
 10
53.50125917918152
 20
1.441300594624337
 30
0.0
 10
53.50093661426698
 20
1.441422825098558
 30
0.0
 10
53.50061845696116
 20
1.441556108036966
 30
0.0
 10
53.50030029965534
 20
1.441689390975375
 30
0.0
 10
53.49998692853273
 20
1.441833567784977
 30
0.0
 10
53.49967355741011
 20
1.441977744594578
 30
0.0
 10
53.49936534535011
 20
1.442132643719791
 30
0.0
 10
53.49905713329012
 20
1.442287542845003
 30
0.0
 10
53.49875444703342
 20
1.442452979971791
 30
0.0
 10
53.49845176077672
 20
1.442618417098579
 30
0.0
 10
53.49815496048884
 20
1.442794195373768
 30
0.0
 10
53.49785816020096
 20
1.442969973648958
 30
0.0
 10
53.49756759904372
 20
1.443155883914473
 30
0.0
 10
53.49727703788648
 20
1.443341794179988
 30
0.0
 10
53.49699306159781
 20
1.443537615221723
 30
0.0
 10
53.49670908530913
 20
1.443733436263458
 30
0.0
 10
53.4964320317916
 20
1.443938935074504
 30
0.0
 10
53.49615497827408
 20
1.444144433885551
 30
0.0
 10
53.4958851771929
 20
1.44435936594345
 30
0.0
 10
53.49561537611173
 20
1.444574298001349
 30
0.0
 10
53.49535314850246
 20
1.444798407559046
 30
0.0
 10
53.49509092089318
 20
1.445022517116743
 30
0.0
 10
53.49483657877971
 20
1.445255537506903
 30
0.0
 10
53.49458223666624
 20
1.445488557897064
 30
0.0
 10
53.49433608268954
 20
1.445730211849378
 30
0.0
 10
53.49408992871283
 20
1.445971865801692
 30
0.0
 10
53.49385225577082
 20
1.4462218657728
 30
0.0
 10
53.49361458282881
 20
1.446471865743907
 30
0.0
 10
53.49338567372786
 20
1.446729914259542
 30
0.0
 10
53.49315676462692
 20
1.446987962775177
 30
0.0
 10
53.49293689174534
 20
1.447253752784134
 30
0.0
 10
53.49271701886376
 20
1.44751954279309
 30
0.0
 10
53.49250644382766
 20
1.447792758032582
 30
0.0
 10
53.49229586879158
 20
1.448065973272074
 30
0.0
 10
53.49209484216361
 20
1.448346288644052
 30
0.0
 10
53.49189381553565
 20
1.44862660401603
 30
0.0
 10
53.49170257651685
 20
1.448913685974019
 30
0.0
 10
53.49151133749805
 20
1.449200767932007
 30
0.0
 10
53.49133011364317
 20
1.449494274877989
 30
0.0
 10
53.49114888978829
 20
1.449787781823971
 30
0.0
 10
53.4909778967351
 20
1.450087364514853
 30
0.0
 10
53.49080690368191
 20
1.450386947205735
 30
0.0
 10
53.47720887069772
 20
1.475193473602868
 30
0.0
 10
53.46361083771353
 20
1.5
 30
0.0
  0
SPLINE
  5
44
330
1F
100
AcDbEntity
  8
DEFAULT
100
AcDbSpline
210
0.0
220
0.0
230
1.0
 70
     8
 71
     2
 72
   252
 73
   249
 74
     0
 42
0.0000000001
 43
0.0000000001
 40
0.0
 40
0.0
 40
0.0
 40
1.0
 40
1.0
 40
2.0
 40
2.0
 40
3.0
 40
3.0
 40
4.0
 40
4.0
 40
5.0
 40
5.0
 40
6.0
 40
6.0
 40
7.0
 40
7.0
 40
8.0
 40
8.0
 40
9.0
 40
9.0
 40
10.0
 40
10.0
 40
11.0
 40
11.0
 40
12.0
 40
12.0
 40
13.0
 40
13.0
 40
14.0
 40
14.0
 40
15.0
 40
15.0
 40
16.0
 40
16.0
 40
17.0
 40
17.0
 40
18.0
 40
18.0
 40
19.0
 40
19.0
 40
20.0
 40
20.0
 40
21.0
 40
21.0
 40
22.0
 40
22.0
 40
23.0
 40
23.0
 40
24.0
 40
24.0
 40
25.0
 40
25.0
 40
26.0
 40
26.0
 40
27.0
 40
27.0
 40
28.0
 40
28.0
 40
29.0
 40
29.0
 40
30.0
 40
30.0
 40
31.0
 40
31.0
 40
32.0
 40
32.0
 40
33.0
 40
33.0
 40
34.0
 40
34.0
 40
35.0
 40
35.0
 40
36.0
 40
36.0
 40
37.0
 40
37.0
 40
38.0
 40
38.0
 40
39.0
 40
39.0
 40
40.0
 40
40.0
 40
41.0
 40
41.0
 40
42.0
 40
42.0
 40
43.0
 40
43.0
 40
44.0
 40
44.0
 40
45.0
 40
45.0
 40
46.0
 40
46.0
 40
47.0
 40
47.0
 40
48.0
 40
48.0
 40
49.0
 40
49.0
 40
50.0
 40
50.0
 40
51.0
 40
51.0
 40
52.0
 40
52.0
 40
53.0
 40
53.0
 40
54.0
 40
54.0
 40
55.0
 40
55.0
 40
56.0
 40
56.0
 40
57.0
 40
57.0
 40
58.0
 40
58.0
 40
59.0
 40
59.0
 40
60.0
 40
60.0
 40
61.0
 40
61.0
 40
62.0
 40
62.0
 40
63.0
 40
63.0
 40
64.0
 40
64.0
 40
65.0
 40
65.0
 40
66.0
 40
66.0
 40
67.0
 40
67.0
 40
68.0
 40
68.0
 40
69.0
 40
69.0
 40
70.0
 40
70.0
 40
71.0
 40
71.0
 40
72.0
 40
72.0
 40
73.0
 40
73.0
 40
74.0
 40
74.0
 40
75.0
 40
75.0
 40
76.0
 40
76.0
 40
77.0
 40
77.0
 40
78.0
 40
78.0
 40
79.0
 40
79.0
 40
80.0
 40
80.0
 40
81.0
 40
81.0
 40
82.0
 40
82.0
 40
83.0
 40
83.0
 40
84.0
 40
84.0
 40
85.0
 40
85.0
 40
86.0
 40
86.0
 40
87.0
 40
87.0
 40
88.0
 40
88.0
 40
89.0
 40
89.0
 40
90.0
 40
90.0
 40
91.0
 40
91.0
 40
92.0
 40
92.0
 40
93.0
 40
93.0
 40
94.0
 40
94.0
 40
95.0
 40
95.0
 40
96.0
 40
96.0
 40
97.0
 40
97.0
 40
98.0
 40
98.0
 40
99.0
 40
99.0
 40
100.0
 40
100.0
 40
101.0
 40
101.0
 40
102.0
 40
102.0
 40
103.0
 40
103.0
 40
104.0
 40
104.0
 40
105.0
 40
105.0
 40
106.0
 40
106.0
 40
107.0
 40
107.0
 40
108.0
 40
108.0
 40
109.0
 40
109.0
 40
110.0
 40
110.0
 40
111.0
 40
111.0
 40
112.0
 40
112.0
 40
113.0
 40
113.0
 40
114.0
 40
114.0
 40
115.0
 40
115.0
 40
116.0
 40
116.0
 40
117.0
 40
117.0
 40
118.0
 40
118.0
 40
119.0
 40
119.0
 40
120.0
 40
120.0
 40
121.0
 40
121.0
 40
122.0
 40
122.0
 40
123.0
 40
123.0
 40
124.0
 40
124.0
 40
124.0
 10
43.130469998993
 20
1.290077952375257
 30
0.0
 10
43.12467518573832
 20
1.29029711538981
 30
0.0
 10
43.11888037248364
 20
1.290516278404364
 30
0.0
 10
43.11309607790759
 20
1.290928381960721
 30
0.0
 10
43.10731178333155
 20
1.291340485517079
 30
0.0
 10
43.10154442967546
 20
1.291945072061005
 30
0.0
 10
43.09577707601937
 20
1.292549658604931
 30
0.0
 10
43.09003306671519
 20
1.293346056870359
 30
0.0
 10
43.08428905741103
 20
1.294142455135786
 30
0.0
 10
43.07857476997177
 20
1.295129780890114
 30
0.0
 10
43.07286048253251
 20
1.296117106644441
 30
0.0
 10
43.0671822614713
 20
1.29729426367029
 30
0.0
 10
43.06150404041008
 20
1.29847142069614
 30
0.0
 10
43.05586819019589
 20
1.299837102008471
 30
0.0
 10
43.05023233998171
 20
1.301202783320802
 30
0.0
 10
43.04464511803965
 20
1.302755472618048
 30
0.0
 10
43.0390578960976
 20
1.304308161915294
 30
0.0
 10
43.03352550586131
 20
1.306046135262892
 30
0.0
 10
43.02799311562502
 20
1.30778410861049
 30
0.0
 10
43.02252169964906
 20
1.30970543635495
 30
0.0
 10
43.0170502836731
 20
1.311626764099409
 30
0.0
 10
43.01164591681297
 20
1.313729313010786
 30
0.0
 10
43.00624154995284
 20
1.315831861922162
 30
0.0
 10
43.0009102326201
 20
1.318113297562558
 30
0.0
 10
42.99557891528737
 20
1.320394733202955
 30
0.0
 10
42.99032656678748
 20
1.322852522518425
 30
0.0
 10
42.98507421828759
 20
1.325310311833895
 30
0.0
 10
42.97990667024771
 20
1.327941725966865
 30
0.0
 10
42.97473912220784
 20
1.330573140099836
 30
0.0
 10
42.96966211210212
 20
1.333375257418928
 30
0.0
 10
42.9645851019964
 20
1.33617737473802
 30
0.0
 10
42.95960426677563
 20
1.339147084081908
 30
0.0
 10
42.95462343155486
 20
1.342116793425796
 30
0.0
 10
42.94974430138791
 20
1.345250797557493
 30
0.0
 10
42.94486517122096
 20
1.34838480168919
 30
0.0
 10
42.94009316335462
 20
1.35167962095694
 30
0.0
 10
42.93532115548827
 20
1.354974440224691
 30
0.0
 10
42.93066156823257
 20
1.358426416425388
 30
0.0
 10
42.92600198097688
 20
1.361878392626084
 30
0.0
 10
42.92145998782246
 20
1.365483693066932
 30
0.0
 10
42.91691799466805
 20
1.369088993507779
 30
0.0
 10
42.91639148673314
 20
1.369536867880836
 30
0.0
 10
42.91586497879823
 20
1.369984742253893
 30
0.0
 10
42.9153542623099
 20
1.370450543421881
 30
0.0
 10
42.91484354582156
 20
1.370916344589869
 30
0.0
 10
42.91434923083619
 20
1.371399516148223
 30
0.0
 10
42.91385491585083
 20
1.371882687706577
 30
0.0
 10
42.91337759283306
 20
1.372382652501611
 30
0.0
 10
42.9129002698153
 20
1.372882617296644
 30
0.0
 10
42.91244050893268
 20
1.373398778114967
 30
0.0
 10
42.91198074805006
 20
1.37391493893329
 30
0.0
 10
42.91153909849196
 20
1.374446679215187
 30
0.0
 10
42.91109744893386
 20
1.374978419497083
 30
0.0
 10
42.91067443825549
 20
1.375525104072999
 30
0.0
 10
42.91025142757712
 20
1.376071788648914
 30
0.0
 10
42.90984756106934
 20
1.376632764498171
 30
0.0
 10
42.90944369456155
 20
1.377193740347428
 30
0.0
 10
42.90905945464729
 20
1.377768337378269
 30
0.0
 10
42.90867521473303
 20
1.378342934409109
 30
0.0
 10
42.90831106039106
 20
1.378930466259126
 30
0.0
 10
42.90794690604909
 20
1.379517998109142
 30
0.0
 10
42.90760327226573
 20
1.380117762965143
 30
0.0
 10
42.90725963848237
 20
1.380717527821144
 30
0.0
 10
42.90693693573192
 20
1.381328809257482
 30
0.0
 10
42.90661423298147
 20
1.381940090693819
 30
0.0
 10
42.90631284673587
 20
1.382562158528163
 30
0.0
 10
42.90601146049028
 20
1.383184226362506
 30
0.0
 10
42.90573175075869
 20
1.383816337528057
 30
0.0
 10
42.9054520410271
 20
1.384448448693607
 30
0.0
 10
42.90519434192584
 20
1.385089848126696
 30
0.0
 10
42.90493664282457
 20
1.385731247559785
 30
0.0
 10
42.90470126217801
 20
1.386381169101808
 30
0.0
 10
42.90446588153144
 20
1.387031090643831
 30
0.0
 10
42.90425310050433
 20
1.387688757956432
 30
0.0
 10
42.90404031947723
 20
1.388346425269032
 30
0.0
 10
42.90385039223883
 20
1.389011052761447
 30
0.0
 10
42.90366046500043
 20
1.389675680253861
 30
0.0
 10
42.90349361842088
 20
1.390346474021314
 30
0.0
 10
42.90332677184134
 20
1.391017267788767
 30
0.0
 10
42.90318320522071
 20
1.391693426560803
 30
0.0
 10
42.90303963860008
 20
1.392369585332838
 30
0.0
 10
42.90291952343026
 20
1.393050301430443
 30
0.0
 10
42.90279940826043
 20
1.393731017528047
 30
0.0
 10
42.90270288802029
 20
1.394415477828431
 30
0.0
 10
42.90260636778014
 20
1.395099938128816
 30
0.0
 10
42.90253355776416
 20
1.395787325036701
 30
0.0
 10
42.90246074774817
 20
1.396474711944587
 30
0.0
 10
42.90241173492871
 20
1.39716420436883
 30
0.0
 10
42.90236272210924
 20
1.397853696793073
 30
0.0
 10
42.90233756503264
 20
1.398544471127467
 30
0.0
 10
42.90231240795604
 20
1.39923524546186
 30
0.0
 10
42.9023111366727
 20
1.399926476568942
 30
0.0
 10
42.90230986538936
 20
1.400617707676025
 30
0.0
 10
42.90233248141785
 20
1.401308569872715
 30
0.0
 10
42.90235509744634
 20
1.401999432069404
 30
0.0
 10
42.90240157377156
 20
1.402689100113288
 30
0.0
 10
42.90244805009679
 20
1.403378768157171
 30
0.0
 10
42.90251833120227
 20
1.404066418232262
 30
0.0
 10
42.90258861230775
 20
1.404754068307352
 30
0.0
 10
42.90268261424194
 20
1.40543887900815
 30
0.0
 10
42.90277661617613
 20
1.406123689708948
 30
0.0
 10
42.90289422665271
 20
1.406804843021618
 30
0.0
 10
42.90301183712928
 20
1.407485996334287
 30
0.0
 10
42.90315291566124
 20
1.408162678613781
 30
0.0
 10
42.9032939941932
 20
1.408839360893274
 30
0.0
 10
42.9034583722607
 20
1.409510763835243
 30
0.0
 10
42.9036227503282
 20
1.410182166777212
 30
0.0
 10
42.90381023157985
 20
1.410847488383534
 30
0.0
 10
42.9039977128315
 20
1.411512809989856
 30
0.0
 10
42.90420807331891
 20
1.41217125552663
 30
0.0
 10
42.90441843380632
 20
1.412829701063404
 30
0.0
 10
42.90465142225159
 20
1.413480484010269
 30
0.0
 10
42.90488441069686
 20
1.414131266957134
 30
0.0
 10
42.90513974879276
 20
1.414773609946776
 30
0.0
 10
42.90539508688866
 20
1.415415952936417
 30
0.0
 10
42.90567246963106
 20
1.416049088683142
 30
0.0
 10
42.90594985237345
 20
1.416682224429868
 30
0.0
 10
42.90624894842564
 20
1.417305396646136
 30
0.0
 10
42.90654804447782
 20
1.417928568862403
 30
0.0
 10
42.9068684965663
 20
1.418541033162217
 30
0.0
 10
42.90718894865478
 20
1.419153497462031
 30
0.0
 10
42.90753037399606
 20
1.419754522250118
 30
0.0
 10
42.90787179933734
 20
1.420355547038205
 30
0.0
 10
42.90823379009512
 20
1.420944414383914
 30
0.0
 10
42.90859578085289
 20
1.421533281729623
 30
0.0
 10
42.90897790462527
 20
1.422109288224499
 30
0.0
 10
42.90936002839766
 20
1.422685294719376
 30
0.0
 10
42.90976182873364
 20
1.423247752317391
 30
0.0
 10
42.91016362906962
 20
1.423810209915406
 30
0.0
 10
42.91058462601433
 20
1.424358446754837
 30
0.0
 10
42.91100562295903
 20
1.424906683594268
 30
0.0
 10
42.91144531362703
 20
1.425440044800242
 30
0.0
 10
42.91188500429502
 20
1.425973406006216
 30
0.0
 10
42.91234286347102
 20
1.426491254472967
 30
0.0
 10
42.91280072264701
 20
1.427009102939718
 30
0.0
 10
42.91327620341325
 20
1.427510820091615
 30
0.0
 10
42.91375168417947
 20
1.428012537243512
 30
0.0
 10
42.91424421856898
 20
1.428497523773956
 30
0.0
 10
42.91473675295848
 20
1.4289825103044
 30
0.0
 10
42.91524575263358
 20
1.429450186891702
 30
0.0
 10
42.91575475230868
 20
1.429917863479003
 30
0.0
 10
42.91627960926371
 20
1.430367671478387
 30
0.0
 10
42.91680446621875
 20
1.430817479477771
 30
0.0
 10
42.91734455350638
 20
1.431248881588687
 30
0.0
 10
42.91788464079401
 20
1.431680283699602
 30
0.0
 10
42.91843931327409
 20
1.432092764607531
 30
0.0
 10
42.91899398575416
 20
1.43250524551546
 30
0.0
 10
42.91956258086437
 20
1.432898312507469
 30
0.0
 10
42.92013117597458
 20
1.433291379499477
 30
0.0
 10
42.92071301452187
 20
1.433664563052764
 30
0.0
 10
42.92129485306916
 20
1.434037746606051
 30
0.0
 10
42.92188924004107
 20
1.4343906009488
 30
0.0
 10
42.92248362701297
 20
1.434743455291549
 30
0.0
 10
42.92308985240777
 20
1.435075558935407
 30
0.0
 10
42.92369607780256
 20
1.435407662579264
 30
0.0
 10
42.92431341747742
 20
1.435718618822813
 30
0.0
 10
42.92493075715228
 20
1.436029575066361
 30
0.0
 10
42.92555847368824
 20
1.436319012468982
 30
0.0
 10
42.92618619022421
 20
1.436608449871604
 30
0.0
 10
42.92682353380705
 20
1.436876022697171
 30
0.0
 10
42.92746087738988
 20
1.437143595522738
 30
0.0
 10
42.92810708670574
 20
1.437388984152597
 30
0.0
 10
42.92875329602158
 20
1.437634372782456
 30
0.0
 10
42.9294075991664
 20
1.437857284097218
 30
0.0
 10
42.93006190231121
 20
1.43808019541198
 30
0.0
 10
42.93072351771275
 20
1.438280363141653
 30
0.0
 10
42.93138513311429
 20
1.438480530871326
 30
0.0
 10
42.93205327046576
 20
1.438657715913378
 30
0.0
 10
42.93272140781723
 20
1.438834900955429
 30
0.0
 10
42.9333952690213
 20
1.438988891660399
 30
0.0
 10
42.93406913022537
 20
1.439142882365368
 30
0.0
 10
42.93474791034748
 20
1.439273494789681
 30
0.0
 10
42.93542669046959
 20
1.439404107213994
 30
0.0
 10
42.9361095786995
 20
1.439511185339689
 30
0.0
 10
42.93679246692942
 20
1.439618263465384
 30
0.0
 10
42.93747864754971
 20
1.439701679386474
 30
0.0
 10
42.93816482817001
 20
1.439785095307563
 30
0.0
 10
42.93885348153047
 20
1.439844749382822
 30
0.0
 10
42.93954213489092
 20
1.439904403458081
 30
0.0
 10
42.9402324383876
 20
1.439940224430066
 30
0.0
 10
42.94092274188428
 20
1.439976045402051
 30
0.0
 10
42.94161387094213
 20
1.439987990482222
 30
0.0
 10
42.942305
 20
1.439999935562394
 30
0.0
 10
42.96698
 20
1.440000022700247
 30
0.0
 10
42.991655
 20
1.4400001098381
 30
0.0
 10
42.99199989566092
 20
1.44000605929142
 30
0.0
 10
42.99234479132184
 20
1.44001200874474
 30
0.0
 10
42.99268927659238
 20
1.440029850025461
 30
0.0
 10
42.99303376186292
 20
1.440047691306182
 30
0.0
 10
42.99337742684102
 20
1.440077403185014
 30
0.0
 10
42.99372109181912
 20
1.440107115063847
 30
0.0
 10
42.99406352757879
 20
1.440148662186709
 30
0.0
 10
42.99440596333845
 20
1.440190209309572
 30
0.0
 10
42.99474676241634
 20
1.44024354223966
 30
0.0
 10
42.99508756149422
 20
1.440296875169748
 30
0.0
 10
42.99542631837444
 20
1.440361930446357
 30
0.0
 10
42.99576507525467
 20
1.440426985722965
 30
0.0
 10
42.99610138685138
 20
1.440503685937003
 30
0.0
 10
42.99643769844809
 20
1.440580386151041
 30
0.0
 10
42.99677116458506
 20
1.440668640037138
 30
0.0
 10
42.99710463072203
 20
1.440756893923236
 30
0.0
 10
42.99743485460883
 20
1.440856596468342
 30
0.0
 10
42.99776507849564
 20
1.440956299013448
 30
0.0
 10
42.9980916671998
 20
1.441067331581782
 30
0.0
 10
42.99841825590396
 20
1.441178364150116
 30
0.0
 10
42.99874082081848
 20
1.441300594624337
 30
0.0
 10
42.99906338573302
 20
1.441422825098558
 30
0.0
 10
42.99938154303884
 20
1.441556108036966
 30
0.0
 10
42.99969970034466
 20
1.441689390975375
 30
0.0
 10
43.00001307146727
 20
1.441833567784977
 30
0.0
 10
43.00032644258989
 20
1.441977744594578
 30
0.0
 10
43.00063465464989
 20
1.442132643719791
 30
0.0
 10
43.00094286670988
 20
1.442287542845003
 30
0.0
 10
43.00124555296658
 20
1.442452979971791
 30
0.0
 10
43.00154823922328
 20
1.442618417098579
 30
0.0
 10
43.00184503951116
 20
1.442794195373768
 30
0.0
 10
43.00214183979904
 20
1.442969973648958
 30
0.0
 10
43.00243240095628
 20
1.443155883914473
 30
0.0
 10
43.00272296211352
 20
1.443341794179988
 30
0.0
 10
43.00300693840219
 20
1.443537615221723
 30
0.0
 10
43.00329091469087
 20
1.443733436263458
 30
0.0
 10
43.0035679682084
 20
1.443938935074504
 30
0.0
 10
43.00384502172592
 20
1.444144433885551
 30
0.0
 10
43.0041148228071
 20
1.44435936594345
 30
0.0
 10
43.00438462388827
 20
1.444574298001349
 30
0.0
 10
43.00464685149754
 20
1.444798407559046
 30
0.0
 10
43.00490907910682
 20
1.445022517116743
 30
0.0
 10
43.00516342122029
 20
1.445255537506903
 30
0.0
 10
43.00541776333376
 20
1.445488557897064
 30
0.0
 10
43.00566391731046
 20
1.445730211849378
 30
0.0
 10
43.00591007128717
 20
1.445971865801692
 30
0.0
 10
43.00614774422918
 20
1.4462218657728
 30
0.0
 10
43.00638541717119
 20
1.446471865743907
 30
0.0
 10
43.00661432627214
 20
1.446729914259542
 30
0.0
 10
43.00684323537308
 20
1.446987962775177
 30
0.0
 10
43.00706310825466
 20
1.447253752784134
 30
0.0
 10
43.00728298113624
 20
1.44751954279309
 30
0.0
 10
43.00749355617234
 20
1.447792758032582
 30
0.0
 10
43.00770413120842
 20
1.448065973272074
 30
0.0
 10
43.00790515783639
 20
1.448346288644052
 30
0.0
 10
43.00810618446435
 20
1.44862660401603
 30
0.0
 10
43.00829742348315
 20
1.448913685974019
 30
0.0
 10
43.00848866250195
 20
1.449200767932007
 30
0.0
 10
43.00866988635683
 20
1.449494274877989
 30
0.0
 10
43.00885111021171
 20
1.449787781823971
 30
0.0
 10
43.0090221032649
 20
1.450087364514853
 30
0.0
 10
43.00919309631809
 20
1.450386947205735
 30
0.0
 10
43.02279112930228
 20
1.475193473602868
 30
0.0
 10
43.03638916228647
 20
1.5
 30
0.0
  0
SPLINE
  5
45
330
1F
100
AcDbEntity
  8
DEFAULT
100
AcDbSpline
210
0.0
220
0.0
230
1.0
 70
     8
 71
     2
 72
   190
 73
   187
 74
     0
 42
0.0000000001
 43
0.0000000001
 40
0.0
 40
0.0
 40
0.0
 40
1.0
 40
1.0
 40
2.0
 40
2.0
 40
3.0
 40
3.0
 40
4.0
 40
4.0
 40
5.0
 40
5.0
 40
6.0
 40
6.0
 40
7.0
 40
7.0
 40
8.0
 40
8.0
 40
9.0
 40
9.0
 40
10.0
 40
10.0
 40
11.0
 40
11.0
 40
12.0
 40
12.0
 40
13.0
 40
13.0
 40
14.0
 40
14.0
 40
15.0
 40
15.0
 40
16.0
 40
16.0
 40
17.0
 40
17.0
 40
18.0
 40
18.0
 40
19.0
 40
19.0
 40
20.0
 40
20.0
 40
21.0
 40
21.0
 40
22.0
 40
22.0
 40
23.0
 40
23.0
 40
24.0
 40
24.0
 40
25.0
 40
25.0
 40
26.0
 40
26.0
 40
27.0
 40
27.0
 40
28.0
 40
28.0
 40
29.0
 40
29.0
 40
30.0
 40
30.0
 40
31.0
 40
31.0
 40
32.0
 40
32.0
 40
33.0
 40
33.0
 40
34.0
 40
34.0
 40
35.0
 40
35.0
 40
36.0
 40
36.0
 40
37.0
 40
37.0
 40
38.0
 40
38.0
 40
39.0
 40
39.0
 40
40.0
 40
40.0
 40
41.0
 40
41.0
 40
42.0
 40
42.0
 40
43.0
 40
43.0
 40
44.0
 40
44.0
 40
45.0
 40
45.0
 40
46.0
 40
46.0
 40
47.0
 40
47.0
 40
48.0
 40
48.0
 40
49.0
 40
49.0
 40
50.0
 40
50.0
 40
51.0
 40
51.0
 40
52.0
 40
52.0
 40
53.0
 40
53.0
 40
54.0
 40
54.0
 40
55.0
 40
55.0
 40
56.0
 40
56.0
 40
57.0
 40
57.0
 40
58.0
 40
58.0
 40
59.0
 40
59.0
 40
60.0
 40
60.0
 40
61.0
 40
61.0
 40
62.0
 40
62.0
 40
63.0
 40
63.0
 40
64.0
 40
64.0
 40
65.0
 40
65.0
 40
66.0
 40
66.0
 40
67.0
 40
67.0
 40
68.0
 40
68.0
 40
69.0
 40
69.0
 40
70.0
 40
70.0
 40
71.0
 40
71.0
 40
72.0
 40
72.0
 40
73.0
 40
73.0
 40
74.0
 40
74.0
 40
75.0
 40
75.0
 40
76.0
 40
76.0
 40
77.0
 40
77.0
 40
78.0
 40
78.0
 40
79.0
 40
79.0
 40
80.0
 40
80.0
 40
81.0
 40
81.0
 40
82.0
 40
82.0
 40
83.0
 40
83.0
 40
84.0
 40
84.0
 40
85.0
 40
85.0
 40
86.0
 40
86.0
 40
87.0
 40
87.0
 40
88.0
 40
88.0
 40
89.0
 40
89.0
 40
90.0
 40
90.0
 40
91.0
 40
91.0
 40
92.0
 40
92.0
 40
93.0
 40
93.0
 40
93.0
 10
43.125
 20
1.499999500171323
 30
0.0
 10
43.14145191569484
 20
0.8717274979637908
 30
0.0
 10
43.15790383138968
 20
0.2434554957562584
 30
0.0
 10
43.15808972486185
 20
0.2391691347409009
 30
0.0
 10
43.15827561833401
 20
0.2348827737255434
 30
0.0
 10
43.15860850202688
 20
0.2306053170531748
 30
0.0
 10
43.15894138571975
 20
0.2263278603808062
 30
0.0
 10
43.1594208674703
 20
0.2220643472299111
 30
0.0
 10
43.15990034922086
 20
0.217800834079016
 30
0.0
 10
43.1605258641621
 20
0.2135562872015201
 30
0.0
 10
43.16115137910333
 20
0.2093117403240242
 30
0.0
 10
43.16192219032973
 20
0.2050911601281
 30
0.0
 10
43.16269300155613
 20
0.2008705799321758
 30
0.0
 10
43.16360820099179
 20
0.1966789385913705
 30
0.0
 10
43.16452340042744
 20
0.1924872972505651
 30
0.0
 10
43.16558190989584
 20
0.1883295328461912
 30
0.0
 10
43.16664041936424
 20
0.1841717684418173
 30
0.0
 10
43.16784099185845
 20
0.180052779145507
 30
0.0
 10
43.16904156435265
 20
0.1759337898491967
 30
0.0
 10
43.17038278550439
 20
0.1718584281524724
 30
0.0
 10
43.17172400665611
 20
0.1677830664557481
 30
0.0
 10
43.17320429640195
 20
0.1637561334534079
 30
0.0
 10
43.17468458614779
 20
0.1597292004510678
 30
0.0
 10
43.17630220059064
 20
0.1557554401851204
 30
0.0
 10
43.1779198150335
 20
0.151781679919173
 30
0.0
 10
43.17967284849706
 20
0.1478657737899851
 30
0.0
 10
43.18142588196063
 20
0.1439498676607973
 30
0.0
 10
43.18331226923437
 20
0.1400964289120382
 30
0.0
 10
43.18519865650811
 20
0.136242990163279
 30
0.0
 10
43.1872161752803
 20
0.132456558447158
 30
0.0
 10
43.18923369405248
 20
0.1286701267310371
 30
0.0
 10
43.19137996752822
 20
0.1249551627602392
 30
0.0
 10
43.19352624100395
 20
0.1212401987894413
 30
0.0
 10
43.19579874070523
 20
0.1176010790820581
 30
0.0
 10
43.19807124040651
 20
0.1139619593746748
 30
0.0
 10
43.20046728915096
 20
0.1104029710983239
 30
0.0
 10
43.2028633378954
 20
0.106843982821973
 30
0.0
 10
43.20538011295021
 20
0.1033693187431796
 30
0.0
 10
43.20789688800502
 20
0.0998946546643862
 30
0.0
 10
43.21053142441235
 20
0.0965084082091762
 30
0.0
 10
43.21316596081968
 20
0.0931221617539661
 30
0.0
 10
43.2159151548896
 20
0.0898283221854898
 30
0.0
 10
43.21866434895953
 20
0.0865344826170135
 30
0.0
 10
43.22152496192643
 20
0.0833369303358819
 30
0.0
 10
43.22438557489333
 20
0.0801393780547503
 30
0.0
 10
43.22735423673141
 20
0.0770418800276196
 30
0.0
 10
43.2303228985695
 20
0.073944382000489
 30
0.0
 10
43.23339611196295
 20
0.0709505873222794
 30
0.0
 10
43.2364693253564
 20
0.0679567926440697
 30
0.0
 10
43.2396434698195
 20
0.065070228239046
 30
0.0
 10
43.2428176142826
 20
0.0621836638340223
 30
0.0
 10
43.24608895042493
 20
0.0594077303008014
 30
0.0
 10
43.24936028656725
 20
0.0566317967675805
 30
0.0
 10
43.25272496049899
 20
0.0539697643729603
 30
0.0
 10
43.25608963443074
 20
0.0513077319783402
 30
0.0
 10
43.25954368230287
 20
0.0487627368046696
 30
0.0
 10
43.262997730175
 20
0.046217741630999
 30
0.0
 10
43.266537082849
 20
0.0437927818816275
 30
0.0
 10
43.27007643552299
 20
0.0413678221322559
 30
0.0
 10
43.2736969233646
 20
0.0390657545994156
 30
0.0
 10
43.2773174112062
 20
0.0367636870665752
 30
0.0
 10
43.28101476899759
 20
0.034587223765856
 30
0.0
 10
43.28471212678899
 20
0.0324107604651369
 30
0.0
 10
43.28848199875354
 20
0.0303624654405207
 30
0.0
 10
43.29225187071809
 20
0.0283141704159045
 30
0.0
 10
43.2960898156518
 20
0.0263964567191199
 30
0.0
 10
43.2999277605855
 20
0.0244787430223354
 30
0.0
 10
43.30382925708906
 20
0.0226938698700948
 30
0.0
 10
43.30773075359264
 20
0.0209089967178542
 30
0.0
 10
43.31169120539808
 20
0.0192590668303195
 30
0.0
 10
43.31565165720352
 20
0.0176091369427847
 30
0.0
 10
43.31966639858886
 20
0.0160960940663982
 30
0.0
 10
43.3236811399742
 20
0.0145830511900117
 30
0.0
 10
43.32774544126012
 20
0.0132086778076118
 30
0.0
 10
43.33180974254604
 20
0.0118343044252118
 30
0.0
 10
43.33591881566777
 20
0.0106002196561275
 30
0.0
 10
43.34002788878949
 20
0.0093661348870431
 30
0.0
 10
43.34417689293753
 20
0.0082737925796458
 30
0.0
 10
43.34832589708557
 20
0.0071814502722484
 30
0.0
 10
43.35250994440855
 20
0.0062321372912043
 30
0.0
 10
43.35669399173154
 20
0.0052828243101602
 30
0.0
 10
43.36090815309451
 20
0.0044776590204034
 30
0.0
 10
43.36512231445748
 20
0.0036724937306465
 30
0.0
 10
43.36936162524877
 20
0.0030124246798573
 30
0.0
 10
43.37360093604006
 20
0.0023523556290682
 30
0.0
 10
43.37786040202002
 20
0.0018381604302101
 30
0.0
 10
43.38211986799998
 20
0.0013239652313521
 30
0.0
 10
43.38639447118457
 20
0.0009562496465829
 30
0.0
 10
43.39066907436916
 20
0.0005885340618136
 30
0.0
 10
43.39495377894151
 20
0.0003677312888496
 30
0.0
 10
43.39923848351388
 20
0.0001469285158857
 30
0.0
 10
43.40352824175694
 20
0.0000732986776618
 30
0.0
 10
43.407818
 20
-0.0000003311605621
 30
0.0
 10
44.375
 20
-0.000000331160563
 30
0.0
 10
45.342182
 20
-0.0000003311605639
 30
0.0
 10
45.34647175824306
 20
0.00007329867766
 30
0.0
 10
45.35076151648612
 20
0.0001469285158839
 30
0.0
 10
45.35504622105849
 20
0.0003677312888478
 30
0.0
 10
45.35933092563084
 20
0.0005885340618118
 30
0.0
 10
45.36360552881543
 20
0.0009562496465811
 30
0.0
 10
45.36788013200002
 20
0.0013239652313504
 30
0.0
 10
45.37213959797998
 20
0.0018381604302084
 30
0.0
 10
45.37639906395994
 20
0.0023523556290664
 30
0.0
 10
45.38063837475123
 20
0.0030124246798555
 30
0.0
 10
45.38487768554252
 20
0.0036724937306447
 30
0.0
 10
45.38909184690549
 20
0.0044776590204016
 30
0.0
 10
45.39330600826846
 20
0.0052828243101584
 30
0.0
 10
45.39749005559145
 20
0.0062321372912025
 30
0.0
 10
45.40167410291443
 20
0.0071814502722466
 30
0.0
 10
45.40582310706247
 20
0.008273792579644
 30
0.0
 10
45.40997211121051
 20
0.0093661348870414
 30
0.0
 10
45.41408118433223
 20
0.0106002196561258
 30
0.0
 10
45.41819025745396
 20
0.0118343044252101
 30
0.0
 10
45.42225455873988
 20
0.0132086778076101
 30
0.0
 10
45.4263188600258
 20
0.0145830511900101
 30
0.0
 10
45.43033360141114
 20
0.0160960940663965
 30
0.0
 10
45.43434834279648
 20
0.0176091369427829
 30
0.0
 10
45.43830879460192
 20
0.0192590668303177
 30
0.0
 10
45.44226924640736
 20
0.0209089967178525
 30
0.0
 10
45.44617074291094
 20
0.0226938698700931
 30
0.0
 10
45.4500722394145
 20
0.0244787430223338
 30
0.0
 10
45.4539101843482
 20
0.0263964567191183
 30
0.0
 10
45.45774812928191
 20
0.0283141704159029
 30
0.0
 10
45.46151800124646
 20
0.0303624654405191
 30
0.0
 10
45.46528787321101
 20
0.0324107604651353
 30
0.0
 10
45.46898523100241
 20
0.0345872237658544
 30
0.0
 10
45.4726825887938
 20
0.0367636870665736
 30
0.0
 10
45.4763030766354
 20
0.039065754599414
 30
0.0
 10
45.47992356447701
 20
0.0413678221322544
 30
0.0
 10
45.483462917151
 20
0.0437927818816259
 30
0.0
 10
45.487002269825
 20
0.0462177416309975
 30
0.0
 10
45.49045631769713
 20
0.0487627368046681
 30
0.0
 10
45.49391036556926
 20
0.0513077319783387
 30
0.0
 10
45.49727503950101
 20
0.0539697643729588
 30
0.0
 10
45.50063971343275
 20
0.056631796767579
 30
0.0
 10
45.50391104957508
 20
0.0594077303007999
 30
0.0
 10
45.50718238571741
 20
0.0621836638340209
 30
0.0
 10
45.5103565301805
 20
0.0650702282390447
 30
0.0
 10
45.5135306746436
 20
0.0679567926440684
 30
0.0
 10
45.51660388803705
 20
0.070950587322278
 30
0.0
 10
45.5196771014305
 20
0.0739443820004876
 30
0.0
 10
45.52264576326859
 20
0.0770418800276183
 30
0.0
 10
45.52561442510667
 20
0.080139378054749
 30
0.0
 10
45.52847503807357
 20
0.0833369303358807
 30
0.0
 10
45.53133565104047
 20
0.0865344826170124
 30
0.0
 10
45.5340848451104
 20
0.0898283221854887
 30
0.0
 10
45.53683403918032
 20
0.093122161753965
 30
0.0
 10
45.53946857558765
 20
0.096508408209175
 30
0.0
 10
45.54210311199498
 20
0.099894654664385
 30
0.0
 10
45.5446198870498
 20
0.1033693187431784
 30
0.0
 10
45.54713666210461
 20
0.1068439828219718
 30
0.0
 10
45.54953271084905
 20
0.1104029710983228
 30
0.0
 10
45.55192875959349
 20
0.1139619593746737
 30
0.0
 10
45.55420125929477
 20
0.117601079082057
 30
0.0
 10
45.55647375899605
 20
0.1212401987894403
 30
0.0
 10
45.55862003247178
 20
0.1249551627602382
 30
0.0
 10
45.56076630594752
 20
0.1286701267310362
 30
0.0
 10
45.5627838247197
 20
0.1324565584471571
 30
0.0
 10
45.56480134349189
 20
0.1362429901632781
 30
0.0
 10
45.56668773076564
 20
0.1400964289120373
 30
0.0
 10
45.56857411803938
 20
0.1439498676607965
 30
0.0
 10
45.57032715150294
 20
0.1478657737899843
 30
0.0
 10
45.5720801849665
 20
0.1517816799191721
 30
0.0
 10
45.57369779940936
 20
0.1557554401851196
 30
0.0
 10
45.57531541385222
 20
0.159729200451067
 30
0.0
 10
45.57679570359805
 20
0.1637561334534072
 30
0.0
 10
45.57827599334389
 20
0.1677830664557474
 30
0.0
 10
45.57961721449561
 20
0.1718584281524718
 30
0.0
 10
45.58095843564735
 20
0.1759337898491961
 30
0.0
 10
45.58215900814155
 20
0.1800527791455064
 30
0.0
 10
45.58335958063576
 20
0.1841717684418167
 30
0.0
 10
45.58441809010417
 20
0.1883295328461906
 30
0.0
 10
45.58547659957257
 20
0.1924872972505646
 30
0.0
 10
45.58639179900823
 20
0.19667893859137
 30
0.0
 10
45.58730699844387
 20
0.2008705799321754
 30
0.0
 10
45.58807780967027
 20
0.2050911601280996
 30
0.0
 10
45.58884862089667
 20
0.2093117403240239
 30
0.0
 10
45.5894741358379
 20
0.2135562872015198
 30
0.0
 10
45.59009965077914
 20
0.2178008340790156
 30
0.0
 10
45.5905791325297
 20
0.2220643472299108
 30
0.0
 10
45.59105861428025
 20
0.2263278603808059
 30
0.0
 10
45.59139149797312
 20
0.2306053170531745
 30
0.0
 10
45.59172438166599
 20
0.2348827737255431
 30
0.0
 10
45.59191027513815
 20
0.2391691347409006
 30
0.0
 10
45.59209616861032
 20
0.2434554957562582
 30
0.0
 10
45.60854808430516
 20
0.8717274979637907
 30
0.0
 10
45.625
 20
1.499999500171323
 30
0.0
  0
SPLINE
  5
46
330
1F
100
AcDbEntity
  8
DEFAULT
100
AcDbSpline
210
0.0
220
0.0
230
1.0
 70
    11
 71
     2
 72
    12
 73
     9
 74
     0
 42
0.0000000001
 43
0.0000000001
 40
0.0
 40
0.0
 40
0.0
 40
1.0
 40
1.0
 40
2.0
 40
2.0
 40
3.0
 40
3.0
 40
4.0
 40
4.0
 40
4.0
 10
-22.72512318015322
 20
0.4175000000000004
 30
0.0
 10
0.0
 20
0.4175000000000004
 30
0.0
 10
22.72512318015322
 20
0.4175000000000004
 30
0.0
 10
22.72512318015322
 20
0.9571674999999987
 30
0.0
 10
22.72512318015322
 20
1.496834999999997
 30
0.0
 10
0.0
 20
1.496834999999997
 30
0.0
 10
-22.72512318015322
 20
1.496834999999997
 30
0.0
 10
-22.72512318015322
 20
0.9571674999999987
 30
0.0
 10
-22.72512318015322
 20
0.4175000000000004
 30
0.0
  0
SPLINE
  5
47
330
1F
100
AcDbEntity
  8
DEFAULT
100
AcDbSpline
210
0.0
220
0.0
230
1.0
 70
    24
 71
     2
 72
     6
 73
     3
 74
     0
 42
0.0000000001
 43
0.0000000001
 40
0.0
 40
0.0
 40
0.0
 40
60.25
 40
60.25
 40
60.25
 10
-29.00012318015322
 20
5.0
 30
0.0
 10
0.0
 20
5.0
 30
0.0
 10
29.00012318015322
 20
5.0
 30
0.0
  0
SPLINE
  5
48
330
1F
100
AcDbEntity
  8
DEFAULT
100
AcDbSpline
210
0.0
220
0.0
230
1.0
 70
    24
 71
     2
 72
     6
 73
     3
 74
     0
 42
0.0000000001
 43
0.0000000001
 40
0.0
 40
0.0
 40
0.0
 40
47.7
 40
47.7
 40
47.7
 10
-22.72512318015322
 20
0.6024999999999991
 30
0.0
 10
0.0
 20
0.6024999999999991
 30
0.0
 10
22.72512318015322
 20
0.6024999999999991
 30
0.0
  0
SPLINE
  5
49
330
1F
100
AcDbEntity
  8
DEFAULT
100
AcDbSpline
210
0.0
220
0.0
230
1.0
 70
     8
 71
     2
 72
   190
 73
   187
 74
     0
 42
0.0000000001
 43
0.0000000001
 40
0.0
 40
0.0
 40
0.0
 40
1.0
 40
1.0
 40
2.0
 40
2.0
 40
3.0
 40
3.0
 40
4.0
 40
4.0
 40
5.0
 40
5.0
 40
6.0
 40
6.0
 40
7.0
 40
7.0
 40
8.0
 40
8.0
 40
9.0
 40
9.0
 40
10.0
 40
10.0
 40
11.0
 40
11.0
 40
12.0
 40
12.0
 40
13.0
 40
13.0
 40
14.0
 40
14.0
 40
15.0
 40
15.0
 40
16.0
 40
16.0
 40
17.0
 40
17.0
 40
18.0
 40
18.0
 40
19.0
 40
19.0
 40
20.0
 40
20.0
 40
21.0
 40
21.0
 40
22.0
 40
22.0
 40
23.0
 40
23.0
 40
24.0
 40
24.0
 40
25.0
 40
25.0
 40
26.0
 40
26.0
 40
27.0
 40
27.0
 40
28.0
 40
28.0
 40
29.0
 40
29.0
 40
30.0
 40
30.0
 40
31.0
 40
31.0
 40
32.0
 40
32.0
 40
33.0
 40
33.0
 40
34.0
 40
34.0
 40
35.0
 40
35.0
 40
36.0
 40
36.0
 40
37.0
 40
37.0
 40
38.0
 40
38.0
 40
39.0
 40
39.0
 40
40.0
 40
40.0
 40
41.0
 40
41.0
 40
42.0
 40
42.0
 40
43.0
 40
43.0
 40
44.0
 40
44.0
 40
45.0
 40
45.0
 40
46.0
 40
46.0
 40
47.0
 40
47.0
 40
48.0
 40
48.0
 40
49.0
 40
49.0
 40
50.0
 40
50.0
 40
51.0
 40
51.0
 40
52.0
 40
52.0
 40
53.0
 40
53.0
 40
54.0
 40
54.0
 40
55.0
 40
55.0
 40
56.0
 40
56.0
 40
57.0
 40
57.0
 40
58.0
 40
58.0
 40
59.0
 40
59.0
 40
60.0
 40
60.0
 40
61.0
 40
61.0
 40
62.0
 40
62.0
 40
63.0
 40
63.0
 40
64.0
 40
64.0
 40
65.0
 40
65.0
 40
66.0
 40
66.0
 40
67.0
 40
67.0
 40
68.0
 40
68.0
 40
69.0
 40
69.0
 40
70.0
 40
70.0
 40
71.0
 40
71.0
 40
72.0
 40
72.0
 40
73.0
 40
73.0
 40
74.0
 40
74.0
 40
75.0
 40
75.0
 40
76.0
 40
76.0
 40
77.0
 40
77.0
 40
78.0
 40
78.0
 40
79.0
 40
79.0
 40
80.0
 40
80.0
 40
81.0
 40
81.0
 40
82.0
 40
82.0
 40
83.0
 40
83.0
 40
84.0
 40
84.0
 40
85.0
 40
85.0
 40
86.0
 40
86.0
 40
87.0
 40
87.0
 40
88.0
 40
88.0
 40
89.0
 40
89.0
 40
90.0
 40
90.0
 40
91.0
 40
91.0
 40
92.0
 40
92.0
 40
93.0
 40
93.0
 40
93.0
 10
22.79512318015322
 20
1.499999999999998
 30
0.0
 10
22.81157509584806
 20
0.871727997792466
 30
0.0
 10
22.8280270115429
 20
0.243455995584934
 30
0.0
 10
22.82821290501506
 20
0.2391696345695765
 30
0.0
 10
22.82839879848723
 20
0.2348832735542191
 30
0.0
 10
22.8287316821801
 20
0.2306058168818505
 30
0.0
 10
22.82906456587298
 20
0.2263283602094819
 30
0.0
 10
22.82954404762353
 20
0.2220648470585868
 30
0.0
 10
22.83002352937408
 20
0.2178013339076916
 30
0.0
 10
22.83064904431532
 20
0.2135567870301958
 30
0.0
 10
22.83127455925656
 20
0.2093122401526999
 30
0.0
 10
22.83204537048295
 20
0.2050916599567756
 30
0.0
 10
22.83281618170935
 20
0.2008710797608514
 30
0.0
 10
22.833731381145
 20
0.196679438420046
 30
0.0
 10
22.83464658058066
 20
0.1924877970792407
 30
0.0
 10
22.83570509004906
 20
0.1883300326748668
 30
0.0
 10
22.83676359951746
 20
0.1841722682704929
 30
0.0
 10
22.83796417201167
 20
0.1800532789741826
 30
0.0
 10
22.83916474450588
 20
0.1759342896778723
 30
0.0
 10
22.8405059656576
 20
0.171858927981148
 30
0.0
 10
22.84184718680933
 20
0.1677835662844238
 30
0.0
 10
22.84332747655517
 20
0.1637566332820837
 30
0.0
 10
22.84480776630101
 20
0.1597297002797435
 30
0.0
 10
22.84642538074387
 20
0.1557559400137961
 30
0.0
 10
22.84804299518673
 20
0.1517821797478486
 30
0.0
 10
22.84979602865029
 20
0.1478662736186608
 30
0.0
 10
22.85154906211385
 20
0.1439503674894729
 30
0.0
 10
22.85343544938759
 20
0.1400969287407137
 30
0.0
 10
22.85532183666133
 20
0.1362434899919546
 30
0.0
 10
22.85733935543351
 20
0.1324570582758337
 30
0.0
 10
22.8593568742057
 20
0.1286706265597128
 30
0.0
 10
22.86150314768143
 20
0.1249556625889149
 30
0.0
 10
22.86364942115717
 20
0.121240698618117
 30
0.0
 10
22.86592192085845
 20
0.1176015789107337
 30
0.0
 10
22.86819442055973
 20
0.1139624592033504
 30
0.0
 10
22.87059046930417
 20
0.1104034709269995
 30
0.0
 10
22.87298651804862
 20
0.1068444826506486
 30
0.0
 10
22.87550329310343
 20
0.1033698185718552
 30
0.0
 10
22.87802006815824
 20
0.0998951544930619
 30
0.0
 10
22.88065460456557
 20
0.0965089080378519
 30
0.0
 10
22.8832891409729
 20
0.0931226615826418
 30
0.0
 10
22.88603833504282
 20
0.0898288220141654
 30
0.0
 10
22.88878752911275
 20
0.0865349824456891
 30
0.0
 10
22.89164814207965
 20
0.0833374301645576
 30
0.0
 10
22.89450875504655
 20
0.080139877883426
 30
0.0
 10
22.89747741688463
 20
0.0770423798562953
 30
0.0
 10
22.90044607872272
 20
0.0739448818291646
 30
0.0
 10
22.90351929211617
 20
0.070951087150955
 30
0.0
 10
22.90659250550962
 20
0.0679572924727453
 30
0.0
 10
22.90976664997272
 20
0.0650707280677216
 30
0.0
 10
22.91294079443582
 20
0.0621841636626979
 30
0.0
 10
22.91621213057815
 20
0.059408230129477
 30
0.0
 10
22.91948346672048
 20
0.0566322965962561
 30
0.0
 10
22.92284814065222
 20
0.0539702642016359
 30
0.0
 10
22.92621281458397
 20
0.0513082318070158
 30
0.0
 10
22.9296668624561
 20
0.0487632366333453
 30
0.0
 10
22.93312091032823
 20
0.0462182414596747
 30
0.0
 10
22.93666026300222
 20
0.0437932817103032
 30
0.0
 10
22.94019961567621
 20
0.0413683219609316
 30
0.0
 10
22.94382010351781
 20
0.0390662544280912
 30
0.0
 10
22.94744059135942
 20
0.0367641868952508
 30
0.0
 10
22.95113794915081
 20
0.0345877235945317
 30
0.0
 10
22.95483530694221
 20
0.0324112602938126
 30
0.0
 10
22.95860517890676
 20
0.0303629652691963
 30
0.0
 10
22.96237505087132
 20
0.0283146702445801
 30
0.0
 10
22.96621299580502
 20
0.0263969565477956
 30
0.0
 10
22.97005094073872
 20
0.024479242851011
 30
0.0
 10
22.97395243724229
 20
0.0226943696987704
 30
0.0
 10
22.97785393374586
 20
0.0209094965465298
 30
0.0
 10
22.9818143855513
 20
0.0192595666589951
 30
0.0
 10
22.98577483735674
 20
0.0176096367714603
 30
0.0
 10
22.98978957874208
 20
0.0160965938950739
 30
0.0
 10
22.99380432012742
 20
0.0145835510186874
 30
0.0
 10
22.99786862141334
 20
0.0132091776362874
 30
0.0
 10
23.00193292269926
 20
0.0118348042538874
 30
0.0
 10
23.00604199582098
 20
0.010600719484803
 30
0.0
 10
23.01015106894271
 20
0.0093666347157187
 30
0.0
 10
23.01430007309075
 20
0.0082742924083213
 30
0.0
 10
23.01844907723879
 20
0.007181950100924
 30
0.0
 10
23.02263312456177
 20
0.0062326371198799
 30
0.0
 10
23.02681717188476
 20
0.0052833241388358
 30
0.0
 10
23.03103133324773
 20
0.004478158849079
 30
0.0
 10
23.0352454946107
 20
0.0036729935593221
 30
0.0
 10
23.03948480540199
 20
0.003012924508533
 30
0.0
 10
23.04372411619328
 20
0.0023528554577438
 30
0.0
 10
23.04798358217324
 20
0.0018386602588858
 30
0.0
 10
23.0522430481532
 20
0.0013244650600278
 30
0.0
 10
23.05651765133778
 20
0.0009567494752585
 30
0.0
 10
23.06079225452238
 20
0.0005890338904892
 30
0.0
 10
23.06507695909474
 20
0.0003682311175253
 30
0.0
 10
23.0693616636671
 20
0.0001474283445613
 30
0.0
 10
23.07365142191016
 20
0.0000737985063374
 30
0.0
 10
23.07794118015322
 20
0.0000001686681135
 30
0.0
 10
24.04512318015322
 20
0.0000001686681126
 30
0.0
 10
25.01230518015322
 20
0.0000001686681117
 30
0.0
 10
25.01659493839628
 20
0.0000737985063357
 30
0.0
 10
25.02088469663934
 20
0.0001474283445596
 30
0.0
 10
25.0251694012117
 20
0.0003682311175236
 30
0.0
 10
25.02945410578406
 20
0.0005890338904875
 30
0.0
 10
25.03372870896865
 20
0.0009567494752567
 30
0.0
 10
25.03800331215324
 20
0.001324465060026
 30
0.0
 10
25.0422627781332
 20
0.001838660258884
 30
0.0
 10
25.04652224411316
 20
0.0023528554577421
 30
0.0
 10
25.05076155490445
 20
0.0030129245085313
 30
0.0
 10
25.05500086569575
 20
0.0036729935593204
 30
0.0
 10
25.05921502705871
 20
0.0044781588490772
 30
0.0
 10
25.06342918842168
 20
0.005283324138834
 30
0.0
 10
25.06761323574467
 20
0.0062326371198782
 30
0.0
 10
25.07179728306766
 20
0.0071819501009223
 30
0.0
 10
25.07594628721569
 20
0.0082742924083196
 30
0.0
 10
25.08009529136373
 20
0.009366634715717
 30
0.0
 10
25.08420436448545
 20
0.0106007194848013
 30
0.0
 10
25.08831343760718
 20
0.0118348042538857
 30
0.0
 10
25.0923777388931
 20
0.0132091776362857
 30
0.0
 10
25.09644204017902
 20
0.0145835510186857
 30
0.0
 10
25.10045678156436
 20
0.0160965938950722
 30
0.0
 10
25.10447152294971
 20
0.0176096367714586
 30
0.0
 10
25.10843197475514
 20
0.0192595666589934
 30
0.0
 10
25.11239242656058
 20
0.0209094965465282
 30
0.0
 10
25.11629392306415
 20
0.0226943696987689
 30
0.0
 10
25.12019541956772
 20
0.0244792428510095
 30
0.0
 10
25.12403336450142
 20
0.026396956547794
 30
0.0
 10
25.12787130943513
 20
0.0283146702445785
 30
0.0
 10
25.13164118139968
 20
0.0303629652691947
 30
0.0
 10
25.13541105336423
 20
0.032411260293811
 30
0.0
 10
25.13910841115562
 20
0.0345877235945301
 30
0.0
 10
25.14280576894702
 20
0.0367641868952492
 30
0.0
 10
25.14642625678862
 20
0.0390662544280896
 30
0.0
 10
25.15004674463023
 20
0.04136832196093
 30
0.0
 10
25.15358609730422
 20
0.0437932817103016
 30
0.0
 10
25.15712544997822
 20
0.0462182414596732
 30
0.0
 10
25.16057949785035
 20
0.0487632366333438
 30
0.0
 10
25.16403354572248
 20
0.0513082318070143
 30
0.0
 10
25.16739821965422
 20
0.0539702642016345
 30
0.0
 10
25.17076289358597
 20
0.0566322965962547
 30
0.0
 10
25.17403422972829
 20
0.0594082301294756
 30
0.0
 10
25.17730556587062
 20
0.0621841636626965
 30
0.0
 10
25.18047971033372
 20
0.0650707280677203
 30
0.0
 10
25.18365385479682
 20
0.067957292472744
 30
0.0
 10
25.18672706819027
 20
0.0709510871509536
 30
0.0
 10
25.18980028158373
 20
0.0739448818291633
 30
0.0
 10
25.19276894342181
 20
0.077042379856294
 30
0.0
 10
25.19573760525989
 20
0.0801398778834247
 30
0.0
 10
25.19859821822678
 20
0.0833374301645564
 30
0.0
 10
25.20145883119369
 20
0.086534982445688
 30
0.0
 10
25.20420802526362
 20
0.0898288220141643
 30
0.0
 10
25.20695721933355
 20
0.0931226615826407
 30
0.0
 10
25.20959175574087
 20
0.0965089080378506
 30
0.0
 10
25.2122262921482
 20
0.0998951544930606
 30
0.0
 10
25.21474306720301
 20
0.1033698185718541
 30
0.0
 10
25.21725984225782
 20
0.1068444826506475
 30
0.0
 10
25.21965589100227
 20
0.1104034709269985
 30
0.0
 10
25.22205193974672
 20
0.1139624592033494
 30
0.0
 10
25.22432443944799
 20
0.1176015789107327
 30
0.0
 10
25.22659693914927
 20
0.121240698618116
 30
0.0
 10
25.228743212625
 20
0.1249556625889139
 30
0.0
 10
25.23088948610074
 20
0.1286706265597118
 30
0.0
 10
25.23290700487293
 20
0.1324570582758328
 30
0.0
 10
25.23492452364512
 20
0.1362434899919537
 30
0.0
 10
25.23681091091886
 20
0.1400969287407129
 30
0.0
 10
25.2386972981926
 20
0.1439503674894722
 30
0.0
 10
25.24045033165616
 20
0.1478662736186599
 30
0.0
 10
25.24220336511972
 20
0.1517821797478477
 30
0.0
 10
25.24382097956257
 20
0.1557559400137951
 30
0.0
 10
25.24543859400543
 20
0.1597297002797426
 30
0.0
 10
25.24691888375127
 20
0.1637566332820828
 30
0.0
 10
25.24839917349711
 20
0.1677835662844231
 30
0.0
 10
25.24974039464884
 20
0.1718589279811474
 30
0.0
 10
25.25108161580057
 20
0.1759342896778717
 30
0.0
 10
25.25228218829478
 20
0.1800532789741821
 30
0.0
 10
25.25348276078899
 20
0.1841722682704924
 30
0.0
 10
25.25454127025738
 20
0.1883300326748663
 30
0.0
 10
25.25559977972578
 20
0.1924877970792402
 30
0.0
 10
25.25651497916143
 20
0.1966794384200456
 30
0.0
 10
25.25743017859709
 20
0.2008710797608511
 30
0.0
 10
25.25820098982349
 20
0.2050916599567754
 30
0.0
 10
25.25897180104989
 20
0.2093122401526996
 30
0.0
 10
25.25959731599112
 20
0.2135567870301954
 30
0.0
 10
25.26022283093236
 20
0.2178013339076912
 30
0.0
 10
25.26070231268291
 20
0.2220648470585864
 30
0.0
 10
25.26118179443347
 20
0.2263283602094815
 30
0.0
 10
25.26151467812634
 20
0.2306058168818502
 30
0.0
 10
25.26184756181921
 20
0.2348832735542188
 30
0.0
 10
25.26203345529137
 20
0.2391696345695764
 30
0.0
 10
25.26221934876354
 20
0.2434559955849339
 30
0.0
 10
25.27867126445838
 20
0.8717279977924659
 30
0.0
 10
25.29512318015322
 20
1.499999999999998
 30
0.0
  0
SPLINE
  5
4A
330
1F
100
AcDbEntity
  8
DEFAULT
100
AcDbSpline
210
0.0
220
0.0
230
1.0
 70
    24
 71
     2
 72
     6
 73
     3
 74
     0
 42
0.0000000001
 43
0.0000000001
 40
0.0
 40
0.0
 40
0.0
 40
47.7
 40
47.7
 40
47.7
 10
22.72512318015322
 20
1.289999999999999
 30
0.0
 10
0.0
 20
1.289999999999999
 30
0.0
 10
-22.72512318015322
 20
1.289999999999999
 30
0.0
  0
SPLINE
  5
4B
330
1F
100
AcDbEntity
  8
DEFAULT
100
AcDbSpline
210
0.0
220
0.0
230
1.0
 70
    11
 71
     2
 72
   516
 73
   513
 74
     0
 42
0.0000000001
 43
0.0000000001
 40
0.0
 40
0.0
 40
0.0
 40
1.0
 40
1.0
 40
2.0
 40
2.0
 40
3.0
 40
3.0
 40
4.0
 40
4.0
 40
5.0
 40
5.0
 40
6.0
 40
6.0
 40
7.0
 40
7.0
 40
8.0
 40
8.0
 40
9.0
 40
9.0
 40
10.0
 40
10.0
 40
11.0
 40
11.0
 40
12.0
 40
12.0
 40
13.0
 40
13.0
 40
14.0
 40
14.0
 40
15.0
 40
15.0
 40
16.0
 40
16.0
 40
17.0
 40
17.0
 40
18.0
 40
18.0
 40
19.0
 40
19.0
 40
20.0
 40
20.0
 40
21.0
 40
21.0
 40
22.0
 40
22.0
 40
23.0
 40
23.0
 40
24.0
 40
24.0
 40
25.0
 40
25.0
 40
26.0
 40
26.0
 40
27.0
 40
27.0
 40
28.0
 40
28.0
 40
29.0
 40
29.0
 40
30.0
 40
30.0
 40
31.0
 40
31.0
 40
32.0
 40
32.0
 40
33.0
 40
33.0
 40
34.0
 40
34.0
 40
35.0
 40
35.0
 40
36.0
 40
36.0
 40
37.0
 40
37.0
 40
38.0
 40
38.0
 40
39.0
 40
39.0
 40
40.0
 40
40.0
 40
41.0
 40
41.0
 40
42.0
 40
42.0
 40
43.0
 40
43.0
 40
44.0
 40
44.0
 40
45.0
 40
45.0
 40
46.0
 40
46.0
 40
47.0
 40
47.0
 40
48.0
 40
48.0
 40
49.0
 40
49.0
 40
50.0
 40
50.0
 40
51.0
 40
51.0
 40
52.0
 40
52.0
 40
53.0
 40
53.0
 40
54.0
 40
54.0
 40
55.0
 40
55.0
 40
56.0
 40
56.0
 40
57.0
 40
57.0
 40
58.0
 40
58.0
 40
59.0
 40
59.0
 40
60.0
 40
60.0
 40
61.0
 40
61.0
 40
62.0
 40
62.0
 40
63.0
 40
63.0
 40
64.0
 40
64.0
 40
65.0
 40
65.0
 40
66.0
 40
66.0
 40
67.0
 40
67.0
 40
68.0
 40
68.0
 40
69.0
 40
69.0
 40
70.0
 40
70.0
 40
71.0
 40
71.0
 40
72.0
 40
72.0
 40
73.0
 40
73.0
 40
74.0
 40
74.0
 40
75.0
 40
75.0
 40
76.0
 40
76.0
 40
77.0
 40
77.0
 40
78.0
 40
78.0
 40
79.0
 40
79.0
 40
80.0
 40
80.0
 40
81.0
 40
81.0
 40
82.0
 40
82.0
 40
83.0
 40
83.0
 40
84.0
 40
84.0
 40
85.0
 40
85.0
 40
86.0
 40
86.0
 40
87.0
 40
87.0
 40
88.0
 40
88.0
 40
89.0
 40
89.0
 40
90.0
 40
90.0
 40
91.0
 40
91.0
 40
92.0
 40
92.0
 40
93.0
 40
93.0
 40
94.0
 40
94.0
 40
95.0
 40
95.0
 40
96.0
 40
96.0
 40
97.0
 40
97.0
 40
98.0
 40
98.0
 40
99.0
 40
99.0
 40
100.0
 40
100.0
 40
101.0
 40
101.0
 40
102.0
 40
102.0
 40
103.0
 40
103.0
 40
104.0
 40
104.0
 40
105.0
 40
105.0
 40
106.0
 40
106.0
 40
107.0
 40
107.0
 40
108.0
 40
108.0
 40
109.0
 40
109.0
 40
110.0
 40
110.0
 40
111.0
 40
111.0
 40
112.0
 40
112.0
 40
113.0
 40
113.0
 40
114.0
 40
114.0
 40
115.0
 40
115.0
 40
116.0
 40
116.0
 40
117.0
 40
117.0
 40
118.0
 40
118.0
 40
119.0
 40
119.0
 40
120.0
 40
120.0
 40
121.0
 40
121.0
 40
122.0
 40
122.0
 40
123.0
 40
123.0
 40
124.0
 40
124.0
 40
125.0
 40
125.0
 40
126.0
 40
126.0
 40
127.0
 40
127.0
 40
128.0
 40
128.0
 40
129.0
 40
129.0
 40
130.0
 40
130.0
 40
131.0
 40
131.0
 40
132.0
 40
132.0
 40
133.0
 40
133.0
 40
134.0
 40
134.0
 40
135.0
 40
135.0
 40
136.0
 40
136.0
 40
137.0
 40
137.0
 40
138.0
 40
138.0
 40
139.0
 40
139.0
 40
140.0
 40
140.0
 40
141.0
 40
141.0
 40
142.0
 40
142.0
 40
143.0
 40
143.0
 40
144.0
 40
144.0
 40
145.0
 40
145.0
 40
146.0
 40
146.0
 40
147.0
 40
147.0
 40
148.0
 40
148.0
 40
149.0
 40
149.0
 40
150.0
 40
150.0
 40
151.0
 40
151.0
 40
152.0
 40
152.0
 40
153.0
 40
153.0
 40
154.0
 40
154.0
 40
155.0
 40
155.0
 40
156.0
 40
156.0
 40
157.0
 40
157.0
 40
158.0
 40
158.0
 40
159.0
 40
159.0
 40
160.0
 40
160.0
 40
161.0
 40
161.0
 40
162.0
 40
162.0
 40
163.0
 40
163.0
 40
164.0
 40
164.0
 40
165.0
 40
165.0
 40
166.0
 40
166.0
 40
167.0
 40
167.0
 40
168.0
 40
168.0
 40
169.0
 40
169.0
 40
170.0
 40
170.0
 40
171.0
 40
171.0
 40
172.0
 40
172.0
 40
173.0
 40
173.0
 40
174.0
 40
174.0
 40
175.0
 40
175.0
 40
176.0
 40
176.0
 40
177.0
 40
177.0
 40
178.0
 40
178.0
 40
179.0
 40
179.0
 40
180.0
 40
180.0
 40
181.0
 40
181.0
 40
182.0
 40
182.0
 40
183.0
 40
183.0
 40
184.0
 40
184.0
 40
185.0
 40
185.0
 40
186.0
 40
186.0
 40
187.0
 40
187.0
 40
188.0
 40
188.0
 40
189.0
 40
189.0
 40
190.0
 40
190.0
 40
191.0
 40
191.0
 40
192.0
 40
192.0
 40
193.0
 40
193.0
 40
194.0
 40
194.0
 40
195.0
 40
195.0
 40
196.0
 40
196.0
 40
197.0
 40
197.0
 40
198.0
 40
198.0
 40
199.0
 40
199.0
 40
200.0
 40
200.0
 40
201.0
 40
201.0
 40
202.0
 40
202.0
 40
203.0
 40
203.0
 40
204.0
 40
204.0
 40
205.0
 40
205.0
 40
206.0
 40
206.0
 40
207.0
 40
207.0
 40
208.0
 40
208.0
 40
209.0
 40
209.0
 40
210.0
 40
210.0
 40
211.0
 40
211.0
 40
212.0
 40
212.0
 40
213.0
 40
213.0
 40
214.0
 40
214.0
 40
215.0
 40
215.0
 40
216.0
 40
216.0
 40
217.0
 40
217.0
 40
218.0
 40
218.0
 40
219.0
 40
219.0
 40
220.0
 40
220.0
 40
221.0
 40
221.0
 40
222.0
 40
222.0
 40
223.0
 40
223.0
 40
224.0
 40
224.0
 40
225.0
 40
225.0
 40
226.0
 40
226.0
 40
227.0
 40
227.0
 40
228.0
 40
228.0
 40
229.0
 40
229.0
 40
230.0
 40
230.0
 40
231.0
 40
231.0
 40
232.0
 40
232.0
 40
233.0
 40
233.0
 40
234.0
 40
234.0
 40
235.0
 40
235.0
 40
236.0
 40
236.0
 40
237.0
 40
237.0
 40
238.0
 40
238.0
 40
239.0
 40
239.0
 40
240.0
 40
240.0
 40
241.0
 40
241.0
 40
242.0
 40
242.0
 40
243.0
 40
243.0
 40
244.0
 40
244.0
 40
245.0
 40
245.0
 40
246.0
 40
246.0
 40
247.0
 40
247.0
 40
248.0
 40
248.0
 40
249.0
 40
249.0
 40
250.0
 40
250.0
 40
251.0
 40
251.0
 40
252.0
 40
252.0
 40
253.0
 40
253.0
 40
254.0
 40
254.0
 40
255.0
 40
255.0
 40
256.0
 40
256.0
 40
256.0
 10
29.00012318015322
 20
23.125
 30
0.0
 10
29.0
 20
12.8014020281192
 30
0.0
 10
28.99987681984679
 20
2.477804056238393
 30
0.0
 10
28.99950290335284
 20
2.466611906044867
 30
0.0
 10
28.99912898685889
 20
2.45541975585134
 30
0.0
 10
28.99849792496729
 20
2.444140758230967
 30
0.0
 10
28.99786686307569
 20
2.432861760610594
 30
0.0
 10
28.99697247592089
 20
2.421503661356444
 30
0.0
 10
28.9960780887661
 20
2.410145562102294
 30
0.0
 10
28.99491445422404
 20
2.398716517059213
 30
0.0
 10
28.99375081968198
 20
2.387287472016131
 30
0.0
 10
28.99231230225172
 20
2.375796040119572
 30
0.0
 10
28.99087378482146
 20
2.364304608223013
 30
0.0
 10
28.98915506467458
 20
2.352759742349039
 30
0.0
 10
28.98743634452771
 20
2.341214876475064
 30
0.0
 10
28.98543244654875
 20
2.329625912031459
 30
0.0
 10
28.9834285485698
 20
2.318036947587854
 30
0.0
 10
28.9811348711996
 20
2.306413588791131
 30
0.0
 10
28.9788411938294
 20
2.294790229994408
 30
0.0
 10
28.97625353751268
 20
2.28314253379398
 30
0.0
 10
28.97366588119597
 20
2.271494837593553
 30
0.0
 10
28.97078047622549
 20
2.259833195222515
 30
0.0
 10
28.96789507125502
 20
2.248171552851478
 30
0.0
 10
28.96470860479763
 20
2.236506669003054
 30
0.0
 10
28.96152213834025
 20
2.22484178515463
 30
0.0
 10
28.9580317804246
 20
2.213184654804296
 30
0.0
 10
28.95454142250896
 20
2.201527524453962
 30
0.0
 10
28.95074485075192
 20
2.189889407369341
 30
0.0
 10
28.9469482789949
 20
2.17825129028472
 30
0.0
 10
28.94284370184277
 20
2.166643683288276
 30
0.0
 10
28.93873912469064
 20
2.155036076291833
 30
0.0
 10
28.93432530295314
 20
2.14347068336498
 30
0.0
 10
28.92991148121565
 20
2.131905290438127
 30
0.0
 10
28.92518774767543
 20
2.120393990779203
 30
0.0
 10
28.92046401413522
 20
2.108882691120278
 30
0.0
 10
28.91543029102259
 20
2.097437505292716
 30
0.0
 10
28.91039656790997
 20
2.085992319465154
 30
0.0
 10
28.90505338204307
 20
2.074625373795612
 30
0.0
 10
28.89971019617618
 20
2.063258428126069
 30
0.0
 10
28.89405869157957
 20
2.051981917535032
 30
0.0
 10
28.88840718698297
 20
2.040705406943996
 30
0.0
 10
28.88244913481365
 20
2.02953155641296
 30
0.0
 10
28.87649108264434
 20
2.018357705881924
 30
0.0
 10
28.87022888827249
 20
2.007298730781386
 30
0.0
 10
28.86396669390065
 20
1.996239755680848
 30
0.0
 10
28.8574034010138
 20
1.985307821201603
 30
0.0
 10
28.85084010812697
 20
1.974375886722358
 30
0.0
 10
28.84397939974941
 20
1.963583066668607
 30
0.0
 10
28.83711869137187
 20
1.952790246614857
 30
0.0
 10
28.82996488771695
 20
1.942148481831177
 30
0.0
 10
28.82281108406204
 20
1.931506717047497
 30
0.0
 10
28.81536913716213
 20
1.921027773762348
 30
0.0
 10
28.80792719026223
 20
1.910548830477198
 30
0.0
 10
28.80020267535011
 20
1.900244258853237
 30
0.0
 10
28.792478160438
 20
1.889939687229276
 30
0.0
 10
28.78447726408303
 20
1.879820780415022
 30
0.0
 10
28.77647636772807
 20
1.869701873600769
 30
0.0
 10
28.76820587276123
 20
1.859779627578966
 30
0.0
 10
28.75993537779439
 20
1.849857381557164
 30
0.0
 10
28.75140264508669
 20
1.840142456082485
 30
0.0
 10
28.74286991237898
 20
1.830427530607806
 30
0.0
 10
28.73408285956831
 20
1.820930211520234
 30
0.0
 10
28.72529580675764
 20
1.811432892432662
 30
0.0
 10
28.7162628840487
 20
1.802163055623057
 30
0.0
 10
28.70722996133977
 20
1.792893218813452
 30
0.0
 10
28.69796012453016
 20
1.783860296104517
 30
0.0
 10
28.68869028772056
 20
1.774827373395582
 30
0.0
 10
28.67919296863299
 20
1.766040320584913
 30
0.0
 10
28.66969564954542
 20
1.757253267774244
 30
0.0
 10
28.65998072407073
 20
1.74872053506654
 30
0.0
 10
28.65026579859606
 20
1.740187802358837
 30
0.0
 10
28.64034355257426
 20
1.731917307391997
 30
0.0
 10
28.63042130655246
 20
1.723646812425157
 30
0.0
 10
28.6203023997382
 20
1.715645916070191
 30
0.0
 10
28.61018349292395
 20
1.707645019715225
 30
0.0
 10
28.59987892129998
 20
1.699920504803107
 30
0.0
 10
28.58957434967602
 20
1.692195989890988
 30
0.0
 10
28.57909540639087
 20
1.684754042991084
 30
0.0
 10
28.56861646310573
 20
1.677312096091181
 30
0.0
 10
28.55797469832205
 20
1.670158292436264
 30
0.0
 10
28.54733293353837
 20
1.663004488781348
 30
0.0
 10
28.53654011348461
 20
1.6561437804038
 30
0.0
 10
28.52574729343086
 20
1.649283072026251
 30
0.0
 10
28.51481535895161
 20
1.64271977913941
 30
0.0
 10
28.50388342447237
 20
1.636156486252569
 30
0.0
 10
28.49282444937183
 20
1.629894291880727
 30
0.0
 10
28.4817654742713
 20
1.623632097508885
 30
0.0
 10
28.47059162374025
 20
1.617674045339566
 30
0.0
 10
28.45941777320922
 20
1.611715993170247
 30
0.0
 10
28.44814126261818
 20
1.606064488573645
 30
0.0
 10
28.43686475202715
 20
1.600412983977042
 30
0.0
 10
28.42549780635761
 20
1.595069798110144
 30
0.0
 10
28.41413086068807
 20
1.589726612243247
 30
0.0
 10
28.4026856748605
 20
1.584692889130623
 30
0.0
 10
28.39124048903294
 20
1.579659166017999
 30
0.0
 10
28.37972918937401
 20
1.574935432477785
 30
0.0
 10
28.36821788971509
 20
1.57021169893757
 30
0.0
 10
28.35665249678824
 20
1.565797877200076
 30
0.0
 10
28.34508710386139
 20
1.561384055462583
 30
0.0
 10
28.33347949686494
 20
1.557279478310452
 30
0.0
 10
28.3218718898685
 20
1.553174901158322
 30
0.0
 10
28.31023377278387
 20
1.549378329401291
 30
0.0
 10
28.29859565569926
 20
1.545581757644259
 30
0.0
 10
28.28693852534892
 20
1.542091399728613
 30
0.0
 10
28.27528139499859
 20
1.538601041812968
 30
0.0
 10
28.26361651115016
 20
1.535414575355581
 30
0.0
 10
28.25195162730174
 20
1.532228108898194
 30
0.0
 10
28.2402899849307
 20
1.529342703927724
 30
0.0
 10
28.22862834255967
 20
1.526457298957255
 30
0.0
 10
28.21698064635924
 20
1.523869642640536
 30
0.0
 10
28.20533295015881
 20
1.521281986323817
 30
0.0
 10
28.19370959136209
 20
1.518988308953622
 30
0.0
 10
28.18208623256537
 20
1.516694631583426
 30
0.0
 10
28.17049726812176
 20
1.514690733604467
 30
0.0
 10
28.15890830367816
 20
1.512686835625509
 30
0.0
 10
28.14736343780418
 20
1.510968115478633
 30
0.0
 10
28.1358185719302
 20
1.509249395331757
 30
0.0
 10
28.12432714003364
 20
1.507810877901501
 30
0.0
 10
28.11283570813709
 20
1.506372360471245
 30
0.0
 10
28.10140666309401
 20
1.505208725929184
 30
0.0
 10
28.08997761805093
 20
1.504045091387122
 30
0.0
 10
28.07861951879677
 20
1.503150704232327
 30
0.0
 10
28.06726141954262
 20
1.502256317077532
 30
0.0
 10
28.05598242192224
 20
1.501625255185931
 30
0.0
 10
28.04470342430188
 20
1.50099419329433
 30
0.0
 10
28.03351127410835
 20
1.500620276800383
 30
0.0
 10
28.02231912391483
 20
1.500246360306435
 30
0.0
 10
0.0110979718808046
 20
1.500123180153218
 30
0.0
 10
-28.00012318015322
 20
1.5
 30
0.0
 10
-28.01122115203402
 20
1.500123180153218
 30
0.0
 10
-28.02231912391483
 20
1.500246360306435
 30
0.0
 10
-28.03351127410835
 20
1.500620276800383
 30
0.0
 10
-28.04470342430188
 20
1.50099419329433
 30
0.0
 10
-28.05598242192224
 20
1.501625255185931
 30
0.0
 10
-28.06726141954262
 20
1.502256317077532
 30
0.0
 10
-28.07861951879677
 20
1.503150704232327
 30
0.0
 10
-28.08997761805093
 20
1.504045091387122
 30
0.0
 10
-28.10140666309401
 20
1.505208725929184
 30
0.0
 10
-28.11283570813709
 20
1.506372360471245
 30
0.0
 10
-28.12432714003364
 20
1.507810877901501
 30
0.0
 10
-28.1358185719302
 20
1.509249395331757
 30
0.0
 10
-28.14736343780418
 20
1.510968115478633
 30
0.0
 10
-28.15890830367816
 20
1.512686835625509
 30
0.0
 10
-28.17049726812176
 20
1.514690733604467
 30
0.0
 10
-28.18208623256537
 20
1.516694631583426
 30
0.0
 10
-28.19370959136209
 20
1.518988308953622
 30
0.0
 10
-28.20533295015881
 20
1.521281986323817
 30
0.0
 10
-28.21698064635924
 20
1.523869642640536
 30
0.0
 10
-28.22862834255967
 20
1.526457298957255
 30
0.0
 10
-28.2402899849307
 20
1.529342703927724
 30
0.0
 10
-28.25195162730174
 20
1.532228108898194
 30
0.0
 10
-28.26361651115016
 20
1.535414575355581
 30
0.0
 10
-28.27528139499859
 20
1.538601041812968
 30
0.0
 10
-28.28693852534892
 20
1.542091399728613
 30
0.0
 10
-28.29859565569926
 20
1.545581757644259
 30
0.0
 10
-28.31023377278387
 20
1.549378329401291
 30
0.0
 10
-28.3218718898685
 20
1.553174901158322
 30
0.0
 10
-28.33347949686494
 20
1.557279478310452
 30
0.0
 10
-28.34508710386139
 20
1.561384055462583
 30
0.0
 10
-28.35665249678824
 20
1.565797877200076
 30
0.0
 10
-28.36821788971509
 20
1.57021169893757
 30
0.0
 10
-28.37972918937401
 20
1.574935432477785
 30
0.0
 10
-28.39124048903294
 20
1.579659166017999
 30
0.0
 10
-28.4026856748605
 20
1.584692889130623
 30
0.0
 10
-28.41413086068807
 20
1.589726612243247
 30
0.0
 10
-28.42549780635761
 20
1.595069798110144
 30
0.0
 10
-28.43686475202715
 20
1.600412983977042
 30
0.0
 10
-28.44814126261818
 20
1.606064488573645
 30
0.0
 10
-28.45941777320922
 20
1.611715993170247
 30
0.0
 10
-28.47059162374025
 20
1.617674045339566
 30
0.0
 10
-28.4817654742713
 20
1.623632097508885
 30
0.0
 10
-28.49282444937183
 20
1.629894291880727
 30
0.0
 10
-28.50388342447237
 20
1.636156486252569
 30
0.0
 10
-28.51481535895161
 20
1.64271977913941
 30
0.0
 10
-28.52574729343086
 20
1.649283072026251
 30
0.0
 10
-28.53654011348461
 20
1.6561437804038
 30
0.0
 10
-28.54733293353837
 20
1.663004488781348
 30
0.0
 10
-28.55797469832205
 20
1.670158292436264
 30
0.0
 10
-28.56861646310573
 20
1.677312096091181
 30
0.0
 10
-28.57909540639087
 20
1.684754042991084
 30
0.0
 10
-28.58957434967602
 20
1.692195989890988
 30
0.0
 10
-28.59987892129998
 20
1.699920504803107
 30
0.0
 10
-28.61018349292395
 20
1.707645019715225
 30
0.0
 10
-28.6203023997382
 20
1.715645916070191
 30
0.0
 10
-28.63042130655246
 20
1.723646812425157
 30
0.0
 10
-28.64034355257426
 20
1.731917307391997
 30
0.0
 10
-28.65026579859606
 20
1.740187802358837
 30
0.0
 10
-28.65998072407073
 20
1.74872053506654
 30
0.0
 10
-28.66969564954542
 20
1.757253267774244
 30
0.0
 10
-28.67919296863299
 20
1.766040320584913
 30
0.0
 10
-28.68869028772056
 20
1.774827373395582
 30
0.0
 10
-28.69796012453016
 20
1.783860296104517
 30
0.0
 10
-28.70722996133977
 20
1.792893218813452
 30
0.0
 10
-28.7162628840487
 20
1.802163055623057
 30
0.0
 10
-28.72529580675764
 20
1.811432892432662
 30
0.0
 10
-28.73408285956831
 20
1.820930211520234
 30
0.0
 10
-28.74286991237898
 20
1.830427530607806
 30
0.0
 10
-28.75140264508669
 20
1.840142456082485
 30
0.0
 10
-28.75993537779439
 20
1.849857381557164
 30
0.0
 10
-28.76820587276123
 20
1.859779627578966
 30
0.0
 10
-28.77647636772807
 20
1.869701873600769
 30
0.0
 10
-28.78447726408303
 20
1.879820780415022
 30
0.0
 10
-28.792478160438
 20
1.889939687229276
 30
0.0
 10
-28.80020267535011
 20
1.900244258853237
 30
0.0
 10
-28.80792719026223
 20
1.910548830477198
 30
0.0
 10
-28.81536913716213
 20
1.921027773762348
 30
0.0
 10
-28.82281108406204
 20
1.931506717047497
 30
0.0
 10
-28.82996488771695
 20
1.942148481831177
 30
0.0
 10
-28.83711869137187
 20
1.952790246614857
 30
0.0
 10
-28.84397939974941
 20
1.963583066668607
 30
0.0
 10
-28.85084010812697
 20
1.974375886722358
 30
0.0
 10
-28.8574034010138
 20
1.985307821201603
 30
0.0
 10
-28.86396669390065
 20
1.996239755680848
 30
0.0
 10
-28.87022888827249
 20
2.007298730781386
 30
0.0
 10
-28.87649108264434
 20
2.018357705881924
 30
0.0
 10
-28.88244913481365
 20
2.02953155641296
 30
0.0
 10
-28.88840718698297
 20
2.040705406943996
 30
0.0
 10
-28.89405869157957
 20
2.051981917535032
 30
0.0
 10
-28.89971019617618
 20
2.063258428126069
 30
0.0
 10
-28.90505338204307
 20
2.074625373795612
 30
0.0
 10
-28.91039656790997
 20
2.085992319465154
 30
0.0
 10
-28.91543029102259
 20
2.097437505292716
 30
0.0
 10
-28.92046401413522
 20
2.108882691120278
 30
0.0
 10
-28.92518774767543
 20
2.120393990779203
 30
0.0
 10
-28.92991148121565
 20
2.131905290438127
 30
0.0
 10
-28.93432530295314
 20
2.14347068336498
 30
0.0
 10
-28.93873912469064
 20
2.155036076291833
 30
0.0
 10
-28.94284370184277
 20
2.166643683288276
 30
0.0
 10
-28.9469482789949
 20
2.17825129028472
 30
0.0
 10
-28.95074485075192
 20
2.189889407369341
 30
0.0
 10
-28.95454142250896
 20
2.201527524453962
 30
0.0
 10
-28.9580317804246
 20
2.213184654804296
 30
0.0
 10
-28.96152213834025
 20
2.22484178515463
 30
0.0
 10
-28.96470860479763
 20
2.236506669003054
 30
0.0
 10
-28.96789507125502
 20
2.248171552851478
 30
0.0
 10
-28.97078047622549
 20
2.259833195222515
 30
0.0
 10
-28.97366588119597
 20
2.271494837593553
 30
0.0
 10
-28.97625353751268
 20
2.28314253379398
 30
0.0
 10
-28.9788411938294
 20
2.294790229994408
 30
0.0
 10
-28.9811348711996
 20
2.306413588791131
 30
0.0
 10
-28.9834285485698
 20
2.318036947587854
 30
0.0
 10
-28.98543244654875
 20
2.329625912031459
 30
0.0
 10
-28.98743634452771
 20
2.341214876475064
 30
0.0
 10
-28.98915506467458
 20
2.352759742349039
 30
0.0
 10
-28.99087378482146
 20
2.364304608223013
 30
0.0
 10
-28.99231230225172
 20
2.375796040119572
 30
0.0
 10
-28.99375081968198
 20
2.387287472016131
 30
0.0
 10
-28.99491445422404
 20
2.398716517059213
 30
0.0
 10
-28.9960780887661
 20
2.410145562102294
 30
0.0
 10
-28.99697247592089
 20
2.421503661356444
 30
0.0
 10
-28.99786686307569
 20
2.432861760610594
 30
0.0
 10
-28.99849792496729
 20
2.444140758230967
 30
0.0
 10
-28.99912898685889
 20
2.45541975585134
 30
0.0
 10
-28.99950290335284
 20
2.466611906044867
 30
0.0
 10
-28.99987681984679
 20
2.477804056238393
 30
0.0
 10
-29.0
 20
12.8014020281192
 30
0.0
 10
-29.00012318015322
 20
23.125
 30
0.0
 10
-29.00007698759576
 20
23.12916173945531
 30
0.0
 10
-29.00003079503831
 20
23.13332347891061
 30
0.0
 10
-28.99989057635307
 20
23.13752053523318
 30
0.0
 10
-28.99975035766785
 20
23.14171759155575
 30
0.0
 10
-28.99951370945849
 20
23.14594721566339
 30
0.0
 10
-28.99927706124914
 20
23.15017683977103
 30
0.0
 10
-28.9989416660661
 20
23.15443612699134
 30
0.0
 10
-28.99860627088305
 20
23.15869541421164
 30
0.0
 10
-28.99816990792977
 20
23.16298130610279
 30
0.0
 10
-28.9977335449765
 20
23.16726719799395
 30
0.0
 10
-28.99719410094015
 20
23.17157648495516
 30
0.0
 10
-28.99665465690381
 20
23.17588577191637
 30
0.0
 10
-28.99601013684873
 20
23.18021509661911
 30
0.0
 10
-28.99536561679366
 20
23.18454442132185
 30
0.0
 10
-28.99461415505155
 20
23.1888902829882
 30
0.0
 10
-28.99386269330944
 20
23.19323614465456
 30
0.0
 10
-28.99300256429562
 20
23.19759490420333
 30
0.0
 10
-28.99214243528179
 20
23.2019536637521
 30
0.0
 10
-28.99117206416302
 20
23.20632154982726
 30
0.0
 10
-28.99020169304425
 20
23.21068943590242
 30
0.0
 10
-28.98911966618032
 20
23.21506255179156
 30
0.0
 10
-28.9880376393164
 20
23.2194356676807
 30
0.0
 10
-28.98684271439488
 20
23.22380999912386
 30
0.0
 10
-28.98564778947336
 20
23.22818433056702
 30
0.0
 10
-28.98433890525499
 20
23.23255575444839
 30
0.0
 10
-28.98303002103662
 20
23.23692717832977
 30
0.0
 10
-28.98160630662773
 20
23.2412914722365
 30
0.0
 10
-28.98018259221885
 20
23.24565576614323
 30
0.0
 10
-28.9786433757868
 20
23.25000861876689
 30
0.0
 10
-28.97710415935476
 20
23.25436147139056
 30
0.0
 10
-28.97544897620319
 20
23.25869849373813
 30
0.0
 10
-28.97379379305163
 20
23.2630355160857
 30
0.0
 10
-28.97202239297405
 20
23.2673522534578
 30
0.0
 10
-28.97025099289647
 20
23.2716689908299
 30
0.0
 10
-28.96836334672923
 20
23.27596093551524
 30
0.0
 10
-28.966475700562
 20
23.28025288020057
 30
0.0
 10
-28.96447200586191
 20
23.28451548482665
 30
0.0
 10
-28.96246831116183
 20
23.28877808945273
 30
0.0
 10
-28.9603489969381
 20
23.29300678092437
 30
0.0
 10
-28.95822968271438
 20
23.297235472396
 30
0.0
 10
-28.95599541315088
 20
23.30142566634514
 30
0.0
 10
-28.95376114358739
 20
23.30561586029428
 30
0.0
 10
-28.95141282069795
 20
23.30976297595698
 30
0.0
 10
-28.94906449780851
 20
23.31391009161968
 30
0.0
 10
-28.94660326297594
 20
23.3180095670494
 30
0.0
 10
-28.94414202814338
 20
23.32210904247912
 30
0.0
 10
-28.9415692625018
 20
23.32615634999927
 30
0.0
 10
-28.93899649686022
 20
23.33020365751943
 30
0.0
 10
-28.93631382048962
 20
23.33419431931331
 30
0.0
 10
-28.93363114411903
 20
23.33818498110719
 30
0.0
 10
-28.93084041403156
 20
23.34211458483912
 30
0.0
 10
-28.9280496839441
 20
23.34604418857105
 30
0.0
 10
-28.92515299085205
 20
23.34990840293003
 30
0.0
 10
-28.92225629776001
 20
23.35377261728902
 30
0.0
 10
-28.9192559616269
 20
23.35756720734437
 30
0.0
 10
-28.91625562549379
 20
23.36136179739972
 30
0.0
 10
-28.91315418988122
 20
23.3650826396579
 30
0.0
 10
-28.91005275426866
 20
23.36880348191607
 30
0.0
 10
-28.90685297950327
 20
23.37244657896908
 30
0.0
 10
-28.90365320473788
 20
23.37608967602208
 30
0.0
 10
-28.90035805993388
 20
23.37965117067992
 30
0.0
 10
-28.89706291512988
 20
23.38321266533776
 30
0.0
 10
-28.89367556911403
 20
23.38668885414136
 30
0.0
 10
-28.89028822309818
 20
23.39016504294496
 30
0.0
 10
-28.88681203429457
 20
23.39355238896081
 30
0.0
 10
-28.88333584549097
 20
23.39693973497666
 30
0.0
 10
-28.87977435083313
 20
23.40023487978066
 30
0.0
 10
-28.87621285617529
 20
23.40353002458466
 30
0.0
 10
-28.87256975912229
 20
23.40672979935005
 30
0.0
 10
-28.86892666206929
 20
23.40992957411544
 30
0.0
 10
-28.86520581981111
 20
23.41303100972801
 30
0.0
 10
-28.86148497755294
 20
23.41613244534057
 30
0.0
 10
-28.85769038749759
 20
23.41913278147368
 30
0.0
 10
-28.85389579744224
 20
23.42213311760679
 30
0.0
 10
-28.85003158308325
 20
23.42502981069883
 30
0.0
 10
-28.84616736872427
 20
23.42792650379088
 30
0.0
 10
-28.84223776499234
 20
23.43071723387834
 30
0.0
 10
-28.83830816126041
 20
23.43350796396581
 30
0.0
 10
-28.83431749946653
 20
23.43619064033641
 30
0.0
 10
-28.83032683767265
 20
23.438873316707
 30
0.0
 10
-28.82627953015249
 20
23.44144608234858
 30
0.0
 10
-28.82223222263234
 20
23.44401884799016
 30
0.0
 10
-28.81813274720262
 20
23.44648008282272
 30
0.0
 10
-28.8140332717729
 20
23.44894131765529
 30
0.0
 10
-28.8098861561102
 20
23.45128964054473
 30
0.0
 10
-28.80573904044751
 20
23.45363796343417
 30
0.0
 10
-28.80154884649836
 20
23.45587223299766
 30
0.0
 10
-28.79735865254922
 20
23.45810650256116
 30
0.0
 10
-28.79312996107758
 20
23.46022581678489
 30
0.0
 10
-28.78890126960594
 20
23.46234513100862
 30
0.0
 10
-28.78463866497986
 20
23.4643488257087
 30
0.0
 10
-28.78037606035379
 20
23.46635252040879
 30
0.0
 10
-28.77608411566845
 20
23.46824016657602
 30
0.0
 10
-28.77179217098311
 20
23.47012781274325
 30
0.0
 10
-28.76747543361101
 20
23.47189921282083
 30
0.0
 10
-28.76315869623892
 20
23.47367061289841
 30
0.0
 10
-28.75882167389135
 20
23.47532579604997
 30
0.0
 10
-28.75448465154378
 20
23.47698097920154
 30
0.0
 10
-28.75013179892011
 20
23.47852019563359
 30
0.0
 10
-28.74577894629645
 20
23.48005941206563
 30
0.0
 10
-28.74141465238971
 20
23.48148312647452
 30
0.0
 10
-28.73705035848298
 20
23.48290684088341
 30
0.0
 10
-28.7326789346016
 20
23.48421572510178
 30
0.0
 10
-28.72830751072023
 20
23.48552460932014
 30
0.0
 10
-28.72393317927707
 20
23.48671953424166
 30
0.0
 10
-28.71955884783392
 20
23.48791445916318
 30
0.0
 10
-28.71518573194478
 20
23.4889964860271
 30
0.0
 10
-28.71081261605564
 20
23.49007851289103
 30
0.0
 10
-28.70644472998048
 20
23.49104888400981
 30
0.0
 10
-28.70207684390532
 20
23.49201925512858
 30
0.0
 10
-28.69771808435654
 20
23.4928793841424
 30
0.0
 10
-28.69335932480778
 20
23.49373951315622
 30
0.0
 10
-28.68901346314142
 20
23.49449097489833
 30
0.0
 10
-28.68466760147507
 20
23.49524243664044
 30
0.0
 10
-28.68033827677232
 20
23.49588695669551
 30
0.0
 10
-28.67600895206959
 20
23.49653147675059
 30
0.0
 10
-28.67169966510838
 20
23.49707092078694
 30
0.0
 10
-28.66739037814717
 20
23.49761036482328
 30
0.0
 10
-28.66310448625601
 20
23.49804672777655
 30
0.0
 10
-28.65881859436486
 20
23.49848309072983
 30
0.0
 10
-28.65455930714455
 20
23.49881848591288
 30
0.0
 10
-28.65030001992425
 20
23.49915388109592
 30
0.0
 10
-28.64607039581661
 20
23.49939052930527
 30
0.0
 10
-28.64184077170897
 20
23.49962717751463
 30
0.0
 10
-28.6376437153864
 20
23.49976739619986
 30
0.0
 10
-28.63344665906383
 20
23.49990761488509
 30
0.0
 10
-0.0041617394553057
 20
23.49995380744254
 30
0.0
 10
28.62512318015322
 20
23.5
 30
0.0
 10
28.62928491960852
 20
23.49995380744254
 30
0.0
 10
28.63344665906382
 20
23.49990761488509
 30
0.0
 10
28.63764371538639
 20
23.49976739619986
 30
0.0
 10
28.64184077170897
 20
23.49962717751463
 30
0.0
 10
28.64607039581661
 20
23.49939052930528
 30
0.0
 10
28.65030001992426
 20
23.49915388109593
 30
0.0
 10
28.65455930714456
 20
23.49881848591288
 30
0.0
 10
28.65881859436486
 20
23.49848309072983
 30
0.0
 10
28.66310448625601
 20
23.49804672777656
 30
0.0
 10
28.66739037814717
 20
23.49761036482329
 30
0.0
 10
28.67169966510838
 20
23.49707092078694
 30
0.0
 10
28.67600895206959
 20
23.49653147675059
 30
0.0
 10
28.68033827677232
 20
23.49588695669551
 30
0.0
 10
28.68466760147507
 20
23.49524243664044
 30
0.0
 10
28.68901346314142
 20
23.49449097489833
 30
0.0
 10
28.69335932480778
 20
23.49373951315622
 30
0.0
 10
28.69771808435654
 20
23.4928793841424
 30
0.0
 10
28.70207684390532
 20
23.49201925512857
 30
0.0
 10
28.70644472998048
 20
23.4910488840098
 30
0.0
 10
28.71081261605564
 20
23.49007851289103
 30
0.0
 10
28.71518573194478
 20
23.4889964860271
 30
0.0
 10
28.71955884783392
 20
23.48791445916318
 30
0.0
 10
28.72393317927708
 20
23.48671953424166
 30
0.0
 10
28.72830751072024
 20
23.48552460932014
 30
0.0
 10
28.73267893460161
 20
23.48421572510178
 30
0.0
 10
28.73705035848299
 20
23.48290684088341
 30
0.0
 10
28.74141465238971
 20
23.48148312647452
 30
0.0
 10
28.74577894629645
 20
23.48005941206563
 30
0.0
 10
28.75013179892011
 20
23.47852019563358
 30
0.0
 10
28.75448465154378
 20
23.47698097920153
 30
0.0
 10
28.75882167389135
 20
23.47532579604997
 30
0.0
 10
28.76315869623892
 20
23.47367061289841
 30
0.0
 10
28.76747543361102
 20
23.47189921282083
 30
0.0
 10
28.77179217098312
 20
23.47012781274325
 30
0.0
 10
28.77608411566845
 20
23.46824016657602
 30
0.0
 10
28.78037606035379
 20
23.46635252040878
 30
0.0
 10
28.78463866497987
 20
23.4643488257087
 30
0.0
 10
28.78890126960595
 20
23.46234513100861
 30
0.0
 10
28.79312996107759
 20
23.46022581678488
 30
0.0
 10
28.79735865254923
 20
23.45810650256116
 30
0.0
 10
28.80154884649837
 20
23.45587223299766
 30
0.0
 10
28.80573904044751
 20
23.45363796343417
 30
0.0
 10
28.80988615611021
 20
23.45128964054473
 30
0.0
 10
28.81403327177291
 20
23.44894131765529
 30
0.0
 10
28.81813274720262
 20
23.44648008282272
 30
0.0
 10
28.82223222263234
 20
23.44401884799016
 30
0.0
 10
28.82627953015249
 20
23.44144608234858
 30
0.0
 10
28.83032683767265
 20
23.43887331670699
 30
0.0
 10
28.83431749946653
 20
23.4361906403364
 30
0.0
 10
28.83830816126041
 20
23.43350796396581
 30
0.0
 10
28.84223776499234
 20
23.43071723387834
 30
0.0
 10
28.84616736872427
 20
23.42792650379088
 30
0.0
 10
28.85003158308325
 20
23.42502981069883
 30
0.0
 10
28.85389579744224
 20
23.42213311760679
 30
0.0
 10
28.85769038749758
 20
23.41913278147368
 30
0.0
 10
28.86148497755293
 20
23.41613244534057
 30
0.0
 10
28.8652058198111
 20
23.413031009728
 30
0.0
 10
28.86892666206928
 20
23.40992957411543
 30
0.0
 10
28.87256975912228
 20
23.40672979935005
 30
0.0
 10
28.87621285617529
 20
23.40353002458466
 30
0.0
 10
28.87977435083313
 20
23.40023487978066
 30
0.0
 10
28.88333584549097
 20
23.39693973497666
 30
0.0
 10
28.88681203429457
 20
23.39355238896081
 30
0.0
 10
28.89028822309818
 20
23.39016504294496
 30
0.0
 10
28.89367556911403
 20
23.38668885414135
 30
0.0
 10
28.89706291512988
 20
23.38321266533775
 30
0.0
 10
28.90035805993387
 20
23.37965117067991
 30
0.0
 10
28.90365320473787
 20
23.37608967602207
 30
0.0
 10
28.90685297950326
 20
23.37244657896906
 30
0.0
 10
28.91005275426865
 20
23.36880348191606
 30
0.0
 10
28.91315418988122
 20
23.36508263965789
 30
0.0
 10
28.91625562549379
 20
23.36136179739971
 30
0.0
 10
28.9192559616269
 20
23.35756720734437
 30
0.0
 10
28.92225629776001
 20
23.35377261728902
 30
0.0
 10
28.92515299085205
 20
23.34990840293003
 30
0.0
 10
28.9280496839441
 20
23.34604418857105
 30
0.0
 10
28.93084041403156
 20
23.34211458483912
 30
0.0
 10
28.93363114411903
 20
23.33818498110719
 30
0.0
 10
28.93631382048962
 20
23.33419431931331
 30
0.0
 10
28.93899649686022
 20
23.33020365751943
 30
0.0
 10
28.9415692625018
 20
23.32615634999927
 30
0.0
 10
28.94414202814338
 20
23.32210904247912
 30
0.0
 10
28.94660326297594
 20
23.3180095670494
 30
0.0
 10
28.94906449780851
 20
23.31391009161968
 30
0.0
 10
28.95141282069795
 20
23.30976297595698
 30
0.0
 10
28.95376114358739
 20
23.30561586029428
 30
0.0
 10
28.95599541315088
 20
23.30142566634514
 30
0.0
 10
28.95822968271438
 20
23.297235472396
 30
0.0
 10
28.9603489969381
 20
23.29300678092437
 30
0.0
 10
28.96246831116183
 20
23.28877808945273
 30
0.0
 10
28.96447200586191
 20
23.28451548482665
 30
0.0
 10
28.966475700562
 20
23.28025288020057
 30
0.0
 10
28.96836334672923
 20
23.27596093551523
 30
0.0
 10
28.97025099289647
 20
23.27166899082989
 30
0.0
 10
28.97202239297405
 20
23.26735225345779
 30
0.0
 10
28.97379379305163
 20
23.2630355160857
 30
0.0
 10
28.97544897620319
 20
23.25869849373813
 30
0.0
 10
28.97710415935475
 20
23.25436147139056
 30
0.0
 10
28.9786433757868
 20
23.25000861876689
 30
0.0
 10
28.98018259221885
 20
23.24565576614323
 30
0.0
 10
28.98160630662774
 20
23.2412914722365
 30
0.0
 10
28.98303002103663
 20
23.23692717832977
 30
0.0
 10
28.98433890525499
 20
23.23255575444839
 30
0.0
 10
28.98564778947336
 20
23.22818433056701
 30
0.0
 10
28.98684271439488
 20
23.22380999912385
 30
0.0
 10
28.9880376393164
 20
23.2194356676807
 30
0.0
 10
28.98911966618032
 20
23.21506255179156
 30
0.0
 10
28.99020169304425
 20
23.21068943590242
 30
0.0
 10
28.99117206416302
 20
23.20632154982726
 30
0.0
 10
28.99214243528179
 20
23.2019536637521
 30
0.0
 10
28.99300256429561
 20
23.19759490420333
 30
0.0
 10
28.99386269330943
 20
23.19323614465456
 30
0.0
 10
28.99461415505154
 20
23.1888902829882
 30
0.0
 10
28.99536561679366
 20
23.18454442132185
 30
0.0
 10
28.99601013684873
 20
23.18021509661911
 30
0.0
 10
28.99665465690381
 20
23.17588577191637
 30
0.0
 10
28.99719410094016
 20
23.17157648495516
 30
0.0
 10
28.99773354497651
 20
23.16726719799395
 30
0.0
 10
28.99816990792978
 20
23.16298130610279
 30
0.0
 10
28.99860627088305
 20
23.15869541421164
 30
0.0
 10
28.9989416660661
 20
23.15443612699134
 30
0.0
 10
28.99927706124914
 20
23.15017683977103
 30
0.0
 10
28.99951370945849
 20
23.14594721566339
 30
0.0
 10
28.99975035766785
 20
23.14171759155575
 30
0.0
 10
28.99989057635307
 20
23.13752053523318
 30
0.0
 10
29.00003079503831
 20
23.1333234789106
 30
0.0
 10
29.00007698759576
 20
23.1291617394553
 30
0.0
 10
29.00012318015322
 20
23.125
 30
0.0
  0
SPLINE
  5
4C
330
1F
100
AcDbEntity
  8
DEFAULT
100
AcDbSpline
210
0.0
220
0.0
230
1.0
 70
     8
 71
     2
 72
   252
 73
   249
 74
     0
 42
0.0000000001
 43
0.0000000001
 40
0.0
 40
0.0
 40
0.0
 40
1.0
 40
1.0
 40
2.0
 40
2.0
 40
3.0
 40
3.0
 40
4.0
 40
4.0
 40
5.0
 40
5.0
 40
6.0
 40
6.0
 40
7.0
 40
7.0
 40
8.0
 40
8.0
 40
9.0
 40
9.0
 40
10.0
 40
10.0
 40
11.0
 40
11.0
 40
12.0
 40
12.0
 40
13.0
 40
13.0
 40
14.0
 40
14.0
 40
15.0
 40
15.0
 40
16.0
 40
16.0
 40
17.0
 40
17.0
 40
18.0
 40
18.0
 40
19.0
 40
19.0
 40
20.0
 40
20.0
 40
21.0
 40
21.0
 40
22.0
 40
22.0
 40
23.0
 40
23.0
 40
24.0
 40
24.0
 40
25.0
 40
25.0
 40
26.0
 40
26.0
 40
27.0
 40
27.0
 40
28.0
 40
28.0
 40
29.0
 40
29.0
 40
30.0
 40
30.0
 40
31.0
 40
31.0
 40
32.0
 40
32.0
 40
33.0
 40
33.0
 40
34.0
 40
34.0
 40
35.0
 40
35.0
 40
36.0
 40
36.0
 40
37.0
 40
37.0
 40
38.0
 40
38.0
 40
39.0
 40
39.0
 40
40.0
 40
40.0
 40
41.0
 40
41.0
 40
42.0
 40
42.0
 40
43.0
 40
43.0
 40
44.0
 40
44.0
 40
45.0
 40
45.0
 40
46.0
 40
46.0
 40
47.0
 40
47.0
 40
48.0
 40
48.0
 40
49.0
 40
49.0
 40
50.0
 40
50.0
 40
51.0
 40
51.0
 40
52.0
 40
52.0
 40
53.0
 40
53.0
 40
54.0
 40
54.0
 40
55.0
 40
55.0
 40
56.0
 40
56.0
 40
57.0
 40
57.0
 40
58.0
 40
58.0
 40
59.0
 40
59.0
 40
60.0
 40
60.0
 40
61.0
 40
61.0
 40
62.0
 40
62.0
 40
63.0
 40
63.0
 40
64.0
 40
64.0
 40
65.0
 40
65.0
 40
66.0
 40
66.0
 40
67.0
 40
67.0
 40
68.0
 40
68.0
 40
69.0
 40
69.0
 40
70.0
 40
70.0
 40
71.0
 40
71.0
 40
72.0
 40
72.0
 40
73.0
 40
73.0
 40
74.0
 40
74.0
 40
75.0
 40
75.0
 40
76.0
 40
76.0
 40
77.0
 40
77.0
 40
78.0
 40
78.0
 40
79.0
 40
79.0
 40
80.0
 40
80.0
 40
81.0
 40
81.0
 40
82.0
 40
82.0
 40
83.0
 40
83.0
 40
84.0
 40
84.0
 40
85.0
 40
85.0
 40
86.0
 40
86.0
 40
87.0
 40
87.0
 40
88.0
 40
88.0
 40
89.0
 40
89.0
 40
90.0
 40
90.0
 40
91.0
 40
91.0
 40
92.0
 40
92.0
 40
93.0
 40
93.0
 40
94.0
 40
94.0
 40
95.0
 40
95.0
 40
96.0
 40
96.0
 40
97.0
 40
97.0
 40
98.0
 40
98.0
 40
99.0
 40
99.0
 40
100.0
 40
100.0
 40
101.0
 40
101.0
 40
102.0
 40
102.0
 40
103.0
 40
103.0
 40
104.0
 40
104.0
 40
105.0
 40
105.0
 40
106.0
 40
106.0
 40
107.0
 40
107.0
 40
108.0
 40
108.0
 40
109.0
 40
109.0
 40
110.0
 40
110.0
 40
111.0
 40
111.0
 40
112.0
 40
112.0
 40
113.0
 40
113.0
 40
114.0
 40
114.0
 40
115.0
 40
115.0
 40
116.0
 40
116.0
 40
117.0
 40
117.0
 40
118.0
 40
118.0
 40
119.0
 40
119.0
 40
120.0
 40
120.0
 40
121.0
 40
121.0
 40
122.0
 40
122.0
 40
123.0
 40
123.0
 40
124.0
 40
124.0
 40
124.0
 10
25.28965318116022
 20
1.290077952375257
 30
0.0
 10
25.2954479944149
 20
1.29029711538981
 30
0.0
 10
25.30124280766958
 20
1.290516278404364
 30
0.0
 10
25.30702710224562
 20
1.290928381960721
 30
0.0
 10
25.31281139682166
 20
1.291340485517079
 30
0.0
 10
25.31857875047776
 20
1.291945072061005
 30
0.0
 10
25.32434610413385
 20
1.292549658604931
 30
0.0
 10
25.33009011343803
 20
1.293346056870358
 30
0.0
 10
25.3358341227422
 20
1.294142455135785
 30
0.0
 10
25.34154841018145
 20
1.295129780890113
 30
0.0
 10
25.34726269762071
 20
1.296117106644441
 30
0.0
 10
25.35294091868192
 20
1.29729426367029
 30
0.0
 10
25.35861913974314
 20
1.298471420696139
 30
0.0
 10
25.36425498995732
 20
1.29983710200847
 30
0.0
 10
25.36989084017151
 20
1.301202783320802
 30
0.0
 10
25.37547806211357
 20
1.302755472618047
 30
0.0
 10
25.38106528405563
 20
1.304308161915293
 30
0.0
 10
25.38659767429192
 20
1.306046135262891
 30
0.0
 10
25.39213006452821
 20
1.307784108610489
 30
0.0
 10
25.39760148050416
 20
1.309705436354949
 30
0.0
 10
25.40307289648012
 20
1.311626764099409
 30
0.0
 10
25.40847726334025
 20
1.313729313010786
 30
0.0
 10
25.41388163020038
 20
1.315831861922162
 30
0.0
 10
25.41921294753311
 20
1.318113297562558
 30
0.0
 10
25.42454426486585
 20
1.320394733202954
 30
0.0
 10
25.42979661336574
 20
1.322852522518424
 30
0.0
 10
25.43504896186563
 20
1.325310311833894
 30
0.0
 10
25.4402165099055
 20
1.327941725966864
 30
0.0
 10
25.44538405794538
 20
1.330573140099835
 30
0.0
 10
25.4504610680511
 20
1.333375257418927
 30
0.0
 10
25.45553807815683
 20
1.336177374738019
 30
0.0
 10
25.46051891337759
 20
1.339147084081907
 30
0.0
 10
25.46549974859835
 20
1.342116793425795
 30
0.0
 10
25.4703788787653
 20
1.345250797557493
 30
0.0
 10
25.47525800893226
 20
1.34838480168919
 30
0.0
 10
25.4800300167986
 20
1.35167962095694
 30
0.0
 10
25.48480202466495
 20
1.354974440224691
 30
0.0
 10
25.48946161192064
 20
1.358426416425387
 30
0.0
 10
25.49412119917633
 20
1.361878392626082
 30
0.0
 10
25.49866319233075
 20
1.36548369306693
 30
0.0
 10
25.50320518548517
 20
1.369088993507778
 30
0.0
 10
25.50373169342008
 20
1.369536867880836
 30
0.0
 10
25.50425820135499
 20
1.369984742253893
 30
0.0
 10
25.50476891784332
 20
1.370450543421881
 30
0.0
 10
25.50527963433166
 20
1.370916344589869
 30
0.0
 10
25.50577394931702
 20
1.371399516148223
 30
0.0
 10
25.50626826430239
 20
1.371882687706577
 30
0.0
 10
25.50674558732015
 20
1.372382652501611
 30
0.0
 10
25.50722291033792
 20
1.372882617296644
 30
0.0
 10
25.50768267122054
 20
1.373398778114967
 30
0.0
 10
25.50814243210316
 20
1.37391493893329
 30
0.0
 10
25.50858408166125
 20
1.374446679215187
 30
0.0
 10
25.50902573121936
 20
1.374978419497083
 30
0.0
 10
25.50944874189773
 20
1.375525104072999
 30
0.0
 10
25.5098717525761
 20
1.376071788648914
 30
0.0
 10
25.51027561908388
 20
1.376632764498171
 30
0.0
 10
25.51067948559167
 20
1.377193740347428
 30
0.0
 10
25.51106372550593
 20
1.377768337378269
 30
0.0
 10
25.51144796542019
 20
1.378342934409109
 30
0.0
 10
25.51181211976216
 20
1.378930466259126
 30
0.0
 10
25.51217627410413
 20
1.379517998109142
 30
0.0
 10
25.51251990788749
 20
1.380117762965143
 30
0.0
 10
25.51286354167085
 20
1.380717527821144
 30
0.0
 10
25.5131862444213
 20
1.381328809257482
 30
0.0
 10
25.51350894717175
 20
1.381940090693819
 30
0.0
 10
25.51381033341735
 20
1.382562158528163
 30
0.0
 10
25.51411171966295
 20
1.383184226362506
 30
0.0
 10
25.51439142939454
 20
1.383816337528057
 30
0.0
 10
25.51467113912613
 20
1.384448448693607
 30
0.0
 10
25.51492883822739
 20
1.385089848126696
 30
0.0
 10
25.51518653732866
 20
1.385731247559785
 30
0.0
 10
25.51542191797521
 20
1.386381169101808
 30
0.0
 10
25.51565729862177
 20
1.387031090643831
 30
0.0
 10
25.51587007964888
 20
1.387688757956432
 30
0.0
 10
25.51608286067599
 20
1.388346425269032
 30
0.0
 10
25.51627278791439
 20
1.389011052761447
 30
0.0
 10
25.51646271515279
 20
1.389675680253861
 30
0.0
 10
25.51662956173233
 20
1.390346474021314
 30
0.0
 10
25.51679640831188
 20
1.391017267788767
 30
0.0
 10
25.51693997493251
 20
1.391693426560803
 30
0.0
 10
25.51708354155314
 20
1.392369585332838
 30
0.0
 10
25.51720365672297
 20
1.393050301430443
 30
0.0
 10
25.5173237718928
 20
1.393731017528047
 30
0.0
 10
25.51742029213294
 20
1.394415477828431
 30
0.0
 10
25.51751681237308
 20
1.395099938128816
 30
0.0
 10
25.51758962238906
 20
1.395787325036701
 30
0.0
 10
25.51766243240505
 20
1.396474711944587
 30
0.0
 10
25.51771144522451
 20
1.39716420436883
 30
0.0
 10
25.51776045804398
 20
1.397853696793073
 30
0.0
 10
25.51778561512058
 20
1.398544471127467
 30
0.0
 10
25.51781077219719
 20
1.39923524546186
 30
0.0
 10
25.51781204348052
 20
1.399926476568942
 30
0.0
 10
25.51781331476386
 20
1.400617707676025
 30
0.0
 10
25.51779069873537
 20
1.401308569872715
 30
0.0
 10
25.51776808270688
 20
1.401999432069404
 30
0.0
 10
25.51772160638166
 20
1.402689100113288
 30
0.0
 10
25.51767513005644
 20
1.403378768157171
 30
0.0
 10
25.51760484895095
 20
1.404066418232262
 30
0.0
 10
25.51753456784547
 20
1.404754068307352
 30
0.0
 10
25.51744056591127
 20
1.40543887900815
 30
0.0
 10
25.51734656397708
 20
1.406123689708948
 30
0.0
 10
25.51722895350051
 20
1.406804843021618
 30
0.0
 10
25.51711134302394
 20
1.407485996334287
 30
0.0
 10
25.51697026449198
 20
1.408162678613781
 30
0.0
 10
25.51682918596002
 20
1.408839360893274
 30
0.0
 10
25.51666480789252
 20
1.409510763835243
 30
0.0
 10
25.51650042982502
 20
1.410182166777212
 30
0.0
 10
25.51631294857337
 20
1.410847488383534
 30
0.0
 10
25.51612546732172
 20
1.411512809989856
 30
0.0
 10
25.51591510683431
 20
1.41217125552663
 30
0.0
 10
25.5157047463469
 20
1.412829701063404
 30
0.0
 10
25.51547175790163
 20
1.413480484010269
 30
0.0
 10
25.51523876945636
 20
1.414131266957134
 30
0.0
 10
25.51498343136046
 20
1.414773609946776
 30
0.0
 10
25.51472809326456
 20
1.415415952936417
 30
0.0
 10
25.51445071052216
 20
1.416049088683142
 30
0.0
 10
25.51417332777977
 20
1.416682224429868
 30
0.0
 10
25.51387423172758
 20
1.417305396646136
 30
0.0
 10
25.5135751356754
 20
1.417928568862403
 30
0.0
 10
25.51325468358691
 20
1.418541033162217
 30
0.0
 10
25.51293423149844
 20
1.419153497462031
 30
0.0
 10
25.51259280615716
 20
1.419754522250118
 30
0.0
 10
25.51225138081589
 20
1.420355547038205
 30
0.0
 10
25.51188939005811
 20
1.420944414383914
 30
0.0
 10
25.51152739930033
 20
1.421533281729623
 30
0.0
 10
25.51114527552794
 20
1.422109288224499
 30
0.0
 10
25.51076315175556
 20
1.422685294719376
 30
0.0
 10
25.51036135141958
 20
1.423247752317391
 30
0.0
 10
25.5099595510836
 20
1.423810209915406
 30
0.0
 10
25.50953855413889
 20
1.424358446754837
 30
0.0
 10
25.50911755719419
 20
1.424906683594268
 30
0.0
 10
25.50867786652619
 20
1.425440044800242
 30
0.0
 10
25.5082381758582
 20
1.425973406006216
 30
0.0
 10
25.5077803166822
 20
1.426491254472967
 30
0.0
 10
25.50732245750621
 20
1.427009102939718
 30
0.0
 10
25.50684697673998
 20
1.427510820091615
 30
0.0
 10
25.50637149597375
 20
1.428012537243512
 30
0.0
 10
25.50587896158424
 20
1.428497523773956
 30
0.0
 10
25.50538642719474
 20
1.4289825103044
 30
0.0
 10
25.50487742751964
 20
1.429450186891702
 30
0.0
 10
25.50436842784454
 20
1.429917863479003
 30
0.0
 10
25.5038435708895
 20
1.430367671478387
 30
0.0
 10
25.50331871393447
 20
1.430817479477771
 30
0.0
 10
25.50277862664684
 20
1.431248881588687
 30
0.0
 10
25.50223853935921
 20
1.431680283699602
 30
0.0
 10
25.50168386687913
 20
1.432092764607531
 30
0.0
 10
25.50112919439906
 20
1.43250524551546
 30
0.0
 10
25.50056059928885
 20
1.432898312507469
 30
0.0
 10
25.49999200417864
 20
1.433291379499477
 30
0.0
 10
25.49941016563134
 20
1.433664563052764
 30
0.0
 10
25.49882832708405
 20
1.434037746606051
 30
0.0
 10
25.49823394011215
 20
1.4343906009488
 30
0.0
 10
25.49763955314026
 20
1.434743455291549
 30
0.0
 10
25.49703332774546
 20
1.435075558935407
 30
0.0
 10
25.49642710235066
 20
1.435407662579264
 30
0.0
 10
25.4958097626758
 20
1.435718618822813
 30
0.0
 10
25.49519242300094
 20
1.436029575066361
 30
0.0
 10
25.49456470646497
 20
1.436319012468982
 30
0.0
 10
25.49393698992901
 20
1.436608449871604
 30
0.0
 10
25.49329964634618
 20
1.436876022697171
 30
0.0
 10
25.49266230276335
 20
1.437143595522738
 30
0.0
 10
25.49201609344749
 20
1.437388984152597
 30
0.0
 10
25.49136988413164
 20
1.437634372782456
 30
0.0
 10
25.49071558098683
 20
1.437857284097218
 30
0.0
 10
25.49006127784202
 20
1.43808019541198
 30
0.0
 10
25.48939966244047
 20
1.438280363141653
 30
0.0
 10
25.48873804703893
 20
1.438480530871326
 30
0.0
 10
25.48806990968745
 20
1.438657715913378
 30
0.0
 10
25.48740177233598
 20
1.438834900955429
 30
0.0
 10
25.48672791113192
 20
1.438988891660399
 30
0.0
 10
25.48605404992786
 20
1.439142882365368
 30
0.0
 10
25.48537526980574
 20
1.439273494789681
 30
0.0
 10
25.48469648968363
 20
1.439404107213994
 30
0.0
 10
25.48401360145371
 20
1.439511185339689
 30
0.0
 10
25.4833307132238
 20
1.439618263465384
 30
0.0
 10
25.4826445326035
 20
1.439701679386474
 30
0.0
 10
25.48195835198321
 20
1.439785095307563
 30
0.0
 10
25.48126969862275
 20
1.439844749382822
 30
0.0
 10
25.4805810452623
 20
1.439904403458081
 30
0.0
 10
25.47989074176562
 20
1.439940224430066
 30
0.0
 10
25.47920043826895
 20
1.439976045402051
 30
0.0
 10
25.47850930921108
 20
1.439987990482222
 30
0.0
 10
25.47781818015322
 20
1.439999935562394
 30
0.0
 10
25.45314318015322
 20
1.440000022700247
 30
0.0
 10
25.42846818015322
 20
1.4400001098381
 30
0.0
 10
25.4281232844923
 20
1.44000605929142
 30
0.0
 10
25.42777838883138
 20
1.44001200874474
 30
0.0
 10
25.42743390356084
 20
1.440029850025461
 30
0.0
 10
25.4270894182903
 20
1.440047691306182
 30
0.0
 10
25.4267457533122
 20
1.440077403185014
 30
0.0
 10
25.4264020883341
 20
1.440107115063847
 30
0.0
 10
25.42605965257443
 20
1.440148662186709
 30
0.0
 10
25.42571721681477
 20
1.440190209309572
 30
0.0
 10
25.42537641773689
 20
1.44024354223966
 30
0.0
 10
25.42503561865901
 20
1.440296875169748
 30
0.0
 10
25.42469686177878
 20
1.440361930446357
 30
0.0
 10
25.42435810489855
 20
1.440426985722965
 30
0.0
 10
25.42402179330184
 20
1.440503685937003
 30
0.0
 10
25.42368548170513
 20
1.440580386151041
 30
0.0
 10
25.42335201556816
 20
1.440668640037138
 30
0.0
 10
25.42301854943119
 20
1.440756893923236
 30
0.0
 10
25.42268832554439
 20
1.440856596468342
 30
0.0
 10
25.42235810165759
 20
1.440956299013448
 30
0.0
 10
25.42203151295342
 20
1.441067331581782
 30
0.0
 10
25.42170492424926
 20
1.441178364150116
 30
0.0
 10
25.42138235933473
 20
1.441300594624337
 30
0.0
 10
25.4210597944202
 20
1.441422825098558
 30
0.0
 10
25.42074163711438
 20
1.441556108036966
 30
0.0
 10
25.42042347980856
 20
1.441689390975375
 30
0.0
 10
25.42011010868594
 20
1.441833567784977
 30
0.0
 10
25.41979673756333
 20
1.441977744594578
 30
0.0
 10
25.41948852550333
 20
1.442132643719791
 30
0.0
 10
25.41918031344334
 20
1.442287542845003
 30
0.0
 10
25.41887762718664
 20
1.442452979971791
 30
0.0
 10
25.41857494092994
 20
1.442618417098579
 30
0.0
 10
25.41827814064205
 20
1.442794195373768
 30
0.0
 10
25.41798134035417
 20
1.442969973648958
 30
0.0
 10
25.41769077919694
 20
1.443155883914473
 30
0.0
 10
25.41740021803971
 20
1.443341794179988
 30
0.0
 10
25.41711624175103
 20
1.443537615221723
 30
0.0
 10
25.41683226546236
 20
1.443733436263458
 30
0.0
 10
25.41655521194483
 20
1.443938935074504
 30
0.0
 10
25.4162781584273
 20
1.444144433885551
 30
0.0
 10
25.41600835734612
 20
1.44435936594345
 30
0.0
 10
25.41573855626495
 20
1.444574298001349
 30
0.0
 10
25.41547632865568
 20
1.444798407559046
 30
0.0
 10
25.41521410104641
 20
1.445022517116743
 30
0.0
 10
25.41495975893293
 20
1.445255537506903
 30
0.0
 10
25.41470541681946
 20
1.445488557897064
 30
0.0
 10
25.41445926284275
 20
1.445730211849378
 30
0.0
 10
25.41421310886605
 20
1.445971865801692
 30
0.0
 10
25.41397543592404
 20
1.4462218657728
 30
0.0
 10
25.41373776298204
 20
1.446471865743907
 30
0.0
 10
25.41350885388109
 20
1.446729914259542
 30
0.0
 10
25.41327994478015
 20
1.446987962775177
 30
0.0
 10
25.41306007189857
 20
1.447253752784134
 30
0.0
 10
25.41284019901699
 20
1.44751954279309
 30
0.0
 10
25.41262962398089
 20
1.447792758032582
 30
0.0
 10
25.4124190489448
 20
1.448065973272074
 30
0.0
 10
25.41221802231684
 20
1.448346288644052
 30
0.0
 10
25.41201699568888
 20
1.44862660401603
 30
0.0
 10
25.41182575667007
 20
1.448913685974019
 30
0.0
 10
25.41163451765127
 20
1.449200767932007
 30
0.0
 10
25.41145329379639
 20
1.449494274877989
 30
0.0
 10
25.41127206994151
 20
1.449787781823971
 30
0.0
 10
25.41110107688831
 20
1.450087364514853
 30
0.0
 10
25.41093008383513
 20
1.450386947205735
 30
0.0
 10
25.39733205085093
 20
1.475193473602868
 30
0.0
 10
25.38373401786675
 20
1.5
 30
0.0
  0
SPLINE
  5
4D
330
1F
100
AcDbEntity
  8
DEFAULT
100
AcDbSpline
210
0.0
220
0.0
230
1.0
 70
     8
 71
     2
 72
   252
 73
   249
 74
     0
 42
0.0000000001
 43
0.0000000001
 40
0.0
 40
0.0
 40
0.0
 40
1.0
 40
1.0
 40
2.0
 40
2.0
 40
3.0
 40
3.0
 40
4.0
 40
4.0
 40
5.0
 40
5.0
 40
6.0
 40
6.0
 40
7.0
 40
7.0
 40
8.0
 40
8.0
 40
9.0
 40
9.0
 40
10.0
 40
10.0
 40
11.0
 40
11.0
 40
12.0
 40
12.0
 40
13.0
 40
13.0
 40
14.0
 40
14.0
 40
15.0
 40
15.0
 40
16.0
 40
16.0
 40
17.0
 40
17.0
 40
18.0
 40
18.0
 40
19.0
 40
19.0
 40
20.0
 40
20.0
 40
21.0
 40
21.0
 40
22.0
 40
22.0
 40
23.0
 40
23.0
 40
24.0
 40
24.0
 40
25.0
 40
25.0
 40
26.0
 40
26.0
 40
27.0
 40
27.0
 40
28.0
 40
28.0
 40
29.0
 40
29.0
 40
30.0
 40
30.0
 40
31.0
 40
31.0
 40
32.0
 40
32.0
 40
33.0
 40
33.0
 40
34.0
 40
34.0
 40
35.0
 40
35.0
 40
36.0
 40
36.0
 40
37.0
 40
37.0
 40
38.0
 40
38.0
 40
39.0
 40
39.0
 40
40.0
 40
40.0
 40
41.0
 40
41.0
 40
42.0
 40
42.0
 40
43.0
 40
43.0
 40
44.0
 40
44.0
 40
45.0
 40
45.0
 40
46.0
 40
46.0
 40
47.0
 40
47.0
 40
48.0
 40
48.0
 40
49.0
 40
49.0
 40
50.0
 40
50.0
 40
51.0
 40
51.0
 40
52.0
 40
52.0
 40
53.0
 40
53.0
 40
54.0
 40
54.0
 40
55.0
 40
55.0
 40
56.0
 40
56.0
 40
57.0
 40
57.0
 40
58.0
 40
58.0
 40
59.0
 40
59.0
 40
60.0
 40
60.0
 40
61.0
 40
61.0
 40
62.0
 40
62.0
 40
63.0
 40
63.0
 40
64.0
 40
64.0
 40
65.0
 40
65.0
 40
66.0
 40
66.0
 40
67.0
 40
67.0
 40
68.0
 40
68.0
 40
69.0
 40
69.0
 40
70.0
 40
70.0
 40
71.0
 40
71.0
 40
72.0
 40
72.0
 40
73.0
 40
73.0
 40
74.0
 40
74.0
 40
75.0
 40
75.0
 40
76.0
 40
76.0
 40
77.0
 40
77.0
 40
78.0
 40
78.0
 40
79.0
 40
79.0
 40
80.0
 40
80.0
 40
81.0
 40
81.0
 40
82.0
 40
82.0
 40
83.0
 40
83.0
 40
84.0
 40
84.0
 40
85.0
 40
85.0
 40
86.0
 40
86.0
 40
87.0
 40
87.0
 40
88.0
 40
88.0
 40
89.0
 40
89.0
 40
90.0
 40
90.0
 40
91.0
 40
91.0
 40
92.0
 40
92.0
 40
93.0
 40
93.0
 40
94.0
 40
94.0
 40
95.0
 40
95.0
 40
96.0
 40
96.0
 40
97.0
 40
97.0
 40
98.0
 40
98.0
 40
99.0
 40
99.0
 40
100.0
 40
100.0
 40
101.0
 40
101.0
 40
102.0
 40
102.0
 40
103.0
 40
103.0
 40
104.0
 40
104.0
 40
105.0
 40
105.0
 40
106.0
 40
106.0
 40
107.0
 40
107.0
 40
108.0
 40
108.0
 40
109.0
 40
109.0
 40
110.0
 40
110.0
 40
111.0
 40
111.0
 40
112.0
 40
112.0
 40
113.0
 40
113.0
 40
114.0
 40
114.0
 40
115.0
 40
115.0
 40
116.0
 40
116.0
 40
117.0
 40
117.0
 40
118.0
 40
118.0
 40
119.0
 40
119.0
 40
120.0
 40
120.0
 40
121.0
 40
121.0
 40
122.0
 40
122.0
 40
123.0
 40
123.0
 40
124.0
 40
124.0
 40
124.0
 10
-25.28965318116022
 20
1.290077952375257
 30
0.0
 10
-25.2954479944149
 20
1.29029711538981
 30
0.0
 10
-25.30124280766958
 20
1.290516278404364
 30
0.0
 10
-25.30702710224562
 20
1.290928381960721
 30
0.0
 10
-25.31281139682166
 20
1.291340485517079
 30
0.0
 10
-25.31857875047776
 20
1.291945072061005
 30
0.0
 10
-25.32434610413385
 20
1.292549658604931
 30
0.0
 10
-25.33009011343803
 20
1.293346056870358
 30
0.0
 10
-25.3358341227422
 20
1.294142455135785
 30
0.0
 10
-25.34154841018145
 20
1.295129780890113
 30
0.0
 10
-25.34726269762071
 20
1.296117106644441
 30
0.0
 10
-25.35294091868192
 20
1.29729426367029
 30
0.0
 10
-25.35861913974314
 20
1.298471420696139
 30
0.0
 10
-25.36425498995732
 20
1.29983710200847
 30
0.0
 10
-25.36989084017151
 20
1.301202783320802
 30
0.0
 10
-25.37547806211357
 20
1.302755472618047
 30
0.0
 10
-25.38106528405563
 20
1.304308161915293
 30
0.0
 10
-25.38659767429192
 20
1.306046135262891
 30
0.0
 10
-25.39213006452821
 20
1.307784108610489
 30
0.0
 10
-25.39760148050416
 20
1.309705436354949
 30
0.0
 10
-25.40307289648012
 20
1.311626764099409
 30
0.0
 10
-25.40847726334025
 20
1.313729313010786
 30
0.0
 10
-25.41388163020038
 20
1.315831861922162
 30
0.0
 10
-25.41921294753311
 20
1.318113297562558
 30
0.0
 10
-25.42454426486585
 20
1.320394733202955
 30
0.0
 10
-25.42979661336574
 20
1.322852522518425
 30
0.0
 10
-25.43504896186564
 20
1.325310311833895
 30
0.0
 10
-25.4402165099055
 20
1.327941725966865
 30
0.0
 10
-25.44538405794538
 20
1.330573140099835
 30
0.0
 10
-25.4504610680511
 20
1.333375257418927
 30
0.0
 10
-25.45553807815683
 20
1.33617737473802
 30
0.0
 10
-25.46051891337759
 20
1.339147084081907
 30
0.0
 10
-25.46549974859835
 20
1.342116793425795
 30
0.0
 10
-25.4703788787653
 20
1.345250797557493
 30
0.0
 10
-25.47525800893226
 20
1.34838480168919
 30
0.0
 10
-25.4800300167986
 20
1.35167962095694
 30
0.0
 10
-25.48480202466495
 20
1.354974440224691
 30
0.0
 10
-25.48946161192064
 20
1.358426416425387
 30
0.0
 10
-25.49412119917633
 20
1.361878392626083
 30
0.0
 10
-25.49866319233075
 20
1.36548369306693
 30
0.0
 10
-25.50320518548518
 20
1.369088993507778
 30
0.0
 10
-25.50373169342008
 20
1.369536867880836
 30
0.0
 10
-25.50425820135499
 20
1.369984742253893
 30
0.0
 10
-25.50476891784332
 20
1.370450543421881
 30
0.0
 10
-25.50527963433166
 20
1.370916344589869
 30
0.0
 10
-25.50577394931702
 20
1.371399516148223
 30
0.0
 10
-25.50626826430239
 20
1.371882687706577
 30
0.0
 10
-25.50674558732015
 20
1.372382652501611
 30
0.0
 10
-25.50722291033792
 20
1.372882617296644
 30
0.0
 10
-25.50768267122054
 20
1.373398778114967
 30
0.0
 10
-25.50814243210316
 20
1.37391493893329
 30
0.0
 10
-25.50858408166125
 20
1.374446679215187
 30
0.0
 10
-25.50902573121936
 20
1.374978419497083
 30
0.0
 10
-25.50944874189773
 20
1.375525104072999
 30
0.0
 10
-25.5098717525761
 20
1.376071788648914
 30
0.0
 10
-25.51027561908388
 20
1.376632764498171
 30
0.0
 10
-25.51067948559167
 20
1.377193740347428
 30
0.0
 10
-25.51106372550593
 20
1.377768337378269
 30
0.0
 10
-25.51144796542019
 20
1.378342934409109
 30
0.0
 10
-25.51181211976216
 20
1.378930466259126
 30
0.0
 10
-25.51217627410413
 20
1.379517998109142
 30
0.0
 10
-25.51251990788749
 20
1.380117762965143
 30
0.0
 10
-25.51286354167085
 20
1.380717527821144
 30
0.0
 10
-25.5131862444213
 20
1.381328809257482
 30
0.0
 10
-25.51350894717175
 20
1.381940090693819
 30
0.0
 10
-25.51381033341735
 20
1.382562158528163
 30
0.0
 10
-25.51411171966295
 20
1.383184226362506
 30
0.0
 10
-25.51439142939454
 20
1.383816337528057
 30
0.0
 10
-25.51467113912613
 20
1.384448448693607
 30
0.0
 10
-25.51492883822739
 20
1.385089848126696
 30
0.0
 10
-25.51518653732866
 20
1.385731247559785
 30
0.0
 10
-25.51542191797521
 20
1.386381169101808
 30
0.0
 10
-25.51565729862177
 20
1.387031090643831
 30
0.0
 10
-25.51587007964888
 20
1.387688757956432
 30
0.0
 10
-25.51608286067599
 20
1.388346425269032
 30
0.0
 10
-25.51627278791439
 20
1.389011052761447
 30
0.0
 10
-25.51646271515279
 20
1.389675680253861
 30
0.0
 10
-25.51662956173233
 20
1.390346474021314
 30
0.0
 10
-25.51679640831188
 20
1.391017267788767
 30
0.0
 10
-25.51693997493251
 20
1.391693426560803
 30
0.0
 10
-25.51708354155314
 20
1.392369585332838
 30
0.0
 10
-25.51720365672297
 20
1.393050301430443
 30
0.0
 10
-25.5173237718928
 20
1.393731017528047
 30
0.0
 10
-25.51742029213294
 20
1.394415477828431
 30
0.0
 10
-25.51751681237308
 20
1.395099938128816
 30
0.0
 10
-25.51758962238906
 20
1.395787325036701
 30
0.0
 10
-25.51766243240505
 20
1.396474711944587
 30
0.0
 10
-25.51771144522451
 20
1.39716420436883
 30
0.0
 10
-25.51776045804398
 20
1.397853696793073
 30
0.0
 10
-25.51778561512058
 20
1.398544471127467
 30
0.0
 10
-25.51781077219719
 20
1.39923524546186
 30
0.0
 10
-25.51781204348052
 20
1.399926476568942
 30
0.0
 10
-25.51781331476386
 20
1.400617707676025
 30
0.0
 10
-25.51779069873537
 20
1.401308569872715
 30
0.0
 10
-25.51776808270688
 20
1.401999432069404
 30
0.0
 10
-25.51772160638166
 20
1.402689100113288
 30
0.0
 10
-25.51767513005644
 20
1.403378768157171
 30
0.0
 10
-25.51760484895095
 20
1.404066418232262
 30
0.0
 10
-25.51753456784547
 20
1.404754068307352
 30
0.0
 10
-25.51744056591127
 20
1.40543887900815
 30
0.0
 10
-25.51734656397708
 20
1.406123689708948
 30
0.0
 10
-25.51722895350051
 20
1.406804843021618
 30
0.0
 10
-25.51711134302394
 20
1.407485996334287
 30
0.0
 10
-25.51697026449198
 20
1.408162678613781
 30
0.0
 10
-25.51682918596002
 20
1.408839360893274
 30
0.0
 10
-25.51666480789252
 20
1.409510763835243
 30
0.0
 10
-25.51650042982502
 20
1.410182166777212
 30
0.0
 10
-25.51631294857337
 20
1.410847488383534
 30
0.0
 10
-25.51612546732172
 20
1.411512809989856
 30
0.0
 10
-25.51591510683431
 20
1.41217125552663
 30
0.0
 10
-25.5157047463469
 20
1.412829701063404
 30
0.0
 10
-25.51547175790163
 20
1.413480484010269
 30
0.0
 10
-25.51523876945636
 20
1.414131266957134
 30
0.0
 10
-25.51498343136046
 20
1.414773609946776
 30
0.0
 10
-25.51472809326456
 20
1.415415952936417
 30
0.0
 10
-25.51445071052216
 20
1.416049088683142
 30
0.0
 10
-25.51417332777977
 20
1.416682224429868
 30
0.0
 10
-25.51387423172758
 20
1.417305396646136
 30
0.0
 10
-25.5135751356754
 20
1.417928568862403
 30
0.0
 10
-25.51325468358691
 20
1.418541033162217
 30
0.0
 10
-25.51293423149844
 20
1.419153497462031
 30
0.0
 10
-25.51259280615716
 20
1.419754522250118
 30
0.0
 10
-25.51225138081589
 20
1.420355547038205
 30
0.0
 10
-25.51188939005811
 20
1.420944414383914
 30
0.0
 10
-25.51152739930033
 20
1.421533281729623
 30
0.0
 10
-25.51114527552794
 20
1.422109288224499
 30
0.0
 10
-25.51076315175556
 20
1.422685294719376
 30
0.0
 10
-25.51036135141958
 20
1.423247752317391
 30
0.0
 10
-25.5099595510836
 20
1.423810209915406
 30
0.0
 10
-25.50953855413889
 20
1.424358446754837
 30
0.0
 10
-25.50911755719419
 20
1.424906683594268
 30
0.0
 10
-25.50867786652619
 20
1.425440044800242
 30
0.0
 10
-25.5082381758582
 20
1.425973406006216
 30
0.0
 10
-25.5077803166822
 20
1.426491254472967
 30
0.0
 10
-25.50732245750621
 20
1.427009102939718
 30
0.0
 10
-25.50684697673998
 20
1.427510820091615
 30
0.0
 10
-25.50637149597375
 20
1.428012537243512
 30
0.0
 10
-25.50587896158424
 20
1.428497523773956
 30
0.0
 10
-25.50538642719474
 20
1.4289825103044
 30
0.0
 10
-25.50487742751964
 20
1.429450186891702
 30
0.0
 10
-25.50436842784454
 20
1.429917863479003
 30
0.0
 10
-25.5038435708895
 20
1.430367671478387
 30
0.0
 10
-25.50331871393447
 20
1.430817479477771
 30
0.0
 10
-25.50277862664684
 20
1.431248881588687
 30
0.0
 10
-25.50223853935921
 20
1.431680283699602
 30
0.0
 10
-25.50168386687913
 20
1.432092764607531
 30
0.0
 10
-25.50112919439906
 20
1.43250524551546
 30
0.0
 10
-25.50056059928885
 20
1.432898312507469
 30
0.0
 10
-25.49999200417864
 20
1.433291379499477
 30
0.0
 10
-25.49941016563134
 20
1.433664563052764
 30
0.0
 10
-25.49882832708405
 20
1.434037746606051
 30
0.0
 10
-25.49823394011215
 20
1.4343906009488
 30
0.0
 10
-25.49763955314026
 20
1.434743455291549
 30
0.0
 10
-25.49703332774546
 20
1.435075558935407
 30
0.0
 10
-25.49642710235066
 20
1.435407662579264
 30
0.0
 10
-25.4958097626758
 20
1.435718618822813
 30
0.0
 10
-25.49519242300094
 20
1.436029575066361
 30
0.0
 10
-25.49456470646497
 20
1.436319012468982
 30
0.0
 10
-25.49393698992901
 20
1.436608449871604
 30
0.0
 10
-25.49329964634618
 20
1.436876022697171
 30
0.0
 10
-25.49266230276335
 20
1.437143595522738
 30
0.0
 10
-25.49201609344749
 20
1.437388984152597
 30
0.0
 10
-25.49136988413164
 20
1.437634372782456
 30
0.0
 10
-25.49071558098683
 20
1.437857284097218
 30
0.0
 10
-25.49006127784202
 20
1.43808019541198
 30
0.0
 10
-25.48939966244047
 20
1.438280363141653
 30
0.0
 10
-25.48873804703893
 20
1.438480530871326
 30
0.0
 10
-25.48806990968745
 20
1.438657715913378
 30
0.0
 10
-25.48740177233598
 20
1.438834900955429
 30
0.0
 10
-25.48672791113192
 20
1.438988891660399
 30
0.0
 10
-25.48605404992786
 20
1.439142882365368
 30
0.0
 10
-25.48537526980574
 20
1.439273494789681
 30
0.0
 10
-25.48469648968363
 20
1.439404107213994
 30
0.0
 10
-25.48401360145371
 20
1.439511185339689
 30
0.0
 10
-25.4833307132238
 20
1.439618263465384
 30
0.0
 10
-25.4826445326035
 20
1.439701679386474
 30
0.0
 10
-25.48195835198321
 20
1.439785095307563
 30
0.0
 10
-25.48126969862275
 20
1.439844749382822
 30
0.0
 10
-25.4805810452623
 20
1.439904403458081
 30
0.0
 10
-25.47989074176562
 20
1.439940224430066
 30
0.0
 10
-25.47920043826895
 20
1.439976045402051
 30
0.0
 10
-25.47850930921108
 20
1.439987990482222
 30
0.0
 10
-25.47781818015322
 20
1.439999935562394
 30
0.0
 10
-25.45314318015322
 20
1.440000022700247
 30
0.0
 10
-25.42846818015322
 20
1.4400001098381
 30
0.0
 10
-25.4281232844923
 20
1.44000605929142
 30
0.0
 10
-25.42777838883138
 20
1.44001200874474
 30
0.0
 10
-25.42743390356084
 20
1.440029850025461
 30
0.0
 10
-25.4270894182903
 20
1.440047691306182
 30
0.0
 10
-25.4267457533122
 20
1.440077403185014
 30
0.0
 10
-25.4264020883341
 20
1.440107115063847
 30
0.0
 10
-25.42605965257443
 20
1.440148662186709
 30
0.0
 10
-25.42571721681477
 20
1.440190209309572
 30
0.0
 10
-25.42537641773689
 20
1.44024354223966
 30
0.0
 10
-25.42503561865901
 20
1.440296875169748
 30
0.0
 10
-25.42469686177878
 20
1.440361930446357
 30
0.0
 10
-25.42435810489855
 20
1.440426985722965
 30
0.0
 10
-25.42402179330184
 20
1.440503685937003
 30
0.0
 10
-25.42368548170513
 20
1.440580386151041
 30
0.0
 10
-25.42335201556816
 20
1.440668640037138
 30
0.0
 10
-25.42301854943119
 20
1.440756893923236
 30
0.0
 10
-25.42268832554439
 20
1.440856596468342
 30
0.0
 10
-25.42235810165759
 20
1.440956299013448
 30
0.0
 10
-25.42203151295342
 20
1.441067331581782
 30
0.0
 10
-25.42170492424926
 20
1.441178364150116
 30
0.0
 10
-25.42138235933473
 20
1.441300594624337
 30
0.0
 10
-25.4210597944202
 20
1.441422825098558
 30
0.0
 10
-25.42074163711438
 20
1.441556108036966
 30
0.0
 10
-25.42042347980856
 20
1.441689390975375
 30
0.0
 10
-25.42011010868594
 20
1.441833567784977
 30
0.0
 10
-25.41979673756333
 20
1.441977744594578
 30
0.0
 10
-25.41948852550333
 20
1.442132643719791
 30
0.0
 10
-25.41918031344334
 20
1.442287542845003
 30
0.0
 10
-25.41887762718664
 20
1.442452979971791
 30
0.0
 10
-25.41857494092994
 20
1.442618417098579
 30
0.0
 10
-25.41827814064205
 20
1.442794195373768
 30
0.0
 10
-25.41798134035417
 20
1.442969973648958
 30
0.0
 10
-25.41769077919694
 20
1.443155883914473
 30
0.0
 10
-25.41740021803971
 20
1.443341794179988
 30
0.0
 10
-25.41711624175103
 20
1.443537615221723
 30
0.0
 10
-25.41683226546236
 20
1.443733436263458
 30
0.0
 10
-25.41655521194483
 20
1.443938935074504
 30
0.0
 10
-25.4162781584273
 20
1.444144433885551
 30
0.0
 10
-25.41600835734612
 20
1.44435936594345
 30
0.0
 10
-25.41573855626495
 20
1.444574298001349
 30
0.0
 10
-25.41547632865568
 20
1.444798407559046
 30
0.0
 10
-25.41521410104641
 20
1.445022517116743
 30
0.0
 10
-25.41495975893293
 20
1.445255537506903
 30
0.0
 10
-25.41470541681946
 20
1.445488557897064
 30
0.0
 10
-25.41445926284275
 20
1.445730211849378
 30
0.0
 10
-25.41421310886605
 20
1.445971865801692
 30
0.0
 10
-25.41397543592404
 20
1.4462218657728
 30
0.0
 10
-25.41373776298204
 20
1.446471865743907
 30
0.0
 10
-25.41350885388109
 20
1.446729914259542
 30
0.0
 10
-25.41327994478015
 20
1.446987962775177
 30
0.0
 10
-25.41306007189857
 20
1.447253752784134
 30
0.0
 10
-25.41284019901699
 20
1.44751954279309
 30
0.0
 10
-25.41262962398089
 20
1.447792758032582
 30
0.0
 10
-25.4124190489448
 20
1.448065973272074
 30
0.0
 10
-25.41221802231684
 20
1.448346288644052
 30
0.0
 10
-25.41201699568888
 20
1.44862660401603
 30
0.0
 10
-25.41182575667007
 20
1.448913685974019
 30
0.0
 10
-25.41163451765127
 20
1.449200767932007
 30
0.0
 10
-25.41145329379639
 20
1.449494274877989
 30
0.0
 10
-25.41127206994151
 20
1.449787781823971
 30
0.0
 10
-25.41110107688831
 20
1.450087364514853
 30
0.0
 10
-25.41093008383513
 20
1.450386947205735
 30
0.0
 10
-25.39733205085093
 20
1.475193473602868
 30
0.0
 10
-25.38373401786675
 20
1.5
 30
0.0
  0
SPLINE
  5
4E
330
1F
100
AcDbEntity
  8
DEFAULT
100
AcDbSpline
210
0.0
220
0.0
230
1.0
 70
     8
 71
     2
 72
   190
 73
   187
 74
     0
 42
0.0000000001
 43
0.0000000001
 40
0.0
 40
0.0
 40
0.0
 40
1.0
 40
1.0
 40
2.0
 40
2.0
 40
3.0
 40
3.0
 40
4.0
 40
4.0
 40
5.0
 40
5.0
 40
6.0
 40
6.0
 40
7.0
 40
7.0
 40
8.0
 40
8.0
 40
9.0
 40
9.0
 40
10.0
 40
10.0
 40
11.0
 40
11.0
 40
12.0
 40
12.0
 40
13.0
 40
13.0
 40
14.0
 40
14.0
 40
15.0
 40
15.0
 40
16.0
 40
16.0
 40
17.0
 40
17.0
 40
18.0
 40
18.0
 40
19.0
 40
19.0
 40
20.0
 40
20.0
 40
21.0
 40
21.0
 40
22.0
 40
22.0
 40
23.0
 40
23.0
 40
24.0
 40
24.0
 40
25.0
 40
25.0
 40
26.0
 40
26.0
 40
27.0
 40
27.0
 40
28.0
 40
28.0
 40
29.0
 40
29.0
 40
30.0
 40
30.0
 40
31.0
 40
31.0
 40
32.0
 40
32.0
 40
33.0
 40
33.0
 40
34.0
 40
34.0
 40
35.0
 40
35.0
 40
36.0
 40
36.0
 40
37.0
 40
37.0
 40
38.0
 40
38.0
 40
39.0
 40
39.0
 40
40.0
 40
40.0
 40
41.0
 40
41.0
 40
42.0
 40
42.0
 40
43.0
 40
43.0
 40
44.0
 40
44.0
 40
45.0
 40
45.0
 40
46.0
 40
46.0
 40
47.0
 40
47.0
 40
48.0
 40
48.0
 40
49.0
 40
49.0
 40
50.0
 40
50.0
 40
51.0
 40
51.0
 40
52.0
 40
52.0
 40
53.0
 40
53.0
 40
54.0
 40
54.0
 40
55.0
 40
55.0
 40
56.0
 40
56.0
 40
57.0
 40
57.0
 40
58.0
 40
58.0
 40
59.0
 40
59.0
 40
60.0
 40
60.0
 40
61.0
 40
61.0
 40
62.0
 40
62.0
 40
63.0
 40
63.0
 40
64.0
 40
64.0
 40
65.0
 40
65.0
 40
66.0
 40
66.0
 40
67.0
 40
67.0
 40
68.0
 40
68.0
 40
69.0
 40
69.0
 40
70.0
 40
70.0
 40
71.0
 40
71.0
 40
72.0
 40
72.0
 40
73.0
 40
73.0
 40
74.0
 40
74.0
 40
75.0
 40
75.0
 40
76.0
 40
76.0
 40
77.0
 40
77.0
 40
78.0
 40
78.0
 40
79.0
 40
79.0
 40
80.0
 40
80.0
 40
81.0
 40
81.0
 40
82.0
 40
82.0
 40
83.0
 40
83.0
 40
84.0
 40
84.0
 40
85.0
 40
85.0
 40
86.0
 40
86.0
 40
87.0
 40
87.0
 40
88.0
 40
88.0
 40
89.0
 40
89.0
 40
90.0
 40
90.0
 40
91.0
 40
91.0
 40
92.0
 40
92.0
 40
93.0
 40
93.0
 40
93.0
 10
-25.29512318015322
 20
1.5
 30
0.0
 10
-25.27867126445838
 20
0.8717279977924679
 30
0.0
 10
-25.26221934876354
 20
0.2434559955849358
 30
0.0
 10
-25.26203345529137
 20
0.2391696345695783
 30
0.0
 10
-25.26184756181921
 20
0.2348832735542208
 30
0.0
 10
-25.26151467812634
 20
0.2306058168818522
 30
0.0
 10
-25.26118179443347
 20
0.2263283602094837
 30
0.0
 10
-25.26070231268291
 20
0.2220648470585885
 30
0.0
 10
-25.26022283093236
 20
0.2178013339076934
 30
0.0
 10
-25.25959731599112
 20
0.2135567870301975
 30
0.0
 10
-25.25897180104989
 20
0.2093122401527016
 30
0.0
 10
-25.25820098982349
 20
0.2050916599567774
 30
0.0
 10
-25.25743017859709
 20
0.2008710797608532
 30
0.0
 10
-25.25651497916143
 20
0.1966794384200478
 30
0.0
 10
-25.25559977972578
 20
0.1924877970792425
 30
0.0
 10
-25.25454127025738
 20
0.1883300326748686
 30
0.0
 10
-25.25348276078898
 20
0.1841722682704947
 30
0.0
 10
-25.25228218829477
 20
0.1800532789741844
 30
0.0
 10
-25.25108161580056
 20
0.1759342896778741
 30
0.0
 10
-25.24974039464883
 20
0.1718589279811498
 30
0.0
 10
-25.24839917349711
 20
0.1677835662844255
 30
0.0
 10
-25.24691888375127
 20
0.1637566332820853
 30
0.0
 10
-25.24543859400543
 20
0.1597297002797452
 30
0.0
 10
-25.24382097956257
 20
0.1557559400137978
 30
0.0
 10
-25.24220336511971
 20
0.1517821797478504
 30
0.0
 10
-25.24045033165615
 20
0.1478662736186626
 30
0.0
 10
-25.2386972981926
 20
0.1439503674894747
 30
0.0
 10
-25.23681091091886
 20
0.1400969287407156
 30
0.0
 10
-25.23492452364512
 20
0.1362434899919564
 30
0.0
 10
-25.23290700487293
 20
0.1324570582758355
 30
0.0
 10
-25.23088948610074
 20
0.1286706265597145
 30
0.0
 10
-25.228743212625
 20
0.1249556625889167
 30
0.0
 10
-25.22659693914927
 20
0.1212406986181188
 30
0.0
 10
-25.22432443944799
 20
0.1176015789107355
 30
0.0
 10
-25.22205193974672
 20
0.1139624592033522
 30
0.0
 10
-25.21965589100227
 20
0.1104034709270013
 30
0.0
 10
-25.21725984225782
 20
0.1068444826506504
 30
0.0
 10
-25.21474306720301
 20
0.1033698185718571
 30
0.0
 10
-25.2122262921482
 20
0.0998951544930637
 30
0.0
 10
-25.20959175574087
 20
0.0965089080378536
 30
0.0
 10
-25.20695721933354
 20
0.0931226615826436
 30
0.0
 10
-25.20420802526361
 20
0.0898288220141673
 30
0.0
 10
-25.20145883119369
 20
0.0865349824456909
 30
0.0
 10
-25.19859821822678
 20
0.0833374301645593
 30
0.0
 10
-25.19573760525989
 20
0.0801398778834277
 30
0.0
 10
-25.1927689434218
 20
0.0770423798562971
 30
0.0
 10
-25.18980028158372
 20
0.0739448818291664
 30
0.0
 10
-25.18672706819027
 20
0.0709510871509567
 30
0.0
 10
-25.18365385479682
 20
0.0679572924727471
 30
0.0
 10
-25.18047971033372
 20
0.0650707280677234
 30
0.0
 10
-25.17730556587062
 20
0.0621841636626997
 30
0.0
 10
-25.17403422972829
 20
0.0594082301294788
 30
0.0
 10
-25.17076289358597
 20
0.0566322965962579
 30
0.0
 10
-25.16739821965422
 20
0.0539702642016378
 30
0.0
 10
-25.16403354572247
 20
0.0513082318070176
 30
0.0
 10
-25.16057949785034
 20
0.048763236633347
 30
0.0
 10
-25.15712544997822
 20
0.0462182414596765
 30
0.0
 10
-25.15358609730422
 20
0.0437932817103049
 30
0.0
 10
-25.15004674463023
 20
0.0413683219609333
 30
0.0
 10
-25.14642625678862
 20
0.0390662544280929
 30
0.0
 10
-25.14280576894702
 20
0.0367641868952526
 30
0.0
 10
-25.13910841115562
 20
0.0345877235945335
 30
0.0
 10
-25.13541105336423
 20
0.0324112602938144
 30
0.0
 10
-25.13164118139968
 20
0.0303629652691981
 30
0.0
 10
-25.12787130943513
 20
0.0283146702445819
 30
0.0
 10
-25.12403336450142
 20
0.0263969565477973
 30
0.0
 10
-25.12019541956772
 20
0.0244792428510128
 30
0.0
 10
-25.11629392306415
 20
0.0226943696987722
 30
0.0
 10
-25.11239242656058
 20
0.0209094965465316
 30
0.0
 10
-25.10843197475514
 20
0.0192595666589968
 30
0.0
 10
-25.10447152294971
 20
0.0176096367714621
 30
0.0
 10
-25.10045678156436
 20
0.0160965938950756
 30
0.0
 10
-25.09644204017902
 20
0.0145835510186891
 30
0.0
 10
-25.0923777388931
 20
0.0132091776362892
 30
0.0
 10
-25.08831343760718
 20
0.0118348042538892
 30
0.0
 10
-25.08420436448545
 20
0.0106007194848049
 30
0.0
 10
-25.08009529136373
 20
0.0093666347157205
 30
0.0
 10
-25.07594628721569
 20
0.0082742924083232
 30
0.0
 10
-25.07179728306766
 20
0.0071819501009258
 30
0.0
 10
-25.06761323574467
 20
0.0062326371198817
 30
0.0
 10
-25.06342918842168
 20
0.0052833241388376
 30
0.0
 10
-25.05921502705871
 20
0.0044781588490807
 30
0.0
 10
-25.05500086569575
 20
0.0036729935593239
 30
0.0
 10
-25.05076155490445
 20
0.0030129245085348
 30
0.0
 10
-25.04652224411316
 20
0.0023528554577456
 30
0.0
 10
-25.0422627781332
 20
0.0018386602588876
 30
0.0
 10
-25.03800331215324
 20
0.0013244650600296
 30
0.0
 10
-25.03372870896865
 20
0.0009567494752603
 30
0.0
 10
-25.02945410578406
 20
0.000589033890491
 30
0.0
 10
-25.0251694012117
 20
0.0003682311175271
 30
0.0
 10
-25.02088469663934
 20
0.0001474283445631
 30
0.0
 10
-25.01659493839628
 20
0.0000737985063392
 30
0.0
 10
-25.01230518015322
 20
0.0000001686681153
 30
0.0
 10
-24.04512318015322
 20
0.0000001686681144
 30
0.0
 10
-23.07794118015322
 20
0.0000001686681135
 30
0.0
 10
-23.07365142191016
 20
0.0000737985063374
 30
0.0
 10
-23.0693616636671
 20
0.0001474283445613
 30
0.0
 10
-23.06507695909474
 20
0.0003682311175253
 30
0.0
 10
-23.06079225452238
 20
0.0005890338904892
 30
0.0
 10
-23.05651765133778
 20
0.0009567494752585
 30
0.0
 10
-23.0522430481532
 20
0.0013244650600278
 30
0.0
 10
-23.04798358217324
 20
0.0018386602588858
 30
0.0
 10
-23.04372411619328
 20
0.0023528554577438
 30
0.0
 10
-23.03948480540199
 20
0.003012924508533
 30
0.0
 10
-23.0352454946107
 20
0.0036729935593222
 30
0.0
 10
-23.03103133324773
 20
0.004478158849079
 30
0.0
 10
-23.02681717188476
 20
0.0052833241388358
 30
0.0
 10
-23.02263312456177
 20
0.00623263711988
 30
0.0
 10
-23.01844907723879
 20
0.0071819501009241
 30
0.0
 10
-23.01430007309075
 20
0.0082742924083215
 30
0.0
 10
-23.01015106894271
 20
0.0093666347157188
 30
0.0
 10
-23.00604199582098
 20
0.0106007194848032
 30
0.0
 10
-23.00193292269926
 20
0.0118348042538875
 30
0.0
 10
-22.99786862141334
 20
0.0132091776362875
 30
0.0
 10
-22.99380432012742
 20
0.0145835510186875
 30
0.0
 10
-22.98978957874208
 20
0.016096593895074
 30
0.0
 10
-22.98577483735674
 20
0.0176096367714604
 30
0.0
 10
-22.9818143855513
 20
0.0192595666589951
 30
0.0
 10
-22.97785393374586
 20
0.0209094965465299
 30
0.0
 10
-22.97395243724229
 20
0.0226943696987706
 30
0.0
 10
-22.97005094073872
 20
0.0244792428510112
 30
0.0
 10
-22.96621299580501
 20
0.0263969565477958
 30
0.0
 10
-22.96237505087131
 20
0.0283146702445803
 30
0.0
 10
-22.95860517890676
 20
0.0303629652691965
 30
0.0
 10
-22.95483530694221
 20
0.0324112602938127
 30
0.0
 10
-22.95113794915081
 20
0.0345877235945319
 30
0.0
 10
-22.94744059135942
 20
0.036764186895251
 30
0.0
 10
-22.94382010351781
 20
0.0390662544280914
 30
0.0
 10
-22.94019961567621
 20
0.0413683219609318
 30
0.0
 10
-22.93666026300222
 20
0.0437932817103034
 30
0.0
 10
-22.93312091032823
 20
0.046218241459675
 30
0.0
 10
-22.9296668624561
 20
0.0487632366333456
 30
0.0
 10
-22.92621281458397
 20
0.0513082318070161
 30
0.0
 10
-22.92284814065222
 20
0.0539702642016363
 30
0.0
 10
-22.91948346672048
 20
0.0566322965962565
 30
0.0
 10
-22.91621213057815
 20
0.0594082301294774
 30
0.0
 10
-22.91294079443582
 20
0.0621841636626983
 30
0.0
 10
-22.90976664997272
 20
0.065070728067722
 30
0.0
 10
-22.90659250550962
 20
0.0679572924727458
 30
0.0
 10
-22.90351929211617
 20
0.0709510871509555
 30
0.0
 10
-22.90044607872272
 20
0.0739448818291651
 30
0.0
 10
-22.89747741688463
 20
0.0770423798562958
 30
0.0
 10
-22.89450875504655
 20
0.0801398778834265
 30
0.0
 10
-22.89164814207965
 20
0.0833374301645581
 30
0.0
 10
-22.88878752911275
 20
0.0865349824456898
 30
0.0
 10
-22.88603833504282
 20
0.0898288220141661
 30
0.0
 10
-22.8832891409729
 20
0.0931226615826425
 30
0.0
 10
-22.88065460456557
 20
0.0965089080378524
 30
0.0
 10
-22.87802006815824
 20
0.0998951544930624
 30
0.0
 10
-22.87550329310343
 20
0.1033698185718558
 30
0.0
 10
-22.87298651804862
 20
0.1068444826506492
 30
0.0
 10
-22.87059046930417
 20
0.1104034709270002
 30
0.0
 10
-22.86819442055972
 20
0.1139624592033512
 30
0.0
 10
-22.86592192085844
 20
0.1176015789107345
 30
0.0
 10
-22.86364942115717
 20
0.1212406986181178
 30
0.0
 10
-22.86150314768143
 20
0.1249556625889157
 30
0.0
 10
-22.8593568742057
 20
0.1286706265597136
 30
0.0
 10
-22.85733935543351
 20
0.1324570582758345
 30
0.0
 10
-22.85532183666133
 20
0.1362434899919555
 30
0.0
 10
-22.85343544938759
 20
0.1400969287407148
 30
0.0
 10
-22.85154906211385
 20
0.143950367489474
 30
0.0
 10
-22.84979602865029
 20
0.1478662736186618
 30
0.0
 10
-22.84804299518673
 20
0.1517821797478495
 30
0.0
 10
-22.84642538074387
 20
0.1557559400137969
 30
0.0
 10
-22.84480776630101
 20
0.1597297002797444
 30
0.0
 10
-22.84332747655517
 20
0.1637566332820846
 30
0.0
 10
-22.84184718680933
 20
0.1677835662844249
 30
0.0
 10
-22.8405059656576
 20
0.1718589279811492
 30
0.0
 10
-22.83916474450588
 20
0.1759342896778735
 30
0.0
 10
-22.83796417201167
 20
0.1800532789741839
 30
0.0
 10
-22.83676359951746
 20
0.1841722682704942
 30
0.0
 10
-22.83570509004906
 20
0.1883300326748681
 30
0.0
 10
-22.83464658058066
 20
0.192487797079242
 30
0.0
 10
-22.833731381145
 20
0.1966794384200474
 30
0.0
 10
-22.83281618170935
 20
0.2008710797608529
 30
0.0
 10
-22.83204537048294
 20
0.2050916599567771
 30
0.0
 10
-22.83127455925655
 20
0.2093122401527014
 30
0.0
 10
-22.83064904431531
 20
0.2135567870301972
 30
0.0
 10
-22.83002352937408
 20
0.217801333907693
 30
0.0
 10
-22.82954404762352
 20
0.2220648470585881
 30
0.0
 10
-22.82906456587297
 20
0.2263283602094833
 30
0.0
 10
-22.8287316821801
 20
0.2306058168818519
 30
0.0
 10
-22.82839879848723
 20
0.2348832735542205
 30
0.0
 10
-22.82821290501506
 20
0.2391696345695781
 30
0.0
 10
-22.8280270115429
 20
0.2434559955849357
 30
0.0
 10
-22.81157509584806
 20
0.8717279977924679
 30
0.0
 10
-22.79512318015322
 20
1.5
 30
0.0
  0
ENDSEC
  0
SECTION
  2
OBJECTS
  0
DICTIONARY
  5
C
330
0
100
AcDbDictionary
281
     1
  3
ACAD_GROUP
350
D
  3
ACAD_LAYOUT
350
1A
  3
ACAD_MLEADERSTYLE
350
50
  3
ACAD_MLINESTYLE
350
17
  3
ACAD_PLOTSETTINGS
350
19
  3
ACAD_PLOTSTYLENAME
350
E
  3
ACAD_TABLESTYLE
350
4F
  3
ACAD_VISUALSTYLE
350
2A
  0
DICTIONARY
  5
D
102
{ACAD_REACTORS
330
C
102
}
330
C
100
AcDbDictionary
281
     1
  0
DICTIONARY
  5
1A
102
{ACAD_REACTORS
330
C
102
}
330
C
100
AcDbDictionary
281
     1
  3
Layout1
350
1E
  3
Layout2
350
26
  3
Model
350
22
  0
DICTIONARY
  5
50
102
{ACAD_REACTORS
330
C
102
}
330
C
100
AcDbDictionary
281
     1
  0
DICTIONARY
  5
17
102
{ACAD_REACTORS
330
C
102
}
330
C
100
AcDbDictionary
281
     1
  3
Standard
350
18
  0
DICTIONARY
  5
19
102
{ACAD_REACTORS
330
C
102
}
330
C
100
AcDbDictionary
281
     1
  0
ACDBDICTIONARYWDFLT
  5
E
102
{ACAD_REACTORS
330
C
102
}
330
C
100
AcDbDictionary
281
     1
  3
Normal
350
F
100
AcDbDictionaryWithDefault
340
F
  0
DICTIONARY
  5
4F
102
{ACAD_REACTORS
330
C
102
}
330
C
100
AcDbDictionary
281
     1
  0
DICTIONARY
  5
2A
102
{ACAD_REACTORS
330
C
102
}
330
C
100
AcDbDictionary
281
     1
  3
2dWireframe
350
2F
  3
3D Hidden
350
31
  3
3dWireframe
350
30
  3
Basic
350
32
  3
Brighten
350
36
  3
ColorChange
350
3A
  3
Conceptual
350
34
  3
Dim
350
35
  3
Facepattern
350
39
  3
Flat
350
2B
  3
FlatWithEdges
350
2C
  3
Gouraud
350
2D
  3
GouraudWithEdges
350
2E
  3
Linepattern
350
38
  3
Realistic
350
33
  3
Thicken
350
37
  0
LAYOUT
  5
1E
102
{ACAD_REACTORS
330
1A
102
}
330
1A
100
AcDbPlotSettings
  1

  2
none_device
  4

  6

 40
0.0
 41
0.0
 42
0.0
 43
0.0
 44
0.0
 45
0.0
 46
0.0
 47
0.0
 48
0.0
 49
0.0
140
0.0
141
0.0
142
1.0
143
1.0
 70
   688
 72
     0
 73
     0
 74
     5
  7

 75
    16
 76
     0
 77
     2
 78
   300
147
1.0
148
0.0
149
0.0
100
AcDbLayout
  1
Layout1
 70
     1
 71
     1
 10
0.0
 20
0.0
 11
12.0
 21
9.0
 12
0.0
 22
0.0
 32
0.0
 14
1.000000000000000E+20
 24
1.000000000000000E+20
 34
1.000000000000000E+20
 15
-1.000000000000000E+20
 25
-1.000000000000000E+20
 35
-1.000000000000000E+20
146
0.0
 13
0.0
 23
0.0
 33
0.0
 16
1.0
 26
0.0
 36
0.0
 17
0.0
 27
1.0
 37
0.0
 76
     0
330
1B
  0
LAYOUT
  5
26
102
{ACAD_REACTORS
330
1A
102
}
330
1A
100
AcDbPlotSettings
  1

  2
none_device
  4

  6

 40
0.0
 41
0.0
 42
0.0
 43
0.0
 44
0.0
 45
0.0
 46
0.0
 47
0.0
 48
0.0
 49
0.0
140
0.0
141
0.0
142
1.0
143
1.0
 70
   688
 72
     0
 73
     0
 74
     5
  7

 75
    16
 76
     0
 77
     2
 78
   300
147
1.0
148
0.0
149
0.0
100
AcDbLayout
  1
Layout2
 70
     1
 71
     2
 10
0.0
 20
0.0
 11
0.0
 21
0.0
 12
0.0
 22
0.0
 32
0.0
 14
0.0
 24
0.0
 34
0.0
 15
0.0
 25
0.0
 35
0.0
146
0.0
 13
0.0
 23
0.0
 33
0.0
 16
1.0
 26
0.0
 36
0.0
 17
0.0
 27
1.0
 37
0.0
 76
     0
330
23
  0
LAYOUT
  5
22
102
{ACAD_REACTORS
330
1A
102
}
330
1A
100
AcDbPlotSettings
  1

  2
none_device
  4

  6

 40
0.0
 41
0.0
 42
0.0
 43
0.0
 44
0.0
 45
0.0
 46
0.0
 47
0.0
 48
0.0
 49
0.0
140
0.0
141
0.0
142
1.0
143
1.0
 70
  1712
 72
     0
 73
     0
 74
     0
  7

 75
     0
 76
     0
 77
     2
 78
   300
147
1.0
148
0.0
149
0.0
100
AcDbLayout
  1
Model
 70
     1
 71
     0
 10
0.0
 20
0.0
 11
12.0
 21
9.0
 12
0.0
 22
0.0
 32
0.0
 14
-29.00012318015322
 24
-0.0000003311605639
 34
0.0
 15
56.125
 25
49.25
 35
0.0
146
0.0
 13
0.0
 23
0.0
 33
0.0
 16
1.0
 26
0.0
 36
0.0
 17
0.0
 27
1.0
 37
0.0
 76
     0
330
1F
331
29
  0
MLINESTYLE
  5
18
102
{ACAD_REACTORS
330
17
102
}
330
17
100
AcDbMlineStyle
  2
Standard
 70
     0
  3

 62
   256
 51
90.0
 52
90.0
 71
     2
 49
0.5
 62
   256
  6
BYLAYER
 49
-0.5
 62
   256
  6
BYLAYER
  0
ACDBPLACEHOLDER
  5
F
102
{ACAD_REACTORS
330
E
102
}
330
E
  0
VISUALSTYLE
  5
2F
102
{ACAD_REACTORS
330
2A
102
}
330
2A
100
AcDbVisualStyle
  2
2dWireframe
 70
     4
 71
     0
 72
     2
 73
     0
 90
        0
 40
-0.6
 41
-30.0
 62
     5
 63
     7
421
 16777215
 74
     1
 91
        4
 64
     7
 65
   257
 75
     1
175
     1
 42
1.0
 92
        0
 66
   257
 43
1.0
 76
     1
 77
     6
 78
     2
 67
     7
 79
     5
170
     0
171
     0
290
     0
174
     0
 93
        1
 44
0.0
173
     0
291
     0
 45
0.0
1001
ACAD
1000
AcDbSavedByObjectVersion
1070
     0
  0
VISUALSTYLE
  5
31
102
{ACAD_REACTORS
330
2A
102
}
330
2A
100
AcDbVisualStyle
  2
3D Hidden
 70
     6
 71
     1
 72
     2
 73
     2
 90
        0
 40
-0.6
 41
-30.0
 62
     5
 63
     7
421
 16777215
 74
     2
 91
        2
 64
     7
 65
   257
 75
     2
175
     1
 42
40.0
 92
        0
 66
   257
 43
1.0
 76
     1
 77
     6
 78
     2
 67
     7
 79
     3
170
     0
171
     0
290
     0
174
     0
 93
        1
 44
0.0
173
     0
291
     0
 45
0.0
1001
ACAD
1000
AcDbSavedByObjectVersion
1070
     0
  0
VISUALSTYLE
  5
30
102
{ACAD_REACTORS
330
2A
102
}
330
2A
100
AcDbVisualStyle
  2
3dWireframe
 70
     5
 71
     0
 72
     2
 73
     0
 90
        0
 40
-0.6
 41
-30.0
 62
     5
 63
     7
421
 16777215
 74
     1
 91
        4
 64
     7
 65
   257
 75
     1
175
     1
 42
1.0
 92
        0
 66
   257
 43
1.0
 76
     1
 77
     6
 78
     2
 67
     7
 79
     5
170
     0
171
     0
290
     0
174
     0
 93
        1
 44
0.0
173
     0
291
     0
 45
0.0
1001
ACAD
1000
AcDbSavedByObjectVersion
1070
     0
  0
VISUALSTYLE
  5
32
102
{ACAD_REACTORS
330
2A
102
}
330
2A
100
AcDbVisualStyle
  2
Basic
 70
     7
 71
     1
 72
     0
 73
     1
 90
        0
 40
-0.6
 41
-30.0
 62
     5
 63
     7
421
 16777215
 74
     0
 91
        4
 64
     7
 65
   257
 75
     1
175
     1
 42
1.0
 92
        8
 66
     7
 43
1.0
 76
     1
 77
     6
 78
     2
 67
     7
 79
     5
170
     0
171
     0
290
     0
174
     0
 93
        1
 44
0.0
173
     0
291
     1
 45
0.0
1001
ACAD
1000
AcDbSavedByObjectVersion
1070
     0
  0
VISUALSTYLE
  5
36
102
{ACAD_REACTORS
330
2A
102
}
330
2A
100
AcDbVisualStyle
  2
Brighten
 70
    12
 71
     2
 72
     2
 73
     0
 90
        0
 40
-0.6
 41
-30.0
 62
     5
 63
     7
421
 16777215
 74
     1
 91
        4
 64
     7
 65
   257
 75
     1
175
     1
 42
1.0
 92
        8
 66
     7
 43
1.0
 76
     1
 77
     6
 78
     2
 67
     7
 79
     5
170
     0
171
     0
290
     0
174
     0
 93
        1
 44
50.0
173
     0
291
     1
 45
0.0
1001
ACAD
1000
AcDbSavedByObjectVersion
1070
     0
  0
VISUALSTYLE
  5
3A
102
{ACAD_REACTORS
330
2A
102
}
330
2A
100
AcDbVisualStyle
  2
ColorChange
 70
    16
 71
     2
 72
     2
 73
     3
 90
        0
 40
-0.6
 41
-30.0
 62
     5
 63
     8
421
  8421504
 74
     1
 91
        4
 64
     7
 65
   257
 75
     1
175
     1
 42
1.0
 92
        8
 66
     8
424
  8421504
 43
1.0
 76
     1
 77
     6
 78
     2
 67
     7
 79
     5
170
     0
171
     0
290
     0
174
     0
 93
        1
 44
0.0
173
     0
291
     1
 45
0.0
1001
ACAD
1000
AcDbSavedByObjectVersion
1070
     0
  0
VISUALSTYLE
  5
34
102
{ACAD_REACTORS
330
2A
102
}
330
2A
100
AcDbVisualStyle
  2
Conceptual
 70
     9
 71
     3
 72
     2
 73
     0
 90
        0
 40
-0.6
 41
-30.0
 62
     5
 63
     7
421
 16777215
 74
     2
 91
        2
 64
     7
 65
   257
 75
     1
175
     1
 42
40.0
 92
        8
 66
     7
 43
1.0
 76
     1
 77
     6
 78
     2
 67
     7
 79
     3
170
     0
171
     0
290
     0
174
     0
 93
        1
 44
0.0
173
     0
291
     0
 45
0.0
1001
ACAD
1000
AcDbSavedByObjectVersion
1070
     0
  0
VISUALSTYLE
  5
35
102
{ACAD_REACTORS
330
2A
102
}
330
2A
100
AcDbVisualStyle
  2
Dim
 70
    11
 71
     2
 72
     2
 73
     0
 90
        0
 40
-0.6
 41
-30.0
 62
     5
 63
     7
421
 16777215
 74
     1
 91
        4
 64
     7
 65
   257
 75
     1
175
     1
 42
1.0
 92
        8
 66
     7
 43
1.0
 76
     1
 77
     6
 78
     2
 67
     7
 79
     5
170
     0
171
     0
290
     0
174
     0
 93
        1
 44
-50.0
173
     0
291
     1
 45
0.0
1001
ACAD
1000
AcDbSavedByObjectVersion
1070
     0
  0
VISUALSTYLE
  5
39
102
{ACAD_REACTORS
330
2A
102
}
330
2A
100
AcDbVisualStyle
  2
Facepattern
 70
    15
 71
     2
 72
     2
 73
     0
 90
        0
 40
-0.6
 41
-30.0
 62
     5
 63
     7
421
 16777215
 74
     1
 91
        4
 64
     7
 65
   257
 75
     1
175
     1
 42
1.0
 92
        8
 66
     7
 43
1.0
 76
     1
 77
     6
 78
     2
 67
     7
 79
     5
170
     0
171
     0
290
     0
174
     0
 93
        1
 44
0.0
173
     0
291
     1
 45
0.0
1001
ACAD
1000
AcDbSavedByObjectVersion
1070
     0
  0
VISUALSTYLE
  5
2B
102
{ACAD_REACTORS
330
2A
102
}
330
2A
100
AcDbVisualStyle
  2
Flat
 70
     0
 71
     2
 72
     1
 73
     1
 90
        2
 40
-0.6
 41
30.0
 62
     5
 63
     7
421
 16777215
 74
     0
 91
        4
 64
     7
 65
   257
 75
     1
175
     1
 42
1.0
 92
        8
 66
     7
 43
1.0
 76
     1
 77
     6
 78
     2
 67
     7
 79
     5
170
     0
171
     0
290
     0
174
     0
 93
       13
 44
0.0
173
     0
291
     1
 45
0.0
1001
ACAD
1000
AcDbSavedByObjectVersion
1070
     0
  0
VISUALSTYLE
  5
2C
102
{ACAD_REACTORS
330
2A
102
}
330
2A
100
AcDbVisualStyle
  2
FlatWithEdges
 70
     1
 71
     2
 72
     1
 73
     1
 90
        2
 40
-0.6
 41
30.0
 62
     5
 63
     7
421
 16777215
 74
     1
 91
        4
 64
     7
 65
   257
 75
     1
175
     1
 42
1.0
 92
        0
 66
   257
 43
1.0
 76
     1
 77
     6
 78
     2
 67
     7
 79
     5
170
     0
171
     0
290
     0
174
     0
 93
       13
 44
0.0
173
     0
291
     1
 45
0.0
1001
ACAD
1000
AcDbSavedByObjectVersion
1070
     0
  0
VISUALSTYLE
  5
2D
102
{ACAD_REACTORS
330
2A
102
}
330
2A
100
AcDbVisualStyle
  2
Gouraud
 70
     2
 71
     2
 72
     2
 73
     1
 90
        2
 40
-0.6
 41
30.0
 62
     5
 63
     7
421
 16777215
 74
     0
 91
        4
 64
     7
 65
   257
 75
     1
175
     1
 42
1.0
 92
        0
 66
     7
 43
1.0
 76
     1
 77
     6
 78
     2
 67
     7
 79
     5
170
     0
171
     0
290
     0
174
     0
 93
       13
 44
0.0
173
     0
291
     1
 45
0.0
1001
ACAD
1000
AcDbSavedByObjectVersion
1070
     0
  0
VISUALSTYLE
  5
2E
102
{ACAD_REACTORS
330
2A
102
}
330
2A
100
AcDbVisualStyle
  2
GouraudWithEdges
 70
     3
 71
     2
 72
     2
 73
     1
 90
        2
 40
-0.6
 41
30.0
 62
     5
 63
     7
421
 16777215
 74
     1
 91
        4
 64
     7
 65
   257
 75
     1
175
     1
 42
1.0
 92
        0
 66
   257
 43
1.0
 76
     1
 77
     6
 78
     2
 67
     7
 79
     5
170
     0
171
     0
290
     0
174
     0
 93
       13
 44
0.0
173
     0
291
     1
 45
0.0
1001
ACAD
1000
AcDbSavedByObjectVersion
1070
     0
  0
VISUALSTYLE
  5
38
102
{ACAD_REACTORS
330
2A
102
}
330
2A
100
AcDbVisualStyle
  2
Linepattern
 70
    14
 71
     2
 72
     2
 73
     0
 90
        0
 40
-0.6
 41
-30.0
 62
     5
 63
     7
421
 16777215
 74
     1
 91
        4
 64
     7
 65
   257
 75
     7
175
     7
 42
1.0
 92
        8
 66
     7
 43
1.0
 76
     1
 77
     6
 78
     2
 67
     7
 79
     5
170
     0
171
     0
290
     0
174
     0
 93
        1
 44
0.0
173
     0
291
     1
 45
0.0
1001
ACAD
1000
AcDbSavedByObjectVersion
1070
     0
  0
VISUALSTYLE
  5
33
102
{ACAD_REACTORS
330
2A
102
}
330
2A
100
AcDbVisualStyle
  2
Realistic
 70
     8
 71
     2
 72
     2
 73
     0
 90
        0
 40
-0.6
 41
-30.0
 62
     5
 63
     7
421
 16777215
 74
     1
 91
        0
 64
     7
 65
   257
 75
     1
175
     1
 42
1.0
 92
        8
 66
     8
424
  7895160
 43
1.0
 76
     1
 77
     6
 78
     2
 67
     7
 79
     5
170
     0
171
     0
290
     0
174
     0
 93
       13
 44
0.0
173
     0
291
     0
 45
0.0
1001
ACAD
1000
AcDbSavedByObjectVersion
1070
     0
  0
VISUALSTYLE
  5
37
102
{ACAD_REACTORS
330
2A
102
}
330
2A
100
AcDbVisualStyle
  2
Thicken
 70
    13
 71
     2
 72
     2
 73
     0
 90
        0
 40
-0.6
 41
-30.0
 62
     5
 63
     7
421
 16777215
 74
     1
 91
        4
 64
     7
 65
   257
 75
     1
175
     1
 42
1.0
 92
       12
 66
     7
 43
1.0
 76
     1
 77
     6
 78
     2
 67
     7
 79
     5
170
     0
171
     0
290
     0
174
     0
 93
        1
 44
0.0
173
     0
291
     1
 45
0.0
1001
ACAD
1000
AcDbSavedByObjectVersion
1070
     0
  0
ENDSEC
  0
EOF
