  0
SECTION
  2
HEADER
  9
$ACADVER
  1
AC1018
  9
$ACADMAINTVER
 70
     0
  9
$DWGCODEPAGE
  3
ANSI_1252
  9
$INSBASE
 10
0.0
 20
0.0
 30
0.0
  9
$EXTMIN
 10
-18.25015668408821
 20
-0.0000000000000018
 30
0.0
  9
$EXTMAX
 10
45.13619952735957
 20
53.75002997676624
 30
0.0
  9
$LIMMIN
 10
0.0
 20
0.0
  9
$LIMMAX
 10
12.0
 20
9.0
  9
$ORTHOMODE
 70
     0
  9
$REGENMODE
 70
     1
  9
$FILLMODE
 70
     1
  9
$QTEXTMODE
 70
     0
  9
$MIRRTEXT
 70
     1
  9
$LTSCALE
 40
0.0393700787401575
  9
$ATTMODE
 70
     1
  9
$TEXTSIZE
 40
0.2
  9
$TRACEWID
 40
0.05
  9
$TEXTSTYLE
  7
Standard
  9
$CLAYER
  8
DEFAULT
  9
$CELTYPE
  6
ByLayer
  9
$CECOLOR
 62
   256
  9
$CELTSCALE
 40
1.0
  9
$DISPSILH
 70
     0
  9
$DIMSCALE
 40
1.0
  9
$DIMASZ
 40
0.18
  9
$DIMEXO
 40
0.0625
  9
$DIMDLI
 40
0.38
  9
$DIMRND
 40
0.0
  9
$DIMDLE
 40
0.0
  9
$DIMEXE
 40
0.18
  9
$DIMTP
 40
0.0
  9
$DIMTM
 40
0.0
  9
$DIMTXT
 40
0.18
  9
$DIMCEN
 40
0.09
  9
$DIMTSZ
 40
0.0
  9
$DIMTOL
 70
     0
  9
$DIMLIM
 70
     0
  9
$DIMTIH
 70
     1
  9
$DIMTOH
 70
     1
  9
$DIMSE1
 70
     0
  9
$DIMSE2
 70
     0
  9
$DIMTAD
 70
     0
  9
$DIMZIN
 70
     0
  9
$DIMBLK
  1

  9
$DIMASO
 70
     1
  9
$DIMSHO
 70
     1
  9
$DIMPOST
  1

  9
$DIMAPOST
  1

  9
$DIMALT
 70
     0
  9
$DIMALTD
 70
     2
  9
$DIMALTF
 40
25.4
  9
$DIMLFAC
 40
1.0
  9
$DIMTOFL
 70
     0
  9
$DIMTVP
 40
0.0
  9
$DIMTIX
 70
     0
  9
$DIMSOXD
 70
     0
  9
$DIMSAH
 70
     0
  9
$DIMBLK1
  1

  9
$DIMBLK2
  1

  9
$DIMSTYLE
  2
Standard
  9
$DIMCLRD
 70
     0
  9
$DIMCLRE
 70
     0
  9
$DIMCLRT
 70
     0
  9
$DIMTFAC
 40
1.0
  9
$DIMGAP
 40
0.09
  9
$DIMJUST
 70
     0
  9
$DIMSD1
 70
     0
  9
$DIMSD2
 70
     0
  9
$DIMTOLJ
 70
     1
  9
$DIMTZIN
 70
     0
  9
$DIMALTZ
 70
     0
  9
$DIMALTTZ
 70
     0
  9
$DIMUPT
 70
     0
  9
$DIMDEC
 70
     4
  9
$DIMTDEC
 70
     4
  9
$DIMALTU
 70
     2
  9
$DIMALTTD
 70
     2
  9
$DIMTXSTY
  7
Standard
  9
$DIMAUNIT
 70
     0
  9
$DIMADEC
 70
     0
  9
$DIMALTRND
 40
0.0
  9
$DIMAZIN
 70
     0
  9
$DIMDSEP
 70
    46
  9
$DIMATFIT
 70
     3
  9
$DIMFRAC
 70
     0
  9
$DIMLDRBLK
  1

  9
$DIMLUNIT
 70
     2
  9
$DIMLWD
 70
    -2
  9
$DIMLWE
 70
    -2
  9
$DIMTMOVE
 70
     2
  9
$LUNITS
 70
     2
  9
$LUPREC
 70
     3
  9
$SKETCHINC
 40
0.1
  9
$FILLETRAD
 40
0.5
  9
$AUNITS
 70
     0
  9
$AUPREC
 70
     0
  9
$MENU
  1
.
  9
$ELEVATION
 40
0.0
  9
$PELEVATION
 40
0.0
  9
$THICKNESS
 40
0.0
  9
$LIMCHECK
 70
     0
  9
$CHAMFERA
 40
0.5
  9
$CHAMFERB
 40
0.5
  9
$CHAMFERC
 40
1.0
  9
$CHAMFERD
 40
0.0
  9
$SKPOLY
 70
     0
  9
$TDCREATE
 40
2456045.40524515
  9
$TDUCREATE
 40
2456045.571911817
  9
$TDUPDATE
 40
2456045.405245162
  9
$TDUUPDATE
 40
2456045.571911829
  9
$TDINDWG
 40
0.0000000116
  9
$TDUSRTIMER
 40
0.0000000116
  9
$USRTIMER
 70
     1
  9
$ANGBASE
 50
0.0
  9
$ANGDIR
 70
     0
  9
$PDMODE
 70
     0
  9
$PDSIZE
 40
0.0
  9
$PLINEWID
 40
0.0
  9
$SPLFRAME
 70
     0
  9
$SPLINETYPE
 70
     6
  9
$SPLINESEGS
 70
     8
  9
$HANDSEED
  5
51
  9
$SURFTAB1
 70
     6
  9
$SURFTAB2
 70
     6
  9
$SURFTYPE
 70
     6
  9
$SURFU
 70
     6
  9
$SURFV
 70
     6
  9
$UCSBASE
  2

  9
$UCSNAME
  2

  9
$UCSORG
 10
0.0
 20
0.0
 30
0.0
  9
$UCSXDIR
 10
1.0
 20
0.0
 30
0.0
  9
$UCSYDIR
 10
0.0
 20
1.0
 30
0.0
  9
$UCSORTHOREF
  2

  9
$UCSORTHOVIEW
 70
     0
  9
$UCSORGTOP
 10
0.0
 20
0.0
 30
0.0
  9
$UCSORGBOTTOM
 10
0.0
 20
0.0
 30
0.0
  9
$UCSORGLEFT
 10
0.0
 20
0.0
 30
0.0
  9
$UCSORGRIGHT
 10
0.0
 20
0.0
 30
0.0
  9
$UCSORGFRONT
 10
0.0
 20
0.0
 30
0.0
  9
$UCSORGBACK
 10
0.0
 20
0.0
 30
0.0
  9
$PUCSBASE
  2

  9
$PUCSNAME
  2

  9
$PUCSORG
 10
0.0
 20
0.0
 30
0.0
  9
$PUCSXDIR
 10
1.0
 20
0.0
 30
0.0
  9
$PUCSYDIR
 10
0.0
 20
1.0
 30
0.0
  9
$PUCSORTHOREF
  2

  9
$PUCSORTHOVIEW
 70
     0
  9
$PUCSORGTOP
 10
0.0
 20
0.0
 30
0.0
  9
$PUCSORGBOTTOM
 10
0.0
 20
0.0
 30
0.0
  9
$PUCSORGLEFT
 10
0.0
 20
0.0
 30
0.0
  9
$PUCSORGRIGHT
 10
0.0
 20
0.0
 30
0.0
  9
$PUCSORGFRONT
 10
0.0
 20
0.0
 30
0.0
  9
$PUCSORGBACK
 10
0.0
 20
0.0
 30
0.0
  9
$USERI1
 70
     0
  9
$USERI2
 70
     0
  9
$USERI3
 70
     0
  9
$USERI4
 70
     0
  9
$USERI5
 70
     0
  9
$USERR1
 40
0.0
  9
$USERR2
 40
0.0
  9
$USERR3
 40
0.0
  9
$USERR4
 40
0.0
  9
$USERR5
 40
0.0
  9
$WORLDVIEW
 70
     1
  9
$SHADEDGE
 70
     3
  9
$SHADEDIF
 70
    70
  9
$TILEMODE
 70
     1
  9
$MAXACTVP
 70
    64
  9
$PINSBASE
 10
0.0
 20
0.0
 30
0.0
  9
$PLIMCHECK
 70
     0
  9
$PEXTMIN
 10
1.000000000000000E+20
 20
1.000000000000000E+20
 30
1.000000000000000E+20
  9
$PEXTMAX
 10
-1.000000000000000E+20
 20
-1.000000000000000E+20
 30
-1.000000000000000E+20
  9
$PLIMMIN
 10
0.0
 20
0.0
  9
$PLIMMAX
 10
12.0
 20
9.0
  9
$UNITMODE
 70
     0
  9
$VISRETAIN
 70
     1
  9
$PLINEGEN
 70
     0
  9
$PSLTSCALE
 70
     1
  9
$TREEDEPTH
 70
  3020
  9
$CMLSTYLE
  2
Standard
  9
$CMLJUST
 70
     0
  9
$CMLSCALE
 40
1.0
  9
$PROXYGRAPHICS
 70
     1
  9
$MEASUREMENT
 70
     0
  9
$CELWEIGHT
370
    -1
  9
$ENDCAPS
280
     0
  9
$JOINSTYLE
280
     0
  9
$LWDISPLAY
290
     0
  9
$INSUNITS
 70
     1
  9
$HYPERLINKBASE
  1

  9
$STYLESHEET
  1

  9
$XEDIT
290
     1
  9
$CEPSNTYPE
380
     0
  9
$PSTYLEMODE
290
     1
  9
$FINGERPRINTGUID
  2
{7699B80E-AD63-4A63-90D8-DCAF4252B16C}
  9
$VERSIONGUID
  2
{FAEB1C32-E019-11D5-929B-00C0DF256EC4}
  9
$EXTNAMES
290
     1
  9
$PSVPSCALE
 40
0.0
  9
$OLESTARTUP
290
     0
  9
$SORTENTS
280
   127
  9
$INDEXCTL
280
     0
  9
$HIDETEXT
280
     1
  9
$XCLIPFRAME
290
     0
  9
$HALOGAP
280
     0
  9
$OBSCOLOR
 70
   257
  9
$OBSLTYPE
280
     0
  9
$INTERSECTIONDISPLAY
280
     0
  9
$INTERSECTIONCOLOR
 70
   257
  9
$DIMASSOC
280
     2
  9
$PROJECTNAME
  1

  0
ENDSEC
  0
SECTION
  2
CLASSES
  0
CLASS
  1
ACDBDICTIONARYWDFLT
  2
AcDbDictionaryWithDefault
  3
ObjectDBX Classes
 90
        0
 91
        4
280
     0
281
     0
  0
CLASS
  1
VISUALSTYLE
  2
AcDbVisualStyle
  3
ObjectDBX Classes
 90
     4095
 91
        4
280
     0
281
     0
  0
ENDSEC
  0
SECTION
  2
TABLES
  0
TABLE
  2
VPORT
  5
8
330
0
100
AcDbSymbolTable
 70
     1
  0
VPORT
  5
29
330
8
100
AcDbSymbolTableRecord
100
AcDbViewportTableRecord
  2
*Active
 70
     0
 10
0.0
 20
0.0
 11
1.0
 21
1.0
 12
13.44302142163568
 22
26.87501498838312
 13
0.0
 23
0.0
 14
0.5
 24
0.5
 15
0.5
 25
0.5
 16
0.0
 26
0.0
 36
1.0
 17
0.0
 27
0.0
 37
0.0
 40
54.82503057630156
 41
1.179280388101121
 42
50.0
 43
0.0
 44
0.0
 50
0.0
 51
0.0
 71
     0
 72
   100
 73
     1
 74
     3
 75
     0
 76
     0
 77
     0
 78
     0
281
     0
 65
     1
110
0.0
120
0.0
130
0.0
111
1.0
121
0.0
131
0.0
112
0.0
122
1.0
132
0.0
 79
     0
146
0.0
  0
ENDTAB
  0
TABLE
  2
LTYPE
  5
5
330
0
100
AcDbSymbolTable
 70
     1
  0
LTYPE
  5
14
330
5
100
AcDbSymbolTableRecord
100
AcDbLinetypeTableRecord
  2
ByBlock
 70
     0
  3

 72
    65
 73
     0
 40
0.0
  0
LTYPE
  5
15
330
5
100
AcDbSymbolTableRecord
100
AcDbLinetypeTableRecord
  2
ByLayer
 70
     0
  3

 72
    65
 73
     0
 40
0.0
  0
LTYPE
  5
16
330
5
100
AcDbSymbolTableRecord
100
AcDbLinetypeTableRecord
  2
Continuous
 70
     0
  3
Solid line
 72
    65
 73
     0
 40
0.0
  0
ENDTAB
  0
TABLE
  2
LAYER
  5
2
330
0
100
AcDbSymbolTable
 70
     2
  0
LAYER
  5
10
330
2
100
AcDbSymbolTableRecord
100
AcDbLayerTableRecord
  2
0
 70
     0
 62
     7
  6
Continuous
370
    -3
390
F
  0
LAYER
  5
3B
330
2
100
AcDbSymbolTableRecord
100
AcDbLayerTableRecord
  2
DEFAULT
 70
     0
 62
     7
  6
Continuous
370
    -3
390
F
  0
ENDTAB
  0
TABLE
  2
STYLE
  5
3
330
0
100
AcDbSymbolTable
 70
     1
  0
STYLE
  5
11
330
3
100
AcDbSymbolTableRecord
100
AcDbTextStyleTableRecord
  2
Standard
 70
     0
 40
0.0
 41
1.0
 50
0.0
 71
     0
 42
0.2
  3
txt
  4

  0
ENDTAB
  0
TABLE
  2
VIEW
  5
6
330
0
100
AcDbSymbolTable
 70
     0
  0
ENDTAB
  0
TABLE
  2
UCS
  5
7
330
0
100
AcDbSymbolTable
 70
     0
  0
ENDTAB
  0
TABLE
  2
APPID
  5
9
330
0
100
AcDbSymbolTable
 70
     1
  0
APPID
  5
12
330
9
100
AcDbSymbolTableRecord
100
AcDbRegAppTableRecord
  2
ACAD
 70
     0
  0
ENDTAB
  0
TABLE
  2
DIMSTYLE
  5
A
330
0
100
AcDbSymbolTable
 70
     1
100
AcDbDimStyleTable
  0
DIMSTYLE
105
27
330
A
100
AcDbSymbolTableRecord
100
AcDbDimStyleTableRecord
  2
Standard
 70
     0
340
11
  0
ENDTAB
  0
TABLE
  2
BLOCK_RECORD
  5
1
330
0
100
AcDbSymbolTable
 70
     1
  0
BLOCK_RECORD
  5
1F
330
1
100
AcDbSymbolTableRecord
100
AcDbBlockTableRecord
  2
*Model_Space
340
22
  0
BLOCK_RECORD
  5
1B
330
1
100
AcDbSymbolTableRecord
100
AcDbBlockTableRecord
  2
*Paper_Space
340
1E
  0
BLOCK_RECORD
  5
23
330
1
100
AcDbSymbolTableRecord
100
AcDbBlockTableRecord
  2
*Paper_Space0
340
26
  0
ENDTAB
  0
ENDSEC
  0
SECTION
  2
BLOCKS
  0
BLOCK
  5
20
330
1F
100
AcDbEntity
  8
0
100
AcDbBlockBegin
  2
*Model_Space
 70
     0
 10
0.0
 20
0.0
 30
0.0
  3
*Model_Space
  1

  0
ENDBLK
  5
21
330
1F
100
AcDbEntity
  8
0
100
AcDbBlockEnd
  0
BLOCK
  5
1C
330
1B
100
AcDbEntity
 67
     1
  8
0
100
AcDbBlockBegin
  2
*Paper_Space
 70
     0
 10
0.0
 20
0.0
 30
0.0
  3
*Paper_Space
  1

  0
ENDBLK
  5
1D
330
1B
100
AcDbEntity
 67
     1
  8
0
100
AcDbBlockEnd
  0
BLOCK
  5
24
330
23
100
AcDbEntity
  8
0
100
AcDbBlockBegin
  2
*Paper_Space0
 70
     0
 10
0.0
 20
0.0
 30
0.0
  3
*Paper_Space0
  1

  0
ENDBLK
  5
25
330
23
100
AcDbEntity
  8
0
100
AcDbBlockEnd
  0
ENDSEC
  0
SECTION
  2
ENTITIES
  0
SPLINE
  5
3C
330
1F
100
AcDbEntity
  8
DEFAULT
100
AcDbSpline
210
0.0
220
0.0
230
1.0
 70
    11
 71
     2
 72
   516
 73
   513
 74
     0
 42
0.0000000001
 43
0.0000000001
 40
0.0
 40
0.0
 40
0.0
 40
1.0
 40
1.0
 40
2.0
 40
2.0
 40
3.0
 40
3.0
 40
4.0
 40
4.0
 40
5.0
 40
5.0
 40
6.0
 40
6.0
 40
7.0
 40
7.0
 40
8.0
 40
8.0
 40
9.0
 40
9.0
 40
10.0
 40
10.0
 40
11.0
 40
11.0
 40
12.0
 40
12.0
 40
13.0
 40
13.0
 40
14.0
 40
14.0
 40
15.0
 40
15.0
 40
16.0
 40
16.0
 40
17.0
 40
17.0
 40
18.0
 40
18.0
 40
19.0
 40
19.0
 40
20.0
 40
20.0
 40
21.0
 40
21.0
 40
22.0
 40
22.0
 40
23.0
 40
23.0
 40
24.0
 40
24.0
 40
25.0
 40
25.0
 40
26.0
 40
26.0
 40
27.0
 40
27.0
 40
28.0
 40
28.0
 40
29.0
 40
29.0
 40
30.0
 40
30.0
 40
31.0
 40
31.0
 40
32.0
 40
32.0
 40
33.0
 40
33.0
 40
34.0
 40
34.0
 40
35.0
 40
35.0
 40
36.0
 40
36.0
 40
37.0
 40
37.0
 40
38.0
 40
38.0
 40
39.0
 40
39.0
 40
40.0
 40
40.0
 40
41.0
 40
41.0
 40
42.0
 40
42.0
 40
43.0
 40
43.0
 40
44.0
 40
44.0
 40
45.0
 40
45.0
 40
46.0
 40
46.0
 40
47.0
 40
47.0
 40
48.0
 40
48.0
 40
49.0
 40
49.0
 40
50.0
 40
50.0
 40
51.0
 40
51.0
 40
52.0
 40
52.0
 40
53.0
 40
53.0
 40
54.0
 40
54.0
 40
55.0
 40
55.0
 40
56.0
 40
56.0
 40
57.0
 40
57.0
 40
58.0
 40
58.0
 40
59.0
 40
59.0
 40
60.0
 40
60.0
 40
61.0
 40
61.0
 40
62.0
 40
62.0
 40
63.0
 40
63.0
 40
64.0
 40
64.0
 40
65.0
 40
65.0
 40
66.0
 40
66.0
 40
67.0
 40
67.0
 40
68.0
 40
68.0
 40
69.0
 40
69.0
 40
70.0
 40
70.0
 40
71.0
 40
71.0
 40
72.0
 40
72.0
 40
73.0
 40
73.0
 40
74.0
 40
74.0
 40
75.0
 40
75.0
 40
76.0
 40
76.0
 40
77.0
 40
77.0
 40
78.0
 40
78.0
 40
79.0
 40
79.0
 40
80.0
 40
80.0
 40
81.0
 40
81.0
 40
82.0
 40
82.0
 40
83.0
 40
83.0
 40
84.0
 40
84.0
 40
85.0
 40
85.0
 40
86.0
 40
86.0
 40
87.0
 40
87.0
 40
88.0
 40
88.0
 40
89.0
 40
89.0
 40
90.0
 40
90.0
 40
91.0
 40
91.0
 40
92.0
 40
92.0
 40
93.0
 40
93.0
 40
94.0
 40
94.0
 40
95.0
 40
95.0
 40
96.0
 40
96.0
 40
97.0
 40
97.0
 40
98.0
 40
98.0
 40
99.0
 40
99.0
 40
100.0
 40
100.0
 40
101.0
 40
101.0
 40
102.0
 40
102.0
 40
103.0
 40
103.0
 40
104.0
 40
104.0
 40
105.0
 40
105.0
 40
106.0
 40
106.0
 40
107.0
 40
107.0
 40
108.0
 40
108.0
 40
109.0
 40
109.0
 40
110.0
 40
110.0
 40
111.0
 40
111.0
 40
112.0
 40
112.0
 40
113.0
 40
113.0
 40
114.0
 40
114.0
 40
115.0
 40
115.0
 40
116.0
 40
116.0
 40
117.0
 40
117.0
 40
118.0
 40
118.0
 40
119.0
 40
119.0
 40
120.0
 40
120.0
 40
121.0
 40
121.0
 40
122.0
 40
122.0
 40
123.0
 40
123.0
 40
124.0
 40
124.0
 40
125.0
 40
125.0
 40
126.0
 40
126.0
 40
127.0
 40
127.0
 40
128.0
 40
128.0
 40
129.0
 40
129.0
 40
130.0
 40
130.0
 40
131.0
 40
131.0
 40
132.0
 40
132.0
 40
133.0
 40
133.0
 40
134.0
 40
134.0
 40
135.0
 40
135.0
 40
136.0
 40
136.0
 40
137.0
 40
137.0
 40
138.0
 40
138.0
 40
139.0
 40
139.0
 40
140.0
 40
140.0
 40
141.0
 40
141.0
 40
142.0
 40
142.0
 40
143.0
 40
143.0
 40
144.0
 40
144.0
 40
145.0
 40
145.0
 40
146.0
 40
146.0
 40
147.0
 40
147.0
 40
148.0
 40
148.0
 40
149.0
 40
149.0
 40
150.0
 40
150.0
 40
151.0
 40
151.0
 40
152.0
 40
152.0
 40
153.0
 40
153.0
 40
154.0
 40
154.0
 40
155.0
 40
155.0
 40
156.0
 40
156.0
 40
157.0
 40
157.0
 40
158.0
 40
158.0
 40
159.0
 40
159.0
 40
160.0
 40
160.0
 40
161.0
 40
161.0
 40
162.0
 40
162.0
 40
163.0
 40
163.0
 40
164.0
 40
164.0
 40
165.0
 40
165.0
 40
166.0
 40
166.0
 40
167.0
 40
167.0
 40
168.0
 40
168.0
 40
169.0
 40
169.0
 40
170.0
 40
170.0
 40
171.0
 40
171.0
 40
172.0
 40
172.0
 40
173.0
 40
173.0
 40
174.0
 40
174.0
 40
175.0
 40
175.0
 40
176.0
 40
176.0
 40
177.0
 40
177.0
 40
178.0
 40
178.0
 40
179.0
 40
179.0
 40
180.0
 40
180.0
 40
181.0
 40
181.0
 40
182.0
 40
182.0
 40
183.0
 40
183.0
 40
184.0
 40
184.0
 40
185.0
 40
185.0
 40
186.0
 40
186.0
 40
187.0
 40
187.0
 40
188.0
 40
188.0
 40
189.0
 40
189.0
 40
190.0
 40
190.0
 40
191.0
 40
191.0
 40
192.0
 40
192.0
 40
193.0
 40
193.0
 40
194.0
 40
194.0
 40
195.0
 40
195.0
 40
196.0
 40
196.0
 40
197.0
 40
197.0
 40
198.0
 40
198.0
 40
199.0
 40
199.0
 40
200.0
 40
200.0
 40
201.0
 40
201.0
 40
202.0
 40
202.0
 40
203.0
 40
203.0
 40
204.0
 40
204.0
 40
205.0
 40
205.0
 40
206.0
 40
206.0
 40
207.0
 40
207.0
 40
208.0
 40
208.0
 40
209.0
 40
209.0
 40
210.0
 40
210.0
 40
211.0
 40
211.0
 40
212.0
 40
212.0
 40
213.0
 40
213.0
 40
214.0
 40
214.0
 40
215.0
 40
215.0
 40
216.0
 40
216.0
 40
217.0
 40
217.0
 40
218.0
 40
218.0
 40
219.0
 40
219.0
 40
220.0
 40
220.0
 40
221.0
 40
221.0
 40
222.0
 40
222.0
 40
223.0
 40
223.0
 40
224.0
 40
224.0
 40
225.0
 40
225.0
 40
226.0
 40
226.0
 40
227.0
 40
227.0
 40
228.0
 40
228.0
 40
229.0
 40
229.0
 40
230.0
 40
230.0
 40
231.0
 40
231.0
 40
232.0
 40
232.0
 40
233.0
 40
233.0
 40
234.0
 40
234.0
 40
235.0
 40
235.0
 40
236.0
 40
236.0
 40
237.0
 40
237.0
 40
238.0
 40
238.0
 40
239.0
 40
239.0
 40
240.0
 40
240.0
 40
241.0
 40
241.0
 40
242.0
 40
242.0
 40
243.0
 40
243.0
 40
244.0
 40
244.0
 40
245.0
 40
245.0
 40
246.0
 40
246.0
 40
247.0
 40
247.0
 40
248.0
 40
248.0
 40
249.0
 40
249.0
 40
250.0
 40
250.0
 40
251.0
 40
251.0
 40
252.0
 40
252.0
 40
253.0
 40
253.0
 40
254.0
 40
254.0
 40
255.0
 40
255.0
 40
256.0
 40
256.0
 40
256.0
 10
17.87515043875405
 20
53.75002997676624
 30
0.0
 10
-0.0041648621223764
 20
53.74998378420878
 30
0.0
 10
-17.88348016299881
 20
53.74993759165132
 30
0.0
 10
-17.88767721932138
 20
53.7497973729661
 30
0.0
 10
-17.89187427564396
 20
53.74965715428087
 30
0.0
 10
-17.89610389975159
 20
53.74942050607152
 30
0.0
 10
-17.90033352385923
 20
53.74918385786216
 30
0.0
 10
-17.90459281107954
 20
53.74884846267911
 30
0.0
 10
-17.90885209829985
 20
53.74851306749606
 30
0.0
 10
-17.913137990191
 20
53.74807670454278
 30
0.0
 10
-17.91742388208216
 20
53.7476403415895
 30
0.0
 10
-17.92173316904336
 20
53.74710089755316
 30
0.0
 10
-17.92604245600457
 20
53.74656145351682
 30
0.0
 10
-17.9303717807073
 20
53.74591693346174
 30
0.0
 10
-17.93470110541005
 20
53.74527241340665
 30
0.0
 10
-17.9390469670764
 20
53.74452095166455
 30
0.0
 10
-17.94339282874276
 20
53.74376948992244
 30
0.0
 10
-17.94775158829153
 20
53.74290936090862
 30
0.0
 10
-17.95211034784031
 20
53.7420492318948
 30
0.0
 10
-17.95647823391547
 20
53.74107886077603
 30
0.0
 10
-17.96084611999063
 20
53.74010848965725
 30
0.0
 10
-17.96521923587976
 20
53.73902646279333
 30
0.0
 10
-17.96959235176891
 20
53.73794443592941
 30
0.0
 10
-17.97396668321206
 20
53.73674951100789
 30
0.0
 10
-17.97834101465522
 20
53.73555458608637
 30
0.0
 10
-17.98271243853659
 20
53.73424570186801
 30
0.0
 10
-17.98708386241797
 20
53.73293681764964
 30
0.0
 10
-17.9914481563247
 20
53.73151310324076
 30
0.0
 10
-17.99581245023143
 20
53.73008938883188
 30
0.0
 10
-18.00016530285509
 20
53.72855017239983
 30
0.0
 10
-18.00451815547877
 20
53.72701095596778
 30
0.0
 10
-18.00885517782634
 20
53.72535577281621
 30
0.0
 10
-18.01319220017391
 20
53.72370058966465
 30
0.0
 10
-18.017508937546
 20
53.72192918958707
 30
0.0
 10
-18.0218256749181
 20
53.72015778950949
 30
0.0
 10
-18.02611761960343
 20
53.71827014334226
 30
0.0
 10
-18.03040956428877
 20
53.71638249717503
 30
0.0
 10
-18.03467216891485
 20
53.71437880247494
 30
0.0
 10
-18.03893477354093
 20
53.71237510777485
 30
0.0
 10
-18.04316346501257
 20
53.71025579355113
 30
0.0
 10
-18.04739215648421
 20
53.70813647932741
 30
0.0
 10
-18.05158235043335
 20
53.70590220976391
 30
0.0
 10
-18.05577254438249
 20
53.70366794020042
 30
0.0
 10
-18.05991966004519
 20
53.70131961731097
 30
0.0
 10
-18.06406677570789
 20
53.69897129442153
 30
0.0
 10
-18.0681662511376
 20
53.69651005958896
 30
0.0
 10
-18.07226572656732
 20
53.69404882475639
 30
0.0
 10
-18.07631303408748
 20
53.69147605911481
 30
0.0
 10
-18.08036034160764
 20
53.68890329347322
 30
0.0
 10
-18.08435100340151
 20
53.68622061710263
 30
0.0
 10
-18.08834166519539
 20
53.68353794073204
 30
0.0
 10
-18.09227126892732
 20
53.68074721064458
 30
0.0
 10
-18.09620087265926
 20
53.67795648055711
 30
0.0
 10
-18.10006508701824
 20
53.67505978746507
 30
0.0
 10
-18.10392930137723
 20
53.67216309437302
 30
0.0
 10
-18.10772389143257
 20
53.66916275823991
 30
0.0
 10
-18.11151848148792
 20
53.66616242210681
 30
0.0
 10
-18.11523932374609
 20
53.66306098649424
 30
0.0
 10
-18.11896016600427
 20
53.65995955088167
 30
0.0
 10
-18.12260326305727
 20
53.65675977611628
 30
0.0
 10
-18.12624636011028
 20
53.6535600013509
 30
0.0
 10
-18.12980785476812
 20
53.6502648565469
 30
0.0
 10
-18.13336934942596
 20
53.6469697117429
 30
0.0
 10
-18.13684553822956
 20
53.64358236572704
 30
0.0
 10
-18.14032172703316
 20
53.64019501971119
 30
0.0
 10
-18.14370907304901
 20
53.6367188309076
 30
0.0
 10
-18.14709641906486
 20
53.63324264210399
 30
0.0
 10
-18.15039156386886
 20
53.62968114744615
 30
0.0
 10
-18.15368670867286
 20
53.6261196527883
 30
0.0
 10
-18.15688648343825
 20
53.6224765557353
 30
0.0
 10
-18.16008625820365
 20
53.6188334586823
 30
0.0
 10
-18.16318769381621
 20
53.61511261642412
 30
0.0
 10
-18.16628912942877
 20
53.61139177416594
 30
0.0
 10
-18.16928946556188
 20
53.6075971841106
 30
0.0
 10
-18.172289801695
 20
53.60380259405525
 30
0.0
 10
-18.17518649478704
 20
53.59993837969627
 30
0.0
 10
-18.17808318787909
 20
53.59607416533728
 30
0.0
 10
-18.18087391796654
 20
53.59214456160535
 30
0.0
 10
-18.18366464805401
 20
53.58821495787342
 30
0.0
 10
-18.1863473244246
 20
53.58422429607954
 30
0.0
 10
-18.1890300007952
 20
53.58023363428565
 30
0.0
 10
-18.19160276643678
 20
53.57618632676551
 30
0.0
 10
-18.19417553207836
 20
53.57213901924536
 30
0.0
 10
-18.19663676691092
 20
53.56803954381564
 30
0.0
 10
-18.19909800174349
 20
53.56394006838593
 30
0.0
 10
-18.20144632463293
 20
53.55979295272323
 30
0.0
 10
-18.20379464752238
 20
53.55564583706054
 30
0.0
 10
-18.20602891708587
 20
53.5514556431114
 30
0.0
 10
-18.20826318664936
 20
53.54726544916225
 30
0.0
 10
-18.21038250087308
 20
53.5430367576906
 30
0.0
 10
-18.21250181509681
 20
53.53880806621896
 30
0.0
 10
-18.2145055097969
 20
53.53454546159288
 30
0.0
 10
-18.21650920449699
 20
53.53028285696681
 30
0.0
 10
-18.21839685066422
 20
53.52599091228147
 30
0.0
 10
-18.22028449683146
 20
53.52169896759614
 30
0.0
 10
-18.22205589690904
 20
53.51738223022404
 30
0.0
 10
-18.22382729698662
 20
53.51306549285194
 30
0.0
 10
-18.22548248013818
 20
53.50872847050437
 30
0.0
 10
-18.22713766328974
 20
53.5043914481568
 30
0.0
 10
-18.22867687972178
 20
53.50003859553314
 30
0.0
 10
-18.23021609615383
 20
53.49568574290947
 30
0.0
 10
-18.23163981056272
 20
53.49132144900273
 30
0.0
 10
-18.23306352497161
 20
53.48695715509599
 30
0.0
 10
-18.23437240918997
 20
53.48258573121462
 30
0.0
 10
-18.23568129340834
 20
53.47821430733325
 30
0.0
 10
-18.23687621832986
 20
53.47383997589009
 30
0.0
 10
-18.23807114325138
 20
53.46946564444693
 30
0.0
 10
-18.23915317011531
 20
53.46509252855779
 30
0.0
 10
-18.24023519697924
 20
53.46071941266865
 30
0.0
 10
-18.24120556809801
 20
53.45635152659349
 30
0.0
 10
-18.24217593921678
 20
53.45198364051833
 30
0.0
 10
-18.2430360682306
 20
53.44762488096956
 30
0.0
 10
-18.24389619724442
 20
53.44326612142078
 30
0.0
 10
-18.24464765898653
 20
53.43892025975443
 30
0.0
 10
-18.24539912072864
 20
53.43457439808807
 30
0.0
 10
-18.24604364078372
 20
53.43024507338534
 30
0.0
 10
-18.2466881608388
 20
53.4259157486826
 30
0.0
 10
-18.24722760487514
 20
53.42160646172138
 30
0.0
 10
-18.24776704891149
 20
53.41729717476017
 30
0.0
 10
-18.24820341186476
 20
53.41301128286902
 30
0.0
 10
-18.24863977481804
 20
53.40872539097788
 30
0.0
 10
-18.24897517000108
 20
53.40446610375757
 30
0.0
 10
-18.24931056518413
 20
53.40020681653726
 30
0.0
 10
-18.24954721339348
 20
53.39597719242962
 30
0.0
 10
-18.24978386160284
 20
53.39174756832198
 30
0.0
 10
-18.24992408028807
 20
53.38755051199941
 30
0.0
 10
-18.2500642989733
 20
53.38335345567683
 30
0.0
 10
-18.25011049153075
 20
45.87917672783841
 30
0.0
 10
-18.25015668408821
 20
38.375
 30
0.0
 10
-18.25011049153075
 20
38.3708382605447
 30
0.0
 10
-18.2500642989733
 20
38.3666765210894
 30
0.0
 10
-18.24992408028807
 20
38.36247946476683
 30
0.0
 10
-18.24978386160284
 20
38.35828240844425
 30
0.0
 10
-18.24954721339348
 20
38.3540527843366
 30
0.0
 10
-18.24931056518413
 20
38.34982316022896
 30
0.0
 10
-18.24897517000108
 20
38.34556387300866
 30
0.0
 10
-18.24863977481804
 20
38.34130458578836
 30
0.0
 10
-18.24820341186476
 20
38.3370186938972
 30
0.0
 10
-18.24776704891149
 20
38.33273280200604
 30
0.0
 10
-18.24722760487514
 20
38.32842351504483
 30
0.0
 10
-18.2466881608388
 20
38.32411422808362
 30
0.0
 10
-18.24604364078372
 20
38.31978490338089
 30
0.0
 10
-18.24539912072864
 20
38.31545557867815
 30
0.0
 10
-18.24464765898653
 20
38.31110971701179
 30
0.0
 10
-18.24389619724442
 20
38.30676385534544
 30
0.0
 10
-18.2430360682306
 20
38.30240509579667
 30
0.0
 10
-18.24217593921678
 20
38.2980463362479
 30
0.0
 10
-18.24120556809801
 20
38.29367845017274
 30
0.0
 10
-18.24023519697924
 20
38.28931056409758
 30
0.0
 10
-18.23915317011531
 20
38.28493744820845
 30
0.0
 10
-18.23807114325138
 20
38.28056433231931
 30
0.0
 10
-18.23687621832986
 20
38.27619000087614
 30
0.0
 10
-18.23568129340834
 20
38.27181566943298
 30
0.0
 10
-18.23437240918997
 20
38.2674442455516
 30
0.0
 10
-18.23306352497161
 20
38.26307282167023
 30
0.0
 10
-18.23163981056272
 20
38.2587085277635
 30
0.0
 10
-18.23021609615383
 20
38.25434423385676
 30
0.0
 10
-18.22867687972178
 20
38.2499913812331
 30
0.0
 10
-18.22713766328974
 20
38.24563852860943
 30
0.0
 10
-18.22548248013818
 20
38.24130150626186
 30
0.0
 10
-18.22382729698662
 20
38.2369644839143
 30
0.0
 10
-18.22205589690904
 20
38.2326477465422
 30
0.0
 10
-18.22028449683146
 20
38.2283310091701
 30
0.0
 10
-18.21839685066422
 20
38.22403906448476
 30
0.0
 10
-18.21650920449699
 20
38.21974711979943
 30
0.0
 10
-18.2145055097969
 20
38.21548451517335
 30
0.0
 10
-18.21250181509681
 20
38.21122191054727
 30
0.0
 10
-18.21038250087308
 20
38.20699321907564
 30
0.0
 10
-18.20826318664936
 20
38.202764527604
 30
0.0
 10
-18.20602891708587
 20
38.19857433365487
 30
0.0
 10
-18.20379464752238
 20
38.19438413970573
 30
0.0
 10
-18.20144632463293
 20
38.19023702404303
 30
0.0
 10
-18.19909800174349
 20
38.18608990838032
 30
0.0
 10
-18.19663676691092
 20
38.1819904329506
 30
0.0
 10
-18.19417553207836
 20
38.17789095752088
 30
0.0
 10
-18.19160276643678
 20
38.17384365000073
 30
0.0
 10
-18.1890300007952
 20
38.16979634248057
 30
0.0
 10
-18.1863473244246
 20
38.16580568068669
 30
0.0
 10
-18.18366464805401
 20
38.16181501889281
 30
0.0
 10
-18.18087391796654
 20
38.15788541516088
 30
0.0
 10
-18.17808318787909
 20
38.15395581142894
 30
0.0
 10
-18.17518649478704
 20
38.15009159706996
 30
0.0
 10
-18.172289801695
 20
38.14622738271098
 30
0.0
 10
-18.16928946556188
 20
38.14243279265564
 30
0.0
 10
-18.16628912942877
 20
38.1386382026003
 30
0.0
 10
-18.16318769381621
 20
38.13491736034212
 30
0.0
 10
-18.16008625820365
 20
38.13119651808395
 30
0.0
 10
-18.15688648343825
 20
38.12755342103094
 30
0.0
 10
-18.15368670867286
 20
38.12391032397794
 30
0.0
 10
-18.15039156386886
 20
38.1203488293201
 30
0.0
 10
-18.14709641906486
 20
38.11678733466226
 30
0.0
 10
-18.14370907304901
 20
38.11331114585866
 30
0.0
 10
-18.14032172703316
 20
38.10983495705505
 30
0.0
 10
-18.13684553822956
 20
38.1064476110392
 30
0.0
 10
-18.13336934942596
 20
38.10306026502335
 30
0.0
 10
-18.12980785476812
 20
38.09976512021935
 30
0.0
 10
-18.12624636011028
 20
38.09646997541535
 30
0.0
 10
-18.12260326305727
 20
38.09327020064996
 30
0.0
 10
-18.11896016600427
 20
38.09007042588457
 30
0.0
 10
-18.11523932374609
 20
38.08696899027201
 30
0.0
 10
-18.11151848148792
 20
38.08386755465944
 30
0.0
 10
-18.10772389143257
 20
38.08086721852632
 30
0.0
 10
-18.10392930137723
 20
38.0778668823932
 30
0.0
 10
-18.10006508701824
 20
38.07497018930115
 30
0.0
 10
-18.09620087265926
 20
38.07207349620911
 30
0.0
 10
-18.09227126892732
 20
38.06928276612165
 30
0.0
 10
-18.08834166519539
 20
38.06649203603419
 30
0.0
 10
-18.08435100340151
 20
38.06380935966359
 30
0.0
 10
-18.08036034160764
 20
38.061126683293
 30
0.0
 10
-18.07631303408748
 20
38.05855391765142
 30
0.0
 10
-18.07226572656732
 20
38.05598115200984
 30
0.0
 10
-18.0681662511376
 20
38.05351991717728
 30
0.0
 10
-18.06406677570789
 20
38.05105868234471
 30
0.0
 10
-18.05991966004519
 20
38.04871035945527
 30
0.0
 10
-18.05577254438249
 20
38.04636203656583
 30
0.0
 10
-18.05158235043335
 20
38.04412776700234
 30
0.0
 10
-18.04739215648421
 20
38.04189349743884
 30
0.0
 10
-18.04316346501257
 20
38.03977418321512
 30
0.0
 10
-18.03893477354093
 20
38.03765486899139
 30
0.0
 10
-18.03467216891485
 20
38.0356511742913
 30
0.0
 10
-18.03040956428877
 20
38.03364747959122
 30
0.0
 10
-18.02611761960343
 20
38.03175983342398
 30
0.0
 10
-18.0218256749181
 20
38.02987218725674
 30
0.0
 10
-18.017508937546
 20
38.02810078717917
 30
0.0
 10
-18.01319220017391
 20
38.02632938710159
 30
0.0
 10
-18.00885517782634
 20
38.02467420395003
 30
0.0
 10
-18.00451815547877
 20
38.02301902079846
 30
0.0
 10
-18.00016530285509
 20
38.02147980436641
 30
0.0
 10
-17.99581245023143
 20
38.01994058793436
 30
0.0
 10
-17.9914481563247
 20
38.01851687352547
 30
0.0
 10
-17.98708386241797
 20
38.01709315911659
 30
0.0
 10
-17.98271243853659
 20
38.01578427489822
 30
0.0
 10
-17.97834101465522
 20
38.01447539067986
 30
0.0
 10
-17.97396668321206
 20
38.01328046575834
 30
0.0
 10
-17.96959235176891
 20
38.01208554083682
 30
0.0
 10
-17.96521923587976
 20
38.0110035139729
 30
0.0
 10
-17.96084611999063
 20
38.00992148710897
 30
0.0
 10
-17.95647823391547
 20
38.00895111599019
 30
0.0
 10
-17.95211034784031
 20
38.00798074487142
 30
0.0
 10
-17.94775158829153
 20
38.0071206158576
 30
0.0
 10
-17.94339282874276
 20
38.00626048684378
 30
0.0
 10
-17.9390469670764
 20
38.00550902510167
 30
0.0
 10
-17.93470110541005
 20
38.00475756335956
 30
0.0
 10
-17.9303717807073
 20
38.00411304330449
 30
0.0
 10
-17.92604245600457
 20
38.0034685232494
 30
0.0
 10
-17.92173316904336
 20
38.00292907921306
 30
0.0
 10
-17.91742388208216
 20
38.00238963517671
 30
0.0
 10
-17.913137990191
 20
38.00195327222345
 30
0.0
 10
-17.90885209829985
 20
38.00151690927017
 30
0.0
 10
-17.90459281107954
 20
38.00118151408711
 30
0.0
 10
-17.90033352385923
 20
38.00084611890406
 30
0.0
 10
-17.89610389975159
 20
38.00060947069471
 30
0.0
 10
-17.89187427564396
 20
38.00037282248537
 30
0.0
 10
-17.88767721932138
 20
38.00023260380014
 30
0.0
 10
-17.88348016299881
 20
38.00009238511491
 30
0.0
 10
-0.0041648621223764
 20
38.00004619255746
 30
0.0
 10
17.87515043875405
 20
38.0
 30
0.0
 10
17.87931217820935
 20
38.00004619255746
 30
0.0
 10
17.88347391766466
 20
38.00009238511491
 30
0.0
 10
17.88767097398723
 20
38.00023260380014
 30
0.0
 10
17.8918680303098
 20
38.00037282248537
 30
0.0
 10
17.89609765441745
 20
38.00060947069472
 30
0.0
 10
17.90032727852509
 20
38.00084611890407
 30
0.0
 10
17.90458656574539
 20
38.00118151408712
 30
0.0
 10
17.90884585296569
 20
38.00151690927017
 30
0.0
 10
17.91313174485685
 20
38.00195327222345
 30
0.0
 10
17.91741763674801
 20
38.00238963517673
 30
0.0
 10
17.92172692370922
 20
38.00292907921308
 30
0.0
 10
17.92603621067042
 20
38.00346852324941
 30
0.0
 10
17.93036553537317
 20
38.00411304330448
 30
0.0
 10
17.93469486007591
 20
38.00475756335955
 30
0.0
 10
17.93904072174227
 20
38.00550902510167
 30
0.0
 10
17.94338658340861
 20
38.00626048684379
 30
0.0
 10
17.94774534295738
 20
38.00712061585762
 30
0.0
 10
17.95210410250615
 20
38.00798074487144
 30
0.0
 10
17.95647198858131
 20
38.00895111599021
 30
0.0
 10
17.96083987465648
 20
38.00992148710898
 30
0.0
 10
17.96521299054562
 20
38.01100351397291
 30
0.0
 10
17.96958610643475
 20
38.01208554083683
 30
0.0
 10
17.97396043787791
 20
38.01328046575835
 30
0.0
 10
17.97833476932108
 20
38.01447539067987
 30
0.0
 10
17.98270619320245
 20
38.01578427489824
 30
0.0
 10
17.98707761708382
 20
38.01709315911661
 30
0.0
 10
17.99144191099055
 20
38.0185168735255
 30
0.0
 10
17.99580620489728
 20
38.01994058793439
 30
0.0
 10
18.00015905752095
 20
38.02147980436644
 30
0.0
 10
18.00451191014461
 20
38.02301902079848
 30
0.0
 10
18.00884893249219
 20
38.02467420395004
 30
0.0
 10
18.01318595483976
 20
38.0263293871016
 30
0.0
 10
18.01750269221186
 20
38.02810078717917
 30
0.0
 10
18.02181942958396
 20
38.02987218725675
 30
0.0
 10
18.02611137426929
 20
38.03175983342398
 30
0.0
 10
18.03040331895463
 20
38.03364747959122
 30
0.0
 10
18.0346659235807
 20
38.03565117429131
 30
0.0
 10
18.03892852820679
 20
38.0376548689914
 30
0.0
 10
18.04315721967843
 20
38.03977418321513
 30
0.0
 10
18.04738591115007
 20
38.04189349743885
 30
0.0
 10
18.0515761050992
 20
38.04412776700235
 30
0.0
 10
18.05576629904834
 20
38.04636203656585
 30
0.0
 10
18.05991341471104
 20
38.04871035945528
 30
0.0
 10
18.06406053037374
 20
38.05105868234472
 30
0.0
 10
18.06816000580346
 20
38.05351991717728
 30
0.0
 10
18.07225948123317
 20
38.05598115200985
 30
0.0
 10
18.07630678875333
 20
38.05855391765143
 30
0.0
 10
18.08035409627348
 20
38.06112668329301
 30
0.0
 10
18.08434475806737
 20
38.06380935966361
 30
0.0
 10
18.08833541986125
 20
38.06649203603421
 30
0.0
 10
18.09226502359317
 20
38.06928276612167
 30
0.0
 10
18.0961946273251
 20
38.07207349620912
 30
0.0
 10
18.1000588416841
 20
38.07497018930117
 30
0.0
 10
18.10392305604309
 20
38.07786688239322
 30
0.0
 10
18.10771764609843
 20
38.08086721852632
 30
0.0
 10
18.11151223615378
 20
38.08386755465943
 30
0.0
 10
18.11523307841195
 20
38.086968990272
 30
0.0
 10
18.11895392067013
 20
38.09007042588456
 30
0.0
 10
18.12259701772313
 20
38.09327020064995
 30
0.0
 10
18.12624011477613
 20
38.09646997541534
 30
0.0
 10
18.12980160943398
 20
38.09976512021934
 30
0.0
 10
18.13336310409181
 20
38.10306026502334
 30
0.0
 10
18.13683929289542
 20
38.10644761103919
 30
0.0
 10
18.14031548169902
 20
38.10983495705505
 30
0.0
 10
18.14370282771486
 20
38.11331114585865
 30
0.0
 10
18.14709017373071
 20
38.11678733466225
 30
0.0
 10
18.15038531853472
 20
38.12034882932008
 30
0.0
 10
18.15368046333872
 20
38.12391032397792
 30
0.0
 10
18.15688023810411
 20
38.12755342103092
 30
0.0
 10
18.1600800128695
 20
38.13119651808393
 30
0.0
 10
18.16318144848206
 20
38.13491736034211
 30
0.0
 10
18.16628288409462
 20
38.13863820260029
 30
0.0
 10
18.16928322022773
 20
38.14243279265564
 30
0.0
 10
18.17228355636085
 20
38.14622738271098
 30
0.0
 10
18.17518024945289
 20
38.15009159706997
 30
0.0
 10
18.17807694254493
 20
38.15395581142895
 30
0.0
 10
18.1808676726324
 20
38.15788541516088
 30
0.0
 10
18.18365840271986
 20
38.16181501889282
 30
0.0
 10
18.18634107909046
 20
38.1658056806867
 30
0.0
 10
18.18902375546105
 20
38.16979634248058
 30
0.0
 10
18.19159652110264
 20
38.17384365000073
 30
0.0
 10
18.19416928674422
 20
38.17789095752089
 30
0.0
 10
18.19663052157678
 20
38.1819904329506
 30
0.0
 10
18.19909175640935
 20
38.18608990838032
 30
0.0
 10
18.20144007929879
 20
38.19023702404303
 30
0.0
 10
18.20378840218823
 20
38.19438413970574
 30
0.0
 10
18.20602267175173
 20
38.19857433365488
 30
0.0
 10
18.20825694131522
 20
38.20276452760401
 30
0.0
 10
18.21037625553894
 20
38.20699321907564
 30
0.0
 10
18.21249556976267
 20
38.21122191054728
 30
0.0
 10
18.21449926446276
 20
38.21548451517336
 30
0.0
 10
18.21650295916285
 20
38.21974711979944
 30
0.0
 10
18.21839060533008
 20
38.22403906448478
 30
0.0
 10
18.22027825149731
 20
38.22833100917011
 30
0.0
 10
18.22204965157488
 20
38.23264774654221
 30
0.0
 10
18.22382105165246
 20
38.23696448391431
 30
0.0
 10
18.22547623480403
 20
38.24130150626188
 30
0.0
 10
18.22713141795559
 20
38.24563852860945
 30
0.0
 10
18.22867063438763
 20
38.24999138123312
 30
0.0
 10
18.23020985081968
 20
38.25434423385678
 30
0.0
 10
18.23163356522857
 20
38.25870852776352
 30
0.0
 10
18.23305727963746
 20
38.26307282167025
 30
0.0
 10
18.23436616385583
 20
38.26744424555163
 30
0.0
 10
18.2356750480742
 20
38.271815669433
 30
0.0
 10
18.23686997299571
 20
38.27619000087616
 30
0.0
 10
18.23806489791723
 20
38.28056433231931
 30
0.0
 10
18.23914692478116
 20
38.28493744820845
 30
0.0
 10
18.24022895164509
 20
38.28931056409759
 30
0.0
 10
18.24119932276385
 20
38.29367845017275
 30
0.0
 10
18.24216969388263
 20
38.29804633624791
 30
0.0
 10
18.24302982289645
 20
38.30240509579669
 30
0.0
 10
18.24388995191028
 20
38.30676385534546
 30
0.0
 10
18.24464141365238
 20
38.3111097170118
 30
0.0
 10
18.24539287539449
 20
38.31545557867815
 30
0.0
 10
18.24603739544957
 20
38.31978490338089
 30
0.0
 10
18.24668191550465
 20
38.32411422808364
 30
0.0
 10
18.24722135954099
 20
38.32842351504485
 30
0.0
 10
18.24776080357734
 20
38.33273280200606
 30
0.0
 10
18.24819716653061
 20
38.33701869389722
 30
0.0
 10
18.24863352948389
 20
38.34130458578837
 30
0.0
 10
18.24896892466693
 20
38.34556387300869
 30
0.0
 10
18.24930431984998
 20
38.34982316022899
 30
0.0
 10
18.24954096805933
 20
38.35405278433663
 30
0.0
 10
18.24977761626868
 20
38.35828240844426
 30
0.0
 10
18.24991783495391
 20
38.36247946476684
 30
0.0
 10
18.25005805363913
 20
38.3666765210894
 30
0.0
 10
18.25010424619659
 20
45.87085324892782
 30
0.0
 10
18.25015043875405
 20
53.37502997676624
 30
0.0
 10
18.25010424619659
 20
53.37919171622153
 30
0.0
 10
18.25005805363913
 20
53.38335345567683
 30
0.0
 10
18.24991783495391
 20
53.38755051199941
 30
0.0
 10
18.24977761626868
 20
53.39174756832198
 30
0.0
 10
18.24954096805933
 20
53.39597719242962
 30
0.0
 10
18.24930431984998
 20
53.40020681653726
 30
0.0
 10
18.24896892466693
 20
53.40446610375757
 30
0.0
 10
18.24863352948389
 20
53.40872539097788
 30
0.0
 10
18.24819716653061
 20
53.41301128286904
 30
0.0
 10
18.24776080357734
 20
53.41729717476019
 30
0.0
 10
18.24722135954099
 20
53.4216064617214
 30
0.0
 10
18.24668191550465
 20
53.42591574868261
 30
0.0
 10
18.24603739544957
 20
53.43024507338535
 30
0.0
 10
18.24539287539449
 20
53.43457439808809
 30
0.0
 10
18.24464141365238
 20
53.43892025975444
 30
0.0
 10
18.24388995191028
 20
53.4432661214208
 30
0.0
 10
18.24302982289645
 20
53.44762488096957
 30
0.0
 10
18.24216969388263
 20
53.45198364051834
 30
0.0
 10
18.24119932276385
 20
53.45635152659349
 30
0.0
 10
18.24022895164509
 20
53.46071941266865
 30
0.0
 10
18.23914692478116
 20
53.4650925285578
 30
0.0
 10
18.23806489791723
 20
53.46946564444695
 30
0.0
 10
18.23686997299571
 20
53.4738399758901
 30
0.0
 10
18.2356750480742
 20
53.47821430733325
 30
0.0
 10
18.23436616385583
 20
53.48258573121463
 30
0.0
 10
18.23305727963746
 20
53.48695715509601
 30
0.0
 10
18.23163356522857
 20
53.49132144900274
 30
0.0
 10
18.23020985081968
 20
53.49568574290947
 30
0.0
 10
18.22867063438763
 20
53.50003859553314
 30
0.0
 10
18.22713141795559
 20
53.5043914481568
 30
0.0
 10
18.22547623480403
 20
53.50872847050437
 30
0.0
 10
18.22382105165246
 20
53.51306549285194
 30
0.0
 10
18.22204965157488
 20
53.51738223022404
 30
0.0
 10
18.22027825149731
 20
53.52169896759614
 30
0.0
 10
18.21839060533008
 20
53.52599091228147
 30
0.0
 10
18.21650295916285
 20
53.53028285696681
 30
0.0
 10
18.21449926446276
 20
53.53454546159288
 30
0.0
 10
18.21249556976267
 20
53.53880806621896
 30
0.0
 10
18.21037625553894
 20
53.5430367576906
 30
0.0
 10
18.20825694131522
 20
53.54726544916223
 30
0.0
 10
18.20602267175173
 20
53.55145564311137
 30
0.0
 10
18.20378840218823
 20
53.55564583706052
 30
0.0
 10
18.20144007929879
 20
53.55979295272321
 30
0.0
 10
18.19909175640935
 20
53.56394006838592
 30
0.0
 10
18.19663052157678
 20
53.56803954381563
 30
0.0
 10
18.19416928674422
 20
53.57213901924535
 30
0.0
 10
18.19159652110264
 20
53.57618632676551
 30
0.0
 10
18.18902375546105
 20
53.58023363428566
 30
0.0
 10
18.18634107909046
 20
53.58422429607954
 30
0.0
 10
18.18365840271986
 20
53.58821495787343
 30
0.0
 10
18.1808676726324
 20
53.59214456160535
 30
0.0
 10
18.17807694254493
 20
53.59607416533728
 30
0.0
 10
18.17518024945289
 20
53.59993837969627
 30
0.0
 10
18.17228355636085
 20
53.60380259405525
 30
0.0
 10
18.16928322022773
 20
53.6075971841106
 30
0.0
 10
18.16628288409462
 20
53.61139177416595
 30
0.0
 10
18.16318144848206
 20
53.61511261642413
 30
0.0
 10
18.1600800128695
 20
53.6188334586823
 30
0.0
 10
18.15688023810411
 20
53.6224765557353
 30
0.0
 10
18.15368046333872
 20
53.6261196527883
 30
0.0
 10
18.15038531853472
 20
53.62968114744615
 30
0.0
 10
18.14709017373071
 20
53.63324264210399
 30
0.0
 10
18.14370282771486
 20
53.63671883090759
 30
0.0
 10
18.14031548169902
 20
53.64019501971119
 30
0.0
 10
18.13683929289542
 20
53.64358236572704
 30
0.0
 10
18.13336310409181
 20
53.6469697117429
 30
0.0
 10
18.12980160943398
 20
53.65026485654689
 30
0.0
 10
18.12624011477613
 20
53.65356000135088
 30
0.0
 10
18.12259701772313
 20
53.65675977611627
 30
0.0
 10
18.11895392067013
 20
53.65995955088167
 30
0.0
 10
18.11523307841195
 20
53.66306098649424
 30
0.0
 10
18.11151223615378
 20
53.66616242210681
 30
0.0
 10
18.10771764609843
 20
53.66916275823992
 30
0.0
 10
18.10392305604309
 20
53.67216309437303
 30
0.0
 10
18.1000588416841
 20
53.67505978746507
 30
0.0
 10
18.0961946273251
 20
53.67795648055711
 30
0.0
 10
18.09226502359317
 20
53.68074721064458
 30
0.0
 10
18.08833541986125
 20
53.68353794073204
 30
0.0
 10
18.08434475806737
 20
53.68622061710263
 30
0.0
 10
18.08035409627348
 20
53.68890329347322
 30
0.0
 10
18.07630678875333
 20
53.69147605911481
 30
0.0
 10
18.07225948123317
 20
53.69404882475639
 30
0.0
 10
18.06816000580346
 20
53.69651005958895
 30
0.0
 10
18.06406053037374
 20
53.69897129442152
 30
0.0
 10
18.05991341471104
 20
53.70131961731096
 30
0.0
 10
18.05576629904834
 20
53.7036679402004
 30
0.0
 10
18.0515761050992
 20
53.7059022097639
 30
0.0
 10
18.04738591115007
 20
53.70813647932739
 30
0.0
 10
18.04315721967843
 20
53.71025579355112
 30
0.0
 10
18.03892852820679
 20
53.71237510777485
 30
0.0
 10
18.0346659235807
 20
53.71437880247493
 30
0.0
 10
18.03040331895463
 20
53.71638249717502
 30
0.0
 10
18.02611137426929
 20
53.71827014334225
 30
0.0
 10
18.02181942958396
 20
53.72015778950949
 30
0.0
 10
18.01750269221186
 20
53.72192918958707
 30
0.0
 10
18.01318595483976
 20
53.72370058966465
 30
0.0
 10
18.00884893249219
 20
53.72535577281621
 30
0.0
 10
18.00451191014461
 20
53.72701095596778
 30
0.0
 10
18.00015905752095
 20
53.72855017239983
 30
0.0
 10
17.99580620489728
 20
53.73008938883188
 30
0.0
 10
17.99144191099055
 20
53.73151310324077
 30
0.0
 10
17.98707761708382
 20
53.73293681764966
 30
0.0
 10
17.98270619320245
 20
53.73424570186802
 30
0.0
 10
17.97833476932108
 20
53.73555458608637
 30
0.0
 10
17.97396043787791
 20
53.7367495110079
 30
0.0
 10
17.96958610643475
 20
53.73794443592943
 30
0.0
 10
17.96521299054562
 20
53.73902646279335
 30
0.0
 10
17.96083987465648
 20
53.74010848965727
 30
0.0
 10
17.95647198858131
 20
53.74107886077604
 30
0.0
 10
17.95210410250615
 20
53.74204923189482
 30
0.0
 10
17.94774534295738
 20
53.74290936090863
 30
0.0
 10
17.94338658340861
 20
53.74376948992244
 30
0.0
 10
17.93904072174227
 20
53.74452095166455
 30
0.0
 10
17.93469486007591
 20
53.74527241340667
 30
0.0
 10
17.93036553537317
 20
53.74591693346175
 30
0.0
 10
17.92603621067042
 20
53.74656145351683
 30
0.0
 10
17.92172692370922
 20
53.74710089755318
 30
0.0
 10
17.91741763674801
 20
53.74764034158954
 30
0.0
 10
17.91313174485685
 20
53.7480767045428
 30
0.0
 10
17.90884585296569
 20
53.74851306749606
 30
0.0
 10
17.90458656574539
 20
53.74884846267911
 30
0.0
 10
17.90032727852509
 20
53.74918385786216
 30
0.0
 10
17.89609765441745
 20
53.74942050607152
 30
0.0
 10
17.8918680303098
 20
53.74965715428087
 30
0.0
 10
17.88767097398723
 20
53.74979737296609
 30
0.0
 10
17.88347391766466
 20
53.74993759165132
 30
0.0
 10
17.87931217820935
 20
53.74998378420878
 30
0.0
 10
17.87515043875405
 20
53.75002997676624
 30
0.0
  0
SPLINE
  5
3D
330
1F
100
AcDbEntity
  8
DEFAULT
100
AcDbSpline
210
0.0
220
0.0
230
1.0
 70
    11
 71
     2
 72
   516
 73
   513
 74
     0
 42
0.0000000001
 43
0.0000000001
 40
0.0
 40
0.0
 40
0.0
 40
1.0
 40
1.0
 40
2.0
 40
2.0
 40
3.0
 40
3.0
 40
4.0
 40
4.0
 40
5.0
 40
5.0
 40
6.0
 40
6.0
 40
7.0
 40
7.0
 40
8.0
 40
8.0
 40
9.0
 40
9.0
 40
10.0
 40
10.0
 40
11.0
 40
11.0
 40
12.0
 40
12.0
 40
13.0
 40
13.0
 40
14.0
 40
14.0
 40
15.0
 40
15.0
 40
16.0
 40
16.0
 40
17.0
 40
17.0
 40
18.0
 40
18.0
 40
19.0
 40
19.0
 40
20.0
 40
20.0
 40
21.0
 40
21.0
 40
22.0
 40
22.0
 40
23.0
 40
23.0
 40
24.0
 40
24.0
 40
25.0
 40
25.0
 40
26.0
 40
26.0
 40
27.0
 40
27.0
 40
28.0
 40
28.0
 40
29.0
 40
29.0
 40
30.0
 40
30.0
 40
31.0
 40
31.0
 40
32.0
 40
32.0
 40
33.0
 40
33.0
 40
34.0
 40
34.0
 40
35.0
 40
35.0
 40
36.0
 40
36.0
 40
37.0
 40
37.0
 40
38.0
 40
38.0
 40
39.0
 40
39.0
 40
40.0
 40
40.0
 40
41.0
 40
41.0
 40
42.0
 40
42.0
 40
43.0
 40
43.0
 40
44.0
 40
44.0
 40
45.0
 40
45.0
 40
46.0
 40
46.0
 40
47.0
 40
47.0
 40
48.0
 40
48.0
 40
49.0
 40
49.0
 40
50.0
 40
50.0
 40
51.0
 40
51.0
 40
52.0
 40
52.0
 40
53.0
 40
53.0
 40
54.0
 40
54.0
 40
55.0
 40
55.0
 40
56.0
 40
56.0
 40
57.0
 40
57.0
 40
58.0
 40
58.0
 40
59.0
 40
59.0
 40
60.0
 40
60.0
 40
61.0
 40
61.0
 40
62.0
 40
62.0
 40
63.0
 40
63.0
 40
64.0
 40
64.0
 40
65.0
 40
65.0
 40
66.0
 40
66.0
 40
67.0
 40
67.0
 40
68.0
 40
68.0
 40
69.0
 40
69.0
 40
70.0
 40
70.0
 40
71.0
 40
71.0
 40
72.0
 40
72.0
 40
73.0
 40
73.0
 40
74.0
 40
74.0
 40
75.0
 40
75.0
 40
76.0
 40
76.0
 40
77.0
 40
77.0
 40
78.0
 40
78.0
 40
79.0
 40
79.0
 40
80.0
 40
80.0
 40
81.0
 40
81.0
 40
82.0
 40
82.0
 40
83.0
 40
83.0
 40
84.0
 40
84.0
 40
85.0
 40
85.0
 40
86.0
 40
86.0
 40
87.0
 40
87.0
 40
88.0
 40
88.0
 40
89.0
 40
89.0
 40
90.0
 40
90.0
 40
91.0
 40
91.0
 40
92.0
 40
92.0
 40
93.0
 40
93.0
 40
94.0
 40
94.0
 40
95.0
 40
95.0
 40
96.0
 40
96.0
 40
97.0
 40
97.0
 40
98.0
 40
98.0
 40
99.0
 40
99.0
 40
100.0
 40
100.0
 40
101.0
 40
101.0
 40
102.0
 40
102.0
 40
103.0
 40
103.0
 40
104.0
 40
104.0
 40
105.0
 40
105.0
 40
106.0
 40
106.0
 40
107.0
 40
107.0
 40
108.0
 40
108.0
 40
109.0
 40
109.0
 40
110.0
 40
110.0
 40
111.0
 40
111.0
 40
112.0
 40
112.0
 40
113.0
 40
113.0
 40
114.0
 40
114.0
 40
115.0
 40
115.0
 40
116.0
 40
116.0
 40
117.0
 40
117.0
 40
118.0
 40
118.0
 40
119.0
 40
119.0
 40
120.0
 40
120.0
 40
121.0
 40
121.0
 40
122.0
 40
122.0
 40
123.0
 40
123.0
 40
124.0
 40
124.0
 40
125.0
 40
125.0
 40
126.0
 40
126.0
 40
127.0
 40
127.0
 40
128.0
 40
128.0
 40
129.0
 40
129.0
 40
130.0
 40
130.0
 40
131.0
 40
131.0
 40
132.0
 40
132.0
 40
133.0
 40
133.0
 40
134.0
 40
134.0
 40
135.0
 40
135.0
 40
136.0
 40
136.0
 40
137.0
 40
137.0
 40
138.0
 40
138.0
 40
139.0
 40
139.0
 40
140.0
 40
140.0
 40
141.0
 40
141.0
 40
142.0
 40
142.0
 40
143.0
 40
143.0
 40
144.0
 40
144.0
 40
145.0
 40
145.0
 40
146.0
 40
146.0
 40
147.0
 40
147.0
 40
148.0
 40
148.0
 40
149.0
 40
149.0
 40
150.0
 40
150.0
 40
151.0
 40
151.0
 40
152.0
 40
152.0
 40
153.0
 40
153.0
 40
154.0
 40
154.0
 40
155.0
 40
155.0
 40
156.0
 40
156.0
 40
157.0
 40
157.0
 40
158.0
 40
158.0
 40
159.0
 40
159.0
 40
160.0
 40
160.0
 40
161.0
 40
161.0
 40
162.0
 40
162.0
 40
163.0
 40
163.0
 40
164.0
 40
164.0
 40
165.0
 40
165.0
 40
166.0
 40
166.0
 40
167.0
 40
167.0
 40
168.0
 40
168.0
 40
169.0
 40
169.0
 40
170.0
 40
170.0
 40
171.0
 40
171.0
 40
172.0
 40
172.0
 40
173.0
 40
173.0
 40
174.0
 40
174.0
 40
175.0
 40
175.0
 40
176.0
 40
176.0
 40
177.0
 40
177.0
 40
178.0
 40
178.0
 40
179.0
 40
179.0
 40
180.0
 40
180.0
 40
181.0
 40
181.0
 40
182.0
 40
182.0
 40
183.0
 40
183.0
 40
184.0
 40
184.0
 40
185.0
 40
185.0
 40
186.0
 40
186.0
 40
187.0
 40
187.0
 40
188.0
 40
188.0
 40
189.0
 40
189.0
 40
190.0
 40
190.0
 40
191.0
 40
191.0
 40
192.0
 40
192.0
 40
193.0
 40
193.0
 40
194.0
 40
194.0
 40
195.0
 40
195.0
 40
196.0
 40
196.0
 40
197.0
 40
197.0
 40
198.0
 40
198.0
 40
199.0
 40
199.0
 40
200.0
 40
200.0
 40
201.0
 40
201.0
 40
202.0
 40
202.0
 40
203.0
 40
203.0
 40
204.0
 40
204.0
 40
205.0
 40
205.0
 40
206.0
 40
206.0
 40
207.0
 40
207.0
 40
208.0
 40
208.0
 40
209.0
 40
209.0
 40
210.0
 40
210.0
 40
211.0
 40
211.0
 40
212.0
 40
212.0
 40
213.0
 40
213.0
 40
214.0
 40
214.0
 40
215.0
 40
215.0
 40
216.0
 40
216.0
 40
217.0
 40
217.0
 40
218.0
 40
218.0
 40
219.0
 40
219.0
 40
220.0
 40
220.0
 40
221.0
 40
221.0
 40
222.0
 40
222.0
 40
223.0
 40
223.0
 40
224.0
 40
224.0
 40
225.0
 40
225.0
 40
226.0
 40
226.0
 40
227.0
 40
227.0
 40
228.0
 40
228.0
 40
229.0
 40
229.0
 40
230.0
 40
230.0
 40
231.0
 40
231.0
 40
232.0
 40
232.0
 40
233.0
 40
233.0
 40
234.0
 40
234.0
 40
235.0
 40
235.0
 40
236.0
 40
236.0
 40
237.0
 40
237.0
 40
238.0
 40
238.0
 40
239.0
 40
239.0
 40
240.0
 40
240.0
 40
241.0
 40
241.0
 40
242.0
 40
242.0
 40
243.0
 40
243.0
 40
244.0
 40
244.0
 40
245.0
 40
245.0
 40
246.0
 40
246.0
 40
247.0
 40
247.0
 40
248.0
 40
248.0
 40
249.0
 40
249.0
 40
250.0
 40
250.0
 40
251.0
 40
251.0
 40
252.0
 40
252.0
 40
253.0
 40
253.0
 40
254.0
 40
254.0
 40
255.0
 40
255.0
 40
256.0
 40
256.0
 40
256.0
 10
45.13619952735957
 20
2.499999999999992
 30
0.0
 10
45.13607634720636
 20
14.7610979718808
 30
0.0
 10
45.13595316705315
 20
27.02219594376161
 30
0.0
 10
45.13557925055919
 20
27.03338809395513
 30
0.0
 10
45.13520533406524
 20
27.04458024414866
 30
0.0
 10
45.13457427217364
 20
27.05585924176903
 30
0.0
 10
45.13394321028204
 20
27.06713823938941
 30
0.0
 10
45.13304882312725
 20
27.07849633864356
 30
0.0
 10
45.13215443597245
 20
27.08985443789771
 30
0.0
 10
45.13099080143039
 20
27.10128348294079
 30
0.0
 10
45.12982716688833
 20
27.11271252798387
 30
0.0
 10
45.12838864945807
 20
27.12420395988043
 30
0.0
 10
45.12695013202782
 20
27.13569539177699
 30
0.0
 10
45.12523141188095
 20
27.14724025765096
 30
0.0
 10
45.12351269173406
 20
27.15878512352494
 30
0.0
 10
45.1215087937551
 20
27.17037408796855
 30
0.0
 10
45.11950489577615
 20
27.18196305241215
 30
0.0
 10
45.11721121840596
 20
27.19358641120888
 30
0.0
 10
45.11491754103577
 20
27.2052097700056
 30
0.0
 10
45.11232988471905
 20
27.21685746620603
 30
0.0
 10
45.10974222840233
 20
27.22850516240646
 30
0.0
 10
45.10685682343185
 20
27.24016680477749
 30
0.0
 10
45.10397141846138
 20
27.25182844714853
 30
0.0
 10
45.10078495200399
 20
27.26349333099695
 30
0.0
 10
45.09759848554661
 20
27.27515821484538
 30
0.0
 10
45.09410812763096
 20
27.28681534519571
 30
0.0
 10
45.09061776971532
 20
27.29847247554604
 30
0.0
 10
45.08682119795829
 20
27.31011059263066
 30
0.0
 10
45.08302462620127
 20
27.32174870971529
 30
0.0
 10
45.07892004904914
 20
27.33335631671173
 30
0.0
 10
45.07481547189701
 20
27.34496392370817
 30
0.0
 10
45.07040165015951
 20
27.35652931663503
 30
0.0
 10
45.06598782842201
 20
27.36809470956188
 30
0.0
 10
45.06126409488179
 20
27.3796060092208
 30
0.0
 10
45.05654036134158
 20
27.39111730887972
 30
0.0
 10
45.05150663822896
 20
27.40256249470729
 30
0.0
 10
45.04647291511634
 20
27.41400768053485
 30
0.0
 10
45.04112972924944
 20
27.42537462620439
 30
0.0
 10
45.03578654338254
 20
27.43674157187394
 30
0.0
 10
45.03013503878594
 20
27.44801808246498
 30
0.0
 10
45.02448353418934
 20
27.45929459305601
 30
0.0
 10
45.01852548202003
 20
27.47046844358704
 30
0.0
 10
45.01256742985072
 20
27.48164229411808
 30
0.0
 10
45.00630523547887
 20
27.49270126921862
 30
0.0
 10
45.00004304110702
 20
27.50376024431916
 30
0.0
 10
44.99347974822018
 20
27.51469217879841
 30
0.0
 10
44.98691645533334
 20
27.52562411327765
 30
0.0
 10
44.98005574695578
 20
27.5364169333314
 30
0.0
 10
44.97319503857823
 20
27.54720975338515
 30
0.0
 10
44.96604123492332
 20
27.55785151816883
 30
0.0
 10
44.9588874312684
 20
27.56849328295251
 30
0.0
 10
44.95144548436849
 20
27.57897222623766
 30
0.0
 10
44.94400353746859
 20
27.58945116952281
 30
0.0
 10
44.93627902255648
 20
27.59975574114677
 30
0.0
 10
44.92855450764436
 20
27.61006031277073
 30
0.0
 10
44.9205536112894
 20
27.62017921958498
 30
0.0
 10
44.91255271493444
 20
27.63029812639924
 30
0.0
 10
44.90428221996758
 20
27.64022037242104
 30
0.0
 10
44.89601172500074
 20
27.65014261844285
 30
0.0
 10
44.88747899229305
 20
27.65985754391752
 30
0.0
 10
44.87894625958535
 20
27.6695724693922
 30
0.0
 10
44.87015920677469
 20
27.67906978847977
 30
0.0
 10
44.86137215396401
 20
27.68856710756734
 30
0.0
 10
44.85233923125507
 20
27.69783694437695
 30
0.0
 10
44.84330630854613
 20
27.70710678118655
 30
0.0
 10
44.83403647173653
 20
27.71613970389549
 30
0.0
 10
44.82476663492693
 20
27.72517262660443
 30
0.0
 10
44.81526931583936
 20
27.73395967941509
 30
0.0
 10
44.80577199675178
 20
27.74274673222576
 30
0.0
 10
44.7960570712771
 20
27.75127946493347
 30
0.0
 10
44.78634214580242
 20
27.75981219764117
 30
0.0
 10
44.77641989978062
 20
27.76808269260801
 30
0.0
 10
44.76649765375883
 20
27.77635318757485
 30
0.0
 10
44.75637874694457
 20
27.78435408392981
 30
0.0
 10
44.74625984013031
 20
27.79235498028478
 30
0.0
 10
44.73595526850634
 20
27.8000794951969
 30
0.0
 10
44.72565069688238
 20
27.80780401010902
 30
0.0
 10
44.71517175359723
 20
27.81524595700892
 30
0.0
 10
44.70469281031208
 20
27.82268790390882
 30
0.0
 10
44.6940510455284
 20
27.82984170756374
 30
0.0
 10
44.68340928074472
 20
27.83699551121866
 30
0.0
 10
44.67261646069097
 20
27.84385621959621
 30
0.0
 10
44.66182364063723
 20
27.85071692797376
 30
0.0
 10
44.65089170615799
 20
27.8572802208606
 30
0.0
 10
44.63995977167874
 20
27.86384351374744
 30
0.0
 10
44.62890079657821
 20
27.87010570811928
 30
0.0
 10
44.61784182147768
 20
27.87636790249112
 30
0.0
 10
44.60666797094663
 20
27.88232595466044
 30
0.0
 10
44.59549412041559
 20
27.88828400682976
 30
0.0
 10
44.58421760982455
 20
27.89393551142636
 30
0.0
 10
44.57294109923351
 20
27.89958701602296
 30
0.0
 10
44.56157415356398
 20
27.90493020188986
 30
0.0
 10
44.55020720789445
 20
27.91027338775676
 30
0.0
 10
44.53876202206688
 20
27.91530711086938
 30
0.0
 10
44.5273168362393
 20
27.920340833982
 30
0.0
 10
44.51580553658038
 20
27.92506456752222
 30
0.0
 10
44.50429423692146
 20
27.92978830106244
 30
0.0
 10
44.49272884399461
 20
27.93420212279993
 30
0.0
 10
44.48116345106776
 20
27.93861594453743
 30
0.0
 10
44.46955584407131
 20
27.94272052168956
 30
0.0
 10
44.45794823707486
 20
27.94682509884169
 30
0.0
 10
44.44631011999023
 20
27.95062167059872
 30
0.0
 10
44.4346720029056
 20
27.95441824235575
 30
0.0
 10
44.42301487255527
 20
27.9579086002714
 30
0.0
 10
44.41135774220494
 20
27.96139895818704
 30
0.0
 10
44.39969285835652
 20
27.96458542464443
 30
0.0
 10
44.38802797450811
 20
27.96777189110182
 30
0.0
 10
44.37636633213707
 20
27.97065729607229
 30
0.0
 10
44.36470468976602
 20
27.97354270104276
 30
0.0
 10
44.3530569935656
 20
27.97613035735947
 30
0.0
 10
44.34140929736517
 20
27.97871801367619
 30
0.0
 10
44.32978593856844
 20
27.98101169104638
 30
0.0
 10
44.31816257977171
 20
27.98330536841658
 30
0.0
 10
44.30657361532811
 20
27.98530926639554
 30
0.0
 10
44.29498465088452
 20
27.9873131643745
 30
0.0
 10
44.28343978501054
 20
27.98903188452137
 30
0.0
 10
44.27189491913656
 20
27.99075060466825
 30
0.0
 10
44.26040348724
 20
27.99218912209851
 30
0.0
 10
44.24891205534344
 20
27.99362763952876
 30
0.0
 10
44.23748301030037
 20
27.99479127407082
 30
0.0
 10
44.22605396525729
 20
27.99595490861288
 30
0.0
 10
44.21469586600313
 20
27.99684929576767
 30
0.0
 10
44.20333776674897
 20
27.99774368292247
 30
0.0
 10
44.19205876912859
 20
27.99837474481407
 30
0.0
 10
44.18077977150822
 20
27.99900580670567
 30
0.0
 10
44.1695876213147
 20
27.99937972319962
 30
0.0
 10
44.1583954711212
 20
27.99975363969357
 30
0.0
 10
37.27217280493109
 20
27.99987681984678
 30
0.0
 10
30.38595013874097
 20
28.0
 30
0.0
 10
30.37485216686017
 20
27.99987681984678
 30
0.0
 10
30.36375419497936
 20
27.99975363969357
 30
0.0
 10
30.35256204478584
 20
27.99937972319962
 30
0.0
 10
30.34136989459232
 20
27.99900580670567
 30
0.0
 10
30.33009089697195
 20
27.99837474481407
 30
0.0
 10
30.31881189935157
 20
27.99774368292247
 30
0.0
 10
30.30745380009742
 20
27.99684929576767
 30
0.0
 10
30.29609570084327
 20
27.99595490861288
 30
0.0
 10
30.28466665580019
 20
27.99479127407082
 30
0.0
 10
30.2732376107571
 20
27.99362763952876
 30
0.0
 10
30.26174617886054
 20
27.9921891220985
 30
0.0
 10
30.25025474696398
 20
27.99075060466824
 30
0.0
 10
30.23870988109001
 20
27.98903188452137
 30
0.0
 10
30.22716501521603
 20
27.98731316437449
 30
0.0
 10
30.21557605077243
 20
27.98530926639554
 30
0.0
 10
30.20398708632882
 20
27.98330536841658
 30
0.0
 10
30.1923637275321
 20
27.98101169104638
 30
0.0
 10
30.18074036873538
 20
27.97871801367619
 30
0.0
 10
30.16909267253496
 20
27.97613035735947
 30
0.0
 10
30.15744497633453
 20
27.97354270104275
 30
0.0
 10
30.14578333396349
 20
27.97065729607228
 30
0.0
 10
30.13412169159245
 20
27.9677718911018
 30
0.0
 10
30.12245680774403
 20
27.96458542464442
 30
0.0
 10
30.1107919238956
 20
27.96139895818703
 30
0.0
 10
30.09913479354527
 20
27.95790860027138
 30
0.0
 10
30.08747766319494
 20
27.95441824235574
 30
0.0
 10
30.07583954611032
 20
27.95062167059871
 30
0.0
 10
30.06420142902569
 20
27.94682509884167
 30
0.0
 10
30.05259382202925
 20
27.94272052168954
 30
0.0
 10
30.0409862150328
 20
27.93861594453742
 30
0.0
 10
30.02942082210595
 20
27.93420212279992
 30
0.0
 10
30.0178554291791
 20
27.92978830106243
 30
0.0
 10
30.00634412952018
 20
27.92506456752221
 30
0.0
 10
29.99483282986125
 20
27.920340833982
 30
0.0
 10
29.98338764403369
 20
27.91530711086938
 30
0.0
 10
29.97194245820613
 20
27.91027338775676
 30
0.0
 10
29.96057551253659
 20
27.90493020188987
 30
0.0
 10
29.94920856686704
 20
27.89958701602297
 30
0.0
 10
29.93793205627601
 20
27.89393551142636
 30
0.0
 10
29.92665554568497
 20
27.88828400682976
 30
0.0
 10
29.91548169515394
 20
27.88232595466044
 30
0.0
 10
29.9043078446229
 20
27.87636790249112
 30
0.0
 10
29.89324886952236
 20
27.87010570811928
 30
0.0
 10
29.88218989442182
 20
27.86384351374743
 30
0.0
 10
29.87125795994258
 20
27.85728022086059
 30
0.0
 10
29.86032602546333
 20
27.85071692797375
 30
0.0
 10
29.84953320540959
 20
27.8438562195962
 30
0.0
 10
29.83874038535583
 20
27.83699551121865
 30
0.0
 10
29.82809862057216
 20
27.82984170756374
 30
0.0
 10
29.81745685578847
 20
27.82268790390882
 30
0.0
 10
29.80697791250332
 20
27.81524595700892
 30
0.0
 10
29.79649896921817
 20
27.80780401010901
 30
0.0
 10
29.78619439759422
 20
27.8000794951969
 30
0.0
 10
29.77588982597025
 20
27.79235498028478
 30
0.0
 10
29.765770919156
 20
27.78435408392981
 30
0.0
 10
29.75565201234174
 20
27.77635318757485
 30
0.0
 10
29.74572976631995
 20
27.76808269260801
 30
0.0
 10
29.73580752029815
 20
27.75981219764117
 30
0.0
 10
29.72609259482346
 20
27.75127946493347
 30
0.0
 10
29.71637766934878
 20
27.74274673222576
 30
0.0
 10
29.70688035026122
 20
27.73395967941509
 30
0.0
 10
29.69738303117364
 20
27.72517262660442
 30
0.0
 10
29.68811319436404
 20
27.71613970389549
 30
0.0
 10
29.67884335755442
 20
27.70710678118655
 30
0.0
 10
29.66981043484549
 20
27.69783694437695
 30
0.0
 10
29.66077751213656
 20
27.68856710756734
 30
0.0
 10
29.65199045932589
 20
27.67906978847977
 30
0.0
 10
29.64320340651521
 20
27.66957246939219
 30
0.0
 10
29.63467067380751
 20
27.65985754391751
 30
0.0
 10
29.62613794109981
 20
27.65014261844284
 30
0.0
 10
29.61786744613297
 20
27.64022037242104
 30
0.0
 10
29.60959695116613
 20
27.63029812639924
 30
0.0
 10
29.60159605481117
 20
27.62017921958498
 30
0.0
 10
29.5935951584562
 20
27.61006031277073
 30
0.0
 10
29.58587064354408
 20
27.59975574114677
 30
0.0
 10
29.57814612863196
 20
27.5894511695228
 30
0.0
 10
29.57070418173206
 20
27.57897222623765
 30
0.0
 10
29.56326223483216
 20
27.5684932829525
 30
0.0
 10
29.55610843117724
 20
27.55785151816882
 30
0.0
 10
29.54895462752232
 20
27.54720975338514
 30
0.0
 10
29.54209391914478
 20
27.53641693333139
 30
0.0
 10
29.53523321076722
 20
27.52562411327764
 30
0.0
 10
29.52866991788039
 20
27.51469217879839
 30
0.0
 10
29.52210662499354
 20
27.50376024431915
 30
0.0
 10
29.5158444306217
 20
27.49270126921861
 30
0.0
 10
29.50958223624986
 20
27.48164229411807
 30
0.0
 10
29.50362418408054
 20
27.47046844358704
 30
0.0
 10
29.49766613191122
 20
27.459294593056
 30
0.0
 10
29.49201462731462
 20
27.44801808246497
 30
0.0
 10
29.48636312271801
 20
27.43674157187393
 30
0.0
 10
29.48101993685112
 20
27.42537462620439
 30
0.0
 10
29.47567675098422
 20
27.41400768053484
 30
0.0
 10
29.4706430278716
 20
27.40256249470728
 30
0.0
 10
29.46560930475897
 20
27.39111730887971
 30
0.0
 10
29.46088557121876
 20
27.37960600922079
 30
0.0
 10
29.45616183767854
 20
27.36809470956187
 30
0.0
 10
29.45174801594105
 20
27.35652931663502
 30
0.0
 10
29.44733419420355
 20
27.34496392370817
 30
0.0
 10
29.44322961705142
 20
27.33335631671173
 30
0.0
 10
29.4391250398993
 20
27.32174870971528
 30
0.0
 10
29.43532846814226
 20
27.31011059263066
 30
0.0
 10
29.43153189638522
 20
27.29847247554603
 30
0.0
 10
29.42804153846959
 20
27.2868153451957
 30
0.0
 10
29.42455118055394
 20
27.27515821484537
 30
0.0
 10
29.42136471409656
 20
27.26349333099694
 30
0.0
 10
29.41817824763917
 20
27.25182844714852
 30
0.0
 10
29.41529284266871
 20
27.24016680477748
 30
0.0
 10
29.41240743769823
 20
27.22850516240644
 30
0.0
 10
29.40981978138151
 20
27.21685746620602
 30
0.0
 10
29.40723212506479
 20
27.20520977000559
 30
0.0
 10
29.40493844769459
 20
27.19358641120887
 30
0.0
 10
29.40264477032439
 20
27.18196305241214
 30
0.0
 10
29.40064087234544
 20
27.17037408796853
 30
0.0
 10
29.39863697436648
 20
27.15878512352493
 30
0.0
 10
29.3969182542196
 20
27.14724025765096
 30
0.0
 10
29.39519953407272
 20
27.13569539177698
 30
0.0
 10
29.39376101664247
 20
27.12420395988043
 30
0.0
 10
29.39232249921222
 20
27.11271252798387
 30
0.0
 10
29.39115886467016
 20
27.10128348294079
 30
0.0
 10
29.38999523012809
 20
27.0898544378977
 30
0.0
 10
29.3891008429733
 20
27.07849633864355
 30
0.0
 10
29.3882064558185
 20
27.06713823938941
 30
0.0
 10
29.3875753939269
 20
27.05585924176903
 30
0.0
 10
29.3869443320353
 20
27.04458024414866
 30
0.0
 10
29.38657041554135
 20
27.03338809395513
 30
0.0
 10
29.3861964990474
 20
27.02219594376161
 30
0.0
 10
29.38607331889419
 20
14.7610979718808
 30
0.0
 10
29.38595013874097
 20
2.499999999999992
 30
0.0
 10
29.38607331889419
 20
2.48890202811919
 30
0.0
 10
29.3861964990474
 20
2.477804056238387
 30
0.0
 10
29.38657041554135
 20
2.466611906044861
 30
0.0
 10
29.38694433203529
 20
2.455419755851334
 30
0.0
 10
29.3875753939269
 20
2.444140758230961
 30
0.0
 10
29.3882064558185
 20
2.432861760610587
 30
0.0
 10
29.3891008429733
 20
2.421503661356437
 30
0.0
 10
29.38999523012809
 20
2.410145562102287
 30
0.0
 10
29.39115886467015
 20
2.398716517059206
 30
0.0
 10
29.39232249921221
 20
2.387287472016124
 30
0.0
 10
29.39376101664247
 20
2.375796040119565
 30
0.0
 10
29.39519953407272
 20
2.364304608223006
 30
0.0
 10
29.3969182542196
 20
2.352759742349031
 30
0.0
 10
29.39863697436648
 20
2.341214876475056
 30
0.0
 10
29.40064087234543
 20
2.329625912031451
 30
0.0
 10
29.40264477032439
 20
2.318036947587847
 30
0.0
 10
29.40493844769459
 20
2.306413588791124
 30
0.0
 10
29.40723212506478
 20
2.294790229994401
 30
0.0
 10
29.4098197813815
 20
2.283142533793973
 30
0.0
 10
29.41240743769822
 20
2.271494837593545
 30
0.0
 10
29.41529284266869
 20
2.259833195222508
 30
0.0
 10
29.41817824763917
 20
2.248171552851471
 30
0.0
 10
29.42136471409655
 20
2.236506669003046
 30
0.0
 10
29.42455118055393
 20
2.224841785154622
 30
0.0
 10
29.42804153846959
 20
2.213184654804288
 30
0.0
 10
29.43153189638523
 20
2.201527524453954
 30
0.0
 10
29.43532846814227
 20
2.189889407369334
 30
0.0
 10
29.4391250398993
 20
2.178251290284713
 30
0.0
 10
29.44322961705142
 20
2.16664368328827
 30
0.0
 10
29.44733419420355
 20
2.155036076291826
 30
0.0
 10
29.45174801594105
 20
2.143470683364972
 30
0.0
 10
29.45616183767854
 20
2.131905290438119
 30
0.0
 10
29.46088557121875
 20
2.120393990779195
 30
0.0
 10
29.46560930475896
 20
2.10888269112027
 30
0.0
 10
29.47064302787159
 20
2.097437505292708
 30
0.0
 10
29.47567675098421
 20
2.085992319465146
 30
0.0
 10
29.48101993685111
 20
2.074625373795604
 30
0.0
 10
29.486363122718
 20
2.063258428126062
 30
0.0
 10
29.49201462731461
 20
2.051981917535025
 30
0.0
 10
29.49766613191121
 20
2.040705406943988
 30
0.0
 10
29.50362418408054
 20
2.029531556412952
 30
0.0
 10
29.50958223624986
 20
2.018357705881916
 30
0.0
 10
29.5158444306217
 20
2.007298730781379
 30
0.0
 10
29.52210662499353
 20
1.996239755680841
 30
0.0
 10
29.52866991788038
 20
1.985307821201596
 30
0.0
 10
29.53523321076722
 20
1.97437588672235
 30
0.0
 10
29.54209391914477
 20
1.963583066668599
 30
0.0
 10
29.54895462752231
 20
1.952790246614849
 30
0.0
 10
29.55610843117723
 20
1.94214848183117
 30
0.0
 10
29.56326223483214
 20
1.93150671704749
 30
0.0
 10
29.57070418173205
 20
1.92102777376234
 30
0.0
 10
29.57814612863195
 20
1.91054883047719
 30
0.0
 10
29.58587064354407
 20
1.90024425885323
 30
0.0
 10
29.59359515845619
 20
1.889939687229269
 30
0.0
 10
29.60159605481116
 20
1.879820780415016
 30
0.0
 10
29.60959695116613
 20
1.869701873600762
 30
0.0
 10
29.61786744613296
 20
1.859779627578959
 30
0.0
 10
29.6261379410998
 20
1.849857381557156
 30
0.0
 10
29.63467067380751
 20
1.840142456082477
 30
0.0
 10
29.64320340651521
 20
1.830427530607798
 30
0.0
 10
29.65199045932587
 20
1.820930211520226
 30
0.0
 10
29.66077751213654
 20
1.811432892432655
 30
0.0
 10
29.66981043484548
 20
1.802163055623049
 30
0.0
 10
29.67884335755441
 20
1.792893218813444
 30
0.0
 10
29.68811319436402
 20
1.783860296104509
 30
0.0
 10
29.69738303117362
 20
1.774827373395574
 30
0.0
 10
29.7068803502612
 20
1.766040320584904
 30
0.0
 10
29.71637766934877
 20
1.757253267774235
 30
0.0
 10
29.72609259482346
 20
1.748720535066532
 30
0.0
 10
29.73580752029813
 20
1.740187802358829
 30
0.0
 10
29.74572976631993
 20
1.731917307391989
 30
0.0
 10
29.75565201234173
 20
1.723646812425149
 30
0.0
 10
29.76577091915599
 20
1.715645916070183
 30
0.0
 10
29.77588982597024
 20
1.707645019715217
 30
0.0
 10
29.7861943975942
 20
1.699920504803099
 30
0.0
 10
29.79649896921816
 20
1.69219598989098
 30
0.0
 10
29.80697791250331
 20
1.684754042991076
 30
0.0
 10
29.81745685578846
 20
1.677312096091173
 30
0.0
 10
29.82809862057214
 20
1.670158292436256
 30
0.0
 10
29.83874038535582
 20
1.66300448878134
 30
0.0
 10
29.84953320540958
 20
1.656143780403792
 30
0.0
 10
29.86032602546333
 20
1.649283072026243
 30
0.0
 10
29.87125795994258
 20
1.642719779139401
 30
0.0
 10
29.88218989442181
 20
1.63615648625256
 30
0.0
 10
29.89324886952236
 20
1.629894291880718
 30
0.0
 10
29.9043078446229
 20
1.623632097508877
 30
0.0
 10
29.91548169515393
 20
1.617674045339558
 30
0.0
 10
29.92665554568496
 20
1.611715993170239
 30
0.0
 10
29.937932056276
 20
1.606064488573637
 30
0.0
 10
29.94920856686703
 20
1.600412983977034
 30
0.0
 10
29.96057551253658
 20
1.595069798110136
 30
0.0
 10
29.97194245820612
 20
1.589726612243239
 30
0.0
 10
29.98338764403368
 20
1.584692889130615
 30
0.0
 10
29.99483282986125
 20
1.579659166017991
 30
0.0
 10
30.00634412952017
 20
1.574935432477776
 30
0.0
 10
30.01785542917909
 20
1.570211698937561
 30
0.0
 10
30.02942082210595
 20
1.565797877200068
 30
0.0
 10
30.0409862150328
 20
1.561384055462575
 30
0.0
 10
30.05259382202925
 20
1.557279478310444
 30
0.0
 10
30.06420142902569
 20
1.553174901158314
 30
0.0
 10
30.07583954611032
 20
1.549378329401283
 30
0.0
 10
30.08747766319494
 20
1.545581757644251
 30
0.0
 10
30.09913479354527
 20
1.542091399728605
 30
0.0
 10
30.1107919238956
 20
1.53860104181296
 30
0.0
 10
30.12245680774402
 20
1.535414575355574
 30
0.0
 10
30.13412169159244
 20
1.532228108898187
 30
0.0
 10
30.14578333396349
 20
1.529342703927717
 30
0.0
 10
30.15744497633452
 20
1.526457298957247
 30
0.0
 10
30.16909267253495
 20
1.523869642640528
 30
0.0
 10
30.18074036873537
 20
1.521281986323809
 30
0.0
 10
30.1923637275321
 20
1.518988308953613
 30
0.0
 10
30.20398708632882
 20
1.516694631583417
 30
0.0
 10
30.21557605077243
 20
1.514690733604459
 30
0.0
 10
30.22716501521603
 20
1.512686835625501
 30
0.0
 10
30.23870988109001
 20
1.510968115478625
 30
0.0
 10
30.25025474696398
 20
1.509249395331748
 30
0.0
 10
30.26174617886054
 20
1.507810877901492
 30
0.0
 10
30.2732376107571
 20
1.506372360471236
 30
0.0
 10
30.28466665580018
 20
1.505208725929175
 30
0.0
 10
30.29609570084326
 20
1.504045091387113
 30
0.0
 10
30.30745380009741
 20
1.503150704232318
 30
0.0
 10
30.31881189935156
 20
1.502256317077523
 30
0.0
 10
30.33009089697194
 20
1.501625255185922
 30
0.0
 10
30.34136989459232
 20
1.500994193294322
 30
0.0
 10
30.35256204478584
 20
1.500620276800375
 30
0.0
 10
30.36375419497936
 20
1.500246360306427
 30
0.0
 10
37.24997686116947
 20
1.500123180153212
 30
0.0
 10
44.13619952735957
 20
1.499999999999996
 30
0.0
 10
44.14729749924037
 20
1.500123180153213
 30
0.0
 10
44.15839547112117
 20
1.50024636030643
 30
0.0
 10
44.1695876213147
 20
1.500620276800378
 30
0.0
 10
44.18077977150823
 20
1.500994193294326
 30
0.0
 10
44.19205876912861
 20
1.501625255185926
 30
0.0
 10
44.20333776674898
 20
1.502256317077527
 30
0.0
 10
44.21469586600313
 20
1.503150704232322
 30
0.0
 10
44.22605396525727
 20
1.504045091387117
 30
0.0
 10
44.23748301030035
 20
1.505208725929179
 30
0.0
 10
44.24891205534344
 20
1.50637236047124
 30
0.0
 10
44.26040348724
 20
1.507810877901496
 30
0.0
 10
44.27189491913655
 20
1.509249395331752
 30
0.0
 10
44.28343978501053
 20
1.510968115478628
 30
0.0
 10
44.29498465088452
 20
1.512686835625504
 30
0.0
 10
44.30657361532811
 20
1.514690733604463
 30
0.0
 10
44.31816257977171
 20
1.516694631583421
 30
0.0
 10
44.32978593856844
 20
1.518988308953617
 30
0.0
 10
44.34140929736517
 20
1.521281986323813
 30
0.0
 10
44.3530569935656
 20
1.523869642640532
 30
0.0
 10
44.36470468976602
 20
1.526457298957251
 30
0.0
 10
44.37636633213705
 20
1.529342703927721
 30
0.0
 10
44.38802797450809
 20
1.532228108898191
 30
0.0
 10
44.39969285835652
 20
1.535414575355578
 30
0.0
 10
44.41135774220496
 20
1.538601041812964
 30
0.0
 10
44.42301487255529
 20
1.542091399728609
 30
0.0
 10
44.43467200290562
 20
1.545581757644255
 30
0.0
 10
44.44631011999024
 20
1.549378329401287
 30
0.0
 10
44.45794823707485
 20
1.553174901158318
 30
0.0
 10
44.46955584407129
 20
1.557279478310448
 30
0.0
 10
44.48116345106774
 20
1.561384055462579
 30
0.0
 10
44.4927288439946
 20
1.565797877200072
 30
0.0
 10
44.50429423692145
 20
1.570211698937565
 30
0.0
 10
44.51580553658037
 20
1.57493543247778
 30
0.0
 10
44.52731683623929
 20
1.579659166017995
 30
0.0
 10
44.53876202206685
 20
1.584692889130618
 30
0.0
 10
44.55020720789441
 20
1.589726612243242
 30
0.0
 10
44.56157415356395
 20
1.59506979811014
 30
0.0
 10
44.5729410992335
 20
1.600412983977038
 30
0.0
 10
44.58421760982453
 20
1.606064488573641
 30
0.0
 10
44.59549412041557
 20
1.611715993170243
 30
0.0
 10
44.6066679709466
 20
1.617674045339561
 30
0.0
 10
44.61784182147764
 20
1.62363209750888
 30
0.0
 10
44.62890079657818
 20
1.629894291880722
 30
0.0
 10
44.63995977167873
 20
1.636156486252563
 30
0.0
 10
44.65089170615796
 20
1.642719779139404
 30
0.0
 10
44.66182364063721
 20
1.649283072026245
 30
0.0
 10
44.67261646069096
 20
1.656143780403795
 30
0.0
 10
44.68340928074471
 20
1.663004488781344
 30
0.0
 10
44.6940510455284
 20
1.67015829243626
 30
0.0
 10
44.70469281031208
 20
1.677312096091176
 30
0.0
 10
44.71517175359723
 20
1.684754042991079
 30
0.0
 10
44.72565069688238
 20
1.692195989890983
 30
0.0
 10
44.73595526850634
 20
1.699920504803101
 30
0.0
 10
44.7462598401303
 20
1.707645019715219
 30
0.0
 10
44.75637874694455
 20
1.715645916070186
 30
0.0
 10
44.7664976537588
 20
1.723646812425152
 30
0.0
 10
44.77641989978061
 20
1.731917307391992
 30
0.0
 10
44.78634214580241
 20
1.740187802358832
 30
0.0
 10
44.79605707127708
 20
1.748720535066535
 30
0.0
 10
44.80577199675175
 20
1.757253267774238
 30
0.0
 10
44.81526931583933
 20
1.766040320584907
 30
0.0
 10
44.8247666349269
 20
1.774827373395576
 30
0.0
 10
44.83403647173651
 20
1.783860296104511
 30
0.0
 10
44.84330630854611
 20
1.792893218813447
 30
0.0
 10
44.85233923125504
 20
1.802163055623052
 30
0.0
 10
44.86137215396397
 20
1.811432892432657
 30
0.0
 10
44.87015920677464
 20
1.820930211520229
 30
0.0
 10
44.87894625958531
 20
1.8304275306078
 30
0.0
 10
44.88747899229303
 20
1.84014245608248
 30
0.0
 10
44.89601172500073
 20
1.849857381557159
 30
0.0
 10
44.90428221996757
 20
1.859779627578962
 30
0.0
 10
44.91255271493441
 20
1.869701873600764
 30
0.0
 10
44.92055361128938
 20
1.879820780415017
 30
0.0
 10
44.92855450764435
 20
1.88993968722927
 30
0.0
 10
44.93627902255647
 20
1.900244258853231
 30
0.0
 10
44.94400353746859
 20
1.910548830477192
 30
0.0
 10
44.95144548436849
 20
1.921027773762342
 30
0.0
 10
44.9588874312684
 20
1.931506717047492
 30
0.0
 10
44.96604123492331
 20
1.942148481831171
 30
0.0
 10
44.97319503857823
 20
1.952790246614851
 30
0.0
 10
44.98005574695577
 20
1.963583066668602
 30
0.0
 10
44.98691645533332
 20
1.974375886722352
 30
0.0
 10
44.99347974822017
 20
1.985307821201597
 30
0.0
 10
45.00004304110701
 20
1.996239755680842
 30
0.0
 10
45.00630523547885
 20
2.007298730781379
 30
0.0
 10
45.01256742985068
 20
2.018357705881917
 30
0.0
 10
45.01852548202
 20
2.029531556412953
 30
0.0
 10
45.02448353418932
 20
2.04070540694399
 30
0.0
 10
45.03013503878593
 20
2.051981917535026
 30
0.0
 10
45.03578654338254
 20
2.063258428126063
 30
0.0
 10
45.04112972924943
 20
2.074625373795605
 30
0.0
 10
45.04647291511633
 20
2.085992319465147
 30
0.0
 10
45.05150663822895
 20
2.097437505292709
 30
0.0
 10
45.05654036134158
 20
2.108882691120272
 30
0.0
 10
45.06126409488179
 20
2.120393990779196
 30
0.0
 10
45.065987828422
 20
2.13190529043812
 30
0.0
 10
45.0704016501595
 20
2.143470683364973
 30
0.0
 10
45.07481547189699
 20
2.155036076291827
 30
0.0
 10
45.07892004904912
 20
2.166643683288271
 30
0.0
 10
45.08302462620125
 20
2.178251290284714
 30
0.0
 10
45.08682119795829
 20
2.189889407369335
 30
0.0
 10
45.09061776971532
 20
2.201527524453956
 30
0.0
 10
45.09410812763096
 20
2.21318465480429
 30
0.0
 10
45.09759848554661
 20
2.224841785154624
 30
0.0
 10
45.10078495200399
 20
2.236506669003048
 30
0.0
 10
45.10397141846137
 20
2.248171552851471
 30
0.0
 10
45.10685682343185
 20
2.259833195222509
 30
0.0
 10
45.10974222840233
 20
2.271494837593546
 30
0.0
 10
45.11232988471905
 20
2.283142533793974
 30
0.0
 10
45.11491754103577
 20
2.294790229994402
 30
0.0
 10
45.11721121840596
 20
2.306413588791125
 30
0.0
 10
45.11950489577615
 20
2.318036947587848
 30
0.0
 10
45.1215087937551
 20
2.329625912031452
 30
0.0
 10
45.12351269173406
 20
2.341214876475057
 30
0.0
 10
45.12523141188094
 20
2.352759742349031
 30
0.0
 10
45.12695013202782
 20
2.364304608223006
 30
0.0
 10
45.12838864945807
 20
2.375796040119566
 30
0.0
 10
45.12982716688833
 20
2.387287472016125
 30
0.0
 10
45.13099080143039
 20
2.398716517059206
 30
0.0
 10
45.13215443597245
 20
2.410145562102287
 30
0.0
 10
45.13304882312725
 20
2.421503661356438
 30
0.0
 10
45.13394321028206
 20
2.432861760610588
 30
0.0
 10
45.13457427217365
 20
2.444140758230961
 30
0.0
 10
45.13520533406525
 20
2.455419755851334
 30
0.0
 10
45.1355792505592
 20
2.466611906044861
 30
0.0
 10
45.13595316705315
 20
2.477804056238387
 30
0.0
 10
45.13607634720636
 20
2.48890202811919
 30
0.0
 10
45.13619952735957
 20
2.499999999999992
 30
0.0
  0
SPLINE
  5
3E
330
1F
100
AcDbEntity
  8
DEFAULT
100
AcDbSpline
210
0.0
220
0.0
230
1.0
 70
    24
 71
     2
 72
     6
 73
     3
 74
     0
 42
0.0000000001
 43
0.0000000001
 40
0.0
 40
0.0
 40
0.0
 40
5.360000000000014
 40
5.360000000000014
 40
5.360000000000014
 10
34.83095013874097
 20
0.6024999999999983
 30
0.0
 10
37.26107483305027
 20
0.6024999999999983
 30
0.0
 10
39.69119952735958
 20
0.6024999999999983
 30
0.0
  0
SPLINE
  5
3F
330
1F
100
AcDbEntity
  8
DEFAULT
100
AcDbSpline
210
0.0
220
0.0
230
1.0
 70
     8
 71
     2
 72
   260
 73
   257
 74
     0
 42
0.0000000001
 43
0.0000000001
 40
0.0
 40
0.0
 40
0.0
 40
1.0
 40
1.0
 40
2.0
 40
2.0
 40
3.0
 40
3.0
 40
4.0
 40
4.0
 40
5.0
 40
5.0
 40
6.0
 40
6.0
 40
7.0
 40
7.0
 40
8.0
 40
8.0
 40
9.0
 40
9.0
 40
10.0
 40
10.0
 40
11.0
 40
11.0
 40
12.0
 40
12.0
 40
13.0
 40
13.0
 40
14.0
 40
14.0
 40
15.0
 40
15.0
 40
16.0
 40
16.0
 40
17.0
 40
17.0
 40
18.0
 40
18.0
 40
19.0
 40
19.0
 40
20.0
 40
20.0
 40
21.0
 40
21.0
 40
22.0
 40
22.0
 40
23.0
 40
23.0
 40
24.0
 40
24.0
 40
25.0
 40
25.0
 40
26.0
 40
26.0
 40
27.0
 40
27.0
 40
28.0
 40
28.0
 40
29.0
 40
29.0
 40
30.0
 40
30.0
 40
31.0
 40
31.0
 40
32.0
 40
32.0
 40
33.0
 40
33.0
 40
34.0
 40
34.0
 40
35.0
 40
35.0
 40
36.0
 40
36.0
 40
37.0
 40
37.0
 40
38.0
 40
38.0
 40
39.0
 40
39.0
 40
40.0
 40
40.0
 40
41.0
 40
41.0
 40
42.0
 40
42.0
 40
43.0
 40
43.0
 40
44.0
 40
44.0
 40
45.0
 40
45.0
 40
46.0
 40
46.0
 40
47.0
 40
47.0
 40
48.0
 40
48.0
 40
49.0
 40
49.0
 40
50.0
 40
50.0
 40
51.0
 40
51.0
 40
52.0
 40
52.0
 40
53.0
 40
53.0
 40
54.0
 40
54.0
 40
55.0
 40
55.0
 40
56.0
 40
56.0
 40
57.0
 40
57.0
 40
58.0
 40
58.0
 40
59.0
 40
59.0
 40
60.0
 40
60.0
 40
61.0
 40
61.0
 40
62.0
 40
62.0
 40
63.0
 40
63.0
 40
64.0
 40
64.0
 40
65.0
 40
65.0
 40
66.0
 40
66.0
 40
67.0
 40
67.0
 40
68.0
 40
68.0
 40
69.0
 40
69.0
 40
70.0
 40
70.0
 40
71.0
 40
71.0
 40
72.0
 40
72.0
 40
73.0
 40
73.0
 40
74.0
 40
74.0
 40
75.0
 40
75.0
 40
76.0
 40
76.0
 40
77.0
 40
77.0
 40
78.0
 40
78.0
 40
79.0
 40
79.0
 40
80.0
 40
80.0
 40
81.0
 40
81.0
 40
82.0
 40
82.0
 40
83.0
 40
83.0
 40
84.0
 40
84.0
 40
85.0
 40
85.0
 40
86.0
 40
86.0
 40
87.0
 40
87.0
 40
88.0
 40
88.0
 40
89.0
 40
89.0
 40
90.0
 40
90.0
 40
91.0
 40
91.0
 40
92.0
 40
92.0
 40
93.0
 40
93.0
 40
94.0
 40
94.0
 40
95.0
 40
95.0
 40
96.0
 40
96.0
 40
97.0
 40
97.0
 40
98.0
 40
98.0
 40
99.0
 40
99.0
 40
100.0
 40
100.0
 40
101.0
 40
101.0
 40
102.0
 40
102.0
 40
103.0
 40
103.0
 40
104.0
 40
104.0
 40
105.0
 40
105.0
 40
106.0
 40
106.0
 40
107.0
 40
107.0
 40
108.0
 40
108.0
 40
109.0
 40
109.0
 40
110.0
 40
110.0
 40
111.0
 40
111.0
 40
112.0
 40
112.0
 40
113.0
 40
113.0
 40
114.0
 40
114.0
 40
115.0
 40
115.0
 40
116.0
 40
116.0
 40
117.0
 40
117.0
 40
118.0
 40
118.0
 40
119.0
 40
119.0
 40
120.0
 40
120.0
 40
121.0
 40
121.0
 40
122.0
 40
122.0
 40
123.0
 40
123.0
 40
124.0
 40
124.0
 40
125.0
 40
125.0
 40
126.0
 40
126.0
 40
127.0
 40
127.0
 40
128.0
 40
128.0
 40
128.0
 10
39.76119907643133
 20
1.499999831331888
 30
0.0
 10
39.77775262046796
 20
0.8689920003863933
 30
0.0
 10
39.79430616450458
 20
0.2379841694408987
 30
0.0
 10
39.7944693523157
 20
0.2352274593522505
 30
0.0
 10
39.79463254012682
 20
0.2324707492636023
 30
0.0
 10
39.79485874936745
 20
0.2296949655405396
 30
0.0
 10
39.79508495860808
 20
0.2269191818174769
 30
0.0
 10
39.7953755931512
 20
0.2241262271385489
 30
0.0
 10
39.79566622769432
 20
0.2213332724596209
 30
0.0
 10
39.79602262679571
 20
0.2185251430156552
 30
0.0
 10
39.7963790258971
 20
0.2157170135716895
 30
0.0
 10
39.79680245761681
 20
0.212895797134058
 30
0.0
 10
39.79722588933652
 20
0.2100745806964265
 30
0.0
 10
39.79771754394932
 20
0.2072424541872895
 30
0.0
 10
39.79820919856211
 20
0.2044103276781525
 30
0.0
 10
39.79877018199728
 20
0.2015695542294341
 30
0.0
 10
39.79933116543246
 20
0.1987287807807156
 30
0.0
 10
39.79996249278561
 20
0.1958817062719715
 30
0.0
 10
39.80059382013877
 20
0.1930346317632275
 30
0.0
 10
39.80129640930006
 20
0.1901836808323235
 30
0.0
 10
39.80199899846137
 20
0.1873327299014194
 30
0.0
 10
39.80277366390678
 20
0.184480401426018
 30
0.0
 10
39.80354832935218
 20
0.1816280729506165
 30
0.0
 10
39.80439577614521
 20
0.1787769350028505
 30
0.0
 10
39.80524322293826
 20
0.1759257970550845
 30
0.0
 10
39.80616404099104
 20
0.1730784813364268
 30
0.0
 10
39.80708485904382
 20
0.1702311656177691
 30
0.0
 10
39.80807951768595
 20
0.1673903613859516
 30
0.0
 10
39.80907417632809
 20
0.1645495571541341
 30
0.0
 10
39.81014301923264
 20
0.1617180046589726
 30
0.0
 10
39.81121186213718
 20
0.1588864521638111
 30
0.0
 10
39.81235510265153
 20
0.1560669356138891
 30
0.0
 10
39.81349834316588
 20
0.1532474190639671
 30
0.0
 10
39.81471606009461
 20
0.1504427591512658
 30
0.0
 10
39.81593377702335
 20
0.1476380992385645
 30
0.0
 10
39.81722591090805
 20
0.1448511452532185
 30
0.0
 10
39.81851804479274
 20
0.1420641912678726
 30
0.0
 10
39.81988439473122
 20
0.1392978128402145
 30
0.0
 10
39.8212507446697
 20
0.1365314344125564
 30
0.0
 10
39.82269096571454
 20
0.1337885129244054
 30
0.0
 10
39.82413118675937
 20
0.1310455914362544
 30
0.0
 10
39.82564478793123
 20
0.1283290111479325
 30
0.0
 10
39.82715838910309
 20
0.1256124308596107
 30
0.0
 10
39.82874473205089
 20
0.1229250698033519
 30
0.0
 10
39.8303310749987
 20
0.120237708747093
 30
0.0
 10
39.83198937333346
 20
0.1175824294412745
 30
0.0
 10
39.83364767166822
 20
0.1149271501354561
 30
0.0
 10
39.83537699099242
 20
0.1123067901773551
 30
0.0
 10
39.83710631031661
 20
0.1096864302192542
 30
0.0
 10
39.83890556896523
 20
0.1071037928167468
 30
0.0
 10
39.84070482761386
 20
0.1045211554142395
 30
0.0
 10
39.84257279811737
 20
0.1019789999189614
 30
0.0
 10
39.84444076862088
 20
0.0994368444236834
 30
0.0
 10
39.84637607989401
 20
0.0969378769296046
 30
0.0
 10
39.84831139116714
 20
0.0944389094355259
 30
0.0
 10
39.85031253142094
 20
0.0919857735076199
 30
0.0
 10
39.85231367167474
 20
0.0895326375797138
 30
0.0
 10
39.85437899204282
 20
0.0871279051773959
 30
0.0
 10
39.8564443124109
 20
0.0847231727750779
 30
0.0
 10
39.85857203127423
 20
0.082369335434329
 30
0.0
 10
39.86069975013756
 20
0.0800154980935801
 30
0.0
 10
39.86288795812545
 20
0.077714958430159
 30
0.0
 10
39.86507616611334
 20
0.075414418766738
 30
0.0
 10
39.86732283175223
 20
0.0731694823606284
 30
0.0
 10
39.86956949739113
 20
0.0709245459545188
 30
0.0
 10
39.87187247336639
 20
0.0687374136727762
 30
0.0
 10
39.87417544934165
 20
0.0665502813910336
 30
0.0
 10
39.87653247933217
 20
0.0644230422025336
 30
0.0
 10
39.87888950932268
 20
0.0622958030140336
 30
0.0
 10
39.88129823536256
 20
0.0602304273453196
 30
0.0
 10
39.88370696140243
 20
0.0581650516766055
 30
0.0
 10
39.88616493171941
 20
0.0561633853531551
 30
0.0
 10
39.88862290203638
 20
0.0541617190297046
 30
0.0
 10
39.89112757931248
 20
0.0522254778415507
 30
0.0
 10
39.89363225658858
 20
0.0502892366533968
 30
0.0
 10
39.8961810265849
 20
0.0484200015782262
 30
0.0
 10
39.89872979658121
 20
0.0465507665030556
 30
0.0
 10
39.90131997706594
 20
0.0447499796137573
 30
0.0
 10
39.90391015755067
 20
0.0429491927244591
 30
0.0
 10
39.90653900746753
 20
0.0412181538016963
 30
0.0
 10
39.90916785738438
 20
0.0394871148789334
 30
0.0
 10
39.91183258619692
 20
0.0378269787427563
 30
0.0
 10
39.91449731500946
 20
0.0361668426065792
 30
0.0
 10
39.91719509215665
 20
0.0345786171744905
 30
0.0
 10
39.91989286930382
 20
0.0329903917424018
 30
0.0
 10
39.92262083370185
 20
0.0314749368147089
 30
0.0
 10
39.92534879809988
 20
0.029959481887016
 30
0.0
 10
39.92810406762666
 20
0.028517508653866
 30
0.0
 10
39.93085933715344
 20
0.0270755354207161
 30
0.0
 10
39.93363901805341
 20
0.0257076066789846
 30
0.0
 10
39.93641869895339
 20
0.0243396779372532
 30
0.0
 10
39.93921989510264
 20
0.0230462089995331
 30
0.0
 10
39.9420210912519
 20
0.0217527400618129
 30
0.0
 10
39.94484091322655
 20
0.0205340003342
 30
0.0
 10
39.9476607352012
 20
0.0193152606065871
 30
0.0
 10
39.95049630909539
 20
0.0181713758068486
 30
0.0
 10
39.95333188298957
 20
0.0170274910071101
 30
0.0
 10
39.95618035893309
 20
0.0159584459901989
 30
0.0
 10
39.95902883487661
 20
0.0148894009732878
 30
0.0
 10
39.96188739520676
 20
0.0138950431270873
 30
0.0
 10
39.96474595553691
 20
0.0129006852808868
 30
0.0
 10
39.96761182258373
 20
0.0119807284515564
 30
0.0
 10
39.97047768963055
 20
0.0110607716222261
 30
0.0
 10
39.97334813307917
 20
0.0102148005255989
 30
0.0
 10
39.97621857652778
 20
0.0093688294289718
 30
0.0
 10
39.97909092032714
 20
0.0085963045021385
 30
0.0
 10
39.98196326412648
 20
0.0078237795753053
 30
0.0
 10
39.98483489291841
 20
0.007124042220806
 30
0.0
 10
39.98770652171033
 20
0.0064243048663067
 30
0.0
 10
39.99057488675841
 20
0.0057965830402327
 30
0.0
 10
39.99344325180649
 20
0.0051688612141587
 30
0.0
 10
39.99630587640907
 20
0.0046122753089248
 30
0.0
 10
39.99916850101165
 20
0.0040556894036909
 30
0.0
 10
40.00202298538838
 20
0.0035692583762435
 30
0.0
 10
40.00487746976512
 20
0.0030828273487962
 30
0.0
 10
40.00772149541145
 20
0.0026654750455457
 30
0.0
 10
40.01056552105779
 20
0.0022481227422952
 30
0.0
 10
40.0133968545661
 20
0.0018986843730583
 30
0.0
 10
40.01622818807442
 20
0.0015492460038214
 30
0.0
 10
40.01904468442516
 20
0.0012664747184891
 30
0.0
 10
40.0218611807759
 20
0.0009837034331568
 30
0.0
 10
40.02466078610585
 20
0.0007662769566171
 30
0.0
 10
40.0274603914358
 20
0.0005488504800774
 30
0.0
 10
40.03024114529455
 20
0.0003953777630701
 30
0.0
 10
40.03302189915329
 20
0.0002419050460628
 30
0.0
 10
40.03578193626205
 20
0.000150932892073
 30
0.0
 10
40.03854197337082
 20
0.0000599607380832
 30
0.0
 10
41.00846152490108
 20
0.0000299803690417
 30
0.0
 10
41.97838107643134
 20
0.0000000000000002
 30
0.0
 10
41.98111862796159
 20
0.0000299803690404
 30
0.0
 10
41.98385617949184
 20
0.0000599607380806
 30
0.0
 10
41.9866162166006
 20
0.0001509328920704
 30
0.0
 10
41.98937625370936
 20
0.0002419050460602
 30
0.0
 10
41.9921570075681
 20
0.0003953777630675
 30
0.0
 10
41.99493776142684
 20
0.0005488504800748
 30
0.0
 10
41.99773736675679
 20
0.0007662769566145
 30
0.0
 10
42.00053697208675
 20
0.0009837034331542
 30
0.0
 10
42.0033534684375
 20
0.0012664747184865
 30
0.0
 10
42.00616996478823
 20
0.0015492460038188
 30
0.0
 10
42.00900129829655
 20
0.0018986843730558
 30
0.0
 10
42.01183263180486
 20
0.0022481227422927
 30
0.0
 10
42.0146766574512
 20
0.0026654750455432
 30
0.0
 10
42.01752068309753
 20
0.0030828273487937
 30
0.0
 10
42.02037516747427
 20
0.0035692583762411
 30
0.0
 10
42.023229651851
 20
0.0040556894036885
 30
0.0
 10
42.02609227645358
 20
0.0046122753089224
 30
0.0
 10
42.02895490105616
 20
0.0051688612141563
 30
0.0
 10
42.03182326610425
 20
0.0057965830402303
 30
0.0
 10
42.03469163115233
 20
0.0064243048663043
 30
0.0
 10
42.03756325994426
 20
0.0071240422208036
 30
0.0
 10
42.04043488873618
 20
0.0078237795753029
 30
0.0
 10
42.04330723253553
 20
0.0085963045021362
 30
0.0
 10
42.04617957633487
 20
0.0093688294289695
 30
0.0
 10
42.04905001978349
 20
0.0102148005255966
 30
0.0
 10
42.05192046323211
 20
0.0110607716222238
 30
0.0
 10
42.05478633027893
 20
0.0119807284515542
 30
0.0
 10
42.05765219732575
 20
0.0129006852808846
 30
0.0
 10
42.0605107576559
 20
0.0138950431270851
 30
0.0
 10
42.06336931798607
 20
0.0148894009732855
 30
0.0
 10
42.06621779392957
 20
0.0159584459901967
 30
0.0
 10
42.06906626987308
 20
0.0170274910071079
 30
0.0
 10
42.07190184376727
 20
0.0181713758068464
 30
0.0
 10
42.07473741766146
 20
0.0193152606065849
 30
0.0
 10
42.07755723963612
 20
0.0205340003341979
 30
0.0
 10
42.08037706161078
 20
0.0217527400618108
 30
0.0
 10
42.08317825776002
 20
0.023046208999531
 30
0.0
 10
42.08597945390926
 20
0.0243396779372512
 30
0.0
 10
42.08875913480924
 20
0.0257076066789826
 30
0.0
 10
42.09153881570921
 20
0.0270755354207141
 30
0.0
 10
42.094294085236
 20
0.0285175086538641
 30
0.0
 10
42.09704935476278
 20
0.029959481887014
 30
0.0
 10
42.0997773191608
 20
0.0314749368147069
 30
0.0
 10
42.10250528355882
 20
0.0329903917423999
 30
0.0
 10
42.105203060706
 20
0.0345786171744887
 30
0.0
 10
42.10790083785319
 20
0.0361668426065774
 30
0.0
 10
42.11056556666573
 20
0.0378269787427545
 30
0.0
 10
42.11323029547827
 20
0.0394871148789316
 30
0.0
 10
42.11585914539513
 20
0.0412181538016945
 30
0.0
 10
42.11848799531198
 20
0.0429491927244574
 30
0.0
 10
42.12107817579671
 20
0.0447499796137557
 30
0.0
 10
42.12366835628145
 20
0.0465507665030539
 30
0.0
 10
42.12621712627777
 20
0.0484200015782245
 30
0.0
 10
42.12876589627408
 20
0.0502892366533952
 30
0.0
 10
42.13127057355018
 20
0.0522254778415491
 30
0.0
 10
42.13377525082629
 20
0.0541617190297031
 30
0.0
 10
42.13623322114326
 20
0.0561633853531535
 30
0.0
 10
42.13869119146024
 20
0.058165051676604
 30
0.0
 10
42.14109991750011
 20
0.0602304273453181
 30
0.0
 10
42.14350864354
 20
0.0622958030140322
 30
0.0
 10
42.14586567353051
 20
0.0644230422025323
 30
0.0
 10
42.14822270352101
 20
0.0665502813910323
 30
0.0
 10
42.15052567949628
 20
0.0687374136727749
 30
0.0
 10
42.15282865547155
 20
0.0709245459545176
 30
0.0
 10
42.15507532111044
 20
0.0731694823606272
 30
0.0
 10
42.15732198674933
 20
0.0754144187667368
 30
0.0
 10
42.15951019473723
 20
0.0777149584301579
 30
0.0
 10
42.16169840272513
 20
0.080015498093579
 30
0.0
 10
42.16382612158846
 20
0.0823693354343279
 30
0.0
 10
42.16595384045179
 20
0.0847231727750768
 30
0.0
 10
42.16801916081987
 20
0.0871279051773948
 30
0.0
 10
42.17008448118795
 20
0.0895326375797128
 30
0.0
 10
42.17208562144174
 20
0.0919857735076189
 30
0.0
 10
42.17408676169553
 20
0.0944389094355249
 30
0.0
 10
42.17602207296866
 20
0.0969378769296037
 30
0.0
 10
42.1779573842418
 20
0.0994368444236825
 30
0.0
 10
42.17982535474531
 20
0.1019789999189606
 30
0.0
 10
42.18169332524882
 20
0.1045211554142386
 30
0.0
 10
42.18349258389743
 20
0.107103792816746
 30
0.0
 10
42.18529184254605
 20
0.1096864302192534
 30
0.0
 10
42.18702116187025
 20
0.1123067901773544
 30
0.0
 10
42.18875048119444
 20
0.1149271501354554
 30
0.0
 10
42.1904087795292
 20
0.1175824294412739
 30
0.0
 10
42.19206707786396
 20
0.1202377087470924
 30
0.0
 10
42.19365342081176
 20
0.1229250698033512
 30
0.0
 10
42.19523976375956
 20
0.1256124308596101
 30
0.0
 10
42.19675336493142
 20
0.128329011147932
 30
0.0
 10
42.19826696610329
 20
0.1310455914362539
 30
0.0
 10
42.19970718714814
 20
0.133788512924405
 30
0.0
 10
42.20114740819297
 20
0.136531434412556
 30
0.0
 10
42.20251375813146
 20
0.1392978128402141
 30
0.0
 10
42.20388010806995
 20
0.1420641912678723
 30
0.0
 10
42.20517224195464
 20
0.1448511452532183
 30
0.0
 10
42.20646437583932
 20
0.1476380992385643
 30
0.0
 10
42.20768209276807
 20
0.1504427591512656
 30
0.0
 10
42.20889980969681
 20
0.1532474190639669
 30
0.0
 10
42.21004305021115
 20
0.1560669356138889
 30
0.0
 10
42.2111862907255
 20
0.1588864521638109
 30
0.0
 10
42.21225513363004
 20
0.1617180046589725
 30
0.0
 10
42.21332397653459
 20
0.1645495571541341
 30
0.0
 10
42.21431863517672
 20
0.1673903613859516
 30
0.0
 10
42.21531329381886
 20
0.1702311656177691
 30
0.0
 10
42.21623411187164
 20
0.1730784813364268
 30
0.0
 10
42.21715492992442
 20
0.1759257970550846
 30
0.0
 10
42.21800237671747
 20
0.1787769350028506
 30
0.0
 10
42.21884982351052
 20
0.1816280729506166
 30
0.0
 10
42.21962448895592
 20
0.1844804014260181
 30
0.0
 10
42.22039915440132
 20
0.1873327299014196
 30
0.0
 10
42.22110174356261
 20
0.1901836808323237
 30
0.0
 10
42.22180433272391
 20
0.1930346317632278
 30
0.0
 10
42.22243566007707
 20
0.1958817062719719
 30
0.0
 10
42.22306698743023
 20
0.1987287807807159
 30
0.0
 10
42.22362797086541
 20
0.2015695542294344
 30
0.0
 10
42.22418895430058
 20
0.2044103276781529
 30
0.0
 10
42.22468060891337
 20
0.20724245418729
 30
0.0
 10
42.22517226352616
 20
0.210074580696427
 30
0.0
 10
42.22559569524587
 20
0.2128957971340585
 30
0.0
 10
42.22601912696558
 20
0.21571701357169
 30
0.0
 10
42.22637552606697
 20
0.2185251430156558
 30
0.0
 10
42.22673192516837
 20
0.2213332724596216
 30
0.0
 10
42.22702255971147
 20
0.2241262271385496
 30
0.0
 10
42.22731319425458
 20
0.2269191818174776
 30
0.0
 10
42.22753940349523
 20
0.2296949655405404
 30
0.0
 10
42.22776561273587
 20
0.2324707492636031
 30
0.0
 10
42.22792880054699
 20
0.2352274593522513
 30
0.0
 10
42.22809198835811
 20
0.2379841694408995
 30
0.0
 10
42.24464553239472
 20
0.8689920003863938
 30
0.0
 10
42.26119907643133
 20
1.499999831331888
 30
0.0
  0
SPLINE
  5
40
330
1F
100
AcDbEntity
  8
DEFAULT
100
AcDbSpline
210
0.0
220
0.0
230
1.0
 70
     8
 71
     2
 72
   386
 73
   383
 74
     0
 42
0.0000000001
 43
0.0000000001
 40
0.0
 40
0.0
 40
0.0
 40
1.0
 40
1.0
 40
2.0
 40
2.0
 40
3.0
 40
3.0
 40
4.0
 40
4.0
 40
5.0
 40
5.0
 40
6.0
 40
6.0
 40
7.0
 40
7.0
 40
8.0
 40
8.0
 40
9.0
 40
9.0
 40
10.0
 40
10.0
 40
11.0
 40
11.0
 40
12.0
 40
12.0
 40
13.0
 40
13.0
 40
14.0
 40
14.0
 40
15.0
 40
15.0
 40
16.0
 40
16.0
 40
17.0
 40
17.0
 40
18.0
 40
18.0
 40
19.0
 40
19.0
 40
20.0
 40
20.0
 40
21.0
 40
21.0
 40
22.0
 40
22.0
 40
23.0
 40
23.0
 40
24.0
 40
24.0
 40
25.0
 40
25.0
 40
26.0
 40
26.0
 40
27.0
 40
27.0
 40
28.0
 40
28.0
 40
29.0
 40
29.0
 40
30.0
 40
30.0
 40
31.0
 40
31.0
 40
32.0
 40
32.0
 40
33.0
 40
33.0
 40
34.0
 40
34.0
 40
35.0
 40
35.0
 40
36.0
 40
36.0
 40
37.0
 40
37.0
 40
38.0
 40
38.0
 40
39.0
 40
39.0
 40
40.0
 40
40.0
 40
41.0
 40
41.0
 40
42.0
 40
42.0
 40
43.0
 40
43.0
 40
44.0
 40
44.0
 40
45.0
 40
45.0
 40
46.0
 40
46.0
 40
47.0
 40
47.0
 40
48.0
 40
48.0
 40
49.0
 40
49.0
 40
50.0
 40
50.0
 40
51.0
 40
51.0
 40
52.0
 40
52.0
 40
53.0
 40
53.0
 40
54.0
 40
54.0
 40
55.0
 40
55.0
 40
56.0
 40
56.0
 40
57.0
 40
57.0
 40
58.0
 40
58.0
 40
59.0
 40
59.0
 40
60.0
 40
60.0
 40
61.0
 40
61.0
 40
62.0
 40
62.0
 40
63.0
 40
63.0
 40
64.0
 40
64.0
 40
65.0
 40
65.0
 40
66.0
 40
66.0
 40
67.0
 40
67.0
 40
68.0
 40
68.0
 40
69.0
 40
69.0
 40
70.0
 40
70.0
 40
71.0
 40
71.0
 40
72.0
 40
72.0
 40
73.0
 40
73.0
 40
74.0
 40
74.0
 40
75.0
 40
75.0
 40
76.0
 40
76.0
 40
77.0
 40
77.0
 40
78.0
 40
78.0
 40
79.0
 40
79.0
 40
80.0
 40
80.0
 40
81.0
 40
81.0
 40
82.0
 40
82.0
 40
83.0
 40
83.0
 40
84.0
 40
84.0
 40
85.0
 40
85.0
 40
86.0
 40
86.0
 40
87.0
 40
87.0
 40
88.0
 40
88.0
 40
89.0
 40
89.0
 40
90.0
 40
90.0
 40
91.0
 40
91.0
 40
92.0
 40
92.0
 40
93.0
 40
93.0
 40
94.0
 40
94.0
 40
95.0
 40
95.0
 40
96.0
 40
96.0
 40
97.0
 40
97.0
 40
98.0
 40
98.0
 40
99.0
 40
99.0
 40
100.0
 40
100.0
 40
101.0
 40
101.0
 40
102.0
 40
102.0
 40
103.0
 40
103.0
 40
104.0
 40
104.0
 40
105.0
 40
105.0
 40
106.0
 40
106.0
 40
107.0
 40
107.0
 40
108.0
 40
108.0
 40
109.0
 40
109.0
 40
110.0
 40
110.0
 40
111.0
 40
111.0
 40
112.0
 40
112.0
 40
113.0
 40
113.0
 40
114.0
 40
114.0
 40
115.0
 40
115.0
 40
116.0
 40
116.0
 40
117.0
 40
117.0
 40
118.0
 40
118.0
 40
119.0
 40
119.0
 40
120.0
 40
120.0
 40
121.0
 40
121.0
 40
122.0
 40
122.0
 40
123.0
 40
123.0
 40
124.0
 40
124.0
 40
125.0
 40
125.0
 40
126.0
 40
126.0
 40
127.0
 40
127.0
 40
128.0
 40
128.0
 40
129.0
 40
129.0
 40
130.0
 40
130.0
 40
131.0
 40
131.0
 40
132.0
 40
132.0
 40
133.0
 40
133.0
 40
134.0
 40
134.0
 40
135.0
 40
135.0
 40
136.0
 40
136.0
 40
137.0
 40
137.0
 40
138.0
 40
138.0
 40
139.0
 40
139.0
 40
140.0
 40
140.0
 40
141.0
 40
141.0
 40
142.0
 40
142.0
 40
143.0
 40
143.0
 40
144.0
 40
144.0
 40
145.0
 40
145.0
 40
146.0
 40
146.0
 40
147.0
 40
147.0
 40
148.0
 40
148.0
 40
149.0
 40
149.0
 40
150.0
 40
150.0
 40
151.0
 40
151.0
 40
152.0
 40
152.0
 40
153.0
 40
153.0
 40
154.0
 40
154.0
 40
155.0
 40
155.0
 40
156.0
 40
156.0
 40
157.0
 40
157.0
 40
158.0
 40
158.0
 40
159.0
 40
159.0
 40
160.0
 40
160.0
 40
161.0
 40
161.0
 40
162.0
 40
162.0
 40
163.0
 40
163.0
 40
164.0
 40
164.0
 40
165.0
 40
165.0
 40
166.0
 40
166.0
 40
167.0
 40
167.0
 40
168.0
 40
168.0
 40
169.0
 40
169.0
 40
170.0
 40
170.0
 40
171.0
 40
171.0
 40
172.0
 40
172.0
 40
173.0
 40
173.0
 40
174.0
 40
174.0
 40
175.0
 40
175.0
 40
176.0
 40
176.0
 40
177.0
 40
177.0
 40
178.0
 40
178.0
 40
179.0
 40
179.0
 40
180.0
 40
180.0
 40
181.0
 40
181.0
 40
182.0
 40
182.0
 40
183.0
 40
183.0
 40
184.0
 40
184.0
 40
185.0
 40
185.0
 40
186.0
 40
186.0
 40
187.0
 40
187.0
 40
188.0
 40
188.0
 40
189.0
 40
189.0
 40
190.0
 40
190.0
 40
191.0
 40
191.0
 40
191.0
 10
42.25572907743834
 20
1.290078283535823
 30
0.0
 10
42.25929107203613
 20
1.290190096163084
 30
0.0
 10
42.26285306663392
 20
1.290301908790345
 30
0.0
 10
42.26642354542928
 20
1.290487351330645
 30
0.0
 10
42.26999402422463
 20
1.290672793870946
 30
0.0
 10
42.27357074394132
 20
1.29093244037003
 30
0.0
 10
42.277147463658
 20
1.291192086869114
 30
0.0
 10
42.28072814555372
 20
1.291526421532087
 30
0.0
 10
42.28430882744943
 20
1.291860756195059
 30
0.0
 10
42.28789116176232
 20
1.292270171008418
 30
0.0
 10
42.29147349607521
 20
1.292679585821777
 30
0.0
 10
42.29505514664788
 20
1.293164378437202
 30
0.0
 10
42.29863679722056
 20
1.293649171052627
 30
0.0
 10
42.30221540628369
 20
1.294209542947287
 30
0.0
 10
42.30579401534681
 20
1.294769914841946
 30
0.0
 10
42.30936720844313
 20
1.29540596976867
 30
0.0
 10
42.31294040153945
 20
1.296042024695394
 30
0.0
 10
42.31650579256771
 20
1.296753767434552
 30
0.0
 10
42.32007118359596
 20
1.29746551017371
 30
0.0
 10
42.32362637995324
 20
1.298252845596981
 30
0.0
 10
42.32718157631052
 20
1.299040181020251
 30
0.0
 10
42.33072418411046
 20
1.299902913474698
 30
0.0
 10
42.33426679191039
 20
1.300765645929146
 30
0.0
 10
42.3377944212539
 20
1.301703478948171
 30
0.0
 10
42.34132205059742
 20
1.302641311967197
 30
0.0
 10
42.34483232087227
 20
1.303653848312982
 30
0.0
 10
42.34834259114713
 20
1.304666384658768
 30
0.0
 10
42.35183313633164
 20
1.305753126698837
 30
0.0
 10
42.35532368151615
 20
1.306839868738907
 30
0.0
 10
42.35879215546286
 20
1.308000219157381
 30
0.0
 10
42.36226062940956
 20
1.309160569575856
 30
0.0
 10
42.36570471108389
 20
1.310393832417916
 30
0.0
 10
42.36914879275823
 20
1.311627095259976
 30
0.0
 10
42.37256619140795
 20
1.312932477305971
 30
0.0
 10
42.37598359005766
 20
1.314237859351965
 30
0.0
 10
42.37937205028875
 20
1.315614471815564
 30
0.0
 10
42.38276051051984
 20
1.316991084279162
 30
0.0
 10
42.3861178172554
 20
1.318437944821922
 30
0.0
 10
42.38947512399096
 20
1.319884805364683
 30
0.0
 10
42.39279910729007
 20
1.321400840417464
 30
0.0
 10
42.39612309058919
 20
1.322916875470244
 30
0.0
 10
42.39941163030394
 20
1.324500922850011
 30
0.0
 10
42.40270017001869
 20
1.326084970229777
 30
0.0
 10
42.40595120026833
 20
1.327735782038566
 30
0.0
 10
42.40920223051796
 20
1.329386593847356
 30
0.0
 10
42.41241374396056
 20
1.331102839638505
 30
0.0
 10
42.41562525740314
 20
1.332819085429653
 30
0.0
 10
42.4187953092865
 20
1.334599355624851
 30
0.0
 10
42.42196536116986
 20
1.336379625820049
 30
0.0
 10
42.42509207314494
 20
1.338222435359397
 30
0.0
 10
42.42821878512001
 20
1.340065244898744
 30
0.0
 10
42.43130034880156
 20
1.341969037104733
 30
0.0
 10
42.4343819124831
 20
1.343872829310723
 30
0.0
 10
42.43741659274433
 20
1.345835979946013
 30
0.0
 10
42.44045127300555
 20
1.347799130581304
 30
0.0
 10
42.44343741099503
 20
1.349819952079241
 30
0.0
 10
42.44642354898452
 20
1.351840773577178
 30
0.0
 10
42.44935956485568
 20
1.353917519423306
 30
0.0
 10
42.45229558072684
 20
1.355994265269433
 30
0.0
 10
42.45517997607226
 20
1.358125134511687
 30
0.0
 10
42.45806437141767
 20
1.360256003753942
 30
0.0
 10
42.4608957314021
 20
1.362439145618885
 30
0.0
 10
42.46372709138652
 20
1.364622287483828
 30
0.0
 10
42.46650408657491
 20
1.366855806076087
 30
0.0
 10
42.46928108176329
 20
1.369089324668346
 30
0.0
 10
42.46955785814374
 20
1.369320851453029
 30
0.0
 10
42.46983463452418
 20
1.369552378237712
 30
0.0
 10
42.47010869407367
 20
1.369790191063502
 30
0.0
 10
42.47038275362316
 20
1.370028003889292
 30
0.0
 10
42.47065390249152
 20
1.370272077724795
 30
0.0
 10
42.47092505135989
 20
1.370516151560299
 30
0.0
 10
42.47119309464188
 20
1.370766453991337
 30
0.0
 10
42.47146113792386
 20
1.371016756422375
 30
0.0
 10
42.4717258799871
 20
1.371273247512102
 30
0.0
 10
42.47199062205035
 20
1.37152973860183
 30
0.0
 10
42.47225186687592
 20
1.371792370767122
 30
0.0
 10
42.4725131117015
 20
1.372055002932415
 30
0.0
 10
42.47277066323599
 20
1.372323720837597
 30
0.0
 10
42.47302821477048
 20
1.372592438742779
 30
0.0
 10
42.47328187728885
 20
1.37286717921173
 30
0.0
 10
42.47353553980723
 20
1.373141919680681
 30
0.0
 10
42.47378511828521
 20
1.373422611628294
 30
0.0
 10
42.47403469676318
 20
1.373703303575908
 30
0.0
 10
42.47427999725821
 20
1.373989867959827
 30
0.0
 10
42.47452529775325
 20
1.374276432343746
 30
0.0
 10
42.47476612779263
 20
1.374568782137207
 30
0.0
 10
42.47500695783202
 20
1.374861131930669
 30
0.0
 10
42.47524312680709
 20
1.375159172117229
 30
0.0
 10
42.47547929578216
 20
1.37545721230379
 30
0.0
 10
42.47571061534688
 20
1.375760839894601
 30
0.0
 10
42.4759419349116
 20
1.376064467485411
 30
0.0
 10
42.47616821938441
 20
1.376373571559617
 30
0.0
 10
42.47639450385722
 20
1.376682675633823
 30
0.0
 10
42.47661557062432
 20
1.376997137402561
 30
0.0
 10
42.47683663739142
 20
1.377311599171299
 30
0.0
 10
42.4770523073101
 20
1.37763129206565
 30
0.0
 10
42.47726797722878
 20
1.377950984960002
 30
0.0
 10
42.47747807502919
 20
1.378275774743144
 30
0.0
 10
42.47768817282959
 20
1.378600564526285
 30
0.0
 10
42.47789252751304
 20
1.378930309429946
 30
0.0
 10
42.47809688219649
 20
1.379260054333607
 30
0.0
 10
42.478295327429
 20
1.379594605218839
 30
0.0
 10
42.4784937726615
 20
1.379929156104072
 30
0.0
 10
42.47868614716045
 20
1.38026835664617
 30
0.0
 10
42.47887852165939
 20
1.380607557188269
 30
0.0
 10
42.47906466957197
 20
1.380951244085578
 30
0.0
 10
42.47925081748454
 20
1.381294930982886
 30
0.0
 10
42.47943058875599
 20
1.381642934189072
 30
0.0
 10
42.47961036002743
 20
1.381990937395258
 30
0.0
 10
42.47978361075762
 20
1.38234308037451
 30
0.0
 10
42.47995686148782
 20
1.382695223353763
 30
0.0
 10
42.48012345427438
 20
1.383051323358218
 30
0.0
 10
42.48029004706093
 20
1.383407423362673
 30
0.0
 10
42.48044985132739
 20
1.383767291731268
 30
0.0
 10
42.48060965559385
 20
1.384127160099864
 30
0.0
 10
42.48076254790126
 20
1.384490602577654
 30
0.0
 10
42.48091544020868
 20
1.384854045055445
 30
0.0
 10
42.48106130454929
 20
1.385220862132325
 30
0.0
 10
42.4812071688899
 20
1.385587679209205
 30
0.0
 10
42.48134589696127
 20
1.38595766647683
 30
0.0
 10
42.48148462503265
 20
1.386327653744454
 30
0.0
 10
42.48161611649127
 20
1.386700602270065
 30
0.0
 10
42.48174760794989
 20
1.387073550795675
 30
0.0
 10
42.48187177064274
 20
1.387449247511415
 30
0.0
 10
42.48199593333559
 20
1.387824944227155
 30
0.0
 10
42.48211268350883
 20
1.388203172333369
 30
0.0
 10
42.48222943368208
 20
1.388581400439583
 30
0.0
 10
42.48233869616574
 20
1.388961939820506
 30
0.0
 10
42.4824479586494
 20
1.389342479201429
 30
0.0
 10
42.48254966701725
 20
1.389725106851603
 30
0.0
 10
42.48265137538511
 20
1.390107734501776
 30
0.0
 10
42.48274547208909
 20
1.390492224961452
 30
0.0
 10
42.48283956879308
 20
1.390876715421128
 30
0.0
 10
42.48292600527161
 20
1.391262841218883
 30
0.0
 10
42.48301244175014
 20
1.391648967016639
 30
0.0
 10
42.48309117850994
 20
1.392036499117373
 30
0.0
 10
42.48316991526974
 20
1.392424031218108
 30
0.0
 10
42.48324092194088
 20
1.392812739474576
 30
0.0
 10
42.48331192861203
 20
1.393201447731043
 30
0.0
 10
42.48337518397603
 20
1.393591101337052
 30
0.0
 10
42.48343843934003
 20
1.393980754943061
 30
0.0
 10
42.48349393133115
 20
1.394371122886486
 30
0.0
 10
42.48354942332227
 20
1.394761490829911
 30
0.0
 10
42.48359714900192
 20
1.395152342343654
 30
0.0
 10
42.48364487468156
 20
1.395543193857398
 30
0.0
 10
42.48368484018636
 20
1.395934298866483
 30
0.0
 10
42.48372480569116
 20
1.396325403875568
 30
0.0
 10
42.48375702615503
 20
1.396716533438572
 30
0.0
 10
42.4837892466189
 20
1.397107663001577
 30
0.0
 10
42.48381374606967
 20
1.397498589744673
 30
0.0
 10
42.48383824552043
 20
1.397889516487768
 30
0.0
 10
42.48385505675175
 20
1.398280015029683
 30
0.0
 10
42.48387186798307
 20
1.398670513571599
 30
0.0
 10
42.48388103240256
 20
1.399060360937912
 30
0.0
 10
42.48389019682205
 20
1.399450208304225
 30
0.0
 10
42.48389176427639
 20
1.399839184329449
 30
0.0
 10
42.48389333173072
 20
1.400228160354673
 30
0.0
 10
42.48388736030898
 20
1.400616048070724
 30
0.0
 10
42.48388138888723
 20
1.401003935786775
 30
0.0
 10
42.48386794470347
 20
1.401390521796466
 30
0.0
 10
42.4838545005197
 20
1.401777107806157
 30
0.0
 10
42.48383365747613
 20
1.40216218264052
 30
0.0
 10
42.48381281443254
 20
1.402547257474883
 30
0.0
 10
42.48378465396446
 20
1.402930615933181
 30
0.0
 10
42.48375649349638
 20
1.40331397439148
 30
0.0
 10
42.48372110430054
 20
1.403695415862932
 30
0.0
 10
42.48368571510471
 20
1.404076857334384
 30
0.0
 10
42.48364319285216
 20
1.404456186100714
 30
0.0
 10
42.4836006705996
 20
1.404835514867043
 30
0.0
 10
42.48355111763483
 20
1.405212540385107
 30
0.0
 10
42.48350156467007
 20
1.405589565903172
 30
0.0
 10
42.48344508969782
 20
1.40596410306704
 30
0.0
 10
42.48338861472556
 20
1.406338640230908
 30
0.0
 10
42.48332533248683
 20
1.406710509612885
 30
0.0
 10
42.48326205024809
 20
1.407082378994862
 30
0.0
 10
42.48319208118696
 20
1.407451407065082
 30
0.0
 10
42.48312211212582
 20
1.407820435135301
 30
0.0
 10
42.48304558204858
 20
1.408186454459631
 30
0.0
 10
42.48296905197133
 20
1.408552473783961
 30
0.0
 10
42.48288609169948
 20
1.408915323200084
 30
0.0
 10
42.48280313142762
 20
1.409278172616207
 30
0.0
 10
42.48271387644624
 20
1.409637697387859
 30
0.0
 10
42.48262462146485
 20
1.40999722215951
 30
0.0
 10
42.48252921156782
 20
1.410353274108966
 30
0.0
 10
42.4824338016708
 20
1.410709326058423
 30
0.0
 10
42.48233238060443
 20
1.411061763677435
 30
0.0
 10
42.48223095953805
 20
1.411414201296447
 30
0.0
 10
42.48212367464428
 20
1.411762889835925
 30
0.0
 10
42.48201638975051
 20
1.412111578375403
 30
0.0
 10
42.48190339161133
 20
1.412456389914241
 30
0.0
 10
42.48179039347213
 20
1.412801201453079
 30
0.0
 10
42.48167183555623
 20
1.413142014946613
 30
0.0
 10
42.48155327764033
 20
1.413482828440148
 30
0.0
 10
42.48142859019789
 20
1.413821447486413
 30
0.0
 10
42.48130390275545
 20
1.414160066532678
 30
0.0
 10
42.48117238137492
 20
1.414498246519136
 30
0.0
 10
42.48104085999438
 20
1.414836426505595
 30
0.0
 10
42.48090246290278
 20
1.415173976488602
 30
0.0
 10
42.48076406581117
 20
1.415511526471609
 30
0.0
 10
42.4806187578306
 20
1.415848252025709
 30
0.0
 10
42.48047344985003
 20
1.416184977579809
 30
0.0
 10
42.48032120264003
 20
1.416520681059398
 30
0.0
 10
42.48016895543003
 20
1.416856384538986
 30
0.0
 10
42.48000974771864
 20
1.417190865357219
 30
0.0
 10
42.47985054000724
 20
1.417525346175452
 30
0.0
 10
42.47968435780977
 20
1.417858401099947
 30
0.0
 10
42.47951817561229
 20
1.418191456024442
 30
0.0
 10
42.47934501243638
 20
1.418522879489232
 30
0.0
 10
42.47917184926046
 20
1.418854302954023
 30
0.0
 10
42.47899170629611
 20
1.419183887387096
 30
0.0
 10
42.47881156333176
 20
1.419513471820169
 30
0.0
 10
42.47862444962522
 20
1.419841007985825
 30
0.0
 10
42.47843733591867
 20
1.420168544151482
 30
0.0
 10
42.47824326852876
 20
1.420493821506645
 30
0.0
 10
42.47804920113884
 20
1.420819098861808
 30
0.0
 10
42.47784820527484
 20
1.421141905925298
 30
0.0
 10
42.47764720941083
 20
1.421464712988789
 30
0.0
 10
42.47743931855052
 20
1.421784837722496
 30
0.0
 10
42.47723142769021
 20
1.422104962456203
 30
0.0
 10
42.47701668367736
 20
1.422422192656954
 30
0.0
 10
42.47680193966451
 20
1.422739422857705
 30
0.0
 10
42.47658039278446
 20
1.423053546558576
 30
0.0
 10
42.4763588459044
 20
1.423367670259447
 30
0.0
 10
42.47613055493727
 20
1.423678476139138
 30
0.0
 10
42.47590226397013
 20
1.423989282018829
 30
0.0
 10
42.47566729622062
 20
1.424296559817659
 30
0.0
 10
42.4754323284711
 20
1.424603837616489
 30
0.0
 10
42.47519075977429
 20
1.424907378557488
 30
0.0
 10
42.47494919107749
 20
1.425210919498487
 30
0.0
 10
42.47470110578011
 20
1.425510516711993
 30
0.0
 10
42.47445302048274
 20
1.425810113925499
 30
0.0
 10
42.47419851139944
 20
1.426105562875612
 30
0.0
 10
42.47394400231614
 20
1.426401011825724
 30
0.0
 10
42.47368317066039
 20
1.426692110736916
 30
0.0
 10
42.47342233900464
 20
1.426983209648108
 30
0.0
 10
42.47315529429424
 20
1.427269759930256
 30
0.0
 10
42.47288824958383
 20
1.427556310212405
 30
0.0
 10
42.47261510952077
 20
1.427838116882488
 30
0.0
 10
42.47234196945772
 20
1.428119923552571
 30
0.0
 10
42.47206285978271
 20
1.428396795651242
 30
0.0
 10
42.4717837501077
 20
1.428673667749912
 30
0.0
 10
42.47149880442937
 20
1.428945418751181
 30
0.0
 10
42.47121385875104
 20
1.42921716975245
 30
0.0
 10
42.47092321835033
 20
1.429483617964701
 30
0.0
 10
42.47063257794962
 20
1.429750066176953
 30
0.0
 10
42.47033639155991
 20
1.430011035133546
 30
0.0
 10
42.4700402051702
 20
1.430272004090139
 30
0.0
 10
42.46973862873365
 20
1.430527322927889
 30
0.0
 10
42.46943705229711
 20
1.430782641765639
 30
0.0
 10
42.46913024869817
 20
1.431032145589505
 30
0.0
 10
42.46882344509923
 20
1.43128164941337
 30
0.0
 10
42.46851158387621
 20
1.431525179645756
 30
0.0
 10
42.46819972265318
 20
1.431768709878141
 30
0.0
 10
42.46788297968882
 20
1.432006114591265
 30
0.0
 10
42.46756623672447
 20
1.432243519304389
 30
0.0
 10
42.4672447939169
 20
1.432474653534288
 30
0.0
 10
42.46692335110933
 20
1.432705787764187
 30
0.0
 10
42.46659739602445
 20
1.432930513804984
 30
0.0
 10
42.46627144093958
 20
1.433155239845781
 30
0.0
 10
42.46594116644647
 20
1.433373427522978
 30
0.0
 10
42.46561089195335
 20
1.433591615200176
 30
0.0
 10
42.46527649584402
 20
1.433803142121826
 30
0.0
 10
42.4649420997347
 20
1.434014669043477
 30
0.0
 10
42.46460378432996
 20
1.434219420828226
 30
0.0
 10
42.46426546892522
 20
1.434424172612974
 30
0.0
 10
42.46392344066805
 20
1.434622043094071
 30
0.0
 10
42.46358141241087
 20
1.434819913575167
 30
0.0
 10
42.46323588144928
 20
1.435010804979707
 30
0.0
 10
42.46289035048768
 20
1.435201696384246
 30
0.0
 10
42.46254153024856
 20
1.435385519487012
 30
0.0
 10
42.46219271000944
 20
1.435569342589777
 30
0.0
 10
42.46184081676545
 20
1.435746016841219
 30
0.0
 10
42.46148892352144
 20
1.435922691092661
 30
0.0
 10
42.46113417595252
 20
1.436092144720678
 30
0.0
 10
42.4607794283836
 20
1.436261598348695
 30
0.0
 10
42.46042204713511
 20
1.436423768434039
 30
0.0
 10
42.46006466588662
 20
1.436585938519382
 30
0.0
 10
42.45970487312588
 20
1.43674077104464
 30
0.0
 10
42.45934508036514
 20
1.436895603569897
 30
0.0
 10
42.45898309933816
 20
1.437043053442168
 30
0.0
 10
42.45862111831116
 20
1.437190503314438
 30
0.0
 10
42.45825717290133
 20
1.437330534361937
 30
0.0
 10
42.45789322749149
 20
1.437470565409435
 30
0.0
 10
42.45752754178216
 20
1.437603150352413
 30
0.0
 10
42.45716185607283
 20
1.437735735295391
 30
0.0
 10
42.45679465391527
 20
1.437860855691888
 30
0.0
 10
42.4564274517577
 20
1.437985976088385
 30
0.0
 10
42.45605895634614
 20
1.438103622255442
 30
0.0
 10
42.45569046093457
 20
1.438221268422498
 30
0.0
 10
42.45532089439
 20
1.4383314393336
 30
0.0
 10
42.45495132784542
 20
1.438441610244703
 30
0.0
 10
42.45458091080947
 20
1.438544313404313
 30
0.0
 10
42.45421049377352
 20
1.438647016563922
 30
0.0
 10
42.45383944501405
 20
1.438742267860071
 30
0.0
 10
42.45346839625457
 20
1.438837519156221
 30
0.0
 10
42.45309693228398
 20
1.438925342692229
 30
0.0
 10
42.45272546831339
 20
1.439013166228238
 30
0.0
 10
42.45235380302115
 20
1.439093594134694
 30
0.0
 10
42.45198213772892
 20
1.439174022041149
 30
0.0
 10
42.45161048202928
 20
1.439247094269374
 30
0.0
 10
42.45123882632965
 20
1.439320166497598
 30
0.0
 10
42.45086738782549
 20
1.439385930595876
 30
0.0
 10
42.45049594932133
 20
1.439451694694155
 30
0.0
 10
42.45012493198513
 20
1.439510205568057
 30
0.0
 10
42.44975391464893
 20
1.439568716441959
 30
0.0
 10
42.44938351852154
 20
1.439620036100121
 30
0.0
 10
42.44901312239414
 20
1.439671355758283
 30
0.0
 10
42.44864354330203
 20
1.439715553045063
 30
0.0
 10
42.44827396420991
 20
1.439759750331843
 30
0.0
 10
42.44790539350146
 20
1.439796900648256
 30
0.0
 10
42.44753682279302
 20
1.43983405096467
 30
0.0
 10
42.44716944709423
 20
1.439864235979051
 30
0.0
 10
42.44680207139542
 20
1.439894420993432
 30
0.0
 10
42.44643607238525
 20
1.439917728343244
 30
0.0
 10
42.44607007337508
 20
1.439941035693056
 30
0.0
 10
42.44570562758086
 20
1.439957558679277
 30
0.0
 10
42.44534118178666
 20
1.439974081665499
 30
0.0
 10
42.44497846039938
 20
1.439983918940992
 30
0.0
 10
42.4446157390121
 20
1.439993756216485
 30
0.0
 10
42.41926010816854
 20
1.440002213531498
 30
0.0
 10
42.39390447732497
 20
1.440010670846511
 30
0.0
 10
42.39358236172458
 20
1.440026180056817
 30
0.0
 10
42.39326024612419
 20
1.440041689267124
 30
0.0
 10
42.39293629788594
 20
1.440067819291814
 30
0.0
 10
42.39261234964769
 20
1.440093949316505
 30
0.0
 10
42.39228707358946
 20
1.440130897979365
 30
0.0
 10
42.39196179753123
 20
1.440167846642225
 30
0.0
 10
42.39163571783985
 20
1.44021578084628
 30
0.0
 10
42.39130963814847
 20
1.440263715050336
 30
0.0
 10
42.39098329608417
 20
1.440322768726976
 30
0.0
 10
42.39065695401987
 20
1.440381822403616
 30
0.0
 10
42.3903309053794
 20
1.440452094660327
 30
0.0
 10
42.39000485673892
 20
1.440522366917037
 30
0.0
 10
42.38967966909692
 20
1.44060392041534
 30
0.0
 10
42.38935448145493
 20
1.440685473913642
 30
0.0
 10
42.38903073120763
 20
1.440778333506686
 30
0.0
 10
42.38870698096033
 20
1.440871193099729
 30
0.0
 10
42.3883852501998
 20
1.44097534475615
 30
0.0
 10
42.38806351943929
 20
1.44107949641257
 30
0.0
 10
42.38774439269078
 20
1.441194886449677
 30
0.0
 10
42.38742526594227
 20
1.441310276486784
 30
0.0
 10
42.38710932680024
 20
1.441436811131941
 30
0.0
 10
42.3867933876582
 20
1.441563345777098
 30
0.0
 10
42.38648121535974
 20
1.441700891071415
 30
0.0
 10
42.38616904306127
 20
1.441838436365732
 30
0.0
 10
42.38586120903764
 20
1.441986818418965
 30
0.0
 10
42.38555337501401
 20
1.442135200472199
 30
0.0
 10
42.3852504394622
 20
1.442294206072205
 30
0.0
 10
42.38494750391039
 20
1.442453211672212
 30
0.0
 10
42.38465001242744
 20
1.442622589246551
 30
0.0
 10
42.3843525209445
 20
1.44279196682089
 30
0.0
 10
42.38406100126629
 20
1.442971427742345
 30
0.0
 10
42.38376948158808
 20
1.4431508886638
 30
0.0
 10
42.38348444047362
 20
1.443340108885888
 30
0.0
 10
42.38319939935916
 20
1.443529329107977
 30
0.0
 10
42.38292131965885
 20
1.443727951111047
 30
0.0
 10
42.38264323995853
 20
1.443926573114118
 30
0.0
 10
42.38237257790178
 20
1.444134208137549
 30
0.0
 10
42.38210191584504
 20
1.444341843160981
 30
0.0
 10
42.38183909857935
 20
1.444558073692471
 30
0.0
 10
42.38157628131366
 20
1.444774304223961
 30
0.0
 10
42.38132170472224
 20
1.444998686712966
 30
0.0
 10
42.38106712813081
 20
1.445223069201972
 30
0.0
 10
42.38082115495152
 20
1.445455136961205
 30
0.0
 10
42.38057518177223
 20
1.445687204720437
 30
0.0
 10
42.38033814003511
 20
1.445926470976953
 30
0.0
 10
42.38010109829799
 20
1.446165737233469
 30
0.0
 10
42.37987328009289
 20
1.446411698289366
 30
0.0
 10
42.37964546188779
 20
1.446657659345263
 30
0.0
 10
42.37942712246864
 20
1.446909797807351
 30
0.0
 10
42.37920878304949
 20
1.447161936269439
 30
0.0
 10
42.37900014027554
 20
1.447419724307442
 30
0.0
 10
42.3787914975016
 20
1.447677512345446
 30
0.0
 10
42.37859273161119
 20
1.447940414939306
 30
0.0
 10
42.37839396572079
 20
1.448203317533165
 30
0.0
 10
42.37820521942778
 20
1.448470795671755
 30
0.0
 10
42.37801647313479
 20
1.448738273810345
 30
0.0
 10
42.37783785203347
 20
1.449009787606355
 30
0.0
 10
42.37765923093216
 20
1.449281301402366
 30
0.0
 10
42.37749080419235
 20
1.449556313091092
 30
0.0
 10
42.37732237745253
 20
1.449831324779818
 30
0.0
 10
42.3635661457987
 20
1.474915827970191
 30
0.0
 10
42.34980991414486
 20
1.500000331160564
 30
0.0
  0
SPLINE
  5
41
330
1F
100
AcDbEntity
  8
DEFAULT
100
AcDbSpline
210
0.0
220
0.0
230
1.0
 70
    24
 71
     2
 72
     6
 73
     3
 74
     0
 42
0.0000000001
 43
0.0000000001
 40
0.0
 40
0.0
 40
0.0
 40
5.360000000000014
 40
5.360000000000014
 40
5.360000000000014
 10
39.69119952735958
 20
1.289999999999998
 30
0.0
 10
37.26107483305027
 20
1.289999999999998
 30
0.0
 10
34.83095013874097
 20
1.289999999999998
 30
0.0
  0
SPLINE
  5
42
330
1F
100
AcDbEntity
  8
DEFAULT
100
AcDbSpline
210
0.0
220
0.0
230
1.0
 70
    24
 71
     2
 72
     6
 73
     3
 74
     0
 42
0.0000000001
 43
0.0000000001
 40
0.0
 40
0.0
 40
0.0
 40
16.25
 40
16.25
 40
16.25
 10
29.38595013874097
 20
5.0
 30
0.0
 10
37.26107483305027
 20
5.0
 30
0.0
 10
45.13619952735957
 20
5.0
 30
0.0
  0
SPLINE
  5
43
330
1F
100
AcDbEntity
  8
DEFAULT
100
AcDbSpline
210
0.0
220
0.0
230
1.0
 70
    11
 71
     2
 72
    12
 73
     9
 74
     0
 42
0.0000000001
 43
0.0000000001
 40
0.0
 40
0.0
 40
0.0
 40
1.0
 40
1.0
 40
2.0
 40
2.0
 40
3.0
 40
3.0
 40
4.0
 40
4.0
 40
4.0
 10
34.83095013874097
 20
0.4174999999999995
 30
0.0
 10
37.26107483305027
 20
0.4174999999999995
 30
0.0
 10
39.69119952735958
 20
0.4174999999999995
 30
0.0
 10
39.69119952735958
 20
0.9571674999999977
 30
0.0
 10
39.69119952735958
 20
1.496834999999996
 30
0.0
 10
37.26107483305027
 20
1.496834999999996
 30
0.0
 10
34.83095013874097
 20
1.496834999999996
 30
0.0
 10
34.83095013874097
 20
0.9571674999999977
 30
0.0
 10
34.83095013874097
 20
0.4174999999999995
 30
0.0
  0
SPLINE
  5
44
330
1F
100
AcDbEntity
  8
DEFAULT
100
AcDbSpline
210
0.0
220
0.0
230
1.0
 70
     8
 71
     2
 72
   386
 73
   383
 74
     0
 42
0.0000000001
 43
0.0000000001
 40
0.0
 40
0.0
 40
0.0
 40
1.0
 40
1.0
 40
2.0
 40
2.0
 40
3.0
 40
3.0
 40
4.0
 40
4.0
 40
5.0
 40
5.0
 40
6.0
 40
6.0
 40
7.0
 40
7.0
 40
8.0
 40
8.0
 40
9.0
 40
9.0
 40
10.0
 40
10.0
 40
11.0
 40
11.0
 40
12.0
 40
12.0
 40
13.0
 40
13.0
 40
14.0
 40
14.0
 40
15.0
 40
15.0
 40
16.0
 40
16.0
 40
17.0
 40
17.0
 40
18.0
 40
18.0
 40
19.0
 40
19.0
 40
20.0
 40
20.0
 40
21.0
 40
21.0
 40
22.0
 40
22.0
 40
23.0
 40
23.0
 40
24.0
 40
24.0
 40
25.0
 40
25.0
 40
26.0
 40
26.0
 40
27.0
 40
27.0
 40
28.0
 40
28.0
 40
29.0
 40
29.0
 40
30.0
 40
30.0
 40
31.0
 40
31.0
 40
32.0
 40
32.0
 40
33.0
 40
33.0
 40
34.0
 40
34.0
 40
35.0
 40
35.0
 40
36.0
 40
36.0
 40
37.0
 40
37.0
 40
38.0
 40
38.0
 40
39.0
 40
39.0
 40
40.0
 40
40.0
 40
41.0
 40
41.0
 40
42.0
 40
42.0
 40
43.0
 40
43.0
 40
44.0
 40
44.0
 40
45.0
 40
45.0
 40
46.0
 40
46.0
 40
47.0
 40
47.0
 40
48.0
 40
48.0
 40
49.0
 40
49.0
 40
50.0
 40
50.0
 40
51.0
 40
51.0
 40
52.0
 40
52.0
 40
53.0
 40
53.0
 40
54.0
 40
54.0
 40
55.0
 40
55.0
 40
56.0
 40
56.0
 40
57.0
 40
57.0
 40
58.0
 40
58.0
 40
59.0
 40
59.0
 40
60.0
 40
60.0
 40
61.0
 40
61.0
 40
62.0
 40
62.0
 40
63.0
 40
63.0
 40
64.0
 40
64.0
 40
65.0
 40
65.0
 40
66.0
 40
66.0
 40
67.0
 40
67.0
 40
68.0
 40
68.0
 40
69.0
 40
69.0
 40
70.0
 40
70.0
 40
71.0
 40
71.0
 40
72.0
 40
72.0
 40
73.0
 40
73.0
 40
74.0
 40
74.0
 40
75.0
 40
75.0
 40
76.0
 40
76.0
 40
77.0
 40
77.0
 40
78.0
 40
78.0
 40
79.0
 40
79.0
 40
80.0
 40
80.0
 40
81.0
 40
81.0
 40
82.0
 40
82.0
 40
83.0
 40
83.0
 40
84.0
 40
84.0
 40
85.0
 40
85.0
 40
86.0
 40
86.0
 40
87.0
 40
87.0
 40
88.0
 40
88.0
 40
89.0
 40
89.0
 40
90.0
 40
90.0
 40
91.0
 40
91.0
 40
92.0
 40
92.0
 40
93.0
 40
93.0
 40
94.0
 40
94.0
 40
95.0
 40
95.0
 40
96.0
 40
96.0
 40
97.0
 40
97.0
 40
98.0
 40
98.0
 40
99.0
 40
99.0
 40
100.0
 40
100.0
 40
101.0
 40
101.0
 40
102.0
 40
102.0
 40
103.0
 40
103.0
 40
104.0
 40
104.0
 40
105.0
 40
105.0
 40
106.0
 40
106.0
 40
107.0
 40
107.0
 40
108.0
 40
108.0
 40
109.0
 40
109.0
 40
110.0
 40
110.0
 40
111.0
 40
111.0
 40
112.0
 40
112.0
 40
113.0
 40
113.0
 40
114.0
 40
114.0
 40
115.0
 40
115.0
 40
116.0
 40
116.0
 40
117.0
 40
117.0
 40
118.0
 40
118.0
 40
119.0
 40
119.0
 40
120.0
 40
120.0
 40
121.0
 40
121.0
 40
122.0
 40
122.0
 40
123.0
 40
123.0
 40
124.0
 40
124.0
 40
125.0
 40
125.0
 40
126.0
 40
126.0
 40
127.0
 40
127.0
 40
128.0
 40
128.0
 40
129.0
 40
129.0
 40
130.0
 40
130.0
 40
131.0
 40
131.0
 40
132.0
 40
132.0
 40
133.0
 40
133.0
 40
134.0
 40
134.0
 40
135.0
 40
135.0
 40
136.0
 40
136.0
 40
137.0
 40
137.0
 40
138.0
 40
138.0
 40
139.0
 40
139.0
 40
140.0
 40
140.0
 40
141.0
 40
141.0
 40
142.0
 40
142.0
 40
143.0
 40
143.0
 40
144.0
 40
144.0
 40
145.0
 40
145.0
 40
146.0
 40
146.0
 40
147.0
 40
147.0
 40
148.0
 40
148.0
 40
149.0
 40
149.0
 40
150.0
 40
150.0
 40
151.0
 40
151.0
 40
152.0
 40
152.0
 40
153.0
 40
153.0
 40
154.0
 40
154.0
 40
155.0
 40
155.0
 40
156.0
 40
156.0
 40
157.0
 40
157.0
 40
158.0
 40
158.0
 40
159.0
 40
159.0
 40
160.0
 40
160.0
 40
161.0
 40
161.0
 40
162.0
 40
162.0
 40
163.0
 40
163.0
 40
164.0
 40
164.0
 40
165.0
 40
165.0
 40
166.0
 40
166.0
 40
167.0
 40
167.0
 40
168.0
 40
168.0
 40
169.0
 40
169.0
 40
170.0
 40
170.0
 40
171.0
 40
171.0
 40
172.0
 40
172.0
 40
173.0
 40
173.0
 40
174.0
 40
174.0
 40
175.0
 40
175.0
 40
176.0
 40
176.0
 40
177.0
 40
177.0
 40
178.0
 40
178.0
 40
179.0
 40
179.0
 40
180.0
 40
180.0
 40
181.0
 40
181.0
 40
182.0
 40
182.0
 40
183.0
 40
183.0
 40
184.0
 40
184.0
 40
185.0
 40
185.0
 40
186.0
 40
186.0
 40
187.0
 40
187.0
 40
188.0
 40
188.0
 40
189.0
 40
189.0
 40
190.0
 40
190.0
 40
191.0
 40
191.0
 40
191.0
 10
32.26641968680575
 20
1.290078283535823
 30
0.0
 10
32.26285769220796
 20
1.290190096163084
 30
0.0
 10
32.25929569761017
 20
1.290301908790345
 30
0.0
 10
32.25572521881482
 20
1.290487351330645
 30
0.0
 10
32.25215474001946
 20
1.290672793870946
 30
0.0
 10
32.24857802030278
 20
1.29093244037003
 30
0.0
 10
32.2450013005861
 20
1.291192086869114
 30
0.0
 10
32.24142061869038
 20
1.291526421532087
 30
0.0
 10
32.23783993679466
 20
1.291860756195059
 30
0.0
 10
32.23425760248178
 20
1.292270171008418
 30
0.0
 10
32.23067526816888
 20
1.292679585821777
 30
0.0
 10
32.22709361759621
 20
1.293164378437202
 30
0.0
 10
32.22351196702353
 20
1.293649171052627
 30
0.0
 10
32.2199333579604
 20
1.294209542947287
 30
0.0
 10
32.21635474889727
 20
1.294769914841946
 30
0.0
 10
32.21278155580095
 20
1.29540596976867
 30
0.0
 10
32.20920836270463
 20
1.296042024695394
 30
0.0
 10
32.20564297167638
 20
1.296753767434552
 30
0.0
 10
32.20207758064812
 20
1.29746551017371
 30
0.0
 10
32.19852238429084
 20
1.298252845596981
 30
0.0
 10
32.19496718793356
 20
1.299040181020251
 30
0.0
 10
32.19142458013363
 20
1.299902913474698
 30
0.0
 10
32.1878819723337
 20
1.300765645929146
 30
0.0
 10
32.18435434299018
 20
1.301703478948171
 30
0.0
 10
32.18082671364665
 20
1.302641311967197
 30
0.0
 10
32.1773164433718
 20
1.303653848312982
 30
0.0
 10
32.17380617309695
 20
1.304666384658768
 30
0.0
 10
32.17031562791243
 20
1.305753126698837
 30
0.0
 10
32.16682508272791
 20
1.306839868738907
 30
0.0
 10
32.16335660878121
 20
1.308000219157381
 30
0.0
 10
32.1598881348345
 20
1.309160569575856
 30
0.0
 10
32.15644405316017
 20
1.310393832417916
 30
0.0
 10
32.15299997148584
 20
1.311627095259976
 30
0.0
 10
32.14958257283612
 20
1.312932477305971
 30
0.0
 10
32.14616517418641
 20
1.314237859351965
 30
0.0
 10
32.14277671395533
 20
1.315614471815564
 30
0.0
 10
32.13938825372423
 20
1.316991084279162
 30
0.0
 10
32.13603094698868
 20
1.318437944821922
 30
0.0
 10
32.13267364025312
 20
1.319884805364683
 30
0.0
 10
32.12934965695401
 20
1.321400840417464
 30
0.0
 10
32.12602567365489
 20
1.322916875470244
 30
0.0
 10
32.12273713394013
 20
1.324500922850011
 30
0.0
 10
32.11944859422538
 20
1.326084970229777
 30
0.0
 10
32.11619756397575
 20
1.327735782038566
 30
0.0
 10
32.11294653372612
 20
1.329386593847356
 30
0.0
 10
32.10973502028353
 20
1.331102839638505
 30
0.0
 10
32.10652350684094
 20
1.332819085429653
 30
0.0
 10
32.10335345495758
 20
1.334599355624851
 30
0.0
 10
32.10018340307423
 20
1.336379625820049
 30
0.0
 10
32.09705669109915
 20
1.338222435359397
 30
0.0
 10
32.09392997912407
 20
1.340065244898744
 30
0.0
 10
32.09084841544252
 20
1.341969037104733
 30
0.0
 10
32.08776685176097
 20
1.343872829310723
 30
0.0
 10
32.08473217149975
 20
1.345835979946013
 30
0.0
 10
32.08169749123852
 20
1.347799130581304
 30
0.0
 10
32.07871135324905
 20
1.349819952079241
 30
0.0
 10
32.07572521525957
 20
1.351840773577178
 30
0.0
 10
32.0727891993884
 20
1.353917519423306
 30
0.0
 10
32.06985318351724
 20
1.355994265269433
 30
0.0
 10
32.06696878817183
 20
1.358125134511687
 30
0.0
 10
32.06408439282642
 20
1.360256003753942
 30
0.0
 10
32.061253032842
 20
1.362439145618885
 30
0.0
 10
32.05842167285758
 20
1.364622287483828
 30
0.0
 10
32.05564467766919
 20
1.366855806076087
 30
0.0
 10
32.05286768248079
 20
1.369089324668346
 30
0.0
 10
32.05259090610036
 20
1.369320851453029
 30
0.0
 10
32.05231412971992
 20
1.369552378237712
 30
0.0
 10
32.05204007017042
 20
1.369790191063502
 30
0.0
 10
32.05176601062092
 20
1.370028003889292
 30
0.0
 10
32.05149486175255
 20
1.370272077724795
 30
0.0
 10
32.05122371288418
 20
1.370516151560299
 30
0.0
 10
32.0509556696022
 20
1.370766453991337
 30
0.0
 10
32.05068762632023
 20
1.371016756422375
 30
0.0
 10
32.05042288425698
 20
1.371273247512102
 30
0.0
 10
32.05015814219374
 20
1.37152973860183
 30
0.0
 10
32.04989689736816
 20
1.371792370767122
 30
0.0
 10
32.04963565254259
 20
1.372055002932415
 30
0.0
 10
32.0493781010081
 20
1.372323720837597
 30
0.0
 10
32.0491205494736
 20
1.372592438742779
 30
0.0
 10
32.04886688695522
 20
1.37286717921173
 30
0.0
 10
32.04861322443685
 20
1.373141919680681
 30
0.0
 10
32.04836364595887
 20
1.373422611628294
 30
0.0
 10
32.0481140674809
 20
1.373703303575908
 30
0.0
 10
32.04786876698586
 20
1.373989867959827
 30
0.0
 10
32.04762346649083
 20
1.374276432343746
 30
0.0
 10
32.04738263645145
 20
1.374568782137207
 30
0.0
 10
32.04714180641206
 20
1.374861131930669
 30
0.0
 10
32.04690563743699
 20
1.375159172117229
 30
0.0
 10
32.04666946846191
 20
1.37545721230379
 30
0.0
 10
32.04643814889719
 20
1.375760839894601
 30
0.0
 10
32.04620682933246
 20
1.376064467485411
 30
0.0
 10
32.04598054485965
 20
1.376373571559617
 30
0.0
 10
32.04575426038684
 20
1.376682675633823
 30
0.0
 10
32.04553319361975
 20
1.376997137402561
 30
0.0
 10
32.04531212685266
 20
1.377311599171299
 30
0.0
 10
32.04509645693398
 20
1.37763129206565
 30
0.0
 10
32.04488078701529
 20
1.377950984960002
 30
0.0
 10
32.04467068921488
 20
1.378275774743144
 30
0.0
 10
32.04446059141448
 20
1.378600564526285
 30
0.0
 10
32.04425623673103
 20
1.378930309429946
 30
0.0
 10
32.04405188204757
 20
1.379260054333607
 30
0.0
 10
32.04385343681507
 20
1.379594605218839
 30
0.0
 10
32.04365499158257
 20
1.379929156104072
 30
0.0
 10
32.04346261708362
 20
1.38026835664617
 30
0.0
 10
32.04327024258467
 20
1.380607557188269
 30
0.0
 10
32.0430840946721
 20
1.380951244085578
 30
0.0
 10
32.04289794675952
 20
1.381294930982886
 30
0.0
 10
32.04271817548808
 20
1.381642934189072
 30
0.0
 10
32.04253840421663
 20
1.381990937395258
 30
0.0
 10
32.04236515348644
 20
1.38234308037451
 30
0.0
 10
32.04219190275624
 20
1.382695223353763
 30
0.0
 10
32.04202530996969
 20
1.383051323358218
 30
0.0
 10
32.04185871718313
 20
1.383407423362673
 30
0.0
 10
32.04169891291668
 20
1.383767291731268
 30
0.0
 10
32.04153910865023
 20
1.384127160099864
 30
0.0
 10
32.0413862163428
 20
1.384490602577654
 30
0.0
 10
32.04123332403537
 20
1.384854045055445
 30
0.0
 10
32.04108745969477
 20
1.385220862132325
 30
0.0
 10
32.04094159535416
 20
1.385587679209205
 30
0.0
 10
32.04080286728278
 20
1.38595766647683
 30
0.0
 10
32.0406641392114
 20
1.386327653744454
 30
0.0
 10
32.04053264775279
 20
1.386700602270065
 30
0.0
 10
32.04040115629418
 20
1.387073550795675
 30
0.0
 10
32.04027699360132
 20
1.387449247511415
 30
0.0
 10
32.04015283090848
 20
1.387824944227155
 30
0.0
 10
32.04003608073523
 20
1.388203172333369
 30
0.0
 10
32.03991933056199
 20
1.388581400439583
 30
0.0
 10
32.03981006807832
 20
1.388961939820506
 30
0.0
 10
32.03970080559466
 20
1.389342479201429
 30
0.0
 10
32.03959909722681
 20
1.389725106851603
 30
0.0
 10
32.03949738885895
 20
1.390107734501776
 30
0.0
 10
32.03940329215497
 20
1.390492224961452
 30
0.0
 10
32.03930919545098
 20
1.390876715421128
 30
0.0
 10
32.03922275897245
 20
1.391262841218883
 30
0.0
 10
32.03913632249392
 20
1.391648967016639
 30
0.0
 10
32.03905758573411
 20
1.392036499117373
 30
0.0
 10
32.03897884897431
 20
1.392424031218108
 30
0.0
 10
32.03890784230317
 20
1.392812739474576
 30
0.0
 10
32.03883683563204
 20
1.393201447731043
 30
0.0
 10
32.03877358026803
 20
1.393591101337052
 30
0.0
 10
32.03871032490402
 20
1.393980754943061
 30
0.0
 10
32.03865483291291
 20
1.394371122886486
 30
0.0
 10
32.03859934092179
 20
1.394761490829911
 30
0.0
 10
32.03855161524215
 20
1.395152342343654
 30
0.0
 10
32.03850388956251
 20
1.395543193857398
 30
0.0
 10
32.03846392405771
 20
1.395934298866483
 30
0.0
 10
32.0384239585529
 20
1.396325403875568
 30
0.0
 10
32.03839173808903
 20
1.396716533438572
 30
0.0
 10
32.03835951762515
 20
1.397107663001577
 30
0.0
 10
32.03833501817439
 20
1.397498589744673
 30
0.0
 10
32.03831051872363
 20
1.397889516487768
 30
0.0
 10
32.03829370749231
 20
1.398280015029683
 30
0.0
 10
32.03827689626098
 20
1.398670513571599
 30
0.0
 10
32.03826773184149
 20
1.399060360937912
 30
0.0
 10
32.03825856742201
 20
1.399450208304225
 30
0.0
 10
32.03825699996767
 20
1.399839184329449
 30
0.0
 10
32.03825543251334
 20
1.400228160354673
 30
0.0
 10
32.03826140393509
 20
1.400616048070724
 30
0.0
 10
32.03826737535684
 20
1.401003935786775
 30
0.0
 10
32.0382808195406
 20
1.401390521796466
 30
0.0
 10
32.03829426372437
 20
1.401777107806157
 30
0.0
 10
32.03831510676795
 20
1.40216218264052
 30
0.0
 10
32.03833594981154
 20
1.402547257474883
 30
0.0
 10
32.03836411027962
 20
1.402930615933181
 30
0.0
 10
32.03839227074769
 20
1.40331397439148
 30
0.0
 10
32.03842765994353
 20
1.403695415862932
 30
0.0
 10
32.03846304913937
 20
1.404076857334384
 30
0.0
 10
32.03850557139191
 20
1.404456186100714
 30
0.0
 10
32.03854809364445
 20
1.404835514867043
 30
0.0
 10
32.03859764660922
 20
1.405212540385107
 30
0.0
 10
32.03864719957399
 20
1.405589565903172
 30
0.0
 10
32.03870367454625
 20
1.40596410306704
 30
0.0
 10
32.0387601495185
 20
1.406338640230908
 30
0.0
 10
32.03882343175724
 20
1.406710509612885
 30
0.0
 10
32.03888671399598
 20
1.407082378994862
 30
0.0
 10
32.03895668305712
 20
1.407451407065082
 30
0.0
 10
32.03902665211827
 20
1.407820435135301
 30
0.0
 10
32.0391031821955
 20
1.408186454459631
 30
0.0
 10
32.03917971227274
 20
1.408552473783961
 30
0.0
 10
32.0392626725446
 20
1.408915323200084
 30
0.0
 10
32.03934563281646
 20
1.409278172616207
 30
0.0
 10
32.03943488779785
 20
1.409637697387859
 30
0.0
 10
32.03952414277924
 20
1.40999722215951
 30
0.0
 10
32.03961955267626
 20
1.410353274108966
 30
0.0
 10
32.03971496257327
 20
1.410709326058423
 30
0.0
 10
32.03981638363965
 20
1.411061763677435
 30
0.0
 10
32.03991780470601
 20
1.411414201296447
 30
0.0
 10
32.04002508959979
 20
1.411762889835925
 30
0.0
 10
32.04013237449357
 20
1.412111578375403
 30
0.0
 10
32.04024537263276
 20
1.412456389914241
 30
0.0
 10
32.04035837077195
 20
1.412801201453079
 30
0.0
 10
32.04047692868785
 20
1.413142014946613
 30
0.0
 10
32.04059548660375
 20
1.413482828440148
 30
0.0
 10
32.0407201740462
 20
1.413821447486413
 30
0.0
 10
32.04084486148864
 20
1.414160066532678
 30
0.0
 10
32.04097638286918
 20
1.414498246519136
 30
0.0
 10
32.0411079042497
 20
1.414836426505595
 30
0.0
 10
32.0412463013413
 20
1.415173976488602
 30
0.0
 10
32.04138469843291
 20
1.415511526471609
 30
0.0
 10
32.04153000641348
 20
1.415848252025709
 30
0.0
 10
32.04167531439404
 20
1.416184977579809
 30
0.0
 10
32.04182756160405
 20
1.416520681059398
 30
0.0
 10
32.04197980881406
 20
1.416856384538986
 30
0.0
 10
32.04213901652545
 20
1.417190865357219
 30
0.0
 10
32.04229822423685
 20
1.417525346175452
 30
0.0
 10
32.04246440643432
 20
1.417858401099947
 30
0.0
 10
32.04263058863179
 20
1.418191456024442
 30
0.0
 10
32.04280375180771
 20
1.418522879489232
 30
0.0
 10
32.04297691498363
 20
1.418854302954023
 30
0.0
 10
32.04315705794797
 20
1.419183887387096
 30
0.0
 10
32.0433372009123
 20
1.419513471820169
 30
0.0
 10
32.04352431461885
 20
1.419841007985825
 30
0.0
 10
32.04371142832539
 20
1.420168544151482
 30
0.0
 10
32.04390549571531
 20
1.420493821506645
 30
0.0
 10
32.04409956310522
 20
1.420819098861808
 30
0.0
 10
32.04430055896923
 20
1.421141905925298
 30
0.0
 10
32.04450155483325
 20
1.421464712988789
 30
0.0
 10
32.04470944569354
 20
1.421784837722496
 30
0.0
 10
32.04491733655384
 20
1.422104962456203
 30
0.0
 10
32.0451320805667
 20
1.422422192656954
 30
0.0
 10
32.04534682457957
 20
1.422739422857705
 30
0.0
 10
32.04556837145962
 20
1.423053546558576
 30
0.0
 10
32.04578991833967
 20
1.423367670259447
 30
0.0
 10
32.04601820930681
 20
1.423678476139138
 30
0.0
 10
32.04624650027394
 20
1.423989282018829
 30
0.0
 10
32.04648146802345
 20
1.424296559817659
 30
0.0
 10
32.04671643577296
 20
1.424603837616489
 30
0.0
 10
32.04695800446977
 20
1.424907378557488
 30
0.0
 10
32.04719957316658
 20
1.425210919498487
 30
0.0
 10
32.04744765846395
 20
1.425510516711993
 30
0.0
 10
32.04769574376132
 20
1.425810113925499
 30
0.0
 10
32.04795025284463
 20
1.426105562875612
 30
0.0
 10
32.04820476192793
 20
1.426401011825724
 30
0.0
 10
32.04846559358368
 20
1.426692110736916
 30
0.0
 10
32.04872642523942
 20
1.426983209648108
 30
0.0
 10
32.04899346994983
 20
1.427269759930256
 30
0.0
 10
32.04926051466023
 20
1.427556310212405
 30
0.0
 10
32.04953365472329
 20
1.427838116882488
 30
0.0
 10
32.04980679478634
 20
1.428119923552571
 30
0.0
 10
32.05008590446135
 20
1.428396795651242
 30
0.0
 10
32.05036501413636
 20
1.428673667749912
 30
0.0
 10
32.0506499598147
 20
1.428945418751181
 30
0.0
 10
32.05093490549304
 20
1.42921716975245
 30
0.0
 10
32.05122554589374
 20
1.429483617964701
 30
0.0
 10
32.05151618629444
 20
1.429750066176953
 30
0.0
 10
32.05181237268414
 20
1.430011035133546
 30
0.0
 10
32.05210855907384
 20
1.430272004090139
 30
0.0
 10
32.05241013551039
 20
1.430527322927889
 30
0.0
 10
32.05271171194694
 20
1.430782641765639
 30
0.0
 10
32.05301851554588
 20
1.431032145589505
 30
0.0
 10
32.05332531914482
 20
1.43128164941337
 30
0.0
 10
32.05363718036784
 20
1.431525179645756
 30
0.0
 10
32.05394904159087
 20
1.431768709878141
 30
0.0
 10
32.05426578455523
 20
1.432006114591265
 30
0.0
 10
32.05458252751959
 20
1.432243519304389
 30
0.0
 10
32.05490397032715
 20
1.432474653534288
 30
0.0
 10
32.05522541313471
 20
1.432705787764187
 30
0.0
 10
32.05555136821959
 20
1.432930513804984
 30
0.0
 10
32.05587732330446
 20
1.433155239845781
 30
0.0
 10
32.05620759779758
 20
1.433373427522978
 30
0.0
 10
32.0565378722907
 20
1.433591615200176
 30
0.0
 10
32.05687226840003
 20
1.433803142121826
 30
0.0
 10
32.05720666450934
 20
1.434014669043477
 30
0.0
 10
32.05754497991408
 20
1.434219420828226
 30
0.0
 10
32.05788329531882
 20
1.434424172612974
 30
0.0
 10
32.058225323576
 20
1.434622043094071
 30
0.0
 10
32.05856735183318
 20
1.434819913575167
 30
0.0
 10
32.05891288279477
 20
1.435010804979707
 30
0.0
 10
32.05925841375637
 20
1.435201696384246
 30
0.0
 10
32.05960723399549
 20
1.435385519487012
 30
0.0
 10
32.05995605423462
 20
1.435569342589777
 30
0.0
 10
32.06030794747862
 20
1.435746016841219
 30
0.0
 10
32.06065984072261
 20
1.435922691092661
 30
0.0
 10
32.06101458829153
 20
1.436092144720678
 30
0.0
 10
32.06136933586046
 20
1.436261598348695
 30
0.0
 10
32.06172671710894
 20
1.436423768434039
 30
0.0
 10
32.06208409835742
 20
1.436585938519382
 30
0.0
 10
32.06244389111816
 20
1.43674077104464
 30
0.0
 10
32.0628036838789
 20
1.436895603569897
 30
0.0
 10
32.06316566490589
 20
1.437043053442168
 30
0.0
 10
32.06352764593288
 20
1.437190503314438
 30
0.0
 10
32.06389159134272
 20
1.437330534361937
 30
0.0
 10
32.06425553675257
 20
1.437470565409435
 30
0.0
 10
32.06462122246189
 20
1.437603150352413
 30
0.0
 10
32.06498690817122
 20
1.437735735295391
 30
0.0
 10
32.06535411032878
 20
1.437860855691888
 30
0.0
 10
32.06572131248635
 20
1.437985976088385
 30
0.0
 10
32.06608980789792
 20
1.438103622255442
 30
0.0
 10
32.06645830330949
 20
1.438221268422498
 30
0.0
 10
32.06682786985407
 20
1.4383314393336
 30
0.0
 10
32.06719743639864
 20
1.438441610244703
 30
0.0
 10
32.06756785343458
 20
1.438544313404313
 30
0.0
 10
32.06793827047052
 20
1.438647016563922
 30
0.0
 10
32.06830931923
 20
1.438742267860071
 30
0.0
 10
32.06868036798947
 20
1.438837519156221
 30
0.0
 10
32.06905183196007
 20
1.438925342692229
 30
0.0
 10
32.06942329593066
 20
1.439013166228238
 30
0.0
 10
32.0697949612229
 20
1.439093594134694
 30
0.0
 10
32.07016662651513
 20
1.439174022041149
 30
0.0
 10
32.07053828221477
 20
1.439247094269374
 30
0.0
 10
32.07090993791441
 20
1.439320166497598
 30
0.0
 10
32.07128137641857
 20
1.439385930595876
 30
0.0
 10
32.07165281492273
 20
1.439451694694155
 30
0.0
 10
32.07202383225893
 20
1.439510205568057
 30
0.0
 10
32.07239484959513
 20
1.439568716441959
 30
0.0
 10
32.07276524572252
 20
1.439620036100121
 30
0.0
 10
32.07313564184992
 20
1.439671355758283
 30
0.0
 10
32.07350522094204
 20
1.439715553045063
 30
0.0
 10
32.07387480003415
 20
1.439759750331843
 30
0.0
 10
32.07424337074259
 20
1.439796900648256
 30
0.0
 10
32.07461194145104
 20
1.43983405096467
 30
0.0
 10
32.07497931714984
 20
1.439864235979051
 30
0.0
 10
32.07534669284863
 20
1.439894420993432
 30
0.0
 10
32.0757126918588
 20
1.439917728343244
 30
0.0
 10
32.07607869086897
 20
1.439941035693056
 30
0.0
 10
32.07644313666319
 20
1.439957558679277
 30
0.0
 10
32.07680758245741
 20
1.439974081665499
 30
0.0
 10
32.07717030384468
 20
1.439983918940992
 30
0.0
 10
32.07753302523196
 20
1.439993756216485
 30
0.0
 10
32.10288865607554
 20
1.440002213531498
 30
0.0
 10
32.1282442869191
 20
1.440010670846511
 30
0.0
 10
32.12856640251949
 20
1.440026180056817
 30
0.0
 10
32.12888851811988
 20
1.440041689267124
 30
0.0
 10
32.12921246635813
 20
1.440067819291814
 30
0.0
 10
32.12953641459639
 20
1.440093949316505
 30
0.0
 10
32.12986169065461
 20
1.440130897979365
 30
0.0
 10
32.13018696671284
 20
1.440167846642225
 30
0.0
 10
32.13051304640422
 20
1.44021578084628
 30
0.0
 10
32.13083912609559
 20
1.440263715050336
 30
0.0
 10
32.13116546815989
 20
1.440322768726976
 30
0.0
 10
32.13149181022419
 20
1.440381822403616
 30
0.0
 10
32.13181785886467
 20
1.440452094660327
 30
0.0
 10
32.13214390750515
 20
1.440522366917037
 30
0.0
 10
32.13246909514714
 20
1.44060392041534
 30
0.0
 10
32.13279428278914
 20
1.440685473913642
 30
0.0
 10
32.13311803303644
 20
1.440778333506686
 30
0.0
 10
32.13344178328374
 20
1.440871193099729
 30
0.0
 10
32.13376351404427
 20
1.44097534475615
 30
0.0
 10
32.13408524480479
 20
1.44107949641257
 30
0.0
 10
32.1344043715533
 20
1.441194886449677
 30
0.0
 10
32.1347234983018
 20
1.441310276486784
 30
0.0
 10
32.13503943744384
 20
1.441436811131941
 30
0.0
 10
32.13535537658588
 20
1.441563345777098
 30
0.0
 10
32.13566754888434
 20
1.441700891071415
 30
0.0
 10
32.13597972118279
 20
1.441838436365732
 30
0.0
 10
32.13628755520644
 20
1.441986818418965
 30
0.0
 10
32.13659538923008
 20
1.442135200472199
 30
0.0
 10
32.13689832478188
 20
1.442294206072205
 30
0.0
 10
32.13720126033368
 20
1.442453211672212
 30
0.0
 10
32.13749875181663
 20
1.442622589246551
 30
0.0
 10
32.13779624329958
 20
1.44279196682089
 30
0.0
 10
32.13808776297779
 20
1.442971427742345
 30
0.0
 10
32.138379282656
 20
1.4431508886638
 30
0.0
 10
32.13866432377046
 20
1.443340108885888
 30
0.0
 10
32.13894936488492
 20
1.443529329107977
 30
0.0
 10
32.13922744458523
 20
1.443727951111047
 30
0.0
 10
32.13950552428554
 20
1.443926573114118
 30
0.0
 10
32.13977618634229
 20
1.444134208137549
 30
0.0
 10
32.14004684839904
 20
1.444341843160981
 30
0.0
 10
32.14030966566472
 20
1.444558073692471
 30
0.0
 10
32.14057248293041
 20
1.444774304223961
 30
0.0
 10
32.14082705952184
 20
1.444998686712966
 30
0.0
 10
32.14108163611327
 20
1.445223069201972
 30
0.0
 10
32.14132760929256
 20
1.445455136961205
 30
0.0
 10
32.14157358247184
 20
1.445687204720437
 30
0.0
 10
32.14181062420897
 20
1.445926470976953
 30
0.0
 10
32.14204766594611
 20
1.446165737233469
 30
0.0
 10
32.14227548415121
 20
1.446411698289366
 30
0.0
 10
32.1425033023563
 20
1.446657659345263
 30
0.0
 10
32.14272164177545
 20
1.446909797807351
 30
0.0
 10
32.1429399811946
 20
1.447161936269439
 30
0.0
 10
32.14314862396855
 20
1.447419724307442
 30
0.0
 10
32.1433572667425
 20
1.447677512345446
 30
0.0
 10
32.1435560326329
 20
1.447940414939306
 30
0.0
 10
32.1437547985233
 20
1.448203317533165
 30
0.0
 10
32.1439435448163
 20
1.448470795671755
 30
0.0
 10
32.1441322911093
 20
1.448738273810345
 30
0.0
 10
32.14431091221061
 20
1.449009787606355
 30
0.0
 10
32.14448953331193
 20
1.449281301402366
 30
0.0
 10
32.14465796005174
 20
1.449556313091092
 30
0.0
 10
32.14482638679155
 20
1.449831324779818
 30
0.0
 10
32.15858261844537
 20
1.474915827970191
 30
0.0
 10
32.17233885009919
 20
1.500000331160564
 30
0.0
  0
SPLINE
  5
45
330
1F
100
AcDbEntity
  8
DEFAULT
100
AcDbSpline
210
0.0
220
0.0
230
1.0
 70
     8
 71
     2
 72
   260
 73
   257
 74
     0
 42
0.0000000001
 43
0.0000000001
 40
0.0
 40
0.0
 40
0.0
 40
1.0
 40
1.0
 40
2.0
 40
2.0
 40
3.0
 40
3.0
 40
4.0
 40
4.0
 40
5.0
 40
5.0
 40
6.0
 40
6.0
 40
7.0
 40
7.0
 40
8.0
 40
8.0
 40
9.0
 40
9.0
 40
10.0
 40
10.0
 40
11.0
 40
11.0
 40
12.0
 40
12.0
 40
13.0
 40
13.0
 40
14.0
 40
14.0
 40
15.0
 40
15.0
 40
16.0
 40
16.0
 40
17.0
 40
17.0
 40
18.0
 40
18.0
 40
19.0
 40
19.0
 40
20.0
 40
20.0
 40
21.0
 40
21.0
 40
22.0
 40
22.0
 40
23.0
 40
23.0
 40
24.0
 40
24.0
 40
25.0
 40
25.0
 40
26.0
 40
26.0
 40
27.0
 40
27.0
 40
28.0
 40
28.0
 40
29.0
 40
29.0
 40
30.0
 40
30.0
 40
31.0
 40
31.0
 40
32.0
 40
32.0
 40
33.0
 40
33.0
 40
34.0
 40
34.0
 40
35.0
 40
35.0
 40
36.0
 40
36.0
 40
37.0
 40
37.0
 40
38.0
 40
38.0
 40
39.0
 40
39.0
 40
40.0
 40
40.0
 40
41.0
 40
41.0
 40
42.0
 40
42.0
 40
43.0
 40
43.0
 40
44.0
 40
44.0
 40
45.0
 40
45.0
 40
46.0
 40
46.0
 40
47.0
 40
47.0
 40
48.0
 40
48.0
 40
49.0
 40
49.0
 40
50.0
 40
50.0
 40
51.0
 40
51.0
 40
52.0
 40
52.0
 40
53.0
 40
53.0
 40
54.0
 40
54.0
 40
55.0
 40
55.0
 40
56.0
 40
56.0
 40
57.0
 40
57.0
 40
58.0
 40
58.0
 40
59.0
 40
59.0
 40
60.0
 40
60.0
 40
61.0
 40
61.0
 40
62.0
 40
62.0
 40
63.0
 40
63.0
 40
64.0
 40
64.0
 40
65.0
 40
65.0
 40
66.0
 40
66.0
 40
67.0
 40
67.0
 40
68.0
 40
68.0
 40
69.0
 40
69.0
 40
70.0
 40
70.0
 40
71.0
 40
71.0
 40
72.0
 40
72.0
 40
73.0
 40
73.0
 40
74.0
 40
74.0
 40
75.0
 40
75.0
 40
76.0
 40
76.0
 40
77.0
 40
77.0
 40
78.0
 40
78.0
 40
79.0
 40
79.0
 40
80.0
 40
80.0
 40
81.0
 40
81.0
 40
82.0
 40
82.0
 40
83.0
 40
83.0
 40
84.0
 40
84.0
 40
85.0
 40
85.0
 40
86.0
 40
86.0
 40
87.0
 40
87.0
 40
88.0
 40
88.0
 40
89.0
 40
89.0
 40
90.0
 40
90.0
 40
91.0
 40
91.0
 40
92.0
 40
92.0
 40
93.0
 40
93.0
 40
94.0
 40
94.0
 40
95.0
 40
95.0
 40
96.0
 40
96.0
 40
97.0
 40
97.0
 40
98.0
 40
98.0
 40
99.0
 40
99.0
 40
100.0
 40
100.0
 40
101.0
 40
101.0
 40
102.0
 40
102.0
 40
103.0
 40
103.0
 40
104.0
 40
104.0
 40
105.0
 40
105.0
 40
106.0
 40
106.0
 40
107.0
 40
107.0
 40
108.0
 40
108.0
 40
109.0
 40
109.0
 40
110.0
 40
110.0
 40
111.0
 40
111.0
 40
112.0
 40
112.0
 40
113.0
 40
113.0
 40
114.0
 40
114.0
 40
115.0
 40
115.0
 40
116.0
 40
116.0
 40
117.0
 40
117.0
 40
118.0
 40
118.0
 40
119.0
 40
119.0
 40
120.0
 40
120.0
 40
121.0
 40
121.0
 40
122.0
 40
122.0
 40
123.0
 40
123.0
 40
124.0
 40
124.0
 40
125.0
 40
125.0
 40
126.0
 40
126.0
 40
127.0
 40
127.0
 40
128.0
 40
128.0
 40
128.0
 10
32.26094968781273
 20
1.499999831331888
 30
0.0
 10
32.27750323184936
 20
0.8689920003863933
 30
0.0
 10
32.29405677588598
 20
0.2379841694408987
 30
0.0
 10
32.2942199636971
 20
0.2352274593522505
 30
0.0
 10
32.29438315150822
 20
0.2324707492636023
 30
0.0
 10
32.29460936074886
 20
0.2296949655405396
 30
0.0
 10
32.29483556998949
 20
0.2269191818174769
 30
0.0
 10
32.29512620453261
 20
0.2241262271385489
 30
0.0
 10
32.29541683907572
 20
0.2213332724596209
 30
0.0
 10
32.29577323817712
 20
0.2185251430156552
 30
0.0
 10
32.29612963727851
 20
0.2157170135716895
 30
0.0
 10
32.29655306899822
 20
0.212895797134058
 30
0.0
 10
32.29697650071792
 20
0.2100745806964265
 30
0.0
 10
32.29746815533072
 20
0.2072424541872895
 30
0.0
 10
32.29795980994351
 20
0.2044103276781525
 30
0.0
 10
32.29852079337869
 20
0.2015695542294341
 30
0.0
 10
32.29908177681386
 20
0.1987287807807156
 30
0.0
 10
32.29971310416701
 20
0.1958817062719715
 30
0.0
 10
32.30034443152017
 20
0.1930346317632275
 30
0.0
 10
32.30104702068148
 20
0.1901836808323235
 30
0.0
 10
32.30174960984279
 20
0.1873327299014194
 30
0.0
 10
32.30252427528818
 20
0.184480401426018
 30
0.0
 10
32.30329894073358
 20
0.1816280729506165
 30
0.0
 10
32.30414638752661
 20
0.1787769350028505
 30
0.0
 10
32.30499383431966
 20
0.1759257970550845
 30
0.0
 10
32.30591465237244
 20
0.1730784813364268
 30
0.0
 10
32.30683547042522
 20
0.1702311656177691
 30
0.0
 10
32.30783012906736
 20
0.1673903613859516
 30
0.0
 10
32.30882478770949
 20
0.1645495571541341
 30
0.0
 10
32.30989363061404
 20
0.1617180046589726
 30
0.0
 10
32.31096247351859
 20
0.1588864521638111
 30
0.0
 10
32.31210571403294
 20
0.1560669356138891
 30
0.0
 10
32.31324895454728
 20
0.1532474190639671
 30
0.0
 10
32.31446667147603
 20
0.1504427591512658
 30
0.0
 10
32.31568438840478
 20
0.1476380992385645
 30
0.0
 10
32.31697652228946
 20
0.1448511452532185
 30
0.0
 10
32.31826865617414
 20
0.1420641912678726
 30
0.0
 10
32.31963500611263
 20
0.1392978128402145
 30
0.0
 10
32.32100135605111
 20
0.1365314344125564
 30
0.0
 10
32.32244157709596
 20
0.1337885129244054
 30
0.0
 10
32.3238817981408
 20
0.1310455914362544
 30
0.0
 10
32.32539539931265
 20
0.1283290111479325
 30
0.0
 10
32.32690900048451
 20
0.1256124308596107
 30
0.0
 10
32.32849534343232
 20
0.1229250698033519
 30
0.0
 10
32.33008168638013
 20
0.120237708747093
 30
0.0
 10
32.33173998471489
 20
0.1175824294412745
 30
0.0
 10
32.33339828304965
 20
0.1149271501354561
 30
0.0
 10
32.33512760237383
 20
0.1123067901773551
 30
0.0
 10
32.33685692169802
 20
0.1096864302192542
 30
0.0
 10
32.33865618034664
 20
0.1071037928167468
 30
0.0
 10
32.34045543899526
 20
0.1045211554142395
 30
0.0
 10
32.34232340949877
 20
0.1019789999189614
 30
0.0
 10
32.34419138000229
 20
0.0994368444236834
 30
0.0
 10
32.34612669127542
 20
0.0969378769296046
 30
0.0
 10
32.34806200254855
 20
0.0944389094355259
 30
0.0
 10
32.35006314280234
 20
0.0919857735076199
 30
0.0
 10
32.35206428305614
 20
0.0895326375797138
 30
0.0
 10
32.35412960342421
 20
0.0871279051773959
 30
0.0
 10
32.35619492379229
 20
0.0847231727750779
 30
0.0
 10
32.35832264265562
 20
0.082369335434329
 30
0.0
 10
32.36045036151896
 20
0.0800154980935801
 30
0.0
 10
32.36263856950685
 20
0.077714958430159
 30
0.0
 10
32.36482677749474
 20
0.075414418766738
 30
0.0
 10
32.36707344313363
 20
0.0731694823606284
 30
0.0
 10
32.36932010877253
 20
0.0709245459545188
 30
0.0
 10
32.3716230847478
 20
0.0687374136727762
 30
0.0
 10
32.37392606072305
 20
0.0665502813910336
 30
0.0
 10
32.37628309071357
 20
0.0644230422025336
 30
0.0
 10
32.37864012070408
 20
0.0622958030140336
 30
0.0
 10
32.38104884674395
 20
0.0602304273453196
 30
0.0
 10
32.38345757278383
 20
0.0581650516766055
 30
0.0
 10
32.3859155431008
 20
0.0561633853531551
 30
0.0
 10
32.38837351341778
 20
0.0541617190297046
 30
0.0
 10
32.39087819069388
 20
0.0522254778415507
 30
0.0
 10
32.39338286796998
 20
0.0502892366533968
 30
0.0
 10
32.3959316379663
 20
0.0484200015782262
 30
0.0
 10
32.39848040796262
 20
0.0465507665030556
 30
0.0
 10
32.40107058844735
 20
0.0447499796137573
 30
0.0
 10
32.40366076893208
 20
0.0429491927244591
 30
0.0
 10
32.40628961884894
 20
0.0412181538016963
 30
0.0
 10
32.40891846876579
 20
0.0394871148789334
 30
0.0
 10
32.41158319757833
 20
0.0378269787427563
 30
0.0
 10
32.41424792639087
 20
0.0361668426065792
 30
0.0
 10
32.41694570353805
 20
0.0345786171744905
 30
0.0
 10
32.41964348068523
 20
0.0329903917424018
 30
0.0
 10
32.42237144508326
 20
0.0314749368147089
 30
0.0
 10
32.42509940948128
 20
0.029959481887016
 30
0.0
 10
32.42785467900806
 20
0.028517508653866
 30
0.0
 10
32.43060994853485
 20
0.0270755354207161
 30
0.0
 10
32.43338962943483
 20
0.0257076066789846
 30
0.0
 10
32.4361693103348
 20
0.0243396779372532
 30
0.0
 10
32.43897050648405
 20
0.0230462089995331
 30
0.0
 10
32.4417717026333
 20
0.0217527400618129
 30
0.0
 10
32.44459152460796
 20
0.0205340003342
 30
0.0
 10
32.44741134658261
 20
0.0193152606065871
 30
0.0
 10
32.4502469204768
 20
0.0181713758068486
 30
0.0
 10
32.45308249437098
 20
0.0170274910071101
 30
0.0
 10
32.4559309703145
 20
0.0159584459901989
 30
0.0
 10
32.45877944625801
 20
0.0148894009732878
 30
0.0
 10
32.46163800658816
 20
0.0138950431270873
 30
0.0
 10
32.46449656691831
 20
0.0129006852808868
 30
0.0
 10
32.46736243396513
 20
0.0119807284515564
 30
0.0
 10
32.47022830101195
 20
0.0110607716222261
 30
0.0
 10
32.47309874446057
 20
0.0102148005255989
 30
0.0
 10
32.47596918790919
 20
0.0093688294289718
 30
0.0
 10
32.47884153170854
 20
0.0085963045021385
 30
0.0
 10
32.48171387550789
 20
0.0078237795753053
 30
0.0
 10
32.48458550429982
 20
0.007124042220806
 30
0.0
 10
32.48745713309173
 20
0.0064243048663067
 30
0.0
 10
32.49032549813981
 20
0.0057965830402327
 30
0.0
 10
32.49319386318789
 20
0.0051688612141587
 30
0.0
 10
32.49605648779047
 20
0.0046122753089248
 30
0.0
 10
32.49891911239305
 20
0.0040556894036909
 30
0.0
 10
32.50177359676979
 20
0.0035692583762435
 30
0.0
 10
32.50462808114652
 20
0.0030828273487962
 30
0.0
 10
32.50747210679286
 20
0.0026654750455457
 30
0.0
 10
32.51031613243919
 20
0.0022481227422952
 30
0.0
 10
32.51314746594751
 20
0.0018986843730583
 30
0.0
 10
32.51597879945584
 20
0.0015492460038214
 30
0.0
 10
32.51879529580658
 20
0.0012664747184891
 30
0.0
 10
32.52161179215732
 20
0.0009837034331568
 30
0.0
 10
32.52441139748726
 20
0.0007662769566171
 30
0.0
 10
32.52721100281721
 20
0.0005488504800774
 30
0.0
 10
32.52999175667595
 20
0.0003953777630701
 30
0.0
 10
32.53277251053469
 20
0.0002419050460628
 30
0.0
 10
32.53553254764346
 20
0.000150932892073
 30
0.0
 10
32.53829258475222
 20
0.0000599607380832
 30
0.0
 10
33.50821213628248
 20
0.0000299803690417
 30
0.0
 10
34.47813168781274
 20
0.0000000000000002
 30
0.0
 10
34.48086923934299
 20
0.0000299803690404
 30
0.0
 10
34.48360679087325
 20
0.0000599607380806
 30
0.0
 10
34.48636682798201
 20
0.0001509328920704
 30
0.0
 10
34.48912686509077
 20
0.0002419050460602
 30
0.0
 10
34.49190761894951
 20
0.0003953777630675
 30
0.0
 10
34.49468837280824
 20
0.0005488504800748
 30
0.0
 10
34.4974879781382
 20
0.0007662769566145
 30
0.0
 10
34.50028758346815
 20
0.0009837034331542
 30
0.0
 10
34.5031040798189
 20
0.0012664747184865
 30
0.0
 10
34.50592057616964
 20
0.0015492460038188
 30
0.0
 10
34.50875190967795
 20
0.0018986843730558
 30
0.0
 10
34.51158324318627
 20
0.0022481227422927
 30
0.0
 10
34.5144272688326
 20
0.0026654750455432
 30
0.0
 10
34.51727129447893
 20
0.0030828273487937
 30
0.0
 10
34.52012577885567
 20
0.0035692583762411
 30
0.0
 10
34.52298026323241
 20
0.0040556894036885
 30
0.0
 10
34.52584288783498
 20
0.0046122753089224
 30
0.0
 10
34.52870551243756
 20
0.0051688612141563
 30
0.0
 10
34.53157387748565
 20
0.0057965830402303
 30
0.0
 10
34.53444224253374
 20
0.0064243048663043
 30
0.0
 10
34.53731387132565
 20
0.0071240422208036
 30
0.0
 10
34.54018550011757
 20
0.0078237795753029
 30
0.0
 10
34.54305784391693
 20
0.0085963045021362
 30
0.0
 10
34.54593018771627
 20
0.0093688294289695
 30
0.0
 10
34.54880063116489
 20
0.0102148005255966
 30
0.0
 10
34.55167107461352
 20
0.0110607716222238
 30
0.0
 10
34.55453694166033
 20
0.0119807284515542
 30
0.0
 10
34.55740280870715
 20
0.0129006852808846
 30
0.0
 10
34.56026136903731
 20
0.0138950431270851
 30
0.0
 10
34.56311992936747
 20
0.0148894009732855
 30
0.0
 10
34.56596840531098
 20
0.0159584459901967
 30
0.0
 10
34.56881688125449
 20
0.0170274910071079
 30
0.0
 10
34.57165245514868
 20
0.0181713758068464
 30
0.0
 10
34.57448802904286
 20
0.0193152606065849
 30
0.0
 10
34.57730785101752
 20
0.0205340003341979
 30
0.0
 10
34.58012767299218
 20
0.0217527400618108
 30
0.0
 10
34.58292886914143
 20
0.023046208999531
 30
0.0
 10
34.58573006529068
 20
0.0243396779372512
 30
0.0
 10
34.58850974619065
 20
0.0257076066789826
 30
0.0
 10
34.59128942709062
 20
0.0270755354207141
 30
0.0
 10
34.5940446966174
 20
0.0285175086538641
 30
0.0
 10
34.59679996614418
 20
0.029959481887014
 30
0.0
 10
34.59952793054221
 20
0.0314749368147069
 30
0.0
 10
34.60225589494024
 20
0.0329903917423999
 30
0.0
 10
34.60495367208742
 20
0.0345786171744887
 30
0.0
 10
34.6076514492346
 20
0.0361668426065774
 30
0.0
 10
34.61031617804714
 20
0.0378269787427545
 30
0.0
 10
34.61298090685968
 20
0.0394871148789316
 30
0.0
 10
34.61560975677654
 20
0.0412181538016945
 30
0.0
 10
34.61823860669338
 20
0.0429491927244574
 30
0.0
 10
34.62082878717811
 20
0.0447499796137557
 30
0.0
 10
34.62341896766285
 20
0.0465507665030539
 30
0.0
 10
34.62596773765917
 20
0.0484200015782245
 30
0.0
 10
34.62851650765549
 20
0.0502892366533952
 30
0.0
 10
34.63102118493159
 20
0.0522254778415491
 30
0.0
 10
34.63352586220769
 20
0.0541617190297031
 30
0.0
 10
34.63598383252467
 20
0.0561633853531535
 30
0.0
 10
34.63844180284164
 20
0.058165051676604
 30
0.0
 10
34.64085052888151
 20
0.0602304273453181
 30
0.0
 10
34.6432592549214
 20
0.0622958030140322
 30
0.0
 10
34.64561628491191
 20
0.0644230422025323
 30
0.0
 10
34.64797331490242
 20
0.0665502813910323
 30
0.0
 10
34.65027629087768
 20
0.0687374136727749
 30
0.0
 10
34.65257926685295
 20
0.0709245459545176
 30
0.0
 10
34.65482593249183
 20
0.0731694823606272
 30
0.0
 10
34.65707259813072
 20
0.0754144187667368
 30
0.0
 10
34.65926080611862
 20
0.0777149584301579
 30
0.0
 10
34.66144901410652
 20
0.080015498093579
 30
0.0
 10
34.66357673296986
 20
0.0823693354343279
 30
0.0
 10
34.66570445183319
 20
0.0847231727750768
 30
0.0
 10
34.66776977220127
 20
0.0871279051773948
 30
0.0
 10
34.66983509256935
 20
0.0895326375797128
 30
0.0
 10
34.67183623282314
 20
0.0919857735076189
 30
0.0
 10
34.67383737307692
 20
0.0944389094355249
 30
0.0
 10
34.67577268435005
 20
0.0969378769296037
 30
0.0
 10
34.67770799562318
 20
0.0994368444236825
 30
0.0
 10
34.6795759661267
 20
0.1019789999189606
 30
0.0
 10
34.68144393663022
 20
0.1045211554142386
 30
0.0
 10
34.68324319527883
 20
0.107103792816746
 30
0.0
 10
34.68504245392745
 20
0.1096864302192534
 30
0.0
 10
34.68677177325164
 20
0.1123067901773544
 30
0.0
 10
34.68850109257583
 20
0.1149271501354554
 30
0.0
 10
34.69015939091059
 20
0.1175824294412739
 30
0.0
 10
34.69181768924536
 20
0.1202377087470924
 30
0.0
 10
34.69340403219316
 20
0.1229250698033512
 30
0.0
 10
34.69499037514096
 20
0.1256124308596101
 30
0.0
 10
34.69650397631283
 20
0.128329011147932
 30
0.0
 10
34.69801757748469
 20
0.1310455914362539
 30
0.0
 10
34.69945779852952
 20
0.133788512924405
 30
0.0
 10
34.70089801957436
 20
0.136531434412556
 30
0.0
 10
34.70226436951285
 20
0.1392978128402141
 30
0.0
 10
34.70363071945135
 20
0.1420641912678723
 30
0.0
 10
34.70492285333603
 20
0.1448511452532183
 30
0.0
 10
34.70621498722071
 20
0.1476380992385643
 30
0.0
 10
34.70743270414945
 20
0.1504427591512656
 30
0.0
 10
34.7086504210782
 20
0.1532474190639669
 30
0.0
 10
34.70979366159254
 20
0.1560669356138889
 30
0.0
 10
34.71093690210689
 20
0.1588864521638109
 30
0.0
 10
34.71200574501144
 20
0.1617180046589725
 30
0.0
 10
34.71307458791598
 20
0.1645495571541341
 30
0.0
 10
34.71406924655811
 20
0.1673903613859516
 30
0.0
 10
34.71506390520025
 20
0.1702311656177691
 30
0.0
 10
34.71598472325303
 20
0.1730784813364268
 30
0.0
 10
34.71690554130582
 20
0.1759257970550846
 30
0.0
 10
34.71775298809887
 20
0.1787769350028506
 30
0.0
 10
34.71860043489191
 20
0.1816280729506166
 30
0.0
 10
34.71937510033732
 20
0.1844804014260181
 30
0.0
 10
34.72014976578271
 20
0.1873327299014196
 30
0.0
 10
34.72085235494401
 20
0.1901836808323237
 30
0.0
 10
34.72155494410531
 20
0.1930346317632278
 30
0.0
 10
34.72218627145847
 20
0.1958817062719719
 30
0.0
 10
34.72281759881162
 20
0.1987287807807159
 30
0.0
 10
34.7233785822468
 20
0.2015695542294344
 30
0.0
 10
34.72393956568198
 20
0.2044103276781529
 30
0.0
 10
34.72443122029478
 20
0.20724245418729
 30
0.0
 10
34.72492287490756
 20
0.210074580696427
 30
0.0
 10
34.72534630662727
 20
0.2128957971340585
 30
0.0
 10
34.72576973834698
 20
0.21571701357169
 30
0.0
 10
34.72612613744838
 20
0.2185251430156558
 30
0.0
 10
34.72648253654977
 20
0.2213332724596216
 30
0.0
 10
34.72677317109288
 20
0.2241262271385496
 30
0.0
 10
34.72706380563599
 20
0.2269191818174776
 30
0.0
 10
34.72729001487663
 20
0.2296949655405404
 30
0.0
 10
34.72751622411727
 20
0.2324707492636031
 30
0.0
 10
34.72767941192839
 20
0.2352274593522513
 30
0.0
 10
34.72784259973951
 20
0.2379841694408995
 30
0.0
 10
34.74439614377612
 20
0.8689920003863938
 30
0.0
 10
34.76094968781273
 20
1.499999831331888
 30
0.0
  0
SPLINE
  5
46
330
1F
100
AcDbEntity
  8
DEFAULT
100
AcDbSpline
210
0.0
220
0.0
230
1.0
 70
    11
 71
     2
 72
    12
 73
     9
 74
     0
 42
0.0000000001
 43
0.0000000001
 40
0.0
 40
0.0
 40
0.0
 40
1.0
 40
1.0
 40
2.0
 40
2.0
 40
3.0
 40
3.0
 40
4.0
 40
4.0
 40
4.0
 10
-12.39015668408821
 20
0.4174999999999969
 30
0.0
 10
-0.000003122667076
 20
0.4174999999999969
 30
0.0
 10
12.39015043875406
 20
0.4174999999999969
 30
0.0
 10
12.39015043875406
 20
0.9571674999999954
 30
0.0
 10
12.39015043875406
 20
1.496834999999994
 30
0.0
 10
-0.000003122667076
 20
1.496834999999994
 30
0.0
 10
-12.39015668408821
 20
1.496834999999994
 30
0.0
 10
-12.39015668408821
 20
0.9571674999999954
 30
0.0
 10
-12.39015668408821
 20
0.4174999999999969
 30
0.0
  0
SPLINE
  5
47
330
1F
100
AcDbEntity
  8
DEFAULT
100
AcDbSpline
210
0.0
220
0.0
230
1.0
 70
    24
 71
     2
 72
     6
 73
     3
 74
     0
 42
0.0000000001
 43
0.0000000001
 40
0.0
 40
0.0
 40
0.0
 40
26.53
 40
26.53
 40
26.53
 10
12.39015043875406
 20
1.289999999999996
 30
0.0
 10
-0.000003122667076
 20
1.289999999999996
 30
0.0
 10
-12.39015668408821
 20
1.289999999999996
 30
0.0
  0
SPLINE
  5
48
330
1F
100
AcDbEntity
  8
DEFAULT
100
AcDbSpline
210
0.0
220
0.0
230
1.0
 70
    11
 71
     2
 72
   516
 73
   513
 74
     0
 42
0.0000000001
 43
0.0000000001
 40
0.0
 40
0.0
 40
0.0
 40
1.0
 40
1.0
 40
2.0
 40
2.0
 40
3.0
 40
3.0
 40
4.0
 40
4.0
 40
5.0
 40
5.0
 40
6.0
 40
6.0
 40
7.0
 40
7.0
 40
8.0
 40
8.0
 40
9.0
 40
9.0
 40
10.0
 40
10.0
 40
11.0
 40
11.0
 40
12.0
 40
12.0
 40
13.0
 40
13.0
 40
14.0
 40
14.0
 40
15.0
 40
15.0
 40
16.0
 40
16.0
 40
17.0
 40
17.0
 40
18.0
 40
18.0
 40
19.0
 40
19.0
 40
20.0
 40
20.0
 40
21.0
 40
21.0
 40
22.0
 40
22.0
 40
23.0
 40
23.0
 40
24.0
 40
24.0
 40
25.0
 40
25.0
 40
26.0
 40
26.0
 40
27.0
 40
27.0
 40
28.0
 40
28.0
 40
29.0
 40
29.0
 40
30.0
 40
30.0
 40
31.0
 40
31.0
 40
32.0
 40
32.0
 40
33.0
 40
33.0
 40
34.0
 40
34.0
 40
35.0
 40
35.0
 40
36.0
 40
36.0
 40
37.0
 40
37.0
 40
38.0
 40
38.0
 40
39.0
 40
39.0
 40
40.0
 40
40.0
 40
41.0
 40
41.0
 40
42.0
 40
42.0
 40
43.0
 40
43.0
 40
44.0
 40
44.0
 40
45.0
 40
45.0
 40
46.0
 40
46.0
 40
47.0
 40
47.0
 40
48.0
 40
48.0
 40
49.0
 40
49.0
 40
50.0
 40
50.0
 40
51.0
 40
51.0
 40
52.0
 40
52.0
 40
53.0
 40
53.0
 40
54.0
 40
54.0
 40
55.0
 40
55.0
 40
56.0
 40
56.0
 40
57.0
 40
57.0
 40
58.0
 40
58.0
 40
59.0
 40
59.0
 40
60.0
 40
60.0
 40
61.0
 40
61.0
 40
62.0
 40
62.0
 40
63.0
 40
63.0
 40
64.0
 40
64.0
 40
65.0
 40
65.0
 40
66.0
 40
66.0
 40
67.0
 40
67.0
 40
68.0
 40
68.0
 40
69.0
 40
69.0
 40
70.0
 40
70.0
 40
71.0
 40
71.0
 40
72.0
 40
72.0
 40
73.0
 40
73.0
 40
74.0
 40
74.0
 40
75.0
 40
75.0
 40
76.0
 40
76.0
 40
77.0
 40
77.0
 40
78.0
 40
78.0
 40
79.0
 40
79.0
 40
80.0
 40
80.0
 40
81.0
 40
81.0
 40
82.0
 40
82.0
 40
83.0
 40
83.0
 40
84.0
 40
84.0
 40
85.0
 40
85.0
 40
86.0
 40
86.0
 40
87.0
 40
87.0
 40
88.0
 40
88.0
 40
89.0
 40
89.0
 40
90.0
 40
90.0
 40
91.0
 40
91.0
 40
92.0
 40
92.0
 40
93.0
 40
93.0
 40
94.0
 40
94.0
 40
95.0
 40
95.0
 40
96.0
 40
96.0
 40
97.0
 40
97.0
 40
98.0
 40
98.0
 40
99.0
 40
99.0
 40
100.0
 40
100.0
 40
101.0
 40
101.0
 40
102.0
 40
102.0
 40
103.0
 40
103.0
 40
104.0
 40
104.0
 40
105.0
 40
105.0
 40
106.0
 40
106.0
 40
107.0
 40
107.0
 40
108.0
 40
108.0
 40
109.0
 40
109.0
 40
110.0
 40
110.0
 40
111.0
 40
111.0
 40
112.0
 40
112.0
 40
113.0
 40
113.0
 40
114.0
 40
114.0
 40
115.0
 40
115.0
 40
116.0
 40
116.0
 40
117.0
 40
117.0
 40
118.0
 40
118.0
 40
119.0
 40
119.0
 40
120.0
 40
120.0
 40
121.0
 40
121.0
 40
122.0
 40
122.0
 40
123.0
 40
123.0
 40
124.0
 40
124.0
 40
125.0
 40
125.0
 40
126.0
 40
126.0
 40
127.0
 40
127.0
 40
128.0
 40
128.0
 40
129.0
 40
129.0
 40
130.0
 40
130.0
 40
131.0
 40
131.0
 40
132.0
 40
132.0
 40
133.0
 40
133.0
 40
134.0
 40
134.0
 40
135.0
 40
135.0
 40
136.0
 40
136.0
 40
137.0
 40
137.0
 40
138.0
 40
138.0
 40
139.0
 40
139.0
 40
140.0
 40
140.0
 40
141.0
 40
141.0
 40
142.0
 40
142.0
 40
143.0
 40
143.0
 40
144.0
 40
144.0
 40
145.0
 40
145.0
 40
146.0
 40
146.0
 40
147.0
 40
147.0
 40
148.0
 40
148.0
 40
149.0
 40
149.0
 40
150.0
 40
150.0
 40
151.0
 40
151.0
 40
152.0
 40
152.0
 40
153.0
 40
153.0
 40
154.0
 40
154.0
 40
155.0
 40
155.0
 40
156.0
 40
156.0
 40
157.0
 40
157.0
 40
158.0
 40
158.0
 40
159.0
 40
159.0
 40
160.0
 40
160.0
 40
161.0
 40
161.0
 40
162.0
 40
162.0
 40
163.0
 40
163.0
 40
164.0
 40
164.0
 40
165.0
 40
165.0
 40
166.0
 40
166.0
 40
167.0
 40
167.0
 40
168.0
 40
168.0
 40
169.0
 40
169.0
 40
170.0
 40
170.0
 40
171.0
 40
171.0
 40
172.0
 40
172.0
 40
173.0
 40
173.0
 40
174.0
 40
174.0
 40
175.0
 40
175.0
 40
176.0
 40
176.0
 40
177.0
 40
177.0
 40
178.0
 40
178.0
 40
179.0
 40
179.0
 40
180.0
 40
180.0
 40
181.0
 40
181.0
 40
182.0
 40
182.0
 40
183.0
 40
183.0
 40
184.0
 40
184.0
 40
185.0
 40
185.0
 40
186.0
 40
186.0
 40
187.0
 40
187.0
 40
188.0
 40
188.0
 40
189.0
 40
189.0
 40
190.0
 40
190.0
 40
191.0
 40
191.0
 40
192.0
 40
192.0
 40
193.0
 40
193.0
 40
194.0
 40
194.0
 40
195.0
 40
195.0
 40
196.0
 40
196.0
 40
197.0
 40
197.0
 40
198.0
 40
198.0
 40
199.0
 40
199.0
 40
200.0
 40
200.0
 40
201.0
 40
201.0
 40
202.0
 40
202.0
 40
203.0
 40
203.0
 40
204.0
 40
204.0
 40
205.0
 40
205.0
 40
206.0
 40
206.0
 40
207.0
 40
207.0
 40
208.0
 40
208.0
 40
209.0
 40
209.0
 40
210.0
 40
210.0
 40
211.0
 40
211.0
 40
212.0
 40
212.0
 40
213.0
 40
213.0
 40
214.0
 40
214.0
 40
215.0
 40
215.0
 40
216.0
 40
216.0
 40
217.0
 40
217.0
 40
218.0
 40
218.0
 40
219.0
 40
219.0
 40
220.0
 40
220.0
 40
221.0
 40
221.0
 40
222.0
 40
222.0
 40
223.0
 40
223.0
 40
224.0
 40
224.0
 40
225.0
 40
225.0
 40
226.0
 40
226.0
 40
227.0
 40
227.0
 40
228.0
 40
228.0
 40
229.0
 40
229.0
 40
230.0
 40
230.0
 40
231.0
 40
231.0
 40
232.0
 40
232.0
 40
233.0
 40
233.0
 40
234.0
 40
234.0
 40
235.0
 40
235.0
 40
236.0
 40
236.0
 40
237.0
 40
237.0
 40
238.0
 40
238.0
 40
239.0
 40
239.0
 40
240.0
 40
240.0
 40
241.0
 40
241.0
 40
242.0
 40
242.0
 40
243.0
 40
243.0
 40
244.0
 40
244.0
 40
245.0
 40
245.0
 40
246.0
 40
246.0
 40
247.0
 40
247.0
 40
248.0
 40
248.0
 40
249.0
 40
249.0
 40
250.0
 40
250.0
 40
251.0
 40
251.0
 40
252.0
 40
252.0
 40
253.0
 40
253.0
 40
254.0
 40
254.0
 40
255.0
 40
255.0
 40
256.0
 40
256.0
 40
256.0
 10
18.25015043875405
 20
27.625
 30
0.0
 10
18.25002725860084
 20
15.0514020281192
 30
0.0
 10
18.24990407844762
 20
2.477804056238393
 30
0.0
 10
18.24953016195368
 20
2.466611906044867
 30
0.0
 10
18.24915624545973
 20
2.45541975585134
 30
0.0
 10
18.24852518356813
 20
2.444140758230967
 30
0.0
 10
18.24789412167652
 20
2.432861760610594
 30
0.0
 10
18.24699973452173
 20
2.421503661356444
 30
0.0
 10
18.24610534736694
 20
2.410145562102294
 30
0.0
 10
18.24494171282487
 20
2.398716517059212
 30
0.0
 10
18.2437780782828
 20
2.38728747201613
 30
0.0
 10
18.24233956085256
 20
2.375796040119571
 30
0.0
 10
18.2409010434223
 20
2.364304608223012
 30
0.0
 10
18.23918232327543
 20
2.352759742349038
 30
0.0
 10
18.23746360312855
 20
2.341214876475064
 30
0.0
 10
18.23545970514959
 20
2.329625912031459
 30
0.0
 10
18.23345580717064
 20
2.318036947587854
 30
0.0
 10
18.23116212980044
 20
2.306413588791131
 30
0.0
 10
18.22886845243024
 20
2.294790229994408
 30
0.0
 10
18.22628079611352
 20
2.28314253379398
 30
0.0
 10
18.2236931397968
 20
2.271494837593552
 30
0.0
 10
18.22080773482633
 20
2.259833195222515
 30
0.0
 10
18.21792232985586
 20
2.248171552851477
 30
0.0
 10
18.21473586339848
 20
2.236506669003053
 30
0.0
 10
18.21154939694109
 20
2.224841785154629
 30
0.0
 10
18.20805903902544
 20
2.213184654804295
 30
0.0
 10
18.20456868110979
 20
2.201527524453962
 30
0.0
 10
18.20077210935276
 20
2.189889407369341
 30
0.0
 10
18.19697553759573
 20
2.17825129028472
 30
0.0
 10
18.19287096044361
 20
2.166643683288276
 30
0.0
 10
18.18876638329148
 20
2.155036076291833
 30
0.0
 10
18.18435256155399
 20
2.143470683364979
 30
0.0
 10
18.1799387398165
 20
2.131905290438126
 30
0.0
 10
18.17521500627628
 20
2.120393990779202
 30
0.0
 10
18.17049127273607
 20
2.108882691120277
 30
0.0
 10
18.16545754962344
 20
2.097437505292715
 30
0.0
 10
18.16042382651082
 20
2.085992319465153
 30
0.0
 10
18.15508064064392
 20
2.074625373795611
 30
0.0
 10
18.14973745477701
 20
2.063258428126069
 30
0.0
 10
18.14408595018041
 20
2.051981917535032
 30
0.0
 10
18.13843444558382
 20
2.040705406943996
 30
0.0
 10
18.1324763934145
 20
2.02953155641296
 30
0.0
 10
18.12651834124518
 20
2.018357705881924
 30
0.0
 10
18.12025614687334
 20
2.007298730781386
 30
0.0
 10
18.1139939525015
 20
1.996239755680848
 30
0.0
 10
18.10743065961465
 20
1.985307821201603
 30
0.0
 10
18.1008673667278
 20
1.974375886722358
 30
0.0
 10
18.09400665835026
 20
1.963583066668607
 30
0.0
 10
18.08714594997272
 20
1.952790246614857
 30
0.0
 10
18.0799921463178
 20
1.942148481831177
 30
0.0
 10
18.07283834266288
 20
1.931506717047497
 30
0.0
 10
18.06539639576298
 20
1.921027773762348
 30
0.0
 10
18.05795444886308
 20
1.910548830477198
 30
0.0
 10
18.05022993395096
 20
1.900244258853237
 30
0.0
 10
18.04250541903884
 20
1.889939687229276
 30
0.0
 10
18.03450452268387
 20
1.879820780415022
 30
0.0
 10
18.0265036263289
 20
1.869701873600769
 30
0.0
 10
18.01823313136207
 20
1.859779627578966
 30
0.0
 10
18.00996263639523
 20
1.849857381557164
 30
0.0
 10
18.00142990368752
 20
1.840142456082485
 30
0.0
 10
17.99289717097982
 20
1.830427530607806
 30
0.0
 10
17.98411011816915
 20
1.820930211520234
 30
0.0
 10
17.97532306535848
 20
1.811432892432662
 30
0.0
 10
17.96629014264955
 20
1.802163055623057
 30
0.0
 10
17.95725721994062
 20
1.792893218813452
 30
0.0
 10
17.94798738313101
 20
1.783860296104517
 30
0.0
 10
17.9387175463214
 20
1.774827373395581
 30
0.0
 10
17.92922022723383
 20
1.766040320584912
 30
0.0
 10
17.91972290814626
 20
1.757253267774243
 30
0.0
 10
17.91000798267158
 20
1.74872053506654
 30
0.0
 10
17.9002930571969
 20
1.740187802358836
 30
0.0
 10
17.8903708111751
 20
1.731917307391996
 30
0.0
 10
17.88044856515329
 20
1.723646812425156
 30
0.0
 10
17.87032965833904
 20
1.71564591607019
 30
0.0
 10
17.86021075152479
 20
1.707645019715224
 30
0.0
 10
17.84990617990083
 20
1.699920504803106
 30
0.0
 10
17.83960160827687
 20
1.692195989890987
 30
0.0
 10
17.82912266499171
 20
1.684754042991083
 30
0.0
 10
17.81864372170656
 20
1.67731209609118
 30
0.0
 10
17.80800195692289
 20
1.670158292436264
 30
0.0
 10
17.79736019213921
 20
1.663004488781348
 30
0.0
 10
17.78656737208546
 20
1.656143780403799
 30
0.0
 10
17.77577455203171
 20
1.64928307202625
 30
0.0
 10
17.76484261755246
 20
1.642719779139409
 30
0.0
 10
17.75391068307322
 20
1.636156486252568
 30
0.0
 10
17.74285170797268
 20
1.629894291880726
 30
0.0
 10
17.73179273287214
 20
1.623632097508885
 30
0.0
 10
17.72061888234111
 20
1.617674045339566
 30
0.0
 10
17.70944503181007
 20
1.611715993170247
 30
0.0
 10
17.69816852121903
 20
1.606064488573645
 30
0.0
 10
17.686892010628
 20
1.600412983977042
 30
0.0
 10
17.67552506495845
 20
1.595069798110144
 30
0.0
 10
17.66415811928891
 20
1.589726612243246
 30
0.0
 10
17.65271293346134
 20
1.584692889130622
 30
0.0
 10
17.64126774763378
 20
1.579659166017998
 30
0.0
 10
17.62975644797486
 20
1.574935432477783
 30
0.0
 10
17.61824514831594
 20
1.570211698937569
 30
0.0
 10
17.60667975538908
 20
1.565797877200076
 30
0.0
 10
17.59511436246223
 20
1.561384055462583
 30
0.0
 10
17.58350675546578
 20
1.557279478310452
 30
0.0
 10
17.57189914846933
 20
1.553174901158321
 30
0.0
 10
17.56026103138471
 20
1.54937832940129
 30
0.0
 10
17.54862291430009
 20
1.545581757644259
 30
0.0
 10
17.53696578394976
 20
1.542091399728613
 30
0.0
 10
17.52530865359943
 20
1.538601041812967
 30
0.0
 10
17.51364376975101
 20
1.53541457535558
 30
0.0
 10
17.50197888590257
 20
1.532228108898193
 30
0.0
 10
17.49031724353154
 20
1.529342703927723
 30
0.0
 10
17.4786556011605
 20
1.526457298957254
 30
0.0
 10
17.46700790496008
 20
1.523869642640535
 30
0.0
 10
17.45536020875965
 20
1.521281986323816
 30
0.0
 10
17.44373684996293
 20
1.51898830895362
 30
0.0
 10
17.43211349116621
 20
1.516694631583424
 30
0.0
 10
17.4205245267226
 20
1.514690733604466
 30
0.0
 10
17.40893556227899
 20
1.512686835625508
 30
0.0
 10
17.39739069640502
 20
1.510968115478632
 30
0.0
 10
17.38584583053105
 20
1.509249395331755
 30
0.0
 10
17.37435439863449
 20
1.507810877901499
 30
0.0
 10
17.36286296673793
 20
1.506372360471243
 30
0.0
 10
17.35143392169484
 20
1.505208725929181
 30
0.0
 10
17.34000487665176
 20
1.50404509138712
 30
0.0
 10
17.32864677739762
 20
1.503150704232325
 30
0.0
 10
17.31728867814347
 20
1.50225631707753
 30
0.0
 10
17.30600968052309
 20
1.501625255185929
 30
0.0
 10
17.29473068290271
 20
1.500994193294328
 30
0.0
 10
17.28353853270919
 20
1.50062027680038
 30
0.0
 10
17.27234638251566
 20
1.500246360306433
 30
0.0
 10
0.0110948492137286
 20
1.500123180153214
 30
0.0
 10
-17.25015668408821
 20
1.499999999999995
 30
0.0
 10
-17.26125465596901
 20
1.500123180153212
 30
0.0
 10
-17.27235262784982
 20
1.500246360306429
 30
0.0
 10
-17.28354477804334
 20
1.500620276800377
 30
0.0
 10
-17.29473692823686
 20
1.500994193294325
 30
0.0
 10
-17.30601592585723
 20
1.501625255185926
 30
0.0
 10
-17.31729492347761
 20
1.502256317077527
 30
0.0
 10
-17.32865302273176
 20
1.503150704232322
 30
0.0
 10
-17.34001112198591
 20
1.504045091387116
 30
0.0
 10
-17.35144016702899
 20
1.505208725929178
 30
0.0
 10
-17.36286921207208
 20
1.50637236047124
 30
0.0
 10
-17.37436064396863
 20
1.507810877901496
 30
0.0
 10
-17.38585207586519
 20
1.509249395331751
 30
0.0
 10
-17.39739694173916
 20
1.510968115478628
 30
0.0
 10
-17.40894180761314
 20
1.512686835625504
 30
0.0
 10
-17.42053077205674
 20
1.514690733604463
 30
0.0
 10
-17.43211973650035
 20
1.516694631583421
 30
0.0
 10
-17.44374309529707
 20
1.518988308953617
 30
0.0
 10
-17.45536645409379
 20
1.521281986323812
 30
0.0
 10
-17.46701415029422
 20
1.523869642640531
 30
0.0
 10
-17.47866184649465
 20
1.52645729895725
 30
0.0
 10
-17.49032348886568
 20
1.52934270392772
 30
0.0
 10
-17.50198513123672
 20
1.53222810889819
 30
0.0
 10
-17.51365001508514
 20
1.535414575355577
 30
0.0
 10
-17.52531489893357
 20
1.538601041812964
 30
0.0
 10
-17.53697202928389
 20
1.542091399728609
 30
0.0
 10
-17.54862915963423
 20
1.545581757644255
 30
0.0
 10
-17.56026727671885
 20
1.549378329401286
 30
0.0
 10
-17.57190539380347
 20
1.553174901158317
 30
0.0
 10
-17.58351300079991
 20
1.557279478310448
 30
0.0
 10
-17.59512060779636
 20
1.561384055462579
 30
0.0
 10
-17.60668600072321
 20
1.565797877200072
 30
0.0
 10
-17.61825139365007
 20
1.570211698937565
 30
0.0
 10
-17.62976269330899
 20
1.57493543247778
 30
0.0
 10
-17.64127399296792
 20
1.579659166017995
 30
0.0
 10
-17.65271917879548
 20
1.584692889130618
 30
0.0
 10
-17.66416436462304
 20
1.589726612243242
 30
0.0
 10
-17.67553131029258
 20
1.59506979811014
 30
0.0
 10
-17.68689825596212
 20
1.600412983977038
 30
0.0
 10
-17.69817476655316
 20
1.606064488573641
 30
0.0
 10
-17.7094512771442
 20
1.611715993170243
 30
0.0
 10
-17.72062512767523
 20
1.617674045339562
 30
0.0
 10
-17.73179897820627
 20
1.623632097508881
 30
0.0
 10
-17.74285795330681
 20
1.629894291880722
 30
0.0
 10
-17.75391692840735
 20
1.636156486252564
 30
0.0
 10
-17.76484886288659
 20
1.642719779139405
 30
0.0
 10
-17.77578079736583
 20
1.649283072026246
 30
0.0
 10
-17.78657361741958
 20
1.656143780403795
 30
0.0
 10
-17.79736643747334
 20
1.663004488781344
 30
0.0
 10
-17.80800820225701
 20
1.67015829243626
 30
0.0
 10
-17.81864996704069
 20
1.677312096091176
 30
0.0
 10
-17.82912891032584
 20
1.684754042991079
 30
0.0
 10
-17.83960785361099
 20
1.692195989890983
 30
0.0
 10
-17.84991242523495
 20
1.699920504803102
 30
0.0
 10
-17.86021699685892
 20
1.70764501971522
 30
0.0
 10
-17.87033590367317
 20
1.715645916070186
 30
0.0
 10
-17.88045481048742
 20
1.723646812425153
 30
0.0
 10
-17.89037705650922
 20
1.731917307391993
 30
0.0
 10
-17.90029930253103
 20
1.740187802358833
 30
0.0
 10
-17.91001422800571
 20
1.748720535066536
 30
0.0
 10
-17.91972915348039
 20
1.757253267774239
 30
0.0
 10
-17.92922647256795
 20
1.766040320584908
 30
0.0
 10
-17.93872379165553
 20
1.774827373395578
 30
0.0
 10
-17.94799362846513
 20
1.783860296104513
 30
0.0
 10
-17.95726346527474
 20
1.792893218813448
 30
0.0
 10
-17.96629638798367
 20
1.802163055623053
 30
0.0
 10
-17.97532931069261
 20
1.811432892432658
 30
0.0
 10
-17.98411636350328
 20
1.82093021152023
 30
0.0
 10
-17.99290341631395
 20
1.830427530607802
 30
0.0
 10
-18.00143614902165
 20
1.840142456082481
 30
0.0
 10
-18.00996888172936
 20
1.84985738155716
 30
0.0
 10
-18.0182393766962
 20
1.859779627578962
 30
0.0
 10
-18.02650987166304
 20
1.869701873600765
 30
0.0
 10
-18.034510768018
 20
1.879820780415018
 30
0.0
 10
-18.04251166437297
 20
1.889939687229272
 30
0.0
 10
-18.05023617928509
 20
1.900244258853233
 30
0.0
 10
-18.05796069419721
 20
1.910548830477194
 30
0.0
 10
-18.06540264109711
 20
1.921027773762344
 30
0.0
 10
-18.07284458799701
 20
1.931506717047494
 30
0.0
 10
-18.07999839165193
 20
1.942148481831174
 30
0.0
 10
-18.08715219530685
 20
1.952790246614853
 30
0.0
 10
-18.09401290368439
 20
1.963583066668603
 30
0.0
 10
-18.10087361206194
 20
1.974375886722354
 30
0.0
 10
-18.10743690494878
 20
1.9853078212016
 30
0.0
 10
-18.11400019783563
 20
1.996239755680845
 30
0.0
 10
-18.12026239220747
 20
2.007298730781383
 30
0.0
 10
-18.12652458657931
 20
2.01835770588192
 30
0.0
 10
-18.13248263874863
 20
2.029531556412956
 30
0.0
 10
-18.13844069091795
 20
2.040705406943992
 30
0.0
 10
-18.14409219551455
 20
2.051981917535029
 30
0.0
 10
-18.14974370011115
 20
2.063258428126066
 30
0.0
 10
-18.15508688597805
 20
2.074625373795608
 30
0.0
 10
-18.16043007184495
 20
2.08599231946515
 30
0.0
 10
-18.16546379495757
 20
2.097437505292712
 30
0.0
 10
-18.1704975180702
 20
2.108882691120274
 30
0.0
 10
-18.17522125161041
 20
2.120393990779198
 30
0.0
 10
-18.17994498515063
 20
2.131905290438123
 30
0.0
 10
-18.18435880688812
 20
2.143470683364977
 30
0.0
 10
-18.18877262862561
 20
2.15503607629183
 30
0.0
 10
-18.19287720577774
 20
2.166643683288274
 30
0.0
 10
-18.19698178292987
 20
2.178251290284717
 30
0.0
 10
-18.2007783546869
 20
2.189889407369337
 30
0.0
 10
-18.20457492644393
 20
2.201527524453958
 30
0.0
 10
-18.20806528435958
 20
2.213184654804292
 30
0.0
 10
-18.21155564227523
 20
2.224841785154626
 30
0.0
 10
-18.21474210873261
 20
2.23650666900305
 30
0.0
 10
-18.21792857519
 20
2.248171552851474
 30
0.0
 10
-18.22081398016047
 20
2.259833195222511
 30
0.0
 10
-18.22369938513095
 20
2.271494837593549
 30
0.0
 10
-18.22628704144766
 20
2.283142533793976
 30
0.0
 10
-18.22887469776438
 20
2.294790229994404
 30
0.0
 10
-18.23116837513458
 20
2.306413588791127
 30
0.0
 10
-18.23346205250478
 20
2.31803694758785
 30
0.0
 10
-18.23546595048373
 20
2.329625912031455
 30
0.0
 10
-18.23746984846269
 20
2.34121487647506
 30
0.0
 10
-18.23918856860957
 20
2.352759742349035
 30
0.0
 10
-18.24090728875645
 20
2.364304608223009
 30
0.0
 10
-18.2423458061867
 20
2.375796040119568
 30
0.0
 10
-18.24378432361696
 20
2.387287472016127
 30
0.0
 10
-18.24494795815902
 20
2.398716517059208
 30
0.0
 10
-18.24611159270109
 20
2.41014556210229
 30
0.0
 10
-18.24700597985588
 20
2.42150366135644
 30
0.0
 10
-18.24790036701068
 20
2.43286176061059
 30
0.0
 10
-18.24853142890228
 20
2.444140758230963
 30
0.0
 10
-18.24916249079388
 20
2.455419755851337
 30
0.0
 10
-18.24953640728783
 20
2.466611906044863
 30
0.0
 10
-18.24991032378178
 20
2.47780405623839
 30
0.0
 10
-18.25003350393499
 20
15.0514020281192
 30
0.0
 10
-18.25015668408821
 20
27.625
 30
0.0
 10
-18.25011049153075
 20
27.6291617394553
 30
0.0
 10
-18.2500642989733
 20
27.6333234789106
 30
0.0
 10
-18.24992408028807
 20
27.63752053523317
 30
0.0
 10
-18.24978386160284
 20
27.64171759155574
 30
0.0
 10
-18.24954721339348
 20
27.64594721566338
 30
0.0
 10
-18.24931056518413
 20
27.65017683977102
 30
0.0
 10
-18.24897517000108
 20
27.65443612699133
 30
0.0
 10
-18.24863977481804
 20
27.65869541421164
 30
0.0
 10
-18.24820341186476
 20
27.66298130610279
 30
0.0
 10
-18.24776704891149
 20
27.66726719799395
 30
0.0
 10
-18.24722760487514
 20
27.67157648495516
 30
0.0
 10
-18.2466881608388
 20
27.67588577191637
 30
0.0
 10
-18.24604364078372
 20
27.68021509661911
 30
0.0
 10
-18.24539912072864
 20
27.68454442132185
 30
0.0
 10
-18.24464765898653
 20
27.6888902829882
 30
0.0
 10
-18.24389619724442
 20
27.69323614465455
 30
0.0
 10
-18.2430360682306
 20
27.69759490420332
 30
0.0
 10
-18.24217593921678
 20
27.7019536637521
 30
0.0
 10
-18.24120556809801
 20
27.70632154982726
 30
0.0
 10
-18.24023519697924
 20
27.71068943590242
 30
0.0
 10
-18.23915317011531
 20
27.71506255179156
 30
0.0
 10
-18.23807114325138
 20
27.7194356676807
 30
0.0
 10
-18.23687621832986
 20
27.72380999912385
 30
0.0
 10
-18.23568129340834
 20
27.72818433056701
 30
0.0
 10
-18.23437240918997
 20
27.73255575444838
 30
0.0
 10
-18.23306352497161
 20
27.73692717832976
 30
0.0
 10
-18.23163981056272
 20
27.7412914722365
 30
0.0
 10
-18.23021609615383
 20
27.74565576614323
 30
0.0
 10
-18.22867687972178
 20
27.75000861876689
 30
0.0
 10
-18.22713766328974
 20
27.75436147139056
 30
0.0
 10
-18.22548248013818
 20
27.75869849373813
 30
0.0
 10
-18.22382729698662
 20
27.7630355160857
 30
0.0
 10
-18.22205589690904
 20
27.7673522534578
 30
0.0
 10
-18.22028449683146
 20
27.7716689908299
 30
0.0
 10
-18.21839685066422
 20
27.77596093551524
 30
0.0
 10
-18.21650920449699
 20
27.78025288020057
 30
0.0
 10
-18.2145055097969
 20
27.78451548482665
 30
0.0
 10
-18.21250181509681
 20
27.78877808945272
 30
0.0
 10
-18.21038250087308
 20
27.79300678092436
 30
0.0
 10
-18.20826318664936
 20
27.797235472396
 30
0.0
 10
-18.20602891708587
 20
27.80142566634515
 30
0.0
 10
-18.20379464752238
 20
27.80561586029429
 30
0.0
 10
-18.20144632463293
 20
27.80976297595699
 30
0.0
 10
-18.19909800174349
 20
27.81391009161968
 30
0.0
 10
-18.19663676691092
 20
27.8180095670494
 30
0.0
 10
-18.19417553207836
 20
27.82210904247912
 30
0.0
 10
-18.19160276643678
 20
27.82615634999927
 30
0.0
 10
-18.1890300007952
 20
27.83020365751942
 30
0.0
 10
-18.1863473244246
 20
27.8341943193133
 30
0.0
 10
-18.18366464805401
 20
27.83818498110718
 30
0.0
 10
-18.18087391796654
 20
27.84211458483912
 30
0.0
 10
-18.17808318787909
 20
27.84604418857105
 30
0.0
 10
-18.17518649478704
 20
27.84990840293003
 30
0.0
 10
-18.172289801695
 20
27.85377261728902
 30
0.0
 10
-18.16928946556188
 20
27.85756720734437
 30
0.0
 10
-18.16628912942877
 20
27.86136179739971
 30
0.0
 10
-18.16318769381621
 20
27.86508263965789
 30
0.0
 10
-18.16008625820365
 20
27.86880348191606
 30
0.0
 10
-18.15688648343825
 20
27.87244657896906
 30
0.0
 10
-18.15368670867286
 20
27.87608967602207
 30
0.0
 10
-18.15039156386886
 20
27.87965117067991
 30
0.0
 10
-18.14709641906486
 20
27.88321266533775
 30
0.0
 10
-18.14370907304901
 20
27.88668885414135
 30
0.0
 10
-18.14032172703316
 20
27.89016504294495
 30
0.0
 10
-18.13684553822956
 20
27.89355238896081
 30
0.0
 10
-18.13336934942596
 20
27.89693973497666
 30
0.0
 10
-18.12980785476812
 20
27.90023487978065
 30
0.0
 10
-18.12624636011028
 20
27.90353002458465
 30
0.0
 10
-18.12260326305727
 20
27.90672979935005
 30
0.0
 10
-18.11896016600427
 20
27.90992957411544
 30
0.0
 10
-18.11523932374609
 20
27.91303100972801
 30
0.0
 10
-18.11151848148792
 20
27.91613244534057
 30
0.0
 10
-18.10772389143257
 20
27.91913278147368
 30
0.0
 10
-18.10392930137723
 20
27.92213311760679
 30
0.0
 10
-18.10006508701824
 20
27.92502981069883
 30
0.0
 10
-18.09620087265926
 20
27.92792650379088
 30
0.0
 10
-18.09227126892732
 20
27.93071723387834
 30
0.0
 10
-18.08834166519539
 20
27.9335079639658
 30
0.0
 10
-18.08435100340151
 20
27.93619064033639
 30
0.0
 10
-18.08036034160764
 20
27.93887331670699
 30
0.0
 10
-18.07631303408748
 20
27.94144608234857
 30
0.0
 10
-18.07226572656732
 20
27.94401884799015
 30
0.0
 10
-18.0681662511376
 20
27.94648008282272
 30
0.0
 10
-18.06406677570789
 20
27.94894131765529
 30
0.0
 10
-18.05991966004519
 20
27.95128964054474
 30
0.0
 10
-18.05577254438249
 20
27.95363796343418
 30
0.0
 10
-18.05158235043335
 20
27.95587223299767
 30
0.0
 10
-18.04739215648421
 20
27.95810650256116
 30
0.0
 10
-18.04316346501257
 20
27.96022581678488
 30
0.0
 10
-18.03893477354093
 20
27.96234513100861
 30
0.0
 10
-18.03467216891485
 20
27.9643488257087
 30
0.0
 10
-18.03040956428877
 20
27.96635252040878
 30
0.0
 10
-18.02611761960343
 20
27.96824016657602
 30
0.0
 10
-18.0218256749181
 20
27.97012781274325
 30
0.0
 10
-18.017508937546
 20
27.97189921282083
 30
0.0
 10
-18.01319220017391
 20
27.97367061289841
 30
0.0
 10
-18.00885517782634
 20
27.97532579604997
 30
0.0
 10
-18.00451815547877
 20
27.97698097920154
 30
0.0
 10
-18.00016530285509
 20
27.97852019563359
 30
0.0
 10
-17.99581245023143
 20
27.98005941206563
 30
0.0
 10
-17.9914481563247
 20
27.98148312647452
 30
0.0
 10
-17.98708386241797
 20
27.9829068408834
 30
0.0
 10
-17.98271243853659
 20
27.98421572510177
 30
0.0
 10
-17.97834101465522
 20
27.98552460932014
 30
0.0
 10
-17.97396668321206
 20
27.98671953424166
 30
0.0
 10
-17.96959235176891
 20
27.98791445916318
 30
0.0
 10
-17.96521923587976
 20
27.9889964860271
 30
0.0
 10
-17.96084611999063
 20
27.99007851289103
 30
0.0
 10
-17.95647823391547
 20
27.9910488840098
 30
0.0
 10
-17.95211034784031
 20
27.99201925512857
 30
0.0
 10
-17.94775158829153
 20
27.99287938414239
 30
0.0
 10
-17.94339282874276
 20
27.99373951315621
 30
0.0
 10
-17.9390469670764
 20
27.99449097489833
 30
0.0
 10
-17.93470110541005
 20
27.99524243664044
 30
0.0
 10
-17.9303717807073
 20
27.99588695669551
 30
0.0
 10
-17.92604245600457
 20
27.99653147675059
 30
0.0
 10
-17.92173316904336
 20
27.99707092078694
 30
0.0
 10
-17.91742388208216
 20
27.99761036482328
 30
0.0
 10
-17.913137990191
 20
27.99804672777655
 30
0.0
 10
-17.90885209829985
 20
27.99848309072983
 30
0.0
 10
-17.90459281107954
 20
27.99881848591288
 30
0.0
 10
-17.90033352385923
 20
27.99915388109592
 30
0.0
 10
-17.89610389975159
 20
27.99939052930527
 30
0.0
 10
-17.89187427564396
 20
27.99962717751462
 30
0.0
 10
-17.88767721932138
 20
27.99976739619985
 30
0.0
 10
-17.88348016299881
 20
27.99990761488509
 30
0.0
 10
-0.0041648621223764
 20
27.99995380744254
 30
0.0
 10
17.87515043875405
 20
28.0
 30
0.0
 10
17.87931217820935
 20
27.99995380744254
 30
0.0
 10
17.88347391766466
 20
27.99990761488509
 30
0.0
 10
17.88767097398723
 20
27.99976739619986
 30
0.0
 10
17.8918680303098
 20
27.99962717751463
 30
0.0
 10
17.89609765441745
 20
27.99939052930528
 30
0.0
 10
17.90032727852509
 20
27.99915388109593
 30
0.0
 10
17.90458656574539
 20
27.99881848591288
 30
0.0
 10
17.90884585296569
 20
27.99848309072983
 30
0.0
 10
17.91313174485685
 20
27.99804672777656
 30
0.0
 10
17.91741763674801
 20
27.99761036482329
 30
0.0
 10
17.92172692370922
 20
27.99707092078694
 30
0.0
 10
17.92603621067042
 20
27.99653147675059
 30
0.0
 10
17.93036553537317
 20
27.99588695669551
 30
0.0
 10
17.93469486007591
 20
27.99524243664044
 30
0.0
 10
17.93904072174227
 20
27.99449097489833
 30
0.0
 10
17.94338658340861
 20
27.99373951315622
 30
0.0
 10
17.94774534295738
 20
27.9928793841424
 30
0.0
 10
17.95210410250615
 20
27.99201925512857
 30
0.0
 10
17.95647198858131
 20
27.9910488840098
 30
0.0
 10
17.96083987465648
 20
27.99007851289103
 30
0.0
 10
17.96521299054562
 20
27.9889964860271
 30
0.0
 10
17.96958610643475
 20
27.98791445916317
 30
0.0
 10
17.97396043787791
 20
27.98671953424166
 30
0.0
 10
17.97833476932108
 20
27.98552460932014
 30
0.0
 10
17.98270619320245
 20
27.98421572510178
 30
0.0
 10
17.98707761708382
 20
27.98290684088341
 30
0.0
 10
17.99144191099055
 20
27.98148312647452
 30
0.0
 10
17.99580620489728
 20
27.98005941206562
 30
0.0
 10
18.00015905752095
 20
27.97852019563358
 30
0.0
 10
18.00451191014461
 20
27.97698097920153
 30
0.0
 10
18.00884893249219
 20
27.97532579604997
 30
0.0
 10
18.01318595483976
 20
27.97367061289841
 30
0.0
 10
18.01750269221186
 20
27.97189921282083
 30
0.0
 10
18.02181942958396
 20
27.97012781274325
 30
0.0
 10
18.02611137426929
 20
27.96824016657602
 30
0.0
 10
18.03040331895463
 20
27.96635252040878
 30
0.0
 10
18.0346659235807
 20
27.9643488257087
 30
0.0
 10
18.03892852820679
 20
27.96234513100861
 30
0.0
 10
18.04315721967843
 20
27.96022581678488
 30
0.0
 10
18.04738591115007
 20
27.95810650256116
 30
0.0
 10
18.0515761050992
 20
27.95587223299766
 30
0.0
 10
18.05576629904834
 20
27.95363796343416
 30
0.0
 10
18.05991341471104
 20
27.95128964054472
 30
0.0
 10
18.06406053037374
 20
27.94894131765528
 30
0.0
 10
18.06816000580346
 20
27.94648008282272
 30
0.0
 10
18.07225948123317
 20
27.94401884799015
 30
0.0
 10
18.07630678875333
 20
27.94144608234857
 30
0.0
 10
18.08035409627348
 20
27.93887331670699
 30
0.0
 10
18.08434475806737
 20
27.93619064033639
 30
0.0
 10
18.08833541986125
 20
27.9335079639658
 30
0.0
 10
18.09226502359317
 20
27.93071723387834
 30
0.0
 10
18.0961946273251
 20
27.92792650379088
 30
0.0
 10
18.1000588416841
 20
27.92502981069883
 30
0.0
 10
18.10392305604309
 20
27.92213311760679
 30
0.0
 10
18.10771764609843
 20
27.91913278147367
 30
0.0
 10
18.11151223615378
 20
27.91613244534056
 30
0.0
 10
18.11523307841195
 20
27.913031009728
 30
0.0
 10
18.11895392067013
 20
27.90992957411544
 30
0.0
 10
18.12259701772313
 20
27.90672979935005
 30
0.0
 10
18.12624011477613
 20
27.90353002458465
 30
0.0
 10
18.12980160943398
 20
27.90023487978065
 30
0.0
 10
18.13336310409181
 20
27.89693973497666
 30
0.0
 10
18.13683929289542
 20
27.89355238896081
 30
0.0
 10
18.14031548169902
 20
27.89016504294495
 30
0.0
 10
18.14370282771486
 20
27.88668885414135
 30
0.0
 10
18.14709017373071
 20
27.88321266533775
 30
0.0
 10
18.15038531853472
 20
27.87965117067991
 30
0.0
 10
18.15368046333872
 20
27.87608967602207
 30
0.0
 10
18.15688023810411
 20
27.87244657896906
 30
0.0
 10
18.1600800128695
 20
27.86880348191606
 30
0.0
 10
18.16318144848206
 20
27.86508263965789
 30
0.0
 10
18.16628288409462
 20
27.86136179739971
 30
0.0
 10
18.16928322022773
 20
27.85756720734437
 30
0.0
 10
18.17228355636085
 20
27.85377261728902
 30
0.0
 10
18.17518024945289
 20
27.84990840293003
 30
0.0
 10
18.17807694254493
 20
27.84604418857105
 30
0.0
 10
18.1808676726324
 20
27.84211458483912
 30
0.0
 10
18.18365840271986
 20
27.83818498110718
 30
0.0
 10
18.18634107909046
 20
27.8341943193133
 30
0.0
 10
18.18902375546105
 20
27.83020365751942
 30
0.0
 10
18.19159652110264
 20
27.82615634999927
 30
0.0
 10
18.19416928674422
 20
27.82210904247912
 30
0.0
 10
18.19663052157678
 20
27.8180095670494
 30
0.0
 10
18.19909175640935
 20
27.81391009161968
 30
0.0
 10
18.20144007929879
 20
27.80976297595697
 30
0.0
 10
18.20378840218823
 20
27.80561586029427
 30
0.0
 10
18.20602267175173
 20
27.80142566634514
 30
0.0
 10
18.20825694131522
 20
27.797235472396
 30
0.0
 10
18.21037625553894
 20
27.79300678092437
 30
0.0
 10
18.21249556976267
 20
27.78877808945273
 30
0.0
 10
18.21449926446276
 20
27.78451548482665
 30
0.0
 10
18.21650295916285
 20
27.78025288020057
 30
0.0
 10
18.21839060533008
 20
27.77596093551523
 30
0.0
 10
18.22027825149731
 20
27.77166899082989
 30
0.0
 10
18.22204965157488
 20
27.76735225345779
 30
0.0
 10
18.22382105165246
 20
27.7630355160857
 30
0.0
 10
18.22547623480403
 20
27.75869849373813
 30
0.0
 10
18.22713141795559
 20
27.75436147139056
 30
0.0
 10
18.22867063438763
 20
27.75000861876689
 30
0.0
 10
18.23020985081968
 20
27.74565576614323
 30
0.0
 10
18.23163356522857
 20
27.7412914722365
 30
0.0
 10
18.23305727963746
 20
27.73692717832976
 30
0.0
 10
18.23436616385583
 20
27.73255575444838
 30
0.0
 10
18.2356750480742
 20
27.72818433056701
 30
0.0
 10
18.23686997299571
 20
27.72380999912385
 30
0.0
 10
18.23806489791723
 20
27.7194356676807
 30
0.0
 10
18.23914692478116
 20
27.71506255179156
 30
0.0
 10
18.24022895164509
 20
27.71068943590242
 30
0.0
 10
18.24119932276385
 20
27.70632154982726
 30
0.0
 10
18.24216969388263
 20
27.7019536637521
 30
0.0
 10
18.24302982289645
 20
27.69759490420333
 30
0.0
 10
18.24388995191028
 20
27.69323614465456
 30
0.0
 10
18.24464141365238
 20
27.68889028298821
 30
0.0
 10
18.24539287539449
 20
27.68454442132186
 30
0.0
 10
18.24603739544957
 20
27.68021509661911
 30
0.0
 10
18.24668191550465
 20
27.67588577191637
 30
0.0
 10
18.24722135954099
 20
27.67157648495516
 30
0.0
 10
18.24776080357734
 20
27.66726719799395
 30
0.0
 10
18.24819716653061
 20
27.66298130610279
 30
0.0
 10
18.24863352948389
 20
27.65869541421164
 30
0.0
 10
18.24896892466693
 20
27.65443612699134
 30
0.0
 10
18.24930431984998
 20
27.65017683977103
 30
0.0
 10
18.24954096805933
 20
27.64594721566339
 30
0.0
 10
18.24977761626868
 20
27.64171759155575
 30
0.0
 10
18.24991783495391
 20
27.63752053523318
 30
0.0
 10
18.25005805363913
 20
27.6333234789106
 30
0.0
 10
18.25010424619659
 20
27.6291617394553
 30
0.0
 10
18.25015043875405
 20
27.625
 30
0.0
  0
SPLINE
  5
49
330
1F
100
AcDbEntity
  8
DEFAULT
100
AcDbSpline
210
0.0
220
0.0
230
1.0
 70
     8
 71
     2
 72
   190
 73
   187
 74
     0
 42
0.0000000001
 43
0.0000000001
 40
0.0
 40
0.0
 40
0.0
 40
1.0
 40
1.0
 40
2.0
 40
2.0
 40
3.0
 40
3.0
 40
4.0
 40
4.0
 40
5.0
 40
5.0
 40
6.0
 40
6.0
 40
7.0
 40
7.0
 40
8.0
 40
8.0
 40
9.0
 40
9.0
 40
10.0
 40
10.0
 40
11.0
 40
11.0
 40
12.0
 40
12.0
 40
13.0
 40
13.0
 40
14.0
 40
14.0
 40
15.0
 40
15.0
 40
16.0
 40
16.0
 40
17.0
 40
17.0
 40
18.0
 40
18.0
 40
19.0
 40
19.0
 40
20.0
 40
20.0
 40
21.0
 40
21.0
 40
22.0
 40
22.0
 40
23.0
 40
23.0
 40
24.0
 40
24.0
 40
25.0
 40
25.0
 40
26.0
 40
26.0
 40
27.0
 40
27.0
 40
28.0
 40
28.0
 40
29.0
 40
29.0
 40
30.0
 40
30.0
 40
31.0
 40
31.0
 40
32.0
 40
32.0
 40
33.0
 40
33.0
 40
34.0
 40
34.0
 40
35.0
 40
35.0
 40
36.0
 40
36.0
 40
37.0
 40
37.0
 40
38.0
 40
38.0
 40
39.0
 40
39.0
 40
40.0
 40
40.0
 40
41.0
 40
41.0
 40
42.0
 40
42.0
 40
43.0
 40
43.0
 40
44.0
 40
44.0
 40
45.0
 40
45.0
 40
46.0
 40
46.0
 40
47.0
 40
47.0
 40
48.0
 40
48.0
 40
49.0
 40
49.0
 40
50.0
 40
50.0
 40
51.0
 40
51.0
 40
52.0
 40
52.0
 40
53.0
 40
53.0
 40
54.0
 40
54.0
 40
55.0
 40
55.0
 40
56.0
 40
56.0
 40
57.0
 40
57.0
 40
58.0
 40
58.0
 40
59.0
 40
59.0
 40
60.0
 40
60.0
 40
61.0
 40
61.0
 40
62.0
 40
62.0
 40
63.0
 40
63.0
 40
64.0
 40
64.0
 40
65.0
 40
65.0
 40
66.0
 40
66.0
 40
67.0
 40
67.0
 40
68.0
 40
68.0
 40
69.0
 40
69.0
 40
70.0
 40
70.0
 40
71.0
 40
71.0
 40
72.0
 40
72.0
 40
73.0
 40
73.0
 40
74.0
 40
74.0
 40
75.0
 40
75.0
 40
76.0
 40
76.0
 40
77.0
 40
77.0
 40
78.0
 40
78.0
 40
79.0
 40
79.0
 40
80.0
 40
80.0
 40
81.0
 40
81.0
 40
82.0
 40
82.0
 40
83.0
 40
83.0
 40
84.0
 40
84.0
 40
85.0
 40
85.0
 40
86.0
 40
86.0
 40
87.0
 40
87.0
 40
88.0
 40
88.0
 40
89.0
 40
89.0
 40
90.0
 40
90.0
 40
91.0
 40
91.0
 40
92.0
 40
92.0
 40
93.0
 40
93.0
 40
93.0
 10
14.96015043875406
 20
1.499999831331886
 30
0.0
 10
14.94369852305922
 20
0.8717278291243532
 30
0.0
 10
14.92724660736437
 20
0.2434558269168203
 30
0.0
 10
14.9270607138922
 20
0.2391694659014635
 30
0.0
 10
14.92687482042004
 20
0.2348831048861068
 30
0.0
 10
14.92654193672717
 20
0.2306056482137382
 30
0.0
 10
14.9262090530343
 20
0.2263281915413696
 30
0.0
 10
14.92572957128374
 20
0.2220646783904744
 30
0.0
 10
14.92525008953318
 20
0.2178011652395793
 30
0.0
 10
14.92462457459195
 20
0.2135566183620835
 30
0.0
 10
14.92399905965071
 20
0.2093120714845876
 30
0.0
 10
14.92322824842432
 20
0.2050914912886634
 30
0.0
 10
14.92245743719791
 20
0.2008709110927391
 30
0.0
 10
14.92154223776226
 20
0.1966792697519338
 30
0.0
 10
14.92062703832661
 20
0.1924876284111284
 30
0.0
 10
14.91956852885821
 20
0.1883298640067545
 30
0.0
 10
14.9185100193898
 20
0.1841720996023806
 30
0.0
 10
14.91730944689559
 20
0.1800531103060703
 30
0.0
 10
14.91610887440138
 20
0.17593412100976
 30
0.0
 10
14.91476765324966
 20
0.1718587593130357
 30
0.0
 10
14.91342643209794
 20
0.1677833976163114
 30
0.0
 10
14.91194614235209
 20
0.1637564646139713
 30
0.0
 10
14.91046585260625
 20
0.1597295316116311
 30
0.0
 10
14.90884823816339
 20
0.1557557713456837
 30
0.0
 10
14.90723062372053
 20
0.1517820110797363
 30
0.0
 10
14.90547759025698
 20
0.1478661049505484
 30
0.0
 10
14.90372455679342
 20
0.1439501988213606
 30
0.0
 10
14.90183816951967
 20
0.1400967600726014
 30
0.0
 10
14.89995178224594
 20
0.1362433213238423
 30
0.0
 10
14.89793426347375
 20
0.1324568896077213
 30
0.0
 10
14.89591674470156
 20
0.1286704578916004
 30
0.0
 10
14.89377047122583
 20
0.1249554939208025
 30
0.0
 10
14.8916241977501
 20
0.1212405299500047
 30
0.0
 10
14.88935169804882
 20
0.1176014102426214
 30
0.0
 10
14.88707919834754
 20
0.1139622905352381
 30
0.0
 10
14.8846831496031
 20
0.1104033022588872
 30
0.0
 10
14.88228710085865
 20
0.1068443139825363
 30
0.0
 10
14.87977032580384
 20
0.1033696499037429
 30
0.0
 10
14.87725355074902
 20
0.0998949858249496
 30
0.0
 10
14.87461901434169
 20
0.0965087393697396
 30
0.0
 10
14.87198447793437
 20
0.0931224929145295
 30
0.0
 10
14.86923528386444
 20
0.0898286533460531
 30
0.0
 10
14.86648608979452
 20
0.0865348137775768
 30
0.0
 10
14.86362547682761
 20
0.0833372614964452
 30
0.0
 10
14.86076486386071
 20
0.0801397092153137
 30
0.0
 10
14.85779620202263
 20
0.077042211188183
 30
0.0
 10
14.85482754018454
 20
0.0739447131610523
 30
0.0
 10
14.8517543267911
 20
0.0709509184828427
 30
0.0
 10
14.84868111339764
 20
0.067957123804633
 30
0.0
 10
14.84550696893454
 20
0.0650705593996093
 30
0.0
 10
14.84233282447144
 20
0.0621839949945856
 30
0.0
 10
14.83906148832911
 20
0.0594080614613647
 30
0.0
 10
14.83579015218679
 20
0.0566321279281438
 30
0.0
 10
14.83242547825504
 20
0.0539700955335237
 30
0.0
 10
14.82906080432329
 20
0.0513080631389035
 30
0.0
 10
14.82560675645117
 20
0.0487630679652329
 30
0.0
 10
14.82215270857903
 20
0.0462180727915624
 30
0.0
 10
14.81861335590505
 20
0.0437931130421908
 30
0.0
 10
14.81507400323106
 20
0.0413681532928193
 30
0.0
 10
14.81145351538945
 20
0.0390660857599789
 30
0.0
 10
14.80783302754785
 20
0.0367640182271385
 30
0.0
 10
14.80413566975645
 20
0.0345875549264194
 30
0.0
 10
14.80043831196505
 20
0.0324110916257003
 30
0.0
 10
14.79666844000051
 20
0.030362796601084
 30
0.0
 10
14.79289856803596
 20
0.0283145015764678
 30
0.0
 10
14.78906062310225
 20
0.0263967878796832
 30
0.0
 10
14.78522267816854
 20
0.0244790741828987
 30
0.0
 10
14.78132118166497
 20
0.0226942010306581
 30
0.0
 10
14.77741968516141
 20
0.0209093278784175
 30
0.0
 10
14.77345923335596
 20
0.0192593979908827
 30
0.0
 10
14.76949878155052
 20
0.017609468103348
 30
0.0
 10
14.76548404016518
 20
0.0160964252269615
 30
0.0
 10
14.76146929877985
 20
0.014583382350575
 30
0.0
 10
14.75740499749392
 20
0.0132090089681751
 30
0.0
 10
14.753340696208
 20
0.0118346355857751
 30
0.0
 10
14.74923162308628
 20
0.0106005508166908
 30
0.0
 10
14.74512254996455
 20
0.0093664660476064
 30
0.0
 10
14.74097354581652
 20
0.008274123740209
 30
0.0
 10
14.73682454166848
 20
0.0071817814328117
 30
0.0
 10
14.73264049434549
 20
0.0062324684517676
 30
0.0
 10
14.72845644702251
 20
0.0052831554707235
 30
0.0
 10
14.72424228565954
 20
0.0044779901809666
 30
0.0
 10
14.72002812429657
 20
0.0036728248912098
 30
0.0
 10
14.71578881350528
 20
0.0030127558404206
 30
0.0
 10
14.71154950271399
 20
0.0023526867896315
 30
0.0
 10
14.70729003673403
 20
0.0018384915907735
 30
0.0
 10
14.70303057075406
 20
0.0013242963919155
 30
0.0
 10
14.69875596756948
 20
0.0009565808071462
 30
0.0
 10
14.69448136438488
 20
0.0005888652223769
 30
0.0
 10
14.69019665981252
 20
0.000368062449413
 30
0.0
 10
14.68591195524017
 20
0.000147259676449
 30
0.0
 10
14.6816221969971
 20
0.0000736298382251
 30
0.0
 10
14.67733243875404
 20
0.0000000000000012
 30
0.0
 10
13.71015043875405
 20
-0.0000000000000003
 30
0.0
 10
12.74296843875405
 20
-0.0000000000000018
 30
0.0
 10
12.738678680511
 20
0.0000736298382227
 30
0.0
 10
12.73438892226794
 20
0.0001472596764472
 30
0.0
 10
12.73010421769558
 20
0.0003680624494112
 30
0.0
 10
12.72581951312321
 20
0.0005888652223751
 30
0.0
 10
12.72154490993863
 20
0.0009565808071444
 30
0.0
 10
12.71727030675405
 20
0.0013242963919137
 30
0.0
 10
12.71301084077408
 20
0.0018384915907717
 30
0.0
 10
12.70875137479412
 20
0.0023526867896297
 30
0.0
 10
12.70451206400283
 20
0.0030127558404189
 30
0.0
 10
12.70027275321154
 20
0.0036728248912081
 30
0.0
 10
12.69605859184857
 20
0.0044779901809649
 30
0.0
 10
12.6918444304856
 20
0.0052831554707217
 30
0.0
 10
12.68766038316261
 20
0.0062324684517659
 30
0.0
 10
12.68347633583963
 20
0.00718178143281
 30
0.0
 10
12.67932733169159
 20
0.0082741237402073
 30
0.0
 10
12.67517832754355
 20
0.0093664660476047
 30
0.0
 10
12.67106925442182
 20
0.010600550816689
 30
0.0
 10
12.66696018130009
 20
0.0118346355857734
 30
0.0
 10
12.66289588001418
 20
0.0132090089681734
 30
0.0
 10
12.65883157872826
 20
0.0145833823505734
 30
0.0
 10
12.65481683734292
 20
0.0160964252269599
 30
0.0
 10
12.65080209595757
 20
0.0176094681033463
 30
0.0
 10
12.64684164415213
 20
0.019259397990881
 30
0.0
 10
12.64288119234669
 20
0.0209093278784158
 30
0.0
 10
12.63897969584312
 20
0.0226942010306565
 30
0.0
 10
12.63507819933955
 20
0.0244790741828972
 30
0.0
 10
12.63124025440585
 20
0.0263967878796817
 30
0.0
 10
12.62740230947215
 20
0.0283145015764662
 30
0.0
 10
12.62363243750761
 20
0.0303627966010824
 30
0.0
 10
12.61986256554306
 20
0.0324110916256987
 30
0.0
 10
12.61616520775166
 20
0.0345875549264178
 30
0.0
 10
12.61246784996026
 20
0.0367640182271369
 30
0.0
 10
12.60884736211865
 20
0.0390660857599773
 30
0.0
 10
12.60522687427705
 20
0.0413681532928177
 30
0.0
 10
12.60168752160305
 20
0.0437931130421893
 30
0.0
 10
12.59814816892906
 20
0.0462180727915609
 30
0.0
 10
12.59469412105694
 20
0.0487630679652315
 30
0.0
 10
12.5912400731848
 20
0.051308063138902
 30
0.0
 10
12.58787539925306
 20
0.0539700955335222
 30
0.0
 10
12.58451072532132
 20
0.0566321279281424
 30
0.0
 10
12.58123938917899
 20
0.0594080614613633
 30
0.0
 10
12.57796805303665
 20
0.0621839949945842
 30
0.0
 10
12.57479390857355
 20
0.065070559399608
 30
0.0
 10
12.57161976411046
 20
0.0679571238046317
 30
0.0
 10
12.56854655071701
 20
0.0709509184828414
 30
0.0
 10
12.56547333732355
 20
0.073944713161051
 30
0.0
 10
12.56250467548547
 20
0.0770422111881817
 30
0.0
 10
12.55953601364739
 20
0.0801397092153124
 30
0.0
 10
12.55667540068048
 20
0.083337261496444
 30
0.0
 10
12.55381478771358
 20
0.0865348137775757
 30
0.0
 10
12.55106559364366
 20
0.0898286533460521
 30
0.0
 10
12.54831639957374
 20
0.0931224929145284
 30
0.0
 10
12.5456818631664
 20
0.0965087393697383
 30
0.0
 10
12.54304732675907
 20
0.0998949858249483
 30
0.0
 10
12.54053055170426
 20
0.1033696499037418
 30
0.0
 10
12.53801377664946
 20
0.1068443139825352
 30
0.0
 10
12.53561772790501
 20
0.1104033022588861
 30
0.0
 10
12.53322167916057
 20
0.1139622905352371
 30
0.0
 10
12.53094917945928
 20
0.1176014102426204
 30
0.0
 10
12.52867667975801
 20
0.1212405299500037
 30
0.0
 10
12.52653040628227
 20
0.1249554939208016
 30
0.0
 10
12.52438413280654
 20
0.1286704578915995
 30
0.0
 10
12.52236661403435
 20
0.1324568896077205
 30
0.0
 10
12.52034909526217
 20
0.1362433213238414
 30
0.0
 10
12.51846270798843
 20
0.1400967600726006
 30
0.0
 10
12.51657632071469
 20
0.1439501988213599
 30
0.0
 10
12.51482328725113
 20
0.1478661049505476
 30
0.0
 10
12.51307025378756
 20
0.1517820110797354
 30
0.0
 10
12.5114526393447
 20
0.1557557713456829
 30
0.0
 10
12.50983502490184
 20
0.1597295316116303
 30
0.0
 10
12.508354735156
 20
0.1637564646139706
 30
0.0
 10
12.50687444541017
 20
0.1677833976163108
 30
0.0
 10
12.50553322425844
 20
0.1718587593130351
 30
0.0
 10
12.50419200310671
 20
0.1759341210097594
 30
0.0
 10
12.5029914306125
 20
0.1800531103060697
 30
0.0
 10
12.50179085811829
 20
0.1841720996023801
 30
0.0
 10
12.50073234864989
 20
0.188329864006754
 30
0.0
 10
12.4996738391815
 20
0.1924876284111279
 30
0.0
 10
12.49875863974584
 20
0.1966792697519333
 30
0.0
 10
12.49784344031018
 20
0.2008709110927388
 30
0.0
 10
12.49707262908379
 20
0.2050914912886631
 30
0.0
 10
12.4963018178574
 20
0.2093120714845873
 30
0.0
 10
12.49567630291616
 20
0.2135566183620831
 30
0.0
 10
12.49505078797491
 20
0.2178011652395789
 30
0.0
 10
12.49457130622436
 20
0.2220646783904741
 30
0.0
 10
12.49409182447381
 20
0.2263281915413692
 30
0.0
 10
12.49375894078094
 20
0.2306056482137378
 30
0.0
 10
12.49342605708807
 20
0.2348831048861064
 30
0.0
 10
12.4932401636159
 20
0.239169465901464
 30
0.0
 10
12.49305427014374
 20
0.2434558269168216
 30
0.0
 10
12.4766023544489
 20
0.8717278291243539
 30
0.0
 10
12.46015043875406
 20
1.499999831331886
 30
0.0
  0
SPLINE
  5
4A
330
1F
100
AcDbEntity
  8
DEFAULT
100
AcDbSpline
210
0.0
220
0.0
230
1.0
 70
     8
 71
     2
 72
   252
 73
   249
 74
     0
 42
0.0000000001
 43
0.0000000001
 40
0.0
 40
0.0
 40
0.0
 40
1.0
 40
1.0
 40
2.0
 40
2.0
 40
3.0
 40
3.0
 40
4.0
 40
4.0
 40
5.0
 40
5.0
 40
6.0
 40
6.0
 40
7.0
 40
7.0
 40
8.0
 40
8.0
 40
9.0
 40
9.0
 40
10.0
 40
10.0
 40
11.0
 40
11.0
 40
12.0
 40
12.0
 40
13.0
 40
13.0
 40
14.0
 40
14.0
 40
15.0
 40
15.0
 40
16.0
 40
16.0
 40
17.0
 40
17.0
 40
18.0
 40
18.0
 40
19.0
 40
19.0
 40
20.0
 40
20.0
 40
21.0
 40
21.0
 40
22.0
 40
22.0
 40
23.0
 40
23.0
 40
24.0
 40
24.0
 40
25.0
 40
25.0
 40
26.0
 40
26.0
 40
27.0
 40
27.0
 40
28.0
 40
28.0
 40
29.0
 40
29.0
 40
30.0
 40
30.0
 40
31.0
 40
31.0
 40
32.0
 40
32.0
 40
33.0
 40
33.0
 40
34.0
 40
34.0
 40
35.0
 40
35.0
 40
36.0
 40
36.0
 40
37.0
 40
37.0
 40
38.0
 40
38.0
 40
39.0
 40
39.0
 40
40.0
 40
40.0
 40
41.0
 40
41.0
 40
42.0
 40
42.0
 40
43.0
 40
43.0
 40
44.0
 40
44.0
 40
45.0
 40
45.0
 40
46.0
 40
46.0
 40
47.0
 40
47.0
 40
48.0
 40
48.0
 40
49.0
 40
49.0
 40
50.0
 40
50.0
 40
51.0
 40
51.0
 40
52.0
 40
52.0
 40
53.0
 40
53.0
 40
54.0
 40
54.0
 40
55.0
 40
55.0
 40
56.0
 40
56.0
 40
57.0
 40
57.0
 40
58.0
 40
58.0
 40
59.0
 40
59.0
 40
60.0
 40
60.0
 40
61.0
 40
61.0
 40
62.0
 40
62.0
 40
63.0
 40
63.0
 40
64.0
 40
64.0
 40
65.0
 40
65.0
 40
66.0
 40
66.0
 40
67.0
 40
67.0
 40
68.0
 40
68.0
 40
69.0
 40
69.0
 40
70.0
 40
70.0
 40
71.0
 40
71.0
 40
72.0
 40
72.0
 40
73.0
 40
73.0
 40
74.0
 40
74.0
 40
75.0
 40
75.0
 40
76.0
 40
76.0
 40
77.0
 40
77.0
 40
78.0
 40
78.0
 40
79.0
 40
79.0
 40
80.0
 40
80.0
 40
81.0
 40
81.0
 40
82.0
 40
82.0
 40
83.0
 40
83.0
 40
84.0
 40
84.0
 40
85.0
 40
85.0
 40
86.0
 40
86.0
 40
87.0
 40
87.0
 40
88.0
 40
88.0
 40
89.0
 40
89.0
 40
90.0
 40
90.0
 40
91.0
 40
91.0
 40
92.0
 40
92.0
 40
93.0
 40
93.0
 40
94.0
 40
94.0
 40
95.0
 40
95.0
 40
96.0
 40
96.0
 40
97.0
 40
97.0
 40
98.0
 40
98.0
 40
99.0
 40
99.0
 40
100.0
 40
100.0
 40
101.0
 40
101.0
 40
102.0
 40
102.0
 40
103.0
 40
103.0
 40
104.0
 40
104.0
 40
105.0
 40
105.0
 40
106.0
 40
106.0
 40
107.0
 40
107.0
 40
108.0
 40
108.0
 40
109.0
 40
109.0
 40
110.0
 40
110.0
 40
111.0
 40
111.0
 40
112.0
 40
112.0
 40
113.0
 40
113.0
 40
114.0
 40
114.0
 40
115.0
 40
115.0
 40
116.0
 40
116.0
 40
117.0
 40
117.0
 40
118.0
 40
118.0
 40
119.0
 40
119.0
 40
120.0
 40
120.0
 40
121.0
 40
121.0
 40
122.0
 40
122.0
 40
123.0
 40
123.0
 40
124.0
 40
124.0
 40
124.0
 10
14.95468043976106
 20
1.290077783707145
 30
0.0
 10
14.96047525301574
 20
1.290296946721698
 30
0.0
 10
14.96627006627041
 20
1.290516109736251
 30
0.0
 10
14.97205436084645
 20
1.290928213292609
 30
0.0
 10
14.9778386554225
 20
1.291340316848966
 30
0.0
 10
14.98360600907859
 20
1.291944903392892
 30
0.0
 10
14.98937336273469
 20
1.292549489936818
 30
0.0
 10
14.99511737203886
 20
1.293345888202245
 30
0.0
 10
15.00086138134303
 20
1.294142286467672
 30
0.0
 10
15.00657566878228
 20
1.295129612222
 30
0.0
 10
15.01228995622153
 20
1.296116937976327
 30
0.0
 10
15.01796817728275
 20
1.297294095002176
 30
0.0
 10
15.02364639834397
 20
1.298471252028025
 30
0.0
 10
15.02928224855816
 20
1.299836933340356
 30
0.0
 10
15.03491809877234
 20
1.301202614652687
 30
0.0
 10
15.04050532071441
 20
1.302755303949933
 30
0.0
 10
15.04609254265647
 20
1.304307993247179
 30
0.0
 10
15.05162493289276
 20
1.306045966594777
 30
0.0
 10
15.05715732312905
 20
1.307783939942375
 30
0.0
 10
15.062628739105
 20
1.309705267686835
 30
0.0
 10
15.06810015508096
 20
1.311626595431294
 30
0.0
 10
15.07350452194109
 20
1.313729144342671
 30
0.0
 10
15.07890888880121
 20
1.315831693254047
 30
0.0
 10
15.08424020613394
 20
1.318113128894443
 30
0.0
 10
15.08957152346668
 20
1.32039456453484
 30
0.0
 10
15.09482387196657
 20
1.32285235385031
 30
0.0
 10
15.10007622046646
 20
1.325310143165779
 30
0.0
 10
15.10524376850634
 20
1.327941557298749
 30
0.0
 10
15.11041131654621
 20
1.33057297143172
 30
0.0
 10
15.11548832665194
 20
1.333375088750812
 30
0.0
 10
15.12056533675766
 20
1.336177206069904
 30
0.0
 10
15.12554617197842
 20
1.339146915413791
 30
0.0
 10
15.13052700719918
 20
1.342116624757679
 30
0.0
 10
15.13540613736614
 20
1.345250628889377
 30
0.0
 10
15.14028526753309
 20
1.348384633021074
 30
0.0
 10
15.14505727539944
 20
1.351679452288824
 30
0.0
 10
15.14982928326578
 20
1.354974271556575
 30
0.0
 10
15.15448887052147
 20
1.358426247757271
 30
0.0
 10
15.15914845777716
 20
1.361878223957967
 30
0.0
 10
15.16369045093158
 20
1.365483524398814
 30
0.0
 10
15.16823244408601
 20
1.369088824839662
 30
0.0
 10
15.16875895202092
 20
1.36953669921272
 30
0.0
 10
15.16928545995583
 20
1.369984573585778
 30
0.0
 10
15.16979617644417
 20
1.370450374753766
 30
0.0
 10
15.1703068929325
 20
1.370916175921754
 30
0.0
 10
15.17080120791787
 20
1.371399347480108
 30
0.0
 10
15.17129552290324
 20
1.371882519038462
 30
0.0
 10
15.171772845921
 20
1.372382483833495
 30
0.0
 10
15.17225016893876
 20
1.372882448628529
 30
0.0
 10
15.17270992982138
 20
1.373398609446852
 30
0.0
 10
15.173169690704
 20
1.373914770265175
 30
0.0
 10
15.1736113402621
 20
1.374446510547072
 30
0.0
 10
15.17405298982019
 20
1.374978250828968
 30
0.0
 10
15.17447600049857
 20
1.375524935404884
 30
0.0
 10
15.17489901117694
 20
1.376071619980799
 30
0.0
 10
15.17530287768473
 20
1.376632595830056
 30
0.0
 10
15.17570674419251
 20
1.377193571679313
 30
0.0
 10
15.17609098410677
 20
1.377768168710154
 30
0.0
 10
15.17647522402103
 20
1.378342765740995
 30
0.0
 10
15.176839378363
 20
1.378930297591011
 30
0.0
 10
15.17720353270497
 20
1.379517829441027
 30
0.0
 10
15.17754716648832
 20
1.380117594297029
 30
0.0
 10
15.17789080027168
 20
1.38071735915303
 30
0.0
 10
15.17821350302214
 20
1.381328640589367
 30
0.0
 10
15.17853620577259
 20
1.381939922025704
 30
0.0
 10
15.17883759201819
 20
1.382561989860048
 30
0.0
 10
15.17913897826379
 20
1.383184057694391
 30
0.0
 10
15.17941868799538
 20
1.383816168859942
 30
0.0
 10
15.17969839772697
 20
1.384448280025492
 30
0.0
 10
15.17995609682823
 20
1.385089679458581
 30
0.0
 10
15.1802137959295
 20
1.38573107889167
 30
0.0
 10
15.18044917657606
 20
1.386381000433693
 30
0.0
 10
15.18068455722262
 20
1.387030921975716
 30
0.0
 10
15.18089733824972
 20
1.387688589288317
 30
0.0
 10
15.18111011927682
 20
1.388346256600917
 30
0.0
 10
15.18130004651523
 20
1.389010884093332
 30
0.0
 10
15.18148997375364
 20
1.389675511585746
 30
0.0
 10
15.18165682033318
 20
1.390346305353199
 30
0.0
 10
15.18182366691272
 20
1.391017099120653
 30
0.0
 10
15.18196723353335
 20
1.391693257892689
 30
0.0
 10
15.18211080015399
 20
1.392369416664724
 30
0.0
 10
15.18223091532381
 20
1.393050132762328
 30
0.0
 10
15.18235103049363
 20
1.393730848859932
 30
0.0
 10
15.18244755073377
 20
1.394415309160316
 30
0.0
 10
15.18254407097391
 20
1.395099769460701
 30
0.0
 10
15.1826168809899
 20
1.395787156368587
 30
0.0
 10
15.18268969100588
 20
1.396474543276473
 30
0.0
 10
15.18273870382535
 20
1.397164035700715
 30
0.0
 10
15.18278771664481
 20
1.397853528124958
 30
0.0
 10
15.18281287372142
 20
1.398544302459352
 30
0.0
 10
15.18283803079802
 20
1.399235076793745
 30
0.0
 10
15.18283930208136
 20
1.399926307900828
 30
0.0
 10
15.1828405733647
 20
1.40061753900791
 30
0.0
 10
15.18281795733621
 20
1.4013084012046
 30
0.0
 10
15.18279534130772
 20
1.40199926340129
 30
0.0
 10
15.1827488649825
 20
1.402688931445173
 30
0.0
 10
15.18270238865728
 20
1.403378599489056
 30
0.0
 10
15.18263210755179
 20
1.404066249564146
 30
0.0
 10
15.18256182644631
 20
1.404753899639237
 30
0.0
 10
15.18246782451212
 20
1.405438710340035
 30
0.0
 10
15.18237382257793
 20
1.406123521040834
 30
0.0
 10
15.18225621210135
 20
1.406804674353503
 30
0.0
 10
15.18213860162478
 20
1.407485827666172
 30
0.0
 10
15.18199752309282
 20
1.408162509945666
 30
0.0
 10
15.18185644456086
 20
1.408839192225159
 30
0.0
 10
15.18169206649336
 20
1.409510595167128
 30
0.0
 10
15.18152768842586
 20
1.410181998109097
 30
0.0
 10
15.18134020717421
 20
1.410847319715419
 30
0.0
 10
15.18115272592255
 20
1.411512641321741
 30
0.0
 10
15.18094236543515
 20
1.412171086858515
 30
0.0
 10
15.18073200494775
 20
1.412829532395289
 30
0.0
 10
15.18049901650248
 20
1.413480315342154
 30
0.0
 10
15.1802660280572
 20
1.414131098289019
 30
0.0
 10
15.1800106899613
 20
1.414773441278661
 30
0.0
 10
15.1797553518654
 20
1.415415784268303
 30
0.0
 10
15.179477969123
 20
1.416048920015028
 30
0.0
 10
15.17920058638061
 20
1.416682055761753
 30
0.0
 10
15.17890149032842
 20
1.41730522797802
 30
0.0
 10
15.17860239427624
 20
1.417928400194288
 30
0.0
 10
15.17828194218776
 20
1.418540864494102
 30
0.0
 10
15.17796149009927
 20
1.419153328793916
 30
0.0
 10
15.177620064758
 20
1.419754353582003
 30
0.0
 10
15.17727863941672
 20
1.420355378370091
 30
0.0
 10
15.17691664865894
 20
1.4209442457158
 30
0.0
 10
15.17655465790116
 20
1.421533113061509
 30
0.0
 10
15.17617253412878
 20
1.422109119556385
 30
0.0
 10
15.1757904103564
 20
1.422685126051261
 30
0.0
 10
15.17538861002041
 20
1.423247583649276
 30
0.0
 10
15.17498680968443
 20
1.423810041247291
 30
0.0
 10
15.17456581273973
 20
1.424358278086722
 30
0.0
 10
15.17414481579502
 20
1.424906514926153
 30
0.0
 10
15.17370512512703
 20
1.425439876132127
 30
0.0
 10
15.17326543445904
 20
1.425973237338101
 30
0.0
 10
15.17280757528304
 20
1.426491085804852
 30
0.0
 10
15.17234971610705
 20
1.427008934271603
 30
0.0
 10
15.17187423534082
 20
1.4275106514235
 30
0.0
 10
15.17139875457459
 20
1.428012368575397
 30
0.0
 10
15.17090622018508
 20
1.428497355105841
 30
0.0
 10
15.17041368579558
 20
1.428982341636285
 30
0.0
 10
15.16990468612048
 20
1.429450018223587
 30
0.0
 10
15.16939568644538
 20
1.429917694810888
 30
0.0
 10
15.16887082949034
 20
1.430367502810272
 30
0.0
 10
15.16834597253531
 20
1.430817310809656
 30
0.0
 10
15.16780588524768
 20
1.431248712920572
 30
0.0
 10
15.16726579796005
 20
1.431680115031487
 30
0.0
 10
15.16671112547997
 20
1.432092595939416
 30
0.0
 10
15.1661564529999
 20
1.432505076847346
 30
0.0
 10
15.16558785788969
 20
1.432898143839354
 30
0.0
 10
15.16501926277948
 20
1.433291210831362
 30
0.0
 10
15.16443742423219
 20
1.433664394384649
 30
0.0
 10
15.1638555856849
 20
1.434037577937936
 30
0.0
 10
15.16326119871299
 20
1.434390432280685
 30
0.0
 10
15.16266681174109
 20
1.434743286623434
 30
0.0
 10
15.1620605863463
 20
1.435075390267291
 30
0.0
 10
15.16145436095151
 20
1.435407493911149
 30
0.0
 10
15.16083702127665
 20
1.435718450154698
 30
0.0
 10
15.16021968160178
 20
1.436029406398246
 30
0.0
 10
15.15959196506581
 20
1.436318843800867
 30
0.0
 10
15.15896424852984
 20
1.436608281203489
 30
0.0
 10
15.15832690494702
 20
1.436875854029056
 30
0.0
 10
15.15768956136419
 20
1.437143426854623
 30
0.0
 10
15.15704335204833
 20
1.437388815484482
 30
0.0
 10
15.15639714273248
 20
1.437634204114341
 30
0.0
 10
15.15574283958767
 20
1.437857115429103
 30
0.0
 10
15.15508853644285
 20
1.438080026743865
 30
0.0
 10
15.15442692104131
 20
1.438280194473538
 30
0.0
 10
15.15376530563977
 20
1.438480362203211
 30
0.0
 10
15.1530971682883
 20
1.438657547245263
 30
0.0
 10
15.15242903093683
 20
1.438834732287315
 30
0.0
 10
15.15175516973276
 20
1.438988722992284
 30
0.0
 10
15.1510813085287
 20
1.439142713697253
 30
0.0
 10
15.15040252840658
 20
1.439273326121566
 30
0.0
 10
15.14972374828447
 20
1.439403938545879
 30
0.0
 10
15.14904086005455
 20
1.439511016671574
 30
0.0
 10
15.14835797182463
 20
1.439618094797269
 30
0.0
 10
15.14767179120434
 20
1.439701510718359
 30
0.0
 10
15.14698561058405
 20
1.439784926639448
 30
0.0
 10
15.14629695722359
 20
1.439844580714707
 30
0.0
 10
15.14560830386313
 20
1.439904234789966
 30
0.0
 10
15.14491800036646
 20
1.439940055761951
 30
0.0
 10
15.14422769686978
 20
1.439975876733937
 30
0.0
 10
15.14353656781192
 20
1.439987821814108
 30
0.0
 10
15.14284543875407
 20
1.439999766894279
 30
0.0
 10
15.11817043875406
 20
1.439999854032132
 30
0.0
 10
15.09349543875405
 20
1.439999941169985
 30
0.0
 10
15.09315054309313
 20
1.440005890623306
 30
0.0
 10
15.09280564743221
 20
1.440011840076626
 30
0.0
 10
15.09246116216167
 20
1.440029681357347
 30
0.0
 10
15.09211667689113
 20
1.440047522638068
 30
0.0
 10
15.09177301191303
 20
1.440077234516901
 30
0.0
 10
15.09142934693494
 20
1.440106946395733
 30
0.0
 10
15.09108691117527
 20
1.440148493518596
 30
0.0
 10
15.0907444754156
 20
1.440190040641458
 30
0.0
 10
15.09040367633773
 20
1.440243373571546
 30
0.0
 10
15.09006287725984
 20
1.440296706501634
 30
0.0
 10
15.08972412037962
 20
1.440361761778242
 30
0.0
 10
15.08938536349939
 20
1.440426817054851
 30
0.0
 10
15.08904905190268
 20
1.440503517268889
 30
0.0
 10
15.08871274030597
 20
1.440580217482927
 30
0.0
 10
15.08837927416899
 20
1.440668471369025
 30
0.0
 10
15.08804580803202
 20
1.440756725255122
 30
0.0
 10
15.08771558414523
 20
1.440856427800228
 30
0.0
 10
15.08738536025843
 20
1.440956130345334
 30
0.0
 10
15.08705877155426
 20
1.441067162913668
 30
0.0
 10
15.0867321828501
 20
1.441178195482002
 30
0.0
 10
15.08640961793557
 20
1.441300425956223
 30
0.0
 10
15.08608705302104
 20
1.441422656430444
 30
0.0
 10
15.08576889571522
 20
1.441555939368853
 30
0.0
 10
15.0854507384094
 20
1.441689222307261
 30
0.0
 10
15.08513736728678
 20
1.441833399116863
 30
0.0
 10
15.08482399616416
 20
1.441977575926464
 30
0.0
 10
15.08451578410418
 20
1.442132475051676
 30
0.0
 10
15.08420757204419
 20
1.442287374176888
 30
0.0
 10
15.08390488578748
 20
1.442452811303676
 30
0.0
 10
15.08360219953077
 20
1.442618248430464
 30
0.0
 10
15.0833053992429
 20
1.442794026705654
 30
0.0
 10
15.08300859895501
 20
1.442969804980844
 30
0.0
 10
15.08271803779778
 20
1.443155715246359
 30
0.0
 10
15.08242747664054
 20
1.443341625511873
 30
0.0
 10
15.08214350035187
 20
1.443537446553608
 30
0.0
 10
15.08185952406319
 20
1.443733267595344
 30
0.0
 10
15.08158247054567
 20
1.443938766406391
 30
0.0
 10
15.08130541702814
 20
1.444144265217437
 30
0.0
 10
15.08103561594696
 20
1.444359197275336
 30
0.0
 10
15.08076581486579
 20
1.444574129333235
 30
0.0
 10
15.08050358725652
 20
1.444798238890932
 30
0.0
 10
15.08024135964724
 20
1.445022348448629
 30
0.0
 10
15.07998701753377
 20
1.445255368838789
 30
0.0
 10
15.0797326754203
 20
1.445488389228949
 30
0.0
 10
15.07948652144359
 20
1.445730043181264
 30
0.0
 10
15.07924036746689
 20
1.445971697133578
 30
0.0
 10
15.07900269452488
 20
1.446221697104686
 30
0.0
 10
15.07876502158287
 20
1.446471697075793
 30
0.0
 10
15.07853611248193
 20
1.446729745591428
 30
0.0
 10
15.07830720338099
 20
1.446987794107063
 30
0.0
 10
15.07808733049941
 20
1.447253584116019
 30
0.0
 10
15.07786745761783
 20
1.447519374124976
 30
0.0
 10
15.07765688258173
 20
1.447792589364468
 30
0.0
 10
15.07744630754564
 20
1.448065804603959
 30
0.0
 10
15.07724528091768
 20
1.448346119975938
 30
0.0
 10
15.07704425428972
 20
1.448626435347916
 30
0.0
 10
15.07685301527091
 20
1.448913517305904
 30
0.0
 10
15.07666177625211
 20
1.449200599263893
 30
0.0
 10
15.07648055239723
 20
1.449494106209875
 30
0.0
 10
15.07629932854235
 20
1.449787613155857
 30
0.0
 10
15.07612833548916
 20
1.450087195846739
 30
0.0
 10
15.07595734243596
 20
1.450386778537621
 30
0.0
 10
15.06235930945176
 20
1.475193304934753
 30
0.0
 10
15.04876127646756
 20
1.499999831331886
 30
0.0
  0
SPLINE
  5
4B
330
1F
100
AcDbEntity
  8
DEFAULT
100
AcDbSpline
210
0.0
220
0.0
230
1.0
 70
    24
 71
     2
 72
     6
 73
     3
 74
     0
 42
0.0000000001
 43
0.0000000001
 40
0.0
 40
0.0
 40
0.0
 40
38.25
 40
38.25
 40
38.25
 10
-18.25015668408821
 20
4.999999999999995
 30
0.0
 10
-0.000003122667076
 20
4.999999999999997
 30
0.0
 10
18.25015043875405
 20
5.0
 30
0.0
  0
SPLINE
  5
4C
330
1F
100
AcDbEntity
  8
DEFAULT
100
AcDbSpline
210
0.0
220
0.0
230
1.0
 70
    24
 71
     2
 72
     6
 73
     3
 74
     0
 42
0.0000000001
 43
0.0000000001
 40
0.0
 40
0.0
 40
0.0
 40
26.53
 40
26.53
 40
26.53
 10
-12.39015668408821
 20
0.6024999999999956
 30
0.0
 10
-0.000003122667076
 20
0.6024999999999956
 30
0.0
 10
12.39015043875406
 20
0.6024999999999956
 30
0.0
  0
SPLINE
  5
4D
330
1F
100
AcDbEntity
  8
DEFAULT
100
AcDbSpline
210
0.0
220
0.0
230
1.0
 70
     8
 71
     2
 72
   252
 73
   249
 74
     0
 42
0.0000000001
 43
0.0000000001
 40
0.0
 40
0.0
 40
0.0
 40
1.0
 40
1.0
 40
2.0
 40
2.0
 40
3.0
 40
3.0
 40
4.0
 40
4.0
 40
5.0
 40
5.0
 40
6.0
 40
6.0
 40
7.0
 40
7.0
 40
8.0
 40
8.0
 40
9.0
 40
9.0
 40
10.0
 40
10.0
 40
11.0
 40
11.0
 40
12.0
 40
12.0
 40
13.0
 40
13.0
 40
14.0
 40
14.0
 40
15.0
 40
15.0
 40
16.0
 40
16.0
 40
17.0
 40
17.0
 40
18.0
 40
18.0
 40
19.0
 40
19.0
 40
20.0
 40
20.0
 40
21.0
 40
21.0
 40
22.0
 40
22.0
 40
23.0
 40
23.0
 40
24.0
 40
24.0
 40
25.0
 40
25.0
 40
26.0
 40
26.0
 40
27.0
 40
27.0
 40
28.0
 40
28.0
 40
29.0
 40
29.0
 40
30.0
 40
30.0
 40
31.0
 40
31.0
 40
32.0
 40
32.0
 40
33.0
 40
33.0
 40
34.0
 40
34.0
 40
35.0
 40
35.0
 40
36.0
 40
36.0
 40
37.0
 40
37.0
 40
38.0
 40
38.0
 40
39.0
 40
39.0
 40
40.0
 40
40.0
 40
41.0
 40
41.0
 40
42.0
 40
42.0
 40
43.0
 40
43.0
 40
44.0
 40
44.0
 40
45.0
 40
45.0
 40
46.0
 40
46.0
 40
47.0
 40
47.0
 40
48.0
 40
48.0
 40
49.0
 40
49.0
 40
50.0
 40
50.0
 40
51.0
 40
51.0
 40
52.0
 40
52.0
 40
53.0
 40
53.0
 40
54.0
 40
54.0
 40
55.0
 40
55.0
 40
56.0
 40
56.0
 40
57.0
 40
57.0
 40
58.0
 40
58.0
 40
59.0
 40
59.0
 40
60.0
 40
60.0
 40
61.0
 40
61.0
 40
62.0
 40
62.0
 40
63.0
 40
63.0
 40
64.0
 40
64.0
 40
65.0
 40
65.0
 40
66.0
 40
66.0
 40
67.0
 40
67.0
 40
68.0
 40
68.0
 40
69.0
 40
69.0
 40
70.0
 40
70.0
 40
71.0
 40
71.0
 40
72.0
 40
72.0
 40
73.0
 40
73.0
 40
74.0
 40
74.0
 40
75.0
 40
75.0
 40
76.0
 40
76.0
 40
77.0
 40
77.0
 40
78.0
 40
78.0
 40
79.0
 40
79.0
 40
80.0
 40
80.0
 40
81.0
 40
81.0
 40
82.0
 40
82.0
 40
83.0
 40
83.0
 40
84.0
 40
84.0
 40
85.0
 40
85.0
 40
86.0
 40
86.0
 40
87.0
 40
87.0
 40
88.0
 40
88.0
 40
89.0
 40
89.0
 40
90.0
 40
90.0
 40
91.0
 40
91.0
 40
92.0
 40
92.0
 40
93.0
 40
93.0
 40
94.0
 40
94.0
 40
95.0
 40
95.0
 40
96.0
 40
96.0
 40
97.0
 40
97.0
 40
98.0
 40
98.0
 40
99.0
 40
99.0
 40
100.0
 40
100.0
 40
101.0
 40
101.0
 40
102.0
 40
102.0
 40
103.0
 40
103.0
 40
104.0
 40
104.0
 40
105.0
 40
105.0
 40
106.0
 40
106.0
 40
107.0
 40
107.0
 40
108.0
 40
108.0
 40
109.0
 40
109.0
 40
110.0
 40
110.0
 40
111.0
 40
111.0
 40
112.0
 40
112.0
 40
113.0
 40
113.0
 40
114.0
 40
114.0
 40
115.0
 40
115.0
 40
116.0
 40
116.0
 40
117.0
 40
117.0
 40
118.0
 40
118.0
 40
119.0
 40
119.0
 40
120.0
 40
120.0
 40
121.0
 40
121.0
 40
122.0
 40
122.0
 40
123.0
 40
123.0
 40
124.0
 40
124.0
 40
124.0
 10
-14.95468668509521
 20
1.290077783707145
 30
0.0
 10
-14.96048149834989
 20
1.290296946721698
 30
0.0
 10
-14.96627631160457
 20
1.290516109736251
 30
0.0
 10
-14.97206060618061
 20
1.290928213292609
 30
0.0
 10
-14.97784490075665
 20
1.291340316848966
 30
0.0
 10
-14.98361225441274
 20
1.291944903392892
 30
0.0
 10
-14.98937960806884
 20
1.292549489936818
 30
0.0
 10
-14.99512361737301
 20
1.293345888202245
 30
0.0
 10
-15.00086762667718
 20
1.294142286467672
 30
0.0
 10
-15.00658191411643
 20
1.295129612222
 30
0.0
 10
-15.01229620155569
 20
1.296116937976327
 30
0.0
 10
-15.01797442261691
 20
1.297294095002176
 30
0.0
 10
-15.02365264367813
 20
1.298471252028025
 30
0.0
 10
-15.02928849389231
 20
1.299836933340356
 30
0.0
 10
-15.0349243441065
 20
1.301202614652687
 30
0.0
 10
-15.04051156604856
 20
1.302755303949933
 30
0.0
 10
-15.04609878799062
 20
1.304307993247179
 30
0.0
 10
-15.05163117822691
 20
1.306045966594777
 30
0.0
 10
-15.0571635684632
 20
1.307783939942375
 30
0.0
 10
-15.06263498443915
 20
1.309705267686835
 30
0.0
 10
-15.06810640041511
 20
1.311626595431294
 30
0.0
 10
-15.07351076727524
 20
1.313729144342671
 30
0.0
 10
-15.07891513413537
 20
1.315831693254047
 30
0.0
 10
-15.0842464514681
 20
1.318113128894443
 30
0.0
 10
-15.08957776880083
 20
1.32039456453484
 30
0.0
 10
-15.09483011730072
 20
1.32285235385031
 30
0.0
 10
-15.10008246580062
 20
1.325310143165779
 30
0.0
 10
-15.10525001384049
 20
1.327941557298749
 30
0.0
 10
-15.11041756188037
 20
1.33057297143172
 30
0.0
 10
-15.11549457198609
 20
1.333375088750812
 30
0.0
 10
-15.12057158209182
 20
1.336177206069904
 30
0.0
 10
-15.12555241731258
 20
1.339146915413791
 30
0.0
 10
-15.13053325253334
 20
1.342116624757679
 30
0.0
 10
-15.13541238270029
 20
1.345250628889377
 30
0.0
 10
-15.14029151286725
 20
1.348384633021074
 30
0.0
 10
-15.14506352073359
 20
1.351679452288824
 30
0.0
 10
-15.14983552859994
 20
1.354974271556575
 30
0.0
 10
-15.15449511585563
 20
1.358426247757271
 30
0.0
 10
-15.15915470311132
 20
1.361878223957967
 30
0.0
 10
-15.16369669626574
 20
1.365483524398814
 30
0.0
 10
-15.16823868942016
 20
1.369088824839662
 30
0.0
 10
-15.16876519735507
 20
1.36953669921272
 30
0.0
 10
-15.16929170528998
 20
1.369984573585778
 30
0.0
 10
-15.16980242177832
 20
1.370450374753766
 30
0.0
 10
-15.17031313826666
 20
1.370916175921754
 30
0.0
 10
-15.17080745325202
 20
1.371399347480108
 30
0.0
 10
-15.17130176823739
 20
1.371882519038462
 30
0.0
 10
-15.17177909125515
 20
1.372382483833495
 30
0.0
 10
-15.17225641427291
 20
1.372882448628529
 30
0.0
 10
-15.17271617515553
 20
1.373398609446852
 30
0.0
 10
-15.17317593603816
 20
1.373914770265175
 30
0.0
 10
-15.17361758559625
 20
1.374446510547072
 30
0.0
 10
-15.17405923515435
 20
1.374978250828968
 30
0.0
 10
-15.17448224583272
 20
1.375524935404884
 30
0.0
 10
-15.1749052565111
 20
1.376071619980799
 30
0.0
 10
-15.17530912301888
 20
1.376632595830056
 30
0.0
 10
-15.17571298952667
 20
1.377193571679313
 30
0.0
 10
-15.17609722944092
 20
1.377768168710154
 30
0.0
 10
-15.17648146935518
 20
1.378342765740995
 30
0.0
 10
-15.17684562369715
 20
1.378930297591011
 30
0.0
 10
-15.17720977803912
 20
1.379517829441027
 30
0.0
 10
-15.17755341182248
 20
1.380117594297029
 30
0.0
 10
-15.17789704560584
 20
1.38071735915303
 30
0.0
 10
-15.17821974835629
 20
1.381328640589367
 30
0.0
 10
-15.17854245110675
 20
1.381939922025704
 30
0.0
 10
-15.17884383735234
 20
1.382561989860048
 30
0.0
 10
-15.17914522359794
 20
1.383184057694391
 30
0.0
 10
-15.17942493332953
 20
1.383816168859942
 30
0.0
 10
-15.17970464306112
 20
1.384448280025492
 30
0.0
 10
-15.17996234216238
 20
1.385089679458581
 30
0.0
 10
-15.18022004126365
 20
1.38573107889167
 30
0.0
 10
-15.18045542191021
 20
1.386381000433693
 30
0.0
 10
-15.18069080255677
 20
1.387030921975716
 30
0.0
 10
-15.18090358358387
 20
1.387688589288317
 30
0.0
 10
-15.18111636461098
 20
1.388346256600917
 30
0.0
 10
-15.18130629184938
 20
1.389010884093332
 30
0.0
 10
-15.18149621908779
 20
1.389675511585746
 30
0.0
 10
-15.18166306566733
 20
1.390346305353199
 30
0.0
 10
-15.18182991224688
 20
1.391017099120653
 30
0.0
 10
-15.18197347886751
 20
1.391693257892689
 30
0.0
 10
-15.18211704548814
 20
1.392369416664724
 30
0.0
 10
-15.18223716065796
 20
1.393050132762328
 30
0.0
 10
-15.18235727582779
 20
1.393730848859932
 30
0.0
 10
-15.18245379606793
 20
1.394415309160316
 30
0.0
 10
-15.18255031630807
 20
1.395099769460701
 30
0.0
 10
-15.18262312632405
 20
1.395787156368587
 30
0.0
 10
-15.18269593634004
 20
1.396474543276473
 30
0.0
 10
-15.1827449491595
 20
1.397164035700715
 30
0.0
 10
-15.18279396197897
 20
1.397853528124958
 30
0.0
 10
-15.18281911905557
 20
1.398544302459352
 30
0.0
 10
-15.18284427613218
 20
1.399235076793745
 30
0.0
 10
-15.18284554741552
 20
1.399926307900828
 30
0.0
 10
-15.18284681869886
 20
1.40061753900791
 30
0.0
 10
-15.18282420267037
 20
1.4013084012046
 30
0.0
 10
-15.18280158664188
 20
1.40199926340129
 30
0.0
 10
-15.18275511031665
 20
1.402688931445173
 30
0.0
 10
-15.18270863399143
 20
1.403378599489056
 30
0.0
 10
-15.18263835288595
 20
1.404066249564146
 30
0.0
 10
-15.18256807178047
 20
1.404753899639237
 30
0.0
 10
-15.18247406984627
 20
1.405438710340035
 30
0.0
 10
-15.18238006791208
 20
1.406123521040834
 30
0.0
 10
-15.1822624574355
 20
1.406804674353503
 30
0.0
 10
-15.18214484695893
 20
1.407485827666172
 30
0.0
 10
-15.18200376842697
 20
1.408162509945666
 30
0.0
 10
-15.18186268989502
 20
1.408839192225159
 30
0.0
 10
-15.18169831182751
 20
1.409510595167128
 30
0.0
 10
-15.18153393376001
 20
1.410181998109097
 30
0.0
 10
-15.18134645250836
 20
1.410847319715419
 30
0.0
 10
-15.18115897125671
 20
1.411512641321741
 30
0.0
 10
-15.1809486107693
 20
1.412171086858515
 30
0.0
 10
-15.1807382502819
 20
1.412829532395289
 30
0.0
 10
-15.18050526183663
 20
1.413480315342154
 30
0.0
 10
-15.18027227339136
 20
1.414131098289019
 30
0.0
 10
-15.18001693529545
 20
1.414773441278661
 30
0.0
 10
-15.17976159719955
 20
1.415415784268303
 30
0.0
 10
-15.17948421445715
 20
1.416048920015028
 30
0.0
 10
-15.17920683171476
 20
1.416682055761753
 30
0.0
 10
-15.17890773566257
 20
1.41730522797802
 30
0.0
 10
-15.17860863961039
 20
1.417928400194288
 30
0.0
 10
-15.17828818752191
 20
1.418540864494102
 30
0.0
 10
-15.17796773543343
 20
1.419153328793916
 30
0.0
 10
-15.17762631009215
 20
1.419754353582003
 30
0.0
 10
-15.17728488475088
 20
1.420355378370091
 30
0.0
 10
-15.1769228939931
 20
1.4209442457158
 30
0.0
 10
-15.17656090323532
 20
1.421533113061509
 30
0.0
 10
-15.17617877946293
 20
1.422109119556385
 30
0.0
 10
-15.17579665569055
 20
1.422685126051261
 30
0.0
 10
-15.17539485535457
 20
1.423247583649276
 30
0.0
 10
-15.17499305501859
 20
1.423810041247291
 30
0.0
 10
-15.17457205807388
 20
1.424358278086722
 30
0.0
 10
-15.17415106112918
 20
1.424906514926153
 30
0.0
 10
-15.17371137046118
 20
1.425439876132127
 30
0.0
 10
-15.17327167979319
 20
1.425973237338101
 30
0.0
 10
-15.17281382061719
 20
1.426491085804852
 30
0.0
 10
-15.1723559614412
 20
1.427008934271603
 30
0.0
 10
-15.17188048067497
 20
1.4275106514235
 30
0.0
 10
-15.17140499990874
 20
1.428012368575397
 30
0.0
 10
-15.17091246551923
 20
1.428497355105841
 30
0.0
 10
-15.17041993112973
 20
1.428982341636285
 30
0.0
 10
-15.16991093145463
 20
1.429450018223587
 30
0.0
 10
-15.16940193177954
 20
1.429917694810888
 30
0.0
 10
-15.1688770748245
 20
1.430367502810272
 30
0.0
 10
-15.16835221786946
 20
1.430817310809656
 30
0.0
 10
-15.16781213058183
 20
1.431248712920572
 30
0.0
 10
-15.1672720432942
 20
1.431680115031487
 30
0.0
 10
-15.16671737081412
 20
1.432092595939416
 30
0.0
 10
-15.16616269833405
 20
1.432505076847346
 30
0.0
 10
-15.16559410322384
 20
1.432898143839354
 30
0.0
 10
-15.16502550811364
 20
1.433291210831362
 30
0.0
 10
-15.16444366956634
 20
1.433664394384649
 30
0.0
 10
-15.16386183101905
 20
1.434037577937936
 30
0.0
 10
-15.16326744404715
 20
1.434390432280685
 30
0.0
 10
-15.16267305707525
 20
1.434743286623434
 30
0.0
 10
-15.16206683168045
 20
1.435075390267291
 30
0.0
 10
-15.16146060628566
 20
1.435407493911149
 30
0.0
 10
-15.1608432666108
 20
1.435718450154698
 30
0.0
 10
-15.16022592693594
 20
1.436029406398246
 30
0.0
 10
-15.15959821039997
 20
1.436318843800867
 30
0.0
 10
-15.158970493864
 20
1.436608281203489
 30
0.0
 10
-15.15833315028117
 20
1.436875854029056
 30
0.0
 10
-15.15769580669834
 20
1.437143426854623
 30
0.0
 10
-15.15704959738248
 20
1.437388815484482
 30
0.0
 10
-15.15640338806663
 20
1.437634204114341
 30
0.0
 10
-15.15574908492182
 20
1.437857115429103
 30
0.0
 10
-15.15509478177701
 20
1.438080026743865
 30
0.0
 10
-15.15443316637546
 20
1.438280194473538
 30
0.0
 10
-15.15377155097392
 20
1.438480362203211
 30
0.0
 10
-15.15310341362245
 20
1.438657547245263
 30
0.0
 10
-15.15243527627098
 20
1.438834732287315
 30
0.0
 10
-15.15176141506691
 20
1.438988722992284
 30
0.0
 10
-15.15108755386285
 20
1.439142713697253
 30
0.0
 10
-15.15040877374073
 20
1.439273326121566
 30
0.0
 10
-15.14972999361862
 20
1.439403938545879
 30
0.0
 10
-15.1490471053887
 20
1.439511016671574
 30
0.0
 10
-15.14836421715879
 20
1.439618094797269
 30
0.0
 10
-15.14767803653849
 20
1.439701510718359
 30
0.0
 10
-15.1469918559182
 20
1.439784926639448
 30
0.0
 10
-15.14630320255774
 20
1.439844580714707
 30
0.0
 10
-15.14561454919729
 20
1.439904234789966
 30
0.0
 10
-15.14492424570061
 20
1.439940055761951
 30
0.0
 10
-15.14423394220394
 20
1.439975876733937
 30
0.0
 10
-15.14354281314608
 20
1.439987821814108
 30
0.0
 10
-15.14285168408822
 20
1.439999766894279
 30
0.0
 10
-15.11817668408821
 20
1.439999854032132
 30
0.0
 10
-15.09350168408821
 20
1.439999941169985
 30
0.0
 10
-15.09315678842729
 20
1.440005890623306
 30
0.0
 10
-15.09281189276637
 20
1.440011840076626
 30
0.0
 10
-15.09246740749583
 20
1.440029681357347
 30
0.0
 10
-15.09212292222529
 20
1.440047522638068
 30
0.0
 10
-15.09177925724719
 20
1.440077234516901
 30
0.0
 10
-15.09143559226909
 20
1.440106946395733
 30
0.0
 10
-15.09109315650942
 20
1.440148493518596
 30
0.0
 10
-15.09075072074976
 20
1.440190040641458
 30
0.0
 10
-15.09040992167188
 20
1.440243373571546
 30
0.0
 10
-15.090069122594
 20
1.440296706501634
 30
0.0
 10
-15.08973036571377
 20
1.440361761778242
 30
0.0
 10
-15.08939160883355
 20
1.440426817054851
 30
0.0
 10
-15.08905529723683
 20
1.440503517268889
 30
0.0
 10
-15.08871898564012
 20
1.440580217482927
 30
0.0
 10
-15.08838551950315
 20
1.440668471369025
 30
0.0
 10
-15.08805205336618
 20
1.440756725255122
 30
0.0
 10
-15.08772182947938
 20
1.440856427800228
 30
0.0
 10
-15.08739160559258
 20
1.440956130345334
 30
0.0
 10
-15.08706501688842
 20
1.441067162913668
 30
0.0
 10
-15.08673842818426
 20
1.441178195482002
 30
0.0
 10
-15.08641586326972
 20
1.441300425956223
 30
0.0
 10
-15.08609329835519
 20
1.441422656430444
 30
0.0
 10
-15.08577514104937
 20
1.441555939368853
 30
0.0
 10
-15.08545698374355
 20
1.441689222307261
 30
0.0
 10
-15.08514361262093
 20
1.441833399116863
 30
0.0
 10
-15.08483024149832
 20
1.441977575926464
 30
0.0
 10
-15.08452202943833
 20
1.442132475051676
 30
0.0
 10
-15.08421381737834
 20
1.442287374176888
 30
0.0
 10
-15.08391113112163
 20
1.442452811303676
 30
0.0
 10
-15.08360844486493
 20
1.442618248430464
 30
0.0
 10
-15.08331164457705
 20
1.442794026705654
 30
0.0
 10
-15.08301484428917
 20
1.442969804980844
 30
0.0
 10
-15.08272428313193
 20
1.443155715246359
 30
0.0
 10
-15.0824337219747
 20
1.443341625511873
 30
0.0
 10
-15.08214974568602
 20
1.443537446553608
 30
0.0
 10
-15.08186576939735
 20
1.443733267595344
 30
0.0
 10
-15.08158871587982
 20
1.443938766406391
 30
0.0
 10
-15.08131166236229
 20
1.444144265217437
 30
0.0
 10
-15.08104186128111
 20
1.444359197275336
 30
0.0
 10
-15.08077206019994
 20
1.444574129333235
 30
0.0
 10
-15.08050983259067
 20
1.444798238890932
 30
0.0
 10
-15.0802476049814
 20
1.445022348448629
 30
0.0
 10
-15.07999326286792
 20
1.445255368838789
 30
0.0
 10
-15.07973892075445
 20
1.445488389228949
 30
0.0
 10
-15.07949276677774
 20
1.445730043181264
 30
0.0
 10
-15.07924661280104
 20
1.445971697133578
 30
0.0
 10
-15.07900893985903
 20
1.446221697104686
 30
0.0
 10
-15.07877126691703
 20
1.446471697075793
 30
0.0
 10
-15.07854235781608
 20
1.446729745591428
 30
0.0
 10
-15.07831344871514
 20
1.446987794107063
 30
0.0
 10
-15.07809357583356
 20
1.447253584116019
 30
0.0
 10
-15.07787370295198
 20
1.447519374124976
 30
0.0
 10
-15.07766312791588
 20
1.447792589364468
 30
0.0
 10
-15.07745255287979
 20
1.448065804603959
 30
0.0
 10
-15.07725152625183
 20
1.448346119975938
 30
0.0
 10
-15.07705049962387
 20
1.448626435347916
 30
0.0
 10
-15.07685926060506
 20
1.448913517305904
 30
0.0
 10
-15.07666802158626
 20
1.449200599263893
 30
0.0
 10
-15.07648679773138
 20
1.449494106209875
 30
0.0
 10
-15.07630557387651
 20
1.449787613155857
 30
0.0
 10
-15.07613458082331
 20
1.450087195846739
 30
0.0
 10
-15.07596358777012
 20
1.450386778537621
 30
0.0
 10
-15.06236555478592
 20
1.475193304934753
 30
0.0
 10
-15.04876752180172
 20
1.499999831331886
 30
0.0
  0
SPLINE
  5
4E
330
1F
100
AcDbEntity
  8
DEFAULT
100
AcDbSpline
210
0.0
220
0.0
230
1.0
 70
     8
 71
     2
 72
   190
 73
   187
 74
     0
 42
0.0000000001
 43
0.0000000001
 40
0.0
 40
0.0
 40
0.0
 40
1.0
 40
1.0
 40
2.0
 40
2.0
 40
3.0
 40
3.0
 40
4.0
 40
4.0
 40
5.0
 40
5.0
 40
6.0
 40
6.0
 40
7.0
 40
7.0
 40
8.0
 40
8.0
 40
9.0
 40
9.0
 40
10.0
 40
10.0
 40
11.0
 40
11.0
 40
12.0
 40
12.0
 40
13.0
 40
13.0
 40
14.0
 40
14.0
 40
15.0
 40
15.0
 40
16.0
 40
16.0
 40
17.0
 40
17.0
 40
18.0
 40
18.0
 40
19.0
 40
19.0
 40
20.0
 40
20.0
 40
21.0
 40
21.0
 40
22.0
 40
22.0
 40
23.0
 40
23.0
 40
24.0
 40
24.0
 40
25.0
 40
25.0
 40
26.0
 40
26.0
 40
27.0
 40
27.0
 40
28.0
 40
28.0
 40
29.0
 40
29.0
 40
30.0
 40
30.0
 40
31.0
 40
31.0
 40
32.0
 40
32.0
 40
33.0
 40
33.0
 40
34.0
 40
34.0
 40
35.0
 40
35.0
 40
36.0
 40
36.0
 40
37.0
 40
37.0
 40
38.0
 40
38.0
 40
39.0
 40
39.0
 40
40.0
 40
40.0
 40
41.0
 40
41.0
 40
42.0
 40
42.0
 40
43.0
 40
43.0
 40
44.0
 40
44.0
 40
45.0
 40
45.0
 40
46.0
 40
46.0
 40
47.0
 40
47.0
 40
48.0
 40
48.0
 40
49.0
 40
49.0
 40
50.0
 40
50.0
 40
51.0
 40
51.0
 40
52.0
 40
52.0
 40
53.0
 40
53.0
 40
54.0
 40
54.0
 40
55.0
 40
55.0
 40
56.0
 40
56.0
 40
57.0
 40
57.0
 40
58.0
 40
58.0
 40
59.0
 40
59.0
 40
60.0
 40
60.0
 40
61.0
 40
61.0
 40
62.0
 40
62.0
 40
63.0
 40
63.0
 40
64.0
 40
64.0
 40
65.0
 40
65.0
 40
66.0
 40
66.0
 40
67.0
 40
67.0
 40
68.0
 40
68.0
 40
69.0
 40
69.0
 40
70.0
 40
70.0
 40
71.0
 40
71.0
 40
72.0
 40
72.0
 40
73.0
 40
73.0
 40
74.0
 40
74.0
 40
75.0
 40
75.0
 40
76.0
 40
76.0
 40
77.0
 40
77.0
 40
78.0
 40
78.0
 40
79.0
 40
79.0
 40
80.0
 40
80.0
 40
81.0
 40
81.0
 40
82.0
 40
82.0
 40
83.0
 40
83.0
 40
84.0
 40
84.0
 40
85.0
 40
85.0
 40
86.0
 40
86.0
 40
87.0
 40
87.0
 40
88.0
 40
88.0
 40
89.0
 40
89.0
 40
90.0
 40
90.0
 40
91.0
 40
91.0
 40
92.0
 40
92.0
 40
93.0
 40
93.0
 40
93.0
 10
-14.96015668408822
 20
1.499999831331886
 30
0.0
 10
-14.94370476839337
 20
0.8717278291243532
 30
0.0
 10
-14.92725285269853
 20
0.2434558269168203
 30
0.0
 10
-14.92706695922636
 20
0.2391694659014635
 30
0.0
 10
-14.92688106575419
 20
0.2348831048861068
 30
0.0
 10
-14.92654818206132
 20
0.2306056482137382
 30
0.0
 10
-14.92621529836845
 20
0.2263281915413696
 30
0.0
 10
-14.92573581661789
 20
0.2220646783904744
 30
0.0
 10
-14.92525633486734
 20
0.2178011652395793
 30
0.0
 10
-14.9246308199261
 20
0.2135566183620835
 30
0.0
 10
-14.92400530498487
 20
0.2093120714845876
 30
0.0
 10
-14.92323449375847
 20
0.2050914912886634
 30
0.0
 10
-14.92246368253207
 20
0.2008709110927391
 30
0.0
 10
-14.92154848309641
 20
0.1966792697519338
 30
0.0
 10
-14.92063328366076
 20
0.1924876284111284
 30
0.0
 10
-14.91957477419236
 20
0.1883298640067545
 30
0.0
 10
-14.91851626472396
 20
0.1841720996023806
 30
0.0
 10
-14.91731569222975
 20
0.1800531103060703
 30
0.0
 10
-14.91611511973554
 20
0.17593412100976
 30
0.0
 10
-14.91477389858381
 20
0.1718587593130357
 30
0.0
 10
-14.91343267743209
 20
0.1677833976163114
 30
0.0
 10
-14.91195238768625
 20
0.1637564646139713
 30
0.0
 10
-14.91047209794041
 20
0.1597295316116311
 30
0.0
 10
-14.90885448349755
 20
0.1557557713456837
 30
0.0
 10
-14.90723686905469
 20
0.1517820110797363
 30
0.0
 10
-14.90548383559113
 20
0.1478661049505484
 30
0.0
 10
-14.90373080212757
 20
0.1439501988213606
 30
0.0
 10
-14.90184441485383
 20
0.1400967600726014
 30
0.0
 10
-14.89995802758009
 20
0.1362433213238423
 30
0.0
 10
-14.8979405088079
 20
0.1324568896077213
 30
0.0
 10
-14.89592299003572
 20
0.1286704578916004
 30
0.0
 10
-14.89377671655998
 20
0.1249554939208025
 30
0.0
 10
-14.89163044308425
 20
0.1212405299500047
 30
0.0
 10
-14.88935794338297
 20
0.1176014102426214
 30
0.0
 10
-14.8870854436817
 20
0.1139622905352381
 30
0.0
 10
-14.88468939493725
 20
0.1104033022588872
 30
0.0
 10
-14.8822933461928
 20
0.1068443139825363
 30
0.0
 10
-14.87977657113799
 20
0.1033696499037429
 30
0.0
 10
-14.87725979608318
 20
0.0998949858249496
 30
0.0
 10
-14.87462525967585
 20
0.0965087393697396
 30
0.0
 10
-14.87199072326852
 20
0.0931224929145295
 30
0.0
 10
-14.86924152919859
 20
0.0898286533460531
 30
0.0
 10
-14.86649233512867
 20
0.0865348137775768
 30
0.0
 10
-14.86363172216177
 20
0.0833372614964452
 30
0.0
 10
-14.86077110919487
 20
0.0801397092153137
 30
0.0
 10
-14.85780244735678
 20
0.077042211188183
 30
0.0
 10
-14.8548337855187
 20
0.0739447131610523
 30
0.0
 10
-14.85176057212525
 20
0.0709509184828427
 30
0.0
 10
-14.8486873587318
 20
0.067957123804633
 30
0.0
 10
-14.8455132142687
 20
0.0650705593996093
 30
0.0
 10
-14.8423390698056
 20
0.0621839949945856
 30
0.0
 10
-14.83906773366327
 20
0.0594080614613647
 30
0.0
 10
-14.83579639752094
 20
0.0566321279281438
 30
0.0
 10
-14.83243172358919
 20
0.0539700955335237
 30
0.0
 10
-14.82906704965745
 20
0.0513080631389035
 30
0.0
 10
-14.82561300178532
 20
0.0487630679652329
 30
0.0
 10
-14.82215895391319
 20
0.0462180727915624
 30
0.0
 10
-14.8186196012392
 20
0.0437931130421908
 30
0.0
 10
-14.81508024856521
 20
0.0413681532928193
 30
0.0
 10
-14.8114597607236
 20
0.0390660857599789
 30
0.0
 10
-14.807839272882
 20
0.0367640182271385
 30
0.0
 10
-14.8041419150906
 20
0.0345875549264194
 30
0.0
 10
-14.80044455729921
 20
0.0324110916257003
 30
0.0
 10
-14.79667468533466
 20
0.030362796601084
 30
0.0
 10
-14.79290481337011
 20
0.0283145015764678
 30
0.0
 10
-14.7890668684364
 20
0.0263967878796832
 30
0.0
 10
-14.7852289235027
 20
0.0244790741828987
 30
0.0
 10
-14.78132742699913
 20
0.0226942010306581
 30
0.0
 10
-14.77742593049556
 20
0.0209093278784175
 30
0.0
 10
-14.77346547869012
 20
0.0192593979908827
 30
0.0
 10
-14.76950502688468
 20
0.017609468103348
 30
0.0
 10
-14.76549028549934
 20
0.0160964252269615
 30
0.0
 10
-14.761475544114
 20
0.014583382350575
 30
0.0
 10
-14.75741124282808
 20
0.0132090089681751
 30
0.0
 10
-14.75334694154216
 20
0.0118346355857751
 30
0.0
 10
-14.74923786842043
 20
0.0106005508166908
 30
0.0
 10
-14.74512879529871
 20
0.0093664660476064
 30
0.0
 10
-14.74097979115067
 20
0.008274123740209
 30
0.0
 10
-14.73683078700263
 20
0.0071817814328117
 30
0.0
 10
-14.73264673967964
 20
0.0062324684517676
 30
0.0
 10
-14.72846269235666
 20
0.0052831554707235
 30
0.0
 10
-14.72424853099369
 20
0.0044779901809666
 30
0.0
 10
-14.72003436963072
 20
0.0036728248912098
 30
0.0
 10
-14.71579505883943
 20
0.0030127558404206
 30
0.0
 10
-14.71155574804814
 20
0.0023526867896315
 30
0.0
 10
-14.70729628206818
 20
0.0018384915907735
 30
0.0
 10
-14.70303681608822
 20
0.0013242963919155
 30
0.0
 10
-14.69876221290363
 20
0.0009565808071462
 30
0.0
 10
-14.69448760971904
 20
0.0005888652223769
 30
0.0
 10
-14.69020290514668
 20
0.000368062449413
 30
0.0
 10
-14.68591820057432
 20
0.000147259676449
 30
0.0
 10
-14.68162844233126
 20
0.0000736298382251
 30
0.0
 10
-14.6773386840882
 20
0.0000000000000012
 30
0.0
 10
-13.7101566840882
 20
-0.0000000000000003
 30
0.0
 10
-12.74297468408821
 20
-0.0000000000000018
 30
0.0
 10
-12.73868492584515
 20
0.0000736298382227
 30
0.0
 10
-12.73439516760209
 20
0.0001472596764472
 30
0.0
 10
-12.73011046302973
 20
0.0003680624494112
 30
0.0
 10
-12.72582575845737
 20
0.0005888652223751
 30
0.0
 10
-12.72155115527278
 20
0.0009565808071444
 30
0.0
 10
-12.7172765520882
 20
0.0013242963919137
 30
0.0
 10
-12.71301708610823
 20
0.0018384915907717
 30
0.0
 10
-12.70875762012827
 20
0.0023526867896297
 30
0.0
 10
-12.70451830933698
 20
0.0030127558404189
 30
0.0
 10
-12.70027899854569
 20
0.0036728248912081
 30
0.0
 10
-12.69606483718272
 20
0.0044779901809649
 30
0.0
 10
-12.69185067581975
 20
0.0052831554707217
 30
0.0
 10
-12.68766662849676
 20
0.0062324684517659
 30
0.0
 10
-12.68348258117378
 20
0.00718178143281
 30
0.0
 10
-12.67933357702574
 20
0.0082741237402073
 30
0.0
 10
-12.6751845728777
 20
0.0093664660476047
 30
0.0
 10
-12.67107549975597
 20
0.010600550816689
 30
0.0
 10
-12.66696642663425
 20
0.0118346355857734
 30
0.0
 10
-12.66290212534833
 20
0.0132090089681734
 30
0.0
 10
-12.65883782406241
 20
0.0145833823505734
 30
0.0
 10
-12.65482308267707
 20
0.0160964252269599
 30
0.0
 10
-12.65080834129173
 20
0.0176094681033463
 30
0.0
 10
-12.64684788948629
 20
0.019259397990881
 30
0.0
 10
-12.64288743768085
 20
0.0209093278784158
 30
0.0
 10
-12.63898594117728
 20
0.0226942010306565
 30
0.0
 10
-12.63508444467371
 20
0.0244790741828972
 30
0.0
 10
-12.63124649974001
 20
0.0263967878796817
 30
0.0
 10
-12.62740855480631
 20
0.0283145015764662
 30
0.0
 10
-12.62363868284176
 20
0.0303627966010824
 30
0.0
 10
-12.61986881087721
 20
0.0324110916256987
 30
0.0
 10
-12.61617145308581
 20
0.0345875549264178
 30
0.0
 10
-12.61247409529441
 20
0.0367640182271369
 30
0.0
 10
-12.6088536074528
 20
0.0390660857599773
 30
0.0
 10
-12.6052331196112
 20
0.0413681532928177
 30
0.0
 10
-12.60169376693721
 20
0.0437931130421893
 30
0.0
 10
-12.59815441426322
 20
0.0462180727915609
 30
0.0
 10
-12.59470036639109
 20
0.0487630679652315
 30
0.0
 10
-12.59124631851896
 20
0.051308063138902
 30
0.0
 10
-12.58788164458721
 20
0.0539700955335222
 30
0.0
 10
-12.58451697065547
 20
0.0566321279281424
 30
0.0
 10
-12.58124563451314
 20
0.0594080614613633
 30
0.0
 10
-12.57797429837081
 20
0.0621839949945842
 30
0.0
 10
-12.57480015390771
 20
0.065070559399608
 30
0.0
 10
-12.57162600944461
 20
0.0679571238046317
 30
0.0
 10
-12.56855279605116
 20
0.0709509184828414
 30
0.0
 10
-12.56547958265771
 20
0.073944713161051
 30
0.0
 10
-12.56251092081962
 20
0.0770422111881817
 30
0.0
 10
-12.55954225898154
 20
0.0801397092153124
 30
0.0
 10
-12.55668164601464
 20
0.083337261496444
 30
0.0
 10
-12.55382103304774
 20
0.0865348137775757
 30
0.0
 10
-12.55107183897781
 20
0.0898286533460521
 30
0.0
 10
-12.54832264490789
 20
0.0931224929145284
 30
0.0
 10
-12.54568810850056
 20
0.0965087393697383
 30
0.0
 10
-12.54305357209323
 20
0.0998949858249483
 30
0.0
 10
-12.54053679703842
 20
0.1033696499037418
 30
0.0
 10
-12.53802002198361
 20
0.1068443139825352
 30
0.0
 10
-12.53562397323916
 20
0.1104033022588861
 30
0.0
 10
-12.53322792449472
 20
0.1139622905352371
 30
0.0
 10
-12.53095542479344
 20
0.1176014102426204
 30
0.0
 10
-12.52868292509216
 20
0.1212405299500037
 30
0.0
 10
-12.52653665161642
 20
0.1249554939208016
 30
0.0
 10
-12.52439037814069
 20
0.1286704578915995
 30
0.0
 10
-12.5223728593685
 20
0.1324568896077205
 30
0.0
 10
-12.52035534059632
 20
0.1362433213238414
 30
0.0
 10
-12.51846895332258
 20
0.1400967600726006
 30
0.0
 10
-12.51658256604884
 20
0.1439501988213599
 30
0.0
 10
-12.51482953258528
 20
0.1478661049505476
 30
0.0
 10
-12.51307649912172
 20
0.1517820110797354
 30
0.0
 10
-12.51145888467886
 20
0.1557557713456829
 30
0.0
 10
-12.509841270236
 20
0.1597295316116303
 30
0.0
 10
-12.50836098049016
 20
0.1637564646139706
 30
0.0
 10
-12.50688069074432
 20
0.1677833976163108
 30
0.0
 10
-12.50553946959259
 20
0.1718587593130351
 30
0.0
 10
-12.50419824844087
 20
0.1759341210097594
 30
0.0
 10
-12.50299767594666
 20
0.1800531103060697
 30
0.0
 10
-12.50179710345245
 20
0.1841720996023801
 30
0.0
 10
-12.50073859398405
 20
0.188329864006754
 30
0.0
 10
-12.49968008451565
 20
0.1924876284111279
 30
0.0
 10
-12.49876488507999
 20
0.1966792697519333
 30
0.0
 10
-12.49784968564434
 20
0.2008709110927388
 30
0.0
 10
-12.49707887441794
 20
0.2050914912886631
 30
0.0
 10
-12.49630806319155
 20
0.2093120714845873
 30
0.0
 10
-12.49568254825031
 20
0.2135566183620831
 30
0.0
 10
-12.49505703330907
 20
0.2178011652395789
 30
0.0
 10
-12.49457755155851
 20
0.2220646783904741
 30
0.0
 10
-12.49409806980796
 20
0.2263281915413692
 30
0.0
 10
-12.49376518611509
 20
0.2306056482137378
 30
0.0
 10
-12.49343230242222
 20
0.2348831048861064
 30
0.0
 10
-12.49324640895005
 20
0.239169465901464
 30
0.0
 10
-12.49306051547789
 20
0.2434558269168216
 30
0.0
 10
-12.47660859978305
 20
0.8717278291243539
 30
0.0
 10
-12.46015668408822
 20
1.499999831331886
 30
0.0
  0
ENDSEC
  0
SECTION
  2
OBJECTS
  0
DICTIONARY
  5
C
330
0
100
AcDbDictionary
281
     1
  3
ACAD_GROUP
350
D
  3
ACAD_LAYOUT
350
1A
  3
ACAD_MLEADERSTYLE
350
50
  3
ACAD_MLINESTYLE
350
17
  3
ACAD_PLOTSETTINGS
350
19
  3
ACAD_PLOTSTYLENAME
350
E
  3
ACAD_TABLESTYLE
350
4F
  3
ACAD_VISUALSTYLE
350
2A
  0
DICTIONARY
  5
D
102
{ACAD_REACTORS
330
C
102
}
330
C
100
AcDbDictionary
281
     1
  0
DICTIONARY
  5
1A
102
{ACAD_REACTORS
330
C
102
}
330
C
100
AcDbDictionary
281
     1
  3
Layout1
350
1E
  3
Layout2
350
26
  3
Model
350
22
  0
DICTIONARY
  5
50
102
{ACAD_REACTORS
330
C
102
}
330
C
100
AcDbDictionary
281
     1
  0
DICTIONARY
  5
17
102
{ACAD_REACTORS
330
C
102
}
330
C
100
AcDbDictionary
281
     1
  3
Standard
350
18
  0
DICTIONARY
  5
19
102
{ACAD_REACTORS
330
C
102
}
330
C
100
AcDbDictionary
281
     1
  0
ACDBDICTIONARYWDFLT
  5
E
102
{ACAD_REACTORS
330
C
102
}
330
C
100
AcDbDictionary
281
     1
  3
Normal
350
F
100
AcDbDictionaryWithDefault
340
F
  0
DICTIONARY
  5
4F
102
{ACAD_REACTORS
330
C
102
}
330
C
100
AcDbDictionary
281
     1
  0
DICTIONARY
  5
2A
102
{ACAD_REACTORS
330
C
102
}
330
C
100
AcDbDictionary
281
     1
  3
2dWireframe
350
2F
  3
3D Hidden
350
31
  3
3dWireframe
350
30
  3
Basic
350
32
  3
Brighten
350
36
  3
ColorChange
350
3A
  3
Conceptual
350
34
  3
Dim
350
35
  3
Facepattern
350
39
  3
Flat
350
2B
  3
FlatWithEdges
350
2C
  3
Gouraud
350
2D
  3
GouraudWithEdges
350
2E
  3
Linepattern
350
38
  3
Realistic
350
33
  3
Thicken
350
37
  0
LAYOUT
  5
1E
102
{ACAD_REACTORS
330
1A
102
}
330
1A
100
AcDbPlotSettings
  1

  2
none_device
  4

  6

 40
0.0
 41
0.0
 42
0.0
 43
0.0
 44
0.0
 45
0.0
 46
0.0
 47
0.0
 48
0.0
 49
0.0
140
0.0
141
0.0
142
1.0
143
1.0
 70
   688
 72
     0
 73
     0
 74
     5
  7

 75
    16
 76
     0
 77
     2
 78
   300
147
1.0
148
0.0
149
0.0
100
AcDbLayout
  1
Layout1
 70
     1
 71
     1
 10
0.0
 20
0.0
 11
12.0
 21
9.0
 12
0.0
 22
0.0
 32
0.0
 14
1.000000000000000E+20
 24
1.000000000000000E+20
 34
1.000000000000000E+20
 15
-1.000000000000000E+20
 25
-1.000000000000000E+20
 35
-1.000000000000000E+20
146
0.0
 13
0.0
 23
0.0
 33
0.0
 16
1.0
 26
0.0
 36
0.0
 17
0.0
 27
1.0
 37
0.0
 76
     0
330
1B
  0
LAYOUT
  5
26
102
{ACAD_REACTORS
330
1A
102
}
330
1A
100
AcDbPlotSettings
  1

  2
none_device
  4

  6

 40
0.0
 41
0.0
 42
0.0
 43
0.0
 44
0.0
 45
0.0
 46
0.0
 47
0.0
 48
0.0
 49
0.0
140
0.0
141
0.0
142
1.0
143
1.0
 70
   688
 72
     0
 73
     0
 74
     5
  7

 75
    16
 76
     0
 77
     2
 78
   300
147
1.0
148
0.0
149
0.0
100
AcDbLayout
  1
Layout2
 70
     1
 71
     2
 10
0.0
 20
0.0
 11
0.0
 21
0.0
 12
0.0
 22
0.0
 32
0.0
 14
0.0
 24
0.0
 34
0.0
 15
0.0
 25
0.0
 35
0.0
146
0.0
 13
0.0
 23
0.0
 33
0.0
 16
1.0
 26
0.0
 36
0.0
 17
0.0
 27
1.0
 37
0.0
 76
     0
330
23
  0
LAYOUT
  5
22
102
{ACAD_REACTORS
330
1A
102
}
330
1A
100
AcDbPlotSettings
  1

  2
none_device
  4

  6

 40
0.0
 41
0.0
 42
0.0
 43
0.0
 44
0.0
 45
0.0
 46
0.0
 47
0.0
 48
0.0
 49
0.0
140
0.0
141
0.0
142
1.0
143
1.0
 70
  1712
 72
     0
 73
     0
 74
     0
  7

 75
     0
 76
     0
 77
     2
 78
   300
147
1.0
148
0.0
149
0.0
100
AcDbLayout
  1
Model
 70
     1
 71
     0
 10
0.0
 20
0.0
 11
12.0
 21
9.0
 12
0.0
 22
0.0
 32
0.0
 14
-18.25015668408821
 24
-0.0000000000000018
 34
0.0
 15
45.13619952735957
 25
53.75002997676624
 35
0.0
146
0.0
 13
0.0
 23
0.0
 33
0.0
 16
1.0
 26
0.0
 36
0.0
 17
0.0
 27
1.0
 37
0.0
 76
     0
330
1F
331
29
  0
MLINESTYLE
  5
18
102
{ACAD_REACTORS
330
17
102
}
330
17
100
AcDbMlineStyle
  2
Standard
 70
     0
  3

 62
   256
 51
90.0
 52
90.0
 71
     2
 49
0.5
 62
   256
  6
BYLAYER
 49
-0.5
 62
   256
  6
BYLAYER
  0
ACDBPLACEHOLDER
  5
F
102
{ACAD_REACTORS
330
E
102
}
330
E
  0
VISUALSTYLE
  5
2F
102
{ACAD_REACTORS
330
2A
102
}
330
2A
100
AcDbVisualStyle
  2
2dWireframe
 70
     4
 71
     0
 72
     2
 73
     0
 90
        0
 40
-0.6
 41
-30.0
 62
     5
 63
     7
421
 16777215
 74
     1
 91
        4
 64
     7
 65
   257
 75
     1
175
     1
 42
1.0
 92
        0
 66
   257
 43
1.0
 76
     1
 77
     6
 78
     2
 67
     7
 79
     5
170
     0
171
     0
290
     0
174
     0
 93
        1
 44
0.0
173
     0
291
     0
 45
0.0
1001
ACAD
1000
AcDbSavedByObjectVersion
1070
     0
  0
VISUALSTYLE
  5
31
102
{ACAD_REACTORS
330
2A
102
}
330
2A
100
AcDbVisualStyle
  2
3D Hidden
 70
     6
 71
     1
 72
     2
 73
     2
 90
        0
 40
-0.6
 41
-30.0
 62
     5
 63
     7
421
 16777215
 74
     2
 91
        2
 64
     7
 65
   257
 75
     2
175
     1
 42
40.0
 92
        0
 66
   257
 43
1.0
 76
     1
 77
     6
 78
     2
 67
     7
 79
     3
170
     0
171
     0
290
     0
174
     0
 93
        1
 44
0.0
173
     0
291
     0
 45
0.0
1001
ACAD
1000
AcDbSavedByObjectVersion
1070
     0
  0
VISUALSTYLE
  5
30
102
{ACAD_REACTORS
330
2A
102
}
330
2A
100
AcDbVisualStyle
  2
3dWireframe
 70
     5
 71
     0
 72
     2
 73
     0
 90
        0
 40
-0.6
 41
-30.0
 62
     5
 63
     7
421
 16777215
 74
     1
 91
        4
 64
     7
 65
   257
 75
     1
175
     1
 42
1.0
 92
        0
 66
   257
 43
1.0
 76
     1
 77
     6
 78
     2
 67
     7
 79
     5
170
     0
171
     0
290
     0
174
     0
 93
        1
 44
0.0
173
     0
291
     0
 45
0.0
1001
ACAD
1000
AcDbSavedByObjectVersion
1070
     0
  0
VISUALSTYLE
  5
32
102
{ACAD_REACTORS
330
2A
102
}
330
2A
100
AcDbVisualStyle
  2
Basic
 70
     7
 71
     1
 72
     0
 73
     1
 90
        0
 40
-0.6
 41
-30.0
 62
     5
 63
     7
421
 16777215
 74
     0
 91
        4
 64
     7
 65
   257
 75
     1
175
     1
 42
1.0
 92
        8
 66
     7
 43
1.0
 76
     1
 77
     6
 78
     2
 67
     7
 79
     5
170
     0
171
     0
290
     0
174
     0
 93
        1
 44
0.0
173
     0
291
     1
 45
0.0
1001
ACAD
1000
AcDbSavedByObjectVersion
1070
     0
  0
VISUALSTYLE
  5
36
102
{ACAD_REACTORS
330
2A
102
}
330
2A
100
AcDbVisualStyle
  2
Brighten
 70
    12
 71
     2
 72
     2
 73
     0
 90
        0
 40
-0.6
 41
-30.0
 62
     5
 63
     7
421
 16777215
 74
     1
 91
        4
 64
     7
 65
   257
 75
     1
175
     1
 42
1.0
 92
        8
 66
     7
 43
1.0
 76
     1
 77
     6
 78
     2
 67
     7
 79
     5
170
     0
171
     0
290
     0
174
     0
 93
        1
 44
50.0
173
     0
291
     1
 45
0.0
1001
ACAD
1000
AcDbSavedByObjectVersion
1070
     0
  0
VISUALSTYLE
  5
3A
102
{ACAD_REACTORS
330
2A
102
}
330
2A
100
AcDbVisualStyle
  2
ColorChange
 70
    16
 71
     2
 72
     2
 73
     3
 90
        0
 40
-0.6
 41
-30.0
 62
     5
 63
     8
421
  8421504
 74
     1
 91
        4
 64
     7
 65
   257
 75
     1
175
     1
 42
1.0
 92
        8
 66
     8
424
  8421504
 43
1.0
 76
     1
 77
     6
 78
     2
 67
     7
 79
     5
170
     0
171
     0
290
     0
174
     0
 93
        1
 44
0.0
173
     0
291
     1
 45
0.0
1001
ACAD
1000
AcDbSavedByObjectVersion
1070
     0
  0
VISUALSTYLE
  5
34
102
{ACAD_REACTORS
330
2A
102
}
330
2A
100
AcDbVisualStyle
  2
Conceptual
 70
     9
 71
     3
 72
     2
 73
     0
 90
        0
 40
-0.6
 41
-30.0
 62
     5
 63
     7
421
 16777215
 74
     2
 91
        2
 64
     7
 65
   257
 75
     1
175
     1
 42
40.0
 92
        8
 66
     7
 43
1.0
 76
     1
 77
     6
 78
     2
 67
     7
 79
     3
170
     0
171
     0
290
     0
174
     0
 93
        1
 44
0.0
173
     0
291
     0
 45
0.0
1001
ACAD
1000
AcDbSavedByObjectVersion
1070
     0
  0
VISUALSTYLE
  5
35
102
{ACAD_REACTORS
330
2A
102
}
330
2A
100
AcDbVisualStyle
  2
Dim
 70
    11
 71
     2
 72
     2
 73
     0
 90
        0
 40
-0.6
 41
-30.0
 62
     5
 63
     7
421
 16777215
 74
     1
 91
        4
 64
     7
 65
   257
 75
     1
175
     1
 42
1.0
 92
        8
 66
     7
 43
1.0
 76
     1
 77
     6
 78
     2
 67
     7
 79
     5
170
     0
171
     0
290
     0
174
     0
 93
        1
 44
-50.0
173
     0
291
     1
 45
0.0
1001
ACAD
1000
AcDbSavedByObjectVersion
1070
     0
  0
VISUALSTYLE
  5
39
102
{ACAD_REACTORS
330
2A
102
}
330
2A
100
AcDbVisualStyle
  2
Facepattern
 70
    15
 71
     2
 72
     2
 73
     0
 90
        0
 40
-0.6
 41
-30.0
 62
     5
 63
     7
421
 16777215
 74
     1
 91
        4
 64
     7
 65
   257
 75
     1
175
     1
 42
1.0
 92
        8
 66
     7
 43
1.0
 76
     1
 77
     6
 78
     2
 67
     7
 79
     5
170
     0
171
     0
290
     0
174
     0
 93
        1
 44
0.0
173
     0
291
     1
 45
0.0
1001
ACAD
1000
AcDbSavedByObjectVersion
1070
     0
  0
VISUALSTYLE
  5
2B
102
{ACAD_REACTORS
330
2A
102
}
330
2A
100
AcDbVisualStyle
  2
Flat
 70
     0
 71
     2
 72
     1
 73
     1
 90
        2
 40
-0.6
 41
30.0
 62
     5
 63
     7
421
 16777215
 74
     0
 91
        4
 64
     7
 65
   257
 75
     1
175
     1
 42
1.0
 92
        8
 66
     7
 43
1.0
 76
     1
 77
     6
 78
     2
 67
     7
 79
     5
170
     0
171
     0
290
     0
174
     0
 93
       13
 44
0.0
173
     0
291
     1
 45
0.0
1001
ACAD
1000
AcDbSavedByObjectVersion
1070
     0
  0
VISUALSTYLE
  5
2C
102
{ACAD_REACTORS
330
2A
102
}
330
2A
100
AcDbVisualStyle
  2
FlatWithEdges
 70
     1
 71
     2
 72
     1
 73
     1
 90
        2
 40
-0.6
 41
30.0
 62
     5
 63
     7
421
 16777215
 74
     1
 91
        4
 64
     7
 65
   257
 75
     1
175
     1
 42
1.0
 92
        0
 66
   257
 43
1.0
 76
     1
 77
     6
 78
     2
 67
     7
 79
     5
170
     0
171
     0
290
     0
174
     0
 93
       13
 44
0.0
173
     0
291
     1
 45
0.0
1001
ACAD
1000
AcDbSavedByObjectVersion
1070
     0
  0
VISUALSTYLE
  5
2D
102
{ACAD_REACTORS
330
2A
102
}
330
2A
100
AcDbVisualStyle
  2
Gouraud
 70
     2
 71
     2
 72
     2
 73
     1
 90
        2
 40
-0.6
 41
30.0
 62
     5
 63
     7
421
 16777215
 74
     0
 91
        4
 64
     7
 65
   257
 75
     1
175
     1
 42
1.0
 92
        0
 66
     7
 43
1.0
 76
     1
 77
     6
 78
     2
 67
     7
 79
     5
170
     0
171
     0
290
     0
174
     0
 93
       13
 44
0.0
173
     0
291
     1
 45
0.0
1001
ACAD
1000
AcDbSavedByObjectVersion
1070
     0
  0
VISUALSTYLE
  5
2E
102
{ACAD_REACTORS
330
2A
102
}
330
2A
100
AcDbVisualStyle
  2
GouraudWithEdges
 70
     3
 71
     2
 72
     2
 73
     1
 90
        2
 40
-0.6
 41
30.0
 62
     5
 63
     7
421
 16777215
 74
     1
 91
        4
 64
     7
 65
   257
 75
     1
175
     1
 42
1.0
 92
        0
 66
   257
 43
1.0
 76
     1
 77
     6
 78
     2
 67
     7
 79
     5
170
     0
171
     0
290
     0
174
     0
 93
       13
 44
0.0
173
     0
291
     1
 45
0.0
1001
ACAD
1000
AcDbSavedByObjectVersion
1070
     0
  0
VISUALSTYLE
  5
38
102
{ACAD_REACTORS
330
2A
102
}
330
2A
100
AcDbVisualStyle
  2
Linepattern
 70
    14
 71
     2
 72
     2
 73
     0
 90
        0
 40
-0.6
 41
-30.0
 62
     5
 63
     7
421
 16777215
 74
     1
 91
        4
 64
     7
 65
   257
 75
     7
175
     7
 42
1.0
 92
        8
 66
     7
 43
1.0
 76
     1
 77
     6
 78
     2
 67
     7
 79
     5
170
     0
171
     0
290
     0
174
     0
 93
        1
 44
0.0
173
     0
291
     1
 45
0.0
1001
ACAD
1000
AcDbSavedByObjectVersion
1070
     0
  0
VISUALSTYLE
  5
33
102
{ACAD_REACTORS
330
2A
102
}
330
2A
100
AcDbVisualStyle
  2
Realistic
 70
     8
 71
     2
 72
     2
 73
     0
 90
        0
 40
-0.6
 41
-30.0
 62
     5
 63
     7
421
 16777215
 74
     1
 91
        0
 64
     7
 65
   257
 75
     1
175
     1
 42
1.0
 92
        8
 66
     8
424
  7895160
 43
1.0
 76
     1
 77
     6
 78
     2
 67
     7
 79
     5
170
     0
171
     0
290
     0
174
     0
 93
       13
 44
0.0
173
     0
291
     0
 45
0.0
1001
ACAD
1000
AcDbSavedByObjectVersion
1070
     0
  0
VISUALSTYLE
  5
37
102
{ACAD_REACTORS
330
2A
102
}
330
2A
100
AcDbVisualStyle
  2
Thicken
 70
    13
 71
     2
 72
     2
 73
     0
 90
        0
 40
-0.6
 41
-30.0
 62
     5
 63
     7
421
 16777215
 74
     1
 91
        4
 64
     7
 65
   257
 75
     1
175
     1
 42
1.0
 92
       12
 66
     7
 43
1.0
 76
     1
 77
     6
 78
     2
 67
     7
 79
     5
170
     0
171
     0
290
     0
174
     0
 93
        1
 44
0.0
173
     0
291
     1
 45
0.0
1001
ACAD
1000
AcDbSavedByObjectVersion
1070
     0
  0
ENDSEC
  0
EOF
