  0
SECTION
  2
HEADER
  9
$ACADVER
  1
AC1018
  9
$ACADMAINTVER
 70
     0
  9
$DWGCODEPAGE
  3
ANSI_1252
  9
$INSBASE
 10
0.0
 20
0.0
 30
0.0
  9
$EXTMIN
 10
-11.04652564649684
 20
0.0
 30
0.0
  9
$EXTMAX
 10
42.63927361386279
 20
63.00154099144456
 30
0.0
  9
$LIMMIN
 10
0.0
 20
0.0
  9
$LIMMAX
 10
12.0
 20
9.0
  9
$ORTHOMODE
 70
     0
  9
$REGENMODE
 70
     1
  9
$FILLMODE
 70
     1
  9
$QTEXTMODE
 70
     0
  9
$MIRRTEXT
 70
     1
  9
$LTSCALE
 40
0.0393700787401575
  9
$ATTMODE
 70
     1
  9
$TEXTSIZE
 40
0.2
  9
$TRACEWID
 40
0.05
  9
$TEXTSTYLE
  7
Standard
  9
$CLAYER
  8
Default
  9
$CELTYPE
  6
ByLayer
  9
$CECOLOR
 62
   256
  9
$CELTSCALE
 40
1.0
  9
$DISPSILH
 70
     0
  9
$DIMSCALE
 40
1.0
  9
$DIMASZ
 40
0.18
  9
$DIMEXO
 40
0.0625
  9
$DIMDLI
 40
0.38
  9
$DIMRND
 40
0.0
  9
$DIMDLE
 40
0.0
  9
$DIMEXE
 40
0.18
  9
$DIMTP
 40
0.0
  9
$DIMTM
 40
0.0
  9
$DIMTXT
 40
0.18
  9
$DIMCEN
 40
0.09
  9
$DIMTSZ
 40
0.0
  9
$DIMTOL
 70
     0
  9
$DIMLIM
 70
     0
  9
$DIMTIH
 70
     1
  9
$DIMTOH
 70
     1
  9
$DIMSE1
 70
     0
  9
$DIMSE2
 70
     0
  9
$DIMTAD
 70
     0
  9
$DIMZIN
 70
     0
  9
$DIMBLK
  1

  9
$DIMASO
 70
     1
  9
$DIMSHO
 70
     1
  9
$DIMPOST
  1

  9
$DIMAPOST
  1

  9
$DIMALT
 70
     0
  9
$DIMALTD
 70
     2
  9
$DIMALTF
 40
25.4
  9
$DIMLFAC
 40
1.0
  9
$DIMTOFL
 70
     0
  9
$DIMTVP
 40
0.0
  9
$DIMTIX
 70
     0
  9
$DIMSOXD
 70
     0
  9
$DIMSAH
 70
     0
  9
$DIMBLK1
  1

  9
$DIMBLK2
  1

  9
$DIMSTYLE
  2
Standard
  9
$DIMCLRD
 70
     0
  9
$DIMCLRE
 70
     0
  9
$DIMCLRT
 70
     0
  9
$DIMTFAC
 40
1.0
  9
$DIMGAP
 40
0.09
  9
$DIMJUST
 70
     0
  9
$DIMSD1
 70
     0
  9
$DIMSD2
 70
     0
  9
$DIMTOLJ
 70
     1
  9
$DIMTZIN
 70
     0
  9
$DIMALTZ
 70
     0
  9
$DIMALTTZ
 70
     0
  9
$DIMUPT
 70
     0
  9
$DIMDEC
 70
     4
  9
$DIMTDEC
 70
     4
  9
$DIMALTU
 70
     2
  9
$DIMALTTD
 70
     2
  9
$DIMTXSTY
  7
Standard
  9
$DIMAUNIT
 70
     0
  9
$DIMADEC
 70
     0
  9
$DIMALTRND
 40
0.0
  9
$DIMAZIN
 70
     0
  9
$DIMDSEP
 70
    46
  9
$DIMATFIT
 70
     3
  9
$DIMFRAC
 70
     0
  9
$DIMLDRBLK
  1

  9
$DIMLUNIT
 70
     2
  9
$DIMLWD
 70
    -2
  9
$DIMLWE
 70
    -2
  9
$DIMTMOVE
 70
     2
  9
$LUNITS
 70
     2
  9
$LUPREC
 70
     3
  9
$SKETCHINC
 40
0.1
  9
$FILLETRAD
 40
0.5
  9
$AUNITS
 70
     0
  9
$AUPREC
 70
     0
  9
$MENU
  1
.
  9
$ELEVATION
 40
0.0
  9
$PELEVATION
 40
0.0
  9
$THICKNESS
 40
0.0
  9
$LIMCHECK
 70
     0
  9
$CHAMFERA
 40
0.5
  9
$CHAMFERB
 40
0.5
  9
$CHAMFERC
 40
1.0
  9
$CHAMFERD
 40
0.0
  9
$SKPOLY
 70
     0
  9
$TDCREATE
 40
2456427.669185949
  9
$TDUCREATE
 40
2456427.835852616
  9
$TDUPDATE
 40
2456427.669185961
  9
$TDUUPDATE
 40
2456427.835852627
  9
$TDINDWG
 40
0.0000000116
  9
$TDUSRTIMER
 40
0.0000000116
  9
$USRTIMER
 70
     1
  9
$ANGBASE
 50
0.0
  9
$ANGDIR
 70
     0
  9
$PDMODE
 70
     0
  9
$PDSIZE
 40
0.0
  9
$PLINEWID
 40
0.0
  9
$SPLFRAME
 70
     0
  9
$SPLINETYPE
 70
     6
  9
$SPLINESEGS
 70
     8
  9
$HANDSEED
  5
B4
  9
$SURFTAB1
 70
     6
  9
$SURFTAB2
 70
     6
  9
$SURFTYPE
 70
     6
  9
$SURFU
 70
     6
  9
$SURFV
 70
     6
  9
$UCSBASE
  2

  9
$UCSNAME
  2

  9
$UCSORG
 10
0.0
 20
0.0
 30
0.0
  9
$UCSXDIR
 10
1.0
 20
0.0
 30
0.0
  9
$UCSYDIR
 10
0.0
 20
1.0
 30
0.0
  9
$UCSORTHOREF
  2

  9
$UCSORTHOVIEW
 70
     0
  9
$UCSORGTOP
 10
0.0
 20
0.0
 30
0.0
  9
$UCSORGBOTTOM
 10
0.0
 20
0.0
 30
0.0
  9
$UCSORGLEFT
 10
0.0
 20
0.0
 30
0.0
  9
$UCSORGRIGHT
 10
0.0
 20
0.0
 30
0.0
  9
$UCSORGFRONT
 10
0.0
 20
0.0
 30
0.0
  9
$UCSORGBACK
 10
0.0
 20
0.0
 30
0.0
  9
$PUCSBASE
  2

  9
$PUCSNAME
  2

  9
$PUCSORG
 10
0.0
 20
0.0
 30
0.0
  9
$PUCSXDIR
 10
1.0
 20
0.0
 30
0.0
  9
$PUCSYDIR
 10
0.0
 20
1.0
 30
0.0
  9
$PUCSORTHOREF
  2

  9
$PUCSORTHOVIEW
 70
     0
  9
$PUCSORGTOP
 10
0.0
 20
0.0
 30
0.0
  9
$PUCSORGBOTTOM
 10
0.0
 20
0.0
 30
0.0
  9
$PUCSORGLEFT
 10
0.0
 20
0.0
 30
0.0
  9
$PUCSORGRIGHT
 10
0.0
 20
0.0
 30
0.0
  9
$PUCSORGFRONT
 10
0.0
 20
0.0
 30
0.0
  9
$PUCSORGBACK
 10
0.0
 20
0.0
 30
0.0
  9
$USERI1
 70
     0
  9
$USERI2
 70
     0
  9
$USERI3
 70
     0
  9
$USERI4
 70
     0
  9
$USERI5
 70
     0
  9
$USERR1
 40
0.0
  9
$USERR2
 40
0.0
  9
$USERR3
 40
0.0
  9
$USERR4
 40
0.0
  9
$USERR5
 40
0.0
  9
$WORLDVIEW
 70
     1
  9
$SHADEDGE
 70
     3
  9
$SHADEDIF
 70
    70
  9
$TILEMODE
 70
     1
  9
$MAXACTVP
 70
    64
  9
$PINSBASE
 10
0.0
 20
0.0
 30
0.0
  9
$PLIMCHECK
 70
     0
  9
$PEXTMIN
 10
1.000000000000000E+20
 20
1.000000000000000E+20
 30
1.000000000000000E+20
  9
$PEXTMAX
 10
-1.000000000000000E+20
 20
-1.000000000000000E+20
 30
-1.000000000000000E+20
  9
$PLIMMIN
 10
0.0
 20
0.0
  9
$PLIMMAX
 10
12.0
 20
9.0
  9
$UNITMODE
 70
     0
  9
$VISRETAIN
 70
     1
  9
$PLINEGEN
 70
     0
  9
$PSLTSCALE
 70
     1
  9
$TREEDEPTH
 70
  3020
  9
$CMLSTYLE
  2
Standard
  9
$CMLJUST
 70
     0
  9
$CMLSCALE
 40
1.0
  9
$PROXYGRAPHICS
 70
     1
  9
$MEASUREMENT
 70
     0
  9
$CELWEIGHT
370
    -1
  9
$ENDCAPS
280
     0
  9
$JOINSTYLE
280
     0
  9
$LWDISPLAY
290
     0
  9
$INSUNITS
 70
     1
  9
$HYPERLINKBASE
  1

  9
$STYLESHEET
  1

  9
$XEDIT
290
     1
  9
$CEPSNTYPE
380
     0
  9
$PSTYLEMODE
290
     1
  9
$FINGERPRINTGUID
  2
{4BB1BD35-B7B5-4C41-9F6B-7FAD11F97AF1}
  9
$VERSIONGUID
  2
{FAEB1C32-E019-11D5-929B-00C0DF256EC4}
  9
$EXTNAMES
290
     1
  9
$PSVPSCALE
 40
0.0
  9
$OLESTARTUP
290
     0
  9
$SORTENTS
280
   127
  9
$INDEXCTL
280
     0
  9
$HIDETEXT
280
     1
  9
$XCLIPFRAME
290
     0
  9
$HALOGAP
280
     0
  9
$OBSCOLOR
 70
   257
  9
$OBSLTYPE
280
     0
  9
$INTERSECTIONDISPLAY
280
     0
  9
$INTERSECTIONCOLOR
 70
   257
  9
$DIMASSOC
280
     2
  9
$PROJECTNAME
  1

  0
ENDSEC
  0
SECTION
  2
CLASSES
  0
CLASS
  1
ACDBDICTIONARYWDFLT
  2
AcDbDictionaryWithDefault
  3
ObjectDBX Classes
 90
        0
 91
        4
280
     0
281
     0
  0
CLASS
  1
VISUALSTYLE
  2
AcDbVisualStyle
  3
ObjectDBX Classes
 90
     4095
 91
        4
280
     0
281
     0
  0
ENDSEC
  0
SECTION
  2
TABLES
  0
TABLE
  2
VPORT
  5
8
330
0
100
AcDbSymbolTable
 70
     1
  0
VPORT
  5
29
330
8
100
AcDbSymbolTableRecord
100
AcDbViewportTableRecord
  2
*Active
 70
     0
 10
0.0
 20
0.0
 11
1.0
 21
1.0
 12
15.79637398368298
 22
31.50077049572228
 13
0.0
 23
0.0
 14
0.5
 24
0.5
 15
0.5
 25
0.5
 16
0.0
 26
0.0
 36
1.0
 17
0.0
 27
0.0
 37
0.0
 40
64.26157181127346
 41
0.8521347004456608
 42
50.0
 43
0.0
 44
0.0
 50
0.0
 51
0.0
 71
     0
 72
   100
 73
     1
 74
     3
 75
     0
 76
     0
 77
     0
 78
     0
281
     0
 65
     1
110
0.0
120
0.0
130
0.0
111
1.0
121
0.0
131
0.0
112
0.0
122
1.0
132
0.0
 79
     0
146
0.0
  0
ENDTAB
  0
TABLE
  2
LTYPE
  5
5
330
0
100
AcDbSymbolTable
 70
     1
  0
LTYPE
  5
14
330
5
100
AcDbSymbolTableRecord
100
AcDbLinetypeTableRecord
  2
ByBlock
 70
     0
  3

 72
    65
 73
     0
 40
0.0
  0
LTYPE
  5
15
330
5
100
AcDbSymbolTableRecord
100
AcDbLinetypeTableRecord
  2
ByLayer
 70
     0
  3

 72
    65
 73
     0
 40
0.0
  0
LTYPE
  5
16
330
5
100
AcDbSymbolTableRecord
100
AcDbLinetypeTableRecord
  2
Continuous
 70
     0
  3
Solid line
 72
    65
 73
     0
 40
0.0
  0
ENDTAB
  0
TABLE
  2
LAYER
  5
2
330
0
100
AcDbSymbolTable
 70
     2
  0
LAYER
  5
10
330
2
100
AcDbSymbolTableRecord
100
AcDbLayerTableRecord
  2
0
 70
     0
 62
     7
  6
Continuous
370
    -3
390
F
  0
LAYER
  5
3B
330
2
100
AcDbSymbolTableRecord
100
AcDbLayerTableRecord
  2
Default
 70
     0
 62
     7
  6
Continuous
370
    -3
390
F
  0
ENDTAB
  0
TABLE
  2
STYLE
  5
3
330
0
100
AcDbSymbolTable
 70
     1
  0
STYLE
  5
11
330
3
100
AcDbSymbolTableRecord
100
AcDbTextStyleTableRecord
  2
Standard
 70
     0
 40
0.0
 41
1.0
 50
0.0
 71
     0
 42
0.2
  3
txt
  4

  0
ENDTAB
  0
TABLE
  2
VIEW
  5
6
330
0
100
AcDbSymbolTable
 70
     0
  0
ENDTAB
  0
TABLE
  2
UCS
  5
7
330
0
100
AcDbSymbolTable
 70
     0
  0
ENDTAB
  0
TABLE
  2
APPID
  5
9
330
0
100
AcDbSymbolTable
 70
     1
  0
APPID
  5
12
330
9
100
AcDbSymbolTableRecord
100
AcDbRegAppTableRecord
  2
ACAD
 70
     0
  0
ENDTAB
  0
TABLE
  2
DIMSTYLE
  5
A
330
0
100
AcDbSymbolTable
 70
     1
100
AcDbDimStyleTable
  0
DIMSTYLE
105
27
330
A
100
AcDbSymbolTableRecord
100
AcDbDimStyleTableRecord
  2
Standard
 70
     0
340
11
  0
ENDTAB
  0
TABLE
  2
BLOCK_RECORD
  5
1
330
0
100
AcDbSymbolTable
 70
     1
  0
BLOCK_RECORD
  5
1F
330
1
100
AcDbSymbolTableRecord
100
AcDbBlockTableRecord
  2
*Model_Space
340
22
  0
BLOCK_RECORD
  5
1B
330
1
100
AcDbSymbolTableRecord
100
AcDbBlockTableRecord
  2
*Paper_Space
340
1E
  0
BLOCK_RECORD
  5
23
330
1
100
AcDbSymbolTableRecord
100
AcDbBlockTableRecord
  2
*Paper_Space0
340
26
  0
ENDTAB
  0
ENDSEC
  0
SECTION
  2
BLOCKS
  0
BLOCK
  5
20
330
1F
100
AcDbEntity
  8
0
100
AcDbBlockBegin
  2
*Model_Space
 70
     0
 10
0.0
 20
0.0
 30
0.0
  3
*Model_Space
  1

  0
ENDBLK
  5
21
330
1F
100
AcDbEntity
  8
0
100
AcDbBlockEnd
  0
BLOCK
  5
1C
330
1B
100
AcDbEntity
 67
     1
  8
0
100
AcDbBlockBegin
  2
*Paper_Space
 70
     0
 10
0.0
 20
0.0
 30
0.0
  3
*Paper_Space
  1

  0
ENDBLK
  5
1D
330
1B
100
AcDbEntity
 67
     1
  8
0
100
AcDbBlockEnd
  0
BLOCK
  5
24
330
23
100
AcDbEntity
  8
0
100
AcDbBlockBegin
  2
*Paper_Space0
 70
     0
 10
0.0
 20
0.0
 30
0.0
  3
*Paper_Space0
  1

  0
ENDBLK
  5
25
330
23
100
AcDbEntity
  8
0
100
AcDbBlockEnd
  0
ENDSEC
  0
SECTION
  2
ENTITIES
  0
SPLINE
  5
3C
330
1F
100
AcDbEntity
  8
Default
100
AcDbSpline
210
0.0
220
0.0
230
1.0
 70
    12
 71
     2
 72
     6
 73
     3
 74
     0
 42
0.0000000001
 43
0.0000000001
 40
0.0
 40
0.0
 40
0.0
 40
0.2861664651047432
 40
0.2861664651047432
 40
0.2861664651047432
 10
30.98564769251631
 20
13.39681971084325
 30
0.0
 41
1.0
 10
31.0082951958012
 20
13.2444749170713
 30
0.0
 41
0.8968210772143181
 10
31.14296283647139
 20
13.16973221073371
 30
0.0
 41
1.0
  0
SPLINE
  5
3D
330
1F
100
AcDbEntity
  8
Default
100
AcDbSpline
210
0.0
220
0.0
230
1.0
 70
    12
 71
     2
 72
     6
 73
     3
 74
     0
 42
0.0000000001
 43
0.0000000001
 40
-0.1723672673517484
 40
-0.1723672673517484
 40
-0.1723672673517484
 40
0.0
 40
0.0
 40
0.0
 10
31.14296283647139
 20
13.16973221073371
 30
0.0
 41
1.0
 10
31.21995979179662
 20
13.12736009705392
 30
0.0
 41
0.9636393985544873
 10
31.30778692353903
 20
13.13057289646593
 30
0.0
 41
0.9996234902295336
  0
SPLINE
  5
3E
330
1F
100
AcDbEntity
  8
Default
100
AcDbSpline
210
0.0
220
0.0
230
1.0
 70
     8
 71
     3
 72
    18
 73
    14
 74
     0
 42
0.0000000001
 43
0.0000000001
 40
0.0
 40
0.0
 40
0.0
 40
0.0
 40
2.498454727378087
 40
2.714833524927641
 40
3.543850338837356
 40
4.650738770477671
 40
5.177531080220576
 40
5.439461453878677
 40
5.858978480346594
 40
5.918062752423143
 40
5.971136058647126
 40
6.473400450840519
 40
7.036006541997945
 40
7.036006541997945
 40
7.036006541997945
 40
7.036006541997945
 10
31.30778692353903
 20
13.13057289646593
 30
0.0
 10
32.13998096516231
 20
13.15981689391103
 30
0.0
 10
33.04430049923276
 20
13.19097776507574
 30
0.0
 10
34.22472018974878
 20
13.23102218688131
 30
0.0
 10
34.94059185131916
 20
13.2847634962777
 30
0.0
 10
35.75128272434233
 20
13.41919525621499
 30
0.0
 10
36.36553009074454
 20
13.56830714659228
 30
0.0
 10
36.75276649788742
 20
13.67807587266838
 30
0.0
 10
36.98818192351278
 20
13.75500412866556
 30
0.0
 10
37.15877826366228
 20
13.79864043199649
 30
0.0
 10
37.36675020149623
 20
13.81006472164735
 30
0.0
 10
37.72312047241871
 20
13.62699536109366
 30
0.0
 10
37.8622605918996
 20
13.27890449066308
 30
0.0
 10
37.8902951488156
 20
13.09493034032474
 30
0.0
  0
LINE
  5
3F
330
1F
100
AcDbEntity
  8
Default
100
AcDbLine
 10
37.8902951488156
 20
13.09493034032474
 30
0.0
 11
40.28722074263214
 21
0.2579367879284669
 31
0.0
  0
SPLINE
  5
40
330
1F
100
AcDbEntity
  8
Default
100
AcDbSpline
210
0.0
220
0.0
230
1.0
 70
    24
 71
     2
 72
     6
 73
     3
 74
     0
 42
0.0000000001
 43
0.0000000001
 40
0.0012136873338033
 40
0.0012136873338033
 40
0.0012136873338033
 40
0.2150517729206354
 40
0.2150517729206354
 40
0.2150517729206354
 10
40.28722074263214
 20
0.2579367879284669
 30
0.0
 10
40.31062942799326
 20
0.1535062595721801
 30
0.0
 10
40.33403811335438
 20
0.0490757312158933
 30
0.0
  0
SPLINE
  5
41
330
1F
100
AcDbEntity
  8
Default
100
AcDbSpline
210
0.0
220
0.0
230
1.0
 70
    12
 71
     2
 72
     6
 73
     3
 74
     0
 42
0.0000000001
 43
0.0000000001
 40
0.0
 40
0.0
 40
0.0
 40
0.084331705136621
 40
0.084331705136621
 40
0.084331705136621
 10
40.33403811335438
 20
0.0490757312158933
 30
0.0
 41
1.0
 10
40.34527996205608
 20
0.0002460178942197
 30
0.0
 41
0.7829466988163735
 10
40.39517868610139
 20
0.0000000000379868
 30
0.0
 41
1.0
  0
POLYLINE
  5
42
330
1F
100
AcDbEntity
  8
Default
100
AcDb2dPolyline
 66
     1
 10
0.0
 20
0.0
 30
0.0
  0
VERTEX
  5
43
330
42
100
AcDbEntity
  8
Default
100
AcDbVertex
100
AcDb2dVertex
 10
40.39517868610139
 20
0.0000000000379868
 30
0.0
  0
VERTEX
  5
44
330
42
100
AcDbEntity
  8
Default
100
AcDbVertex
100
AcDb2dVertex
 10
40.88498131852482
 20
0.0000000000055862
 30
0.0
  0
SEQEND
  5
45
330
42
100
AcDbEntity
  8
Default
  0
SPLINE
  5
46
330
1F
100
AcDbEntity
  8
Default
100
AcDbSpline
210
0.0
220
0.0
230
1.0
 70
    12
 71
     2
 72
     8
 73
     5
 74
     0
 42
0.0000000001
 43
0.0000000001
 40
0.0
 40
0.0
 40
0.0
 40
0.0534209142794998
 40
0.0534209142794998
 40
0.1068418285589995
 40
0.1068418285589995
 40
0.1068418285589995
 10
40.88498131852482
 20
0.0000000000055862
 30
0.0
 41
1.0
 10
40.91340866317511
 20
0.0003184006950771
 30
0.0
 41
0.9117368549483392
 10
40.93200408634816
 20
0.0218224826303901
 30
0.0
 41
1.0
 10
40.95059950952119
 20
0.0433265645657032
 30
0.0
 41
0.9117368549483392
 10
40.94682031510199
 20
0.0716714200739245
 30
0.0
 41
1.0
  0
SPLINE
  5
47
330
1F
100
AcDbEntity
  8
Default
100
AcDbSpline
210
0.0
220
0.0
230
1.0
 70
    24
 71
     2
 72
     6
 73
     3
 74
     0
 42
0.0000000001
 43
0.0000000001
 40
0.0
 40
0.0
 40
0.0
 40
0.3037260983278289
 40
0.3037260983278289
 40
0.3037260983278289
 10
40.94682031510199
 20
0.0716714200739245
 30
0.0
 10
40.92390294773132
 20
0.2236049958509684
 30
0.0
 10
40.90098558036065
 20
0.3755385716280123
 30
0.0
  0
SPLINE
  5
48
330
1F
100
AcDbEntity
  8
Default
100
AcDbSpline
210
0.0
220
0.0
230
1.0
 70
     8
 71
     3
 72
    13
 73
     9
 74
     0
 42
0.0000000001
 43
0.0000000001
 40
0.0
 40
0.0
 40
0.0
 40
0.0
 40
13.13132614361425
 40
13.25283927170053
 40
13.3796911024436
 40
13.50530281638965
 40
13.61749615742871
 40
14.08665307688501
 40
14.08665307688501
 40
14.08665307688501
 40
14.08665307688501
 10
40.90098558036065
 20
0.3755385716280123
 30
0.0
 10
40.09489327037618
 20
4.681229072393599
 30
0.0
 10
39.28871524669253
 20
9.024725056696242
 30
0.0
 10
38.46668431339033
 20
13.40816222396328
 30
0.0
 10
38.41954534841315
 20
13.52508083907624
 30
0.0
 10
38.37871769021142
 20
13.63859123306074
 30
0.0
 10
38.26762242005499
 20
13.84776731555083
 30
0.0
 10
38.1493243730847
 20
14.00267317238204
 30
0.0
 10
38.03162164656381
 20
14.10680712511389
 30
0.0
  0
SPLINE
  5
49
330
1F
100
AcDbEntity
  8
Default
100
AcDbSpline
210
0.0
220
0.0
230
1.0
 70
     8
 71
     3
 72
    22
 73
    18
 74
     0
 42
0.0000000001
 43
0.0000000001
 40
0.0
 40
0.0
 40
0.0
 40
0.0
 40
0.2611084263175655
 40
0.515300843636795
 40
0.9953648308366342
 40
1.162742409533535
 40
1.847871133309759
 40
2.342229171290469
 40
2.78690762733222
 40
3.39150432749964
 40
5.281266000965689
 40
6.758650032228256
 40
6.892511132599586
 40
6.928377291778703
 40
7.045861415934731
 40
7.201419072996117
 40
7.331720725663573
 40
7.331720725663573
 40
7.331720725663573
 40
7.331720725663573
 10
38.03162164656381
 20
14.10680712511389
 30
0.0
 10
37.96677835542553
 20
14.16490743550539
 30
0.0
 10
37.82736418836691
 20
14.26654707533287
 30
0.0
 10
37.52387755196625
 20
14.40499233479952
 30
0.0
 10
37.21819651507253
 20
14.44577364481114
 30
0.0
 10
36.7825697685157
 20
14.35636243304402
 30
0.0
 10
36.35954936228332
 20
14.20090247618907
 30
0.0
 10
35.82944334483514
 20
14.08742595785331
 30
0.0
 10
35.32673791549614
 20
13.98065704507847
 30
0.0
 10
34.35481648268856
 20
13.84208289465885
 30
0.0
 10
33.02933126774525
 20
13.8264180876659
 30
0.0
 10
31.86413885672097
 20
13.77246427862771
 30
0.0
 10
31.31515111158235
 20
13.75701565596811
 30
0.0
 10
31.21960208184597
 20
13.75092458335607
 30
0.0
 10
31.12087170904916
 20
13.71389783922541
 30
0.0
 10
31.02215663515994
 20
13.61720092876821
 30
0.0
 10
30.99009502572168
 20
13.52518672401791
 30
0.0
 10
30.9846980325978
 20
13.48210528145524
 30
0.0
  0
SPLINE
  5
4A
330
1F
100
AcDbEntity
  8
Default
100
AcDbSpline
210
0.0
220
0.0
230
1.0
 70
     8
 71
     3
 72
     8
 73
     4
 74
     0
 42
0.0000000001
 43
0.0000000001
 40
0.0
 40
0.0
 40
0.0
 40
0.0
 40
1.0
 40
1.0
 40
1.0
 40
1.0
 10
40.28722074263214
 20
0.2579367879284669
 30
0.0
 10
40.44800413326341
 20
0.3424350454143604
 30
0.0
 10
40.8063724311977
 20
0.3949817166657227
 30
0.0
 10
40.90098558036065
 20
0.3755385716280123
 30
0.0
  0
SPLINE
  5
4B
330
1F
100
AcDbEntity
  8
Default
100
AcDbSpline
210
0.0
220
0.0
230
1.0
 70
     8
 71
     3
 72
    16
 73
    12
 74
     0
 42
0.0000000001
 43
0.0000000001
 40
0.0
 40
0.0
 40
0.0
 40
0.0
 40
1.0
 40
2.0
 40
3.0
 40
4.0
 40
5.0
 40
6.0
 40
7.0
 40
8.0
 40
9.0
 40
9.0
 40
9.0
 40
9.0
 10
38.03162164656696
 20
14.10680712514002
 30
0.0
 10
38.20731517264575
 20
14.14220282882516
 30
0.0
 10
38.55784448974407
 20
14.21725022499525
 30
0.0
 10
39.08071205119718
 20
14.34273600594466
 30
0.0
 10
39.60002525374144
 20
14.48222220978959
 30
0.0
 10
40.11548291725529
 20
14.63532514032968
 30
0.0
 10
40.62667170970339
 20
14.8021735321696
 30
0.0
 10
41.13422051789657
 20
14.97945691916942
 30
0.0
 10
41.63266015604017
 20
15.18315268920857
 30
0.0
 10
42.1113971619324
 20
15.42499802406383
 30
0.0
 10
42.42842279963449
 20
15.60065998345158
 30
0.0
 10
42.54287102878551
 20
15.74227614406534
 30
0.0
  0
SPLINE
  5
4C
330
1F
100
AcDbEntity
  8
Default
100
AcDbSpline
210
0.0
220
0.0
230
1.0
 70
    12
 71
     2
 72
    10
 73
     7
 74
     0
 42
0.0000000001
 43
0.0000000001
 40
0.0
 40
0.0
 40
0.0
 40
0.3610128653786452
 40
0.3610128653786452
 40
0.7220257307572904
 40
0.7220257307572904
 40
0.9403955496086217
 40
0.9403955496086217
 40
0.9403955496086217
 10
42.54287102878551
 20
15.74227614406534
 30
0.0
 41
1.0
 10
42.66258712616686
 20
15.89041066917395
 30
0.0
 41
0.9234069068612554
 10
42.63563310668154
 20
16.08157214490676
 30
0.0
 41
1.0
 10
42.61149841398557
 20
16.27049884526921
 30
0.0
 41
0.9234069068612554
 10
42.46055441037566
 20
16.38665263835687
 30
0.0
 41
1.0
 10
42.36329938547163
 20
16.46925159141529
 30
0.0
 41
0.9709044894272976
 10
42.25222242331864
 20
16.4772436290487
 30
0.0
 41
1.0
  0
SPLINE
  5
4D
330
1F
100
AcDbEntity
  8
Default
100
AcDbSpline
210
0.0
220
0.0
230
1.0
 70
     8
 71
     3
 72
    29
 73
    25
 74
     0
 42
0.0000000001
 43
0.0000000001
 40
-22.0
 40
-22.0
 40
-22.0
 40
-22.0
 40
-21.0
 40
-20.0
 40
-19.0
 40
-18.0
 40
-17.0
 40
-16.0
 40
-15.0
 40
-14.0
 40
-13.0
 40
-12.0
 40
-11.0
 40
-10.0
 40
-9.0
 40
-8.0
 40
-7.0
 40
-6.0
 40
-5.0
 40
-4.0
 40
-3.0
 40
-2.0
 40
-1.0
 40
0.0
 40
0.0
 40
0.0
 40
0.0
 10
42.25222242331864
 20
16.4772436290487
 30
0.0
 10
41.78140846934402
 20
16.51111890584384
 30
0.0
 10
40.83898412294437
 20
16.57336760780593
 30
0.0
 10
39.42312189126007
 20
16.61895574028537
 30
0.0
 10
38.00980008990243
 20
16.71664760018936
 30
0.0
 10
36.59985744121447
 20
16.85395959288869
 30
0.0
 10
35.1956809334976
 20
17.04174101313448
 30
0.0
 10
33.79976871995223
 20
17.2847466543787
 30
0.0
 10
32.42061040482886
 20
17.61137445370066
 30
0.0
 10
31.0730904469983
 20
18.05299604725795
 30
0.0
 10
29.77805471382327
 20
18.63302398776028
 30
0.0
 10
28.57443026872473
 20
19.38756961287583
 30
0.0
 10
27.49845026474076
 20
20.3140608256235
 30
0.0
 10
26.54298724173469
 20
21.36226974580602
 30
0.0
 10
25.68428785466484
 20
22.48993867299694
 30
0.0
 10
24.89469448801781
 20
23.66642871821791
 30
0.0
 10
24.15911429411655
 20
24.87722820183802
 30
0.0
 10
23.46329071135678
 20
26.11115573518095
 30
0.0
 10
22.79876710365891
 20
27.3621260318799
 30
0.0
 10
22.15549766501808
 20
28.62421150745574
 30
0.0
 10
21.52300055279754
 20
29.89127227758893
 30
0.0
 10
20.89262665818168
 20
31.16100013800491
 30
0.0
 10
20.24119561494394
 20
32.41417694419302
 30
0.0
 10
19.80962129301268
 20
33.26554967107081
 30
0.0
 10
19.47462333343971
 20
33.59839422126366
 30
0.0
  0
SPLINE
  5
4E
330
1F
100
AcDbEntity
  8
Default
100
AcDbSpline
210
0.0
220
0.0
230
1.0
 70
    12
 71
     2
 72
     8
 73
     5
 74
     0
 42
0.0000000001
 43
0.0000000001
 40
-1.043144546770031
 40
-1.043144546770031
 40
-1.043144546770031
 40
-0.7217250229051635
 40
-0.7217250229051635
 40
0.0
 40
0.0
 40
0.0
 10
19.47462333343971
 20
33.59839422126366
 30
0.0
 41
1.0
 10
19.35584886627274
 20
33.71640519108862
 30
0.0
 41
0.9408381630297333
 10
19.16637672220456
 20
33.66355734790326
 30
0.0
 41
1.0
 10
18.71075216333442
 20
33.58803577375657
 30
0.0
 41
0.7101239097327071
 10
18.77691323430636
 20
33.1347936317178
 30
0.0
 41
1.0
  0
SPLINE
  5
4F
330
1F
100
AcDbEntity
  8
Default
100
AcDbSpline
210
0.0
220
0.0
230
1.0
 70
    12
 71
     2
 72
     6
 73
     3
 74
     0
 42
0.0000000001
 43
0.0000000001
 40
0.0
 40
0.0
 40
0.0
 40
3.138664692171443
 40
3.138664692171443
 40
3.138664692171443
 10
18.77691323430636
 20
33.1347936317178
 30
0.0
 41
1.0
 10
19.00362559961292
 20
31.58168095429767
 30
0.0
 41
0.9997706126269916
 10
19.29664321943567
 20
30.03970230340156
 30
0.0
 41
1.0
  0
SPLINE
  5
50
330
1F
100
AcDbEntity
  8
Default
100
AcDbSpline
210
0.0
220
0.0
230
1.0
 70
     8
 71
     3
 72
    13
 73
     9
 74
     0
 42
0.0000000001
 43
0.0000000001
 40
0.0
 40
0.0
 40
0.0
 40
0.0
 40
3.423627121190626
 40
6.670877418148127
 40
12.22187906280191
 40
13.99284105660816
 40
15.27130505645865
 40
17.8363556217861
 40
17.8363556217861
 40
17.8363556217861
 40
17.8363556217861
 10
19.29664321943567
 20
30.03970230340156
 30
0.0
 10
19.50800308928873
 20
28.91835230374616
 30
0.0
 10
19.958550939735
 20
26.74008131694541
 30
0.0
 10
20.96476913112412
 20
22.79144346146472
 30
0.0
 10
22.12362962947406
 20
19.45716335320198
 30
0.0
 10
23.33556421885944
 20
16.85582379394662
 30
0.0
 10
24.39261001321075
 20
15.30157240596492
 30
0.0
 10
25.40117443201064
 20
14.46970661357039
 30
0.0
 10
26.17568916887815
 20
14.10177080891015
 30
0.0
  0
SPLINE
  5
51
330
1F
100
AcDbEntity
  8
Default
100
AcDbSpline
210
0.0
220
0.0
230
1.0
 70
     8
 71
     3
 72
     8
 73
     4
 74
     0
 42
0.0000000001
 43
0.0000000001
 40
0.0
 40
0.0
 40
0.0
 40
0.0
 40
1.0
 40
1.0
 40
1.0
 40
1.0
 10
21.75736754026313
 20
0.4064388213329764
 30
0.0
 10
21.88186406653099
 20
0.4590055725086526
 30
0.0
 10
22.32325610504244
 20
0.2919071579293205
 30
0.0
 10
22.35541695758249
 20
0.225276156508445
 30
0.0
  0
POLYLINE
  5
52
330
1F
100
AcDbEntity
  8
Default
100
AcDb2dPolyline
 66
     1
 10
0.0
 20
0.0
 30
0.0
  0
VERTEX
  5
53
330
52
100
AcDbEntity
  8
Default
100
AcDbVertex
100
AcDb2dVertex
 10
21.729563794724
 20
0.0000000000086595
 30
0.0
  0
VERTEX
  5
54
330
52
100
AcDbEntity
  8
Default
100
AcDbVertex
100
AcDb2dVertex
 10
22.23251317602496
 20
0.0000000006576357
 30
0.0
  0
SEQEND
  5
55
330
52
100
AcDbEntity
  8
Default
  0
SPLINE
  5
56
330
1F
100
AcDbEntity
  8
Default
100
AcDbSpline
210
0.0
220
0.0
230
1.0
 70
    12
 71
     2
 72
     6
 73
     3
 74
     0
 42
0.0000000001
 43
0.0000000001
 40
0.0
 40
0.0
 40
0.0
 40
0.076106728351277
 40
0.076106728351277
 40
0.076106728351277
 10
22.23251317602496
 20
0.0000000006576357
 30
0.0
 41
1.0
 10
22.27617731913092
 20
-0.0001417500304272
 30
0.0
 41
0.8179360321616792
 10
22.29136784076259
 20
0.0410435229498698
 30
0.0
 41
1.0
  0
SPLINE
  5
57
330
1F
100
AcDbEntity
  8
Default
100
AcDbSpline
210
0.0
220
0.0
230
1.0
 70
    24
 71
     2
 72
     6
 73
     3
 74
     0
 42
0.0000000001
 43
0.0000000001
 40
0.0
 40
0.0
 40
0.0
 40
0.1913127052450561
 40
0.1913127052450561
 40
0.1913127052450561
 10
22.29136784076259
 20
0.0410435229498698
 30
0.0
 10
22.32339239917254
 20
0.1331598397291574
 30
0.0
 10
22.35541695758249
 20
0.225276156508445
 30
0.0
  0
SPLINE
  5
58
330
1F
100
AcDbEntity
  8
Default
100
AcDbSpline
210
0.0
220
0.0
230
1.0
 70
     8
 71
     3
 72
    27
 73
    23
 74
     0
 42
0.0000000001
 43
0.0000000001
 40
-18.30247813977356
 40
-18.30247813977356
 40
-18.30247813977356
 40
-18.30247813977356
 40
-6.965179146410978
 40
-5.910390673178992
 40
-5.202595222750923
 40
-4.765305299875605
 40
-4.536019087691681
 40
-4.416857557259529
 40
-4.141394364612783
 40
-4.009240967270594
 40
-3.886369898495897
 40
-3.801320078158399
 40
-3.773148004695768
 40
-3.634647934631816
 40
-3.298548098771015
 40
-2.862815239384262
 40
-1.992737298039615
 40
-1.247715023439435
 40
-0.9240404559485144
 40
-0.8075652685674962
 40
-0.5786565024176974
 40
0.0
 40
0.0
 40
0.0
 40
0.0
 10
22.35541695758249
 20
0.225276156508445
 30
0.0
 10
23.46726509177065
 20
3.840785598096268
 30
0.0
 10
24.68166830059528
 20
7.78893359073955
 30
0.0
 10
25.96544599792743
 20
11.96248835150953
 30
0.0
 10
26.17965510115269
 20
12.66428285368432
 30
0.0
 10
26.31769631451303
 20
13.10008450575086
 30
0.0
 10
26.38903158059955
 20
13.35343943482735
 30
0.0
 10
26.48267324779307
 20
13.5393565648099
 30
0.0
 10
26.61080938194226
 20
13.66759600587389
 30
0.0
 10
26.77844690079111
 20
13.73126815237425
 30
0.0
 10
26.89288415588859
 20
13.73686027963173
 30
0.0
 10
26.97054515825885
 20
13.72132455487512
 30
0.0
 10
27.04894503040756
 20
13.6909619626399
 30
0.0
 10
27.19773461881413
 20
13.61384544890429
 30
0.0
 10
27.47250701759684
 20
13.48456236381284
 30
0.0
 10
27.98479888432083
 20
13.29119123894813
 30
0.0
 10
28.65006576320372
 20
13.123508630973
 30
0.0
 10
29.29561928819522
 20
13.06747368762512
 30
0.0
 10
29.69077771020684
 20
13.07398280740778
 30
0.0
 10
29.91365948897922
 20
13.0815091708894
 30
0.0
 10
30.22146458103482
 20
13.09284501842017
 30
0.0
 10
30.49050452915115
 20
13.10180417264546
 30
0.0
 10
30.68327138692417
 20
13.10865960795789
 30
0.0
  0
SPLINE
  5
59
330
1F
100
AcDbEntity
  8
Default
100
AcDbSpline
210
0.0
220
0.0
230
1.0
 70
    12
 71
     2
 72
     8
 73
     5
 74
     0
 42
0.0000000001
 43
0.0000000001
 40
0.0
 40
0.0
 40
0.0
 40
0.2707547564083625
 40
0.2707547564083625
 40
0.541509512816725
 40
0.541509512816725
 40
0.541509512816725
 10
30.68327138692417
 20
13.10865960795789
 30
0.0
 41
1.0
 10
30.82771691110943
 20
13.11364629276273
 30
0.0
 41
0.9076768009685363
 10
30.91748099983778
 20
13.22691959993449
 30
0.0
 41
1.0
 10
31.00724508856613
 20
13.34019290710625
 30
0.0
 41
0.9076768009685363
 10
30.97909298174595
 20
13.48195288955702
 30
0.0
 41
1.0
  0
SPLINE
  5
5A
330
1F
100
AcDbEntity
  8
Default
100
AcDbSpline
210
0.0
220
0.0
230
1.0
 70
    12
 71
     2
 72
     6
 73
     3
 74
     0
 42
0.0000000001
 43
0.0000000001
 40
0.0
 40
0.0
 40
0.0
 40
0.4405823698628943
 40
0.4405823698628943
 40
0.4405823698628943
 10
30.97909298174595
 20
13.48195288955702
 30
0.0
 41
1.0
 10
30.92716686572935
 20
13.74266368527456
 30
0.0
 41
0.7617725239004519
 10
30.66090789532031
 20
13.7332596604283
 30
0.0
 41
1.0
  0
SPLINE
  5
5B
330
1F
100
AcDbEntity
  8
Default
100
AcDbSpline
210
0.0
220
0.0
230
1.0
 70
    12
 71
     2
 72
     6
 73
     3
 74
     0
 42
0.0000000001
 43
0.0000000001
 40
0.0
 40
0.0
 40
0.0
 40
0.0600002888498161
 40
0.0600002888498161
 40
0.0600002888498161
 10
30.66090789532031
 20
13.7332596604283
 30
0.0
 41
1.0
 10
30.63033301199443
 20
13.73219161651939
 30
0.0
 41
0.9999999993752455
 10
30.60035108212326
 20
13.73114636656603
 30
0.0
 41
1.0
  0
SPLINE
  5
5C
330
1F
100
AcDbEntity
  8
Default
100
AcDbSpline
210
0.0
220
0.0
230
1.0
 70
     8
 71
     3
 72
    21
 73
    17
 74
     0
 42
0.0000000001
 43
0.0000000001
 40
0.0
 40
0.0
 40
0.0
 40
0.0
 40
0.7588050661465319
 40
0.8612398847395271
 40
1.164151867132565
 40
1.828146071802366
 40
2.605163114405107
 40
2.944611777431437
 40
3.102039216685475
 40
3.394621303269781
 40
3.55925086067319
 40
3.928854399033367
 40
4.705791322324506
 40
5.082497364828316
 40
5.247292178376871
 40
5.535125159475148
 40
5.535125159475148
 40
5.535125159475148
 40
5.535125159475148
 10
30.60035108212326
 20
13.73114636656603
 30
0.0
 10
30.3475697604769
 20
13.7223457092873
 30
0.0
 10
30.06065934173961
 20
13.71244765296059
 30
0.0
 10
29.67286607196592
 20
13.69857682094106
 30
0.0
 10
29.3163073520088
 20
13.69276439409167
 30
0.0
 10
28.73579460962058
 20
13.74529572137177
 30
0.0
 10
28.15881696736229
 20
13.89343217880104
 30
0.0
 10
27.7619277535094
 20
14.04463735454407
 30
0.0
 10
27.52081365464202
 20
14.15033586206332
 30
0.0
 10
27.34011853828921
 20
14.24735871828906
 30
0.0
 10
27.08290956835855
 20
14.34809965229979
 30
0.0
 10
26.63796983174295
 20
14.39210770971283
 30
0.0
 10
26.15689075243231
 20
14.15106287885738
 30
0.0
 10
25.89804068431766
 20
13.78845893053743
 30
0.0
 10
25.79360936939438
 20
13.53221540541013
 30
0.0
 10
25.74848610625902
 20
13.3882324212216
 30
0.0
 10
25.72144945823243
 20
13.29616578028181
 30
0.0
  0
ARC
  5
5D
330
1F
100
AcDbEntity
  8
Default
100
AcDbCircle
 10
72827.70835214977
 20
-22378.62734919949
 30
0.0
 40
76167.75916147445
100
AcDbArc
 50
162.9035173007492
 51
162.9051880198062
  0
LINE
  5
5E
330
1F
100
AcDbEntity
  8
Default
100
AcDbLine
 10
25.06854203134143
 20
11.17328319861554
 30
0.0
 11
21.75736754026313
 21
0.4064388213329764
 31
0.0
  0
SPLINE
  5
5F
330
1F
100
AcDbEntity
  8
Default
100
AcDbSpline
210
0.0
220
0.0
230
1.0
 70
    24
 71
     2
 72
     6
 73
     3
 74
     0
 42
0.0000000001
 43
0.0000000001
 40
0.0
 40
0.0
 40
0.0
 40
0.3350083667246571
 40
0.3350083667246571
 40
0.3350083667246571
 10
21.75736754026313
 20
0.4064388213329764
 30
0.0
 10
21.71343625166676
 20
0.2431647871621831
 30
0.0
 10
21.66950496307039
 20
0.0798907529913898
 30
0.0
  0
SPLINE
  5
60
330
1F
100
AcDbEntity
  8
Default
100
AcDbSpline
210
0.0
220
0.0
230
1.0
 70
    12
 71
     2
 72
     8
 73
     5
 74
     0
 42
0.0000000001
 43
0.0000000001
 40
0.0
 40
0.0
 40
0.0
 40
0.0569959014662461
 40
0.0569959014662461
 40
0.1139918029324921
 40
0.1139918029324921
 40
0.1139918029324921
 10
21.66950496307039
 20
0.0798907529913898
 30
0.0
 41
1.0
 10
21.66174091747809
 20
0.0490458137805351
 30
0.0
 41
0.9002424011405853
 10
21.68035623489468
 20
0.0247643708124248
 30
0.0
 41
1.0
 10
21.69897155231126
 20
0.0004829278443145
 30
0.0
 41
0.9002424011405853
 10
21.729563794724
 20
0.0000000000086595
 30
0.0
 41
1.0
  0
SPLINE
  5
61
330
1F
100
AcDbEntity
  8
Default
100
AcDbSpline
210
0.0
220
0.0
230
1.0
 70
     8
 71
     3
 72
    11
 73
     7
 74
     0
 42
0.0000000001
 43
0.0000000001
 40
0.0
 40
0.0
 40
0.0
 40
0.0
 40
0.3550468081668346
 40
0.7325513427300235
 40
1.588262143881692
 40
3.444381560200805
 40
3.444381560200805
 40
3.444381560200805
 40
3.444381560200805
 10
19.16637672220456
 20
33.66355734790326
 30
0.0
 10
19.23501001961081
 20
33.56714212678504
 30
0.0
 10
19.37196190778588
 20
33.3649361313695
 30
0.0
 10
19.65655342603693
 20
32.91845741744098
 30
0.0
 10
20.17775624581769
 20
32.03002569784807
 30
0.0
 10
20.58989898197612
 20
31.22485883990561
 30
0.0
 10
20.85522132925269
 20
30.66596382578915
 30
0.0
  0
SPLINE
  5
62
330
1F
100
AcDbEntity
  8
Default
100
AcDbSpline
210
0.0
220
0.0
230
1.0
 70
     8
 71
     3
 72
    15
 73
    11
 74
     0
 42
0.0000000001
 43
0.0000000001
 40
0.0
 40
0.0
 40
0.0
 40
0.0
 40
3.712241416446078
 40
7.017478787445079
 40
9.62207754337565
 40
11.74352318330824
 40
13.49375850776965
 40
15.38408399189258
 40
17.41256377413308
 40
19.68483750738211
 40
19.68483750738211
 40
19.68483750738211
 40
19.68483750738211
 10
20.85522132925269
 20
30.66596382578915
 30
0.0
 10
21.38278979793518
 20
29.54653037620918
 30
0.0
 10
22.41448114582579
 20
27.44701370240944
 30
0.0
 10
23.96639892485043
 20
24.63812861163566
 30
0.0
 10
25.41895848708481
 20
22.38750904195345
 30
0.0
 10
26.77751811644964
 20
20.70273045273536
 30
0.0
 10
28.22678483601152
 20
19.43012318012421
 30
0.0
 10
29.85687384489123
 20
18.46002888760436
 30
0.0
 10
31.77639331563783
 20
17.68900150229959
 30
0.0
 10
33.16907026397529
 20
17.33674845688785
 30
0.0
 10
33.90989227312564
 20
17.18053826492223
 30
0.0
  0
ARC
  5
63
330
1F
100
AcDbEntity
  8
Default
100
AcDbCircle
 10
43.61838684796841
 20
67.95988527246105
 30
0.0
 40
51.69910008328764
100
AcDbArc
 50
259.1762504869125
 51
264.5738548926577
  0
ARC
  5
64
330
1F
100
AcDbEntity
  8
Default
100
AcDbCircle
 10
60.74046594003123
 20
248.2145976648278
 30
0.0
 40
232.7651845168162
100
AcDbArc
 50
264.5738548926568
 51
265.5350328078293
  0
SPLINE
  5
65
330
1F
100
AcDbEntity
  8
Default
100
AcDbSpline
210
0.0
220
0.0
230
1.0
 70
    12
 71
     2
 72
     6
 73
     3
 74
     0
 42
0.0000000001
 43
0.0000000001
 40
0.0
 40
0.0
 40
0.0
 40
0.0725824983043871
 40
0.0725824983043871
 40
0.0725824983043871
 10
42.25925583735757
 20
16.4790539028135
 30
0.0
 41
1.0
 10
42.2889917101287
 20
16.50419539622409
 30
0.0
 41
0.9010254882803883
 10
42.28788647021425
 20
16.54318209083007
 30
0.0
 41
1.0
  0
SPLINE
  5
66
330
1F
100
AcDbEntity
  8
Default
100
AcDbSpline
210
0.0
220
0.0
230
1.0
 70
    24
 71
     2
 72
     6
 73
     3
 74
     0
 42
0.0000000001
 43
0.0000000001
 40
0.0
 40
0.0
 40
0.0
 40
1.239499913307997
 40
1.239499913307997
 40
1.239499913307997
 10
42.28788647021425
 20
16.54318209083007
 30
0.0
 10
42.26625697178662
 20
17.16261312497782
 30
0.0
 10
42.24462747335899
 20
17.78204415912558
 30
0.0
  0
SPLINE
  5
67
330
1F
100
AcDbEntity
  8
Default
100
AcDbSpline
210
0.0
220
0.0
230
1.0
 70
    12
 71
     2
 72
     6
 73
     3
 74
     0
 42
0.0000000001
 43
0.0000000001
 40
-0.2691881020962711
 40
-0.2691881020962711
 40
-0.2691881020962711
 40
0.0
 40
0.0
 40
0.0
 10
42.24462747335899
 20
17.78204415912558
 30
0.0
 41
1.0
 10
42.23949128226438
 20
17.93129619169454
 30
0.0
 41
0.8587125060025265
 10
42.10161967024402
 20
17.99963557348073
 30
0.0
 41
1.0
  0
SPLINE
  5
68
330
1F
100
AcDbEntity
  8
Default
100
AcDbSpline
210
0.0
220
0.0
230
1.0
 70
     8
 71
     3
 72
    13
 73
     9
 74
     0
 42
0.0000000001
 43
0.0000000001
 40
-8.60874551009116
 40
-8.60874551009116
 40
-8.60874551009116
 40
-8.60874551009116
 40
-8.164890503926276
 40
-7.554345267325147
 40
-5.795926942545215
 40
-3.289401317026415
 40
-1.732384340135659
 40
0.0
 40
0.0
 40
0.0
 40
0.0
 10
42.10161967024402
 20
17.99963557348073
 30
0.0
 10
41.96357613746939
 20
18.064984626708
 30
0.0
 10
41.62643644442093
 20
18.16879745339736
 30
0.0
 10
40.70064464122706
 20
18.32423782389281
 30
0.0
 10
39.07718064218858
 20
18.42808440170036
 30
0.0
 10
37.1366311424535
 20
18.44485813792412
 30
0.0
 10
35.20460996870311
 20
18.41434958201506
 30
0.0
 10
34.10874895845562
 20
18.38195201978511
 30
0.0
 10
33.53158793622512
 20
18.36176452012637
 30
0.0
  0
SPLINE
  5
69
330
1F
100
AcDbEntity
  8
Default
100
AcDbSpline
210
0.0
220
0.0
230
1.0
 70
    12
 71
     2
 72
     6
 73
     3
 74
     0
 42
0.0000000001
 43
0.0000000001
 40
-2.994734431851243
 40
-2.994734431851243
 40
-2.994734431851243
 40
-0.1549398838896712
 40
-0.1549398838896712
 40
-0.1549398838896712
 10
33.53158793622512
 20
18.36176452012637
 30
0.0
 41
1.0
 10
32.11243335676293
 20
18.31381755635243
 30
0.0
 41
0.9999272049757152
 10
30.69479725380792
 20
18.23253710764426
 30
0.0
 41
0.9999924675440396
  0
SPLINE
  5
6A
330
1F
100
AcDbEntity
  8
Default
100
AcDbSpline
210
0.0
220
0.0
230
1.0
 70
    12
 71
     2
 72
     6
 73
     3
 74
     0
 42
0.0000000001
 43
0.0000000001
 40
0.0
 40
0.0
 40
0.0
 40
0.9046474593315869
 40
0.9046474593315869
 40
0.9046474593315869
 10
-7.425636173398358
 20
41.79798841588901
 30
0.0
 41
1.0
 10
-7.656337346893295
 20
41.40892065184337
 30
0.0
 41
0.9999999999998572
 10
-7.887038105600324
 20
41.01985264101191
 30
0.0
 41
1.0
  0
SPLINE
  5
6B
330
1F
100
AcDbEntity
  8
Default
100
AcDbSpline
210
0.0
220
0.0
230
1.0
 70
     8
 71
     3
 72
    12
 73
     8
 74
     0
 42
0.0000000001
 43
0.0000000001
 40
0.0
 40
0.0
 40
0.0
 40
0.0
 40
1.0
 40
2.0
 40
3.0
 40
4.0
 40
5.0
 40
5.0
 40
5.0
 40
5.0
 10
-7.887038105600324
 20
41.01985264101191
 30
0.0
 10
-7.91985187345669
 20
40.96400351263699
 30
0.0
 10
-8.023561635924029
 20
40.8756524094002
 30
0.0
 10
-8.22660806151015
 20
40.86058368726392
 30
0.0
 10
-8.40144651483813
 20
40.96419724094515
 30
0.0
 10
-8.48564919542831
 20
41.14959394701054
 30
0.0
 10
-8.457921421086562
 20
41.28297731770044
 30
0.0
 10
-8.424659902228957
 20
41.33858105815567
 30
0.0
  0
SPLINE
  5
6C
330
1F
100
AcDbEntity
  8
Default
100
AcDbSpline
210
0.0
220
0.0
230
1.0
 70
    12
 71
     2
 72
     6
 73
     3
 74
     0
 42
0.0000000001
 43
0.0000000001
 40
0.0
 40
0.0
 40
0.0
 40
1.049828904369383
 40
1.049828904369383
 40
1.049828904369383
 10
-8.424659902228957
 20
41.33858105815567
 30
0.0
 41
1.0
 10
-8.156926665886061
 20
41.79010249904297
 30
0.0
 41
0.999999999999529
 10
-7.889201061603067
 20
42.24160906921342
 30
0.0
 41
1.0
  0
SPLINE
  5
6D
330
1F
100
AcDbEntity
  8
Default
100
AcDbSpline
210
0.0
220
0.0
230
1.0
 70
    12
 71
     2
 72
     6
 73
     3
 74
     0
 42
0.0000000001
 43
0.0000000001
 40
0.0
 40
0.0
 40
0.0
 40
0.4194736183751036
 40
0.4194736183751036
 40
0.4194736183751036
 10
-7.957929406095547
 20
40.92957774139722
 30
0.0
 41
1.0
 10
-8.12380938632108
 20
40.74151579235901
 30
0.0
 41
0.7717155079362702
 10
-8.340103787769426
 20
40.8684023417556
 30
0.0
 41
1.0
  0
SPLINE
  5
6E
330
1F
100
AcDbEntity
  8
Default
100
AcDbSpline
210
0.0
220
0.0
230
1.0
 70
    12
 71
     2
 72
     6
 73
     3
 74
     0
 42
0.0000000001
 43
0.0000000001
 40
0.0
 40
0.0
 40
0.0
 40
0.4195125781948567
 40
0.4195125781948567
 40
0.4195125781948567
 10
-8.340103787769426
 20
40.8684023417556
 30
0.0
 41
1.0
 10
-8.555422089073812
 20
40.99719387537978
 30
0.0
 41
0.7712498394721204
 10
-8.46980364268603
 20
41.23303007202485
 30
0.0
 41
1.0
  0
SPLINE
  5
6F
330
1F
100
AcDbEntity
  8
Default
100
AcDbSpline
210
0.0
220
0.0
230
1.0
 70
    12
 71
     2
 72
     6
 73
     3
 74
     0
 42
0.0000000001
 43
0.0000000001
 40
0.0
 40
0.0
 40
0.0
 40
0.9046474593315869
 40
0.9046474593315869
 40
0.9046474593315869
 10
7.425636173398358
 20
41.79798841588901
 30
0.0
 41
1.0
 10
7.656337346893295
 20
41.40892065184337
 30
0.0
 41
0.9999999999998572
 10
7.887038105600324
 20
41.01985264101191
 30
0.0
 41
1.0
  0
SPLINE
  5
70
330
1F
100
AcDbEntity
  8
Default
100
AcDbSpline
210
0.0
220
0.0
230
1.0
 70
     8
 71
     3
 72
    12
 73
     8
 74
     0
 42
0.0000000001
 43
0.0000000001
 40
0.0
 40
0.0
 40
0.0
 40
0.0
 40
1.0
 40
2.0
 40
3.0
 40
4.0
 40
5.0
 40
5.0
 40
5.0
 40
5.0
 10
7.887038105600324
 20
41.01985264101191
 30
0.0
 10
7.91985187345669
 20
40.96400351263699
 30
0.0
 10
8.023561635924029
 20
40.8756524094002
 30
0.0
 10
8.22660806151015
 20
40.86058368726392
 30
0.0
 10
8.40144651483813
 20
40.96419724094515
 30
0.0
 10
8.48564919542831
 20
41.14959394701054
 30
0.0
 10
8.457921421086562
 20
41.28297731770044
 30
0.0
 10
8.424659902228957
 20
41.33858105815567
 30
0.0
  0
SPLINE
  5
71
330
1F
100
AcDbEntity
  8
Default
100
AcDbSpline
210
0.0
220
0.0
230
1.0
 70
    12
 71
     2
 72
     6
 73
     3
 74
     0
 42
0.0000000001
 43
0.0000000001
 40
0.0
 40
0.0
 40
0.0
 40
1.049828904369383
 40
1.049828904369383
 40
1.049828904369383
 10
8.424659902228957
 20
41.33858105815567
 30
0.0
 41
1.0
 10
8.156926665886061
 20
41.79010249904297
 30
0.0
 41
0.999999999999529
 10
7.889201061603067
 20
42.24160906921342
 30
0.0
 41
1.0
  0
SPLINE
  5
72
330
1F
100
AcDbEntity
  8
Default
100
AcDbSpline
210
0.0
220
0.0
230
1.0
 70
    12
 71
     2
 72
     6
 73
     3
 74
     0
 42
0.0000000001
 43
0.0000000001
 40
0.0
 40
0.0
 40
0.0
 40
0.4194736183751036
 40
0.4194736183751036
 40
0.4194736183751036
 10
7.957929406095547
 20
40.92957774139722
 30
0.0
 41
1.0
 10
8.12380938632108
 20
40.74151579235901
 30
0.0
 41
0.7717155079362702
 10
8.340103787769426
 20
40.8684023417556
 30
0.0
 41
1.0
  0
SPLINE
  5
73
330
1F
100
AcDbEntity
  8
Default
100
AcDbSpline
210
0.0
220
0.0
230
1.0
 70
    12
 71
     2
 72
     6
 73
     3
 74
     0
 42
0.0000000001
 43
0.0000000001
 40
0.0
 40
0.0
 40
0.0
 40
0.4195125781948567
 40
0.4195125781948567
 40
0.4195125781948567
 10
8.340103787769426
 20
40.8684023417556
 30
0.0
 41
1.0
 10
8.555422089073812
 20
40.99719387537978
 30
0.0
 41
0.7712498394721204
 10
8.46980364268603
 20
41.23303007202485
 30
0.0
 41
1.0
  0
SPLINE
  5
74
330
1F
100
AcDbEntity
  8
Default
100
AcDbSpline
210
0.0
220
0.0
230
1.0
 70
     8
 71
     3
 72
    24
 73
    20
 74
     0
 42
0.0000000001
 43
0.0000000001
 40
0.0
 40
0.0
 40
0.0
 40
0.0
 40
1.0
 40
2.0
 40
3.0
 40
4.0
 40
5.0
 40
6.0
 40
7.0
 40
8.0
 40
9.0
 40
10.0
 40
11.0
 40
12.0
 40
13.0
 40
14.0
 40
15.0
 40
16.0
 40
17.0
 40
17.0
 40
17.0
 40
17.0
 10
0.0
 20
39.13421513707289
 30
0.0
 10
0.7230263861971434
 20
39.13393499910233
 30
0.0
 10
2.169516733148705
 20
39.25081957991433
 30
0.0
 10
4.274693213043686
 20
39.81182066781454
 30
0.0
 10
6.226137191315247
 20
40.7857830113917
 30
0.0
 10
7.922401399915691
 20
42.15915496578737
 30
0.0
 10
9.271651906655213
 20
43.87254203070696
 30
0.0
 10
10.26040643039143
 20
45.81425357867107
 30
0.0
 10
10.85056172628411
 20
47.910789593743
 30
0.0
 10
11.08947774355149
 20
50.07240662461916
 30
0.0
 10
11.02838394147405
 20
52.24549880965161
 30
0.0
 10
10.67185054997655
 20
54.38892622973616
 30
0.0
 10
10.06500059387059
 20
56.47628399957881
 30
0.0
 10
9.18948729812527
 20
58.46297135484757
 30
0.0
 10
8.004515928182474
 20
60.30239653717393
 30
0.0
 10
6.311163487489802
 20
61.69381091217922
 30
0.0
 10
4.317199891913726
 20
62.59171104684833
 30
0.0
 10
2.170816627905229
 20
62.97768124093331
 30
0.0
 10
0.722817144279272
 20
63.00056070235593
 30
0.0
 10
0.0
 20
63.00154099144456
 30
0.0
  0
SPLINE
  5
75
330
1F
100
AcDbEntity
  8
Default
100
AcDbSpline
210
0.0
220
0.0
230
1.0
 70
     8
 71
     3
 72
    24
 73
    20
 74
     0
 42
0.0000000001
 43
0.0000000001
 40
-17.0
 40
-17.0
 40
-17.0
 40
-17.0
 40
-16.0
 40
-15.0
 40
-14.0
 40
-13.0
 40
-12.0
 40
-11.0
 40
-10.0
 40
-9.0
 40
-8.0
 40
-7.0
 40
-6.0
 40
-5.0
 40
-4.0
 40
-3.0
 40
-2.0
 40
-1.0
 40
0.0
 40
0.0
 40
0.0
 40
0.0
 10
0.0
 20
63.00154099144456
 30
0.0
 10
-0.722817144279272
 20
63.00056070235593
 30
0.0
 10
-2.170816627905229
 20
62.97768124093331
 30
0.0
 10
-4.317199891913726
 20
62.59171104684833
 30
0.0
 10
-6.311163487489802
 20
61.69381091217922
 30
0.0
 10
-8.004515928182474
 20
60.30239653717393
 30
0.0
 10
-9.18948729812527
 20
58.46297135484757
 30
0.0
 10
-10.06500059387059
 20
56.47628399957881
 30
0.0
 10
-10.67185054997655
 20
54.38892622973616
 30
0.0
 10
-11.02838394147405
 20
52.24549880965161
 30
0.0
 10
-11.08947774355149
 20
50.07240662461916
 30
0.0
 10
-10.85056172628411
 20
47.910789593743
 30
0.0
 10
-10.26040643039143
 20
45.81425357867107
 30
0.0
 10
-9.271651906655213
 20
43.87254203070696
 30
0.0
 10
-7.922401399915691
 20
42.15915496578737
 30
0.0
 10
-6.226137191315247
 20
40.7857830113917
 30
0.0
 10
-4.274693213043686
 20
39.81182066781454
 30
0.0
 10
-2.169516733148705
 20
39.25081957991433
 30
0.0
 10
-0.7230263861971434
 20
39.13393499910233
 30
0.0
 10
0.0
 20
39.13421513707289
 30
0.0
  0
SPLINE
  5
76
330
1F
100
AcDbEntity
  8
Default
100
AcDbSpline
210
0.0
220
0.0
230
1.0
 70
     8
 71
     3
 72
    24
 73
    20
 74
     0
 42
0.0000000001
 43
0.0000000001
 40
-17.0
 40
-17.0
 40
-17.0
 40
-17.0
 40
-16.0
 40
-15.0
 40
-14.0
 40
-13.0
 40
-12.0
 40
-11.0
 40
-10.0
 40
-9.0
 40
-8.0
 40
-7.0
 40
-6.0
 40
-5.0
 40
-4.0
 40
-3.0
 40
-2.0
 40
-1.0
 40
0.0
 40
0.0
 40
0.0
 40
0.0
 10
-4.168912196939158
 20
39.85068282388424
 30
0.0
 10
-4.757830164599354
 20
40.06789886405294
 30
0.0
 10
-5.882321500311064
 20
40.63597886613071
 30
0.0
 10
-7.392301651997566
 20
41.77312632785099
 30
0.0
 10
-8.653451034696815
 20
43.18119932487151
 30
0.0
 10
-9.639404071985506
 20
44.79333734334935
 30
0.0
 10
-10.31683604801561
 20
46.55707367356903
 30
0.0
 10
-10.68794856776621
 20
48.40751315745892
 30
0.0
 10
-10.8158797123478
 20
50.28799169445146
 30
0.0
 10
-10.73811269171958
 20
52.17147378604508
 30
0.0
 10
-10.43739236242603
 20
54.03197902729188
 30
0.0
 10
-9.953147176411248
 20
55.85294323955245
 30
0.0
 10
-9.311871762590332
 20
57.62323598321361
 30
0.0
 10
-8.428701527827092
 20
59.2974585296173
 30
0.0
 10
-7.15422691814091
 20
60.70442930366886
 30
0.0
 10
-5.535263330277113
 20
61.69562877298745
 30
0.0
 10
-3.754651347569796
 20
62.3320344134857
 30
0.0
 10
-1.882416490377448
 20
62.5863468634228
 30
0.0
 10
-0.6274160576532298
 20
62.60607283355171
 30
0.0
 10
0.0
 20
62.60695028350627
 30
0.0
  0
SPLINE
  5
77
330
1F
100
AcDbEntity
  8
Default
100
AcDbSpline
210
0.0
220
0.0
230
1.0
 70
     8
 71
     3
 72
    24
 73
    20
 74
     0
 42
0.0000000001
 43
0.0000000001
 40
0.0
 40
0.0
 40
0.0
 40
0.0
 40
1.0
 40
2.0
 40
3.0
 40
4.0
 40
5.0
 40
6.0
 40
7.0
 40
8.0
 40
9.0
 40
10.0
 40
11.0
 40
12.0
 40
13.0
 40
14.0
 40
15.0
 40
16.0
 40
17.0
 40
17.0
 40
17.0
 40
17.0
 10
0.0
 20
62.60695028350627
 30
0.0
 10
0.6274160576532298
 20
62.60607283355171
 30
0.0
 10
1.882416490377448
 20
62.5863468634228
 30
0.0
 10
3.754651347569796
 20
62.3320344134857
 30
0.0
 10
5.535263330277113
 20
61.69562877298745
 30
0.0
 10
7.15422691814091
 20
60.70442930366886
 30
0.0
 10
8.428701527827092
 20
59.2974585296173
 30
0.0
 10
9.311871762590332
 20
57.62323598321361
 30
0.0
 10
9.953147176411248
 20
55.85294323955245
 30
0.0
 10
10.43739236242603
 20
54.03197902729188
 30
0.0
 10
10.73811269171958
 20
52.17147378604508
 30
0.0
 10
10.8158797123478
 20
50.28799169445146
 30
0.0
 10
10.68794856776621
 20
48.40751315745892
 30
0.0
 10
10.31683604801561
 20
46.55707367356903
 30
0.0
 10
9.639404071985506
 20
44.79333734334935
 30
0.0
 10
8.653451034696815
 20
43.18119932487151
 30
0.0
 10
7.392301651997566
 20
41.77312632785099
 30
0.0
 10
5.882321500311064
 20
40.63597886613071
 30
0.0
 10
4.757830164599354
 20
40.06789886405294
 30
0.0
 10
4.168912196939158
 20
39.85068282388424
 30
0.0
  0
SPLINE
  5
78
330
1F
100
AcDbEntity
  8
Default
100
AcDbSpline
210
0.0
220
0.0
230
1.0
 70
     8
 71
     3
 72
    15
 73
    11
 74
     0
 42
0.0000000001
 43
0.0000000001
 40
0.0
 40
0.0
 40
0.0
 40
0.0
 40
1.0
 40
2.0
 40
3.0
 40
4.0
 40
5.0
 40
6.0
 40
7.0
 40
8.0
 40
8.0
 40
8.0
 40
8.0
 10
0.0
 20
39.48543969729007
 30
0.0
 10
1.137498693171909
 20
39.48460046453192
 30
0.0
 10
3.411600255820815
 20
39.93777876874047
 30
0.0
 10
6.30389510818692
 20
41.86900245407276
 30
0.0
 10
8.238009114439889
 20
44.76123521624024
 30
0.0
 10
8.910083231834104
 20
48.17246001970376
 30
0.0
 10
8.247165580276226
 20
51.5863096745796
 30
0.0
 10
6.307482729246779
 20
54.47628488000495
 30
0.0
 10
3.412017390419867
 20
56.40252011774368
 30
0.0
 10
1.137397219340353
 20
56.85246316617346
 30
0.0
 10
0.0
 20
56.85186201941301
 30
0.0
  0
SPLINE
  5
79
330
1F
100
AcDbEntity
  8
Default
100
AcDbSpline
210
0.0
220
0.0
230
1.0
 70
     8
 71
     3
 72
    15
 73
    11
 74
     0
 42
0.0000000001
 43
0.0000000001
 40
-8.0
 40
-8.0
 40
-8.0
 40
-8.0
 40
-7.0
 40
-6.0
 40
-5.0
 40
-4.0
 40
-3.0
 40
-2.0
 40
-1.0
 40
0.0
 40
0.0
 40
0.0
 40
0.0
 10
0.0
 20
56.85186201941301
 30
0.0
 10
-1.137397219340353
 20
56.85246316617346
 30
0.0
 10
-3.412017390419867
 20
56.40252011774368
 30
0.0
 10
-6.307482729246779
 20
54.47628488000495
 30
0.0
 10
-8.247165580276226
 20
51.5863096745796
 30
0.0
 10
-8.910083231834104
 20
48.17246001970376
 30
0.0
 10
-8.238009114439889
 20
44.76123521624024
 30
0.0
 10
-6.30389510818692
 20
41.86900245407276
 30
0.0
 10
-3.411600255820815
 20
39.93777876874047
 30
0.0
 10
-1.137498693171909
 20
39.48460046453192
 30
0.0
 10
0.0
 20
39.48543969729007
 30
0.0
  0
SPLINE
  5
7A
330
1F
100
AcDbEntity
  8
Default
100
AcDbSpline
210
0.0
220
0.0
230
1.0
 70
     8
 71
     3
 72
    10
 73
     6
 74
     0
 42
0.0000000001
 43
0.0000000001
 40
0.0
 40
0.0
 40
0.0
 40
0.0
 40
1.0
 40
2.0
 40
3.0
 40
3.0
 40
3.0
 40
3.0
 10
-8.371738751577762
 20
59.66652448091472
 30
0.0
 10
-8.405572275024078
 20
59.73488573702426
 30
0.0
 10
-8.41812746791719
 20
59.89680592062149
 30
0.0
 10
-8.269143494371933
 20
60.09192988948205
 30
0.0
 10
-8.106111056541701
 20
60.11404109427679
 30
0.0
 10
-8.032491272942263
 20
60.09527464017933
 30
0.0
  0
SPLINE
  5
7B
330
1F
100
AcDbEntity
  8
Default
100
AcDbSpline
210
0.0
220
0.0
230
1.0
 70
     8
 71
     3
 72
    10
 73
     6
 74
     0
 42
0.0000000001
 43
0.0000000001
 40
0.0
 40
0.0
 40
0.0
 40
0.0
 40
1.0
 40
2.0
 40
3.0
 40
3.0
 40
3.0
 40
3.0
 10
8.371738751577762
 20
59.66652448091472
 30
0.0
 10
8.405572275024078
 20
59.73488573702426
 30
0.0
 10
8.41812746791719
 20
59.89680592062149
 30
0.0
 10
8.269143494371933
 20
60.09192988948205
 30
0.0
 10
8.106111056541701
 20
60.11404109427679
 30
0.0
 10
8.032491272942263
 20
60.09527464017933
 30
0.0
  0
SPLINE
  5
7C
330
1F
100
AcDbEntity
  8
Default
100
AcDbSpline
210
0.0
220
0.0
230
1.0
 70
     8
 71
     3
 72
    10
 73
     6
 74
     0
 42
0.0000000001
 43
0.0000000001
 40
0.0
 40
0.0
 40
0.0
 40
0.0
 40
1.0
 40
2.0
 40
3.0
 40
3.0
 40
3.0
 40
3.0
 10
8.359009525973665
 20
59.67913033500037
 30
0.0
 10
8.36290044830205
 20
59.72940613680237
 30
0.0
 10
8.343517112379471
 20
59.83154314499177
 30
0.0
 10
8.246852131058105
 20
59.95313949076247
 30
0.0
 10
8.153598567020895
 20
59.99766909255264
 30
0.0
 10
8.10434705325684
 20
60.00838550648801
 30
0.0
  0
SPLINE
  5
7D
330
1F
100
AcDbEntity
  8
Default
100
AcDbSpline
210
0.0
220
0.0
230
1.0
 70
     8
 71
     3
 72
    10
 73
     6
 74
     0
 42
0.0000000001
 43
0.0000000001
 40
0.0
 40
0.0
 40
0.0
 40
0.0
 40
1.0
 40
2.0
 40
3.0
 40
3.0
 40
3.0
 40
3.0
 10
-8.359009525973665
 20
59.67913033500037
 30
0.0
 10
-8.36290044830205
 20
59.72940613680237
 30
0.0
 10
-8.343517112379471
 20
59.83154314499177
 30
0.0
 10
-8.246852131058105
 20
59.95313949076247
 30
0.0
 10
-8.153598567020895
 20
59.99766909255264
 30
0.0
 10
-8.10434705325684
 20
60.00838550648801
 30
0.0
  0
SPLINE
  5
7E
330
1F
100
AcDbEntity
  8
Default
100
AcDbSpline
210
0.0
220
0.0
230
1.0
 70
     8
 71
     3
 72
    10
 73
     6
 74
     0
 42
0.0000000001
 43
0.0000000001
 40
0.0
 40
0.0
 40
0.0
 40
0.0
 40
5.407683065167628
 40
5.650053157414197
 40
5.794805861518953
 40
5.794805861518953
 40
5.794805861518953
 40
5.794805861518953
 10
-6.991309506474936
 20
7.993483538179378
 30
0.0
 10
-6.672833581996565
 20
9.767686475100874
 30
0.0
 10
-6.339644272244723
 20
11.62133396412541
 30
0.0
 10
-5.998940751405816
 20
13.52264622103729
 30
0.0
 10
-5.966719749401227
 20
13.64781002323121
 30
0.0
 10
-5.952785614230345
 20
13.69394515162977
 30
0.0
  0
SPLINE
  5
7F
330
1F
100
AcDbEntity
  8
Default
100
AcDbSpline
210
0.0
220
0.0
230
1.0
 70
     8
 71
     3
 72
     8
 73
     4
 74
     0
 42
0.0000000001
 43
0.0000000001
 40
0.0
 40
0.0
 40
0.0
 40
0.0
 40
1.0
 40
1.0
 40
1.0
 40
1.0
 10
-8.466209909806661
 20
0.3518417933221788
 30
0.0
 10
-8.376818303127191
 20
0.4244707038846883
 30
0.0
 10
-7.903202577567432
 20
0.361359174417409
 30
0.0
 10
-7.845247889127237
 20
0.2811654368300103
 30
0.0
  0
SPLINE
  5
80
330
1F
100
AcDbEntity
  8
Default
100
AcDbSpline
210
0.0
220
0.0
230
1.0
 70
     8
 71
     3
 72
     9
 73
     5
 74
     0
 42
0.0000000001
 43
0.0000000001
 40
0.0
 40
0.0
 40
0.0
 40
0.0
 40
0.2656215595880529
 40
13.39862313293671
 40
13.39862313293671
 40
13.39862313293671
 40
13.39862313293671
 10
-5.372569034441315
 20
13.44853772507946
 30
0.0
 10
-5.392899743115802
 20
13.36231846259029
 30
0.0
 10
-6.179851410659659
 20
8.965961190861783
 30
0.0
 10
-6.971401866514618
 20
4.57049261348569
 30
0.0
 10
-7.74409024159335
 20
0.2615425895865211
 30
0.0
  0
LINE
  5
81
330
1F
100
AcDbEntity
  8
Default
100
AcDbLine
 10
-7.74409024159335
 20
0.2615425895865211
 30
0.0
 11
-7.789859684999234
 21
0.049762310364995
 31
0.0
  0
SPLINE
  5
82
330
1F
100
AcDbEntity
  8
Default
100
AcDbSpline
210
0.0
220
0.0
230
1.0
 70
    12
 71
     2
 72
     6
 73
     3
 74
     0
 42
0.0000000001
 43
0.0000000001
 40
0.0
 40
0.0
 40
0.0
 40
0.0848595022919155
 40
0.0848595022919155
 40
0.0848595022919155
 10
-7.789859684999234
 20
0.049762310364995
 30
0.0
 41
1.0
 10
-7.800459075512208
 20
-0.0000616096574394
 30
0.0
 41
0.778367786178432
 10
-7.851146894644801
 20
0.0000000005638282
 30
0.0
 41
1.0
  0
SPLINE
  5
83
330
1F
100
AcDbEntity
  8
Default
100
AcDbSpline
210
0.0
220
0.0
230
1.0
 70
    12
 71
     3
 72
     9
 73
     5
 74
     0
 42
0.0000000001
 43
0.0000000001
 40
0.51443939443478
 40
0.51443939443478
 40
0.51443939443478
 40
0.51443939443478
 40
0.5604660200845439
 40
0.7253679386822207
 40
0.7253679386822207
 40
0.7253679386822207
 40
0.7253679386822207
 10
-7.851146894644801
 20
0.0000000005638282
 30
0.0
 41
1.0
 10
-7.850472951081409
 20
0.0
 30
0.0
 41
1.0
 10
-7.853478127248229
 20
0.0
 30
0.0
 41
1.0
 10
-7.886301794146595
 20
0.0
 30
0.0
 41
1.0
 10
-7.924475368008471
 20
0.0
 30
0.0
 41
1.0
  0
SPLINE
  5
84
330
1F
100
AcDbEntity
  8
Default
100
AcDbSpline
210
0.0
220
0.0
230
1.0
 70
     8
 71
     3
 72
     9
 73
     5
 74
     0
 42
0.0000000001
 43
0.0000000001
 40
0.0
 40
0.0
 40
0.0
 40
0.0
 40
1.0
 40
2.0
 40
2.0
 40
2.0
 40
2.0
 10
-7.744091794480809
 20
0.2615469209758539
 30
0.0
 10
-7.750389502123629
 20
0.2394050952409822
 30
0.0
 10
-7.793518443401144
 20
0.2212729855574197
 30
0.0
 10
-7.834987578815816
 20
0.2152970757837294
 30
0.0
 10
-7.856651167527239
 20
0.2135429907311437
 30
0.0
  0
SPLINE
  5
85
330
1F
100
AcDbEntity
  8
Default
100
AcDbSpline
210
0.0
220
0.0
230
1.0
 70
     8
 71
     3
 72
    10
 73
     6
 74
     0
 42
0.0000000001
 43
0.0000000001
 40
0.0
 40
0.0
 40
0.0
 40
0.0
 40
5.407683065167628
 40
5.650053157414197
 40
5.794805861518953
 40
5.794805861518953
 40
5.794805861518953
 40
5.794805861518953
 10
6.991309506474936
 20
7.993483538179378
 30
0.0
 10
6.672833581996565
 20
9.767686475100874
 30
0.0
 10
6.339644272244723
 20
11.62133396412541
 30
0.0
 10
5.998940751405816
 20
13.52264622103729
 30
0.0
 10
5.966719749401227
 20
13.64781002323121
 30
0.0
 10
5.952785614230345
 20
13.69394515162977
 30
0.0
  0
SPLINE
  5
86
330
1F
100
AcDbEntity
  8
Default
100
AcDbSpline
210
0.0
220
0.0
230
1.0
 70
     8
 71
     3
 72
     9
 73
     5
 74
     0
 42
0.0000000001
 43
0.0000000001
 40
0.0
 40
0.0
 40
0.0
 40
0.0
 40
0.2656215595880529
 40
13.39862313293671
 40
13.39862313293671
 40
13.39862313293671
 40
13.39862313293671
 10
5.372569034441315
 20
13.44853772507946
 30
0.0
 10
5.392899743115802
 20
13.36231846259029
 30
0.0
 10
6.179851410659659
 20
8.965961190861783
 30
0.0
 10
6.971401866514618
 20
4.57049261348569
 30
0.0
 10
7.74409024159335
 20
0.2615425895865211
 30
0.0
  0
LINE
  5
87
330
1F
100
AcDbEntity
  8
Default
100
AcDbLine
 10
7.74409024159335
 20
0.2615425895865211
 30
0.0
 11
7.789859684999234
 21
0.049762310364995
 31
0.0
  0
SPLINE
  5
88
330
1F
100
AcDbEntity
  8
Default
100
AcDbSpline
210
0.0
220
0.0
230
1.0
 70
    12
 71
     2
 72
     6
 73
     3
 74
     0
 42
0.0000000001
 43
0.0000000001
 40
0.0
 40
0.0
 40
0.0
 40
0.0848595022919155
 40
0.0848595022919155
 40
0.0848595022919155
 10
7.789859684999234
 20
0.049762310364995
 30
0.0
 41
1.0
 10
7.800459075512208
 20
-0.0000616096574394
 30
0.0
 41
0.778367786178432
 10
7.851146894644801
 20
0.0000000005638282
 30
0.0
 41
1.0
  0
SPLINE
  5
89
330
1F
100
AcDbEntity
  8
Default
100
AcDbSpline
210
0.0
220
0.0
230
1.0
 70
    12
 71
     3
 72
     9
 73
     5
 74
     0
 42
0.0000000001
 43
0.0000000001
 40
0.51443939443478
 40
0.51443939443478
 40
0.51443939443478
 40
0.51443939443478
 40
0.5604660200845439
 40
0.7253679386822207
 40
0.7253679386822207
 40
0.7253679386822207
 40
0.7253679386822207
 10
7.851146894644801
 20
0.0000000005638282
 30
0.0
 41
1.0
 10
7.850472951081409
 20
0.0
 30
0.0
 41
1.0
 10
7.853478127248229
 20
0.0
 30
0.0
 41
1.0
 10
7.886301794146595
 20
0.0
 30
0.0
 41
1.0
 10
7.924475368008471
 20
0.0
 30
0.0
 41
1.0
  0
SPLINE
  5
8A
330
1F
100
AcDbEntity
  8
Default
100
AcDbSpline
210
0.0
220
0.0
230
1.0
 70
     8
 71
     3
 72
    17
 73
    13
 74
     0
 42
0.0000000001
 43
0.0000000001
 40
-16.47979226942242
 40
-16.47979226942242
 40
-16.47979226942242
 40
-16.47979226942242
 40
-15.77943519617851
 40
-15.35077171496746
 40
-14.85407548447952
 40
-14.77841377709833
 40
-14.53331768797552
 40
-14.01840218150432
 40
-13.37777478321638
 40
-13.13050283210566
 40
-12.8677228228
 40
0.0
 40
0.0
 40
0.0
 40
0.0
 10
4.355429354799363
 20
13.85995522170166
 30
0.0
 10
4.588256116566286
 20
13.88175016904883
 30
0.0
 10
4.957235779222607
 20
13.96128329847621
 30
0.0
 10
5.468720652804259
 20
14.1431065082338
 30
0.0
 10
5.763873866375226
 20
14.30180427339399
 30
0.0
 10
6.00926914570033
 20
14.41689731325777
 30
0.0
 10
6.298064407344237
 20
14.45376413664645
 30
0.0
 10
6.72722740724064
 20
14.20846067107472
 30
0.0
 10
6.930787186094535
 20
13.76925704494779
 30
0.0
 10
7.021895451965639
 20
13.39883114500333
 30
0.0
 10
7.511778547253369
 20
8.965545256840887
 30
0.0
 10
7.994490822022868
 20
4.616665220074143
 30
0.0
 10
8.466209909806661
 20
0.3518417933221788
 30
0.0
  0
LINE
  5
8B
330
1F
100
AcDbEntity
  8
Default
100
AcDbLine
 10
8.466209909806661
 20
0.3518417933221788
 30
0.0
 11
8.48745687047239
 21
0.0678345933655969
 31
0.0
  0
SPLINE
  5
8C
330
1F
100
AcDbEntity
  8
Default
100
AcDbSpline
210
0.0
220
0.0
230
1.0
 70
    12
 71
     2
 72
     8
 73
     5
 74
     0
 42
0.0000000001
 43
0.0000000001
 40
-0.102552206685212
 40
-0.102552206685212
 40
-0.102552206685212
 40
-0.051276103342606
 40
-0.051276103342606
 40
0.0
 40
0.0
 40
0.0
 10
8.48745687047239
 20
0.0678345933655969
 30
0.0
 41
1.0
 10
8.4892123724673
 20
0.0401001491707724
 30
0.0
 41
0.9185373050072958
 10
8.470754011134648
 20
0.0201904728932527
 30
0.0
 41
1.0
 10
8.452295649801997
 20
0.000280796615733
 30
0.0
 41
0.9185373050072958
 10
8.425147400026724
 20
0.0000000000670715
 30
0.0
 41
1.0
  0
POLYLINE
  5
8D
330
1F
100
AcDbEntity
  8
Default
100
AcDb2dPolyline
 66
     1
 10
0.0
 20
0.0
 30
0.0
  0
VERTEX
  5
8E
330
8D
100
AcDbEntity
  8
Default
100
AcDbVertex
100
AcDb2dVertex
 10
8.425147400026724
 20
0.0000000000670715
 30
0.0
  0
VERTEX
  5
8F
330
8D
100
AcDbEntity
  8
Default
100
AcDbVertex
100
AcDb2dVertex
 10
7.940445758327016
 20
0.0000000001402398
 30
0.0
  0
SEQEND
  5
90
330
8D
100
AcDbEntity
  8
Default
  0
SPLINE
  5
91
330
1F
100
AcDbEntity
  8
Default
100
AcDbSpline
210
0.0
220
0.0
230
1.0
 70
    12
 71
     2
 72
     6
 73
     3
 74
     0
 42
0.0000000001
 43
0.0000000001
 40
-0.0852274742242749
 40
-0.0852274742242749
 40
-0.0852274742242749
 40
0.0
 40
0.0
 40
0.0
 10
7.940445758327016
 20
0.0000000001402398
 30
0.0
 41
1.0
 10
7.889726496125241
 20
0.000007435074702
 30
0.0
 41
0.7766525049992958
 10
7.879253410906191
 20
0.0496344523811006
 30
0.0
 41
1.0
  0
LINE
  5
92
330
1F
100
AcDbEntity
  8
Default
100
AcDbLine
 10
7.879253410906191
 20
0.0496344523811006
 30
0.0
 11
7.845247889127237
 21
0.2811654368300103
 31
0.0
  0
LINE
  5
93
330
1F
100
AcDbEntity
  8
Default
100
AcDbLine
 10
7.845247889127237
 20
0.2811654368300103
 30
0.0
 11
7.844046494280546
 21
0.2917288190076052
 31
0.0
  0
SPLINE
  5
94
330
1F
100
AcDbEntity
  8
Default
100
AcDbSpline
210
0.0
220
0.0
230
1.0
 70
     8
 71
     3
 72
    15
 73
    11
 74
     0
 42
0.0000000001
 43
0.0000000001
 40
-13.66348287815477
 40
-13.66348287815477
 40
-13.66348287815477
 40
-13.66348287815477
 40
-1.295387296652076
 40
-0.8940101512435245
 40
-0.6523899085446322
 40
-0.2579899357784274
 40
-0.0974017746215522
 40
-0.0323002438724001
 40
-0.0063567073890215
 40
0.0
 40
0.0
 40
0.0
 40
0.0
 10
7.844046494280546
 20
0.2917288190076052
 30
0.0
 10
7.390084663491098
 20
4.386825851673717
 30
0.0
 10
6.923434279398935
 20
8.61494840272691
 30
0.0
 10
6.445045893714124
 20
12.9228876110507
 30
0.0
 10
6.411089863670437
 20
13.26670826121248
 30
0.0
 10
6.352957698307448
 20
13.52755877058614
 30
0.0
 10
6.251476425196913
 20
13.71033730744537
 30
0.0
 10
6.196105286387895
 20
13.77310993816983
 30
0.0
 10
6.169633667552946
 20
13.7926378649344
 30
0.0
 10
6.16019144605331
 20
13.79771660791782
 30
0.0
 10
6.158261637751508
 20
13.79852089123535
 30
0.0
  0
ARC
  5
95
330
1F
100
AcDbEntity
  8
Default
100
AcDbCircle
 10
14.87201438950813
 20
-3.343953555085122
 30
0.0
 40
19.23002644723861
100
AcDbArc
 50
116.9448495613483
 51
116.9536334277617
  0
SPLINE
  5
96
330
1F
100
AcDbEntity
  8
Default
100
AcDbSpline
210
0.0
220
0.0
230
1.0
 70
     8
 71
     3
 72
    25
 73
    21
 74
     0
 42
0.0000000001
 43
0.0000000001
 40
0.0
 40
0.0
 40
0.0
 40
0.0
 40
0.4469075015117372
 40
0.8168729817616694
 40
1.596059776854038
 40
2.0107006708981
 40
2.471468949456778
 40
3.330653405363599
 40
4.309597490216825
 40
5.318743983344354
 40
8.248145945664636
 40
8.456609294675081
 40
8.711443037405138
 40
9.062002755052859
 40
9.377103728832298
 40
10.09851217778804
 40
10.57720506354034
 40
11.38985905007023
 40
11.97406345842554
 40
12.51415611374802
 40
12.51415611374802
 40
12.51415611374802
 40
12.51415611374802
 10
6.155633672147166
 20
13.79718480709825
 30
0.0
 10
6.022909563521305
 20
13.72969373172661
 30
0.0
 10
5.781336575413034
 20
13.60330604713694
 30
0.0
 10
5.286129393268103
 20
13.40737870940239
 30
0.0
 10
4.780082337705679
 20
13.2744214177991
 30
0.0
 10
4.230539459231441
 20
13.21765750380059
 30
0.0
 10
3.652990511014346
 20
13.19420156012177
 30
0.0
 10
2.888521969055246
 20
13.13492219341242
 30
0.0
 10
1.939117120969952
 20
13.12861456262032
 30
0.0
 10
0.3001824997184368
 20
13.13274702306986
 30
0.0
 10
-1.082357102511123
 20
13.12902445836515
 30
0.0
 10
-2.213180176079533
 20
13.13067083939161
 30
0.0
 10
-2.484455035387175
 20
13.13409845860377
 30
0.0
 10
-2.791266962176362
 20
13.13954159924566
 30
0.0
 10
-3.252994239412485
 20
13.1644351397224
 30
0.0
 10
-3.756800056108369
 20
13.19905650132003
 30
0.0
 10
-4.427738124839599
 20
13.22489327035613
 30
0.0
 10
-5.046127374095231
 20
13.33020179476255
 30
0.0
 10
-5.657882012993547
 20
13.54313480709289
 30
0.0
 10
-5.992647694321083
 20
13.71271382132502
 30
0.0
 10
-6.152427047944733
 20
13.79554753401867
 30
0.0
  0
ARC
  5
97
330
1F
100
AcDbEntity
  8
Default
100
AcDbCircle
 10
7.04816213785291
 20
39.25838795212742
 30
0.0
 40
28.68120982473142
100
AcDbArc
 50
242.583615284247
 51
242.5966189492294
  0
SPLINE
  5
98
330
1F
100
AcDbEntity
  8
Default
100
AcDbSpline
210
0.0
220
0.0
230
1.0
 70
     8
 71
     3
 72
    15
 73
    11
 74
     0
 42
0.0000000001
 43
0.0000000001
 40
0.0
 40
0.0
 40
0.0
 40
0.0
 40
0.0064181061906727
 40
0.0323615260388214
 40
0.0974627641088312
 40
0.2580502033041069
 40
0.6524484029530837
 40
0.894067559391721
 40
1.295442900315535
 40
13.66348287815477
 40
13.66348287815477
 40
13.66348287815477
 40
13.66348287815477
 10
-6.158205671903049
 20
13.7985441528479
 30
0.0
 10
-6.160155529773251
 20
13.79773592007366
 30
0.0
 10
-6.169616972893135
 20
13.79265018046735
 30
0.0
 10
-6.196105286387895
 20
13.77310993816983
 30
0.0
 10
-6.251476425196913
 20
13.71033730744537
 30
0.0
 10
-6.352957698307448
 20
13.52755877058614
 30
0.0
 10
-6.411089863670437
 20
13.26670826121248
 30
0.0
 10
-6.445045893714124
 20
12.9228876110507
 30
0.0
 10
-6.923434279398935
 20
8.61494840272691
 30
0.0
 10
-7.390084663491098
 20
4.386825851673717
 30
0.0
 10
-7.844046494280546
 20
0.2917288190076052
 30
0.0
  0
LINE
  5
99
330
1F
100
AcDbEntity
  8
Default
100
AcDbLine
 10
-7.844046494280546
 20
0.2917288190076052
 30
0.0
 11
-7.845247889127237
 21
0.2811654368300103
 31
0.0
  0
LINE
  5
9A
330
1F
100
AcDbEntity
  8
Default
100
AcDbLine
 10
-7.845247889127237
 20
0.2811654368300103
 30
0.0
 11
-7.879253410906191
 21
0.0496344523811006
 31
0.0
  0
SPLINE
  5
9B
330
1F
100
AcDbEntity
  8
Default
100
AcDbSpline
210
0.0
220
0.0
230
1.0
 70
    12
 71
     2
 72
     6
 73
     3
 74
     0
 42
0.0000000001
 43
0.0000000001
 40
0.0
 40
0.0
 40
0.0
 40
0.0852274742242749
 40
0.0852274742242749
 40
0.0852274742242749
 10
-7.879253410906191
 20
0.0496344523811006
 30
0.0
 41
1.0
 10
-7.889726496125241
 20
0.000007435074702
 30
0.0
 41
0.7766525049992958
 10
-7.940445758327016
 20
0.0000000001402398
 30
0.0
 41
1.0
  0
POLYLINE
  5
9C
330
1F
100
AcDbEntity
  8
Default
100
AcDb2dPolyline
 66
     1
 10
0.0
 20
0.0
 30
0.0
  0
VERTEX
  5
9D
330
9C
100
AcDbEntity
  8
Default
100
AcDbVertex
100
AcDb2dVertex
 10
-7.940445758327016
 20
0.0000000001402398
 30
0.0
  0
VERTEX
  5
9E
330
9C
100
AcDbEntity
  8
Default
100
AcDbVertex
100
AcDb2dVertex
 10
-8.425147400026724
 20
0.0000000000670715
 30
0.0
  0
SEQEND
  5
9F
330
9C
100
AcDbEntity
  8
Default
  0
SPLINE
  5
A0
330
1F
100
AcDbEntity
  8
Default
100
AcDbSpline
210
0.0
220
0.0
230
1.0
 70
    12
 71
     2
 72
     8
 73
     5
 74
     0
 42
0.0000000001
 43
0.0000000001
 40
0.0
 40
0.0
 40
0.0
 40
0.051276103342606
 40
0.051276103342606
 40
0.102552206685212
 40
0.102552206685212
 40
0.102552206685212
 10
-8.425147400026724
 20
0.0000000000670715
 30
0.0
 41
1.0
 10
-8.452295649801997
 20
0.000280796615733
 30
0.0
 41
0.9185373050072958
 10
-8.470754011134648
 20
0.0201904728932527
 30
0.0
 41
1.0
 10
-8.4892123724673
 20
0.0401001491707724
 30
0.0
 41
0.9185373050072958
 10
-8.48745687047239
 20
0.0678345933655969
 30
0.0
 41
1.0
  0
LINE
  5
A1
330
1F
100
AcDbEntity
  8
Default
100
AcDbLine
 10
-8.48745687047239
 20
0.0678345933655969
 30
0.0
 11
-8.466209909806661
 21
0.3518417933221788
 31
0.0
  0
SPLINE
  5
A2
330
1F
100
AcDbEntity
  8
Default
100
AcDbSpline
210
0.0
220
0.0
230
1.0
 70
     8
 71
     3
 72
    17
 73
    13
 74
     0
 42
0.0000000001
 43
0.0000000001
 40
0.0
 40
0.0
 40
0.0
 40
0.0
 40
12.8677228228
 40
13.13050283210566
 40
13.37777478321638
 40
14.01840218150432
 40
14.53331768797552
 40
14.77841377709833
 40
14.85407548447952
 40
15.35077171496746
 40
15.77943519617851
 40
16.47979226942242
 40
16.47979226942242
 40
16.47979226942242
 40
16.47979226942242
 10
-8.466209909806661
 20
0.3518417933221788
 30
0.0
 10
-7.994490822022868
 20
4.616665220074143
 30
0.0
 10
-7.511778547253369
 20
8.965545256840887
 30
0.0
 10
-7.021895451965639
 20
13.39883114500333
 30
0.0
 10
-6.930787186094535
 20
13.76925704494779
 30
0.0
 10
-6.72722740724064
 20
14.20846067107472
 30
0.0
 10
-6.298064407344237
 20
14.45376413664645
 30
0.0
 10
-6.00926914570033
 20
14.41689731325777
 30
0.0
 10
-5.763873866375226
 20
14.30180427339399
 30
0.0
 10
-5.468720652804259
 20
14.1431065082338
 30
0.0
 10
-4.957235779222607
 20
13.96128329847621
 30
0.0
 10
-4.588256116566286
 20
13.88175016904883
 30
0.0
 10
-4.355429354799355
 20
13.85995522170166
 30
0.0
  0
SPLINE
  5
A3
330
1F
100
AcDbEntity
  8
Default
100
AcDbSpline
210
0.0
220
0.0
230
1.0
 70
     8
 71
     3
 72
    17
 73
    13
 74
     0
 42
0.0000000001
 43
0.0000000001
 40
0.0
 40
0.0
 40
0.0
 40
0.0
 40
0.2271363539892007
 40
0.6198525448312479
 40
1.440617572201648
 40
1.892627196685657
 40
2.355824841846763
 40
5.378048162449349
 40
6.308879287322791
 40
7.22168938385806
 40
7.992495445278466
 40
8.733246713336456
 40
8.733246713336456
 40
8.733246713336456
 40
8.733246713336456
 10
-4.355429354799355
 20
13.85995522170166
 30
0.0
 10
-4.28011929848842
 20
13.85211996471592
 30
0.0
 10
-4.073995022371673
 20
13.83733945684165
 30
0.0
 10
-3.594273706197068
 20
13.81570120606742
 30
0.0
 10
-3.040538240519346
 20
13.77396845861683
 30
0.0
 10
-2.462042724717469
 20
13.75643872560499
 30
0.0
 10
-1.14958768796059
 20
13.75401781228978
 30
0.0
 10
0.322620959795092
 20
13.75648065813626
 30
0.0
 10
1.944387939878643
 20
13.75463299594646
 30
0.0
 10
2.816172926651344
 20
13.75801369389744
 30
0.0
 10
3.622425693279283
 20
13.81923532706073
 30
0.0
 10
4.125931884553555
 20
13.83767018371868
 30
0.0
 10
4.37179010741686
 20
13.86167490299808
 30
0.0
  0
SPLINE
  5
A4
330
1F
100
AcDbEntity
  8
Default
100
AcDbSpline
210
0.0
220
0.0
230
1.0
 70
     8
 71
     3
 72
     9
 73
     5
 74
     0
 42
0.0000000001
 43
0.0000000001
 40
0.0
 40
0.0
 40
0.0
 40
0.0
 40
1.0
 40
2.0
 40
2.0
 40
2.0
 40
2.0
 10
7.744091794480809
 20
0.2615469209758539
 30
0.0
 10
7.750389502123629
 20
0.2394050952409822
 30
0.0
 10
7.793518443401144
 20
0.2212729855574197
 30
0.0
 10
7.834987578815816
 20
0.2152970757837294
 30
0.0
 10
7.856651167527239
 20
0.2135429907311437
 30
0.0
  0
SPLINE
  5
A5
330
1F
100
AcDbEntity
  8
Default
100
AcDbSpline
210
0.0
220
0.0
230
1.0
 70
     8
 71
     3
 72
     8
 73
     4
 74
     0
 42
0.0000000001
 43
0.0000000001
 40
0.0
 40
0.0
 40
0.0
 40
0.0
 40
1.0
 40
1.0
 40
1.0
 40
1.0
 10
8.466209909806661
 20
0.3518417933221788
 30
0.0
 10
8.376818303127191
 20
0.4244707038846883
 30
0.0
 10
7.903202577567432
 20
0.361359174417409
 30
0.0
 10
7.845247889127237
 20
0.2811654368300103
 30
0.0
  0
SPLINE
  5
A6
330
1F
100
AcDbEntity
  8
Default
100
AcDbSpline
210
0.0
220
0.0
230
1.0
 70
     8
 71
     3
 72
    14
 73
    10
 74
     0
 42
0.0000000001
 43
0.0000000001
 40
-7.0
 40
-7.0
 40
-7.0
 40
-7.0
 40
-6.0
 40
-5.0
 40
-4.0
 40
-3.0
 40
-2.0
 40
-1.0
 40
0.0
 40
0.0
 40
0.0
 40
0.0
 10
-10.29927408664738
 20
17.68501139603374
 30
0.0
 10
-10.22610710127389
 20
17.10549037777693
 30
0.0
 10
-9.149083579376024
 20
16.75977539370339
 30
0.0
 10
-7.658722873885207
 20
16.63931760739509
 30
0.0
 10
-6.119571780920748
 20
16.57976310787598
 30
0.0
 10
-4.592157221945139
 20
16.53504382318603
 30
0.0
 10
-3.061073632519757
 20
16.50654403846421
 30
0.0
 10
-1.53067995996295
 20
16.49313261298039
 30
0.0
 10
-0.5102017120110027
 20
16.49074338657625
 30
0.0
 10
0.0
 20
16.49074530404704
 30
0.0
  0
SPLINE
  5
A7
330
1F
100
AcDbEntity
  8
Default
100
AcDbSpline
210
0.0
220
0.0
230
1.0
 70
     8
 71
     3
 72
    14
 73
    10
 74
     0
 42
0.0000000001
 43
0.0000000001
 40
0.0
 40
0.0
 40
0.0
 40
0.0
 40
1.0
 40
2.0
 40
3.0
 40
4.0
 40
5.0
 40
6.0
 40
7.0
 40
7.0
 40
7.0
 40
7.0
 10
0.0
 20
16.49074530404704
 30
0.0
 10
0.5102017120110027
 20
16.49074338657625
 30
0.0
 10
1.53067995996295
 20
16.49313261298039
 30
0.0
 10
3.061073632519757
 20
16.50654403846421
 30
0.0
 10
4.592157221945139
 20
16.53504382318603
 30
0.0
 10
6.119571780920748
 20
16.57976310787598
 30
0.0
 10
7.658722873885207
 20
16.63931760739509
 30
0.0
 10
9.149083579376024
 20
16.75977539370339
 30
0.0
 10
10.22610710127389
 20
17.10549037777693
 30
0.0
 10
10.29927408664738
 20
17.68501139603374
 30
0.0
  0
SPLINE
  5
A8
330
1F
100
AcDbEntity
  8
Default
100
AcDbSpline
210
0.0
220
0.0
230
1.0
 70
    24
 71
     2
 72
     6
 73
     3
 74
     0
 42
0.0000000001
 43
0.0000000001
 40
0.0
 40
0.0
 40
0.0
 40
0.7318560161645493
 40
0.7318560161645493
 40
0.7318560161645493
 10
8.687499994268105
 20
16.74718996832562
 30
0.0
 10
8.687499991470233
 20
17.11315539255504
 30
0.0
 10
8.68749998867236
 20
17.47912081678447
 30
0.0
  0
SPLINE
  5
A9
330
1F
100
AcDbEntity
  8
Default
100
AcDbSpline
210
0.0
220
0.0
230
1.0
 70
    12
 71
     2
 72
     6
 73
     3
 74
     0
 42
0.0000000001
 43
0.0000000001
 40
0.0
 40
0.0
 40
0.0
 40
0.2957014179713029
 40
0.2957014179713029
 40
0.2957014179713029
 10
8.68749998867236
 20
17.47912081678447
 30
0.0
 41
1.0
 10
8.685087407945012
 20
17.64348696787757
 30
0.0
 41
0.8563049191892567
 10
8.538644150973827
 20
17.71799757434815
 30
0.0
 41
1.0
  0
SPLINE
  5
AA
330
1F
100
AcDbEntity
  8
Default
100
AcDbSpline
210
0.0
220
0.0
230
1.0
 70
     8
 71
     3
 72
    12
 73
     8
 74
     0
 42
0.0000000001
 43
0.0000000001
 40
0.0
 40
0.0
 40
0.0
 40
0.0
 40
0.4568925232267415
 40
1.089787446344164
 40
2.895510825585136
 40
5.43885033560246
 40
8.579927392199181
 40
8.579927392199181
 40
8.579927392199181
 40
8.579927392199181
 10
8.538644150973827
 20
17.71799757434815
 30
0.0
 10
8.402775315944027
 20
17.78712789490989
 30
0.0
 10
8.035004500944659
 20
17.91760921660091
 30
0.0
 10
7.089071192004834
 20
18.11509496853509
 30
0.0
 10
5.435932784928519
 20
18.28883577039923
 30
0.0
 10
2.942074987492239
 20
18.41104871832486
 30
0.0
 10
1.046919169694466
 20
18.43593899327303
 30
0.0
 10
0.0
 20
18.43647038101718
 30
0.0
  0
SPLINE
  5
AB
330
1F
100
AcDbEntity
  8
Default
100
AcDbSpline
210
0.0
220
0.0
230
1.0
 70
     8
 71
     3
 72
    12
 73
     8
 74
     0
 42
0.0000000001
 43
0.0000000001
 40
-8.579927392199181
 40
-8.579927392199181
 40
-8.579927392199181
 40
-8.579927392199181
 40
-5.43885033560246
 40
-2.895510825585136
 40
-1.089787446344164
 40
-0.4568925232267415
 40
0.0
 40
0.0
 40
0.0
 40
0.0
 10
0.0
 20
18.43647038101718
 30
0.0
 10
-1.046919169694466
 20
18.43593899327303
 30
0.0
 10
-2.942074987492239
 20
18.41104871832486
 30
0.0
 10
-5.435932784928519
 20
18.28883577039923
 30
0.0
 10
-7.089071192004834
 20
18.11509496853509
 30
0.0
 10
-8.035004500944659
 20
17.91760921660091
 30
0.0
 10
-8.402775315944027
 20
17.78712789490989
 30
0.0
 10
-8.538644150973827
 20
17.71799757434815
 30
0.0
  0
SPLINE
  5
AC
330
1F
100
AcDbEntity
  8
Default
100
AcDbSpline
210
0.0
220
0.0
230
1.0
 70
    12
 71
     2
 72
     6
 73
     3
 74
     0
 42
0.0000000001
 43
0.0000000001
 40
-0.2957014179713029
 40
-0.2957014179713029
 40
-0.2957014179713029
 40
0.0
 40
0.0
 40
0.0
 10
-8.538644150973827
 20
17.71799757434815
 30
0.0
 41
1.0
 10
-8.685087407945012
 20
17.64348696787757
 30
0.0
 41
0.8563049191892567
 10
-8.68749998867236
 20
17.47912081678447
 30
0.0
 41
1.0
  0
SPLINE
  5
AD
330
1F
100
AcDbEntity
  8
Default
100
AcDbSpline
210
0.0
220
0.0
230
1.0
 70
    24
 71
     2
 72
     6
 73
     3
 74
     0
 42
0.0000000001
 43
0.0000000001
 40
-0.7318560161645493
 40
-0.7318560161645493
 40
-0.7318560161645493
 40
0.0
 40
0.0
 40
0.0
 10
-8.68749998867236
 20
17.47912081678447
 30
0.0
 10
-8.687499991470233
 20
17.11315539255504
 30
0.0
 10
-8.687499994268105
 20
16.74718996832562
 30
0.0
  0
SPLINE
  5
AE
330
1F
100
AcDbEntity
  8
Default
100
AcDbSpline
210
0.0
220
0.0
230
1.0
 70
     8
 71
     3
 72
    24
 73
    20
 74
     0
 42
0.0000000001
 43
0.0000000001
 40
0.0
 40
0.0
 40
0.0
 40
0.0
 40
1.0
 40
2.0
 40
3.0
 40
4.0
 40
5.0
 40
6.0
 40
7.0
 40
8.0
 40
9.0
 40
10.0
 40
11.0
 40
12.0
 40
13.0
 40
14.0
 40
15.0
 40
16.0
 40
17.0
 40
17.0
 40
17.0
 40
17.0
 10
6.743394211224642
 20
14.08990813856991
 30
0.0
 10
7.138328345907006
 20
14.19964027787976
 30
0.0
 10
7.915915125692719
 20
14.45851440904493
 30
0.0
 10
9.03302152413908
 20
14.98745190305733
 30
0.0
 10
10.02527950844247
 20
15.70463043695208
 30
0.0
 10
10.90623094338224
 20
16.61837132210167
 30
0.0
 10
11.13381816439193
 20
17.86389217858117
 30
0.0
 10
10.80167411672521
 20
19.06425964865874
 30
0.0
 10
10.4877317748084
 20
20.24814455357638
 30
0.0
 10
10.169679744713
 20
21.43666341173393
 30
0.0
 10
9.8603859719175
 20
22.62599577850582
 30
0.0
 10
9.529110539427906
 20
23.80982382814318
 30
0.0
 10
9.181506609392967
 20
24.98883630629544
 30
0.0
 10
8.811223596588482
 20
26.16101245031776
 30
0.0
 10
8.405066975428655
 20
27.32136613873155
 30
0.0
 10
7.94868295465135
 20
28.46308732728043
 30
0.0
 10
7.421612023853131
 20
29.57457742062876
 30
0.0
 10
6.791192067595933
 20
30.63180005856438
 30
0.0
 10
6.29011116050031
 20
31.2824044531913
 30
0.0
 10
6.013470032359533
 20
31.58486192770753
 30
0.0
  0
SPLINE
  5
AF
330
1F
100
AcDbEntity
  8
Default
100
AcDbSpline
210
0.0
220
0.0
230
1.0
 70
     8
 71
     3
 72
    24
 73
    20
 74
     0
 42
0.0000000001
 43
0.0000000001
 40
0.0
 40
0.0
 40
0.0
 40
0.0
 40
1.0
 40
2.0
 40
3.0
 40
4.0
 40
5.0
 40
6.0
 40
7.0
 40
8.0
 40
9.0
 40
10.0
 40
11.0
 40
12.0
 40
13.0
 40
14.0
 40
15.0
 40
16.0
 40
17.0
 40
17.0
 40
17.0
 40
17.0
 10
-6.743394211224642
 20
14.08990813856991
 30
0.0
 10
-7.138328345907006
 20
14.19964027787976
 30
0.0
 10
-7.915915125692719
 20
14.45851440904493
 30
0.0
 10
-9.03302152413908
 20
14.98745190305733
 30
0.0
 10
-10.02527950844247
 20
15.70463043695208
 30
0.0
 10
-10.90623094338224
 20
16.61837132210167
 30
0.0
 10
-11.13381816439193
 20
17.86389217858117
 30
0.0
 10
-10.80167411672521
 20
19.06425964865874
 30
0.0
 10
-10.4877317748084
 20
20.24814455357638
 30
0.0
 10
-10.169679744713
 20
21.43666341173393
 30
0.0
 10
-9.8603859719175
 20
22.62599577850582
 30
0.0
 10
-9.529110539427906
 20
23.80982382814318
 30
0.0
 10
-9.181506609392967
 20
24.98883630629544
 30
0.0
 10
-8.811223596588482
 20
26.16101245031776
 30
0.0
 10
-8.405066975428655
 20
27.32136613873155
 30
0.0
 10
-7.94868295465135
 20
28.46308732728043
 30
0.0
 10
-7.421612023853131
 20
29.57457742062876
 30
0.0
 10
-6.791192067595933
 20
30.63180005856438
 30
0.0
 10
-6.29011116050031
 20
31.2824044531913
 30
0.0
 10
-6.013470032359533
 20
31.58486192770753
 30
0.0
  0
SPLINE
  5
B0
330
1F
100
AcDbEntity
  8
Default
100
AcDbSpline
210
0.0
220
0.0
230
1.0
 70
    12
 71
     3
 72
    37
 73
    33
 74
     0
 42
0.0000000001
 43
0.0000000001
 40
-33.80511237575503
 40
-33.80511237575503
 40
-33.80511237575503
 40
-33.80511237575503
 40
-27.0
 40
-27.0
 40
-27.0
 40
-26.0
 40
-25.0
 40
-24.0
 40
-23.0
 40
-22.0
 40
-21.0
 40
-20.0
 40
-19.0
 40
-18.0
 40
-17.0
 40
-16.0
 40
-15.0
 40
-14.0
 40
-13.0
 40
-12.0
 40
-11.0
 40
-10.0
 40
-9.0
 40
-8.0
 40
-7.0
 40
-6.0
 40
-5.0
 40
-4.0
 40
-3.0
 40
-2.0
 40
-1.0
 40
0.0
 40
0.0
 40
0.0
 40
0.0
 10
0.0000000000000151
 20
16.1875019501412
 30
0.0
 41
1.0
 10
2.268904673160997
 20
16.18750195014121
 30
0.0
 41
0.9995294815492729
 10
4.536965824975835
 20
16.20720425103472
 30
0.0
 41
0.9995294815492729
 10
6.801691640043886
 20
16.34484653543872
 30
0.0
 41
1.0
 10
7.121305034495769
 20
16.36427154373146
 30
0.0
 41
1.0
 10
7.757291032256726
 20
16.41450900591443
 30
0.0
 41
1.0
 10
8.718533912418396
 20
16.51231837643695
 30
0.0
 41
1.0
 10
9.642448100619395
 20
16.67593656340574
 30
0.0
 41
1.0
 10
10.63756118920153
 20
17.00405235192804
 30
0.0
 41
1.0
 10
10.85472468196435
 20
18.02373636495737
 30
0.0
 41
1.0
 10
10.63664809320226
 20
18.95608463441676
 30
0.0
 41
1.0
 10
10.40773287603209
 20
19.88860712900329
 30
0.0
 41
1.0
 10
10.15152917247877
 20
20.813469015295
 30
0.0
 41
1.0
 10
9.935050091028076
 20
21.74854614242496
 30
0.0
 41
1.0
 10
9.713886560931318
 20
22.68234592527435
 30
0.0
 41
1.0
 10
9.47595377608948
 20
23.61209264481864
 30
0.0
 41
1.0
 10
9.226147467434979
 20
24.53867838047033
 30
0.0
 41
1.0
 10
8.963040280316385
 20
25.46160176323292
 30
0.0
 41
1.0
 10
8.681690374305182
 20
26.3791598086175
 30
0.0
 41
1.0
 10
8.373757324702629
 20
27.28822102135183
 30
0.0
 41
1.0
 10
8.03166363340446
 20
28.1850365399664
 30
0.0
 41
1.0
 10
7.649019763842838
 20
29.06550033540837
 30
0.0
 41
1.0
 10
7.209907019589454
 20
29.91952835170465
 30
0.0
 41
1.0
 10
6.70129981932322
 20
30.73453323438459
 30
0.0
 41
1.0
 10
6.11229358032567
 20
31.4940591926078
 30
0.0
 41
1.0
 10
5.432252853908158
 20
32.1747149098267
 30
0.0
 41
1.0
 10
4.652173754572044
 20
32.73933602299002
 30
0.0
 41
1.0
 10
3.788777705888883
 20
33.16618742842105
 30
0.0
 41
1.0
 10
2.866725794348901
 20
33.44242474142622
 30
0.0
 41
1.0
 10
1.917743831768705
 20
33.59450464268572
 30
0.0
 41
1.0
 10
0.9597540017226763
 20
33.66047733178866
 30
0.0
 41
1.0
 10
0.3198727039829748
 20
33.66798257561736
 30
0.0
 41
1.0
 10
-0.0000000053551119
 20
33.66801014048499
 30
0.0
 41
1.0
  0
SPLINE
  5
B1
330
1F
100
AcDbEntity
  8
Default
100
AcDbSpline
210
0.0
220
0.0
230
1.0
 70
    12
 71
     3
 72
    37
 73
    33
 74
     0
 42
0.0000000001
 43
0.0000000001
 40
-33.80511237575503
 40
-33.80511237575503
 40
-33.80511237575503
 40
-33.80511237575503
 40
-27.0
 40
-27.0
 40
-27.0
 40
-26.0
 40
-25.0
 40
-24.0
 40
-23.0
 40
-22.0
 40
-21.0
 40
-20.0
 40
-19.0
 40
-18.0
 40
-17.0
 40
-16.0
 40
-15.0
 40
-14.0
 40
-13.0
 40
-12.0
 40
-11.0
 40
-10.0
 40
-9.0
 40
-8.0
 40
-7.0
 40
-6.0
 40
-5.0
 40
-4.0
 40
-3.0
 40
-2.0
 40
-1.0
 40
0.0
 40
0.0
 40
0.0
 40
0.0
 10
0.0000000000000151
 20
16.1875019501412
 30
0.0
 41
1.0
 10
-2.268904673160967
 20
16.1875019501412
 30
0.0
 41
0.9995294815492729
 10
-4.536965824975804
 20
16.20720425103472
 30
0.0
 41
0.9995294815492729
 10
-6.801691640043886
 20
16.34484653543872
 30
0.0
 41
1.0
 10
-7.121305034495769
 20
16.36427154373146
 30
0.0
 41
1.0
 10
-7.757291032256726
 20
16.41450900591443
 30
0.0
 41
1.0
 10
-8.718533912418396
 20
16.51231837643695
 30
0.0
 41
1.0
 10
-9.642448100619395
 20
16.67593656340574
 30
0.0
 41
1.0
 10
-10.63756118920153
 20
17.00405235192804
 30
0.0
 41
1.0
 10
-10.85472468196435
 20
18.02373636495737
 30
0.0
 41
1.0
 10
-10.63664809320226
 20
18.95608463441676
 30
0.0
 41
1.0
 10
-10.40773287603209
 20
19.88860712900329
 30
0.0
 41
1.0
 10
-10.15152917247877
 20
20.813469015295
 30
0.0
 41
1.0
 10
-9.935050091028076
 20
21.74854614242496
 30
0.0
 41
1.0
 10
-9.713886560931318
 20
22.68234592527435
 30
0.0
 41
1.0
 10
-9.47595377608948
 20
23.61209264481864
 30
0.0
 41
1.0
 10
-9.226147467434979
 20
24.53867838047033
 30
0.0
 41
1.0
 10
-8.963040280316385
 20
25.46160176323292
 30
0.0
 41
1.0
 10
-8.681690374305182
 20
26.3791598086175
 30
0.0
 41
1.0
 10
-8.373757324702629
 20
27.28822102135183
 30
0.0
 41
1.0
 10
-8.03166363340446
 20
28.1850365399664
 30
0.0
 41
1.0
 10
-7.649019763842838
 20
29.06550033540837
 30
0.0
 41
1.0
 10
-7.209907019589454
 20
29.91952835170465
 30
0.0
 41
1.0
 10
-6.70129981932322
 20
30.73453323438459
 30
0.0
 41
1.0
 10
-6.11229358032567
 20
31.4940591926078
 30
0.0
 41
1.0
 10
-5.432252853908158
 20
32.1747149098267
 30
0.0
 41
1.0
 10
-4.652173754572044
 20
32.73933602299002
 30
0.0
 41
1.0
 10
-3.788777705888883
 20
33.16618742842105
 30
0.0
 41
1.0
 10
-2.866725794348901
 20
33.44242474142622
 30
0.0
 41
1.0
 10
-1.917743831768705
 20
33.59450464268572
 30
0.0
 41
1.0
 10
-0.9597540017226763
 20
33.66047733178866
 30
0.0
 41
1.0
 10
-0.3198727039829748
 20
33.66798257561736
 30
0.0
 41
1.0
 10
0.0000000053551119
 20
33.66801014048499
 30
0.0
 41
1.0
  0
ENDSEC
  0
SECTION
  2
OBJECTS
  0
DICTIONARY
  5
C
330
0
100
AcDbDictionary
281
     1
  3
ACAD_GROUP
350
D
  3
ACAD_LAYOUT
350
1A
  3
ACAD_MLEADERSTYLE
350
B3
  3
ACAD_MLINESTYLE
350
17
  3
ACAD_PLOTSETTINGS
350
19
  3
ACAD_PLOTSTYLENAME
350
E
  3
ACAD_TABLESTYLE
350
B2
  3
ACAD_VISUALSTYLE
350
2A
  0
DICTIONARY
  5
D
102
{ACAD_REACTORS
330
C
102
}
330
C
100
AcDbDictionary
281
     1
  0
DICTIONARY
  5
1A
102
{ACAD_REACTORS
330
C
102
}
330
C
100
AcDbDictionary
281
     1
  3
Layout1
350
1E
  3
Layout2
350
26
  3
Model
350
22
  0
DICTIONARY
  5
B3
102
{ACAD_REACTORS
330
C
102
}
330
C
100
AcDbDictionary
281
     1
  0
DICTIONARY
  5
17
102
{ACAD_REACTORS
330
C
102
}
330
C
100
AcDbDictionary
281
     1
  3
Standard
350
18
  0
DICTIONARY
  5
19
102
{ACAD_REACTORS
330
C
102
}
330
C
100
AcDbDictionary
281
     1
  0
ACDBDICTIONARYWDFLT
  5
E
102
{ACAD_REACTORS
330
C
102
}
330
C
100
AcDbDictionary
281
     1
  3
Normal
350
F
100
AcDbDictionaryWithDefault
340
F
  0
DICTIONARY
  5
B2
102
{ACAD_REACTORS
330
C
102
}
330
C
100
AcDbDictionary
281
     1
  0
DICTIONARY
  5
2A
102
{ACAD_REACTORS
330
C
102
}
330
C
100
AcDbDictionary
281
     1
  3
2dWireframe
350
2F
  3
3D Hidden
350
31
  3
3dWireframe
350
30
  3
Basic
350
32
  3
Brighten
350
36
  3
ColorChange
350
3A
  3
Conceptual
350
34
  3
Dim
350
35
  3
Facepattern
350
39
  3
Flat
350
2B
  3
FlatWithEdges
350
2C
  3
Gouraud
350
2D
  3
GouraudWithEdges
350
2E
  3
Linepattern
350
38
  3
Realistic
350
33
  3
Thicken
350
37
  0
LAYOUT
  5
1E
102
{ACAD_REACTORS
330
1A
102
}
330
1A
100
AcDbPlotSettings
  1

  2
none_device
  4

  6

 40
0.0
 41
0.0
 42
0.0
 43
0.0
 44
0.0
 45
0.0
 46
0.0
 47
0.0
 48
0.0
 49
0.0
140
0.0
141
0.0
142
1.0
143
1.0
 70
   688
 72
     0
 73
     0
 74
     5
  7

 75
    16
 76
     0
 77
     2
 78
   300
147
1.0
148
0.0
149
0.0
100
AcDbLayout
  1
Layout1
 70
     1
 71
     1
 10
0.0
 20
0.0
 11
12.0
 21
9.0
 12
0.0
 22
0.0
 32
0.0
 14
1.000000000000000E+20
 24
1.000000000000000E+20
 34
1.000000000000000E+20
 15
-1.000000000000000E+20
 25
-1.000000000000000E+20
 35
-1.000000000000000E+20
146
0.0
 13
0.0
 23
0.0
 33
0.0
 16
1.0
 26
0.0
 36
0.0
 17
0.0
 27
1.0
 37
0.0
 76
     0
330
1B
  0
LAYOUT
  5
26
102
{ACAD_REACTORS
330
1A
102
}
330
1A
100
AcDbPlotSettings
  1

  2
none_device
  4

  6

 40
0.0
 41
0.0
 42
0.0
 43
0.0
 44
0.0
 45
0.0
 46
0.0
 47
0.0
 48
0.0
 49
0.0
140
0.0
141
0.0
142
1.0
143
1.0
 70
   688
 72
     0
 73
     0
 74
     5
  7

 75
    16
 76
     0
 77
     2
 78
   300
147
1.0
148
0.0
149
0.0
100
AcDbLayout
  1
Layout2
 70
     1
 71
     2
 10
0.0
 20
0.0
 11
0.0
 21
0.0
 12
0.0
 22
0.0
 32
0.0
 14
0.0
 24
0.0
 34
0.0
 15
0.0
 25
0.0
 35
0.0
146
0.0
 13
0.0
 23
0.0
 33
0.0
 16
1.0
 26
0.0
 36
0.0
 17
0.0
 27
1.0
 37
0.0
 76
     0
330
23
  0
LAYOUT
  5
22
102
{ACAD_REACTORS
330
1A
102
}
330
1A
100
AcDbPlotSettings
  1

  2
none_device
  4

  6

 40
0.0
 41
0.0
 42
0.0
 43
0.0
 44
0.0
 45
0.0
 46
0.0
 47
0.0
 48
0.0
 49
0.0
140
0.0
141
0.0
142
1.0
143
1.0
 70
  1712
 72
     0
 73
     0
 74
     0
  7

 75
     0
 76
     0
 77
     2
 78
   300
147
1.0
148
0.0
149
0.0
100
AcDbLayout
  1
Model
 70
     1
 71
     0
 10
0.0
 20
0.0
 11
12.0
 21
9.0
 12
0.0
 22
0.0
 32
0.0
 14
-11.04652564649684
 24
0.0
 34
0.0
 15
42.63927361386279
 25
63.00154099144456
 35
0.0
146
0.0
 13
0.0
 23
0.0
 33
0.0
 16
1.0
 26
0.0
 36
0.0
 17
0.0
 27
1.0
 37
0.0
 76
     0
330
1F
331
29
  0
MLINESTYLE
  5
18
102
{ACAD_REACTORS
330
17
102
}
330
17
100
AcDbMlineStyle
  2
Standard
 70
     0
  3

 62
   256
 51
90.0
 52
90.0
 71
     2
 49
0.5
 62
   256
  6
BYLAYER
 49
-0.5
 62
   256
  6
BYLAYER
  0
ACDBPLACEHOLDER
  5
F
102
{ACAD_REACTORS
330
E
102
}
330
E
  0
VISUALSTYLE
  5
2F
102
{ACAD_REACTORS
330
2A
102
}
330
2A
100
AcDbVisualStyle
  2
2dWireframe
 70
     4
 71
     0
 72
     2
 73
     0
 90
        0
 40
-0.6
 41
-30.0
 62
     5
 63
     7
421
 16777215
 74
     1
 91
        4
 64
     7
 65
   257
 75
     1
175
     1
 42
1.0
 92
        0
 66
   257
 43
1.0
 76
     1
 77
     6
 78
     2
 67
     7
 79
     5
170
     0
171
     0
290
     0
174
     0
 93
        1
 44
0.0
173
     0
291
     0
 45
0.0
1001
ACAD
1000
AcDbSavedByObjectVersion
1070
     0
  0
VISUALSTYLE
  5
31
102
{ACAD_REACTORS
330
2A
102
}
330
2A
100
AcDbVisualStyle
  2
3D Hidden
 70
     6
 71
     1
 72
     2
 73
     2
 90
        0
 40
-0.6
 41
-30.0
 62
     5
 63
     7
421
 16777215
 74
     2
 91
        2
 64
     7
 65
   257
 75
     2
175
     1
 42
40.0
 92
        0
 66
   257
 43
1.0
 76
     1
 77
     6
 78
     2
 67
     7
 79
     3
170
     0
171
     0
290
     0
174
     0
 93
        1
 44
0.0
173
     0
291
     0
 45
0.0
1001
ACAD
1000
AcDbSavedByObjectVersion
1070
     0
  0
VISUALSTYLE
  5
30
102
{ACAD_REACTORS
330
2A
102
}
330
2A
100
AcDbVisualStyle
  2
3dWireframe
 70
     5
 71
     0
 72
     2
 73
     0
 90
        0
 40
-0.6
 41
-30.0
 62
     5
 63
     7
421
 16777215
 74
     1
 91
        4
 64
     7
 65
   257
 75
     1
175
     1
 42
1.0
 92
        0
 66
   257
 43
1.0
 76
     1
 77
     6
 78
     2
 67
     7
 79
     5
170
     0
171
     0
290
     0
174
     0
 93
        1
 44
0.0
173
     0
291
     0
 45
0.0
1001
ACAD
1000
AcDbSavedByObjectVersion
1070
     0
  0
VISUALSTYLE
  5
32
102
{ACAD_REACTORS
330
2A
102
}
330
2A
100
AcDbVisualStyle
  2
Basic
 70
     7
 71
     1
 72
     0
 73
     1
 90
        0
 40
-0.6
 41
-30.0
 62
     5
 63
     7
421
 16777215
 74
     0
 91
        4
 64
     7
 65
   257
 75
     1
175
     1
 42
1.0
 92
        8
 66
     7
 43
1.0
 76
     1
 77
     6
 78
     2
 67
     7
 79
     5
170
     0
171
     0
290
     0
174
     0
 93
        1
 44
0.0
173
     0
291
     1
 45
0.0
1001
ACAD
1000
AcDbSavedByObjectVersion
1070
     0
  0
VISUALSTYLE
  5
36
102
{ACAD_REACTORS
330
2A
102
}
330
2A
100
AcDbVisualStyle
  2
Brighten
 70
    12
 71
     2
 72
     2
 73
     0
 90
        0
 40
-0.6
 41
-30.0
 62
     5
 63
     7
421
 16777215
 74
     1
 91
        4
 64
     7
 65
   257
 75
     1
175
     1
 42
1.0
 92
        8
 66
     7
 43
1.0
 76
     1
 77
     6
 78
     2
 67
     7
 79
     5
170
     0
171
     0
290
     0
174
     0
 93
        1
 44
50.0
173
     0
291
     1
 45
0.0
1001
ACAD
1000
AcDbSavedByObjectVersion
1070
     0
  0
VISUALSTYLE
  5
3A
102
{ACAD_REACTORS
330
2A
102
}
330
2A
100
AcDbVisualStyle
  2
ColorChange
 70
    16
 71
     2
 72
     2
 73
     3
 90
        0
 40
-0.6
 41
-30.0
 62
     5
 63
     8
421
  8421504
 74
     1
 91
        4
 64
     7
 65
   257
 75
     1
175
     1
 42
1.0
 92
        8
 66
     8
424
  8421504
 43
1.0
 76
     1
 77
     6
 78
     2
 67
     7
 79
     5
170
     0
171
     0
290
     0
174
     0
 93
        1
 44
0.0
173
     0
291
     1
 45
0.0
1001
ACAD
1000
AcDbSavedByObjectVersion
1070
     0
  0
VISUALSTYLE
  5
34
102
{ACAD_REACTORS
330
2A
102
}
330
2A
100
AcDbVisualStyle
  2
Conceptual
 70
     9
 71
     3
 72
     2
 73
     0
 90
        0
 40
-0.6
 41
-30.0
 62
     5
 63
     7
421
 16777215
 74
     2
 91
        2
 64
     7
 65
   257
 75
     1
175
     1
 42
40.0
 92
        8
 66
     7
 43
1.0
 76
     1
 77
     6
 78
     2
 67
     7
 79
     3
170
     0
171
     0
290
     0
174
     0
 93
        1
 44
0.0
173
     0
291
     0
 45
0.0
1001
ACAD
1000
AcDbSavedByObjectVersion
1070
     0
  0
VISUALSTYLE
  5
35
102
{ACAD_REACTORS
330
2A
102
}
330
2A
100
AcDbVisualStyle
  2
Dim
 70
    11
 71
     2
 72
     2
 73
     0
 90
        0
 40
-0.6
 41
-30.0
 62
     5
 63
     7
421
 16777215
 74
     1
 91
        4
 64
     7
 65
   257
 75
     1
175
     1
 42
1.0
 92
        8
 66
     7
 43
1.0
 76
     1
 77
     6
 78
     2
 67
     7
 79
     5
170
     0
171
     0
290
     0
174
     0
 93
        1
 44
-50.0
173
     0
291
     1
 45
0.0
1001
ACAD
1000
AcDbSavedByObjectVersion
1070
     0
  0
VISUALSTYLE
  5
39
102
{ACAD_REACTORS
330
2A
102
}
330
2A
100
AcDbVisualStyle
  2
Facepattern
 70
    15
 71
     2
 72
     2
 73
     0
 90
        0
 40
-0.6
 41
-30.0
 62
     5
 63
     7
421
 16777215
 74
     1
 91
        4
 64
     7
 65
   257
 75
     1
175
     1
 42
1.0
 92
        8
 66
     7
 43
1.0
 76
     1
 77
     6
 78
     2
 67
     7
 79
     5
170
     0
171
     0
290
     0
174
     0
 93
        1
 44
0.0
173
     0
291
     1
 45
0.0
1001
ACAD
1000
AcDbSavedByObjectVersion
1070
     0
  0
VISUALSTYLE
  5
2B
102
{ACAD_REACTORS
330
2A
102
}
330
2A
100
AcDbVisualStyle
  2
Flat
 70
     0
 71
     2
 72
     1
 73
     1
 90
        2
 40
-0.6
 41
30.0
 62
     5
 63
     7
421
 16777215
 74
     0
 91
        4
 64
     7
 65
   257
 75
     1
175
     1
 42
1.0
 92
        8
 66
     7
 43
1.0
 76
     1
 77
     6
 78
     2
 67
     7
 79
     5
170
     0
171
     0
290
     0
174
     0
 93
       13
 44
0.0
173
     0
291
     1
 45
0.0
1001
ACAD
1000
AcDbSavedByObjectVersion
1070
     0
  0
VISUALSTYLE
  5
2C
102
{ACAD_REACTORS
330
2A
102
}
330
2A
100
AcDbVisualStyle
  2
FlatWithEdges
 70
     1
 71
     2
 72
     1
 73
     1
 90
        2
 40
-0.6
 41
30.0
 62
     5
 63
     7
421
 16777215
 74
     1
 91
        4
 64
     7
 65
   257
 75
     1
175
     1
 42
1.0
 92
        0
 66
   257
 43
1.0
 76
     1
 77
     6
 78
     2
 67
     7
 79
     5
170
     0
171
     0
290
     0
174
     0
 93
       13
 44
0.0
173
     0
291
     1
 45
0.0
1001
ACAD
1000
AcDbSavedByObjectVersion
1070
     0
  0
VISUALSTYLE
  5
2D
102
{ACAD_REACTORS
330
2A
102
}
330
2A
100
AcDbVisualStyle
  2
Gouraud
 70
     2
 71
     2
 72
     2
 73
     1
 90
        2
 40
-0.6
 41
30.0
 62
     5
 63
     7
421
 16777215
 74
     0
 91
        4
 64
     7
 65
   257
 75
     1
175
     1
 42
1.0
 92
        0
 66
     7
 43
1.0
 76
     1
 77
     6
 78
     2
 67
     7
 79
     5
170
     0
171
     0
290
     0
174
     0
 93
       13
 44
0.0
173
     0
291
     1
 45
0.0
1001
ACAD
1000
AcDbSavedByObjectVersion
1070
     0
  0
VISUALSTYLE
  5
2E
102
{ACAD_REACTORS
330
2A
102
}
330
2A
100
AcDbVisualStyle
  2
GouraudWithEdges
 70
     3
 71
     2
 72
     2
 73
     1
 90
        2
 40
-0.6
 41
30.0
 62
     5
 63
     7
421
 16777215
 74
     1
 91
        4
 64
     7
 65
   257
 75
     1
175
     1
 42
1.0
 92
        0
 66
   257
 43
1.0
 76
     1
 77
     6
 78
     2
 67
     7
 79
     5
170
     0
171
     0
290
     0
174
     0
 93
       13
 44
0.0
173
     0
291
     1
 45
0.0
1001
ACAD
1000
AcDbSavedByObjectVersion
1070
     0
  0
VISUALSTYLE
  5
38
102
{ACAD_REACTORS
330
2A
102
}
330
2A
100
AcDbVisualStyle
  2
Linepattern
 70
    14
 71
     2
 72
     2
 73
     0
 90
        0
 40
-0.6
 41
-30.0
 62
     5
 63
     7
421
 16777215
 74
     1
 91
        4
 64
     7
 65
   257
 75
     7
175
     7
 42
1.0
 92
        8
 66
     7
 43
1.0
 76
     1
 77
     6
 78
     2
 67
     7
 79
     5
170
     0
171
     0
290
     0
174
     0
 93
        1
 44
0.0
173
     0
291
     1
 45
0.0
1001
ACAD
1000
AcDbSavedByObjectVersion
1070
     0
  0
VISUALSTYLE
  5
33
102
{ACAD_REACTORS
330
2A
102
}
330
2A
100
AcDbVisualStyle
  2
Realistic
 70
     8
 71
     2
 72
     2
 73
     0
 90
        0
 40
-0.6
 41
-30.0
 62
     5
 63
     7
421
 16777215
 74
     1
 91
        0
 64
     7
 65
   257
 75
     1
175
     1
 42
1.0
 92
        8
 66
     8
424
  7895160
 43
1.0
 76
     1
 77
     6
 78
     2
 67
     7
 79
     5
170
     0
171
     0
290
     0
174
     0
 93
       13
 44
0.0
173
     0
291
     0
 45
0.0
1001
ACAD
1000
AcDbSavedByObjectVersion
1070
     0
  0
VISUALSTYLE
  5
37
102
{ACAD_REACTORS
330
2A
102
}
330
2A
100
AcDbVisualStyle
  2
Thicken
 70
    13
 71
     2
 72
     2
 73
     0
 90
        0
 40
-0.6
 41
-30.0
 62
     5
 63
     7
421
 16777215
 74
     1
 91
        4
 64
     7
 65
   257
 75
     1
175
     1
 42
1.0
 92
       12
 66
     7
 43
1.0
 76
     1
 77
     6
 78
     2
 67
     7
 79
     5
170
     0
171
     0
290
     0
174
     0
 93
        1
 44
0.0
173
     0
291
     1
 45
0.0
1001
ACAD
1000
AcDbSavedByObjectVersion
1070
     0
  0
ENDSEC
  0
EOF
