  0
SECTION
  2
HEADER
  9
$ACADVER
  1
AC1018
  9
$ACADMAINTVER
 70
     0
  9
$DWGCODEPAGE
  3
ANSI_1252
  9
$INSBASE
 10
0.0
 20
0.0
 30
0.0
  9
$EXTMIN
 10
-14.64960402052019
 20
0.0000000000000034
 30
0.0
  9
$EXTMAX
 10
14.64935312113161
 20
54.36136037591537
 30
0.0
  9
$LIMMIN
 10
0.0
 20
0.0
  9
$LIMMAX
 10
12.0
 20
9.0
  9
$ORTHOMODE
 70
     0
  9
$REGENMODE
 70
     1
  9
$FILLMODE
 70
     1
  9
$QTEXTMODE
 70
     0
  9
$MIRRTEXT
 70
     1
  9
$LTSCALE
 40
0.0393700787401575
  9
$ATTMODE
 70
     1
  9
$TEXTSIZE
 40
0.2
  9
$TRACEWID
 40
0.05
  9
$TEXTSTYLE
  7
Standard
  9
$CLAYER
  8
Default
  9
$CELTYPE
  6
ByLayer
  9
$CECOLOR
 62
   256
  9
$CELTSCALE
 40
1.0
  9
$DISPSILH
 70
     0
  9
$DIMSCALE
 40
1.0
  9
$DIMASZ
 40
0.18
  9
$DIMEXO
 40
0.0625
  9
$DIMDLI
 40
0.38
  9
$DIMRND
 40
0.0
  9
$DIMDLE
 40
0.0
  9
$DIMEXE
 40
0.18
  9
$DIMTP
 40
0.0
  9
$DIMTM
 40
0.0
  9
$DIMTXT
 40
0.18
  9
$DIMCEN
 40
0.09
  9
$DIMTSZ
 40
0.0
  9
$DIMTOL
 70
     0
  9
$DIMLIM
 70
     0
  9
$DIMTIH
 70
     1
  9
$DIMTOH
 70
     1
  9
$DIMSE1
 70
     0
  9
$DIMSE2
 70
     0
  9
$DIMTAD
 70
     0
  9
$DIMZIN
 70
     0
  9
$DIMBLK
  1

  9
$DIMASO
 70
     1
  9
$DIMSHO
 70
     1
  9
$DIMPOST
  1

  9
$DIMAPOST
  1

  9
$DIMALT
 70
     0
  9
$DIMALTD
 70
     2
  9
$DIMALTF
 40
25.4
  9
$DIMLFAC
 40
1.0
  9
$DIMTOFL
 70
     0
  9
$DIMTVP
 40
0.0
  9
$DIMTIX
 70
     0
  9
$DIMSOXD
 70
     0
  9
$DIMSAH
 70
     0
  9
$DIMBLK1
  1

  9
$DIMBLK2
  1

  9
$DIMSTYLE
  2
Standard
  9
$DIMCLRD
 70
     0
  9
$DIMCLRE
 70
     0
  9
$DIMCLRT
 70
     0
  9
$DIMTFAC
 40
1.0
  9
$DIMGAP
 40
0.09
  9
$DIMJUST
 70
     0
  9
$DIMSD1
 70
     0
  9
$DIMSD2
 70
     0
  9
$DIMTOLJ
 70
     1
  9
$DIMTZIN
 70
     0
  9
$DIMALTZ
 70
     0
  9
$DIMALTTZ
 70
     0
  9
$DIMUPT
 70
     0
  9
$DIMDEC
 70
     4
  9
$DIMTDEC
 70
     4
  9
$DIMALTU
 70
     2
  9
$DIMALTTD
 70
     2
  9
$DIMTXSTY
  7
Standard
  9
$DIMAUNIT
 70
     0
  9
$DIMADEC
 70
     0
  9
$DIMALTRND
 40
0.0
  9
$DIMAZIN
 70
     0
  9
$DIMDSEP
 70
    46
  9
$DIMATFIT
 70
     3
  9
$DIMFRAC
 70
     0
  9
$DIMLDRBLK
  1

  9
$DIMLUNIT
 70
     2
  9
$DIMLWD
 70
    -2
  9
$DIMLWE
 70
    -2
  9
$DIMTMOVE
 70
     2
  9
$LUNITS
 70
     2
  9
$LUPREC
 70
     3
  9
$SKETCHINC
 40
0.1
  9
$FILLETRAD
 40
0.5
  9
$AUNITS
 70
     0
  9
$AUPREC
 70
     0
  9
$MENU
  1
.
  9
$ELEVATION
 40
0.0
  9
$PELEVATION
 40
0.0
  9
$THICKNESS
 40
0.0
  9
$LIMCHECK
 70
     0
  9
$CHAMFERA
 40
0.5
  9
$CHAMFERB
 40
0.5
  9
$CHAMFERC
 40
1.0
  9
$CHAMFERD
 40
0.0
  9
$SKPOLY
 70
     0
  9
$TDCREATE
 40
2456338.456917454
  9
$TDUCREATE
 40
2456338.665250787
  9
$TDUPDATE
 40
2456338.456917465
  9
$TDUUPDATE
 40
2456338.665250799
  9
$TDINDWG
 40
0.0000000116
  9
$TDUSRTIMER
 40
0.0000000116
  9
$USRTIMER
 70
     1
  9
$ANGBASE
 50
0.0
  9
$ANGDIR
 70
     0
  9
$PDMODE
 70
     0
  9
$PDSIZE
 40
0.0
  9
$PLINEWID
 40
0.0
  9
$SPLFRAME
 70
     0
  9
$SPLINETYPE
 70
     6
  9
$SPLINESEGS
 70
     8
  9
$HANDSEED
  5
B6
  9
$SURFTAB1
 70
     6
  9
$SURFTAB2
 70
     6
  9
$SURFTYPE
 70
     6
  9
$SURFU
 70
     6
  9
$SURFV
 70
     6
  9
$UCSBASE
  2

  9
$UCSNAME
  2

  9
$UCSORG
 10
0.0
 20
0.0
 30
0.0
  9
$UCSXDIR
 10
1.0
 20
0.0
 30
0.0
  9
$UCSYDIR
 10
0.0
 20
1.0
 30
0.0
  9
$UCSORTHOREF
  2

  9
$UCSORTHOVIEW
 70
     0
  9
$UCSORGTOP
 10
0.0
 20
0.0
 30
0.0
  9
$UCSORGBOTTOM
 10
0.0
 20
0.0
 30
0.0
  9
$UCSORGLEFT
 10
0.0
 20
0.0
 30
0.0
  9
$UCSORGRIGHT
 10
0.0
 20
0.0
 30
0.0
  9
$UCSORGFRONT
 10
0.0
 20
0.0
 30
0.0
  9
$UCSORGBACK
 10
0.0
 20
0.0
 30
0.0
  9
$PUCSBASE
  2

  9
$PUCSNAME
  2

  9
$PUCSORG
 10
0.0
 20
0.0
 30
0.0
  9
$PUCSXDIR
 10
1.0
 20
0.0
 30
0.0
  9
$PUCSYDIR
 10
0.0
 20
1.0
 30
0.0
  9
$PUCSORTHOREF
  2

  9
$PUCSORTHOVIEW
 70
     0
  9
$PUCSORGTOP
 10
0.0
 20
0.0
 30
0.0
  9
$PUCSORGBOTTOM
 10
0.0
 20
0.0
 30
0.0
  9
$PUCSORGLEFT
 10
0.0
 20
0.0
 30
0.0
  9
$PUCSORGRIGHT
 10
0.0
 20
0.0
 30
0.0
  9
$PUCSORGFRONT
 10
0.0
 20
0.0
 30
0.0
  9
$PUCSORGBACK
 10
0.0
 20
0.0
 30
0.0
  9
$USERI1
 70
     0
  9
$USERI2
 70
     0
  9
$USERI3
 70
     0
  9
$USERI4
 70
     0
  9
$USERI5
 70
     0
  9
$USERR1
 40
0.0
  9
$USERR2
 40
0.0
  9
$USERR3
 40
0.0
  9
$USERR4
 40
0.0
  9
$USERR5
 40
0.0
  9
$WORLDVIEW
 70
     1
  9
$SHADEDGE
 70
     3
  9
$SHADEDIF
 70
    70
  9
$TILEMODE
 70
     1
  9
$MAXACTVP
 70
    64
  9
$PINSBASE
 10
0.0
 20
0.0
 30
0.0
  9
$PLIMCHECK
 70
     0
  9
$PEXTMIN
 10
1.000000000000000E+20
 20
1.000000000000000E+20
 30
1.000000000000000E+20
  9
$PEXTMAX
 10
-1.000000000000000E+20
 20
-1.000000000000000E+20
 30
-1.000000000000000E+20
  9
$PLIMMIN
 10
0.0
 20
0.0
  9
$PLIMMAX
 10
12.0
 20
9.0
  9
$UNITMODE
 70
     0
  9
$VISRETAIN
 70
     1
  9
$PLINEGEN
 70
     0
  9
$PSLTSCALE
 70
     1
  9
$TREEDEPTH
 70
  3020
  9
$CMLSTYLE
  2
Standard
  9
$CMLJUST
 70
     0
  9
$CMLSCALE
 40
1.0
  9
$PROXYGRAPHICS
 70
     1
  9
$MEASUREMENT
 70
     0
  9
$CELWEIGHT
370
    -1
  9
$ENDCAPS
280
     0
  9
$JOINSTYLE
280
     0
  9
$LWDISPLAY
290
     0
  9
$INSUNITS
 70
     1
  9
$HYPERLINKBASE
  1

  9
$STYLESHEET
  1

  9
$XEDIT
290
     1
  9
$CEPSNTYPE
380
     0
  9
$PSTYLEMODE
290
     1
  9
$FINGERPRINTGUID
  2
{FFAF50E8-15CF-45DA-80C8-3E9DC6A23BF7}
  9
$VERSIONGUID
  2
{FAEB1C32-E019-11D5-929B-00C0DF256EC4}
  9
$EXTNAMES
290
     1
  9
$PSVPSCALE
 40
0.0
  9
$OLESTARTUP
290
     0
  9
$SORTENTS
280
   127
  9
$INDEXCTL
280
     0
  9
$HIDETEXT
280
     1
  9
$XCLIPFRAME
290
     0
  9
$HALOGAP
280
     0
  9
$OBSCOLOR
 70
   257
  9
$OBSLTYPE
280
     0
  9
$INTERSECTIONDISPLAY
280
     0
  9
$INTERSECTIONCOLOR
 70
   257
  9
$DIMASSOC
280
     2
  9
$PROJECTNAME
  1

  0
ENDSEC
  0
SECTION
  2
CLASSES
  0
CLASS
  1
ACDBDICTIONARYWDFLT
  2
AcDbDictionaryWithDefault
  3
ObjectDBX Classes
 90
        0
 91
        4
280
     0
281
     0
  0
CLASS
  1
VISUALSTYLE
  2
AcDbVisualStyle
  3
ObjectDBX Classes
 90
     4095
 91
        4
280
     0
281
     0
  0
ENDSEC
  0
SECTION
  2
TABLES
  0
TABLE
  2
VPORT
  5
8
330
0
100
AcDbSymbolTable
 70
     1
  0
VPORT
  5
29
330
8
100
AcDbSymbolTableRecord
100
AcDbViewportTableRecord
  2
*Active
 70
     0
 10
0.0
 20
0.0
 11
1.0
 21
1.0
 12
-0.0001254496942877
 22
27.18068018795768
 13
0.0
 23
0.0
 14
0.5
 24
0.5
 15
0.5
 25
0.5
 16
0.0
 26
0.0
 36
1.0
 17
0.0
 27
0.0
 37
0.0
 40
55.44858758343368
 41
0.5389665920618243
 42
50.0
 43
0.0
 44
0.0
 50
0.0
 51
0.0
 71
     0
 72
   100
 73
     1
 74
     3
 75
     0
 76
     0
 77
     0
 78
     0
281
     0
 65
     1
110
0.0
120
0.0
130
0.0
111
1.0
121
0.0
131
0.0
112
0.0
122
1.0
132
0.0
 79
     0
146
0.0
  0
ENDTAB
  0
TABLE
  2
LTYPE
  5
5
330
0
100
AcDbSymbolTable
 70
     1
  0
LTYPE
  5
14
330
5
100
AcDbSymbolTableRecord
100
AcDbLinetypeTableRecord
  2
ByBlock
 70
     0
  3

 72
    65
 73
     0
 40
0.0
  0
LTYPE
  5
15
330
5
100
AcDbSymbolTableRecord
100
AcDbLinetypeTableRecord
  2
ByLayer
 70
     0
  3

 72
    65
 73
     0
 40
0.0
  0
LTYPE
  5
16
330
5
100
AcDbSymbolTableRecord
100
AcDbLinetypeTableRecord
  2
Continuous
 70
     0
  3
Solid line
 72
    65
 73
     0
 40
0.0
  0
ENDTAB
  0
TABLE
  2
LAYER
  5
2
330
0
100
AcDbSymbolTable
 70
     4
  0
LAYER
  5
10
330
2
100
AcDbSymbolTableRecord
100
AcDbLayerTableRecord
  2
0
 70
     0
 62
     7
  6
Continuous
370
    -3
390
F
  0
LAYER
  5
3B
330
2
100
AcDbSymbolTableRecord
100
AcDbLayerTableRecord
  2
Make2D visible lines
 70
     0
 62
     7
  6
Continuous
370
    -3
390
F
  0
LAYER
  5
5A
330
2
100
AcDbSymbolTableRecord
100
AcDbLayerTableRecord
  2
Make2D visible lines - Tangent
 70
     0
 62
     7
  6
Continuous
370
    -3
390
F
  0
LAYER
  5
73
330
2
100
AcDbSymbolTableRecord
100
AcDbLayerTableRecord
  2
Default
 70
     0
 62
     7
  6
Continuous
370
    -3
390
F
  0
ENDTAB
  0
TABLE
  2
STYLE
  5
3
330
0
100
AcDbSymbolTable
 70
     1
  0
STYLE
  5
11
330
3
100
AcDbSymbolTableRecord
100
AcDbTextStyleTableRecord
  2
Standard
 70
     0
 40
0.0
 41
1.0
 50
0.0
 71
     0
 42
0.2
  3
txt
  4

  0
ENDTAB
  0
TABLE
  2
VIEW
  5
6
330
0
100
AcDbSymbolTable
 70
     0
  0
ENDTAB
  0
TABLE
  2
UCS
  5
7
330
0
100
AcDbSymbolTable
 70
     0
  0
ENDTAB
  0
TABLE
  2
APPID
  5
9
330
0
100
AcDbSymbolTable
 70
     1
  0
APPID
  5
12
330
9
100
AcDbSymbolTableRecord
100
AcDbRegAppTableRecord
  2
ACAD
 70
     0
  0
ENDTAB
  0
TABLE
  2
DIMSTYLE
  5
A
330
0
100
AcDbSymbolTable
 70
     1
100
AcDbDimStyleTable
  0
DIMSTYLE
105
27
330
A
100
AcDbSymbolTableRecord
100
AcDbDimStyleTableRecord
  2
Standard
 70
     0
340
11
  0
ENDTAB
  0
TABLE
  2
BLOCK_RECORD
  5
1
330
0
100
AcDbSymbolTable
 70
     1
  0
BLOCK_RECORD
  5
1F
330
1
100
AcDbSymbolTableRecord
100
AcDbBlockTableRecord
  2
*Model_Space
340
22
  0
BLOCK_RECORD
  5
1B
330
1
100
AcDbSymbolTableRecord
100
AcDbBlockTableRecord
  2
*Paper_Space
340
1E
  0
BLOCK_RECORD
  5
23
330
1
100
AcDbSymbolTableRecord
100
AcDbBlockTableRecord
  2
*Paper_Space0
340
26
  0
ENDTAB
  0
ENDSEC
  0
SECTION
  2
BLOCKS
  0
BLOCK
  5
20
330
1F
100
AcDbEntity
  8
0
100
AcDbBlockBegin
  2
*Model_Space
 70
     0
 10
0.0
 20
0.0
 30
0.0
  3
*Model_Space
  1

  0
ENDBLK
  5
21
330
1F
100
AcDbEntity
  8
0
100
AcDbBlockEnd
  0
BLOCK
  5
1C
330
1B
100
AcDbEntity
 67
     1
  8
0
100
AcDbBlockBegin
  2
*Paper_Space
 70
     0
 10
0.0
 20
0.0
 30
0.0
  3
*Paper_Space
  1

  0
ENDBLK
  5
1D
330
1B
100
AcDbEntity
 67
     1
  8
0
100
AcDbBlockEnd
  0
BLOCK
  5
24
330
23
100
AcDbEntity
  8
0
100
AcDbBlockBegin
  2
*Paper_Space0
 70
     0
 10
0.0
 20
0.0
 30
0.0
  3
*Paper_Space0
  1

  0
ENDBLK
  5
25
330
23
100
AcDbEntity
  8
0
100
AcDbBlockEnd
  0
ENDSEC
  0
SECTION
  2
ENTITIES
  0
SPLINE
  5
3C
330
1F
100
AcDbEntity
  8
Make2D visible lines
100
AcDbSpline
210
0.0
220
0.0
230
1.0
 70
     8
 71
     3
 72
     8
 73
     4
 74
     0
 42
0.0000000001
 43
0.0000000001
 40
0.6950384688492743
 40
0.6950384688492743
 40
0.6950384688492743
 40
0.6950384688492743
 40
1.0
 40
1.0
 40
1.0
 40
1.0
 10
0.4768090114631614
 20
3.673125576136301
 30
0.0
 10
0.7253036404257046
 20
3.670158211529776
 30
0.0
 10
0.9737567005392187
 20
3.664870965980719
 30
0.0
 10
1.222103194883235
 20
3.65726383948913
 30
0.0
  0
SPLINE
  5
3D
330
1F
100
AcDbEntity
  8
Make2D visible lines
100
AcDbSpline
210
0.0
220
0.0
230
1.0
 70
    12
 71
     3
 72
     8
 73
     4
 74
     0
 42
0.0000000001
 43
0.0000000001
 40
-0.9983344876344831
 40
-0.9983344876344831
 40
-0.9983344876344831
 40
-0.9983344876344831
 40
0.0
 40
0.0
 40
0.0
 40
0.0
 10
1.222103194883235
 20
3.65726383948913
 30
0.0
 41
1.0
 10
1.676765933652849
 20
3.64333701932616
 30
0.0
 41
1.0
 10
2.129148709429085
 20
3.574404695741988
 30
0.0
 41
1.0
 10
2.580000000000052
 20
3.511811827671384
 30
0.0
 41
1.0
  0
SPLINE
  5
3E
330
1F
100
AcDbEntity
  8
Make2D visible lines
100
AcDbSpline
210
0.0
220
0.0
230
1.0
 70
    24
 71
     2
 72
     6
 73
     3
 74
     0
 42
0.0000000001
 43
0.0000000001
 40
0.0
 40
0.0
 40
0.0
 40
10.36850216633574
 40
10.36850216633574
 40
10.36850216633574
 10
2.580000000000052
 20
3.511811827671384
 30
0.0
 10
7.715000000000055
 20
2.798906298637399
 30
0.0
 10
12.85000000000006
 20
2.086000769603414
 30
0.0
  0
SPLINE
  5
3F
330
1F
100
AcDbEntity
  8
Make2D visible lines
100
AcDbSpline
210
0.0
220
0.0
230
1.0
 70
     8
 71
     3
 72
    13
 73
     9
 74
     0
 42
0.0000000001
 43
0.0000000001
 40
0.0
 40
0.0
 40
0.0
 40
0.0
 40
0.1163337939371243
 40
0.2443108918713642
 40
0.4828690280123605
 40
0.5672189493277444
 40
0.750510233115731
 40
1.83258135608072
 40
1.83258135608072
 40
1.83258135608072
 40
1.83258135608072
 10
12.85000000000006
 20
2.086000769603414
 30
0.0
 10
12.88767892357314
 20
2.080693221901958
 30
0.0
 10
12.96861491757254
 20
2.057218183732865
 30
0.0
 10
13.10099654582271
 20
1.966768126584214
 30
0.0
 10
13.18338032673707
 20
1.830020096093349
 30
0.0
 10
13.19443594558863
 20
1.661268225296924
 30
0.0
 10
13.2025091665798
 20
1.211528658082631
 30
0.0
 10
13.21533440039329
 20
0.7898405850234216
 30
0.0
 10
13.22328472354927
 20
0.429267031622143
 30
0.0
  0
SPLINE
  5
40
330
1F
100
AcDbEntity
  8
Make2D visible lines
100
AcDbSpline
210
0.0
220
0.0
230
1.0
 70
     8
 71
     3
 72
    13
 73
     9
 74
     0
 42
0.0000000001
 43
0.0000000001
 40
-1.83258135608072
 40
-1.83258135608072
 40
-1.83258135608072
 40
-1.83258135608072
 40
-0.750510233115731
 40
-0.5672189493277444
 40
-0.4828690280123605
 40
-0.2443108918713642
 40
-0.1163337939371243
 40
0.0
 40
0.0
 40
0.0
 40
0.0
 10
-13.22328472354927
 20
0.429267031622143
 30
0.0
 10
-13.21533440039329
 20
0.7898405850234216
 30
0.0
 10
-13.2025091665798
 20
1.211528658082631
 30
0.0
 10
-13.19443594558863
 20
1.661268225296924
 30
0.0
 10
-13.18338032673707
 20
1.830020096093349
 30
0.0
 10
-13.10099654582271
 20
1.966768126584214
 30
0.0
 10
-12.96861491757254
 20
2.057218183732865
 30
0.0
 10
-12.88767892357314
 20
2.080693221901958
 30
0.0
 10
-12.85000000000006
 20
2.086000769603414
 30
0.0
  0
SPLINE
  5
41
330
1F
100
AcDbEntity
  8
Make2D visible lines
100
AcDbSpline
210
0.0
220
0.0
230
1.0
 70
    24
 71
     2
 72
     6
 73
     3
 74
     0
 42
0.0000000001
 43
0.0000000001
 40
-10.36850216633574
 40
-10.36850216633574
 40
-10.36850216633574
 40
0.0
 40
0.0
 40
0.0
 10
-12.85000000000006
 20
2.086000769603414
 30
0.0
 10
-7.715000000000055
 20
2.798906298637399
 30
0.0
 10
-2.580000000000052
 20
3.511811827671384
 30
0.0
  0
SPLINE
  5
42
330
1F
100
AcDbEntity
  8
Make2D visible lines
100
AcDbSpline
210
0.0
220
0.0
230
1.0
 70
    12
 71
     3
 72
     8
 73
     4
 74
     0
 42
0.0000000001
 43
0.0000000001
 40
0.0
 40
0.0
 40
0.0
 40
0.0
 40
0.9983344876344831
 40
0.9983344876344831
 40
0.9983344876344831
 40
0.9983344876344831
 10
-2.580000000000052
 20
3.511811827671384
 30
0.0
 41
1.0
 10
-2.129148709429085
 20
3.574404695741988
 30
0.0
 41
1.0
 10
-1.676765933652849
 20
3.64333701932616
 30
0.0
 41
1.0
 10
-1.222103194883235
 20
3.65726383948913
 30
0.0
 41
1.0
  0
SPLINE
  5
43
330
1F
100
AcDbEntity
  8
Make2D visible lines
100
AcDbSpline
210
0.0
220
0.0
230
1.0
 70
     8
 71
     3
 72
     8
 73
     4
 74
     0
 42
0.0000000001
 43
0.0000000001
 40
0.0
 40
0.0
 40
0.0
 40
0.0
 40
0.3051876163662417
 40
0.3051876163662417
 40
0.3051876163662417
 40
0.3051876163662417
 10
-1.222103194883235
 20
3.65726383948913
 30
0.0
 10
-0.9735725872496357
 20
3.664876605573444
 30
0.0
 10
-0.7249352557815157
 20
3.670166049722532
 30
0.0
 10
-0.4762563420642089
 20
3.673132171936395
 30
0.0
  0
SPLINE
  5
44
330
1F
100
AcDbEntity
  8
Make2D visible lines
100
AcDbSpline
210
0.0
220
0.0
230
1.0
 70
    12
 71
     2
 72
     6
 73
     3
 74
     0
 42
0.0000000001
 43
0.0000000001
 40
-0.0352706514985427
 40
-0.0352706514985427
 40
-0.0352706514985427
 40
0.0
 40
0.0
 40
0.0
 10
-13.24240847747864
 20
0.4020374895150737
 30
0.0
 41
1.0
 10
-13.22377320145242
 20
0.4092798636229074
 30
0.0
 41
0.8321381552760684
 10
-13.22328472354927
 20
0.429267031622143
 30
0.0
 41
1.0
  0
SPLINE
  5
45
330
1F
100
AcDbEntity
  8
Make2D visible lines
100
AcDbSpline
210
0.0
220
0.0
230
1.0
 70
    12
 71
     2
 72
     6
 73
     3
 74
     0
 42
0.0000000001
 43
0.0000000001
 40
-0.0352706514985427
 40
-0.0352706514985427
 40
-0.0352706514985427
 40
0.0
 40
0.0
 40
0.0
 10
13.24240847747864
 20
0.4020374895150737
 30
0.0
 41
1.0
 10
13.22377320145242
 20
0.4092798636229074
 30
0.0
 41
0.8321381552760684
 10
13.22328472354927
 20
0.429267031622143
 30
0.0
 41
1.0
  0
SPLINE
  5
46
330
1F
100
AcDbEntity
  8
Make2D visible lines
100
AcDbSpline
210
0.0
220
0.0
230
1.0
 70
    24
 71
     2
 72
     6
 73
     3
 74
     0
 42
0.0000000001
 43
0.0000000001
 40
0.0
 40
0.0
 40
0.0
 40
1.107594207465098
 40
1.107594207465098
 40
1.107594207465098
 10
-13.386009813054
 20
0.0000000000000036
 30
0.0
 10
-13.93980691678655
 20
0.0000000000000036
 30
0.0
 10
-14.4936040205191
 20
0.0000000000000036
 30
0.0
  0
SPLINE
  5
47
330
1F
100
AcDbEntity
  8
Make2D visible lines
100
AcDbSpline
210
0.0
220
0.0
230
1.0
 70
    12
 71
     2
 72
     8
 73
     5
 74
     0
 42
0.0000000001
 43
0.0000000001
 40
0.0
 40
0.0
 40
0.0
 40
0.1269465231438366
 40
0.1269465231438366
 40
0.2538930462876731
 40
0.2538930462876731
 40
0.2538930462876731
 10
-14.49360402051909
 20
0.0000000000000036
 30
0.0
 41
1.0
 10
-14.56082858485446
 20
0.000000000000002
 30
0.0
 41
0.918360064844369
 10
-14.60699642696272
 20
0.0488638148853193
 30
0.0
 41
1.0
 10
-14.65316426907099
 20
0.0977276297706366
 30
0.0
 41
0.918360064844369
 10
-14.6493531211261
 20
0.1648440748599159
 30
0.0
 41
1.0
  0
SPLINE
  5
48
330
1F
100
AcDbEntity
  8
Make2D visible lines
100
AcDbSpline
210
0.0
220
0.0
230
1.0
 70
    12
 71
     2
 72
     6
 73
     3
 74
     0
 42
0.0000000001
 43
0.0000000001
 40
0.0
 40
0.0
 40
0.0
 40
0.2412324278936833
 40
0.2412324278936833
 40
0.2412324278936833
 10
-13.23005638064813
 20
0.1521885802082181
 30
0.0
 41
1.0
 10
-13.23377578943406
 20
-0.0000000000000105
 30
0.0
 41
0.7156927337036098
 10
-13.386009813054
 20
0.0000000000000034
 30
0.0
 41
1.0
  0
SPLINE
  5
49
330
1F
100
AcDbEntity
  8
Make2D visible lines
100
AcDbSpline
210
0.0
220
0.0
230
1.0
 70
    24
 71
     2
 72
     6
 73
     3
 74
     0
 42
0.0000000001
 43
0.0000000001
 40
0.0
 40
0.0
 40
0.0
 40
0.2325105046476637
 40
0.2325105046476637
 40
0.2325105046476637
 10
-13.23005628681928
 20
0.1521924194416825
 30
0.0
 10
-13.22721591778332
 20
0.2684129683847045
 30
0.0
 10
-13.22437554874736
 20
0.3846335173277264
 30
0.0
  0
SPLINE
  5
4A
330
1F
100
AcDbEntity
  8
Make2D visible lines
100
AcDbSpline
210
0.0
220
0.0
230
1.0
 70
    24
 71
     2
 72
     6
 73
     3
 74
     0
 42
0.0000000001
 43
0.0000000001
 40
0.0
 40
0.0
 40
0.0
 40
0.2213623405233084
 40
0.2213623405233084
 40
0.2213623405233084
 10
-14.63680347298028
 20
0.3858503918134666
 30
0.0
 10
-14.64307829705319
 20
0.2753472333366913
 30
0.0
 10
-14.6493531211261
 20
0.164844074859916
 30
0.0
  0
SPLINE
  5
4B
330
1F
100
AcDbEntity
  8
Make2D visible lines
100
AcDbSpline
210
0.0
220
0.0
230
1.0
 70
    12
 71
     2
 72
     6
 73
     3
 74
     0
 42
0.0000000001
 43
0.0000000001
 40
0.0
 40
0.0
 40
0.0
 40
0.0224671519842366
 40
0.0224671519842366
 40
0.0224671519842366
 10
-14.63678766326983
 20
0.3860938211857499
 30
0.0
 41
1.0
 10
-14.6357708981257
 20
0.4000000000000348
 30
0.0
 41
0.7324347794791691
 10
-14.6218275979219
 20
0.4000000000000183
 30
0.0
 41
1.0
  0
SPLINE
  5
4C
330
1F
100
AcDbEntity
  8
Make2D visible lines
100
AcDbSpline
210
0.0
220
0.0
230
1.0
 70
    24
 71
     2
 72
     6
 73
     3
 74
     0
 42
0.0000000001
 43
0.0000000001
 40
0.0
 40
0.0
 40
0.0
 40
1.379419120443295
 40
1.379419120443295
 40
1.379419120443295
 10
-14.6218275979219
 20
0.4000000000000163
 30
0.0
 10
-13.93211803770025
 20
0.4000000000000162
 30
0.0
 10
-13.24240847747861
 20
0.4000000000000161
 30
0.0
  0
SPLINE
  5
4D
330
1F
100
AcDbEntity
  8
Make2D visible lines
100
AcDbSpline
210
0.0
220
0.0
230
1.0
 70
    12
 71
     2
 72
     8
 73
     5
 74
     0
 42
0.0000000001
 43
0.0000000001
 40
0.0
 40
0.0
 40
0.0
 40
0.0119642320224294
 40
0.0119642320224294
 40
0.0239284640448587
 40
0.0239284640448587
 40
0.0239284640448587
 10
-13.2393710710941
 20
0.4000000000000163
 30
0.0
 41
1.0
 10
-13.23305024302711
 20
0.4000000000000209
 30
0.0
 41
0.9215246294676533
 10
-13.22863568008853
 20
0.3954762292814858
 30
0.0
 41
1.0
 10
-13.22422111714996
 20
0.3909524585629509
 30
0.0
 41
0.9215246294676533
 10
-13.22437554874736
 20
0.3846335173277264
 30
0.0
 41
1.0
  0
SPLINE
  5
4E
330
1F
100
AcDbEntity
  8
Make2D visible lines
100
AcDbSpline
210
0.0
220
0.0
230
1.0
 70
    12
 71
     2
 72
     6
 73
     3
 74
     0
 42
0.0000000001
 43
0.0000000001
 40
-0.0371380794388858
 40
-0.0371380794388858
 40
-0.0371380794388858
 40
0.0
 40
0.0
 40
0.0
 10
14.61564357989874
 20
0.4022441987256987
 30
0.0
 41
1.0
 10
14.63541548501586
 20
0.4103542426935238
 30
0.0
 41
0.8144776561050845
 10
14.63421101299304
 20
0.4316908378358253
 30
0.0
 41
1.0
  0
SPLINE
  5
4F
330
1F
100
AcDbEntity
  8
Make2D visible lines
100
AcDbSpline
210
0.0
220
0.0
230
1.0
 70
     8
 71
     3
 72
    12
 73
     8
 74
     0
 42
0.0000000001
 43
0.0000000001
 40
0.0
 40
0.0
 40
0.0
 40
0.0
 40
2.024931116884056
 40
2.121300252943487
 40
2.208073208949396
 40
2.641991453438839
 40
3.085460819895622
 40
3.085460819895622
 40
3.085460819895622
 40
3.085460819895622
 10
14.63421101299304
 20
0.4316908378358253
 30
0.0
 10
14.59550714099262
 20
1.105574847750693
 30
0.0
 10
14.55720448132851
 20
1.811593362411049
 30
0.0
 10
14.51438251453219
 20
2.546414843142783
 30
0.0
 10
14.46954829569635
 20
2.747953191239763
 30
0.0
 10
14.30098962010137
 20
3.034556781920432
 30
0.0
 10
14.03032427358681
 20
3.175838551528641
 30
0.0
 10
13.88599999999995
 20
3.205665827232744
 30
0.0
  0
SPLINE
  5
50
330
1F
100
AcDbEntity
  8
Make2D visible lines
100
AcDbSpline
210
0.0
220
0.0
230
1.0
 70
    24
 71
     2
 72
     6
 73
     3
 74
     0
 42
0.0000000001
 43
0.0000000001
 40
-12.2902709571203
 40
-12.2902709571203
 40
-12.2902709571203
 40
0.0
 40
0.0
 40
0.0
 10
13.88599999999995
 20
3.205665827232744
 30
0.0
 10
7.867999999999946
 20
4.449195501128249
 30
0.0
 10
1.849999999999945
 20
5.692725175023753
 30
0.0
  0
SPLINE
  5
51
330
1F
100
AcDbEntity
  8
Make2D visible lines
100
AcDbSpline
210
0.0
220
0.0
230
1.0
 70
    12
 71
     3
 72
    11
 73
     7
 74
     0
 42
0.0000000001
 43
0.0000000001
 40
0.0
 40
0.0
 40
0.0
 40
0.0
 40
0.2500000000000077
 40
0.500000000000056
 40
0.7500000000001044
 40
0.9903549301730069
 40
0.9903549301730069
 40
0.9903549301730069
 40
0.9903549301730069
 10
1.849999999999945
 20
5.692725175023753
 30
0.0
 41
1.0
 10
1.777532259027804
 20
5.707699549616471
 30
0.0
 41
1.0
 10
1.635884798350073
 20
5.771964450750453
 30
0.0
 41
1.0
 10
1.455036746425176
 20
5.941965920377697
 30
0.0
 41
1.0
 10
1.329210131423126
 20
6.15347175039408
 30
0.0
 41
1.0
 10
1.294052314614946
 20
6.303120864095799
 30
0.0
 41
1.0
 10
1.291507112319829
 20
6.378712134379271
 30
0.0
 41
1.0
  0
SPLINE
  5
52
330
1F
100
AcDbEntity
  8
Make2D visible lines
100
AcDbSpline
210
0.0
220
0.0
230
1.0
 70
    24
 71
     2
 72
     6
 73
     3
 74
     0
 42
0.0000000001
 43
0.0000000001
 40
0.0
 40
0.0
 40
0.0
 40
0.080013140622857
 40
0.080013140622857
 40
0.080013140622857
 10
1.291507112319829
 20
6.378712134379271
 30
0.0
 10
1.290753556159937
 20
6.420856067189643
 30
0.0
 10
1.290000000000045
 20
6.463000000000015
 30
0.0
  0
SPLINE
  5
53
330
1F
100
AcDbEntity
  8
Make2D visible lines
100
AcDbSpline
210
0.0
220
0.0
230
1.0
 70
    24
 71
     2
 72
     6
 73
     3
 74
     0
 42
0.0000000001
 43
0.0000000001
 40
0.0
 40
0.0
 40
0.0
 40
1.290000000000045
 40
1.290000000000045
 40
1.290000000000045
 10
1.290000000000045
 20
6.463000000000015
 30
0.0
 10
0.6450000000000227
 20
6.463000000000015
 30
0.0
 10
0.0
 20
6.463000000000015
 30
0.0
  0
SPLINE
  5
54
330
1F
100
AcDbEntity
  8
Make2D visible lines
100
AcDbSpline
210
0.0
220
0.0
230
1.0
 70
    24
 71
     2
 72
     6
 73
     3
 74
     0
 42
0.0000000001
 43
0.0000000001
 40
0.0
 40
0.0
 40
0.0
 40
1.289412297652113
 40
1.289412297652113
 40
1.289412297652113
 10
0.0
 20
6.463000000000015
 30
0.0
 10
-0.6448530744130396
 20
6.463000000000015
 30
0.0
 10
-1.289706148826079
 20
6.463000000000015
 30
0.0
  0
SPLINE
  5
55
330
1F
100
AcDbEntity
  8
Make2D visible lines
100
AcDbSpline
210
0.0
220
0.0
230
1.0
 70
    24
 71
     2
 72
     6
 73
     3
 74
     0
 42
0.0000000001
 43
0.0000000001
 40
-0.080013140622857
 40
-0.080013140622857
 40
-0.080013140622857
 40
0.0
 40
0.0
 40
0.0
 10
-1.289706148826079
 20
6.463000000000015
 30
0.0
 10
-1.290606630572954
 20
6.420856067189643
 30
0.0
 10
-1.291507112319829
 20
6.378712134379271
 30
0.0
  0
SPLINE
  5
56
330
1F
100
AcDbEntity
  8
Make2D visible lines
100
AcDbSpline
210
0.0
220
0.0
230
1.0
 70
    12
 71
     3
 72
    11
 73
     7
 74
     0
 42
0.0000000001
 43
0.0000000001
 40
-0.9903549301730069
 40
-0.9903549301730069
 40
-0.9903549301730069
 40
-0.9903549301730069
 40
-0.7500000000001044
 40
-0.500000000000056
 40
-0.2500000000000077
 40
0.0
 40
0.0
 40
0.0
 40
0.0
 10
-1.291507112319829
 20
6.378712134379271
 30
0.0
 41
1.0
 10
-1.294052314614946
 20
6.303120864095799
 30
0.0
 41
1.0
 10
-1.329210131423126
 20
6.15347175039408
 30
0.0
 41
1.0
 10
-1.455036746425176
 20
5.941965920377697
 30
0.0
 41
1.0
 10
-1.635884798350073
 20
5.771964450750453
 30
0.0
 41
1.0
 10
-1.777532259027804
 20
5.707699549616471
 30
0.0
 41
1.0
 10
-1.849999999999945
 20
5.692725175023753
 30
0.0
 41
1.0
  0
SPLINE
  5
57
330
1F
100
AcDbEntity
  8
Make2D visible lines
100
AcDbSpline
210
0.0
220
0.0
230
1.0
 70
    24
 71
     2
 72
     6
 73
     3
 74
     0
 42
0.0000000001
 43
0.0000000001
 40
0.0
 40
0.0
 40
0.0
 40
12.2902709571203
 40
12.2902709571203
 40
12.2902709571203
 10
-1.849999999999945
 20
5.692725175023753
 30
0.0
 10
-7.867999999999946
 20
4.449195501128249
 30
0.0
 10
-13.88599999999995
 20
3.205665827232744
 30
0.0
  0
SPLINE
  5
58
330
1F
100
AcDbEntity
  8
Make2D visible lines
100
AcDbSpline
210
0.0
220
0.0
230
1.0
 70
     8
 71
     3
 72
    12
 73
     8
 74
     0
 42
0.0000000001
 43
0.0000000001
 40
-3.085460819895622
 40
-3.085460819895622
 40
-3.085460819895622
 40
-3.085460819895622
 40
-2.641991453438839
 40
-2.208073208949396
 40
-2.121300252943487
 40
-2.024931116884056
 40
0.0
 40
0.0
 40
0.0
 40
0.0
 10
-13.88599999999995
 20
3.205665827232744
 30
0.0
 10
-14.03032427358681
 20
3.175838551528641
 30
0.0
 10
-14.30098962010137
 20
3.034556781920432
 30
0.0
 10
-14.46954829569635
 20
2.747953191239763
 30
0.0
 10
-14.51438251453219
 20
2.546414843142783
 30
0.0
 10
-14.55720448132851
 20
1.811593362411049
 30
0.0
 10
-14.59550714099262
 20
1.105574847750693
 30
0.0
 10
-14.63421101299304
 20
0.4316908378358253
 30
0.0
  0
SPLINE
  5
59
330
1F
100
AcDbEntity
  8
Make2D visible lines
100
AcDbSpline
210
0.0
220
0.0
230
1.0
 70
    12
 71
     2
 72
     6
 73
     3
 74
     0
 42
0.0000000001
 43
0.0000000001
 40
0.0
 40
0.0
 40
0.0
 40
0.0371380794388858
 40
0.0371380794388858
 40
0.0371380794388858
 10
-14.63421101299304
 20
0.4316908378358253
 30
0.0
 41
1.0
 10
-14.63541548501586
 20
0.4103542426935238
 30
0.0
 41
0.8144776561050845
 10
-14.61564357989874
 20
0.4022441987256987
 30
0.0
 41
1.0
  0
SPLINE
  5
5B
330
1F
100
AcDbEntity
  8
Make2D visible lines - Tangent
100
AcDbSpline
210
0.0
220
0.0
230
1.0
 70
     8
 71
     3
 72
    54
 73
    50
 74
     0
 42
0.0000000001
 43
0.0000000001
 40
0.0
 40
0.0
 40
0.0
 40
0.0
 40
1.0
 40
2.0
 40
3.0
 40
4.0
 40
5.0
 40
6.0
 40
7.0
 40
8.0
 40
9.0
 40
10.0
 40
11.0
 40
12.0
 40
13.0
 40
14.0
 40
15.0
 40
16.0
 40
17.0
 40
18.0
 40
19.0
 40
20.0
 40
21.0
 40
22.0
 40
23.0
 40
24.0
 40
25.0
 40
26.0
 40
27.0
 40
28.0
 40
29.0
 40
30.0
 40
31.0
 40
32.0
 40
33.0
 40
34.0
 40
35.0
 40
36.0
 40
37.0
 40
38.0
 40
39.0
 40
40.0
 40
41.0
 40
42.0
 40
43.0
 40
44.0
 40
45.0
 40
46.0
 40
47.0
 40
47.0
 40
47.0
 40
47.0
 10
0.3855740390831688
 20
0.403329261439214
 30
0.0
 10
0.4108443184297055
 20
0.471691761030031
 30
0.0
 10
0.3928072028035972
 20
0.6333535261625483
 30
0.0
 10
0.3935782650521504
 20
0.8657327374605353
 30
0.0
 10
0.3870006279260478
 20
1.100824691898526
 30
0.0
 10
0.3822066441073212
 20
1.335184942048012
 30
0.0
 10
0.376920272973096
 20
1.569741898107297
 30
0.0
 10
0.3718097485976801
 20
1.804245165096962
 30
0.0
 10
0.367174730584694
 20
2.038780643129261
 30
0.0
 10
0.3618448482067402
 20
2.27327054669982
 30
0.0
 10
0.3611580137755363
 20
2.50795635439968
 30
0.0
 10
0.376405087015441
 20
2.742035110000107
 30
0.0
 10
0.4015745886429593
 20
2.975291767990851
 30
0.0
 10
0.4262016875861679
 20
3.208581524431251
 30
0.0
 10
0.4504341677925552
 20
3.44180444554645
 30
0.0
 10
0.4809936146595975
 20
3.674811437325082
 30
0.0
 10
0.4873166989861086
 20
3.908675454710889
 30
0.0
 10
0.4727636425388441
 20
4.14316108458999
 30
0.0
 10
0.4622226586758619
 20
4.377402299909646
 30
0.0
 10
0.4518601668513925
 20
4.611784456659724
 30
0.0
 10
0.4397540674726934
 20
4.845964675118837
 30
0.0
 10
0.4280040588748157
 20
5.080512320442788
 30
0.0
 10
0.3896612062822467
 20
5.312100872344999
 30
0.0
 10
0.306364448569322
 20
5.534912960303022
 30
0.0
 10
0.1261550709227438
 20
5.701053020982688
 30
0.0
 10
-0.1290546863127963
 20
5.700046595423096
 30
0.0
 10
-0.3077404613287302
 20
5.532266007601516
 30
0.0
 10
-0.3903756862898934
 20
5.309372210240867
 30
0.0
 10
-0.428217084476282
 20
5.077673675160892
 30
0.0
 10
-0.4399213569507985
 20
4.843140061617282
 30
0.0
 10
-0.4519516521145414
 20
4.608952622806954
 30
0.0
 10
-0.4623969074537961
 20
4.374572197465292
 30
0.0
 10
-0.4728055676319354
 20
4.140337130437424
 30
0.0
 10
-0.4877548161439153
 20
3.905822607503123
 30
0.0
 10
-0.4799307177377822
 20
3.67206586450394
 30
0.0
 10
-0.4495990074442647
 20
3.439049497872843
 30
0.0
 10
-0.4259535830247766
 20
3.205758678338231
 30
0.0
 10
-0.4019566833489902
 20
2.972405099167784
 30
0.0
 10
-0.3765750867231028
 20
2.739167888374083
 30
0.0
 10
-0.3609890257158116
 20
2.505129568181835
 30
0.0
 10
-0.362012857282243
 20
2.270431807711549
 30
0.0
 10
-0.3671657716880983
 20
2.035943620623493
 30
0.0
 10
-0.3719076450540077
 20
1.801408320125761
 30
0.0
 10
-0.3770801101951297
 20
1.566909832637999
 30
0.0
 10
-0.3824214895384378
 20
1.332342661516703
 30
0.0
 10
-0.386847357623071
 20
1.098016778736779
 30
0.0
 10
-0.39383727168959
 20
0.8627750502036662
 30
0.0
 10
-0.3921473528078007
 20
0.6309690073439601
 30
0.0
 10
-0.412459675750142
 20
0.4678802044313225
 30
0.0
 10
-0.3829938551656991
 20
0.4021512543515627
 30
0.0
  0
SPLINE
  5
5C
330
1F
100
AcDbEntity
  8
Make2D visible lines
100
AcDbSpline
210
0.0
220
0.0
230
1.0
 70
    24
 71
     2
 72
     6
 73
     3
 74
     0
 42
0.0000000001
 43
0.0000000001
 40
0.0
 40
0.0
 40
0.0
 40
2.579999999999997
 40
2.579999999999997
 40
2.579999999999997
 10
-1.289999999999996
 20
6.503000000000016
 30
0.0
 10
0.0000000000000027
 20
6.503000000000016
 30
0.0
 10
1.290000000000001
 20
6.503000000000016
 30
0.0
  0
SPLINE
  5
5D
330
1F
100
AcDbEntity
  8
Make2D visible lines
100
AcDbSpline
210
0.0
220
0.0
230
1.0
 70
    24
 71
     2
 72
     6
 73
     3
 74
     0
 42
0.0000000001
 43
0.0000000001
 40
0.0
 40
0.0
 40
0.0
 40
0.0400060931217547
 40
0.0400060931217547
 40
0.0400060931217547
 10
-1.200698202597376
 20
6.463000000000022
 30
0.0
 10
-1.200349101298833
 20
6.483000000000022
 30
0.0
 10
-1.200000000000291
 20
6.503000000000021
 30
0.0
  0
SPLINE
  5
5E
330
1F
100
AcDbEntity
  8
Make2D visible lines
100
AcDbSpline
210
0.0
220
0.0
230
1.0
 70
    24
 71
     2
 72
     6
 73
     3
 74
     0
 42
0.0000000001
 43
0.0000000001
 40
0.0
 40
0.0
 40
0.0
 40
0.0400060931217547
 40
0.0400060931217547
 40
0.0400060931217547
 10
1.200000000000291
 20
6.503000000000021
 30
0.0
 10
1.200349101298833
 20
6.483000000000022
 30
0.0
 10
1.200698202597376
 20
6.463000000000022
 30
0.0
  0
SPLINE
  5
5F
330
1F
100
AcDbEntity
  8
Make2D visible lines
100
AcDbSpline
210
0.0
220
0.0
230
1.0
 70
    24
 71
     2
 72
     6
 73
     3
 74
     0
 42
0.0000000001
 43
0.0000000001
 40
0.0
 40
0.0
 40
0.0
 40
1.107594207465098
 40
1.107594207465098
 40
1.107594207465098
 10
13.386009813054
 20
0.0000000000000036
 30
0.0
 10
13.93980691678655
 20
0.0000000000000036
 30
0.0
 10
14.4936040205191
 20
0.0000000000000036
 30
0.0
  0
SPLINE
  5
60
330
1F
100
AcDbEntity
  8
Make2D visible lines
100
AcDbSpline
210
0.0
220
0.0
230
1.0
 70
    12
 71
     2
 72
     8
 73
     5
 74
     0
 42
0.0000000001
 43
0.0000000001
 40
0.0
 40
0.0
 40
0.0
 40
0.1269465231438366
 40
0.1269465231438366
 40
0.2538930462876731
 40
0.2538930462876731
 40
0.2538930462876731
 10
14.49360402051909
 20
0.0000000000000036
 30
0.0
 41
1.0
 10
14.56082858485446
 20
0.000000000000002
 30
0.0
 41
0.918360064844369
 10
14.60699642696272
 20
0.0488638148853193
 30
0.0
 41
1.0
 10
14.65316426907099
 20
0.0977276297706366
 30
0.0
 41
0.918360064844369
 10
14.6493531211261
 20
0.1648440748599159
 30
0.0
 41
1.0
  0
SPLINE
  5
61
330
1F
100
AcDbEntity
  8
Make2D visible lines
100
AcDbSpline
210
0.0
220
0.0
230
1.0
 70
    12
 71
     2
 72
     6
 73
     3
 74
     0
 42
0.0000000001
 43
0.0000000001
 40
0.0
 40
0.0
 40
0.0
 40
0.2412324278936833
 40
0.2412324278936833
 40
0.2412324278936833
 10
13.23005638064813
 20
0.1521885802082181
 30
0.0
 41
1.0
 10
13.23377578943406
 20
-0.0000000000000105
 30
0.0
 41
0.7156927337036098
 10
13.386009813054
 20
0.0000000000000034
 30
0.0
 41
1.0
  0
SPLINE
  5
62
330
1F
100
AcDbEntity
  8
Make2D visible lines
100
AcDbSpline
210
0.0
220
0.0
230
1.0
 70
    24
 71
     2
 72
     6
 73
     3
 74
     0
 42
0.0000000001
 43
0.0000000001
 40
0.0
 40
0.0
 40
0.0
 40
0.2325105046476637
 40
0.2325105046476637
 40
0.2325105046476637
 10
13.23005628681928
 20
0.1521924194416825
 30
0.0
 10
13.22721591778332
 20
0.2684129683847045
 30
0.0
 10
13.22437554874736
 20
0.3846335173277264
 30
0.0
  0
SPLINE
  5
63
330
1F
100
AcDbEntity
  8
Make2D visible lines
100
AcDbSpline
210
0.0
220
0.0
230
1.0
 70
    24
 71
     2
 72
     6
 73
     3
 74
     0
 42
0.0000000001
 43
0.0000000001
 40
0.0
 40
0.0
 40
0.0
 40
0.2213623405233084
 40
0.2213623405233084
 40
0.2213623405233084
 10
14.63680347298028
 20
0.3858503918134666
 30
0.0
 10
14.64307829705319
 20
0.2753472333366913
 30
0.0
 10
14.6493531211261
 20
0.164844074859916
 30
0.0
  0
SPLINE
  5
64
330
1F
100
AcDbEntity
  8
Make2D visible lines
100
AcDbSpline
210
0.0
220
0.0
230
1.0
 70
    12
 71
     2
 72
     6
 73
     3
 74
     0
 42
0.0000000001
 43
0.0000000001
 40
0.0
 40
0.0
 40
0.0
 40
0.0224671519842366
 40
0.0224671519842366
 40
0.0224671519842366
 10
14.63678766326983
 20
0.3860938211857499
 30
0.0
 41
1.0
 10
14.6357708981257
 20
0.4000000000000348
 30
0.0
 41
0.7324347794791691
 10
14.6218275979219
 20
0.4000000000000183
 30
0.0
 41
1.0
  0
SPLINE
  5
65
330
1F
100
AcDbEntity
  8
Make2D visible lines
100
AcDbSpline
210
0.0
220
0.0
230
1.0
 70
    24
 71
     2
 72
     6
 73
     3
 74
     0
 42
0.0000000001
 43
0.0000000001
 40
0.0
 40
0.0
 40
0.0
 40
1.379419120443295
 40
1.379419120443295
 40
1.379419120443295
 10
14.6218275979219
 20
0.4000000000000163
 30
0.0
 10
13.93211803770025
 20
0.4000000000000162
 30
0.0
 10
13.24240847747861
 20
0.4000000000000161
 30
0.0
  0
SPLINE
  5
66
330
1F
100
AcDbEntity
  8
Make2D visible lines
100
AcDbSpline
210
0.0
220
0.0
230
1.0
 70
    12
 71
     2
 72
     8
 73
     5
 74
     0
 42
0.0000000001
 43
0.0000000001
 40
0.0
 40
0.0
 40
0.0
 40
0.0119642320224294
 40
0.0119642320224294
 40
0.0239284640448587
 40
0.0239284640448587
 40
0.0239284640448587
 10
13.2393710710941
 20
0.4000000000000163
 30
0.0
 41
1.0
 10
13.23305024302711
 20
0.4000000000000209
 30
0.0
 41
0.9215246294676533
 10
13.22863568008853
 20
0.3954762292814858
 30
0.0
 41
1.0
 10
13.22422111714996
 20
0.3909524585629509
 30
0.0
 41
0.9215246294676533
 10
13.22437554874736
 20
0.3846335173277264
 30
0.0
 41
1.0
  0
SPLINE
  5
67
330
1F
100
AcDbEntity
  8
Make2D visible lines
100
AcDbSpline
210
0.0
220
0.0
230
1.0
 70
    24
 71
     3
 72
     9
 73
     5
 74
     0
 42
0.0000000001
 43
0.0000000001
 40
0.0
 40
0.0
 40
0.0
 40
0.0
 40
0.0000682360840525
 40
0.251869451330915
 40
0.251869451330915
 40
0.251869451330915
 40
0.251869451330915
 10
-0.2517329766643961
 20
0.0000000000000036
 30
0.0
 10
-0.2518424566444732
 20
0.0000000000000036
 30
0.0
 10
-0.1678963121528749
 20
0.0000000000000036
 30
0.0
 10
-0.0839308151299303
 20
0.0000000000000036
 30
0.0
 10
0.0000000024984139
 20
0.0000000000000036
 30
0.0
  0
SPLINE
  5
68
330
1F
100
AcDbEntity
  8
Make2D visible lines
100
AcDbSpline
210
0.0
220
0.0
230
1.0
 70
    24
 71
     2
 72
     6
 73
     3
 74
     0
 42
0.0000000001
 43
0.0000000001
 40
0.0
 40
0.0
 40
0.0
 40
0.2517559204860955
 40
0.2517559204860955
 40
0.2517559204860955
 10
0.0000000024984139
 20
0.0000000000000036
 30
0.0
 10
0.1258779627414617
 20
0.0000000000000036
 30
0.0
 10
0.2517559229845094
 20
0.0000000000000036
 30
0.0
  0
SPLINE
  5
69
330
1F
100
AcDbEntity
  8
Make2D visible lines
100
AcDbSpline
210
0.0
220
0.0
230
1.0
 70
    24
 71
     2
 72
     6
 73
     3
 74
     0
 42
0.0000000001
 43
0.0000000001
 40
0.0
 40
0.0
 40
0.0
 40
0.3876534637036499
 40
0.3876534637036499
 40
0.3876534637036499
 10
0.0000000001071356
 20
0.4000000000000163
 30
0.0
 10
-0.1938267317446893
 20
0.4000000000000162
 30
0.0
 10
-0.3876534635965143
 20
0.4000000000000161
 30
0.0
  0
SPLINE
  5
6A
330
1F
100
AcDbEntity
  8
Make2D visible lines
100
AcDbSpline
210
0.0
220
0.0
230
1.0
 70
    24
 71
     2
 72
     6
 73
     3
 74
     0
 42
0.0000000001
 43
0.0000000001
 40
0.0
 40
0.0
 40
0.0
 40
0.3863627208447955
 40
0.3863627208447955
 40
0.3863627208447955
 10
0.3863630304177565
 20
0.4000000000000166
 30
0.0
 10
0.1931816699953588
 20
0.4000000000000165
 30
0.0
 10
0.000000309572961
 20
0.4000000000000163
 30
0.0
  0
SPLINE
  5
6B
330
1F
100
AcDbEntity
  8
Make2D visible lines
100
AcDbSpline
210
0.0
220
0.0
230
1.0
 70
    24
 71
     2
 72
     6
 73
     3
 74
     0
 42
0.0000000001
 43
0.0000000001
 40
0.0
 40
0.0
 40
0.0
 40
5.280000000000005
 40
5.280000000000005
 40
5.280000000000005
 10
-1.289999999999999
 20
6.503000000000018
 30
0.0
 10
-1.289999999999999
 20
9.14300000000002
 30
0.0
 10
-1.289999999999999
 20
11.78300000000002
 30
0.0
  0
SPLINE
  5
6C
330
1F
100
AcDbEntity
  8
Make2D visible lines
100
AcDbSpline
210
0.0
220
0.0
230
1.0
 70
    24
 71
     2
 72
     6
 73
     3
 74
     0
 42
0.0000000001
 43
0.0000000001
 40
0.0
 40
0.0
 40
0.0
 40
5.280000000000005
 40
5.280000000000005
 40
5.280000000000005
 10
1.289999999999999
 20
11.78300000000002
 30
0.0
 10
1.289999999999999
 20
9.14300000000002
 30
0.0
 10
1.289999999999999
 20
6.503000000000018
 30
0.0
  0
SPLINE
  5
6D
330
1F
100
AcDbEntity
  8
Make2D visible lines
100
AcDbSpline
210
0.0
220
0.0
230
1.0
 70
    12
 71
     2
 72
     8
 73
     5
 74
     0
 42
0.0000000001
 43
0.0000000001
 40
0.0
 40
0.0
 40
0.0
 40
0.1240063772075993
 40
0.1240063772075993
 40
0.2480127544151987
 40
0.2480127544151987
 40
0.2480127544151987
 10
-0.2518017388402534
 20
0.000000000001096
 30
0.0
 41
1.0
 10
-0.3172916728945204
 20
-0.0000119099018914
 30
0.0
 41
0.9220189045496352
 10
-0.3631586976409586
 20
0.0467336529376692
 30
0.0
 41
1.0
 10
-0.4090257223873984
 20
0.0934792157772298
 30
0.0
 41
0.9220189045496352
 10
-0.4077714300600412
 20
0.1589571384308644
 30
0.0
 41
1.0
  0
SPLINE
  5
6E
330
1F
100
AcDbEntity
  8
Make2D visible lines
100
AcDbSpline
210
0.0
220
0.0
230
1.0
 70
    12
 71
     2
 72
     8
 73
     5
 74
     0
 42
0.0000000001
 43
0.0000000001
 40
0.0
 40
0.0
 40
0.0
 40
0.1242318577480881
 40
0.1242318577480881
 40
0.2484637154961761
 40
0.2484637154961761
 40
0.2484637154961761
 10
0.4077615785408764
 20
0.1594215907425355
 30
0.0
 41
1.0
 10
0.4092011691947805
 20
0.0938162002370285
 30
0.0
 41
0.9217678869813357
 10
0.3633120770131395
 20
0.0469085153295885
 30
0.0
 41
1.0
 10
0.3174229848314968
 20
0.0000008304221485
 30
0.0
 41
0.9217678869813357
 10
0.2518018016362724
 20
0.0000000000011417
 30
0.0
 41
1.0
  0
SPLINE
  5
6F
330
1F
100
AcDbEntity
  8
Make2D visible lines
100
AcDbSpline
210
0.0
220
0.0
230
1.0
 70
    12
 71
     2
 72
     6
 73
     3
 74
     0
 42
0.0000000001
 43
0.0000000001
 40
0.0
 40
0.0
 40
0.0
 40
0.2253642768281202
 40
0.2253642768281202
 40
0.2253642768281202
 10
0.4028202765263416
 20
0.385325058594006
 30
0.0
 41
1.0
 10
0.4052793858273148
 20
0.2726697563467351
 30
0.0
 41
0.9999999984988344
 10
0.4077508406780019
 20
0.1600147242624911
 30
0.0
 41
1.0
  0
SPLINE
  5
70
330
1F
100
AcDbEntity
  8
Make2D visible lines
100
AcDbSpline
210
0.0
220
0.0
230
1.0
 70
    12
 71
     2
 72
     6
 73
     3
 74
     0
 42
0.0000000001
 43
0.0000000001
 40
0.0
 40
0.0
 40
0.0
 40
0.2259576718196235
 40
0.2259576718196235
 40
0.2259576718196235
 10
-0.4077638519746358
 20
0.1594216323489093
 30
0.0
 41
1.0
 10
-0.4052858574621696
 20
0.2723732898507527
 30
0.0
 41
0.9999999984910576
 10
-0.4028202730270731
 20
0.3853252189294936
 30
0.0
 41
1.0
  0
SPLINE
  5
71
330
1F
100
AcDbEntity
  8
Make2D visible lines
100
AcDbSpline
210
0.0
220
0.0
230
1.0
 70
    12
 71
     2
 72
     6
 73
     3
 74
     0
 42
0.0000000001
 43
0.0000000001
 40
0.0
 40
0.0
 40
0.0
 40
0.0232125536774005
 40
0.0232125536774005
 40
0.0232125536774005
 10
-0.4028183684629205
 20
0.3853269610145591
 30
0.0
 41
1.0
 10
-0.4024518561251791
 20
0.3999502926109969
 30
0.0
 41
0.7170957278319929
 10
-0.3878240166588611
 20
0.3999999999617776
 30
0.0
 41
1.0
  0
SPLINE
  5
72
330
1F
100
AcDbEntity
  8
Make2D visible lines
100
AcDbSpline
210
0.0
220
0.0
230
1.0
 70
    12
 71
     2
 72
     6
 73
     3
 74
     0
 42
0.0000000001
 43
0.0000000001
 40
0.0
 40
0.0
 40
0.0
 40
0.0232077921390905
 40
0.0232077921390905
 40
0.0232077921390905
 10
0.387824382414756
 20
0.3999999999470365
 30
0.0
 41
1.0
 10
0.4024415566350914
 20
0.3999392744149043
 30
0.0
 41
0.7176120634141828
 10
0.4028184109592292
 20
0.3853268327778507
 30
0.0
 41
1.0
  0
POLYLINE
  5
74
330
1F
100
AcDbEntity
  8
Default
100
AcDb2dPolyline
 66
     1
 10
0.0
 20
0.0
 30
0.0
  0
VERTEX
  5
75
330
74
100
AcDbEntity
  8
Default
100
AcDbVertex
100
AcDb2dVertex
 10
-9.933
 20
14.00039157365052
 30
0.0
  0
VERTEX
  5
76
330
74
100
AcDbEntity
  8
Default
100
AcDbVertex
100
AcDb2dVertex
 10
9.932999999999998
 20
14.00039157365051
 30
0.0
  0
SEQEND
  5
77
330
74
100
AcDbEntity
  8
Default
  0
SPLINE
  5
78
330
1F
100
AcDbEntity
  8
Default
100
AcDbSpline
210
0.0
220
0.0
230
1.0
 70
    12
 71
     2
 72
     8
 73
     5
 74
     0
 42
0.0000000001
 43
0.0000000001
 40
0.0
 40
0.0
 40
0.0
 40
0.4494222823880094
 40
0.4494222823880094
 40
0.8988445647760217
 40
0.8988445647760217
 40
0.8988445647760217
 10
9.932999999999998
 20
14.00039157365051
 30
0.0
 41
1.0
 10
10.1741713704086
 20
14.00039157365051
 30
0.0
 41
0.9006982393219981
 10
10.32430407842541
 20
13.81164889196906
 30
0.0
 41
1.0
 10
10.47443678644223
 20
13.62290621028761
 30
0.0
 41
0.9006982393220062
 10
10.42018503239
 20
13.38791604647852
 30
0.0
 41
1.0
  0
SPLINE
  5
79
330
1F
100
AcDbEntity
  8
Default
100
AcDbSpline
210
0.0
220
0.0
230
1.0
 70
    12
 71
     3
 72
     8
 73
     4
 74
     0
 42
0.0000000001
 43
0.0000000001
 40
-1.0
 40
-1.0
 40
-1.0
 40
-1.0
 40
0.0
 40
0.0
 40
0.0
 40
0.0
 10
10.42018503239
 20
13.38791604647852
 30
0.0
 41
1.0
 10
10.21780363222
 20
12.51130589423642
 30
0.0
 41
1.0
 10
7.579877838298001
 20
12.00914677024472
 30
0.0
 41
1.0
 10
4.399999999999999
 20
11.78300000000002
 30
0.0
 41
1.0
  0
SPLINE
  5
7A
330
1F
100
AcDbEntity
  8
Default
100
AcDbSpline
210
0.0
220
0.0
230
1.0
 70
    24
 71
     2
 72
     6
 73
     3
 74
     0
 42
0.0000000001
 43
0.0000000001
 40
-8.799999999999997
 40
-8.799999999999997
 40
-8.799999999999997
 40
0.0
 40
0.0
 40
0.0
 10
4.399999999999999
 20
11.78300000000002
 30
0.0
 10
0.0
 20
11.78300000000002
 30
0.0
 10
-4.399999999999999
 20
11.78300000000002
 30
0.0
  0
SPLINE
  5
7B
330
1F
100
AcDbEntity
  8
Default
100
AcDbSpline
210
0.0
220
0.0
230
1.0
 70
    12
 71
     3
 72
     8
 73
     4
 74
     0
 42
0.0000000001
 43
0.0000000001
 40
-5.141592653589793
 40
-5.141592653589793
 40
-5.141592653589793
 40
-5.141592653589793
 40
-4.141645969756981
 40
-4.141645969756981
 40
-4.141645969756981
 40
-4.141645969756981
 10
-4.399999999999999
 20
11.78300000000002
 30
0.0
 41
1.0
 10
-7.57970829940019
 20
12.00913471296572
 30
0.0
 41
1.0
 10
-10.21752234249534
 20
12.51125234862142
 30
0.0
 41
1.0
 10
-10.42016883670563
 20
13.38784594183501
 30
0.0
 41
1.0
  0
SPLINE
  5
7C
330
1F
100
AcDbEntity
  8
Default
100
AcDbSpline
210
0.0
220
0.0
230
1.0
 70
    12
 71
     2
 72
     8
 73
     5
 74
     0
 42
0.0000000001
 43
0.0000000001
 40
0.0
 40
0.0
 40
0.0
 40
0.44942228238828
 40
0.44942228238828
 40
0.898844564776559
 40
0.898844564776559
 40
0.898844564776559
 10
-10.42016883670563
 20
13.38784594183501
 30
0.0
 41
1.0
 10
-10.47443678644293
 20
13.62290621028787
 30
0.0
 41
0.9006982393222969
 10
-10.32430407842581
 20
13.81164889196919
 30
0.0
 41
1.0
 10
-10.1741713704087
 20
14.00039157365051
 30
0.0
 41
0.9006982393223016
 10
-9.933
 20
14.00039157365052
 30
0.0
 41
1.0
  0
SPLINE
  5
7D
330
1F
100
AcDbEntity
  8
Make2D visible lines
100
AcDbSpline
210
0.0
220
0.0
230
1.0
 70
    12
 71
     2
 72
    10
 73
     7
 74
     0
 42
0.0000000001
 43
0.0000000001
 40
-2.236909683916288
 40
-2.236909683916288
 40
-2.236909683916288
 40
-2.144474540076866
 40
-2.144474540076866
 40
-0.8141924107935481
 40
-0.8141924107935481
 40
0.0
 40
0.0
 40
0.0
 10
9.930442100832073
 20
14.00092247015007
 30
0.0
 41
1.0
 10
9.979207485864547
 20
14.01110018691031
 30
0.0
 41
0.8950844710220611
 10
10.0004572719951
 20
14.05615676562222
 30
0.0
 41
1.0
 10
10.29713401449624
 20
14.68520963879782
 30
0.0
 41
0.9357858921034148
 10
10.10496862661972
 20
15.35363844614668
 30
0.0
 41
1.0
 10
9.979964592972376
 20
15.78845294655037
 30
0.0
 41
0.8562683536386121
 10
9.535910183497412
 20
15.88090495871324
 30
0.0
 41
1.0
  0
SPLINE
  5
7E
330
1F
100
AcDbEntity
  8
Make2D visible lines
100
AcDbSpline
210
0.0
220
0.0
230
1.0
 70
    12
 71
     3
 72
    11
 73
     7
 74
     0
 42
0.0000000001
 43
0.0000000001
 40
-1.999412645572524
 40
-1.999412645572524
 40
-1.999412645572524
 40
-1.999412645572524
 40
-1.0
 40
-1.0
 40
-1.0
 40
-0.0005873544274767
 40
-0.0005873544274767
 40
-0.0005873544274767
 40
-0.0005873544274767
 10
9.535910183497412
 20
15.88090495871324
 30
0.0
 41
1.0
 10
8.25733631380796
 20
16.14691127830972
 30
0.0
 41
1.0
 10
6.75325393536019
 20
16.29570476197354
 30
0.0
 41
1.0
 10
0.0
 20
16.29570476197352
 30
0.0
 41
1.0
 10
-6.753253935360167
 20
16.29570476197352
 30
0.0
 41
1.0
 10
-8.257336313807931
 20
16.14691127830969
 30
0.0
 41
1.0
 10
-9.535910183497379
 20
15.88090495871321
 30
0.0
 41
1.0
  0
SPLINE
  5
7F
330
1F
100
AcDbEntity
  8
Make2D visible lines
100
AcDbSpline
210
0.0
220
0.0
230
1.0
 70
    12
 71
     2
 72
    10
 73
     7
 74
     0
 42
0.0000000001
 43
0.0000000001
 40
-2.23690968391617
 40
-2.23690968391617
 40
-2.23690968391617
 40
-1.422717273123032
 40
-1.422717273123032
 40
-0.0924351438995765
 40
-0.0924351438995765
 40
0.0
 40
0.0
 40
0.0
 10
-9.535910183497379
 20
15.88090495871321
 30
0.0
 41
1.0
 10
-9.979964592972156
 20
15.78845294655043
 30
0.0
 41
0.8562683536385453
 10
-10.10496862661939
 20
15.35363844614692
 30
0.0
 41
1.0
 10
-10.29713401448684
 20
14.685209638831
 30
0.0
 41
0.9357858921090954
 10
-10.0004572720209
 20
14.05615676567658
 30
0.0
 41
1.0
 10
-9.97920748590132
 20
14.01110018691796
 30
0.0
 41
0.8950844708874731
 10
-9.930442100832032
 20
14.00092247015026
 30
0.0
 41
1.0
  0
SPLINE
  5
80
330
1F
100
AcDbEntity
  8
Make2D visible lines - Tangent
100
AcDbSpline
210
0.0
220
0.0
230
1.0
 70
    12
 71
     2
 72
     6
 73
     3
 74
     0
 42
0.0000000001
 43
0.0000000001
 40
-2.94497196974788
 40
-2.94497196974788
 40
-2.94497196974788
 40
0.0
 40
0.0
 40
0.0
 10
-0.4021437096981952
 20
50.13726391897378
 30
0.0
 41
0.999999998686175
 10
-0.3857893144313775
 20
51.61042988373914
 30
0.0
 41
0.9999999990961479
 10
-0.3694800081481414
 20
53.08388609831317
 30
0.0
 41
1.0
  0
SPLINE
  5
81
330
1F
100
AcDbEntity
  8
Make2D visible lines - Tangent
100
AcDbSpline
210
0.0
220
0.0
230
1.0
 70
     8
 71
     3
 72
    14
 73
    10
 74
     0
 42
0.0000000001
 43
0.0000000001
 40
0.0
 40
0.0
 40
0.0
 40
0.0
 40
1.0
 40
2.0
 40
3.0
 40
4.0
 40
5.0
 40
6.0
 40
7.0
 40
7.0
 40
7.0
 40
7.0
 10
-0.3694800081481414
 20
53.08388609831317
 30
0.0
 10
-0.3684301194254218
 20
53.1541917113582
 30
0.0
 10
-0.348133052850277
 20
53.2868276537634
 30
0.0
 10
-0.2623481961781747
 20
53.46920482555381
 30
0.0
 10
-0.102953229356525
 20
53.60401586831954
 30
0.0
 10
0.1102342355868997
 20
53.60063855402937
 30
0.0
 10
0.2663906054261256
 20
53.4626672406314
 30
0.0
 10
0.3498112399691251
 20
53.27927796517982
 30
0.0
 10
0.3687192574807543
 20
53.14644066314602
 30
0.0
 10
0.3687491006090072
 20
53.08000725478728
 30
0.0
  0
SPLINE
  5
82
330
1F
100
AcDbEntity
  8
Make2D visible lines - Tangent
100
AcDbSpline
210
0.0
220
0.0
230
1.0
 70
    12
 71
     2
 72
     6
 73
     3
 74
     0
 42
0.0000000001
 43
0.0000000001
 40
0.0
 40
0.0
 40
0.0
 40
2.942908269093422
 40
2.942908269093422
 40
2.942908269093422
 10
0.3687491006090072
 20
53.08000725478728
 30
0.0
 41
1.0
 10
0.3849725292220393
 20
51.60864255846802
 30
0.0
 41
0.9999999990967814
 10
0.4012613094105391
 20
50.13727858417391
 30
0.0
 41
0.9999999986867498
  0
SPLINE
  5
83
330
1F
100
AcDbEntity
  8
Make2D visible lines - Tangent
100
AcDbSpline
210
0.0
220
0.0
230
1.0
 70
    12
 71
     2
 72
     6
 73
     3
 74
     0
 42
0.0000000001
 43
0.0000000001
 40
-2.944972258903388
 40
-2.944972258903388
 40
-2.944972258903388
 40
0.0
 40
0.0
 40
0.0
 10
-10.42550727428956
 20
39.31011444126965
 30
0.0
 41
0.999999998686175
 10
-11.89867338367094
 20
39.32646883814667
 30
0.0
 41
0.9999999990961479
 10
-13.37212974291798
 20
39.34277814603126
 30
0.0
 41
1.0
  0
SPLINE
  5
84
330
1F
100
AcDbEntity
  8
Make2D visible lines - Tangent
100
AcDbSpline
210
0.0
220
0.0
230
1.0
 70
     8
 71
     3
 72
    14
 73
    10
 74
     0
 42
0.0000000001
 43
0.0000000001
 40
0.0
 40
0.0
 40
0.0
 40
0.0
 40
1.0
 40
2.0
 40
3.0
 40
4.0
 40
5.0
 40
6.0
 40
7.0
 40
7.0
 40
7.0
 40
7.0
 10
-13.37212974291798
 20
39.34277814603126
 30
0.0
 10
-13.44243535596303
 20
39.34382803475398
 30
0.0
 10
-13.57507129836822
 20
39.36412510132912
 30
0.0
 10
-13.75744847015863
 20
39.44990995800123
 30
0.0
 10
-13.89225951292436
 20
39.60930492482287
 30
0.0
 10
-13.88888219863419
 20
39.8224923897663
 30
0.0
 10
-13.75091088523622
 20
39.97864875960553
 30
0.0
 10
-13.56752160978463
 20
40.06206939414852
 30
0.0
 10
-13.43468430775084
 20
40.08097741166016
 30
0.0
 10
-13.36825089939209
 20
40.08100725478841
 30
0.0
  0
SPLINE
  5
85
330
1F
100
AcDbEntity
  8
Make2D visible lines - Tangent
100
AcDbSpline
210
0.0
220
0.0
230
1.0
 70
    12
 71
     2
 72
     6
 73
     3
 74
     0
 42
0.0000000001
 43
0.0000000001
 40
0.0
 40
0.0
 40
0.0
 40
2.94290851569593
 40
2.94290851569593
 40
2.94290851569593
 10
-13.36825089939209
 20
40.08100725478841
 30
0.0
 41
1.0
 10
-11.89688607977907
 20
40.0972306847609
 30
0.0
 41
0.9999999990967813
 10
-10.42552198219132
 20
40.1135194663198
 30
0.0
 41
0.9999999986867497
  0
SPLINE
  5
86
330
1F
100
AcDbEntity
  8
Make2D visible lines - Tangent
100
AcDbSpline
210
0.0
220
0.0
230
1.0
 70
    12
 71
     2
 72
     6
 73
     3
 74
     0
 42
0.0000000001
 43
0.0000000001
 40
-2.944973077167235
 40
-2.944973077167235
 40
-2.944973077167235
 40
0.0
 40
0.0
 40
0.0
 10
0.4016419232137017
 20
29.28675169853155
 30
0.0
 41
0.9999999986861746
 10
0.3852875217800659
 20
27.81358517990996
 30
0.0
 41
0.9999999990961477
 10
0.368978209363922
 20
26.34012841126141
 30
0.0
 41
1.0
  0
SPLINE
  5
87
330
1F
100
AcDbEntity
  8
Make2D visible lines - Tangent
100
AcDbSpline
210
0.0
220
0.0
230
1.0
 70
     8
 71
     3
 72
    14
 73
    10
 74
     0
 42
0.0000000001
 43
0.0000000001
 40
0.0
 40
0.0
 40
0.0
 40
0.0
 40
1.0
 40
2.0
 40
3.0
 40
4.0
 40
5.0
 40
6.0
 40
7.0
 40
7.0
 40
7.0
 40
7.0
 10
0.368978209363922
 20
26.34012841126141
 30
0.0
 10
0.3679283206412023
 20
26.26982279821637
 30
0.0
 10
0.3476312540660575
 20
26.13718685581117
 30
0.0
 10
0.2618463973939553
 20
25.95480968402077
 30
0.0
 10
0.1024514305723055
 20
25.81999864125503
 30
0.0
 10
-0.1107360343711191
 20
25.82337595554521
 30
0.0
 10
-0.266892404210345
 20
25.96134726894318
 30
0.0
 10
-0.3503130387533445
 20
26.14473654439476
 30
0.0
 10
-0.3692210562649737
 20
26.27757384642855
 30
0.0
 10
-0.3692508993932266
 20
26.3440072547873
 30
0.0
  0
SPLINE
  5
88
330
1F
100
AcDbEntity
  8
Make2D visible lines - Tangent
100
AcDbSpline
210
0.0
220
0.0
230
1.0
 70
    12
 71
     2
 72
     6
 73
     3
 74
     0
 42
0.0000000001
 43
0.0000000001
 40
0.0
 40
0.0
 40
0.0
 40
2.942909377090304
 40
2.942909377090304
 40
2.942909377090304
 10
-0.3692508993932266
 20
26.3440072547873
 30
0.0
 41
1.0
 10
-0.3854743341143351
 20
27.81537250507133
 30
0.0
 41
0.999999999096781
 10
-0.4017631204601206
 20
29.28673703332966
 30
0.0
 41
0.9999999986867494
  0
SPLINE
  5
89
330
1F
100
AcDbEntity
  8
Make2D visible lines - Tangent
100
AcDbSpline
210
0.0
220
0.0
230
1.0
 70
    12
 71
     2
 72
     6
 73
     3
 74
     0
 42
0.0000000001
 43
0.0000000001
 40
-2.944972216212477
 40
-2.944972216212477
 40
-2.944972216212477
 40
0.0
 40
0.0
 40
0.0
 10
10.42500551821597
 20
40.11390006783076
 30
0.0
 41
0.999999998686175
 10
11.89817160624624
 20
40.09754567119148
 30
0.0
 41
0.9999999990961479
 10
13.37162794413377
 20
40.08123636354332
 30
0.0
 41
1.0
  0
SPLINE
  5
8A
330
1F
100
AcDbEntity
  8
Make2D visible lines - Tangent
100
AcDbSpline
210
0.0
220
0.0
230
1.0
 70
     8
 71
     3
 72
    14
 73
    10
 74
     0
 42
0.0000000001
 43
0.0000000001
 40
0.0
 40
0.0
 40
0.0
 40
0.0
 40
1.0
 40
2.0
 40
3.0
 40
4.0
 40
5.0
 40
6.0
 40
7.0
 40
7.0
 40
7.0
 40
7.0
 10
13.37162794413377
 20
40.08123636354332
 30
0.0
 10
13.44193355717881
 20
40.0801864748206
 30
0.0
 10
13.57456949958401
 20
40.05988940824545
 30
0.0
 10
13.75694667137441
 20
39.97410455157335
 30
0.0
 10
13.89175771414015
 20
39.8147095847517
 30
0.0
 10
13.88838039984997
 20
39.60152211980827
 30
0.0
 10
13.750409086452
 20
39.44536574996905
 30
0.0
 10
13.56701981100042
 20
39.36194511542605
 30
0.0
 10
13.43418250896663
 20
39.34303709791442
 30
0.0
 10
13.36774910060788
 20
39.34300725478617
 30
0.0
  0
SPLINE
  5
8B
330
1F
100
AcDbEntity
  8
Make2D visible lines - Tangent
100
AcDbSpline
210
0.0
220
0.0
230
1.0
 70
    12
 71
     2
 72
     6
 73
     3
 74
     0
 42
0.0000000001
 43
0.0000000001
 40
0.0
 40
0.0
 40
0.0
 40
2.942908558368614
 40
2.942908558368614
 40
2.942908558368614
 10
13.36774910060788
 20
39.34300725478617
 30
0.0
 41
1.0
 10
11.89638425965981
 20
39.32678382457845
 30
0.0
 41
0.9999999990967813
 10
10.42502014073704
 20
39.31049504278241
 30
0.0
 41
0.9999999986867497
  0
SPLINE
  5
8C
330
1F
100
AcDbEntity
  8
Make2D visible lines - Tangent
100
AcDbSpline
210
0.0
220
0.0
230
1.0
 70
     8
 71
     3
 72
    12
 73
     8
 74
     0
 42
0.0000000001
 43
0.0000000001
 40
0.0
 40
0.0
 40
0.0
 40
0.0
 40
0.1510110321465192
 40
0.3037660471064116
 40
0.5900965017365678
 40
0.8249401141264362
 40
1.014583801502342
 40
1.014583801502342
 40
1.014583801502342
 40
1.014583801502342
 10
0.4015831222626446
 20
53.53100338053273
 30
0.0
 10
0.406499344622549
 20
53.58112361695911
 30
0.0
 10
0.4103291231150813
 20
53.68242347120925
 30
0.0
 10
0.393117238911589
 20
53.87887129020987
 30
0.0
 10
0.3326649023996652
 20
54.09701456492073
 30
0.0
 10
0.1979170744749595
 20
54.29786932937636
 30
0.0
 10
0.0640998381407286
 20
54.36261385560228
 30
0.0
 10
-0.0002509051356284
 20
54.36136037591339
 30
0.0
  0
SPLINE
  5
8D
330
1F
100
AcDbEntity
  8
Make2D visible lines - Tangent
100
AcDbSpline
210
0.0
220
0.0
230
1.0
 70
     8
 71
     3
 72
    12
 73
     8
 74
     0
 42
0.0000000001
 43
0.0000000001
 40
-1.014583801502342
 40
-1.014583801502342
 40
-1.014583801502342
 40
-1.014583801502342
 40
-0.8249401141264362
 40
-0.5900965017365678
 40
-0.3037660471064116
 40
-0.1510110321465192
 40
0.0
 40
0.0
 40
0.0
 40
0.0
 10
-0.0002509051356284
 20
54.36136037591339
 30
0.0
 10
-0.0646016484119855
 20
54.36261385560228
 30
0.0
 10
-0.1984188847462164
 20
54.29786932937636
 30
0.0
 10
-0.333166712670922
 20
54.09701456492073
 30
0.0
 10
-0.3936190491828458
 20
53.87887129020987
 30
0.0
 10
-0.4108309333863381
 20
53.68242347120925
 30
0.0
 10
-0.4070011548938058
 20
53.58112361695911
 30
0.0
 10
-0.4020849325339014
 20
53.53100338053273
 30
0.0
  0
SPLINE
  5
8E
330
1F
100
AcDbEntity
  8
Make2D visible lines
100
AcDbSpline
210
0.0
220
0.0
230
1.0
 70
    12
 71
     2
 72
     8
 73
     5
 74
     0
 42
0.0000000001
 43
0.0000000001
 40
0.0
 40
0.0
 40
0.0
 40
16.388117226351
 40
16.388117226351
 40
32.776234452702
 40
32.776234452702
 40
32.776234452702
 10
10.43274910060788
 20
39.71200725478945
 30
0.0
 41
1.0
 10
10.43274824950884
 20
29.27900810588962
 30
0.0
 41
0.707106810028621
 10
-0.0002508993910279
 20
29.27900810588854
 30
0.0
 41
1.0
 10
-10.43325004829089
 20
29.27900810588746
 30
0.0
 41
0.707106810028621
 10
-10.4332508993921
 20
39.71200725478729
 30
0.0
 41
1.0
  0
SPLINE
  5
8F
330
1F
100
AcDbEntity
  8
Make2D visible lines
100
AcDbSpline
210
0.0
220
0.0
230
1.0
 70
    12
 71
     2
 72
     8
 73
     5
 74
     0
 42
0.0000000001
 43
0.0000000001
 40
0.0
 40
0.0
 40
0.0
 40
16.38811833380997
 40
16.38811833380997
 40
32.77623666761517
 40
32.77623666761517
 40
32.77623666761517
 10
-10.4332508993921
 20
39.71200725478729
 30
0.0
 41
1.0
 10
-10.43325115574747
 20
50.14500751114371
 30
0.0
 41
0.7071067724991432
 10
-0.0002508993910332
 20
50.14500751114264
 30
0.0
 41
1.0
 10
10.43274935696109
 20
50.14500751114157
 30
0.0
 41
0.7071067724992287
 10
10.43274910060788
 20
39.71200725478945
 30
0.0
 41
0.999999999999829
  0
SPLINE
  5
90
330
1F
100
AcDbEntity
  8
Make2D visible lines
100
AcDbSpline
210
0.0
220
0.0
230
1.0
 70
    12
 71
     2
 72
     8
 73
     5
 74
     0
 42
0.0000000001
 43
0.0000000001
 40
0.0
 40
0.0
 40
0.0
 40
15.9857256088408
 40
15.9857256088408
 40
31.97145121768159
 40
31.97145121768159
 40
31.97145121768159
 10
10.17657822824205
 20
39.71200725478939
 30
0.0
 41
1.0
 10
10.17657802497686
 20
29.53517833042149
 30
0.0
 41
0.7071067882482235
 10
-0.0002508993910528
 20
29.53517833042043
 30
0.0
 41
1.0
 10
-10.17707982375896
 20
29.53517833041938
 30
0.0
 41
0.7071067882482235
 10
-10.17708002702626
 20
39.71200725478729
 30
0.0
 41
1.0
  0
SPLINE
  5
91
330
1F
100
AcDbEntity
  8
Make2D visible lines
100
AcDbSpline
210
0.0
220
0.0
230
1.0
 70
    12
 71
     2
 72
    12
 73
     9
 74
     0
 42
0.0000000001
 43
0.0000000001
 40
0.0
 40
0.0
 40
0.0
 40
7.992863251026782
 40
7.992863251026782
 40
15.98572650205356
 40
15.98572650205356
 40
23.97858975308035
 40
23.97858975308035
 40
31.97145300410281
 40
31.97145300410281
 40
31.97145300410281
 10
-10.17708002702626
 20
39.71200725478729
 30
0.0
 41
1.0
 10
-10.17708031281014
 20
43.92738810348693
 30
0.0
 41
0.9238795260252225
 10
-7.196356030450422
 20
46.90811258792606
 30
0.0
 41
1.0
 10
-4.215631748090705
 20
49.88883707236518
 30
0.0
 41
0.9238795260252225
 10
-0.0002508993910581
 20
49.88883707236474
 30
0.0
 41
1.0
 10
4.215129949308587
 20
49.88883707236431
 30
0.0
 41
0.9238795260252225
 10
7.195854231667693
 20
46.90811258792457
 30
0.0
 41
1.0
 10
10.17657851402505
 20
43.92738810348658
 30
0.0
 41
0.9238795260252636
 10
10.17657822824205
 20
39.71200725478939
 30
0.0
 41
0.9999999999999178
  0
SPLINE
  5
92
330
1F
100
AcDbEntity
  8
Make2D visible lines - Tangent
100
AcDbSpline
210
0.0
220
0.0
230
1.0
 70
    12
 71
     2
 72
     6
 73
     3
 74
     0
 42
0.0000000001
 43
0.0000000001
 40
0.0
 40
0.0
 40
0.0
 40
0.1369528492222414
 40
0.1369528492222414
 40
0.1369528492222414
 10
0.3673598782030908
 20
53.15164666649654
 30
0.0
 41
1.0
 10
0.3659303425848481
 20
53.22010699176722
 30
0.0
 41
0.9999966913238282
 10
0.3666820095021608
 20
53.28860622715119
 30
0.0
 41
0.9999959461296658
  0
ARC
  5
93
330
1F
100
AcDbEntity
  8
Make2D visible lines - Tangent
100
AcDbCircle
 10
0.8666143977696382
 20
53.29682858454893
 30
0.0
 40
0.5
100
AcDbArc
 50
168.4871521735349
 51
180.9422552251318
  0
SPLINE
  5
94
330
1F
100
AcDbEntity
  8
Make2D visible lines - Tangent
100
AcDbSpline
210
0.0
220
0.0
230
1.0
 70
     8
 71
     3
 72
    14
 73
    10
 74
     0
 42
0.0000000001
 43
0.0000000001
 40
0.2772630823298201
 40
0.2772630823298201
 40
0.2772630823298201
 40
0.2772630823298201
 40
1.0
 40
2.0
 40
3.0
 40
4.0
 40
5.0
 40
6.0
 40
7.0
 40
7.0
 40
7.0
 40
7.0
 10
0.3766744105983714
 20
53.39662241687648
 30
0.0
 10
0.3847716729357244
 20
53.43637610218112
 30
0.0
 10
0.3998379117938814
 20
53.53200188019004
 30
0.0
 10
0.4045792809191435
 20
53.68515643693359
 30
0.0
 10
0.3865648872611542
 20
53.85293275062423
 30
0.0
 10
0.3450355232251053
 20
54.01667854600965
 30
0.0
 10
0.2745471490480251
 20
54.17054608093616
 30
0.0
 10
0.1644420411868689
 20
54.30150557000194
 30
0.0
 10
0.0564325959384377
 20
54.34672577349675
 30
0.0
 10
-0.0002514016956962
 20
54.34621826778982
 30
0.0
  0
SPLINE
  5
95
330
1F
100
AcDbEntity
  8
Make2D visible lines - Tangent
100
AcDbSpline
210
0.0
220
0.0
230
1.0
 70
     8
 71
     3
 72
    14
 73
    10
 74
     0
 42
0.0000000001
 43
0.0000000001
 40
-7.0
 40
-7.0
 40
-7.0
 40
-7.0
 40
-6.0
 40
-5.0
 40
-4.0
 40
-3.0
 40
-2.0
 40
-1.0
 40
-0.2482205602640466
 40
-0.2482205602640466
 40
-0.2482205602640466
 40
-0.2482205602640466
 10
-0.0002514016956962
 20
54.34621826778982
 30
0.0
 10
-0.05693539932983
 20
54.34672577349675
 30
0.0
 10
-0.1649448445782612
 20
54.30150557000194
 30
0.0
 10
-0.2750499524394174
 20
54.17054608093616
 30
0.0
 10
-0.3455383266164976
 20
54.01667854600965
 30
0.0
 10
-0.3870676906525465
 20
53.85293275062423
 30
0.0
 10
-0.4050820843105358
 20
53.68515643693359
 30
0.0
 10
-0.4002901405900755
 20
53.5303682318692
 30
0.0
 10
-0.3847630628330272
 20
53.43315227764611
 30
0.0
 10
-0.3761924871686313
 20
53.39183179292726
 30
0.0
  0
ARC
  5
96
330
1F
100
AcDbEntity
  8
Make2D visible lines - Tangent
100
AcDbCircle
 10
-0.8657720714954701
 20
53.29028460876955
 30
0.0
 40
0.5
100
AcDbArc
 50
358.9775798079559
 51
11.71796787816672
  0
SPLINE
  5
97
330
1F
100
AcDbEntity
  8
Make2D visible lines - Tangent
100
AcDbSpline
210
0.0
220
0.0
230
1.0
 70
    12
 71
     2
 72
     6
 73
     3
 74
     0
 42
0.0000000001
 43
0.0000000001
 40
-0.1297405451143296
 40
-0.1297405451143296
 40
-0.1297405451143296
 40
0.0
 40
0.0
 40
0.0
 10
-0.3658516768086472
 20
53.28136278293782
 30
0.0
 41
0.9999960316975589
 10
-0.367009199688248
 20
53.2165028197708
 30
0.0
 41
0.9999968655123173
 10
-0.3683634757715296
 20
53.15164666649654
 30
0.0
 41
1.0
  0
SPLINE
  5
98
330
1F
100
AcDbEntity
  8
Make2D visible lines
100
AcDbSpline
210
0.0
220
0.0
230
1.0
 70
    12
 71
     2
 72
     6
 73
     3
 74
     0
 42
0.0000000001
 43
0.0000000001
 40
0.0
 40
0.0
 40
0.0
 40
0.0853474550214741
 40
0.0853474550214741
 40
0.0853474550214741
 10
-13.85429344663336
 20
39.30721257862295
 30
0.0
 41
1.0
 10
-13.89687968511309
 20
39.30422520066022
 30
0.0
 41
0.9993970637774641
 10
-13.93957056848702
 20
39.3042004681263
 30
0.0
 41
1.0
  0
SPLINE
  5
99
330
1F
100
AcDbEntity
  8
Make2D visible lines - Tangent
100
AcDbSpline
210
0.0
220
0.0
230
1.0
 70
     8
 71
     3
 72
    12
 73
     8
 74
     0
 42
0.0000000001
 43
0.0000000001
 40
0.0
 40
0.0
 40
0.0
 40
0.0
 40
0.1510110321465192
 40
0.3037660471064116
 40
0.5900965017365678
 40
0.8249401141264362
 40
1.014583801502342
 40
1.014583801502342
 40
1.014583801502342
 40
1.014583801502342
 10
-13.81924702513755
 20
40.11384127644205
 30
0.0
 10
-13.86936726156393
 20
40.11875749880195
 30
0.0
 10
-13.97066711581407
 20
40.12258727729448
 30
0.0
 10
-14.16711493481469
 20
40.10537539309099
 30
0.0
 10
-14.38525820952555
 20
40.04492305657907
 30
0.0
 10
-14.58611297398117
 20
39.91017522865436
 30
0.0
 10
-14.6508575002071
 20
39.77635799232013
 30
0.0
 10
-14.6496040205182
 20
39.71200724904377
 30
0.0
  0
SPLINE
  5
9A
330
1F
100
AcDbEntity
  8
Make2D visible lines - Tangent
100
AcDbSpline
210
0.0
220
0.0
230
1.0
 70
     8
 71
     3
 72
    12
 73
     8
 74
     0
 42
0.0000000001
 43
0.0000000001
 40
-1.014583801502342
 40
-1.014583801502342
 40
-1.014583801502342
 40
-1.014583801502342
 40
-0.8249401141264362
 40
-0.5900965017365678
 40
-0.3037660471064116
 40
-0.1510110321465192
 40
0.0
 40
0.0
 40
0.0
 40
0.0
 10
-14.6496040205182
 20
39.71200724904377
 30
0.0
 10
-14.6508575002071
 20
39.64765650576742
 30
0.0
 10
-14.58611297398117
 20
39.51383926943318
 30
0.0
 10
-14.38525820952555
 20
39.37909144150848
 30
0.0
 10
-14.16711493481469
 20
39.31863910499656
 30
0.0
 10
-13.97066711581407
 20
39.30142722079307
 30
0.0
 10
-13.86936726156393
 20
39.3052569992856
 30
0.0
 10
-13.81924702513755
 20
39.3101732216455
 30
0.0
  0
SPLINE
  5
9B
330
1F
100
AcDbEntity
  8
Make2D visible lines - Tangent
100
AcDbSpline
210
0.0
220
0.0
230
1.0
 70
    12
 71
     2
 72
     6
 73
     3
 74
     0
 42
0.0000000001
 43
0.0000000001
 40
0.0
 40
0.0
 40
0.0
 40
0.1369528492222414
 40
0.1369528492222414
 40
0.1369528492222414
 10
-13.43989031110136
 20
40.07961803238249
 30
0.0
 41
1.0
 10
-13.50835063637204
 20
40.07818849676425
 30
0.0
 41
0.9999966913238282
 10
-13.57684987175601
 20
40.07894016368156
 30
0.0
 41
0.9999959461296658
  0
ARC
  5
9C
330
1F
100
AcDbEntity
  8
Make2D visible lines - Tangent
100
AcDbCircle
 10
-13.58507222915375
 20
40.57887255194904
 30
0.0
 40
0.5
100
AcDbArc
 50
258.487152173535
 51
270.9422552251322
  0
SPLINE
  5
9D
330
1F
100
AcDbEntity
  8
Make2D visible lines - Tangent
100
AcDbSpline
210
0.0
220
0.0
230
1.0
 70
     8
 71
     3
 72
    14
 73
    10
 74
     0
 42
0.0000000001
 43
0.0000000001
 40
0.2772630823298201
 40
0.2772630823298201
 40
0.2772630823298201
 40
0.2772630823298201
 40
1.0
 40
2.0
 40
3.0
 40
4.0
 40
5.0
 40
6.0
 40
7.0
 40
7.0
 40
7.0
 40
7.0
 10
-13.6848660614813
 20
40.08893256477777
 30
0.0
 10
-13.72461974678593
 20
40.09702982711512
 30
0.0
 10
-13.82024552479487
 20
40.11209606597328
 30
0.0
 10
-13.97340008153841
 20
40.11683743509855
 30
0.0
 10
-14.14117639522904
 20
40.09882304144055
 30
0.0
 10
-14.30492219061447
 20
40.05729367740451
 30
0.0
 10
-14.45878972554098
 20
39.98680530322743
 30
0.0
 10
-14.58974921460676
 20
39.87670019536627
 30
0.0
 10
-14.63496941810156
 20
39.76869075011784
 30
0.0
 10
-14.63446191239463
 20
39.7120067524837
 30
0.0
  0
SPLINE
  5
9E
330
1F
100
AcDbEntity
  8
Make2D visible lines - Tangent
100
AcDbSpline
210
0.0
220
0.0
230
1.0
 70
     8
 71
     3
 72
    14
 73
    10
 74
     0
 42
0.0000000001
 43
0.0000000001
 40
-7.0
 40
-7.0
 40
-7.0
 40
-7.0
 40
-6.0
 40
-5.0
 40
-4.0
 40
-3.0
 40
-2.0
 40
-1.0
 40
-0.2482205602640466
 40
-0.2482205602640466
 40
-0.2482205602640466
 40
-0.2482205602640466
 10
-14.63446191239463
 20
39.7120067524837
 30
0.0
 10
-14.63496941810156
 20
39.65532275484957
 30
0.0
 10
-14.58974921460676
 20
39.54731330960114
 30
0.0
 10
-14.45878972554098
 20
39.43720820173998
 30
0.0
 10
-14.30492219061447
 20
39.3667198275629
 30
0.0
 10
-14.14117639522904
 20
39.32519046352685
 30
0.0
 10
-13.97340008153841
 20
39.30717606986887
 30
0.0
 10
-13.81861187647401
 20
39.31196801358932
 30
0.0
 10
-13.72139592225092
 20
39.32749509134637
 30
0.0
 10
-13.68007543753207
 20
39.33606566701077
 30
0.0
  0
ARC
  5
9F
330
1F
100
AcDbEntity
  8
Make2D visible lines - Tangent
100
AcDbCircle
 10
-13.57852825337436
 20
38.84648608268393
 30
0.0
 40
0.5
100
AcDbArc
 50
88.9775798079559
 51
101.7179678781667
  0
SPLINE
  5
A0
330
1F
100
AcDbEntity
  8
Make2D visible lines - Tangent
100
AcDbSpline
210
0.0
220
0.0
230
1.0
 70
    12
 71
     2
 72
     6
 73
     3
 74
     0
 42
0.0000000001
 43
0.0000000001
 40
-0.1297405451143296
 40
-0.1297405451143296
 40
-0.1297405451143296
 40
0.0
 40
0.0
 40
0.0
 10
-13.56960642754265
 20
39.34640647737075
 30
0.0
 41
0.9999960316975589
 10
-13.50474646437563
 20
39.34524895449115
 30
0.0
 41
0.9999968655123173
 10
-13.43989031110136
 20
39.34389467840787
 30
0.0
 41
1.0
  0
SPLINE
  5
A1
330
1F
100
AcDbEntity
  8
Make2D visible lines - Tangent
100
AcDbSpline
210
0.0
220
0.0
230
1.0
 70
    12
 71
     2
 72
     6
 73
     3
 74
     0
 42
0.0000000001
 43
0.0000000001
 40
0.0
 40
0.0
 40
0.0
 40
0.1369528492222414
 40
0.1369528492222414
 40
0.1369528492222414
 10
-0.3678616769873102
 20
26.27236784307804
 30
0.0
 41
1.0
 10
-0.3664321413690675
 20
26.20390751780735
 30
0.0
 41
0.9999966913238282
 10
-0.3671838082863803
 20
26.13540828242338
 30
0.0
 41
0.9999959461296658
  0
ARC
  5
A2
330
1F
100
AcDbEntity
  8
Make2D visible lines - Tangent
100
AcDbCircle
 10
-0.8671161965538576
 20
26.12718592502564
 30
0.0
 40
0.5
100
AcDbArc
 50
348.4871521735349
 51
0.9422552251325818
  0
SPLINE
  5
A3
330
1F
100
AcDbEntity
  8
Make2D visible lines - Tangent
100
AcDbSpline
210
0.0
220
0.0
230
1.0
 70
     8
 71
     3
 72
    14
 73
    10
 74
     0
 42
0.0000000001
 43
0.0000000001
 40
0.2772630823298201
 40
0.2772630823298201
 40
0.2772630823298201
 40
0.2772630823298201
 40
1.0
 40
2.0
 40
3.0
 40
4.0
 40
5.0
 40
6.0
 40
7.0
 40
7.0
 40
7.0
 40
7.0
 10
-0.3771762093825908
 20
26.02739209269809
 30
0.0
 10
-0.3852734717199438
 20
25.98763840739346
 30
0.0
 10
-0.4003397105781008
 20
25.89201262938452
 30
0.0
 10
-0.4050810797033629
 20
25.73885807264098
 30
0.0
 10
-0.3870666860453736
 20
25.57108175895036
 30
0.0
 10
-0.3455373220093247
 20
25.40733596356493
 30
0.0
 10
-0.2750489478322445
 20
25.25346842863841
 30
0.0
 10
-0.1649438399710883
 20
25.12250893957263
 30
0.0
 10
-0.0569343947226571
 20
25.07728873607783
 30
0.0
 10
-0.0002503970885233
 20
25.07779624178477
 30
0.0
  0
SPLINE
  5
A4
330
1F
100
AcDbEntity
  8
Make2D visible lines - Tangent
100
AcDbSpline
210
0.0
220
0.0
230
1.0
 70
     8
 71
     3
 72
    14
 73
    10
 74
     0
 42
0.0000000001
 43
0.0000000001
 40
-7.0
 40
-7.0
 40
-7.0
 40
-7.0
 40
-6.0
 40
-5.0
 40
-4.0
 40
-3.0
 40
-2.0
 40
-1.0
 40
-0.2482205602640466
 40
-0.2482205602640466
 40
-0.2482205602640466
 40
-0.2482205602640466
 10
-0.0002503970885233
 20
25.07779624178477
 30
0.0
 10
0.0564336005456106
 20
25.07728873607783
 30
0.0
 10
0.1644430457940418
 20
25.12250893957263
 30
0.0
 10
0.274548153655198
 20
25.25346842863841
 30
0.0
 10
0.3450365278322782
 20
25.40733596356493
 30
0.0
 10
0.3865658918683271
 20
25.57108175895036
 30
0.0
 10
0.4045802855263164
 20
25.73885807264098
 30
0.0
 10
0.3997883418058561
 20
25.89364627770539
 30
0.0
 10
0.3842612640488078
 20
25.99086223192847
 30
0.0
 10
0.3756906883844119
 20
26.03218271664733
 30
0.0
  0
ARC
  5
A5
330
1F
100
AcDbEntity
  8
Make2D visible lines - Tangent
100
AcDbCircle
 10
0.8652702727112507
 20
26.13372990080504
 30
0.0
 40
0.5
100
AcDbArc
 50
178.9775798079559
 51
191.7179678781667
  0
SPLINE
  5
A6
330
1F
100
AcDbEntity
  8
Make2D visible lines - Tangent
100
AcDbSpline
210
0.0
220
0.0
230
1.0
 70
    12
 71
     2
 72
     6
 73
     3
 74
     0
 42
0.0000000001
 43
0.0000000001
 40
-0.1297405451143296
 40
-0.1297405451143296
 40
-0.1297405451143296
 40
0.0
 40
0.0
 40
0.0
 10
0.3653498780244278
 20
26.14265172663674
 30
0.0
 41
0.9999960316975589
 10
0.3665074009040286
 20
26.20751168980377
 30
0.0
 41
0.9999968655123173
 10
0.3678616769873102
 20
26.27236784307804
 30
0.0
 41
1.0
  0
SPLINE
  5
A7
330
1F
100
AcDbEntity
  8
Make2D visible lines - Tangent
100
AcDbSpline
210
0.0
220
0.0
230
1.0
 70
     8
 71
     3
 72
    12
 73
     8
 74
     0
 42
0.0000000001
 43
0.0000000001
 40
0.0
 40
0.0
 40
0.0
 40
0.0
 40
0.1510110321465192
 40
0.3037660471064116
 40
0.5900965017365678
 40
0.8249401141264362
 40
1.014583801502342
 40
1.014583801502342
 40
1.014583801502342
 40
1.014583801502342
 10
-0.402084921046864
 20
25.89301112904185
 30
0.0
 10
-0.4070011434067684
 20
25.84289089261546
 30
0.0
 10
-0.4108309218993007
 20
25.74159103836532
 30
0.0
 10
-0.3936190376958084
 20
25.5451432193647
 30
0.0
 10
-0.3331667011838846
 20
25.32699994465384
 30
0.0
 10
-0.198418873259179
 20
25.12614518019822
 30
0.0
 10
-0.064601636924948
 20
25.06140065397229
 30
0.0
 10
-0.000250893648591
 20
25.06265413366119
 30
0.0
  0
SPLINE
  5
A8
330
1F
100
AcDbEntity
  8
Make2D visible lines - Tangent
100
AcDbSpline
210
0.0
220
0.0
230
1.0
 70
     8
 71
     3
 72
    12
 73
     8
 74
     0
 42
0.0000000001
 43
0.0000000001
 40
-1.014583801502342
 40
-1.014583801502342
 40
-1.014583801502342
 40
-1.014583801502342
 40
-0.8249401141264362
 40
-0.5900965017365678
 40
-0.3037660471064116
 40
-0.1510110321465192
 40
0.0
 40
0.0
 40
0.0
 40
0.0
 10
-0.000250893648591
 20
25.06265413366119
 30
0.0
 10
0.064099849627766
 20
25.06140065397229
 30
0.0
 10
0.197917085961997
 20
25.12614518019822
 30
0.0
 10
0.3326649138867026
 20
25.32699994465384
 30
0.0
 10
0.3931172503986264
 20
25.5451432193647
 30
0.0
 10
0.4103291346021187
 20
25.74159103836532
 30
0.0
 10
0.4064993561095864
 20
25.84289089261546
 30
0.0
 10
0.401583133749682
 20
25.89301112904185
 30
0.0
  0
SPLINE
  5
A9
330
1F
100
AcDbEntity
  8
Make2D visible lines
100
AcDbSpline
210
0.0
220
0.0
230
1.0
 70
    12
 71
     2
 72
     6
 73
     3
 74
     0
 42
0.0000000001
 43
0.0000000001
 40
0.0
 40
0.0
 40
0.0
 40
0.0853474550214741
 40
0.0853474550214741
 40
0.0853474550214741
 10
0.4045437767722273
 20
25.85796470754604
 30
0.0
 41
1.0
 10
0.407531154734965
 20
25.81537846906631
 30
0.0
 41
0.9993970637774641
 10
0.4075558872688809
 20
25.77268758569237
 30
0.0
 41
1.0
  0
SPLINE
  5
AA
330
1F
100
AcDbEntity
  8
Make2D visible lines
100
AcDbSpline
210
0.0
220
0.0
230
1.0
 70
    12
 71
     2
 72
     6
 73
     3
 74
     0
 42
0.0000000001
 43
0.0000000001
 40
0.0
 40
0.0
 40
0.0
 40
0.0853474550214741
 40
0.0853474550214741
 40
0.0853474550214741
 10
13.85379164784914
 20
40.11680193095162
 30
0.0
 41
1.0
 10
13.89637788632888
 20
40.11978930891436
 30
0.0
 41
0.9993970637774641
 10
13.93906876970281
 20
40.11981404144827
 30
0.0
 41
1.0
  0
SPLINE
  5
AB
330
1F
100
AcDbEntity
  8
Make2D visible lines - Tangent
100
AcDbSpline
210
0.0
220
0.0
230
1.0
 70
     8
 71
     3
 72
    12
 73
     8
 74
     0
 42
0.0000000001
 43
0.0000000001
 40
0.0
 40
0.0
 40
0.0
 40
0.0
 40
0.1510110321465192
 40
0.3037660471064116
 40
0.5900965017365678
 40
0.8249401141264362
 40
1.014583801502342
 40
1.014583801502342
 40
1.014583801502342
 40
1.014583801502342
 10
13.81874522635334
 20
39.31017323313253
 30
0.0
 10
13.86886546277972
 20
39.30525701077263
 30
0.0
 10
13.97016531702986
 20
39.3014272322801
 30
0.0
 10
14.16661313603048
 20
39.31863911648359
 30
0.0
 10
14.38475641074134
 20
39.37909145299551
 30
0.0
 10
14.58561117519696
 20
39.51383928092022
 30
0.0
 10
14.65035570142289
 20
39.64765651725445
 30
0.0
 10
14.64910222173399
 20
39.7120072605308
 30
0.0
  0
SPLINE
  5
AC
330
1F
100
AcDbEntity
  8
Make2D visible lines - Tangent
100
AcDbSpline
210
0.0
220
0.0
230
1.0
 70
     8
 71
     3
 72
    12
 73
     8
 74
     0
 42
0.0000000001
 43
0.0000000001
 40
-1.014583801502342
 40
-1.014583801502342
 40
-1.014583801502342
 40
-1.014583801502342
 40
-0.8249401141264362
 40
-0.5900965017365678
 40
-0.3037660471064116
 40
-0.1510110321465192
 40
0.0
 40
0.0
 40
0.0
 40
0.0
 10
14.64910222173399
 20
39.7120072605308
 30
0.0
 10
14.65035570142289
 20
39.77635800380716
 30
0.0
 10
14.58561117519696
 20
39.91017524014139
 30
0.0
 10
14.38475641074134
 20
40.0449230680661
 30
0.0
 10
14.16661313603048
 20
40.10537540457802
 30
0.0
 10
13.97016531702986
 20
40.12258728878151
 30
0.0
 10
13.86886546277972
 20
40.11875751028898
 30
0.0
 10
13.81874522635334
 20
40.11384128792908
 30
0.0
  0
SPLINE
  5
AD
330
1F
100
AcDbEntity
  8
Make2D visible lines - Tangent
100
AcDbSpline
210
0.0
220
0.0
230
1.0
 70
    12
 71
     2
 72
     6
 73
     3
 74
     0
 42
0.0000000001
 43
0.0000000001
 40
0.0
 40
0.0
 40
0.0
 40
0.1369528492222414
 40
0.1369528492222414
 40
0.1369528492222414
 10
13.43938851231714
 20
39.34439647719208
 30
0.0
 41
1.0
 10
13.50784883758783
 20
39.34582601281033
 30
0.0
 41
0.9999966913238282
 10
13.5763480729718
 20
39.34507434589301
 30
0.0
 41
0.9999959461296658
  0
ARC
  5
AE
330
1F
100
AcDbEntity
  8
Make2D visible lines - Tangent
100
AcDbCircle
 10
13.58457043036954
 20
38.84514195762554
 30
0.0
 40
0.5
100
AcDbArc
 50
78.48715217353497
 51
90.94225522513219
  0
SPLINE
  5
AF
330
1F
100
AcDbEntity
  8
Make2D visible lines - Tangent
100
AcDbSpline
210
0.0
220
0.0
230
1.0
 70
     8
 71
     3
 72
    14
 73
    10
 74
     0
 42
0.0000000001
 43
0.0000000001
 40
0.2772630823298201
 40
0.2772630823298201
 40
0.2772630823298201
 40
0.2772630823298201
 40
1.0
 40
2.0
 40
3.0
 40
4.0
 40
5.0
 40
6.0
 40
7.0
 40
7.0
 40
7.0
 40
7.0
 10
13.68436426269709
 20
39.3350819447968
 30
0.0
 10
13.72411794800172
 20
39.32698468245945
 30
0.0
 10
13.81974372601066
 20
39.31191844360129
 30
0.0
 10
13.9728982827542
 20
39.30717707447603
 30
0.0
 10
14.14067459644482
 20
39.32519146813402
 30
0.0
 10
14.30442039183026
 20
39.36672083217007
 30
0.0
 10
14.45828792675677
 20
39.43720920634715
 30
0.0
 10
14.58924741582255
 20
39.54731431420831
 30
0.0
 10
14.63446761931735
 20
39.65532375945673
 30
0.0
 10
14.63396011361041
 20
39.71200775709087
 30
0.0
  0
SPLINE
  5
B0
330
1F
100
AcDbEntity
  8
Make2D visible lines - Tangent
100
AcDbSpline
210
0.0
220
0.0
230
1.0
 70
     8
 71
     3
 72
    14
 73
    10
 74
     0
 42
0.0000000001
 43
0.0000000001
 40
-7.0
 40
-7.0
 40
-7.0
 40
-7.0
 40
-6.0
 40
-5.0
 40
-4.0
 40
-3.0
 40
-2.0
 40
-1.0
 40
-0.2482205602640466
 40
-0.2482205602640466
 40
-0.2482205602640466
 40
-0.2482205602640466
 10
14.63396011361041
 20
39.71200775709087
 30
0.0
 10
14.63446761931735
 20
39.768691754725
 30
0.0
 10
14.58924741582255
 20
39.87670119997344
 30
0.0
 10
14.45828792675677
 20
39.98680630783459
 30
0.0
 10
14.30442039183026
 20
40.05729468201167
 30
0.0
 10
14.14067459644482
 20
40.09882404604772
 30
0.0
 10
13.9728982827542
 20
40.11683843970571
 30
0.0
 10
13.81811007768979
 20
40.11204649598525
 30
0.0
 10
13.72089412346671
 20
40.0965194182282
 30
0.0
 10
13.67957363874785
 20
40.0879488425638
 30
0.0
  0
ARC
  5
B1
330
1F
100
AcDbEntity
  8
Make2D visible lines - Tangent
100
AcDbCircle
 10
13.57802645459014
 20
40.57752842689064
 30
0.0
 40
0.5
100
AcDbArc
 50
268.9775798079559
 51
281.7179678781667
  0
SPLINE
  5
B2
330
1F
100
AcDbEntity
  8
Make2D visible lines - Tangent
100
AcDbSpline
210
0.0
220
0.0
230
1.0
 70
    12
 71
     2
 72
     6
 73
     3
 74
     0
 42
0.0000000001
 43
0.0000000001
 40
-0.1297405451143296
 40
-0.1297405451143296
 40
-0.1297405451143296
 40
0.0
 40
0.0
 40
0.0
 10
13.56910462875844
 20
40.07760803220382
 30
0.0
 41
0.9999960316975589
 10
13.50424466559141
 20
40.07876555508342
 30
0.0
 41
0.9999968655123173
 10
13.43938851231714
 20
40.08011983116671
 30
0.0
 41
1.0
  0
SPLINE
  5
B3
330
1F
100
AcDbEntity
  8
Make2D visible lines
100
AcDbSpline
210
0.0
220
0.0
230
1.0
 70
    12
 71
     2
 72
     6
 73
     3
 74
     0
 42
0.0000000001
 43
0.0000000001
 40
0.0
 40
0.0
 40
0.0
 40
0.0853474550214741
 40
0.0853474550214741
 40
0.0853474550214741
 10
-0.4050455755564467
 20
53.56604980202854
 30
0.0
 41
1.0
 10
-0.4080329535191844
 20
53.60863604050828
 30
0.0
 41
0.9993970637774641
 10
-0.4080576860531003
 20
53.6513269238822
 30
0.0
 41
1.0
  0
ENDSEC
  0
SECTION
  2
OBJECTS
  0
DICTIONARY
  5
C
330
0
100
AcDbDictionary
281
     1
  3
ACAD_GROUP
350
D
  3
ACAD_LAYOUT
350
1A
  3
ACAD_MLEADERSTYLE
350
B5
  3
ACAD_MLINESTYLE
350
17
  3
ACAD_PLOTSETTINGS
350
19
  3
ACAD_PLOTSTYLENAME
350
E
  3
ACAD_TABLESTYLE
350
B4
  3
ACAD_VISUALSTYLE
350
2A
  0
DICTIONARY
  5
D
102
{ACAD_REACTORS
330
C
102
}
330
C
100
AcDbDictionary
281
     1
  0
DICTIONARY
  5
1A
102
{ACAD_REACTORS
330
C
102
}
330
C
100
AcDbDictionary
281
     1
  3
Layout1
350
1E
  3
Layout2
350
26
  3
Model
350
22
  0
DICTIONARY
  5
B5
102
{ACAD_REACTORS
330
C
102
}
330
C
100
AcDbDictionary
281
     1
  0
DICTIONARY
  5
17
102
{ACAD_REACTORS
330
C
102
}
330
C
100
AcDbDictionary
281
     1
  3
Standard
350
18
  0
DICTIONARY
  5
19
102
{ACAD_REACTORS
330
C
102
}
330
C
100
AcDbDictionary
281
     1
  0
ACDBDICTIONARYWDFLT
  5
E
102
{ACAD_REACTORS
330
C
102
}
330
C
100
AcDbDictionary
281
     1
  3
Normal
350
F
100
AcDbDictionaryWithDefault
340
F
  0
DICTIONARY
  5
B4
102
{ACAD_REACTORS
330
C
102
}
330
C
100
AcDbDictionary
281
     1
  0
DICTIONARY
  5
2A
102
{ACAD_REACTORS
330
C
102
}
330
C
100
AcDbDictionary
281
     1
  3
2dWireframe
350
2F
  3
3D Hidden
350
31
  3
3dWireframe
350
30
  3
Basic
350
32
  3
Brighten
350
36
  3
ColorChange
350
3A
  3
Conceptual
350
34
  3
Dim
350
35
  3
Facepattern
350
39
  3
Flat
350
2B
  3
FlatWithEdges
350
2C
  3
Gouraud
350
2D
  3
GouraudWithEdges
350
2E
  3
Linepattern
350
38
  3
Realistic
350
33
  3
Thicken
350
37
  0
LAYOUT
  5
1E
102
{ACAD_REACTORS
330
1A
102
}
330
1A
100
AcDbPlotSettings
  1

  2
none_device
  4

  6

 40
0.0
 41
0.0
 42
0.0
 43
0.0
 44
0.0
 45
0.0
 46
0.0
 47
0.0
 48
0.0
 49
0.0
140
0.0
141
0.0
142
1.0
143
1.0
 70
   688
 72
     0
 73
     0
 74
     5
  7

 75
    16
 76
     0
 77
     2
 78
   300
147
1.0
148
0.0
149
0.0
100
AcDbLayout
  1
Layout1
 70
     1
 71
     1
 10
0.0
 20
0.0
 11
12.0
 21
9.0
 12
0.0
 22
0.0
 32
0.0
 14
1.000000000000000E+20
 24
1.000000000000000E+20
 34
1.000000000000000E+20
 15
-1.000000000000000E+20
 25
-1.000000000000000E+20
 35
-1.000000000000000E+20
146
0.0
 13
0.0
 23
0.0
 33
0.0
 16
1.0
 26
0.0
 36
0.0
 17
0.0
 27
1.0
 37
0.0
 76
     0
330
1B
  0
LAYOUT
  5
26
102
{ACAD_REACTORS
330
1A
102
}
330
1A
100
AcDbPlotSettings
  1

  2
none_device
  4

  6

 40
0.0
 41
0.0
 42
0.0
 43
0.0
 44
0.0
 45
0.0
 46
0.0
 47
0.0
 48
0.0
 49
0.0
140
0.0
141
0.0
142
1.0
143
1.0
 70
   688
 72
     0
 73
     0
 74
     5
  7

 75
    16
 76
     0
 77
     2
 78
   300
147
1.0
148
0.0
149
0.0
100
AcDbLayout
  1
Layout2
 70
     1
 71
     2
 10
0.0
 20
0.0
 11
0.0
 21
0.0
 12
0.0
 22
0.0
 32
0.0
 14
0.0
 24
0.0
 34
0.0
 15
0.0
 25
0.0
 35
0.0
146
0.0
 13
0.0
 23
0.0
 33
0.0
 16
1.0
 26
0.0
 36
0.0
 17
0.0
 27
1.0
 37
0.0
 76
     0
330
23
  0
LAYOUT
  5
22
102
{ACAD_REACTORS
330
1A
102
}
330
1A
100
AcDbPlotSettings
  1

  2
none_device
  4

  6

 40
0.0
 41
0.0
 42
0.0
 43
0.0
 44
0.0
 45
0.0
 46
0.0
 47
0.0
 48
0.0
 49
0.0
140
0.0
141
0.0
142
1.0
143
1.0
 70
  1712
 72
     0
 73
     0
 74
     0
  7

 75
     0
 76
     0
 77
     2
 78
   300
147
1.0
148
0.0
149
0.0
100
AcDbLayout
  1
Model
 70
     1
 71
     0
 10
0.0
 20
0.0
 11
12.0
 21
9.0
 12
0.0
 22
0.0
 32
0.0
 14
-14.64960402052019
 24
0.0000000000000034
 34
0.0
 15
14.64935312113161
 25
54.36136037591537
 35
0.0
146
0.0
 13
0.0
 23
0.0
 33
0.0
 16
1.0
 26
0.0
 36
0.0
 17
0.0
 27
1.0
 37
0.0
 76
     0
330
1F
331
29
  0
MLINESTYLE
  5
18
102
{ACAD_REACTORS
330
17
102
}
330
17
100
AcDbMlineStyle
  2
Standard
 70
     0
  3

 62
   256
 51
90.0
 52
90.0
 71
     2
 49
0.5
 62
   256
  6
BYLAYER
 49
-0.5
 62
   256
  6
BYLAYER
  0
ACDBPLACEHOLDER
  5
F
102
{ACAD_REACTORS
330
E
102
}
330
E
  0
VISUALSTYLE
  5
2F
102
{ACAD_REACTORS
330
2A
102
}
330
2A
100
AcDbVisualStyle
  2
2dWireframe
 70
     4
 71
     0
 72
     2
 73
     0
 90
        0
 40
-0.6
 41
-30.0
 62
     5
 63
     7
421
 16777215
 74
     1
 91
        4
 64
     7
 65
   257
 75
     1
175
     1
 42
1.0
 92
        0
 66
   257
 43
1.0
 76
     1
 77
     6
 78
     2
 67
     7
 79
     5
170
     0
171
     0
290
     0
174
     0
 93
        1
 44
0.0
173
     0
291
     0
 45
0.0
1001
ACAD
1000
AcDbSavedByObjectVersion
1070
     0
  0
VISUALSTYLE
  5
31
102
{ACAD_REACTORS
330
2A
102
}
330
2A
100
AcDbVisualStyle
  2
3D Hidden
 70
     6
 71
     1
 72
     2
 73
     2
 90
        0
 40
-0.6
 41
-30.0
 62
     5
 63
     7
421
 16777215
 74
     2
 91
        2
 64
     7
 65
   257
 75
     2
175
     1
 42
40.0
 92
        0
 66
   257
 43
1.0
 76
     1
 77
     6
 78
     2
 67
     7
 79
     3
170
     0
171
     0
290
     0
174
     0
 93
        1
 44
0.0
173
     0
291
     0
 45
0.0
1001
ACAD
1000
AcDbSavedByObjectVersion
1070
     0
  0
VISUALSTYLE
  5
30
102
{ACAD_REACTORS
330
2A
102
}
330
2A
100
AcDbVisualStyle
  2
3dWireframe
 70
     5
 71
     0
 72
     2
 73
     0
 90
        0
 40
-0.6
 41
-30.0
 62
     5
 63
     7
421
 16777215
 74
     1
 91
        4
 64
     7
 65
   257
 75
     1
175
     1
 42
1.0
 92
        0
 66
   257
 43
1.0
 76
     1
 77
     6
 78
     2
 67
     7
 79
     5
170
     0
171
     0
290
     0
174
     0
 93
        1
 44
0.0
173
     0
291
     0
 45
0.0
1001
ACAD
1000
AcDbSavedByObjectVersion
1070
     0
  0
VISUALSTYLE
  5
32
102
{ACAD_REACTORS
330
2A
102
}
330
2A
100
AcDbVisualStyle
  2
Basic
 70
     7
 71
     1
 72
     0
 73
     1
 90
        0
 40
-0.6
 41
-30.0
 62
     5
 63
     7
421
 16777215
 74
     0
 91
        4
 64
     7
 65
   257
 75
     1
175
     1
 42
1.0
 92
        8
 66
     7
 43
1.0
 76
     1
 77
     6
 78
     2
 67
     7
 79
     5
170
     0
171
     0
290
     0
174
     0
 93
        1
 44
0.0
173
     0
291
     1
 45
0.0
1001
ACAD
1000
AcDbSavedByObjectVersion
1070
     0
  0
VISUALSTYLE
  5
36
102
{ACAD_REACTORS
330
2A
102
}
330
2A
100
AcDbVisualStyle
  2
Brighten
 70
    12
 71
     2
 72
     2
 73
     0
 90
        0
 40
-0.6
 41
-30.0
 62
     5
 63
     7
421
 16777215
 74
     1
 91
        4
 64
     7
 65
   257
 75
     1
175
     1
 42
1.0
 92
        8
 66
     7
 43
1.0
 76
     1
 77
     6
 78
     2
 67
     7
 79
     5
170
     0
171
     0
290
     0
174
     0
 93
        1
 44
50.0
173
     0
291
     1
 45
0.0
1001
ACAD
1000
AcDbSavedByObjectVersion
1070
     0
  0
VISUALSTYLE
  5
3A
102
{ACAD_REACTORS
330
2A
102
}
330
2A
100
AcDbVisualStyle
  2
ColorChange
 70
    16
 71
     2
 72
     2
 73
     3
 90
        0
 40
-0.6
 41
-30.0
 62
     5
 63
     8
421
  8421504
 74
     1
 91
        4
 64
     7
 65
   257
 75
     1
175
     1
 42
1.0
 92
        8
 66
     8
424
  8421504
 43
1.0
 76
     1
 77
     6
 78
     2
 67
     7
 79
     5
170
     0
171
     0
290
     0
174
     0
 93
        1
 44
0.0
173
     0
291
     1
 45
0.0
1001
ACAD
1000
AcDbSavedByObjectVersion
1070
     0
  0
VISUALSTYLE
  5
34
102
{ACAD_REACTORS
330
2A
102
}
330
2A
100
AcDbVisualStyle
  2
Conceptual
 70
     9
 71
     3
 72
     2
 73
     0
 90
        0
 40
-0.6
 41
-30.0
 62
     5
 63
     7
421
 16777215
 74
     2
 91
        2
 64
     7
 65
   257
 75
     1
175
     1
 42
40.0
 92
        8
 66
     7
 43
1.0
 76
     1
 77
     6
 78
     2
 67
     7
 79
     3
170
     0
171
     0
290
     0
174
     0
 93
        1
 44
0.0
173
     0
291
     0
 45
0.0
1001
ACAD
1000
AcDbSavedByObjectVersion
1070
     0
  0
VISUALSTYLE
  5
35
102
{ACAD_REACTORS
330
2A
102
}
330
2A
100
AcDbVisualStyle
  2
Dim
 70
    11
 71
     2
 72
     2
 73
     0
 90
        0
 40
-0.6
 41
-30.0
 62
     5
 63
     7
421
 16777215
 74
     1
 91
        4
 64
     7
 65
   257
 75
     1
175
     1
 42
1.0
 92
        8
 66
     7
 43
1.0
 76
     1
 77
     6
 78
     2
 67
     7
 79
     5
170
     0
171
     0
290
     0
174
     0
 93
        1
 44
-50.0
173
     0
291
     1
 45
0.0
1001
ACAD
1000
AcDbSavedByObjectVersion
1070
     0
  0
VISUALSTYLE
  5
39
102
{ACAD_REACTORS
330
2A
102
}
330
2A
100
AcDbVisualStyle
  2
Facepattern
 70
    15
 71
     2
 72
     2
 73
     0
 90
        0
 40
-0.6
 41
-30.0
 62
     5
 63
     7
421
 16777215
 74
     1
 91
        4
 64
     7
 65
   257
 75
     1
175
     1
 42
1.0
 92
        8
 66
     7
 43
1.0
 76
     1
 77
     6
 78
     2
 67
     7
 79
     5
170
     0
171
     0
290
     0
174
     0
 93
        1
 44
0.0
173
     0
291
     1
 45
0.0
1001
ACAD
1000
AcDbSavedByObjectVersion
1070
     0
  0
VISUALSTYLE
  5
2B
102
{ACAD_REACTORS
330
2A
102
}
330
2A
100
AcDbVisualStyle
  2
Flat
 70
     0
 71
     2
 72
     1
 73
     1
 90
        2
 40
-0.6
 41
30.0
 62
     5
 63
     7
421
 16777215
 74
     0
 91
        4
 64
     7
 65
   257
 75
     1
175
     1
 42
1.0
 92
        8
 66
     7
 43
1.0
 76
     1
 77
     6
 78
     2
 67
     7
 79
     5
170
     0
171
     0
290
     0
174
     0
 93
       13
 44
0.0
173
     0
291
     1
 45
0.0
1001
ACAD
1000
AcDbSavedByObjectVersion
1070
     0
  0
VISUALSTYLE
  5
2C
102
{ACAD_REACTORS
330
2A
102
}
330
2A
100
AcDbVisualStyle
  2
FlatWithEdges
 70
     1
 71
     2
 72
     1
 73
     1
 90
        2
 40
-0.6
 41
30.0
 62
     5
 63
     7
421
 16777215
 74
     1
 91
        4
 64
     7
 65
   257
 75
     1
175
     1
 42
1.0
 92
        0
 66
   257
 43
1.0
 76
     1
 77
     6
 78
     2
 67
     7
 79
     5
170
     0
171
     0
290
     0
174
     0
 93
       13
 44
0.0
173
     0
291
     1
 45
0.0
1001
ACAD
1000
AcDbSavedByObjectVersion
1070
     0
  0
VISUALSTYLE
  5
2D
102
{ACAD_REACTORS
330
2A
102
}
330
2A
100
AcDbVisualStyle
  2
Gouraud
 70
     2
 71
     2
 72
     2
 73
     1
 90
        2
 40
-0.6
 41
30.0
 62
     5
 63
     7
421
 16777215
 74
     0
 91
        4
 64
     7
 65
   257
 75
     1
175
     1
 42
1.0
 92
        0
 66
     7
 43
1.0
 76
     1
 77
     6
 78
     2
 67
     7
 79
     5
170
     0
171
     0
290
     0
174
     0
 93
       13
 44
0.0
173
     0
291
     1
 45
0.0
1001
ACAD
1000
AcDbSavedByObjectVersion
1070
     0
  0
VISUALSTYLE
  5
2E
102
{ACAD_REACTORS
330
2A
102
}
330
2A
100
AcDbVisualStyle
  2
GouraudWithEdges
 70
     3
 71
     2
 72
     2
 73
     1
 90
        2
 40
-0.6
 41
30.0
 62
     5
 63
     7
421
 16777215
 74
     1
 91
        4
 64
     7
 65
   257
 75
     1
175
     1
 42
1.0
 92
        0
 66
   257
 43
1.0
 76
     1
 77
     6
 78
     2
 67
     7
 79
     5
170
     0
171
     0
290
     0
174
     0
 93
       13
 44
0.0
173
     0
291
     1
 45
0.0
1001
ACAD
1000
AcDbSavedByObjectVersion
1070
     0
  0
VISUALSTYLE
  5
38
102
{ACAD_REACTORS
330
2A
102
}
330
2A
100
AcDbVisualStyle
  2
Linepattern
 70
    14
 71
     2
 72
     2
 73
     0
 90
        0
 40
-0.6
 41
-30.0
 62
     5
 63
     7
421
 16777215
 74
     1
 91
        4
 64
     7
 65
   257
 75
     7
175
     7
 42
1.0
 92
        8
 66
     7
 43
1.0
 76
     1
 77
     6
 78
     2
 67
     7
 79
     5
170
     0
171
     0
290
     0
174
     0
 93
        1
 44
0.0
173
     0
291
     1
 45
0.0
1001
ACAD
1000
AcDbSavedByObjectVersion
1070
     0
  0
VISUALSTYLE
  5
33
102
{ACAD_REACTORS
330
2A
102
}
330
2A
100
AcDbVisualStyle
  2
Realistic
 70
     8
 71
     2
 72
     2
 73
     0
 90
        0
 40
-0.6
 41
-30.0
 62
     5
 63
     7
421
 16777215
 74
     1
 91
        0
 64
     7
 65
   257
 75
     1
175
     1
 42
1.0
 92
        8
 66
     8
424
  7895160
 43
1.0
 76
     1
 77
     6
 78
     2
 67
     7
 79
     5
170
     0
171
     0
290
     0
174
     0
 93
       13
 44
0.0
173
     0
291
     0
 45
0.0
1001
ACAD
1000
AcDbSavedByObjectVersion
1070
     0
  0
VISUALSTYLE
  5
37
102
{ACAD_REACTORS
330
2A
102
}
330
2A
100
AcDbVisualStyle
  2
Thicken
 70
    13
 71
     2
 72
     2
 73
     0
 90
        0
 40
-0.6
 41
-30.0
 62
     5
 63
     7
421
 16777215
 74
     1
 91
        4
 64
     7
 65
   257
 75
     1
175
     1
 42
1.0
 92
       12
 66
     7
 43
1.0
 76
     1
 77
     6
 78
     2
 67
     7
 79
     5
170
     0
171
     0
290
     0
174
     0
 93
        1
 44
0.0
173
     0
291
     1
 45
0.0
1001
ACAD
1000
AcDbSavedByObjectVersion
1070
     0
  0
ENDSEC
  0
EOF
