  0
SECTION
  2
HEADER
  9
$ACADVER
  1
AC1018
  9
$ACADMAINTVER
 70
     0
  9
$DWGCODEPAGE
  3
ANSI_1252
  9
$INSBASE
 10
0.0
 20
0.0
 30
0.0
  9
$EXTMIN
 10
-24.5464521279639
 20
0.0000000000000034
 30
0.0
  9
$EXTMAX
 10
14.64964697230559
 20
64.4989119621574
 30
0.0
  9
$LIMMIN
 10
0.0
 20
0.0
  9
$LIMMAX
 10
12.0
 20
9.0
  9
$ORTHOMODE
 70
     0
  9
$REGENMODE
 70
     1
  9
$FILLMODE
 70
     1
  9
$QTEXTMODE
 70
     0
  9
$MIRRTEXT
 70
     1
  9
$LTSCALE
 40
0.0393700787401575
  9
$ATTMODE
 70
     1
  9
$TEXTSIZE
 40
0.2
  9
$TRACEWID
 40
0.05
  9
$TEXTSTYLE
  7
Standard
  9
$CLAYER
  8
Default
  9
$CELTYPE
  6
ByLayer
  9
$CECOLOR
 62
   256
  9
$CELTSCALE
 40
1.0
  9
$DISPSILH
 70
     0
  9
$DIMSCALE
 40
1.0
  9
$DIMASZ
 40
0.18
  9
$DIMEXO
 40
0.0625
  9
$DIMDLI
 40
0.38
  9
$DIMRND
 40
0.0
  9
$DIMDLE
 40
0.0
  9
$DIMEXE
 40
0.18
  9
$DIMTP
 40
0.0
  9
$DIMTM
 40
0.0
  9
$DIMTXT
 40
0.18
  9
$DIMCEN
 40
0.09
  9
$DIMTSZ
 40
0.0
  9
$DIMTOL
 70
     0
  9
$DIMLIM
 70
     0
  9
$DIMTIH
 70
     1
  9
$DIMTOH
 70
     1
  9
$DIMSE1
 70
     0
  9
$DIMSE2
 70
     0
  9
$DIMTAD
 70
     0
  9
$DIMZIN
 70
     0
  9
$DIMBLK
  1

  9
$DIMASO
 70
     1
  9
$DIMSHO
 70
     1
  9
$DIMPOST
  1

  9
$DIMAPOST
  1

  9
$DIMALT
 70
     0
  9
$DIMALTD
 70
     2
  9
$DIMALTF
 40
25.4
  9
$DIMLFAC
 40
1.0
  9
$DIMTOFL
 70
     0
  9
$DIMTVP
 40
0.0
  9
$DIMTIX
 70
     0
  9
$DIMSOXD
 70
     0
  9
$DIMSAH
 70
     0
  9
$DIMBLK1
  1

  9
$DIMBLK2
  1

  9
$DIMSTYLE
  2
Standard
  9
$DIMCLRD
 70
     0
  9
$DIMCLRE
 70
     0
  9
$DIMCLRT
 70
     0
  9
$DIMTFAC
 40
1.0
  9
$DIMGAP
 40
0.09
  9
$DIMJUST
 70
     0
  9
$DIMSD1
 70
     0
  9
$DIMSD2
 70
     0
  9
$DIMTOLJ
 70
     1
  9
$DIMTZIN
 70
     0
  9
$DIMALTZ
 70
     0
  9
$DIMALTTZ
 70
     0
  9
$DIMUPT
 70
     0
  9
$DIMDEC
 70
     4
  9
$DIMTDEC
 70
     4
  9
$DIMALTU
 70
     2
  9
$DIMALTTD
 70
     2
  9
$DIMTXSTY
  7
Standard
  9
$DIMAUNIT
 70
     0
  9
$DIMADEC
 70
     0
  9
$DIMALTRND
 40
0.0
  9
$DIMAZIN
 70
     0
  9
$DIMDSEP
 70
    46
  9
$DIMATFIT
 70
     3
  9
$DIMFRAC
 70
     0
  9
$DIMLDRBLK
  1

  9
$DIMLUNIT
 70
     2
  9
$DIMLWD
 70
    -2
  9
$DIMLWE
 70
    -2
  9
$DIMTMOVE
 70
     2
  9
$LUNITS
 70
     2
  9
$LUPREC
 70
     3
  9
$SKETCHINC
 40
0.1
  9
$FILLETRAD
 40
0.5
  9
$AUNITS
 70
     0
  9
$AUPREC
 70
     0
  9
$MENU
  1
.
  9
$ELEVATION
 40
0.0
  9
$PELEVATION
 40
0.0
  9
$THICKNESS
 40
0.0
  9
$LIMCHECK
 70
     0
  9
$CHAMFERA
 40
0.5
  9
$CHAMFERB
 40
0.5
  9
$CHAMFERC
 40
1.0
  9
$CHAMFERD
 40
0.0
  9
$SKPOLY
 70
     0
  9
$TDCREATE
 40
2456338.458665359
  9
$TDUCREATE
 40
2456338.666998692
  9
$TDUPDATE
 40
2456338.45866537
  9
$TDUUPDATE
 40
2456338.666998703
  9
$TDINDWG
 40
0.0000000116
  9
$TDUSRTIMER
 40
0.0000000116
  9
$USRTIMER
 70
     1
  9
$ANGBASE
 50
0.0
  9
$ANGDIR
 70
     0
  9
$PDMODE
 70
     0
  9
$PDSIZE
 40
0.0
  9
$PLINEWID
 40
0.0
  9
$SPLFRAME
 70
     0
  9
$SPLINETYPE
 70
     6
  9
$SPLINESEGS
 70
     8
  9
$HANDSEED
  5
DF
  9
$SURFTAB1
 70
     6
  9
$SURFTAB2
 70
     6
  9
$SURFTYPE
 70
     6
  9
$SURFU
 70
     6
  9
$SURFV
 70
     6
  9
$UCSBASE
  2

  9
$UCSNAME
  2

  9
$UCSORG
 10
0.0
 20
0.0
 30
0.0
  9
$UCSXDIR
 10
1.0
 20
0.0
 30
0.0
  9
$UCSYDIR
 10
0.0
 20
1.0
 30
0.0
  9
$UCSORTHOREF
  2

  9
$UCSORTHOVIEW
 70
     0
  9
$UCSORGTOP
 10
0.0
 20
0.0
 30
0.0
  9
$UCSORGBOTTOM
 10
0.0
 20
0.0
 30
0.0
  9
$UCSORGLEFT
 10
0.0
 20
0.0
 30
0.0
  9
$UCSORGRIGHT
 10
0.0
 20
0.0
 30
0.0
  9
$UCSORGFRONT
 10
0.0
 20
0.0
 30
0.0
  9
$UCSORGBACK
 10
0.0
 20
0.0
 30
0.0
  9
$PUCSBASE
  2

  9
$PUCSNAME
  2

  9
$PUCSORG
 10
0.0
 20
0.0
 30
0.0
  9
$PUCSXDIR
 10
1.0
 20
0.0
 30
0.0
  9
$PUCSYDIR
 10
0.0
 20
1.0
 30
0.0
  9
$PUCSORTHOREF
  2

  9
$PUCSORTHOVIEW
 70
     0
  9
$PUCSORGTOP
 10
0.0
 20
0.0
 30
0.0
  9
$PUCSORGBOTTOM
 10
0.0
 20
0.0
 30
0.0
  9
$PUCSORGLEFT
 10
0.0
 20
0.0
 30
0.0
  9
$PUCSORGRIGHT
 10
0.0
 20
0.0
 30
0.0
  9
$PUCSORGFRONT
 10
0.0
 20
0.0
 30
0.0
  9
$PUCSORGBACK
 10
0.0
 20
0.0
 30
0.0
  9
$USERI1
 70
     0
  9
$USERI2
 70
     0
  9
$USERI3
 70
     0
  9
$USERI4
 70
     0
  9
$USERI5
 70
     0
  9
$USERR1
 40
0.0
  9
$USERR2
 40
0.0
  9
$USERR3
 40
0.0
  9
$USERR4
 40
0.0
  9
$USERR5
 40
0.0
  9
$WORLDVIEW
 70
     1
  9
$SHADEDGE
 70
     3
  9
$SHADEDIF
 70
    70
  9
$TILEMODE
 70
     1
  9
$MAXACTVP
 70
    64
  9
$PINSBASE
 10
0.0
 20
0.0
 30
0.0
  9
$PLIMCHECK
 70
     0
  9
$PEXTMIN
 10
1.000000000000000E+20
 20
1.000000000000000E+20
 30
1.000000000000000E+20
  9
$PEXTMAX
 10
-1.000000000000000E+20
 20
-1.000000000000000E+20
 30
-1.000000000000000E+20
  9
$PLIMMIN
 10
0.0
 20
0.0
  9
$PLIMMAX
 10
12.0
 20
9.0
  9
$UNITMODE
 70
     0
  9
$VISRETAIN
 70
     1
  9
$PLINEGEN
 70
     0
  9
$PSLTSCALE
 70
     1
  9
$TREEDEPTH
 70
  3020
  9
$CMLSTYLE
  2
Standard
  9
$CMLJUST
 70
     0
  9
$CMLSCALE
 40
1.0
  9
$PROXYGRAPHICS
 70
     1
  9
$MEASUREMENT
 70
     0
  9
$CELWEIGHT
370
    -1
  9
$ENDCAPS
280
     0
  9
$JOINSTYLE
280
     0
  9
$LWDISPLAY
290
     0
  9
$INSUNITS
 70
     1
  9
$HYPERLINKBASE
  1

  9
$STYLESHEET
  1

  9
$XEDIT
290
     1
  9
$CEPSNTYPE
380
     0
  9
$PSTYLEMODE
290
     1
  9
$FINGERPRINTGUID
  2
{D889FCAC-7162-4F5B-A9CD-78785DD31A46}
  9
$VERSIONGUID
  2
{FAEB1C32-E019-11D5-929B-00C0DF256EC4}
  9
$EXTNAMES
290
     1
  9
$PSVPSCALE
 40
0.0
  9
$OLESTARTUP
290
     0
  9
$SORTENTS
280
   127
  9
$INDEXCTL
280
     0
  9
$HIDETEXT
280
     1
  9
$XCLIPFRAME
290
     0
  9
$HALOGAP
280
     0
  9
$OBSCOLOR
 70
   257
  9
$OBSLTYPE
280
     0
  9
$INTERSECTIONDISPLAY
280
     0
  9
$INTERSECTIONCOLOR
 70
   257
  9
$DIMASSOC
280
     2
  9
$PROJECTNAME
  1

  0
ENDSEC
  0
SECTION
  2
CLASSES
  0
CLASS
  1
ACDBDICTIONARYWDFLT
  2
AcDbDictionaryWithDefault
  3
ObjectDBX Classes
 90
        0
 91
        4
280
     0
281
     0
  0
CLASS
  1
VISUALSTYLE
  2
AcDbVisualStyle
  3
ObjectDBX Classes
 90
     4095
 91
        4
280
     0
281
     0
  0
ENDSEC
  0
SECTION
  2
TABLES
  0
TABLE
  2
VPORT
  5
8
330
0
100
AcDbSymbolTable
 70
     1
  0
VPORT
  5
29
330
8
100
AcDbSymbolTableRecord
100
AcDbViewportTableRecord
  2
*Active
 70
     0
 10
0.0
 20
0.0
 11
1.0
 21
1.0
 12
-4.948402577829157
 22
32.2494559810787
 13
0.0
 23
0.0
 14
0.5
 24
0.5
 15
0.5
 25
0.5
 16
0.0
 26
0.0
 36
1.0
 17
0.0
 27
0.0
 37
0.0
 40
65.78889020140055
 41
0.6077017101198002
 42
50.0
 43
0.0
 44
0.0
 50
0.0
 51
0.0
 71
     0
 72
   100
 73
     1
 74
     3
 75
     0
 76
     0
 77
     0
 78
     0
281
     0
 65
     1
110
0.0
120
0.0
130
0.0
111
1.0
121
0.0
131
0.0
112
0.0
122
1.0
132
0.0
 79
     0
146
0.0
  0
ENDTAB
  0
TABLE
  2
LTYPE
  5
5
330
0
100
AcDbSymbolTable
 70
     1
  0
LTYPE
  5
14
330
5
100
AcDbSymbolTableRecord
100
AcDbLinetypeTableRecord
  2
ByBlock
 70
     0
  3

 72
    65
 73
     0
 40
0.0
  0
LTYPE
  5
15
330
5
100
AcDbSymbolTableRecord
100
AcDbLinetypeTableRecord
  2
ByLayer
 70
     0
  3

 72
    65
 73
     0
 40
0.0
  0
LTYPE
  5
16
330
5
100
AcDbSymbolTableRecord
100
AcDbLinetypeTableRecord
  2
Continuous
 70
     0
  3
Solid line
 72
    65
 73
     0
 40
0.0
  0
ENDTAB
  0
TABLE
  2
LAYER
  5
2
330
0
100
AcDbSymbolTable
 70
     4
  0
LAYER
  5
10
330
2
100
AcDbSymbolTableRecord
100
AcDbLayerTableRecord
  2
0
 70
     0
 62
     7
  6
Continuous
370
    -3
390
F
  0
LAYER
  5
3B
330
2
100
AcDbSymbolTableRecord
100
AcDbLayerTableRecord
  2
Make2D visible lines
 70
     0
 62
     7
  6
Continuous
370
    -3
390
F
  0
LAYER
  5
40
330
2
100
AcDbSymbolTableRecord
100
AcDbLayerTableRecord
  2
Make2D visible lines - Tangent
 70
     0
 62
     7
  6
Continuous
370
    -3
390
F
  0
LAYER
  5
4A
330
2
100
AcDbSymbolTableRecord
100
AcDbLayerTableRecord
  2
Default
 70
     0
 62
     7
  6
Continuous
370
    -3
390
F
  0
ENDTAB
  0
TABLE
  2
STYLE
  5
3
330
0
100
AcDbSymbolTable
 70
     1
  0
STYLE
  5
11
330
3
100
AcDbSymbolTableRecord
100
AcDbTextStyleTableRecord
  2
Standard
 70
     0
 40
0.0
 41
1.0
 50
0.0
 71
     0
 42
0.2
  3
txt
  4

  0
ENDTAB
  0
TABLE
  2
VIEW
  5
6
330
0
100
AcDbSymbolTable
 70
     0
  0
ENDTAB
  0
TABLE
  2
UCS
  5
7
330
0
100
AcDbSymbolTable
 70
     0
  0
ENDTAB
  0
TABLE
  2
APPID
  5
9
330
0
100
AcDbSymbolTable
 70
     1
  0
APPID
  5
12
330
9
100
AcDbSymbolTableRecord
100
AcDbRegAppTableRecord
  2
ACAD
 70
     0
  0
ENDTAB
  0
TABLE
  2
DIMSTYLE
  5
A
330
0
100
AcDbSymbolTable
 70
     1
100
AcDbDimStyleTable
  0
DIMSTYLE
105
27
330
A
100
AcDbSymbolTableRecord
100
AcDbDimStyleTableRecord
  2
Standard
 70
     0
340
11
  0
ENDTAB
  0
TABLE
  2
BLOCK_RECORD
  5
1
330
0
100
AcDbSymbolTable
 70
     1
  0
BLOCK_RECORD
  5
1F
330
1
100
AcDbSymbolTableRecord
100
AcDbBlockTableRecord
  2
*Model_Space
340
22
  0
BLOCK_RECORD
  5
1B
330
1
100
AcDbSymbolTableRecord
100
AcDbBlockTableRecord
  2
*Paper_Space
340
1E
  0
BLOCK_RECORD
  5
23
330
1
100
AcDbSymbolTableRecord
100
AcDbBlockTableRecord
  2
*Paper_Space0
340
26
  0
ENDTAB
  0
ENDSEC
  0
SECTION
  2
BLOCKS
  0
BLOCK
  5
20
330
1F
100
AcDbEntity
  8
0
100
AcDbBlockBegin
  2
*Model_Space
 70
     0
 10
0.0
 20
0.0
 30
0.0
  3
*Model_Space
  1

  0
ENDBLK
  5
21
330
1F
100
AcDbEntity
  8
0
100
AcDbBlockEnd
  0
BLOCK
  5
1C
330
1B
100
AcDbEntity
 67
     1
  8
0
100
AcDbBlockBegin
  2
*Paper_Space
 70
     0
 10
0.0
 20
0.0
 30
0.0
  3
*Paper_Space
  1

  0
ENDBLK
  5
1D
330
1B
100
AcDbEntity
 67
     1
  8
0
100
AcDbBlockEnd
  0
BLOCK
  5
24
330
23
100
AcDbEntity
  8
0
100
AcDbBlockBegin
  2
*Paper_Space0
 70
     0
 10
0.0
 20
0.0
 30
0.0
  3
*Paper_Space0
  1

  0
ENDBLK
  5
25
330
23
100
AcDbEntity
  8
0
100
AcDbBlockEnd
  0
ENDSEC
  0
SECTION
  2
ENTITIES
  0
SPLINE
  5
3C
330
1F
100
AcDbEntity
  8
Make2D visible lines
100
AcDbSpline
210
0.0
220
0.0
230
1.0
 70
    12
 71
     2
 72
     8
 73
     5
 74
     0
 42
0.0000000001
 43
0.0000000001
 40
3.585625397787055
 40
3.585625397787055
 40
3.585625397787055
 40
16.38811833380997
 40
16.38811833380997
 40
32.77623666761517
 40
32.77623666761517
 40
32.77623666761517
 10
-9.877993076201442
 20
53.2070494974479
 30
0.0
 41
0.8998754439952638
 10
-7.473055618350866
 20
60.28255909738544
 30
0.0
 41
0.7711901147093492
 10
0.0000000000010524
 20
60.28255909738468
 30
0.0
 41
1.0
 10
10.43300025635318
 20
60.2825590973836
 30
0.0
 41
0.7071067724992287
 10
10.43299999999996
 20
49.84955884103148
 30
0.0
 41
0.999999999999829
  0
SPLINE
  5
3D
330
1F
100
AcDbEntity
  8
Make2D visible lines
100
AcDbSpline
210
0.0
220
0.0
230
1.0
 70
    12
 71
     2
 72
     8
 73
     5
 74
     0
 42
0.0000000001
 43
0.0000000001
 40
0.0
 40
0.0
 40
0.0
 40
16.388117226351
 40
16.388117226351
 40
28.41442587246247
 40
28.41442587246247
 40
28.41442587246247
 10
10.43299999999996
 20
49.84955884103148
 30
0.0
 41
1.0
 10
10.43299914890092
 20
39.41655969213166
 30
0.0
 41
0.707106810028621
 10
0.0000000000010577
 20
39.41655969213058
 30
0.0
 41
1.0
 10
-6.895937906929291
 20
39.41655969212986
 30
0.0
 41
0.7850623195887236
 10
-9.598447228081746
 20
45.76088022196779
 30
0.0
 41
0.8855857563518983
  0
SPLINE
  5
3E
330
1F
100
AcDbEntity
  8
Make2D visible lines
100
AcDbSpline
210
0.0
220
0.0
230
1.0
 70
    12
 71
     2
 72
    12
 73
     9
 74
     0
 42
0.0000000001
 43
0.0000000001
 40
3.1113559860488
 40
3.1113559860488
 40
3.1113559860488
 40
7.992863251026782
 40
7.992863251026782
 40
15.98572650205356
 40
15.98572650205356
 40
23.97858975308035
 40
23.97858975308035
 40
31.97145300410281
 40
31.97145300410281
 40
31.97145300410281
 10
-9.708203078211273
 20
52.90220495507168
 30
0.0
 41
0.9638065187254202
 10
-8.959961170377394
 20
55.28180801526771
 30
0.0
 41
0.953510696348557
 10
-7.196105131058337
 20
57.0456641741681
 30
0.0
 41
1.0
 10
-4.215380848698619
 20
60.0263886586072
 30
0.0
 41
0.9238795260252225
 10
0.0000000000010275
 20
60.02638865860678
 30
0.0
 41
1.0
 10
4.215380848700672
 20
60.02638865860634
 30
0.0
 41
0.9238795260252225
 10
7.196105131059778
 20
57.0456641741666
 30
0.0
 41
1.0
 10
10.17682941341714
 20
54.06493968972861
 30
0.0
 41
0.9238795260252636
 10
10.17682912763413
 20
49.84955884103142
 30
0.0
 41
0.9999999999999178
  0
SPLINE
  5
3F
330
1F
100
AcDbEntity
  8
Make2D visible lines
100
AcDbSpline
210
0.0
220
0.0
230
1.0
 70
    12
 71
     2
 72
     8
 73
     5
 74
     0
 42
0.0000000001
 43
0.0000000001
 40
0.0
 40
0.0
 40
0.0
 40
15.9857256088408
 40
15.9857256088408
 40
27.94744457286704
 40
27.94744457286704
 40
27.94744457286704
 10
10.17682912763413
 20
49.84955884103142
 30
0.0
 41
1.0
 10
10.17682892436894
 20
39.67272991666352
 30
0.0
 41
0.7071067882482235
 10
0.0000000000010328
 20
39.67272991666246
 30
0.0
 41
1.0
 10
-6.896031964002379
 20
39.67272991666174
 30
0.0
 41
0.7808353295199694
 10
-9.451992105096
 20
46.07759717568417
 30
0.0
 41
0.8896615503230589
  0
SPLINE
  5
41
330
1F
100
AcDbEntity
  8
Make2D visible lines - Tangent
100
AcDbSpline
210
0.0
220
0.0
230
1.0
 70
    12
 71
     2
 72
     6
 73
     3
 74
     0
 42
0.0000000001
 43
0.0000000001
 40
-2.944973077167249
 40
-2.944973077167249
 40
-2.944973077167249
 40
0.0
 40
0.0
 40
0.0
 10
0.4018928226057861
 20
39.42430328477357
 30
0.0
 41
0.9999999986861746
 10
0.3855384211721488
 20
37.95113676615198
 30
0.0
 41
0.9999999990961477
 10
0.3692291087560022
 20
36.47767999750342
 30
0.0
 41
1.0
  0
SPLINE
  5
42
330
1F
100
AcDbEntity
  8
Make2D visible lines - Tangent
100
AcDbSpline
210
0.0
220
0.0
230
1.0
 70
     8
 71
     3
 72
    14
 73
    10
 74
     0
 42
0.0000000001
 43
0.0000000001
 40
0.0
 40
0.0
 40
0.0
 40
0.0
 40
1.0
 40
2.0
 40
3.0
 40
4.0
 40
5.0
 40
6.0
 40
7.0
 40
7.0
 40
7.0
 40
7.0
 10
0.3692291087560022
 20
36.47767999750342
 30
0.0
 10
0.3681792200332836
 20
36.40737438445837
 30
0.0
 10
0.3478821534581442
 20
36.27473844205318
 30
0.0
 10
0.2620972967860382
 20
36.09236127026277
 30
0.0
 10
0.1027023299643872
 20
35.95755022749704
 30
0.0
 10
-0.1104851349790295
 20
35.96092754178721
 30
0.0
 10
-0.2666415048182529
 20
36.09889885518518
 30
0.0
 10
-0.3500621393612562
 20
36.28228813063676
 30
0.0
 10
-0.3689701568728907
 20
36.41512543267056
 30
0.0
 10
-0.3690000000011366
 20
36.4815588410293
 30
0.0
  0
SPLINE
  5
43
330
1F
100
AcDbEntity
  8
Make2D visible lines - Tangent
100
AcDbSpline
210
0.0
220
0.0
230
1.0
 70
    12
 71
     2
 72
     6
 73
     3
 74
     0
 42
0.0000000001
 43
0.0000000001
 40
0.0
 40
0.0
 40
0.0
 40
2.942909377090318
 40
2.942909377090318
 40
2.942909377090318
 10
-0.3690000000011366
 20
36.4815588410293
 30
0.0
 41
1.0
 10
-0.3852234347222463
 20
37.95292409131335
 30
0.0
 41
0.999999999096781
 10
-0.4015122210680325
 20
39.42428861957169
 30
0.0
 41
0.9999999986867494
  0
SPLINE
  5
44
330
1F
100
AcDbEntity
  8
Make2D visible lines - Tangent
100
AcDbSpline
210
0.0
220
0.0
230
1.0
 70
    12
 71
     2
 72
     6
 73
     3
 74
     0
 42
0.0000000001
 43
0.0000000001
 40
-2.944971969747823
 40
-2.944971969747823
 40
-2.944971969747823
 40
0.0
 40
0.0
 40
0.0
 10
-0.4018928103061133
 20
60.27481550521584
 30
0.0
 41
0.999999998686175
 10
-0.3855384150392955
 20
61.74798146998118
 30
0.0
 41
0.9999999990961479
 10
-0.3692291087560591
 20
63.22143768455517
 30
0.0
 41
1.0
  0
SPLINE
  5
45
330
1F
100
AcDbEntity
  8
Make2D visible lines - Tangent
100
AcDbSpline
210
0.0
220
0.0
230
1.0
 70
     8
 71
     3
 72
    14
 73
    10
 74
     0
 42
0.0000000001
 43
0.0000000001
 40
0.0
 40
0.0
 40
0.0
 40
0.0
 40
1.0
 40
2.0
 40
3.0
 40
4.0
 40
5.0
 40
6.0
 40
7.0
 40
7.0
 40
7.0
 40
7.0
 10
-0.3692291087560591
 20
63.22143768455517
 30
0.0
 10
-0.3681792200333405
 20
63.29174329760021
 30
0.0
 10
-0.3478821534581868
 20
63.42437924000541
 30
0.0
 10
-0.2620972967860808
 20
63.60675641179581
 30
0.0
 10
-0.1027023299644441
 20
63.74156745456155
 30
0.0
 10
0.1104851349789868
 20
63.73819014027137
 30
0.0
 10
0.2666415048182103
 20
63.6002188268734
 30
0.0
 10
0.3500621393612136
 20
63.41682955142183
 30
0.0
 10
0.3689701568728481
 20
63.28399224938802
 30
0.0
 10
0.369000000001094
 20
63.21755884102929
 30
0.0
  0
SPLINE
  5
46
330
1F
100
AcDbEntity
  8
Make2D visible lines - Tangent
100
AcDbSpline
210
0.0
220
0.0
230
1.0
 70
    12
 71
     2
 72
     6
 73
     3
 74
     0
 42
0.0000000001
 43
0.0000000001
 40
0.0
 40
0.0
 40
0.0
 40
2.942908269093406
 40
2.942908269093406
 40
2.942908269093406
 10
0.369000000001094
 20
63.21755884102929
 30
0.0
 41
1.0
 10
0.3852234286141253
 20
61.74619414471004
 30
0.0
 41
0.9999999990967814
 10
0.4015122088026247
 20
60.27483017041593
 30
0.0
 41
0.9999999986867498
  0
SPLINE
  5
47
330
1F
100
AcDbEntity
  8
Make2D visible lines - Tangent
100
AcDbSpline
210
0.0
220
0.0
230
1.0
 70
    12
 71
     2
 72
     6
 73
     3
 74
     0
 42
0.0000000001
 43
0.0000000001
 40
-2.944972216212477
 40
-2.944972216212477
 40
-2.944972216212477
 40
0.0
 40
0.0
 40
0.0
 10
10.42525641760806
 20
50.25145165407276
 30
0.0
 41
0.999999998686175
 10
11.89842250563833
 20
50.23509725743348
 30
0.0
 41
0.9999999990961479
 10
13.37187884352586
 20
50.21878794978532
 30
0.0
 41
1.0
  0
SPLINE
  5
48
330
1F
100
AcDbEntity
  8
Make2D visible lines - Tangent
100
AcDbSpline
210
0.0
220
0.0
230
1.0
 70
     8
 71
     3
 72
    14
 73
    10
 74
     0
 42
0.0000000001
 43
0.0000000001
 40
0.0
 40
0.0
 40
0.0
 40
0.0
 40
1.0
 40
2.0
 40
3.0
 40
4.0
 40
5.0
 40
6.0
 40
7.0
 40
7.0
 40
7.0
 40
7.0
 10
13.37187884352586
 20
50.21878794978532
 30
0.0
 10
13.4421844565709
 20
50.2177380610626
 30
0.0
 10
13.5748203989761
 20
50.19744099448747
 30
0.0
 10
13.75719757076651
 20
50.11165613781534
 30
0.0
 10
13.89200861353224
 20
49.95226117099371
 30
0.0
 10
13.88863129924206
 20
49.73907370605028
 30
0.0
 10
13.75065998584409
 20
49.58291733621105
 30
0.0
 10
13.56727071039251
 20
49.49949670166805
 30
0.0
 10
13.43443340835871
 20
49.48058868415643
 30
0.0
 10
13.36799999999997
 20
49.48055884102817
 30
0.0
  0
SPLINE
  5
49
330
1F
100
AcDbEntity
  8
Make2D visible lines - Tangent
100
AcDbSpline
210
0.0
220
0.0
230
1.0
 70
    12
 71
     2
 72
     6
 73
     3
 74
     0
 42
0.0000000001
 43
0.0000000001
 40
0.0
 40
0.0
 40
0.0
 40
2.942908558368614
 40
2.942908558368614
 40
2.942908558368614
 10
13.36799999999997
 20
49.48055884102817
 30
0.0
 41
1.0
 10
11.8966351590519
 20
49.46433541082045
 30
0.0
 41
0.9999999990967813
 10
10.42527104012913
 20
49.44804662902441
 30
0.0
 41
0.9999999986867497
  0
CIRCLE
  5
4B
330
1F
100
AcDbEntity
  8
Default
100
AcDbCircle
 10
-16.67125576188712
 20
49.22368319703431
 30
0.0
 40
7.874999999999993
  0
SPLINE
  5
4C
330
1F
100
AcDbEntity
  8
Make2D visible lines - Tangent
100
AcDbSpline
210
0.0
220
0.0
230
1.0
 70
    24
 71
     2
 72
     6
 73
     3
 74
     0
 42
0.0000000001
 43
0.0000000001
 40
0.0
 40
0.0
 40
0.0
 40
0.0114467396849787
 40
0.0114467396849787
 40
0.0114467396849787
 10
0.0000000000870983
 20
35.21275536804902
 30
0.0
 10
0.0000000026667522
 20
35.20703199820653
 30
0.0
 10
0.000000005246406
 20
35.20130862836405
 30
0.0
  0
SPLINE
  5
4D
330
1F
100
AcDbEntity
  8
Make2D visible lines - Tangent
100
AcDbSpline
210
0.0
220
0.0
230
1.0
 70
    12
 71
     2
 72
     6
 73
     3
 74
     0
 42
0.0000000001
 43
0.0000000001
 40
0.0
 40
0.0
 40
0.0
 40
0.0586712320260919
 40
0.0586712320260919
 40
0.0586712320260919
 10
0.0000000000870983
 20
35.21275536804902
 30
0.0
 41
1.0
 10
-0.0294905925234824
 20
35.21279884925031
 30
0.0
 41
0.9921343149382713
 10
-0.0580461792410887
 20
35.22016603394678
 30
0.0
 41
1.0
  0
SPLINE
  5
4E
330
1F
100
AcDbEntity
  8
Make2D visible lines - Tangent
100
AcDbSpline
210
0.0
220
0.0
230
1.0
 70
    12
 71
     2
 72
     6
 73
     3
 74
     0
 42
0.0000000001
 43
0.0000000001
 40
0.0
 40
0.0
 40
0.0
 40
0.0587632096241838
 40
0.0587632096241838
 40
0.0587632096241838
 10
0.0581358437700601
 20
35.22018899951665
 30
0.0
 41
1.0
 10
0.0295378737529724
 20
35.21279916548362
 30
0.0
 41
0.9921107855315546
 10
0.0000005817660735
 20
35.21275536804979
 30
0.0
 41
1.0
  0
SPLINE
  5
4F
330
1F
100
AcDbEntity
  8
Make2D visible lines
100
AcDbSpline
210
0.0
220
0.0
230
1.0
 70
    12
 71
     2
 72
     6
 73
     3
 74
     0
 42
0.0000000001
 43
0.0000000001
 40
0.0
 40
0.0
 40
0.0
 40
0.0853474550214741
 40
0.0853474550214741
 40
0.0853474550214741
 10
-0.4047946761643573
 20
63.70360138827054
 30
0.0
 41
1.0
 10
-0.407782054127103
 20
63.74618762675028
 30
0.0
 41
0.9993970637774641
 10
-0.4078067866610127
 20
63.78887851012421
 30
0.0
 41
1.0
  0
SPLINE
  5
50
330
1F
100
AcDbEntity
  8
Make2D visible lines - Tangent
100
AcDbSpline
210
0.0
220
0.0
230
1.0
 70
    12
 71
     2
 72
     6
 73
     3
 74
     0
 42
0.0000000001
 43
0.0000000001
 40
0.0
 40
0.0
 40
0.0
 40
0.1369528492222414
 40
0.1369528492222414
 40
0.1369528492222414
 10
13.43963941170924
 20
49.48194806343409
 30
0.0
 41
1.0
 10
13.50809973697991
 20
49.48337759905233
 30
0.0
 41
0.9999966913238282
 10
13.57659897236389
 20
49.48262593213502
 30
0.0
 41
0.9999959461296658
  0
ARC
  5
51
330
1F
100
AcDbEntity
  8
Make2D visible lines - Tangent
100
AcDbCircle
 10
13.58482132976162
 20
48.98269354386754
 30
0.0
 40
0.5
100
AcDbArc
 50
78.48715217353497
 51
90.94225522513219
  0
SPLINE
  5
52
330
1F
100
AcDbEntity
  8
Make2D visible lines - Tangent
100
AcDbSpline
210
0.0
220
0.0
230
1.0
 70
     8
 71
     3
 72
    14
 73
    10
 74
     0
 42
0.0000000001
 43
0.0000000001
 40
0.2772630823298201
 40
0.2772630823298201
 40
0.2772630823298201
 40
0.2772630823298201
 40
1.0
 40
2.0
 40
3.0
 40
4.0
 40
5.0
 40
6.0
 40
7.0
 40
7.0
 40
7.0
 40
7.0
 10
13.68461516208917
 20
49.47263353103881
 30
0.0
 10
13.72436884739381
 20
49.46453626870147
 30
0.0
 10
13.81999462540274
 20
49.4494700298433
 30
0.0
 10
13.97314918214629
 20
49.44472866071803
 30
0.0
 10
14.14092549583691
 20
49.46274305437603
 30
0.0
 10
14.30467129122235
 20
49.50427241841207
 30
0.0
 10
14.45853882614885
 20
49.57476079258916
 30
0.0
 10
14.58949831521464
 20
49.68486590045032
 30
0.0
 10
14.63471851870943
 20
49.79287534569875
 30
0.0
 10
14.6342110130025
 20
49.84955934333288
 30
0.0
  0
SPLINE
  5
53
330
1F
100
AcDbEntity
  8
Make2D visible lines - Tangent
100
AcDbSpline
210
0.0
220
0.0
230
1.0
 70
     8
 71
     3
 72
    14
 73
    10
 74
     0
 42
0.0000000001
 43
0.0000000001
 40
-7.0
 40
-7.0
 40
-7.0
 40
-7.0
 40
-6.0
 40
-5.0
 40
-4.0
 40
-3.0
 40
-2.0
 40
-1.0
 40
-0.2482205602640466
 40
-0.2482205602640466
 40
-0.2482205602640466
 40
-0.2482205602640466
 10
14.6342110130025
 20
49.84955934333288
 30
0.0
 10
14.63471851870943
 20
49.90624334096701
 30
0.0
 10
14.58949831521464
 20
50.01425278621545
 30
0.0
 10
14.45853882614885
 20
50.1243578940766
 30
0.0
 10
14.30467129122235
 20
50.19484626825368
 30
0.0
 10
14.14092549583691
 20
50.23637563228974
 30
0.0
 10
13.97314918214629
 20
50.25439002594771
 30
0.0
 10
13.81836097708188
 20
50.24959808222727
 30
0.0
 10
13.72114502285879
 20
50.23407100447021
 30
0.0
 10
13.67982453813994
 20
50.22550042880582
 30
0.0
  0
ARC
  5
54
330
1F
100
AcDbEntity
  8
Make2D visible lines - Tangent
100
AcDbCircle
 10
13.57827735398223
 20
50.71508001313265
 30
0.0
 40
0.5
100
AcDbArc
 50
268.9775798079559
 51
281.7179678781667
  0
SPLINE
  5
55
330
1F
100
AcDbEntity
  8
Make2D visible lines - Tangent
100
AcDbSpline
210
0.0
220
0.0
230
1.0
 70
    12
 71
     2
 72
     6
 73
     3
 74
     0
 42
0.0000000001
 43
0.0000000001
 40
-0.1297405451143296
 40
-0.1297405451143296
 40
-0.1297405451143296
 40
0.0
 40
0.0
 40
0.0
 10
13.56935552815052
 20
50.21515961844584
 30
0.0
 41
0.9999960316975589
 10
13.5044955649835
 20
50.21631714132543
 30
0.0
 41
0.9999968655123173
 10
13.43963941170924
 20
50.21767141740871
 30
0.0
 41
1.0
  0
SPLINE
  5
56
330
1F
100
AcDbEntity
  8
Make2D visible lines - Tangent
100
AcDbSpline
210
0.0
220
0.0
230
1.0
 70
     8
 71
     3
 72
    12
 73
     8
 74
     0
 42
0.0000000001
 43
0.0000000001
 40
0.0
 40
0.0
 40
0.0
 40
0.0
 40
0.1510110321465192
 40
0.3037660471064116
 40
0.5900965017365678
 40
0.8249401141264362
 40
1.014583801502342
 40
1.014583801502342
 40
1.014583801502342
 40
1.014583801502342
 10
13.81899612574543
 20
49.44772481937454
 30
0.0
 10
13.86911636217181
 20
49.44280859701463
 30
0.0
 10
13.97041621642195
 20
49.4389788185221
 30
0.0
 10
14.16686403542256
 20
49.45619070272559
 30
0.0
 10
14.38500731013343
 20
49.51664303923752
 30
0.0
 10
14.58586207458904
 20
49.65139086716222
 30
0.0
 10
14.65060660081498
 20
49.78520810349644
 30
0.0
 10
14.64935312112608
 20
49.84955884677281
 30
0.0
  0
SPLINE
  5
57
330
1F
100
AcDbEntity
  8
Make2D visible lines - Tangent
100
AcDbSpline
210
0.0
220
0.0
230
1.0
 70
     8
 71
     3
 72
    12
 73
     8
 74
     0
 42
0.0000000001
 43
0.0000000001
 40
-1.014583801502342
 40
-1.014583801502342
 40
-1.014583801502342
 40
-1.014583801502342
 40
-0.8249401141264362
 40
-0.5900965017365678
 40
-0.3037660471064116
 40
-0.1510110321465192
 40
0.0
 40
0.0
 40
0.0
 40
0.0
 10
14.64935312112608
 20
49.84955884677281
 30
0.0
 10
14.65060660081498
 20
49.91390959004917
 30
0.0
 10
14.58586207458904
 20
50.0477268263834
 30
0.0
 10
14.38500731013343
 20
50.18247465430809
 30
0.0
 10
14.16686403542256
 20
50.24292699082002
 30
0.0
 10
13.97041621642195
 20
50.26013887502351
 30
0.0
 10
13.86911636217181
 20
50.25630909653098
 30
0.0
 10
13.81899612574543
 20
50.25139287417107
 30
0.0
  0
SPLINE
  5
58
330
1F
100
AcDbEntity
  8
Make2D visible lines
100
AcDbSpline
210
0.0
220
0.0
230
1.0
 70
    12
 71
     2
 72
     6
 73
     3
 74
     0
 42
0.0000000001
 43
0.0000000001
 40
0.0
 40
0.0
 40
0.0
 40
0.0853474550214741
 40
0.0853474550214741
 40
0.0853474550214741
 10
13.85404254724124
 20
50.25435351719364
 30
0.0
 41
1.0
 10
13.89662878572097
 20
50.25734089515637
 30
0.0
 41
0.9993970637774641
 10
13.9393196690949
 20
50.25736562769028
 30
0.0
 41
1.0
  0
SPLINE
  5
59
330
1F
100
AcDbEntity
  8
Make2D visible lines
100
AcDbSpline
210
0.0
220
0.0
230
1.0
 70
    12
 71
     2
 72
     6
 73
     3
 74
     0
 42
0.0000000001
 43
0.0000000001
 40
0.0
 40
0.0
 40
0.0
 40
0.0853474550214741
 40
0.0853474550214741
 40
0.0853474550214741
 10
0.4047946761643146
 20
35.99551629378804
 30
0.0
 41
1.0
 10
0.4077820541270476
 20
35.95293005530831
 30
0.0
 41
0.9993970637774641
 10
0.40780678666097
 20
35.91023917193438
 30
0.0
 41
1.0
  0
SPLINE
  5
5A
330
1F
100
AcDbEntity
  8
Make2D visible lines - Tangent
100
AcDbSpline
210
0.0
220
0.0
230
1.0
 70
    12
 71
     2
 72
     6
 73
     3
 74
     0
 42
0.0000000001
 43
0.0000000001
 40
0.0
 40
0.0
 40
0.0
 40
0.1369528492222414
 40
0.1369528492222414
 40
0.1369528492222414
 10
-0.3676107775952175
 20
36.40991942932004
 30
0.0
 41
1.0
 10
-0.366181241976981
 20
36.34145910404935
 30
0.0
 41
0.9999966913238282
 10
-0.3669329088942999
 20
36.27295986866538
 30
0.0
 41
0.9999959461296658
  0
ARC
  5
5B
330
1F
100
AcDbEntity
  8
Make2D visible lines - Tangent
100
AcDbCircle
 10
-0.8668652971617661
 20
36.26473751126765
 30
0.0
 40
0.5
100
AcDbArc
 50
348.4871521735349
 51
0.9422552251317675
  0
SPLINE
  5
5C
330
1F
100
AcDbEntity
  8
Make2D visible lines - Tangent
100
AcDbSpline
210
0.0
220
0.0
230
1.0
 70
     8
 71
     3
 72
    14
 73
    10
 74
     0
 42
0.0000000001
 43
0.0000000001
 40
0.2772630823298201
 40
0.2772630823298201
 40
0.2772630823298201
 40
0.2772630823298201
 40
1.0
 40
2.0
 40
3.0
 40
4.0
 40
5.0
 40
6.0
 40
7.0
 40
7.0
 40
7.0
 40
7.0
 10
-0.3769253099904972
 20
36.1649436789401
 30
0.0
 10
-0.3850225723278555
 20
36.12518999363547
 30
0.0
 10
-0.4000888111860093
 20
36.02956421562653
 30
0.0
 10
-0.4048301803112793
 20
35.87640965888298
 30
0.0
 10
-0.3868157866532869
 20
35.70863334519236
 30
0.0
 10
-0.3452864226172352
 20
35.54488754980693
 30
0.0
 10
-0.2747980484401609
 20
35.39102001488042
 30
0.0
 10
-0.1646929405790019
 20
35.26006052581464
 30
0.0
 10
-0.0566834953305744
 20
35.21484032231984
 30
0.0
 10
0.0000005023035641
 20
35.21534782802677
 30
0.0
  0
SPLINE
  5
5D
330
1F
100
AcDbEntity
  8
Make2D visible lines - Tangent
100
AcDbSpline
210
0.0
220
0.0
230
1.0
 70
     8
 71
     3
 72
    14
 73
    10
 74
     0
 42
0.0000000001
 43
0.0000000001
 40
-7.0
 40
-7.0
 40
-7.0
 40
-7.0
 40
-6.0
 40
-5.0
 40
-4.0
 40
-3.0
 40
-2.0
 40
-1.0
 40
-0.2482205602640466
 40
-0.2482205602640466
 40
-0.2482205602640466
 40
-0.2482205602640466
 10
0.0000005023035641
 20
35.21534782802677
 30
0.0
 10
0.0566844999377025
 20
35.21484032231984
 30
0.0
 10
0.16469394518613
 20
35.26006052581464
 30
0.0
 10
0.274799053047289
 20
35.39102001488042
 30
0.0
 10
0.3452874272243633
 20
35.54488754980693
 30
0.0
 10
0.386816791260415
 20
35.70863334519236
 30
0.0
 10
0.4048311849184074
 20
35.87640965888298
 30
0.0
 10
0.4000392411979448
 20
36.03119786394739
 30
0.0
 10
0.3845121634408883
 20
36.12841381817048
 30
0.0
 10
0.3759415877764951
 20
36.16973430288933
 30
0.0
  0
ARC
  5
5E
330
1F
100
AcDbEntity
  8
Make2D visible lines - Tangent
100
AcDbCircle
 10
0.8655211721033425
 20
36.27128148704704
 30
0.0
 40
0.5
100
AcDbArc
 50
178.9775798079559
 51
191.7179678781667
  0
SPLINE
  5
5F
330
1F
100
AcDbEntity
  8
Make2D visible lines - Tangent
100
AcDbSpline
210
0.0
220
0.0
230
1.0
 70
    12
 71
     2
 72
     6
 73
     3
 74
     0
 42
0.0000000001
 43
0.0000000001
 40
-0.1297405451143296
 40
-0.1297405451143296
 40
-0.1297405451143296
 40
0.0
 40
0.0
 40
0.0
 10
0.3656007774165125
 20
36.28020331287875
 30
0.0
 41
0.9999960316975589
 10
0.3667583002961144
 20
36.34506327604576
 30
0.0
 41
0.9999968655123173
 10
0.3681125763794029
 20
36.40991942932004
 30
0.0
 41
1.0
  0
SPLINE
  5
60
330
1F
100
AcDbEntity
  8
Make2D visible lines - Tangent
100
AcDbSpline
210
0.0
220
0.0
230
1.0
 70
     8
 71
     3
 72
    12
 73
     8
 74
     0
 42
0.0000000001
 43
0.0000000001
 40
0.0
 40
0.0
 40
0.0
 40
0.0
 40
0.1510110321465192
 40
0.3037660471064116
 40
0.5900965017365678
 40
0.8249401141264362
 40
1.014583801502342
 40
1.014583801502342
 40
1.014583801502342
 40
1.014583801502342
 10
-0.4018340216547784
 20
36.03056271528385
 30
0.0
 10
-0.4067502440146882
 20
35.98044247885747
 30
0.0
 10
-0.4105800225072187
 20
35.87914262460733
 30
0.0
 10
-0.3933681383037282
 20
35.68269480560671
 30
0.0
 10
-0.332915801791799
 20
35.46455153089585
 30
0.0
 10
-0.1981679738670863
 20
35.26369676644023
 30
0.0
 10
-0.0643507375328625
 20
35.1989522402143
 30
0.0
 10
0.0000000057435017
 20
35.2002057199032
 30
0.0
  0
SPLINE
  5
61
330
1F
100
AcDbEntity
  8
Make2D visible lines - Tangent
100
AcDbSpline
210
0.0
220
0.0
230
1.0
 70
     8
 71
     3
 72
    12
 73
     8
 74
     0
 42
0.0000000001
 43
0.0000000001
 40
-1.014583801502342
 40
-1.014583801502342
 40
-1.014583801502342
 40
-1.014583801502342
 40
-0.8249401141264362
 40
-0.5900965017365678
 40
-0.3037660471064116
 40
-0.1510110321465192
 40
0.0
 40
0.0
 40
0.0
 40
0.0
 10
0.0000000057435017
 20
35.2002057199032
 30
0.0
 10
0.0643507490198516
 20
35.1989522402143
 30
0.0
 10
0.1981679853540896
 20
35.26369676644023
 30
0.0
 10
0.3329158132787882
 20
35.46455153089585
 30
0.0
 10
0.3933681497907173
 20
35.68269480560671
 30
0.0
 10
0.4105800339942078
 20
35.87914262460733
 30
0.0
 10
0.4067502555016773
 20
35.98044247885747
 30
0.0
 10
0.4018340331417676
 20
36.03056271528385
 30
0.0
  0
SPLINE
  5
62
330
1F
100
AcDbEntity
  8
Make2D visible lines - Tangent
100
AcDbSpline
210
0.0
220
0.0
230
1.0
 70
    12
 71
     2
 72
     6
 73
     3
 74
     0
 42
0.0000000001
 43
0.0000000001
 40
0.0
 40
0.0
 40
0.0
 40
0.1369528492222414
 40
0.1369528492222414
 40
0.1369528492222414
 10
0.3676107775951749
 20
63.28919825273854
 30
0.0
 41
1.0
 10
0.3661812419769332
 20
63.35765857800923
 30
0.0
 41
0.9999966913238282
 10
0.3669329088942483
 20
63.42615781339319
 30
0.0
 41
0.9999959461296658
  0
ARC
  5
63
330
1F
100
AcDbEntity
  8
Make2D visible lines - Tangent
100
AcDbCircle
 10
0.8668652971617234
 20
63.43438017079093
 30
0.0
 40
0.5
100
AcDbArc
 50
168.4871521735349
 51
180.9422552251318
  0
SPLINE
  5
64
330
1F
100
AcDbEntity
  8
Make2D visible lines - Tangent
100
AcDbSpline
210
0.0
220
0.0
230
1.0
 70
     8
 71
     3
 72
    14
 73
    10
 74
     0
 42
0.0000000001
 43
0.0000000001
 40
0.2772630823298201
 40
0.2772630823298201
 40
0.2772630823298201
 40
0.2772630823298201
 40
1.0
 40
2.0
 40
3.0
 40
4.0
 40
5.0
 40
6.0
 40
7.0
 40
7.0
 40
7.0
 40
7.0
 10
0.3769253099904546
 20
63.53417400311848
 30
0.0
 10
0.3850225723278129
 20
63.57392768842313
 30
0.0
 10
0.4000888111859666
 20
63.66955346643205
 30
0.0
 10
0.4048301803112366
 20
63.82270802317559
 30
0.0
 10
0.3868157866532442
 20
63.99048433686623
 30
0.0
 10
0.3452864226171926
 20
64.15423013225166
 30
0.0
 10
0.2747980484401182
 20
64.30809766717816
 30
0.0
 10
0.1646929405789592
 20
64.43905715624395
 30
0.0
 10
0.0566834953305175
 20
64.48427735973875
 30
0.0
 10
-0.0000005023036067
 20
64.48376985403182
 30
0.0
  0
SPLINE
  5
65
330
1F
100
AcDbEntity
  8
Make2D visible lines - Tangent
100
AcDbSpline
210
0.0
220
0.0
230
1.0
 70
     8
 71
     3
 72
    14
 73
    10
 74
     0
 42
0.0000000001
 43
0.0000000001
 40
-7.0
 40
-7.0
 40
-7.0
 40
-7.0
 40
-6.0
 40
-5.0
 40
-4.0
 40
-3.0
 40
-2.0
 40
-1.0
 40
-0.2482205602640466
 40
-0.2482205602640466
 40
-0.2482205602640466
 40
-0.2482205602640466
 10
-0.0000005023036067
 20
64.48376985403182
 30
0.0
 10
-0.0566844999377452
 20
64.48427735973875
 30
0.0
 10
-0.1646939451861726
 20
64.43905715624395
 30
0.0
 10
-0.2747990530473317
 20
64.30809766717816
 30
0.0
 10
-0.345287427224406
 20
64.15423013225166
 30
0.0
 10
-0.3868167912604576
 20
63.99048433686623
 30
0.0
 10
-0.40483118491845
 20
63.82270802317559
 30
0.0
 10
-0.4000392411979874
 20
63.6679198181112
 30
0.0
 10
-0.3845121634409452
 20
63.57070386388811
 30
0.0
 10
-0.3759415877765377
 20
63.52938337916926
 30
0.0
  0
ARC
  5
66
330
1F
100
AcDbEntity
  8
Make2D visible lines - Tangent
100
AcDbCircle
 10
-0.8655211721033851
 20
63.42783619501155
 30
0.0
 40
0.5
100
AcDbArc
 50
358.9775798079559
 51
11.71796787816672
  0
SPLINE
  5
67
330
1F
100
AcDbEntity
  8
Make2D visible lines - Tangent
100
AcDbSpline
210
0.0
220
0.0
230
1.0
 70
    12
 71
     2
 72
     6
 73
     3
 74
     0
 42
0.0000000001
 43
0.0000000001
 40
-0.1297405451143296
 40
-0.1297405451143296
 40
-0.1297405451143296
 40
0.0
 40
0.0
 40
0.0
 10
-0.3656007774165625
 20
63.41891436917983
 30
0.0
 41
0.9999960316975589
 10
-0.3667583002961618
 20
63.35405440601281
 30
0.0
 41
0.9999968655123173
 10
-0.3681125763794455
 20
63.28919825273854
 30
0.0
 41
1.0
  0
SPLINE
  5
68
330
1F
100
AcDbEntity
  8
Make2D visible lines - Tangent
100
AcDbSpline
210
0.0
220
0.0
230
1.0
 70
     8
 71
     3
 72
    12
 73
     8
 74
     0
 42
0.0000000001
 43
0.0000000001
 40
0.0
 40
0.0
 40
0.0
 40
0.0
 40
0.1510110321465192
 40
0.3037660471064116
 40
0.5900965017365678
 40
0.8249401141264362
 40
1.014583801502342
 40
1.014583801502342
 40
1.014583801502342
 40
1.014583801502342
 10
0.4018340216547358
 20
63.66855496677474
 30
0.0
 10
0.4067502440146313
 20
63.71867520320112
 30
0.0
 10
0.4105800225071619
 20
63.81997505745126
 30
0.0
 10
0.3933681383036713
 20
64.01642287645187
 30
0.0
 10
0.3329158017917564
 20
64.23456615116274
 30
0.0
 10
0.1981679738670437
 20
64.43542091561837
 30
0.0
 10
0.0643507375328198
 20
64.50016544184429
 30
0.0
 10
-0.0000000057435443
 20
64.49891196215539
 30
0.0
  0
SPLINE
  5
69
330
1F
100
AcDbEntity
  8
Make2D visible lines - Tangent
100
AcDbSpline
210
0.0
220
0.0
230
1.0
 70
     8
 71
     3
 72
    12
 73
     8
 74
     0
 42
0.0000000001
 43
0.0000000001
 40
-1.014583801502342
 40
-1.014583801502342
 40
-1.014583801502342
 40
-1.014583801502342
 40
-0.8249401141264362
 40
-0.5900965017365678
 40
-0.3037660471064116
 40
-0.1510110321465192
 40
0.0
 40
0.0
 40
0.0
 40
0.0
 10
-0.0000000057435443
 20
64.49891196215539
 30
0.0
 10
-0.0643507490198942
 20
64.50016544184429
 30
0.0
 10
-0.1981679853541323
 20
64.43542091561837
 30
0.0
 10
-0.3329158132788308
 20
64.23456615116274
 30
0.0
 10
-0.39336814979076
 20
64.01642287645187
 30
0.0
 10
-0.4105800339942505
 20
63.81997505745126
 30
0.0
 10
-0.4067502555017199
 20
63.71867520320112
 30
0.0
 10
-0.4018340331418102
 20
63.66855496677474
 30
0.0
  0
SPLINE
  5
6A
330
1F
100
AcDbEntity
  8
Make2D visible lines
100
AcDbSpline
210
0.0
220
0.0
230
1.0
 70
    24
 71
     2
 72
     6
 73
     3
 74
     0
 42
0.0000000001
 43
0.0000000001
 40
0.0
 40
0.0
 40
0.0
 40
0.0000751500774685
 40
0.0000751500774685
 40
0.0000751500774685
 10
-13.04812838216702
 20
21.83705701892992
 30
0.0
 10
-13.04813257643813
 20
21.83701967871533
 30
0.0
 10
-13.04813677070924
 20
21.83698233850074
 30
0.0
  0
SPLINE
  5
6B
330
1F
100
AcDbEntity
  8
Make2D visible lines
100
AcDbSpline
210
0.0
220
0.0
230
1.0
 70
    24
 71
     2
 72
     6
 73
     3
 74
     0
 42
0.0000000001
 43
0.0000000001
 40
0.0
 40
0.0
 40
0.0
 40
1.28941229765211
 40
1.28941229765211
 40
1.28941229765211
 10
0.0
 20
6.463000000000015
 30
0.0
 10
-0.6447061488260548
 20
6.463000000000015
 30
0.0
 10
-1.28941229765211
 20
6.463000000000015
 30
0.0
  0
SPLINE
  5
6C
330
1F
100
AcDbEntity
  8
Make2D visible lines
100
AcDbSpline
210
0.0
220
0.0
230
1.0
 70
    24
 71
     2
 72
     6
 73
     3
 74
     0
 42
0.0000000001
 43
0.0000000001
 40
0.0
 40
0.0
 40
0.0
 40
0.0400060931217547
 40
0.0400060931217547
 40
0.0400060931217547
 10
1.200000000000291
 20
6.50300000000002
 30
0.0
 10
1.200349101298833
 20
6.48300000000002
 30
0.0
 10
1.200698202597376
 20
6.463000000000021
 30
0.0
  0
SPLINE
  5
6D
330
1F
100
AcDbEntity
  8
Make2D visible lines
100
AcDbSpline
210
0.0
220
0.0
230
1.0
 70
    24
 71
     2
 72
     6
 73
     3
 74
     0
 42
0.0000000001
 43
0.0000000001
 40
0.0
 40
0.0
 40
0.0
 40
0.0400060931217547
 40
0.0400060931217547
 40
0.0400060931217547
 10
-1.200698202597376
 20
6.463000000000021
 30
0.0
 10
-1.200349101298833
 20
6.48300000000002
 30
0.0
 10
-1.200000000000291
 20
6.50300000000002
 30
0.0
  0
SPLINE
  5
6E
330
1F
100
AcDbEntity
  8
Make2D visible lines
100
AcDbSpline
210
0.0
220
0.0
230
1.0
 70
    24
 71
     2
 72
     6
 73
     3
 74
     0
 42
0.0000000001
 43
0.0000000001
 40
0.0
 40
0.0
 40
0.0
 40
0.2213623405233084
 40
0.2213623405233084
 40
0.2213623405233084
 10
14.63709732415427
 20
0.3858503918134666
 30
0.0
 10
14.64337214822717
 20
0.2753472333366913
 30
0.0
 10
14.64964697230008
 20
0.164844074859916
 30
0.0
  0
SPLINE
  5
6F
330
1F
100
AcDbEntity
  8
Make2D visible lines
100
AcDbSpline
210
0.0
220
0.0
230
1.0
 70
    12
 71
     2
 72
     6
 73
     3
 74
     0
 42
0.0000000001
 43
0.0000000001
 40
0.0
 40
0.0
 40
0.0
 40
0.0232077921390905
 40
0.0232077921390905
 40
0.0232077921390905
 10
0.3881182335887274
 20
0.3999999999470365
 30
0.0
 41
1.0
 10
0.4027354078090628
 20
0.3999392744149043
 30
0.0
 41
0.7176120634141828
 10
0.4031122621332059
 20
0.3853268327778507
 30
0.0
 41
1.0
  0
SPLINE
  5
70
330
1F
100
AcDbEntity
  8
Make2D visible lines
100
AcDbSpline
210
0.0
220
0.0
230
1.0
 70
    12
 71
     2
 72
     6
 73
     3
 74
     0
 42
0.0000000001
 43
0.0000000001
 40
0.0
 40
0.0
 40
0.0
 40
0.0232125536774005
 40
0.0232125536774005
 40
0.0232125536774005
 10
-0.4025245172889385
 20
0.3853269610145591
 30
0.0
 41
1.0
 10
-0.4021580049511924
 20
0.3999502926109969
 30
0.0
 41
0.7170957278319929
 10
-0.3875301654848897
 20
0.3999999999617776
 30
0.0
 41
1.0
  0
SPLINE
  5
71
330
1F
100
AcDbEntity
  8
Make2D visible lines
100
AcDbSpline
210
0.0
220
0.0
230
1.0
 70
    12
 71
     2
 72
     6
 73
     3
 74
     0
 42
0.0000000001
 43
0.0000000001
 40
0.0
 40
0.0
 40
0.0
 40
0.2259576718196235
 40
0.2259576718196235
 40
0.2259576718196235
 10
-0.4074700008006573
 20
0.1594216323489093
 30
0.0
 41
1.0
 10
-0.4049920062881867
 20
0.2723732898507527
 30
0.0
 41
0.9999999984910576
 10
-0.4025264218530964
 20
0.3853252189294936
 30
0.0
 41
1.0
  0
SPLINE
  5
72
330
1F
100
AcDbEntity
  8
Make2D visible lines
100
AcDbSpline
210
0.0
220
0.0
230
1.0
 70
    24
 71
     3
 72
     9
 73
     5
 74
     0
 42
0.0000000001
 43
0.0000000001
 40
0.0
 40
0.0
 40
0.0
 40
0.0
 40
0.0000682360840525
 40
0.251869451330915
 40
0.251869451330915
 40
0.251869451330915
 40
0.251869451330915
 10
-0.2514391254904211
 20
0.0000000000000036
 30
0.0
 10
-0.2515486054704894
 20
0.0000000000000036
 30
0.0
 10
-0.1676024609788982
 20
0.0000000000000036
 30
0.0
 10
-0.0836369639559535
 20
0.0000000000000036
 30
0.0
 10
0.0002938536723889
 20
0.0000000000000036
 30
0.0
  0
SPLINE
  5
73
330
1F
100
AcDbEntity
  8
Make2D visible lines
100
AcDbSpline
210
0.0
220
0.0
230
1.0
 70
    24
 71
     2
 72
     6
 73
     3
 74
     0
 42
0.0000000001
 43
0.0000000001
 40
0.0
 40
0.0
 40
0.0
 40
1.107594207465098
 40
1.107594207465098
 40
1.107594207465098
 10
13.38630366422798
 20
0.0000000000000036
 30
0.0
 10
13.94010076796053
 20
0.0000000000000036
 30
0.0
 10
14.49389787169308
 20
0.0000000000000036
 30
0.0
  0
SPLINE
  5
74
330
1F
100
AcDbEntity
  8
Make2D visible lines
100
AcDbSpline
210
0.0
220
0.0
230
1.0
 70
    12
 71
     2
 72
     8
 73
     5
 74
     0
 42
0.0000000001
 43
0.0000000001
 40
0.0
 40
0.0
 40
0.0
 40
0.0119642320224294
 40
0.0119642320224294
 40
0.0239284640448587
 40
0.0239284640448587
 40
0.0239284640448587
 10
13.23966492226808
 20
0.4000000000000163
 30
0.0
 41
1.0
 10
13.23334409420109
 20
0.4000000000000209
 30
0.0
 41
0.9215246294676533
 10
13.22892953126251
 20
0.3954762292814858
 30
0.0
 41
1.0
 10
13.22451496832394
 20
0.3909524585629509
 30
0.0
 41
0.9215246294676533
 10
13.22466939992134
 20
0.3846335173277264
 30
0.0
 41
1.0
  0
SPLINE
  5
75
330
1F
100
AcDbEntity
  8
Make2D visible lines
100
AcDbSpline
210
0.0
220
0.0
230
1.0
 70
    12
 71
     2
 72
     8
 73
     5
 74
     0
 42
0.0000000001
 43
0.0000000001
 40
0.0
 40
0.0
 40
0.0
 40
0.1269465231438366
 40
0.1269465231438366
 40
0.2538930462876731
 40
0.2538930462876731
 40
0.2538930462876731
 10
14.49389787169306
 20
0.0000000000000036
 30
0.0
 41
1.0
 10
14.56112243602844
 20
0.000000000000002
 30
0.0
 41
0.918360064844369
 10
14.6072902781367
 20
0.0488638148853193
 30
0.0
 41
1.0
 10
14.65345812024497
 20
0.0977276297706366
 30
0.0
 41
0.918360064844369
 10
14.64964697230008
 20
0.1648440748599159
 30
0.0
 41
1.0
  0
SPLINE
  5
76
330
1F
100
AcDbEntity
  8
Make2D visible lines
100
AcDbSpline
210
0.0
220
0.0
230
1.0
 70
    12
 71
     2
 72
     6
 73
     3
 74
     0
 42
0.0000000001
 43
0.0000000001
 40
0.0
 40
0.0
 40
0.0
 40
0.0224671519842366
 40
0.0224671519842366
 40
0.0224671519842366
 10
14.63708151444381
 20
0.3860938211857499
 30
0.0
 41
1.0
 10
14.63606474929968
 20
0.4000000000000348
 30
0.0
 41
0.7324347794791691
 10
14.62212144909589
 20
0.4000000000000183
 30
0.0
 41
1.0
  0
SPLINE
  5
77
330
1F
100
AcDbEntity
  8
Make2D visible lines
100
AcDbSpline
210
0.0
220
0.0
230
1.0
 70
    24
 71
     2
 72
     6
 73
     3
 74
     0
 42
0.0000000001
 43
0.0000000001
 40
0.0
 40
0.0
 40
0.0
 40
0.2325105046476637
 40
0.2325105046476637
 40
0.2325105046476637
 10
13.23035013799326
 20
0.1521924194416825
 30
0.0
 10
13.2275097689573
 20
0.2684129683847045
 30
0.0
 10
13.22466939992134
 20
0.3846335173277264
 30
0.0
  0
SPLINE
  5
78
330
1F
100
AcDbEntity
  8
Make2D visible lines
100
AcDbSpline
210
0.0
220
0.0
230
1.0
 70
    24
 71
     2
 72
     6
 73
     3
 74
     0
 42
0.0000000001
 43
0.0000000001
 40
0.0
 40
0.0
 40
0.0
 40
0.3863627208447955
 40
0.3863627208447955
 40
0.3863627208447955
 10
0.3866568815917333
 20
0.4000000000000166
 30
0.0
 10
0.1934755211693329
 20
0.4000000000000165
 30
0.0
 10
0.0002941607469324
 20
0.4000000000000163
 30
0.0
  0
SPLINE
  5
79
330
1F
100
AcDbEntity
  8
Make2D visible lines
100
AcDbSpline
210
0.0
220
0.0
230
1.0
 70
    24
 71
     2
 72
     6
 73
     3
 74
     0
 42
0.0000000001
 43
0.0000000001
 40
0.0
 40
0.0
 40
0.0
 40
0.3876534637036499
 40
0.3876534637036499
 40
0.3876534637036499
 10
0.0002938512811141
 20
0.4000000000000163
 30
0.0
 10
-0.1935328805707073
 20
0.4000000000000162
 30
0.0
 10
-0.3873596124225287
 20
0.4000000000000161
 30
0.0
  0
SPLINE
  5
7A
330
1F
100
AcDbEntity
  8
Make2D visible lines
100
AcDbSpline
210
0.0
220
0.0
230
1.0
 70
    12
 71
     2
 72
     8
 73
     5
 74
     0
 42
0.0000000001
 43
0.0000000001
 40
0.0
 40
0.0
 40
0.0
 40
0.1242318577480881
 40
0.1242318577480881
 40
0.2484637154961761
 40
0.2484637154961761
 40
0.2484637154961761
 10
0.4080554297148495
 20
0.1594215907425355
 30
0.0
 41
1.0
 10
0.4094950203687625
 20
0.0938162002370285
 30
0.0
 41
0.9217678869813357
 10
0.3636059281871127
 20
0.0469085153295885
 30
0.0
 41
1.0
 10
0.3177168360054866
 20
0.0000008304221485
 30
0.0
 41
0.9217678869813357
 10
0.2520956528102545
 20
0.0000000000011417
 30
0.0
 41
1.0
  0
SPLINE
  5
7B
330
1F
100
AcDbEntity
  8
Make2D visible lines
100
AcDbSpline
210
0.0
220
0.0
230
1.0
 70
    12
 71
     2
 72
     8
 73
     5
 74
     0
 42
0.0000000001
 43
0.0000000001
 40
0.0
 40
0.0
 40
0.0
 40
0.1240063772075993
 40
0.1240063772075993
 40
0.2480127544151987
 40
0.2480127544151987
 40
0.2480127544151987
 10
-0.2515078876662784
 20
0.000000000001096
 30
0.0
 41
1.0
 10
-0.3169978217205393
 20
-0.0000119099018914
 30
0.0
 41
0.9220189045496352
 10
-0.3628648464669766
 20
0.0467336529376692
 30
0.0
 41
1.0
 10
-0.4087318712134269
 20
0.0934792157772298
 30
0.0
 41
0.9220189045496352
 10
-0.4074775788860592
 20
0.1589571384308644
 30
0.0
 41
1.0
  0
SPLINE
  5
7C
330
1F
100
AcDbEntity
  8
Make2D visible lines
100
AcDbSpline
210
0.0
220
0.0
230
1.0
 70
    12
 71
     2
 72
     6
 73
     3
 74
     0
 42
0.0000000001
 43
0.0000000001
 40
0.0
 40
0.0
 40
0.0
 40
0.2253642768281202
 40
0.2253642768281202
 40
0.2253642768281202
 10
0.4031141277003201
 20
0.385325058594006
 30
0.0
 41
1.0
 10
0.4055732370012987
 20
0.2726697563467351
 30
0.0
 41
0.9999999984988344
 10
0.408044691851984
 20
0.1600147242624911
 30
0.0
 41
1.0
  0
SPLINE
  5
7D
330
1F
100
AcDbEntity
  8
Make2D visible lines
100
AcDbSpline
210
0.0
220
0.0
230
1.0
 70
    12
 71
     2
 72
     6
 73
     3
 74
     0
 42
0.0000000001
 43
0.0000000001
 40
0.0
 40
0.0
 40
0.0
 40
0.2412324278936833
 40
0.2412324278936833
 40
0.2412324278936833
 10
-13.22976252947416
 20
0.1521885802082181
 30
0.0
 41
1.0
 10
-13.23348193826009
 20
-0.0000000000000105
 30
0.0
 41
0.7156927337036098
 10
-13.38571596188001
 20
0.0000000000000034
 30
0.0
 41
1.0
  0
SPLINE
  5
7E
330
1F
100
AcDbEntity
  8
Make2D visible lines
100
AcDbSpline
210
0.0
220
0.0
230
1.0
 70
    24
 71
     2
 72
     6
 73
     3
 74
     0
 42
0.0000000001
 43
0.0000000001
 40
0.0
 40
0.0
 40
0.0
 40
1.379419120443295
 40
1.379419120443295
 40
1.379419120443295
 10
-14.62153374674793
 20
0.4000000000000163
 30
0.0
 10
-13.93182418652628
 20
0.4000000000000162
 30
0.0
 10
-13.24211462630463
 20
0.4000000000000161
 30
0.0
  0
SPLINE
  5
7F
330
1F
100
AcDbEntity
  8
Make2D visible lines - Tangent
100
AcDbSpline
210
0.0
220
0.0
230
1.0
 70
     8
 71
     3
 72
    54
 73
    50
 74
     0
 42
0.0000000001
 43
0.0000000001
 40
0.0
 40
0.0
 40
0.0
 40
0.0
 40
1.0
 40
2.0
 40
3.0
 40
4.0
 40
5.0
 40
6.0
 40
7.0
 40
8.0
 40
9.0
 40
10.0
 40
11.0
 40
12.0
 40
13.0
 40
14.0
 40
15.0
 40
16.0
 40
17.0
 40
18.0
 40
19.0
 40
20.0
 40
21.0
 40
22.0
 40
23.0
 40
24.0
 40
25.0
 40
26.0
 40
27.0
 40
28.0
 40
29.0
 40
30.0
 40
31.0
 40
32.0
 40
33.0
 40
34.0
 40
35.0
 40
36.0
 40
37.0
 40
38.0
 40
39.0
 40
40.0
 40
41.0
 40
42.0
 40
43.0
 40
44.0
 40
45.0
 40
46.0
 40
47.0
 40
47.0
 40
47.0
 40
47.0
 10
0.3858678902571455
 20
0.403329261439214
 30
0.0
 10
0.4111381696036887
 20
0.471691761030031
 30
0.0
 10
0.3931010539775741
 20
0.6333535261625483
 30
0.0
 10
0.3938721162261345
 20
0.8657327374605353
 30
0.0
 10
0.3872944791000208
 20
1.100824691898526
 30
0.0
 10
0.382500495281306
 20
1.335184942048012
 30
0.0
 10
0.3772141241470734
 20
1.569741898107297
 30
0.0
 10
0.3721035997716626
 20
1.804245165096962
 30
0.0
 10
0.367468581758672
 20
2.038780643129261
 30
0.0
 10
0.3621386993807221
 20
2.27327054669982
 30
0.0
 10
0.3614518649495153
 20
2.50795635439968
 30
0.0
 10
0.3766989381894206
 20
2.742035110000107
 30
0.0
 10
0.401868439816937
 20
2.975291767990851
 30
0.0
 10
0.4264955387601503
 20
3.208581524431251
 30
0.0
 10
0.4507280189665295
 20
3.44180444554645
 30
0.0
 10
0.4812874658335744
 20
3.674811437325082
 30
0.0
 10
0.4876105501600847
 20
3.908675454710889
 30
0.0
 10
0.4730574937128296
 20
4.14316108458999
 30
0.0
 10
0.4625165098498343
 20
4.377402299909646
 30
0.0
 10
0.452154018025368
 20
4.611784456659724
 30
0.0
 10
0.4400479186466697
 20
4.845964675118837
 30
0.0
 10
0.4282979100487978
 20
5.080512320442788
 30
0.0
 10
0.3899550574562198
 20
5.312100872344999
 30
0.0
 10
0.3066582997433045
 20
5.534912960303022
 30
0.0
 10
0.1264489220967278
 20
5.701053020982688
 30
0.0
 10
-0.1287608351388201
 20
5.700046595423096
 30
0.0
 10
-0.3074466101547557
 20
5.532266007601516
 30
0.0
 10
-0.3900818351159216
 20
5.309372210240867
 30
0.0
 10
-0.4279232333023089
 20
5.077673675160892
 30
0.0
 10
-0.4396275057768264
 20
4.843140061617282
 30
0.0
 10
-0.4516578009405663
 20
4.608952622806954
 30
0.0
 10
-0.4621030562798154
 20
4.374572197465292
 30
0.0
 10
-0.4725117164579586
 20
4.140337130437424
 30
0.0
 10
-0.4874609649699408
 20
3.905822607503123
 30
0.0
 10
-0.4796368665638084
 20
3.67206586450394
 30
0.0
 10
-0.4493051562702846
 20
3.439049497872843
 30
0.0
 10
-0.4256597318508
 20
3.205758678338231
 30
0.0
 10
-0.4016628321750062
 20
2.972405099167784
 30
0.0
 10
-0.3762812355491292
 20
2.739167888374083
 30
0.0
 10
-0.3606951745418314
 20
2.505129568181835
 30
0.0
 10
-0.3617190061082596
 20
2.270431807711549
 30
0.0
 10
-0.3668719205141144
 20
2.035943620623493
 30
0.0
 10
-0.3716137938800301
 20
1.801408320125761
 30
0.0
 10
-0.376786259021145
 20
1.566909832637999
 30
0.0
 10
-0.3821276383644658
 20
1.332342661516703
 30
0.0
 10
-0.3865535064490899
 20
1.098016778736779
 30
0.0
 10
-0.3935434205156128
 20
0.8627750502036662
 30
0.0
 10
-0.3918535016338183
 20
0.6309690073439601
 30
0.0
 10
-0.4121658245761637
 20
0.4678802044313225
 30
0.0
 10
-0.3827000039917152
 20
0.4021512543515627
 30
0.0
  0
SPLINE
  5
80
330
1F
100
AcDbEntity
  8
Make2D visible lines
100
AcDbSpline
210
0.0
220
0.0
230
1.0
 70
    12
 71
     2
 72
     6
 73
     3
 74
     0
 42
0.0000000001
 43
0.0000000001
 40
0.0
 40
0.0
 40
0.0
 40
0.2412324278936833
 40
0.2412324278936833
 40
0.2412324278936833
 10
13.23035023182211
 20
0.1521885802082181
 30
0.0
 41
1.0
 10
13.23406964060804
 20
-0.0000000000000105
 30
0.0
 41
0.7156927337036098
 10
13.38630366422797
 20
0.0000000000000034
 30
0.0
 41
1.0
  0
SPLINE
  5
81
330
1F
100
AcDbEntity
  8
Make2D visible lines
100
AcDbSpline
210
0.0
220
0.0
230
1.0
 70
    24
 71
     2
 72
     6
 73
     3
 74
     0
 42
0.0000000001
 43
0.0000000001
 40
0.0
 40
0.0
 40
0.0
 40
0.2325105046476637
 40
0.2325105046476637
 40
0.2325105046476637
 10
-13.2297624356453
 20
0.1521924194416825
 30
0.0
 10
-13.22692206660934
 20
0.2684129683847045
 30
0.0
 10
-13.22408169757338
 20
0.3846335173277264
 30
0.0
  0
SPLINE
  5
82
330
1F
100
AcDbEntity
  8
Make2D visible lines
100
AcDbSpline
210
0.0
220
0.0
230
1.0
 70
    24
 71
     2
 72
     6
 73
     3
 74
     0
 42
0.0000000001
 43
0.0000000001
 40
0.0
 40
0.0
 40
0.0
 40
0.2213623405233084
 40
0.2213623405233084
 40
0.2213623405233084
 10
-14.63650962180631
 20
0.3858503918134666
 30
0.0
 10
-14.64278444587922
 20
0.2753472333366913
 30
0.0
 10
-14.64905926995212
 20
0.164844074859916
 30
0.0
  0
SPLINE
  5
83
330
1F
100
AcDbEntity
  8
Make2D visible lines
100
AcDbSpline
210
0.0
220
0.0
230
1.0
 70
     8
 71
     3
 72
    13
 73
     9
 74
     0
 42
0.0000000001
 43
0.0000000001
 40
-1.83258135608072
 40
-1.83258135608072
 40
-1.83258135608072
 40
-1.83258135608072
 40
-0.750510233115731
 40
-0.5672189493277444
 40
-0.4828690280123605
 40
-0.2443108918713642
 40
-0.1163337939371243
 40
0.0
 40
0.0
 40
0.0
 40
0.0
 10
-13.22299087237529
 20
0.429267031622143
 30
0.0
 10
-13.21504054921931
 20
0.7898405850234216
 30
0.0
 10
-13.20221531540582
 20
1.211528658082631
 30
0.0
 10
-13.19414209441466
 20
1.661268225296924
 30
0.0
 10
-13.18308647556309
 20
1.830020096093349
 30
0.0
 10
-13.10070269464873
 20
1.966768126584214
 30
0.0
 10
-12.96832106639856
 20
2.057218183732865
 30
0.0
 10
-12.88738507239917
 20
2.080693221901958
 30
0.0
 10
-12.84970614882607
 20
2.086000769603414
 30
0.0
  0
SPLINE
  5
84
330
1F
100
AcDbEntity
  8
Make2D visible lines
100
AcDbSpline
210
0.0
220
0.0
230
1.0
 70
    24
 71
     2
 72
     6
 73
     3
 74
     0
 42
0.0000000001
 43
0.0000000001
 40
-10.36850216633574
 40
-10.36850216633574
 40
-10.36850216633574
 40
0.0
 40
0.0
 40
0.0
 10
-12.84970614882607
 20
2.086000769603414
 30
0.0
 10
-7.714706148826075
 20
2.798906298637399
 30
0.0
 10
-2.579706148826077
 20
3.511811827671384
 30
0.0
  0
SPLINE
  5
85
330
1F
100
AcDbEntity
  8
Make2D visible lines
100
AcDbSpline
210
0.0
220
0.0
230
1.0
 70
    12
 71
     3
 72
     8
 73
     4
 74
     0
 42
0.0000000001
 43
0.0000000001
 40
0.0
 40
0.0
 40
0.0
 40
0.0
 40
0.9983344876344831
 40
0.9983344876344831
 40
0.9983344876344831
 40
0.9983344876344831
 10
-2.579706148826077
 20
3.511811827671384
 30
0.0
 41
1.0
 10
-2.12885485825511
 20
3.574404695741988
 30
0.0
 41
1.0
 10
-1.676472082478867
 20
3.64333701932616
 30
0.0
 41
1.0
 10
-1.221809343709253
 20
3.65726383948913
 30
0.0
 41
1.0
  0
SPLINE
  5
86
330
1F
100
AcDbEntity
  8
Make2D visible lines
100
AcDbSpline
210
0.0
220
0.0
230
1.0
 70
     8
 71
     3
 72
     8
 73
     4
 74
     0
 42
0.0000000001
 43
0.0000000001
 40
0.0
 40
0.0
 40
0.0
 40
0.0
 40
0.3051876163662417
 40
0.3051876163662417
 40
0.3051876163662417
 40
0.3051876163662417
 10
-1.221809343709253
 20
3.65726383948913
 30
0.0
 10
-0.9732787360756561
 20
3.664876605573444
 30
0.0
 10
-0.7246414046075387
 20
3.670166049722532
 30
0.0
 10
-0.4759624908902254
 20
3.673132171936395
 30
0.0
  0
SPLINE
  5
87
330
1F
100
AcDbEntity
  8
Make2D visible lines
100
AcDbSpline
210
0.0
220
0.0
230
1.0
 70
    24
 71
     2
 72
     6
 73
     3
 74
     0
 42
0.0000000001
 43
0.0000000001
 40
0.0
 40
0.0
 40
0.0
 40
0.2517559204860955
 40
0.2517559204860955
 40
0.2517559204860955
 10
0.0002938536723889
 20
0.0000000000000036
 30
0.0
 10
0.1261718139154411
 20
0.0000000000000036
 30
0.0
 10
0.2520497741584933
 20
0.0000000000000036
 30
0.0
  0
SPLINE
  5
88
330
1F
100
AcDbEntity
  8
Make2D visible lines
100
AcDbSpline
210
0.0
220
0.0
230
1.0
 70
    12
 71
     2
 72
     6
 73
     3
 74
     0
 42
0.0000000001
 43
0.0000000001
 40
0.0
 40
0.0
 40
0.0
 40
0.0224671519842366
 40
0.0224671519842366
 40
0.0224671519842366
 10
-14.63649381209585
 20
0.3860938211857499
 30
0.0
 41
1.0
 10
-14.63547704695172
 20
0.4000000000000348
 30
0.0
 41
0.7324347794791691
 10
-14.62153374674793
 20
0.4000000000000183
 30
0.0
 41
1.0
  0
SPLINE
  5
89
330
1F
100
AcDbEntity
  8
Make2D visible lines
100
AcDbSpline
210
0.0
220
0.0
230
1.0
 70
    12
 71
     2
 72
     6
 73
     3
 74
     0
 42
0.0000000001
 43
0.0000000001
 40
-0.0352706514985427
 40
-0.0352706514985427
 40
-0.0352706514985427
 40
0.0
 40
0.0
 40
0.0
 10
-13.24211462630467
 20
0.4020374895150737
 30
0.0
 41
1.0
 10
-13.22347935027843
 20
0.4092798636229074
 30
0.0
 41
0.8321381552760684
 10
-13.22299087237529
 20
0.429267031622143
 30
0.0
 41
1.0
  0
SPLINE
  5
8A
330
1F
100
AcDbEntity
  8
Make2D visible lines
100
AcDbSpline
210
0.0
220
0.0
230
1.0
 70
    24
 71
     2
 72
     6
 73
     3
 74
     0
 42
0.0000000001
 43
0.0000000001
 40
0.0
 40
0.0
 40
0.0
 40
1.379419120443295
 40
1.379419120443295
 40
1.379419120443295
 10
14.62212144909589
 20
0.4000000000000163
 30
0.0
 10
13.93241188887423
 20
0.4000000000000162
 30
0.0
 10
13.24270232865258
 20
0.4000000000000161
 30
0.0
  0
SPLINE
  5
8B
330
1F
100
AcDbEntity
  8
Make2D visible lines
100
AcDbSpline
210
0.0
220
0.0
230
1.0
 70
    12
 71
     2
 72
     6
 73
     3
 74
     0
 42
0.0000000001
 43
0.0000000001
 40
-0.0352706514985427
 40
-0.0352706514985427
 40
-0.0352706514985427
 40
0.0
 40
0.0
 40
0.0
 10
13.24270232865263
 20
0.4020374895150737
 30
0.0
 41
1.0
 10
13.22406705262639
 20
0.4092798636229074
 30
0.0
 41
0.8321381552760684
 10
13.22357857472325
 20
0.429267031622143
 30
0.0
 41
1.0
  0
SPLINE
  5
8C
330
1F
100
AcDbEntity
  8
Make2D visible lines
100
AcDbSpline
210
0.0
220
0.0
230
1.0
 70
    12
 71
     2
 72
     8
 73
     5
 74
     0
 42
0.0000000001
 43
0.0000000001
 40
0.0
 40
0.0
 40
0.0
 40
0.0119642320224294
 40
0.0119642320224294
 40
0.0239284640448587
 40
0.0239284640448587
 40
0.0239284640448587
 10
-13.23907721992012
 20
0.4000000000000163
 30
0.0
 41
1.0
 10
-13.23275639185313
 20
0.4000000000000209
 30
0.0
 41
0.9215246294676533
 10
-13.22834182891455
 20
0.3954762292814858
 30
0.0
 41
1.0
 10
-13.22392726597599
 20
0.3909524585629509
 30
0.0
 41
0.9215246294676533
 10
-13.22408169757338
 20
0.3846335173277264
 30
0.0
 41
1.0
  0
SPLINE
  5
8D
330
1F
100
AcDbEntity
  8
Make2D visible lines
100
AcDbSpline
210
0.0
220
0.0
230
1.0
 70
    12
 71
     2
 72
     6
 73
     3
 74
     0
 42
0.0000000001
 43
0.0000000001
 40
-0.0371380794388858
 40
-0.0371380794388858
 40
-0.0371380794388858
 40
0.0
 40
0.0
 40
0.0
 10
14.61593743107272
 20
0.4022441987256987
 30
0.0
 41
1.0
 10
14.63570933618983
 20
0.4103542426935238
 30
0.0
 41
0.8144776561050845
 10
14.63450486416701
 20
0.4316908378358253
 30
0.0
 41
1.0
  0
SPLINE
  5
8E
330
1F
100
AcDbEntity
  8
Make2D visible lines
100
AcDbSpline
210
0.0
220
0.0
230
1.0
 70
     8
 71
     3
 72
    12
 73
     8
 74
     0
 42
0.0000000001
 43
0.0000000001
 40
0.0
 40
0.0
 40
0.0
 40
0.0
 40
2.024931116884056
 40
2.121300252943487
 40
2.208073208949396
 40
2.641991453438839
 40
3.085460819895622
 40
3.085460819895622
 40
3.085460819895622
 40
3.085460819895622
 10
14.63450486416701
 20
0.4316908378358253
 30
0.0
 10
14.5958009921666
 20
1.105574847750693
 30
0.0
 10
14.55749833250249
 20
1.811593362411049
 30
0.0
 10
14.51467636570618
 20
2.546414843142783
 30
0.0
 10
14.46984214687032
 20
2.747953191239763
 30
0.0
 10
14.30128347127535
 20
3.034556781920432
 30
0.0
 10
14.03061812476079
 20
3.175838551528641
 30
0.0
 10
13.88629385117393
 20
3.205665827232744
 30
0.0
  0
SPLINE
  5
8F
330
1F
100
AcDbEntity
  8
Make2D visible lines
100
AcDbSpline
210
0.0
220
0.0
230
1.0
 70
    24
 71
     2
 72
     6
 73
     3
 74
     0
 42
0.0000000001
 43
0.0000000001
 40
-12.2902709571203
 40
-12.2902709571203
 40
-12.2902709571203
 40
0.0
 40
0.0
 40
0.0
 10
13.88629385117393
 20
3.205665827232744
 30
0.0
 10
7.868293851173924
 20
4.449195501128249
 30
0.0
 10
1.850293851173916
 20
5.692725175023753
 30
0.0
  0
SPLINE
  5
90
330
1F
100
AcDbEntity
  8
Make2D visible lines
100
AcDbSpline
210
0.0
220
0.0
230
1.0
 70
    12
 71
     3
 72
    11
 73
     7
 74
     0
 42
0.0000000001
 43
0.0000000001
 40
0.0
 40
0.0
 40
0.0
 40
0.0
 40
0.2500000000000077
 40
0.500000000000056
 40
0.7500000000001044
 40
0.9903549301730069
 40
0.9903549301730069
 40
0.9903549301730069
 40
0.9903549301730069
 10
1.850293851173916
 20
5.692725175023753
 30
0.0
 41
1.0
 10
1.777826110201786
 20
5.707699549616471
 30
0.0
 41
1.0
 10
1.636178649524055
 20
5.771964450750453
 30
0.0
 41
1.0
 10
1.455330597599158
 20
5.941965920377697
 30
0.0
 41
1.0
 10
1.329503982597103
 20
6.15347175039408
 30
0.0
 41
1.0
 10
1.294346165788923
 20
6.303120864095799
 30
0.0
 41
1.0
 10
1.291800963493813
 20
6.378712134379271
 30
0.0
 41
1.0
  0
SPLINE
  5
91
330
1F
100
AcDbEntity
  8
Make2D visible lines
100
AcDbSpline
210
0.0
220
0.0
230
1.0
 70
    24
 71
     2
 72
     6
 73
     3
 74
     0
 42
0.0000000001
 43
0.0000000001
 40
0.0
 40
0.0
 40
0.0
 40
0.080013140622857
 40
0.080013140622857
 40
0.080013140622857
 10
1.291800963493813
 20
6.378712134379271
 30
0.0
 10
1.29104740733392
 20
6.420856067189643
 30
0.0
 10
1.290293851174027
 20
6.463000000000015
 30
0.0
  0
SPLINE
  5
92
330
1F
100
AcDbEntity
  8
Make2D visible lines
100
AcDbSpline
210
0.0
220
0.0
230
1.0
 70
    24
 71
     2
 72
     6
 73
     3
 74
     0
 42
0.0000000001
 43
0.0000000001
 40
0.0
 40
0.0
 40
0.0
 40
1.290000000000045
 40
1.290000000000045
 40
1.290000000000045
 10
1.290293851174027
 20
6.463000000000015
 30
0.0
 10
0.645293851174003
 20
6.463000000000015
 30
0.0
 10
0.0002938511739785
 20
6.463000000000015
 30
0.0
  0
SPLINE
  5
93
330
1F
100
AcDbEntity
  8
Make2D visible lines
100
AcDbSpline
210
0.0
220
0.0
230
1.0
 70
    24
 71
     2
 72
     6
 73
     3
 74
     0
 42
0.0000000001
 43
0.0000000001
 40
0.0
 40
0.0
 40
0.0
 40
1.289412297652113
 40
1.289412297652113
 40
1.289412297652113
 10
0.0002938511739785
 20
6.463000000000015
 30
0.0
 10
-0.6445592232390638
 20
6.463000000000015
 30
0.0
 10
-1.289412297652106
 20
6.463000000000015
 30
0.0
  0
SPLINE
  5
94
330
1F
100
AcDbEntity
  8
Make2D visible lines
100
AcDbSpline
210
0.0
220
0.0
230
1.0
 70
    24
 71
     2
 72
     6
 73
     3
 74
     0
 42
0.0000000001
 43
0.0000000001
 40
-0.080013140622857
 40
-0.080013140622857
 40
-0.080013140622857
 40
0.0
 40
0.0
 40
0.0
 10
-1.289412297652106
 20
6.463000000000015
 30
0.0
 10
-1.290312779398981
 20
6.420856067189643
 30
0.0
 10
-1.291213261145856
 20
6.378712134379271
 30
0.0
  0
SPLINE
  5
95
330
1F
100
AcDbEntity
  8
Make2D visible lines
100
AcDbSpline
210
0.0
220
0.0
230
1.0
 70
    12
 71
     3
 72
    11
 73
     7
 74
     0
 42
0.0000000001
 43
0.0000000001
 40
-0.9903549301730069
 40
-0.9903549301730069
 40
-0.9903549301730069
 40
-0.9903549301730069
 40
-0.7500000000001044
 40
-0.500000000000056
 40
-0.2500000000000077
 40
0.0
 40
0.0
 40
0.0
 40
0.0
 10
-1.291213261145856
 20
6.378712134379271
 30
0.0
 41
1.0
 10
-1.293758463440966
 20
6.303120864095799
 30
0.0
 41
1.0
 10
-1.328916280249146
 20
6.15347175039408
 30
0.0
 41
1.0
 10
-1.454742895251201
 20
5.941965920377697
 30
0.0
 41
1.0
 10
-1.635590947176098
 20
5.771964450750453
 30
0.0
 41
1.0
 10
-1.777238407853829
 20
5.707699549616471
 30
0.0
 41
1.0
 10
-1.849706148825959
 20
5.692725175023753
 30
0.0
 41
1.0
  0
SPLINE
  5
96
330
1F
100
AcDbEntity
  8
Make2D visible lines
100
AcDbSpline
210
0.0
220
0.0
230
1.0
 70
    24
 71
     2
 72
     6
 73
     3
 74
     0
 42
0.0000000001
 43
0.0000000001
 40
0.0
 40
0.0
 40
0.0
 40
12.2902709571203
 40
12.2902709571203
 40
12.2902709571203
 10
-1.849706148825959
 20
5.692725175023753
 30
0.0
 10
-7.867706148825967
 20
4.449195501128249
 30
0.0
 10
-13.88570614882597
 20
3.205665827232744
 30
0.0
  0
SPLINE
  5
97
330
1F
100
AcDbEntity
  8
Make2D visible lines
100
AcDbSpline
210
0.0
220
0.0
230
1.0
 70
     8
 71
     3
 72
    12
 73
     8
 74
     0
 42
0.0000000001
 43
0.0000000001
 40
-3.085460819895622
 40
-3.085460819895622
 40
-3.085460819895622
 40
-3.085460819895622
 40
-2.641991453438839
 40
-2.208073208949396
 40
-2.121300252943487
 40
-2.024931116884056
 40
0.0
 40
0.0
 40
0.0
 40
0.0
 10
-13.88570614882597
 20
3.205665827232744
 30
0.0
 10
-14.03003042241284
 20
3.175838551528641
 30
0.0
 10
-14.3006957689274
 20
3.034556781920432
 30
0.0
 10
-14.46925444452236
 20
2.747953191239763
 30
0.0
 10
-14.51408866335822
 20
2.546414843142783
 30
0.0
 10
-14.55691063015453
 20
1.811593362411049
 30
0.0
 10
-14.59521328981864
 20
1.105574847750693
 30
0.0
 10
-14.63391716181906
 20
0.4316908378358253
 30
0.0
  0
SPLINE
  5
98
330
1F
100
AcDbEntity
  8
Make2D visible lines
100
AcDbSpline
210
0.0
220
0.0
230
1.0
 70
    12
 71
     2
 72
     6
 73
     3
 74
     0
 42
0.0000000001
 43
0.0000000001
 40
0.0
 40
0.0
 40
0.0
 40
0.0371380794388858
 40
0.0371380794388858
 40
0.0371380794388858
 10
-14.63391716181906
 20
0.4316908378358253
 30
0.0
 41
1.0
 10
-14.63512163384188
 20
0.4103542426935238
 30
0.0
 41
0.8144776561050845
 10
-14.61534972872477
 20
0.4022441987256987
 30
0.0
 41
1.0
  0
SPLINE
  5
99
330
1F
100
AcDbEntity
  8
Make2D visible lines
100
AcDbSpline
210
0.0
220
0.0
230
1.0
 70
     8
 71
     3
 72
     8
 73
     4
 74
     0
 42
0.0000000001
 43
0.0000000001
 40
0.6950384688492743
 40
0.6950384688492743
 40
0.6950384688492743
 40
0.6950384688492743
 40
1.0
 40
1.0
 40
1.0
 40
1.0
 10
0.477102862637139
 20
3.673125576136301
 30
0.0
 10
0.7255974915996859
 20
3.670158211529776
 30
0.0
 10
0.9740505517131908
 20
3.664870965980719
 30
0.0
 10
1.22239704605721
 20
3.65726383948913
 30
0.0
  0
SPLINE
  5
9A
330
1F
100
AcDbEntity
  8
Make2D visible lines
100
AcDbSpline
210
0.0
220
0.0
230
1.0
 70
    12
 71
     3
 72
     8
 73
     4
 74
     0
 42
0.0000000001
 43
0.0000000001
 40
-0.9983344876344831
 40
-0.9983344876344831
 40
-0.9983344876344831
 40
-0.9983344876344831
 40
0.0
 40
0.0
 40
0.0
 40
0.0
 10
1.22239704605721
 20
3.65726383948913
 30
0.0
 41
1.0
 10
1.677059784826824
 20
3.64333701932616
 30
0.0
 41
1.0
 10
2.129442560603067
 20
3.574404695741988
 30
0.0
 41
1.0
 10
2.580293851174034
 20
3.511811827671384
 30
0.0
 41
1.0
  0
SPLINE
  5
9B
330
1F
100
AcDbEntity
  8
Make2D visible lines
100
AcDbSpline
210
0.0
220
0.0
230
1.0
 70
    24
 71
     2
 72
     6
 73
     3
 74
     0
 42
0.0000000001
 43
0.0000000001
 40
0.0
 40
0.0
 40
0.0
 40
10.36850216633574
 40
10.36850216633574
 40
10.36850216633574
 10
2.580293851174034
 20
3.511811827671384
 30
0.0
 10
7.715293851174032
 20
2.798906298637399
 30
0.0
 10
12.85029385117403
 20
2.086000769603414
 30
0.0
  0
SPLINE
  5
9C
330
1F
100
AcDbEntity
  8
Make2D visible lines
100
AcDbSpline
210
0.0
220
0.0
230
1.0
 70
     8
 71
     3
 72
    13
 73
     9
 74
     0
 42
0.0000000001
 43
0.0000000001
 40
0.0
 40
0.0
 40
0.0
 40
0.0
 40
0.1163337939371243
 40
0.2443108918713642
 40
0.4828690280123605
 40
0.5672189493277444
 40
0.750510233115731
 40
1.83258135608072
 40
1.83258135608072
 40
1.83258135608072
 40
1.83258135608072
 10
12.85029385117403
 20
2.086000769603414
 30
0.0
 10
12.88797277474713
 20
2.080693221901958
 30
0.0
 10
12.96890876874652
 20
2.057218183732865
 30
0.0
 10
13.10129039699669
 20
1.966768126584214
 30
0.0
 10
13.18367417791104
 20
1.830020096093349
 30
0.0
 10
13.19472979676262
 20
1.661268225296924
 30
0.0
 10
13.20280301775378
 20
1.211528658082631
 30
0.0
 10
13.21562825156727
 20
0.7898405850234216
 30
0.0
 10
13.22357857472325
 20
0.429267031622143
 30
0.0
  0
SPLINE
  5
9D
330
1F
100
AcDbEntity
  8
Make2D visible lines
100
AcDbSpline
210
0.0
220
0.0
230
1.0
 70
    12
 71
     2
 72
     8
 73
     5
 74
     0
 42
0.0000000001
 43
0.0000000001
 40
0.0
 40
0.0
 40
0.0
 40
0.1269465231438366
 40
0.1269465231438366
 40
0.2538930462876731
 40
0.2538930462876731
 40
0.2538930462876731
 10
-14.49331016934511
 20
0.0000000000000036
 30
0.0
 41
1.0
 10
-14.56053473368049
 20
0.000000000000002
 30
0.0
 41
0.918360064844369
 10
-14.60670257578874
 20
0.0488638148853193
 30
0.0
 41
1.0
 10
-14.65287041789701
 20
0.0977276297706366
 30
0.0
 41
0.918360064844369
 10
-14.64905926995212
 20
0.1648440748599159
 30
0.0
 41
1.0
  0
SPLINE
  5
9E
330
1F
100
AcDbEntity
  8
Make2D visible lines
100
AcDbSpline
210
0.0
220
0.0
230
1.0
 70
    24
 71
     2
 72
     6
 73
     3
 74
     0
 42
0.0000000001
 43
0.0000000001
 40
0.0
 40
0.0
 40
0.0
 40
1.107594207465098
 40
1.107594207465098
 40
1.107594207465098
 10
-13.38571596188002
 20
0.0000000000000036
 30
0.0
 10
-13.93951306561257
 20
0.0000000000000036
 30
0.0
 10
-14.49331016934512
 20
0.0000000000000036
 30
0.0
  0
SPLINE
  5
9F
330
1F
100
AcDbEntity
  8
Make2D visible lines - Tangent
100
AcDbSpline
210
0.0
220
0.0
230
1.0
 70
    12
 71
     2
 72
     6
 73
     3
 74
     0
 42
0.0000000001
 43
0.0000000001
 40
0.0
 40
0.0
 40
0.0
 40
2.795567528105218
 40
2.795567528105218
 40
2.795567528105218
 10
-12.73570316744236
 20
24.61690727857422
 30
0.0
 41
1.0
 10
-12.89190918753301
 20
23.22787915208648
 30
0.0
 41
0.9999999977588828
 10
-13.04802881968322
 20
21.83783997159271
 30
0.0
 41
1.0
  0
SPLINE
  5
A0
330
1F
100
AcDbEntity
  8
Make2D visible lines - Tangent
100
AcDbSpline
210
0.0
220
0.0
230
1.0
 70
    12
 71
     2
 72
     6
 73
     3
 74
     0
 42
0.0000000001
 43
0.0000000001
 40
0.0
 40
0.0
 40
0.0
 40
0.4901317099757928
 40
0.4901317099757928
 40
0.4901317099757928
 10
-13.04802881968322
 20
21.83783997159271
 30
0.0
 41
1.0
 10
-13.07551407044853
 20
21.59298571166266
 30
0.0
 41
0.9979772155037618
 10
-13.07173439123135
 20
21.34758358205883
 30
0.0
 41
1.0
  0
SPLINE
  5
A1
330
1F
100
AcDbEntity
  8
Make2D visible lines - Tangent
100
AcDbSpline
210
0.0
220
0.0
230
1.0
 70
    12
 71
     2
 72
     6
 73
     3
 74
     0
 42
0.0000000001
 43
0.0000000001
 40
0.0
 40
0.0
 40
0.0
 40
5.531210327985943
 40
5.531210327985943
 40
5.531210327985943
 10
-13.07173439123135
 20
21.34758358205883
 30
0.0
 41
1.0
 10
-13.02886063993301
 20
18.58227650301229
 30
0.0
 41
0.9999999999928466
 10
-12.98596483109572
 20
15.81689637912803
 30
0.0
 41
1.0
  0
SPLINE
  5
A2
330
1F
100
AcDbEntity
  8
Make2D visible lines - Tangent
100
AcDbSpline
210
0.0
220
0.0
230
1.0
 70
     8
 71
     3
 72
    15
 73
    11
 74
     0
 42
0.0000000001
 43
0.0000000001
 40
0.0
 40
0.0
 40
0.0
 40
0.0
 40
0.9392105016698279
 40
1.640578104294083
 40
2.192188772880628
 40
2.6617160915045
 40
3.139809665213049
 40
3.711960950485636
 40
4.450250207282398
 40
5.44410882064065
 40
5.44410882064065
 40
5.44410882064065
 40
5.44410882064065
 10
-12.98596483109572
 20
15.81689637912803
 30
0.0
 10
-12.98104631244688
 20
15.50375196999669
 30
0.0
 10
-12.96190830339481
 20
14.9569794731762
 30
0.0
 10
-12.87307005866579
 20
14.230558310918
 30
0.0
 10
-12.71549777998639
 20
13.67561782591277
 30
0.0
 10
-12.45987596735332
 20
13.23972829130878
 30
0.0
 10
-12.07908386654821
 20
12.89766136040955
 30
0.0
 10
-11.55079062984296
 20
12.61599796301261
 30
0.0
 10
-10.82729824780753
 20
12.35529647168285
 30
0.0
 10
-10.26994871798977
 20
12.20348983873842
 30
0.0
 10
-9.946877867090485
 20
12.12145117229355
 30
0.0
  0
LINE
  5
A3
330
1F
100
AcDbEntity
  8
Make2D visible lines - Tangent
100
AcDbLine
 10
-9.946877867090485
 20
12.12145117229355
 30
0.0
 11
-1.745236538572806
 21
10.04283246997794
 31
0.0
  0
LINE
  5
A4
330
1F
100
AcDbEntity
  8
Make2D visible lines - Tangent
100
AcDbLine
 10
-1.745236538572806
 20
10.04283246997794
 30
0.0
 11
-1.694826354793399
 21
10.04284794130329
 31
0.0
  0
ARC
  5
A5
330
1F
100
AcDbEntity
  8
Make2D visible lines - Tangent
100
AcDbCircle
 10
-1.694950915874548
 20
10.44870502497804
 30
0.0
 40
0.4058571027891892
100
AcDbArc
 50
270.0175845742366
 51
353.4116189412363
  0
LINE
  5
A6
330
1F
100
AcDbEntity
  8
Make2D visible lines - Tangent
100
AcDbLine
 10
-1.291774071825174
 20
10.40213872485852
 30
0.0
 11
-1.291774071825174
 21
10.54240017006401
 31
0.0
  0
SPLINE
  5
A7
330
1F
100
AcDbEntity
  8
Make2D visible lines - Tangent
100
AcDbSpline
210
0.0
220
0.0
230
1.0
 70
    12
 71
     2
 72
     6
 73
     3
 74
     0
 42
0.0000000001
 43
0.0000000001
 40
0.0
 40
0.0
 40
0.0
 40
0.6322767633307975
 40
0.6322767633307975
 40
0.6322767633307975
 10
-1.291774071825174
 20
10.54240017006401
 30
0.0
 41
1.0
 10
-1.291794794231848
 20
10.88193742103065
 30
0.0
 41
0.8997633435225391
 10
-1.558470863117705
 20
11.09217132925478
 30
0.0
 41
1.0
  0
SPLINE
  5
A8
330
1F
100
AcDbEntity
  8
Make2D visible lines - Tangent
100
AcDbSpline
210
0.0
220
0.0
230
1.0
 70
    24
 71
     2
 72
     6
 73
     3
 74
     0
 42
0.0000000001
 43
0.0000000001
 40
0.0
 40
0.0
 40
0.0
 40
0.8793882784309035
 40
0.8793882784309035
 40
0.8793882784309035
 10
-1.558470863117705
 20
11.09217132925478
 30
0.0
 10
-1.904101880766135
 20
11.36454705470088
 30
0.0
 10
-2.249732898414564
 20
11.63692278014698
 30
0.0
  0
SPLINE
  5
A9
330
1F
100
AcDbEntity
  8
Make2D visible lines - Tangent
100
AcDbSpline
210
0.0
220
0.0
230
1.0
 70
    12
 71
     2
 72
     6
 73
     3
 74
     0
 42
0.0000000001
 43
0.0000000001
 40
0.0
 40
0.0
 40
0.0
 40
0.0357539122175352
 40
0.0357539122175352
 40
0.0357539122175352
 10
-2.249732898414564
 20
11.63692278014698
 30
0.0
 41
1.0
 10
-2.265157828144257
 20
11.64927205253938
 30
0.0
 41
0.908183800338042
 10
-2.265767981955605
 20
11.66882344220887
 30
0.0
 41
1.0
  0
SPLINE
  5
AA
330
1F
100
AcDbEntity
  8
Make2D visible lines - Tangent
100
AcDbSpline
210
0.0
220
0.0
230
1.0
 70
    24
 71
     2
 72
     6
 73
     3
 74
     0
 42
0.0000000001
 43
0.0000000001
 40
0.0
 40
0.0
 40
0.0
 40
0.0000050316303729
 40
0.0000050316303729
 40
0.0000050316303729
 10
-2.265767981955605
 20
11.66882344220887
 30
0.0
 10
-2.26576887742565
 20
11.66926948317832
 30
0.0
 10
-2.265769772895695
 20
11.66971552414777
 30
0.0
  0
SPLINE
  5
AB
330
1F
100
AcDbEntity
  8
Make2D visible lines - Tangent
100
AcDbSpline
210
0.0
220
0.0
230
1.0
 70
    12
 71
     2
 72
     6
 73
     3
 74
     0
 42
0.0000000001
 43
0.0000000001
 40
0.0
 40
0.0
 40
0.0
 40
0.0630678473128126
 40
0.0630678473128126
 40
0.0630678473128126
 10
-2.265769772895695
 20
11.66971552414777
 30
0.0
 41
1.0
 10
-2.26487773937313
 20
11.70990687465003
 30
0.0
 41
0.7157673835718095
 10
-2.225080767390878
 20
11.70999999999818
 30
0.0
 41
1.0
  0
POLYLINE
  5
AC
330
1F
100
AcDbEntity
  8
Make2D visible lines - Tangent
100
AcDb2dPolyline
 66
     1
 10
0.0
 20
0.0
 30
0.0
  0
VERTEX
  5
AD
330
AC
100
AcDbEntity
  8
Make2D visible lines - Tangent
100
AcDbVertex
100
AcDb2dVertex
 10
-2.225080767390878
 20
11.70999999999818
 30
0.0
  0
VERTEX
  5
AE
330
AC
100
AcDbEntity
  8
Make2D visible lines - Tangent
100
AcDbVertex
100
AcDb2dVertex
 10
2.221532623740515
 20
11.70999999999818
 30
0.0
  0
SEQEND
  5
AF
330
AC
100
AcDbEntity
  8
Make2D visible lines - Tangent
  0
SPLINE
  5
B0
330
1F
100
AcDbEntity
  8
Make2D visible lines - Tangent
100
AcDbSpline
210
0.0
220
0.0
230
1.0
 70
    12
 71
     2
 72
     6
 73
     3
 74
     0
 42
0.0000000001
 43
0.0000000001
 40
0.0
 40
0.0
 40
0.0
 40
0.0629935595096315
 40
0.0629935595096315
 40
0.0629935595096315
 10
2.221532623740515
 20
11.70999999999818
 30
0.0
 41
1.0
 10
2.261239916995443
 20
11.70987632662799
 30
0.0
 41
0.716830315414967
 10
2.262214795057488
 20
11.66926069974635
 30
0.0
 41
1.0
  0
SPLINE
  5
B1
330
1F
100
AcDbEntity
  8
Make2D visible lines - Tangent
100
AcDbSpline
210
0.0
220
0.0
230
1.0
 70
    12
 71
     2
 72
     6
 73
     3
 74
     0
 42
0.0000000001
 43
0.0000000001
 40
0.0
 40
0.0
 40
0.0
 40
0.0357539122175587
 40
0.0357539122175587
 40
0.0357539122175587
 10
2.262214795057488
 20
11.66926069974635
 30
0.0
 41
1.0
 10
2.261609684493976
 20
11.64927205253934
 30
0.0
 41
0.9081838003365155
 10
2.246184754764201
 20
11.63692278014698
 30
0.0
 41
1.0
  0
SPLINE
  5
B2
330
1F
100
AcDbEntity
  8
Make2D visible lines - Tangent
100
AcDbSpline
210
0.0
220
0.0
230
1.0
 70
    24
 71
     2
 72
     6
 73
     3
 74
     0
 42
0.0000000001
 43
0.0000000001
 40
0.0
 40
0.0
 40
0.0
 40
0.8793882784309069
 40
0.8793882784309069
 40
0.8793882784309069
 10
2.246184754764201
 20
11.63692278014698
 30
0.0
 10
1.900553737090647
 20
11.36454705469759
 30
0.0
 10
1.554922719417092
 20
11.0921713292482
 30
0.0
  0
SPLINE
  5
B3
330
1F
100
AcDbEntity
  8
Make2D visible lines - Tangent
100
AcDbSpline
210
0.0
220
0.0
230
1.0
 70
    12
 71
     2
 72
     6
 73
     3
 74
     0
 42
0.0000000001
 43
0.0000000001
 40
0.0
 40
0.0
 40
0.0
 40
0.6322790145841365
 40
0.6322790145841365
 40
0.6322790145841365
 10
1.554922719417092
 20
11.0921713292482
 30
0.0
 41
1.0
 10
1.288238728941262
 20
10.88194126350768
 30
0.0
 41
0.8997531621452598
 10
1.288225928174811
 20
10.54240017006401
 30
0.0
 41
1.0
  0
SPLINE
  5
B4
330
1F
100
AcDbEntity
  8
Make2D visible lines - Tangent
100
AcDbSpline
210
0.0
220
0.0
230
1.0
 70
    24
 71
     2
 72
     6
 73
     3
 74
     0
 42
0.0000000001
 43
0.0000000001
 40
0.0
 40
0.0
 40
0.0
 40
4.033400170063998
 40
4.033400170063998
 40
4.033400170063998
 10
1.288225928174811
 20
10.54240017006401
 30
0.0
 10
1.288225928174818
 20
8.524700085032013
 30
0.0
 10
1.288225928174825
 20
6.507000000000014
 30
0.0
  0
SPLINE
  5
B5
330
1F
100
AcDbEntity
  8
Make2D visible lines - Tangent
100
AcDbSpline
210
0.0
220
0.0
230
1.0
 70
    24
 71
     2
 72
     6
 73
     3
 74
     0
 42
0.0000000001
 43
0.0000000001
 40
-2.579999999999997
 40
-2.579999999999997
 40
-2.579999999999997
 40
0.0
 40
0.0
 40
0.0
 10
1.288225928174825
 20
6.507000000000014
 30
0.0
 10
-0.0017740718251744
 20
6.507000000000014
 30
0.0
 10
-1.291774071825174
 20
6.507000000000014
 30
0.0
  0
LINE
  5
B6
330
1F
100
AcDbEntity
  8
Make2D visible lines - Tangent
100
AcDbLine
 10
-1.291774071825174
 20
6.507000000000014
 30
0.0
 11
-1.291774071825266
 21
7.390281802162503
 31
0.0
  0
SPLINE
  5
B7
330
1F
100
AcDbEntity
  8
Make2D visible lines - Tangent
100
AcDbSpline
210
0.0
220
0.0
230
1.0
 70
    12
 71
     2
 72
     6
 73
     3
 74
     0
 42
0.0000000001
 43
0.0000000001
 40
0.0549306914234452
 40
0.0549306914234452
 40
0.0549306914234452
 40
0.7438420567701863
 40
0.7438420567701863
 40
0.7438420567701863
 10
-1.291774071825266
 20
7.390281802162503
 30
0.0
 41
0.9740471357463609
 10
-1.328894668849734
 20
7.779623904334622
 30
0.0
 41
0.8242800934664299
 10
-1.701227895880791
 20
7.899345160989981
 30
0.0
 41
1.0
  0
SPLINE
  5
B8
330
1F
100
AcDbEntity
  8
Make2D visible lines - Tangent
100
AcDbSpline
210
0.0
220
0.0
230
1.0
 70
    24
 71
     2
 72
     6
 73
     3
 74
     0
 42
0.0000000001
 43
0.0000000001
 40
0.0
 40
0.0
 40
0.0
 40
9.968665520973492
 40
9.968665520973492
 40
9.968665520973492
 10
-1.701227895880791
 20
7.899345160989981
 30
0.0
 10
-6.446671747291041
 20
9.42392238775617
 30
0.0
 10
-11.19211559870129
 20
10.94849961452236
 30
0.0
  0
SPLINE
  5
B9
330
1F
100
AcDbEntity
  8
Make2D visible lines - Tangent
100
AcDbSpline
210
0.0
220
0.0
230
1.0
 70
     8
 71
     3
 72
    12
 73
     8
 74
     0
 42
0.0000000001
 43
0.0000000001
 40
0.0
 40
0.0
 40
0.0
 40
0.0
 40
0.7757360538084561
 40
1.487150030408775
 40
2.745857345585154
 40
3.939773345514475
 40
5.284535138988444
 40
5.284535138988444
 40
5.284535138988444
 40
5.284535138988444
 10
-11.19211559870129
 20
10.94849961452236
 30
0.0
 10
-11.43758094600173
 20
11.02708532071328
 30
0.0
 10
-11.90509154294326
 20
11.20015795642815
 30
0.0
 10
-12.72131452419337
 20
11.61088548264484
 30
0.0
 10
-13.55949049847191
 20
12.27978534433733
 30
0.0
 10
-14.18664065999262
 20
13.40627549820724
 30
0.0
 10
-14.30952853768269
 20
14.25558564818658
 30
0.0
 10
-14.3302430620087
 20
14.70199999999985
 30
0.0
  0
SPLINE
  5
BA
330
1F
100
AcDbEntity
  8
Make2D visible lines - Tangent
100
AcDbSpline
210
0.0
220
0.0
230
1.0
 70
    24
 71
     2
 72
     6
 73
     3
 74
     0
 42
0.0000000001
 43
0.0000000001
 40
0.0
 40
0.0
 40
0.0
 40
6.665296691024855
 40
6.665296691024855
 40
6.665296691024855
 10
-14.3302430620087
 20
14.70199999999985
 30
0.0
 10
-14.47013809847867
 20
18.03242064878079
 30
0.0
 10
-14.61003313494864
 20
21.36284129756172
 30
0.0
  0
SPLINE
  5
BB
330
1F
100
AcDbEntity
  8
Make2D visible lines - Tangent
100
AcDbSpline
210
0.0
220
0.0
230
1.0
 70
    12
 71
     2
 72
     6
 73
     3
 74
     0
 42
0.0000000001
 43
0.0000000001
 40
0.0
 40
0.0
 40
0.0
 40
0.4573449673281947
 40
0.4573449673281947
 40
0.4573449673281947
 10
-14.61003313494864
 20
21.36284129756172
 30
0.0
 41
1.0
 10
-14.61970082240084
 20
21.59299808182388
 30
0.0
 41
0.99823900942191
 10
-14.65633132116913
 20
21.81899005488938
 30
0.0
 41
1.0
  0
SPLINE
  5
BC
330
1F
100
AcDbEntity
  8
Make2D visible lines - Tangent
100
AcDbSpline
210
0.0
220
0.0
230
1.0
 70
    24
 71
     2
 72
     6
 73
     3
 74
     0
 42
0.0000000001
 43
0.0000000001
 40
0.0
 40
0.0
 40
0.0
 40
2.834527124727227
 40
2.834527124727227
 40
2.834527124727227
 10
-14.65633132116913
 20
21.81899005488938
 30
0.0
 10
-14.88309351371756
 20
23.21799502744459
 30
0.0
 10
-15.10985570626599
 20
24.61699999999981
 30
0.0
  0
LINE
  5
BD
330
1F
100
AcDbEntity
  8
Make2D visible lines
100
AcDbLine
 10
-8.822490348350925
 20
24.77164434775384
 30
0.0
 11
-9.983952127963931
 21
24.61690727857422
 31
0.0
  0
POLYLINE
  5
BE
330
1F
100
AcDbEntity
  8
Make2D visible lines
100
AcDb2dPolyline
 66
     1
 10
0.0
 20
0.0
 30
0.0
  0
VERTEX
  5
BF
330
BE
100
AcDbEntity
  8
Make2D visible lines
100
AcDbVertex
100
AcDb2dVertex
 10
-9.983952127963931
 20
24.61690727857422
 30
0.0
  0
VERTEX
  5
C0
330
BE
100
AcDbEntity
  8
Make2D visible lines
100
AcDbVertex
100
AcDb2dVertex
 10
-23.3589521279639
 20
24.61690727857422
 30
0.0
  0
SEQEND
  5
C1
330
BE
100
AcDbEntity
  8
Make2D visible lines
  0
LINE
  5
C2
330
1F
100
AcDbEntity
  8
Make2D visible lines
100
AcDbLine
 10
-23.3589521279639
 20
24.61690727857422
 30
0.0
 11
-24.52041390757691
 21
24.77164434775384
 31
0.0
  0
POLYLINE
  5
C3
330
1F
100
AcDbEntity
  8
Default
100
AcDb2dPolyline
 66
     1
 10
0.0
 20
0.0
 30
0.0
  0
VERTEX
  5
C4
330
C3
100
AcDbEntity
  8
Default
100
AcDbVertex
100
AcDb2dVertex
 10
-8.822490348350925
 20
24.77164434775382
 30
0.0
  0
VERTEX
  5
C5
330
C3
100
AcDbEntity
  8
Default
100
AcDbVertex
100
AcDb2dVertex
 10
-24.52041390757691
 20
24.77164434775381
 30
0.0
  0
SEQEND
  5
C6
330
C3
100
AcDbEntity
  8
Default
  0
SPLINE
  5
C7
330
1F
100
AcDbEntity
  8
Default
100
AcDbSpline
210
0.0
220
0.0
230
1.0
 70
    12
 71
     2
 72
     6
 73
     3
 74
     0
 42
0.0000000001
 43
0.0000000001
 40
0.0
 40
0.0
 40
0.0
 40
0.0431172320695658
 40
0.0431172320695658
 40
0.0431172320695658
 10
-24.52041390757691
 20
24.77164434775381
 30
0.0
 41
1.0
 10
-24.54637059613556
 20
24.77518470937582
 30
0.0
 41
0.754396026161636
 10
-24.5464521279639
 20
24.80138160220506
 30
0.0
 41
1.0
  0
SPLINE
  5
C8
330
1F
100
AcDbEntity
  8
Default
100
AcDbSpline
210
0.0
220
0.0
230
1.0
 70
    24
 71
     2
 72
     6
 73
     3
 74
     0
 42
0.0000000001
 43
0.0000000001
 40
0.0
 40
0.0
 40
0.0
 40
0.1037317171327032
 40
0.1037317171327032
 40
0.1037317171327032
 10
-24.5464521279639
 20
24.80138160220506
 30
0.0
 10
-24.5464521279639
 20
24.85324746077141
 30
0.0
 10
-24.5464521279639
 20
24.90511331933776
 30
0.0
  0
SPLINE
  5
C9
330
1F
100
AcDbEntity
  8
Default
100
AcDbSpline
210
0.0
220
0.0
230
1.0
 70
    12
 71
     2
 72
     6
 73
     3
 74
     0
 42
0.0000000001
 43
0.0000000001
 40
0.0
 40
0.0
 40
0.0
 40
0.0470942880630165
 40
0.0470942880630165
 40
0.0470942880630165
 10
-24.5464521279639
 20
24.90511331933776
 30
0.0
 41
1.0
 10
-24.54638382905985
 20
24.93504474461771
 30
0.0
 41
0.7087216954127066
 10
-24.51645240441056
 20
24.9351133193365
 30
0.0
 41
1.0
  0
POLYLINE
  5
CA
330
1F
100
AcDbEntity
  8
Default
100
AcDb2dPolyline
 66
     1
 10
0.0
 20
0.0
 30
0.0
  0
VERTEX
  5
CB
330
CA
100
AcDbEntity
  8
Default
100
AcDbVertex
100
AcDb2dVertex
 10
-24.51645240441056
 20
24.9351133193365
 30
0.0
  0
VERTEX
  5
CC
330
CA
100
AcDbEntity
  8
Default
100
AcDbVertex
100
AcDb2dVertex
 10
-8.826451851517277
 20
24.93511331933649
 30
0.0
  0
SEQEND
  5
CD
330
CA
100
AcDbEntity
  8
Default
  0
SPLINE
  5
CE
330
1F
100
AcDbEntity
  8
Default
100
AcDbSpline
210
0.0
220
0.0
230
1.0
 70
    12
 71
     2
 72
     6
 73
     3
 74
     0
 42
0.0000000001
 43
0.0000000001
 40
0.0
 40
0.0
 40
0.0
 40
0.0470830900804005
 40
0.0470830900804005
 40
0.0470830900804005
 10
-8.826451851517277
 20
24.93511331933649
 30
0.0
 41
1.0
 10
-8.79654649345976
 20
24.93501867826612
 30
0.0
 41
0.709337752437847
 10
-8.796452127963917
 20
24.90511331933776
 30
0.0
 41
1.0
  0
SPLINE
  5
CF
330
1F
100
AcDbEntity
  8
Default
100
AcDbSpline
210
0.0
220
0.0
230
1.0
 70
    24
 71
     2
 72
     6
 73
     3
 74
     0
 42
0.0000000001
 43
0.0000000001
 40
0.0
 40
0.0
 40
0.0
 40
0.1037317171327068
 40
0.1037317171327068
 40
0.1037317171327068
 10
-8.796452127963917
 20
24.90511331933777
 30
0.0
 10
-8.796452127963917
 20
24.85324746077141
 30
0.0
 10
-8.796452127963917
 20
24.80138160220506
 30
0.0
  0
SPLINE
  5
D0
330
1F
100
AcDbEntity
  8
Default
100
AcDbSpline
210
0.0
220
0.0
230
1.0
 70
    12
 71
     2
 72
     6
 73
     3
 74
     0
 42
0.0000000001
 43
0.0000000001
 40
0.0
 40
0.0
 40
0.0
 40
0.0431192810070287
 40
0.0431192810070287
 40
0.0431192810070287
 10
-8.796452127963917
 20
24.80138160220506
 30
0.0
 41
1.0
 10
-8.796528638862332
 20
24.77518031300222
 30
0.0
 41
0.7542698814906877
 10
-8.822490348350925
 20
24.77164434775382
 30
0.0
 41
1.0
  0
POLYLINE
  5
D1
330
1F
100
AcDbEntity
  8
Default
100
AcDb2dPolyline
 66
     1
 10
0.0
 20
0.0
 30
0.0
  0
VERTEX
  5
D2
330
D1
100
AcDbEntity
  8
Default
100
AcDbVertex
100
AcDb2dVertex
 10
-9.933
 20
13.92539157365045
 30
0.0
  0
VERTEX
  5
D3
330
D1
100
AcDbEntity
  8
Default
100
AcDbVertex
100
AcDb2dVertex
 10
9.932999999999998
 20
13.92539157365043
 30
0.0
  0
SEQEND
  5
D4
330
D1
100
AcDbEntity
  8
Default
  0
SPLINE
  5
D5
330
1F
100
AcDbEntity
  8
Default
100
AcDbSpline
210
0.0
220
0.0
230
1.0
 70
    12
 71
     2
 72
     8
 73
     5
 74
     0
 42
0.0000000001
 43
0.0000000001
 40
0.0
 40
0.0
 40
0.0
 40
0.4494222823880094
 40
0.4494222823880094
 40
0.8988445647760217
 40
0.8988445647760217
 40
0.8988445647760217
 10
9.932999999999998
 20
13.92539157365043
 30
0.0
 41
1.0
 10
10.1741713704086
 20
13.92539157365044
 30
0.0
 41
0.9006982393219981
 10
10.32430407842541
 20
13.73664889196899
 30
0.0
 41
1.0
 10
10.47443678644223
 20
13.54790621028754
 30
0.0
 41
0.9006982393220062
 10
10.42018503239
 20
13.31291604647845
 30
0.0
 41
1.0
  0
SPLINE
  5
D6
330
1F
100
AcDbEntity
  8
Default
100
AcDbSpline
210
0.0
220
0.0
230
1.0
 70
    12
 71
     3
 72
     8
 73
     4
 74
     0
 42
0.0000000001
 43
0.0000000001
 40
-1.0
 40
-1.0
 40
-1.0
 40
-1.0
 40
0.0
 40
0.0
 40
0.0
 40
0.0
 10
10.42018503239
 20
13.31291604647845
 30
0.0
 41
1.0
 10
10.21780363222
 20
12.43630589423635
 30
0.0
 41
1.0
 10
7.579877838298001
 20
11.93414677024465
 30
0.0
 41
1.0
 10
4.399999999999999
 20
11.70799999999995
 30
0.0
 41
1.0
  0
SPLINE
  5
D7
330
1F
100
AcDbEntity
  8
Default
100
AcDbSpline
210
0.0
220
0.0
230
1.0
 70
    24
 71
     2
 72
     6
 73
     3
 74
     0
 42
0.0000000001
 43
0.0000000001
 40
-8.799999999999997
 40
-8.799999999999997
 40
-8.799999999999997
 40
0.0
 40
0.0
 40
0.0
 10
4.399999999999999
 20
11.70799999999995
 30
0.0
 10
0.0
 20
11.70799999999995
 30
0.0
 10
-4.399999999999999
 20
11.70799999999995
 30
0.0
  0
SPLINE
  5
D8
330
1F
100
AcDbEntity
  8
Default
100
AcDbSpline
210
0.0
220
0.0
230
1.0
 70
    12
 71
     3
 72
     8
 73
     4
 74
     0
 42
0.0000000001
 43
0.0000000001
 40
-5.141592653589793
 40
-5.141592653589793
 40
-5.141592653589793
 40
-5.141592653589793
 40
-4.141645969756981
 40
-4.141645969756981
 40
-4.141645969756981
 40
-4.141645969756981
 10
-4.399999999999999
 20
11.70799999999995
 30
0.0
 41
1.0
 10
-7.57970829940019
 20
11.93413471296565
 30
0.0
 41
1.0
 10
-10.21752234249534
 20
12.43625234862135
 30
0.0
 41
1.0
 10
-10.42016883670563
 20
13.31284594183494
 30
0.0
 41
1.0
  0
SPLINE
  5
D9
330
1F
100
AcDbEntity
  8
Default
100
AcDbSpline
210
0.0
220
0.0
230
1.0
 70
    12
 71
     2
 72
     8
 73
     5
 74
     0
 42
0.0000000001
 43
0.0000000001
 40
0.0
 40
0.0
 40
0.0
 40
0.44942228238828
 40
0.44942228238828
 40
0.898844564776559
 40
0.898844564776559
 40
0.898844564776559
 10
-10.42016883670563
 20
13.31284594183494
 30
0.0
 41
1.0
 10
-10.47443678644293
 20
13.54790621028779
 30
0.0
 41
0.9006982393222969
 10
-10.32430407842581
 20
13.73664889196912
 30
0.0
 41
1.0
 10
-10.1741713704087
 20
13.92539157365044
 30
0.0
 41
0.9006982393223016
 10
-9.933
 20
13.92539157365045
 30
0.0
 41
1.0
  0
SPLINE
  5
DA
330
1F
100
AcDbEntity
  8
Make2D visible lines
100
AcDbSpline
210
0.0
220
0.0
230
1.0
 70
    12
 71
     2
 72
    10
 73
     7
 74
     0
 42
0.0000000001
 43
0.0000000001
 40
-2.236909683916288
 40
-2.236909683916288
 40
-2.236909683916288
 40
-2.144474540076866
 40
-2.144474540076866
 40
-0.8141924107935481
 40
-0.8141924107935481
 40
0.0
 40
0.0
 40
0.0
 10
9.930442100832073
 20
13.92592247014999
 30
0.0
 41
1.0
 10
9.979207485864547
 20
13.93610018691023
 30
0.0
 41
0.8950844710220611
 10
10.0004572719951
 20
13.98115676562215
 30
0.0
 41
1.0
 10
10.29713401449624
 20
14.61020963879775
 30
0.0
 41
0.9357858921034148
 10
10.10496862661972
 20
15.27863844614661
 30
0.0
 41
1.0
 10
9.979964592972376
 20
15.71345294655029
 30
0.0
 41
0.8562683536386121
 10
9.535910183497412
 20
15.80590495871316
 30
0.0
 41
1.0
  0
SPLINE
  5
DB
330
1F
100
AcDbEntity
  8
Make2D visible lines
100
AcDbSpline
210
0.0
220
0.0
230
1.0
 70
    12
 71
     3
 72
    11
 73
     7
 74
     0
 42
0.0000000001
 43
0.0000000001
 40
-1.999412645572524
 40
-1.999412645572524
 40
-1.999412645572524
 40
-1.999412645572524
 40
-1.0
 40
-1.0
 40
-1.0
 40
-0.0005873544274767
 40
-0.0005873544274767
 40
-0.0005873544274767
 40
-0.0005873544274767
 10
9.535910183497412
 20
15.80590495871316
 30
0.0
 41
1.0
 10
8.25733631380796
 20
16.07191127830964
 30
0.0
 41
1.0
 10
6.75325393536019
 20
16.22070476197347
 30
0.0
 41
1.0
 10
0.0
 20
16.22070476197345
 30
0.0
 41
1.0
 10
-6.753253935360167
 20
16.22070476197345
 30
0.0
 41
1.0
 10
-8.257336313807931
 20
16.07191127830961
 30
0.0
 41
1.0
 10
-9.535910183497379
 20
15.80590495871313
 30
0.0
 41
1.0
  0
SPLINE
  5
DC
330
1F
100
AcDbEntity
  8
Make2D visible lines
100
AcDbSpline
210
0.0
220
0.0
230
1.0
 70
    12
 71
     2
 72
    10
 73
     7
 74
     0
 42
0.0000000001
 43
0.0000000001
 40
-2.23690968391617
 40
-2.23690968391617
 40
-2.23690968391617
 40
-1.422717273123032
 40
-1.422717273123032
 40
-0.0924351438995765
 40
-0.0924351438995765
 40
0.0
 40
0.0
 40
0.0
 10
-9.535910183497379
 20
15.80590495871313
 30
0.0
 41
1.0
 10
-9.979964592972156
 20
15.71345294655036
 30
0.0
 41
0.8562683536385453
 10
-10.10496862661939
 20
15.27863844614685
 30
0.0
 41
1.0
 10
-10.29713401448684
 20
14.61020963883093
 30
0.0
 41
0.9357858921090954
 10
-10.0004572720209
 20
13.9811567656765
 30
0.0
 41
1.0
 10
-9.97920748590132
 20
13.93610018691789
 30
0.0
 41
0.8950844708874731
 10
-9.930442100832032
 20
13.92592247015019
 30
0.0
 41
1.0
  0
ENDSEC
  0
SECTION
  2
OBJECTS
  0
DICTIONARY
  5
C
330
0
100
AcDbDictionary
281
     1
  3
ACAD_GROUP
350
D
  3
ACAD_LAYOUT
350
1A
  3
ACAD_MLEADERSTYLE
350
DE
  3
ACAD_MLINESTYLE
350
17
  3
ACAD_PLOTSETTINGS
350
19
  3
ACAD_PLOTSTYLENAME
350
E
  3
ACAD_TABLESTYLE
350
DD
  3
ACAD_VISUALSTYLE
350
2A
  0
DICTIONARY
  5
D
102
{ACAD_REACTORS
330
C
102
}
330
C
100
AcDbDictionary
281
     1
  0
DICTIONARY
  5
1A
102
{ACAD_REACTORS
330
C
102
}
330
C
100
AcDbDictionary
281
     1
  3
Layout1
350
1E
  3
Layout2
350
26
  3
Model
350
22
  0
DICTIONARY
  5
DE
102
{ACAD_REACTORS
330
C
102
}
330
C
100
AcDbDictionary
281
     1
  0
DICTIONARY
  5
17
102
{ACAD_REACTORS
330
C
102
}
330
C
100
AcDbDictionary
281
     1
  3
Standard
350
18
  0
DICTIONARY
  5
19
102
{ACAD_REACTORS
330
C
102
}
330
C
100
AcDbDictionary
281
     1
  0
ACDBDICTIONARYWDFLT
  5
E
102
{ACAD_REACTORS
330
C
102
}
330
C
100
AcDbDictionary
281
     1
  3
Normal
350
F
100
AcDbDictionaryWithDefault
340
F
  0
DICTIONARY
  5
DD
102
{ACAD_REACTORS
330
C
102
}
330
C
100
AcDbDictionary
281
     1
  0
DICTIONARY
  5
2A
102
{ACAD_REACTORS
330
C
102
}
330
C
100
AcDbDictionary
281
     1
  3
2dWireframe
350
2F
  3
3D Hidden
350
31
  3
3dWireframe
350
30
  3
Basic
350
32
  3
Brighten
350
36
  3
ColorChange
350
3A
  3
Conceptual
350
34
  3
Dim
350
35
  3
Facepattern
350
39
  3
Flat
350
2B
  3
FlatWithEdges
350
2C
  3
Gouraud
350
2D
  3
GouraudWithEdges
350
2E
  3
Linepattern
350
38
  3
Realistic
350
33
  3
Thicken
350
37
  0
LAYOUT
  5
1E
102
{ACAD_REACTORS
330
1A
102
}
330
1A
100
AcDbPlotSettings
  1

  2
none_device
  4

  6

 40
0.0
 41
0.0
 42
0.0
 43
0.0
 44
0.0
 45
0.0
 46
0.0
 47
0.0
 48
0.0
 49
0.0
140
0.0
141
0.0
142
1.0
143
1.0
 70
   688
 72
     0
 73
     0
 74
     5
  7

 75
    16
 76
     0
 77
     2
 78
   300
147
1.0
148
0.0
149
0.0
100
AcDbLayout
  1
Layout1
 70
     1
 71
     1
 10
0.0
 20
0.0
 11
12.0
 21
9.0
 12
0.0
 22
0.0
 32
0.0
 14
1.000000000000000E+20
 24
1.000000000000000E+20
 34
1.000000000000000E+20
 15
-1.000000000000000E+20
 25
-1.000000000000000E+20
 35
-1.000000000000000E+20
146
0.0
 13
0.0
 23
0.0
 33
0.0
 16
1.0
 26
0.0
 36
0.0
 17
0.0
 27
1.0
 37
0.0
 76
     0
330
1B
  0
LAYOUT
  5
26
102
{ACAD_REACTORS
330
1A
102
}
330
1A
100
AcDbPlotSettings
  1

  2
none_device
  4

  6

 40
0.0
 41
0.0
 42
0.0
 43
0.0
 44
0.0
 45
0.0
 46
0.0
 47
0.0
 48
0.0
 49
0.0
140
0.0
141
0.0
142
1.0
143
1.0
 70
   688
 72
     0
 73
     0
 74
     5
  7

 75
    16
 76
     0
 77
     2
 78
   300
147
1.0
148
0.0
149
0.0
100
AcDbLayout
  1
Layout2
 70
     1
 71
     2
 10
0.0
 20
0.0
 11
0.0
 21
0.0
 12
0.0
 22
0.0
 32
0.0
 14
0.0
 24
0.0
 34
0.0
 15
0.0
 25
0.0
 35
0.0
146
0.0
 13
0.0
 23
0.0
 33
0.0
 16
1.0
 26
0.0
 36
0.0
 17
0.0
 27
1.0
 37
0.0
 76
     0
330
23
  0
LAYOUT
  5
22
102
{ACAD_REACTORS
330
1A
102
}
330
1A
100
AcDbPlotSettings
  1

  2
none_device
  4

  6

 40
0.0
 41
0.0
 42
0.0
 43
0.0
 44
0.0
 45
0.0
 46
0.0
 47
0.0
 48
0.0
 49
0.0
140
0.0
141
0.0
142
1.0
143
1.0
 70
  1712
 72
     0
 73
     0
 74
     0
  7

 75
     0
 76
     0
 77
     2
 78
   300
147
1.0
148
0.0
149
0.0
100
AcDbLayout
  1
Model
 70
     1
 71
     0
 10
0.0
 20
0.0
 11
12.0
 21
9.0
 12
0.0
 22
0.0
 32
0.0
 14
-24.5464521279639
 24
0.0000000000000034
 34
0.0
 15
14.64964697230559
 25
64.4989119621574
 35
0.0
146
0.0
 13
0.0
 23
0.0
 33
0.0
 16
1.0
 26
0.0
 36
0.0
 17
0.0
 27
1.0
 37
0.0
 76
     0
330
1F
331
29
  0
MLINESTYLE
  5
18
102
{ACAD_REACTORS
330
17
102
}
330
17
100
AcDbMlineStyle
  2
Standard
 70
     0
  3

 62
   256
 51
90.0
 52
90.0
 71
     2
 49
0.5
 62
   256
  6
BYLAYER
 49
-0.5
 62
   256
  6
BYLAYER
  0
ACDBPLACEHOLDER
  5
F
102
{ACAD_REACTORS
330
E
102
}
330
E
  0
VISUALSTYLE
  5
2F
102
{ACAD_REACTORS
330
2A
102
}
330
2A
100
AcDbVisualStyle
  2
2dWireframe
 70
     4
 71
     0
 72
     2
 73
     0
 90
        0
 40
-0.6
 41
-30.0
 62
     5
 63
     7
421
 16777215
 74
     1
 91
        4
 64
     7
 65
   257
 75
     1
175
     1
 42
1.0
 92
        0
 66
   257
 43
1.0
 76
     1
 77
     6
 78
     2
 67
     7
 79
     5
170
     0
171
     0
290
     0
174
     0
 93
        1
 44
0.0
173
     0
291
     0
 45
0.0
1001
ACAD
1000
AcDbSavedByObjectVersion
1070
     0
  0
VISUALSTYLE
  5
31
102
{ACAD_REACTORS
330
2A
102
}
330
2A
100
AcDbVisualStyle
  2
3D Hidden
 70
     6
 71
     1
 72
     2
 73
     2
 90
        0
 40
-0.6
 41
-30.0
 62
     5
 63
     7
421
 16777215
 74
     2
 91
        2
 64
     7
 65
   257
 75
     2
175
     1
 42
40.0
 92
        0
 66
   257
 43
1.0
 76
     1
 77
     6
 78
     2
 67
     7
 79
     3
170
     0
171
     0
290
     0
174
     0
 93
        1
 44
0.0
173
     0
291
     0
 45
0.0
1001
ACAD
1000
AcDbSavedByObjectVersion
1070
     0
  0
VISUALSTYLE
  5
30
102
{ACAD_REACTORS
330
2A
102
}
330
2A
100
AcDbVisualStyle
  2
3dWireframe
 70
     5
 71
     0
 72
     2
 73
     0
 90
        0
 40
-0.6
 41
-30.0
 62
     5
 63
     7
421
 16777215
 74
     1
 91
        4
 64
     7
 65
   257
 75
     1
175
     1
 42
1.0
 92
        0
 66
   257
 43
1.0
 76
     1
 77
     6
 78
     2
 67
     7
 79
     5
170
     0
171
     0
290
     0
174
     0
 93
        1
 44
0.0
173
     0
291
     0
 45
0.0
1001
ACAD
1000
AcDbSavedByObjectVersion
1070
     0
  0
VISUALSTYLE
  5
32
102
{ACAD_REACTORS
330
2A
102
}
330
2A
100
AcDbVisualStyle
  2
Basic
 70
     7
 71
     1
 72
     0
 73
     1
 90
        0
 40
-0.6
 41
-30.0
 62
     5
 63
     7
421
 16777215
 74
     0
 91
        4
 64
     7
 65
   257
 75
     1
175
     1
 42
1.0
 92
        8
 66
     7
 43
1.0
 76
     1
 77
     6
 78
     2
 67
     7
 79
     5
170
     0
171
     0
290
     0
174
     0
 93
        1
 44
0.0
173
     0
291
     1
 45
0.0
1001
ACAD
1000
AcDbSavedByObjectVersion
1070
     0
  0
VISUALSTYLE
  5
36
102
{ACAD_REACTORS
330
2A
102
}
330
2A
100
AcDbVisualStyle
  2
Brighten
 70
    12
 71
     2
 72
     2
 73
     0
 90
        0
 40
-0.6
 41
-30.0
 62
     5
 63
     7
421
 16777215
 74
     1
 91
        4
 64
     7
 65
   257
 75
     1
175
     1
 42
1.0
 92
        8
 66
     7
 43
1.0
 76
     1
 77
     6
 78
     2
 67
     7
 79
     5
170
     0
171
     0
290
     0
174
     0
 93
        1
 44
50.0
173
     0
291
     1
 45
0.0
1001
ACAD
1000
AcDbSavedByObjectVersion
1070
     0
  0
VISUALSTYLE
  5
3A
102
{ACAD_REACTORS
330
2A
102
}
330
2A
100
AcDbVisualStyle
  2
ColorChange
 70
    16
 71
     2
 72
     2
 73
     3
 90
        0
 40
-0.6
 41
-30.0
 62
     5
 63
     8
421
  8421504
 74
     1
 91
        4
 64
     7
 65
   257
 75
     1
175
     1
 42
1.0
 92
        8
 66
     8
424
  8421504
 43
1.0
 76
     1
 77
     6
 78
     2
 67
     7
 79
     5
170
     0
171
     0
290
     0
174
     0
 93
        1
 44
0.0
173
     0
291
     1
 45
0.0
1001
ACAD
1000
AcDbSavedByObjectVersion
1070
     0
  0
VISUALSTYLE
  5
34
102
{ACAD_REACTORS
330
2A
102
}
330
2A
100
AcDbVisualStyle
  2
Conceptual
 70
     9
 71
     3
 72
     2
 73
     0
 90
        0
 40
-0.6
 41
-30.0
 62
     5
 63
     7
421
 16777215
 74
     2
 91
        2
 64
     7
 65
   257
 75
     1
175
     1
 42
40.0
 92
        8
 66
     7
 43
1.0
 76
     1
 77
     6
 78
     2
 67
     7
 79
     3
170
     0
171
     0
290
     0
174
     0
 93
        1
 44
0.0
173
     0
291
     0
 45
0.0
1001
ACAD
1000
AcDbSavedByObjectVersion
1070
     0
  0
VISUALSTYLE
  5
35
102
{ACAD_REACTORS
330
2A
102
}
330
2A
100
AcDbVisualStyle
  2
Dim
 70
    11
 71
     2
 72
     2
 73
     0
 90
        0
 40
-0.6
 41
-30.0
 62
     5
 63
     7
421
 16777215
 74
     1
 91
        4
 64
     7
 65
   257
 75
     1
175
     1
 42
1.0
 92
        8
 66
     7
 43
1.0
 76
     1
 77
     6
 78
     2
 67
     7
 79
     5
170
     0
171
     0
290
     0
174
     0
 93
        1
 44
-50.0
173
     0
291
     1
 45
0.0
1001
ACAD
1000
AcDbSavedByObjectVersion
1070
     0
  0
VISUALSTYLE
  5
39
102
{ACAD_REACTORS
330
2A
102
}
330
2A
100
AcDbVisualStyle
  2
Facepattern
 70
    15
 71
     2
 72
     2
 73
     0
 90
        0
 40
-0.6
 41
-30.0
 62
     5
 63
     7
421
 16777215
 74
     1
 91
        4
 64
     7
 65
   257
 75
     1
175
     1
 42
1.0
 92
        8
 66
     7
 43
1.0
 76
     1
 77
     6
 78
     2
 67
     7
 79
     5
170
     0
171
     0
290
     0
174
     0
 93
        1
 44
0.0
173
     0
291
     1
 45
0.0
1001
ACAD
1000
AcDbSavedByObjectVersion
1070
     0
  0
VISUALSTYLE
  5
2B
102
{ACAD_REACTORS
330
2A
102
}
330
2A
100
AcDbVisualStyle
  2
Flat
 70
     0
 71
     2
 72
     1
 73
     1
 90
        2
 40
-0.6
 41
30.0
 62
     5
 63
     7
421
 16777215
 74
     0
 91
        4
 64
     7
 65
   257
 75
     1
175
     1
 42
1.0
 92
        8
 66
     7
 43
1.0
 76
     1
 77
     6
 78
     2
 67
     7
 79
     5
170
     0
171
     0
290
     0
174
     0
 93
       13
 44
0.0
173
     0
291
     1
 45
0.0
1001
ACAD
1000
AcDbSavedByObjectVersion
1070
     0
  0
VISUALSTYLE
  5
2C
102
{ACAD_REACTORS
330
2A
102
}
330
2A
100
AcDbVisualStyle
  2
FlatWithEdges
 70
     1
 71
     2
 72
     1
 73
     1
 90
        2
 40
-0.6
 41
30.0
 62
     5
 63
     7
421
 16777215
 74
     1
 91
        4
 64
     7
 65
   257
 75
     1
175
     1
 42
1.0
 92
        0
 66
   257
 43
1.0
 76
     1
 77
     6
 78
     2
 67
     7
 79
     5
170
     0
171
     0
290
     0
174
     0
 93
       13
 44
0.0
173
     0
291
     1
 45
0.0
1001
ACAD
1000
AcDbSavedByObjectVersion
1070
     0
  0
VISUALSTYLE
  5
2D
102
{ACAD_REACTORS
330
2A
102
}
330
2A
100
AcDbVisualStyle
  2
Gouraud
 70
     2
 71
     2
 72
     2
 73
     1
 90
        2
 40
-0.6
 41
30.0
 62
     5
 63
     7
421
 16777215
 74
     0
 91
        4
 64
     7
 65
   257
 75
     1
175
     1
 42
1.0
 92
        0
 66
     7
 43
1.0
 76
     1
 77
     6
 78
     2
 67
     7
 79
     5
170
     0
171
     0
290
     0
174
     0
 93
       13
 44
0.0
173
     0
291
     1
 45
0.0
1001
ACAD
1000
AcDbSavedByObjectVersion
1070
     0
  0
VISUALSTYLE
  5
2E
102
{ACAD_REACTORS
330
2A
102
}
330
2A
100
AcDbVisualStyle
  2
GouraudWithEdges
 70
     3
 71
     2
 72
     2
 73
     1
 90
        2
 40
-0.6
 41
30.0
 62
     5
 63
     7
421
 16777215
 74
     1
 91
        4
 64
     7
 65
   257
 75
     1
175
     1
 42
1.0
 92
        0
 66
   257
 43
1.0
 76
     1
 77
     6
 78
     2
 67
     7
 79
     5
170
     0
171
     0
290
     0
174
     0
 93
       13
 44
0.0
173
     0
291
     1
 45
0.0
1001
ACAD
1000
AcDbSavedByObjectVersion
1070
     0
  0
VISUALSTYLE
  5
38
102
{ACAD_REACTORS
330
2A
102
}
330
2A
100
AcDbVisualStyle
  2
Linepattern
 70
    14
 71
     2
 72
     2
 73
     0
 90
        0
 40
-0.6
 41
-30.0
 62
     5
 63
     7
421
 16777215
 74
     1
 91
        4
 64
     7
 65
   257
 75
     7
175
     7
 42
1.0
 92
        8
 66
     7
 43
1.0
 76
     1
 77
     6
 78
     2
 67
     7
 79
     5
170
     0
171
     0
290
     0
174
     0
 93
        1
 44
0.0
173
     0
291
     1
 45
0.0
1001
ACAD
1000
AcDbSavedByObjectVersion
1070
     0
  0
VISUALSTYLE
  5
33
102
{ACAD_REACTORS
330
2A
102
}
330
2A
100
AcDbVisualStyle
  2
Realistic
 70
     8
 71
     2
 72
     2
 73
     0
 90
        0
 40
-0.6
 41
-30.0
 62
     5
 63
     7
421
 16777215
 74
     1
 91
        0
 64
     7
 65
   257
 75
     1
175
     1
 42
1.0
 92
        8
 66
     8
424
  7895160
 43
1.0
 76
     1
 77
     6
 78
     2
 67
     7
 79
     5
170
     0
171
     0
290
     0
174
     0
 93
       13
 44
0.0
173
     0
291
     0
 45
0.0
1001
ACAD
1000
AcDbSavedByObjectVersion
1070
     0
  0
VISUALSTYLE
  5
37
102
{ACAD_REACTORS
330
2A
102
}
330
2A
100
AcDbVisualStyle
  2
Thicken
 70
    13
 71
     2
 72
     2
 73
     0
 90
        0
 40
-0.6
 41
-30.0
 62
     5
 63
     7
421
 16777215
 74
     1
 91
        4
 64
     7
 65
   257
 75
     1
175
     1
 42
1.0
 92
       12
 66
     7
 43
1.0
 76
     1
 77
     6
 78
     2
 67
     7
 79
     5
170
     0
171
     0
290
     0
174
     0
 93
        1
 44
0.0
173
     0
291
     1
 45
0.0
1001
ACAD
1000
AcDbSavedByObjectVersion
1070
     0
  0
ENDSEC
  0
EOF
