  0
SECTION
  2
HEADER
  9
$ACADVER
  1
AC1018
  9
$ACADMAINTVER
 70
     0
  9
$DWGCODEPAGE
  3
ANSI_1252
  9
$INSBASE
 10
0.0
 20
0.0
 30
0.0
  9
$EXTMIN
 10
-24.5462557618871
 20
-0.0000000000000001
 30
0.0
  9
$EXTMAX
 10
13.55328139573
 20
63.65916364138028
 30
0.0
  9
$LIMMIN
 10
0.0
 20
0.0
  9
$LIMMAX
 10
12.0
 20
9.0
  9
$ORTHOMODE
 70
     0
  9
$REGENMODE
 70
     1
  9
$FILLMODE
 70
     1
  9
$QTEXTMODE
 70
     0
  9
$MIRRTEXT
 70
     1
  9
$LTSCALE
 40
0.0393700787401575
  9
$ATTMODE
 70
     1
  9
$TEXTSIZE
 40
0.2
  9
$TRACEWID
 40
0.05
  9
$TEXTSTYLE
  7
Standard
  9
$CLAYER
  8
Default
  9
$CELTYPE
  6
ByLayer
  9
$CECOLOR
 62
   256
  9
$CELTSCALE
 40
1.0
  9
$DISPSILH
 70
     0
  9
$DIMSCALE
 40
1.0
  9
$DIMASZ
 40
0.18
  9
$DIMEXO
 40
0.0625
  9
$DIMDLI
 40
0.38
  9
$DIMRND
 40
0.0
  9
$DIMDLE
 40
0.0
  9
$DIMEXE
 40
0.18
  9
$DIMTP
 40
0.0
  9
$DIMTM
 40
0.0
  9
$DIMTXT
 40
0.18
  9
$DIMCEN
 40
0.09
  9
$DIMTSZ
 40
0.0
  9
$DIMTOL
 70
     0
  9
$DIMLIM
 70
     0
  9
$DIMTIH
 70
     1
  9
$DIMTOH
 70
     1
  9
$DIMSE1
 70
     0
  9
$DIMSE2
 70
     0
  9
$DIMTAD
 70
     0
  9
$DIMZIN
 70
     0
  9
$DIMBLK
  1

  9
$DIMASO
 70
     1
  9
$DIMSHO
 70
     1
  9
$DIMPOST
  1

  9
$DIMAPOST
  1

  9
$DIMALT
 70
     0
  9
$DIMALTD
 70
     2
  9
$DIMALTF
 40
25.4
  9
$DIMLFAC
 40
1.0
  9
$DIMTOFL
 70
     0
  9
$DIMTVP
 40
0.0
  9
$DIMTIX
 70
     0
  9
$DIMSOXD
 70
     0
  9
$DIMSAH
 70
     0
  9
$DIMBLK1
  1

  9
$DIMBLK2
  1

  9
$DIMSTYLE
  2
Standard
  9
$DIMCLRD
 70
     0
  9
$DIMCLRE
 70
     0
  9
$DIMCLRT
 70
     0
  9
$DIMTFAC
 40
1.0
  9
$DIMGAP
 40
0.09
  9
$DIMJUST
 70
     0
  9
$DIMSD1
 70
     0
  9
$DIMSD2
 70
     0
  9
$DIMTOLJ
 70
     1
  9
$DIMTZIN
 70
     0
  9
$DIMALTZ
 70
     0
  9
$DIMALTTZ
 70
     0
  9
$DIMUPT
 70
     0
  9
$DIMDEC
 70
     4
  9
$DIMTDEC
 70
     4
  9
$DIMALTU
 70
     2
  9
$DIMALTTD
 70
     2
  9
$DIMTXSTY
  7
Standard
  9
$DIMAUNIT
 70
     0
  9
$DIMADEC
 70
     0
  9
$DIMALTRND
 40
0.0
  9
$DIMAZIN
 70
     0
  9
$DIMDSEP
 70
    46
  9
$DIMATFIT
 70
     3
  9
$DIMFRAC
 70
     0
  9
$DIMLDRBLK
  1

  9
$DIMLUNIT
 70
     2
  9
$DIMLWD
 70
    -2
  9
$DIMLWE
 70
    -2
  9
$DIMTMOVE
 70
     2
  9
$LUNITS
 70
     2
  9
$LUPREC
 70
     3
  9
$SKETCHINC
 40
0.1
  9
$FILLETRAD
 40
0.5
  9
$AUNITS
 70
     0
  9
$AUPREC
 70
     0
  9
$MENU
  1
.
  9
$ELEVATION
 40
0.0
  9
$PELEVATION
 40
0.0
  9
$THICKNESS
 40
0.0
  9
$LIMCHECK
 70
     0
  9
$CHAMFERA
 40
0.5
  9
$CHAMFERB
 40
0.5
  9
$CHAMFERC
 40
1.0
  9
$CHAMFERD
 40
0.0
  9
$SKPOLY
 70
     0
  9
$TDCREATE
 40
2456338.459282327
  9
$TDUCREATE
 40
2456338.66761566
  9
$TDUPDATE
 40
2456338.459282338
  9
$TDUUPDATE
 40
2456338.667615671
  9
$TDINDWG
 40
0.0000000116
  9
$TDUSRTIMER
 40
0.0000000116
  9
$USRTIMER
 70
     1
  9
$ANGBASE
 50
0.0
  9
$ANGDIR
 70
     0
  9
$PDMODE
 70
     0
  9
$PDSIZE
 40
0.0
  9
$PLINEWID
 40
0.0
  9
$SPLFRAME
 70
     0
  9
$SPLINETYPE
 70
     6
  9
$SPLINESEGS
 70
     8
  9
$HANDSEED
  5
254
  9
$SURFTAB1
 70
     6
  9
$SURFTAB2
 70
     6
  9
$SURFTYPE
 70
     6
  9
$SURFU
 70
     6
  9
$SURFV
 70
     6
  9
$UCSBASE
  2

  9
$UCSNAME
  2

  9
$UCSORG
 10
0.0
 20
0.0
 30
0.0
  9
$UCSXDIR
 10
1.0
 20
0.0
 30
0.0
  9
$UCSYDIR
 10
0.0
 20
1.0
 30
0.0
  9
$UCSORTHOREF
  2

  9
$UCSORTHOVIEW
 70
     0
  9
$UCSORGTOP
 10
0.0
 20
0.0
 30
0.0
  9
$UCSORGBOTTOM
 10
0.0
 20
0.0
 30
0.0
  9
$UCSORGLEFT
 10
0.0
 20
0.0
 30
0.0
  9
$UCSORGRIGHT
 10
0.0
 20
0.0
 30
0.0
  9
$UCSORGFRONT
 10
0.0
 20
0.0
 30
0.0
  9
$UCSORGBACK
 10
0.0
 20
0.0
 30
0.0
  9
$PUCSBASE
  2

  9
$PUCSNAME
  2

  9
$PUCSORG
 10
0.0
 20
0.0
 30
0.0
  9
$PUCSXDIR
 10
1.0
 20
0.0
 30
0.0
  9
$PUCSYDIR
 10
0.0
 20
1.0
 30
0.0
  9
$PUCSORTHOREF
  2

  9
$PUCSORTHOVIEW
 70
     0
  9
$PUCSORGTOP
 10
0.0
 20
0.0
 30
0.0
  9
$PUCSORGBOTTOM
 10
0.0
 20
0.0
 30
0.0
  9
$PUCSORGLEFT
 10
0.0
 20
0.0
 30
0.0
  9
$PUCSORGRIGHT
 10
0.0
 20
0.0
 30
0.0
  9
$PUCSORGFRONT
 10
0.0
 20
0.0
 30
0.0
  9
$PUCSORGBACK
 10
0.0
 20
0.0
 30
0.0
  9
$USERI1
 70
     0
  9
$USERI2
 70
     0
  9
$USERI3
 70
     0
  9
$USERI4
 70
     0
  9
$USERI5
 70
     0
  9
$USERR1
 40
0.0
  9
$USERR2
 40
0.0
  9
$USERR3
 40
0.0
  9
$USERR4
 40
0.0
  9
$USERR5
 40
0.0
  9
$WORLDVIEW
 70
     1
  9
$SHADEDGE
 70
     3
  9
$SHADEDIF
 70
    70
  9
$TILEMODE
 70
     1
  9
$MAXACTVP
 70
    64
  9
$PINSBASE
 10
0.0
 20
0.0
 30
0.0
  9
$PLIMCHECK
 70
     0
  9
$PEXTMIN
 10
1.000000000000000E+20
 20
1.000000000000000E+20
 30
1.000000000000000E+20
  9
$PEXTMAX
 10
-1.000000000000000E+20
 20
-1.000000000000000E+20
 30
-1.000000000000000E+20
  9
$PLIMMIN
 10
0.0
 20
0.0
  9
$PLIMMAX
 10
12.0
 20
9.0
  9
$UNITMODE
 70
     0
  9
$VISRETAIN
 70
     1
  9
$PLINEGEN
 70
     0
  9
$PSLTSCALE
 70
     1
  9
$TREEDEPTH
 70
  3020
  9
$CMLSTYLE
  2
Standard
  9
$CMLJUST
 70
     0
  9
$CMLSCALE
 40
1.0
  9
$PROXYGRAPHICS
 70
     1
  9
$MEASUREMENT
 70
     0
  9
$CELWEIGHT
370
    -1
  9
$ENDCAPS
280
     0
  9
$JOINSTYLE
280
     0
  9
$LWDISPLAY
290
     0
  9
$INSUNITS
 70
     1
  9
$HYPERLINKBASE
  1

  9
$STYLESHEET
  1

  9
$XEDIT
290
     1
  9
$CEPSNTYPE
380
     0
  9
$PSTYLEMODE
290
     1
  9
$FINGERPRINTGUID
  2
{A9741785-7E0B-4C96-969B-03EE17CFC9CC}
  9
$VERSIONGUID
  2
{FAEB1C32-E019-11D5-929B-00C0DF256EC4}
  9
$EXTNAMES
290
     1
  9
$PSVPSCALE
 40
0.0
  9
$OLESTARTUP
290
     0
  9
$SORTENTS
280
   127
  9
$INDEXCTL
280
     0
  9
$HIDETEXT
280
     1
  9
$XCLIPFRAME
290
     0
  9
$HALOGAP
280
     0
  9
$OBSCOLOR
 70
   257
  9
$OBSLTYPE
280
     0
  9
$INTERSECTIONDISPLAY
280
     0
  9
$INTERSECTIONCOLOR
 70
   257
  9
$DIMASSOC
280
     2
  9
$PROJECTNAME
  1

  0
ENDSEC
  0
SECTION
  2
CLASSES
  0
CLASS
  1
ACDBDICTIONARYWDFLT
  2
AcDbDictionaryWithDefault
  3
ObjectDBX Classes
 90
        0
 91
        4
280
     0
281
     0
  0
CLASS
  1
VISUALSTYLE
  2
AcDbVisualStyle
  3
ObjectDBX Classes
 90
     4095
 91
        4
280
     0
281
     0
  0
ENDSEC
  0
SECTION
  2
TABLES
  0
TABLE
  2
VPORT
  5
8
330
0
100
AcDbSymbolTable
 70
     1
  0
VPORT
  5
29
330
8
100
AcDbSymbolTableRecord
100
AcDbViewportTableRecord
  2
*Active
 70
     0
 10
0.0
 20
0.0
 11
1.0
 21
1.0
 12
-5.496487183078546
 22
31.82958182069014
 13
0.0
 23
0.0
 14
0.5
 24
0.5
 15
0.5
 25
0.5
 16
0.0
 26
0.0
 36
1.0
 17
0.0
 27
0.0
 37
0.0
 40
64.93234691420788
 41
0.5984925810877495
 42
50.0
 43
0.0
 44
0.0
 50
0.0
 51
0.0
 71
     0
 72
   100
 73
     1
 74
     3
 75
     0
 76
     0
 77
     0
 78
     0
281
     0
 65
     1
110
0.0
120
0.0
130
0.0
111
1.0
121
0.0
131
0.0
112
0.0
122
1.0
132
0.0
 79
     0
146
0.0
  0
ENDTAB
  0
TABLE
  2
LTYPE
  5
5
330
0
100
AcDbSymbolTable
 70
     1
  0
LTYPE
  5
14
330
5
100
AcDbSymbolTableRecord
100
AcDbLinetypeTableRecord
  2
ByBlock
 70
     0
  3

 72
    65
 73
     0
 40
0.0
  0
LTYPE
  5
15
330
5
100
AcDbSymbolTableRecord
100
AcDbLinetypeTableRecord
  2
ByLayer
 70
     0
  3

 72
    65
 73
     0
 40
0.0
  0
LTYPE
  5
16
330
5
100
AcDbSymbolTableRecord
100
AcDbLinetypeTableRecord
  2
Continuous
 70
     0
  3
Solid line
 72
    65
 73
     0
 40
0.0
  0
ENDTAB
  0
TABLE
  2
LAYER
  5
2
330
0
100
AcDbSymbolTable
 70
     4
  0
LAYER
  5
10
330
2
100
AcDbSymbolTableRecord
100
AcDbLayerTableRecord
  2
0
 70
     0
 62
     7
  6
Continuous
370
    -3
390
F
  0
LAYER
  5
3B
330
2
100
AcDbSymbolTableRecord
100
AcDbLayerTableRecord
  2
Make2D visible lines
 70
     0
 62
     7
  6
Continuous
370
    -3
390
F
  0
LAYER
  5
3D
330
2
100
AcDbSymbolTableRecord
100
AcDbLayerTableRecord
  2
Make2D visible lines - Tangent
 70
     0
 62
     7
  6
Continuous
370
    -3
390
F
  0
LAYER
  5
62
330
2
100
AcDbSymbolTableRecord
100
AcDbLayerTableRecord
  2
Default
 70
     0
 62
     7
  6
Continuous
370
    -3
390
F
  0
ENDTAB
  0
TABLE
  2
STYLE
  5
3
330
0
100
AcDbSymbolTable
 70
     1
  0
STYLE
  5
11
330
3
100
AcDbSymbolTableRecord
100
AcDbTextStyleTableRecord
  2
Standard
 70
     0
 40
0.0
 41
1.0
 50
0.0
 71
     0
 42
0.2
  3
txt
  4

  0
ENDTAB
  0
TABLE
  2
VIEW
  5
6
330
0
100
AcDbSymbolTable
 70
     0
  0
ENDTAB
  0
TABLE
  2
UCS
  5
7
330
0
100
AcDbSymbolTable
 70
     0
  0
ENDTAB
  0
TABLE
  2
APPID
  5
9
330
0
100
AcDbSymbolTable
 70
     1
  0
APPID
  5
12
330
9
100
AcDbSymbolTableRecord
100
AcDbRegAppTableRecord
  2
ACAD
 70
     0
  0
ENDTAB
  0
TABLE
  2
DIMSTYLE
  5
A
330
0
100
AcDbSymbolTable
 70
     1
100
AcDbDimStyleTable
  0
DIMSTYLE
105
27
330
A
100
AcDbSymbolTableRecord
100
AcDbDimStyleTableRecord
  2
Standard
 70
     0
340
11
  0
ENDTAB
  0
TABLE
  2
BLOCK_RECORD
  5
1
330
0
100
AcDbSymbolTable
 70
     1
  0
BLOCK_RECORD
  5
1F
330
1
100
AcDbSymbolTableRecord
100
AcDbBlockTableRecord
  2
*Model_Space
340
22
  0
BLOCK_RECORD
  5
1B
330
1
100
AcDbSymbolTableRecord
100
AcDbBlockTableRecord
  2
*Paper_Space
340
1E
  0
BLOCK_RECORD
  5
23
330
1
100
AcDbSymbolTableRecord
100
AcDbBlockTableRecord
  2
*Paper_Space0
340
26
  0
ENDTAB
  0
ENDSEC
  0
SECTION
  2
BLOCKS
  0
BLOCK
  5
20
330
1F
100
AcDbEntity
  8
0
100
AcDbBlockBegin
  2
*Model_Space
 70
     0
 10
0.0
 20
0.0
 30
0.0
  3
*Model_Space
  1

  0
ENDBLK
  5
21
330
1F
100
AcDbEntity
  8
0
100
AcDbBlockEnd
  0
BLOCK
  5
1C
330
1B
100
AcDbEntity
 67
     1
  8
0
100
AcDbBlockBegin
  2
*Paper_Space
 70
     0
 10
0.0
 20
0.0
 30
0.0
  3
*Paper_Space
  1

  0
ENDBLK
  5
1D
330
1B
100
AcDbEntity
 67
     1
  8
0
100
AcDbBlockEnd
  0
BLOCK
  5
24
330
23
100
AcDbEntity
  8
0
100
AcDbBlockBegin
  2
*Paper_Space0
 70
     0
 10
0.0
 20
0.0
 30
0.0
  3
*Paper_Space0
  1

  0
ENDBLK
  5
25
330
23
100
AcDbEntity
  8
0
100
AcDbBlockEnd
  0
ENDSEC
  0
SECTION
  2
ENTITIES
  0
SPLINE
  5
3C
330
1F
100
AcDbEntity
  8
Make2D visible lines
100
AcDbSpline
210
0.0
220
0.0
230
1.0
 70
    24
 71
     2
 72
     6
 73
     3
 74
     0
 42
0.0000000001
 43
0.0000000001
 40
0.0
 40
0.0
 40
0.0
 40
0.0000751500774685
 40
0.0000751500774685
 40
0.0000751500774685
 10
-13.04742870107313
 20
22.654141721922
 30
0.0
 10
-13.04743289534424
 20
22.65410438170741
 30
0.0
 10
-13.04743708961535
 20
22.65406704149282
 30
0.0
  0
SPLINE
  5
3E
330
1F
100
AcDbEntity
  8
Make2D visible lines - Tangent
100
AcDbSpline
210
0.0
220
0.0
230
1.0
 70
    12
 71
     2
 72
     6
 73
     3
 74
     0
 42
0.0000000001
 43
0.0000000001
 40
0.0
 40
0.0
 40
0.0
 40
2.795567528105218
 40
2.795567528105218
 40
2.795567528105218
 10
-12.73500348634846
 20
25.4339919815663
 30
0.0
 41
1.0
 10
-12.89120950643911
 20
24.04496385507856
 30
0.0
 41
0.9999999977588828
 10
-13.04732913858932
 20
22.6549246745848
 30
0.0
 41
1.0
  0
SPLINE
  5
3F
330
1F
100
AcDbEntity
  8
Make2D visible lines - Tangent
100
AcDbSpline
210
0.0
220
0.0
230
1.0
 70
    12
 71
     2
 72
     6
 73
     3
 74
     0
 42
0.0000000001
 43
0.0000000001
 40
0.0
 40
0.0
 40
0.0
 40
0.4901317099757928
 40
0.4901317099757928
 40
0.4901317099757928
 10
-13.04732913858932
 20
22.6549246745848
 30
0.0
 41
1.0
 10
-13.07481438935463
 20
22.41007041465474
 30
0.0
 41
0.9979772155037618
 10
-13.07103471013746
 20
22.16466828505092
 30
0.0
 41
1.0
  0
SPLINE
  5
40
330
1F
100
AcDbEntity
  8
Make2D visible lines - Tangent
100
AcDbSpline
210
0.0
220
0.0
230
1.0
 70
    12
 71
     2
 72
     6
 73
     3
 74
     0
 42
0.0000000001
 43
0.0000000001
 40
0.0
 40
0.0
 40
0.0
 40
5.531210327985943
 40
5.531210327985943
 40
5.531210327985943
 10
-13.07103471013746
 20
22.16466828505092
 30
0.0
 41
1.0
 10
-13.02816095883911
 20
19.39936120600437
 30
0.0
 41
0.9999999999928466
 10
-12.98526515000182
 20
16.63398108212012
 30
0.0
 41
1.0
  0
SPLINE
  5
41
330
1F
100
AcDbEntity
  8
Make2D visible lines - Tangent
100
AcDbSpline
210
0.0
220
0.0
230
1.0
 70
     8
 71
     3
 72
    15
 73
    11
 74
     0
 42
0.0000000001
 43
0.0000000001
 40
0.0
 40
0.0
 40
0.0
 40
0.0
 40
0.9392105016698279
 40
1.640578104294083
 40
2.192188772880628
 40
2.6617160915045
 40
3.139809665213049
 40
3.711960950485636
 40
4.450250207282398
 40
5.44410882064065
 40
5.44410882064065
 40
5.44410882064065
 40
5.44410882064065
 10
-12.98526515000182
 20
16.63398108212012
 30
0.0
 10
-12.98034663135298
 20
16.32083667298877
 30
0.0
 10
-12.96120862230092
 20
15.77406417616828
 30
0.0
 10
-12.8723703775719
 20
15.04764301391008
 30
0.0
 10
-12.71479809889249
 20
14.49270252890485
 30
0.0
 10
-12.45917628625943
 20
14.05681299430087
 30
0.0
 10
-12.07838418545431
 20
13.71474606340163
 30
0.0
 10
-11.55009094874907
 20
13.4330826660047
 30
0.0
 10
-10.82659856671364
 20
13.17238117467493
 30
0.0
 10
-10.26924903689587
 20
13.0205745417305
 30
0.0
 10
-9.94617818599659
 20
12.93853587528563
 30
0.0
  0
LINE
  5
42
330
1F
100
AcDbEntity
  8
Make2D visible lines - Tangent
100
AcDbLine
 10
-9.94617818599659
 20
12.93853587528563
 30
0.0
 11
-1.744536857478911
 21
10.85991717297002
 31
0.0
  0
LINE
  5
43
330
1F
100
AcDbEntity
  8
Make2D visible lines - Tangent
100
AcDbLine
 10
-1.744536857478911
 20
10.85991717297002
 30
0.0
 11
-1.694126673699504
 21
10.85993264429538
 31
0.0
  0
ARC
  5
44
330
1F
100
AcDbEntity
  8
Make2D visible lines - Tangent
100
AcDbCircle
 10
-1.694251234780653
 20
11.26578972797012
 30
0.0
 40
0.4058571027891892
100
AcDbArc
 50
270.0175845742366
 51
353.4116189412363
  0
LINE
  5
45
330
1F
100
AcDbEntity
  8
Make2D visible lines - Tangent
100
AcDbLine
 10
-1.291074390731279
 20
11.2192234278506
 30
0.0
 11
-1.291074390731278
 21
11.35948487305609
 31
0.0
  0
SPLINE
  5
46
330
1F
100
AcDbEntity
  8
Make2D visible lines - Tangent
100
AcDbSpline
210
0.0
220
0.0
230
1.0
 70
    12
 71
     2
 72
     6
 73
     3
 74
     0
 42
0.0000000001
 43
0.0000000001
 40
0.0
 40
0.0
 40
0.0
 40
0.6322767633307975
 40
0.6322767633307975
 40
0.6322767633307975
 10
-1.291074390731278
 20
11.35948487305609
 30
0.0
 41
1.0
 10
-1.291095113137952
 20
11.69902212402273
 30
0.0
 41
0.8997633435225391
 10
-1.55777118202381
 20
11.90925603224686
 30
0.0
 41
1.0
  0
SPLINE
  5
47
330
1F
100
AcDbEntity
  8
Make2D visible lines - Tangent
100
AcDbSpline
210
0.0
220
0.0
230
1.0
 70
    24
 71
     2
 72
     6
 73
     3
 74
     0
 42
0.0000000001
 43
0.0000000001
 40
0.0
 40
0.0
 40
0.0
 40
0.8793882784309035
 40
0.8793882784309035
 40
0.8793882784309035
 10
-1.55777118202381
 20
11.90925603224686
 30
0.0
 10
-1.903402199672239
 20
12.18163175769296
 30
0.0
 10
-2.249033217320669
 20
12.45400748313906
 30
0.0
  0
SPLINE
  5
48
330
1F
100
AcDbEntity
  8
Make2D visible lines - Tangent
100
AcDbSpline
210
0.0
220
0.0
230
1.0
 70
    12
 71
     2
 72
     6
 73
     3
 74
     0
 42
0.0000000001
 43
0.0000000001
 40
0.0
 40
0.0
 40
0.0
 40
0.0357539122175352
 40
0.0357539122175352
 40
0.0357539122175352
 10
-2.249033217320669
 20
12.45400748313906
 30
0.0
 41
1.0
 10
-2.264458147050362
 20
12.46635675553146
 30
0.0
 41
0.908183800338042
 10
-2.26506830086171
 20
12.48590814520095
 30
0.0
 41
1.0
  0
SPLINE
  5
49
330
1F
100
AcDbEntity
  8
Make2D visible lines - Tangent
100
AcDbSpline
210
0.0
220
0.0
230
1.0
 70
    24
 71
     2
 72
     6
 73
     3
 74
     0
 42
0.0000000001
 43
0.0000000001
 40
0.0
 40
0.0
 40
0.0
 40
0.0000050316303729
 40
0.0000050316303729
 40
0.0000050316303729
 10
-2.26506830086171
 20
12.48590814520095
 30
0.0
 10
-2.265069196331755
 20
12.4863541861704
 30
0.0
 10
-2.2650700918018
 20
12.48680022713985
 30
0.0
  0
SPLINE
  5
4A
330
1F
100
AcDbEntity
  8
Make2D visible lines - Tangent
100
AcDbSpline
210
0.0
220
0.0
230
1.0
 70
    12
 71
     2
 72
     6
 73
     3
 74
     0
 42
0.0000000001
 43
0.0000000001
 40
0.0
 40
0.0
 40
0.0
 40
0.0630678473128126
 40
0.0630678473128126
 40
0.0630678473128126
 10
-2.2650700918018
 20
12.48680022713985
 30
0.0
 41
1.0
 10
-2.264178058279235
 20
12.52699157764211
 30
0.0
 41
0.7157673835718095
 10
-2.224381086296983
 20
12.52708470299026
 30
0.0
 41
1.0
  0
POLYLINE
  5
4B
330
1F
100
AcDbEntity
  8
Make2D visible lines - Tangent
100
AcDb2dPolyline
 66
     1
 10
0.0
 20
0.0
 30
0.0
  0
VERTEX
  5
4C
330
4B
100
AcDbEntity
  8
Make2D visible lines - Tangent
100
AcDbVertex
100
AcDb2dVertex
 10
-2.224381086296983
 20
12.52708470299026
 30
0.0
  0
VERTEX
  5
4D
330
4B
100
AcDbEntity
  8
Make2D visible lines - Tangent
100
AcDbVertex
100
AcDb2dVertex
 10
2.22223230483441
 20
12.52708470299026
 30
0.0
  0
SEQEND
  5
4E
330
4B
100
AcDbEntity
  8
Make2D visible lines - Tangent
  0
SPLINE
  5
4F
330
1F
100
AcDbEntity
  8
Make2D visible lines - Tangent
100
AcDbSpline
210
0.0
220
0.0
230
1.0
 70
    12
 71
     2
 72
     6
 73
     3
 74
     0
 42
0.0000000001
 43
0.0000000001
 40
0.0
 40
0.0
 40
0.0
 40
0.0629935595096315
 40
0.0629935595096315
 40
0.0629935595096315
 10
2.22223230483441
 20
12.52708470299026
 30
0.0
 41
1.0
 10
2.261939598089338
 20
12.52696102962007
 30
0.0
 41
0.716830315414967
 10
2.262914476151384
 20
12.48634540273843
 30
0.0
 41
1.0
  0
SPLINE
  5
50
330
1F
100
AcDbEntity
  8
Make2D visible lines - Tangent
100
AcDbSpline
210
0.0
220
0.0
230
1.0
 70
    12
 71
     2
 72
     6
 73
     3
 74
     0
 42
0.0000000001
 43
0.0000000001
 40
0.0
 40
0.0
 40
0.0
 40
0.0357539122175587
 40
0.0357539122175587
 40
0.0357539122175587
 10
2.262914476151384
 20
12.48634540273843
 30
0.0
 41
1.0
 10
2.262309365587871
 20
12.46635675553143
 30
0.0
 41
0.9081838003365155
 10
2.246884435858096
 20
12.45400748313906
 30
0.0
 41
1.0
  0
SPLINE
  5
51
330
1F
100
AcDbEntity
  8
Make2D visible lines - Tangent
100
AcDbSpline
210
0.0
220
0.0
230
1.0
 70
    24
 71
     2
 72
     6
 73
     3
 74
     0
 42
0.0000000001
 43
0.0000000001
 40
0.0
 40
0.0
 40
0.0
 40
0.8793882784309069
 40
0.8793882784309069
 40
0.8793882784309069
 10
2.246884435858096
 20
12.45400748313906
 30
0.0
 10
1.901253418184542
 20
12.18163175768967
 30
0.0
 10
1.555622400510988
 20
11.90925603224028
 30
0.0
  0
SPLINE
  5
52
330
1F
100
AcDbEntity
  8
Make2D visible lines - Tangent
100
AcDbSpline
210
0.0
220
0.0
230
1.0
 70
    12
 71
     2
 72
     6
 73
     3
 74
     0
 42
0.0000000001
 43
0.0000000001
 40
0.0
 40
0.0
 40
0.0
 40
0.6322790145841365
 40
0.6322790145841365
 40
0.6322790145841365
 10
1.555622400510988
 20
11.90925603224028
 30
0.0
 41
1.0
 10
1.288938410035157
 20
11.69902596649976
 30
0.0
 41
0.8997531621452598
 10
1.288925609268706
 20
11.35948487305609
 30
0.0
 41
1.0
  0
SPLINE
  5
53
330
1F
100
AcDbEntity
  8
Make2D visible lines - Tangent
100
AcDbSpline
210
0.0
220
0.0
230
1.0
 70
    24
 71
     2
 72
     6
 73
     3
 74
     0
 42
0.0000000001
 43
0.0000000001
 40
0.0
 40
0.0
 40
0.0
 40
4.033400170063998
 40
4.033400170063998
 40
4.033400170063998
 10
1.288925609268706
 20
11.35948487305609
 30
0.0
 10
1.288925609268713
 20
9.341784788024093
 30
0.0
 10
1.28892560926872
 20
7.324084702992096
 30
0.0
  0
SPLINE
  5
54
330
1F
100
AcDbEntity
  8
Make2D visible lines - Tangent
100
AcDbSpline
210
0.0
220
0.0
230
1.0
 70
    24
 71
     2
 72
     6
 73
     3
 74
     0
 42
0.0000000001
 43
0.0000000001
 40
-2.579999999999997
 40
-2.579999999999997
 40
-2.579999999999997
 40
0.0
 40
0.0
 40
0.0
 10
1.28892560926872
 20
7.324084702992096
 30
0.0
 10
-0.0010743907312794
 20
7.324084702992096
 30
0.0
 10
-1.291074390731278
 20
7.324084702992096
 30
0.0
  0
LINE
  5
55
330
1F
100
AcDbEntity
  8
Make2D visible lines - Tangent
100
AcDbLine
 10
-1.291074390731278
 20
7.324084702992096
 30
0.0
 11
-1.291074390731371
 21
8.207366505154585
 31
0.0
  0
SPLINE
  5
56
330
1F
100
AcDbEntity
  8
Make2D visible lines - Tangent
100
AcDbSpline
210
0.0
220
0.0
230
1.0
 70
    12
 71
     2
 72
     6
 73
     3
 74
     0
 42
0.0000000001
 43
0.0000000001
 40
0.0549306914234452
 40
0.0549306914234452
 40
0.0549306914234452
 40
0.7438420567701863
 40
0.7438420567701863
 40
0.7438420567701863
 10
-1.291074390731371
 20
8.207366505154585
 30
0.0
 41
0.9740471357463609
 10
-1.328194987755839
 20
8.596708607326704
 30
0.0
 41
0.8242800934664299
 10
-1.700528214786896
 20
8.716429863982063
 30
0.0
 41
1.0
  0
SPLINE
  5
57
330
1F
100
AcDbEntity
  8
Make2D visible lines - Tangent
100
AcDbSpline
210
0.0
220
0.0
230
1.0
 70
    24
 71
     2
 72
     6
 73
     3
 74
     0
 42
0.0000000001
 43
0.0000000001
 40
0.0
 40
0.0
 40
0.0
 40
9.968665520973492
 40
9.968665520973492
 40
9.968665520973492
 10
-1.700528214786896
 20
8.716429863982063
 30
0.0
 10
-6.445972066197146
 20
10.24100709074825
 30
0.0
 10
-11.1914159176074
 20
11.76558431751444
 30
0.0
  0
SPLINE
  5
58
330
1F
100
AcDbEntity
  8
Make2D visible lines - Tangent
100
AcDbSpline
210
0.0
220
0.0
230
1.0
 70
     8
 71
     3
 72
    12
 73
     8
 74
     0
 42
0.0000000001
 43
0.0000000001
 40
0.0
 40
0.0
 40
0.0
 40
0.0
 40
0.7757360538084561
 40
1.487150030408775
 40
2.745857345585154
 40
3.939773345514475
 40
5.284535138988444
 40
5.284535138988444
 40
5.284535138988444
 40
5.284535138988444
 10
-11.1914159176074
 20
11.76558431751444
 30
0.0
 10
-11.43688126490784
 20
11.84417002370536
 30
0.0
 10
-11.90439186184936
 20
12.01724265942023
 30
0.0
 10
-12.72061484309948
 20
12.42797018563692
 30
0.0
 10
-13.55879081737802
 20
13.09687004732941
 30
0.0
 10
-14.18594097889872
 20
14.22336020119932
 30
0.0
 10
-14.3088288565888
 20
15.07267035117866
 30
0.0
 10
-14.32954338091481
 20
15.51908470299193
 30
0.0
  0
SPLINE
  5
59
330
1F
100
AcDbEntity
  8
Make2D visible lines - Tangent
100
AcDbSpline
210
0.0
220
0.0
230
1.0
 70
    24
 71
     2
 72
     6
 73
     3
 74
     0
 42
0.0000000001
 43
0.0000000001
 40
0.0
 40
0.0
 40
0.0
 40
6.665296691024855
 40
6.665296691024855
 40
6.665296691024855
 10
-14.32954338091481
 20
15.51908470299193
 30
0.0
 10
-14.46943841738477
 20
18.84950535177287
 30
0.0
 10
-14.60933345385474
 20
22.1799260005538
 30
0.0
  0
SPLINE
  5
5A
330
1F
100
AcDbEntity
  8
Make2D visible lines - Tangent
100
AcDbSpline
210
0.0
220
0.0
230
1.0
 70
    12
 71
     2
 72
     6
 73
     3
 74
     0
 42
0.0000000001
 43
0.0000000001
 40
0.0
 40
0.0
 40
0.0
 40
0.4573449673281947
 40
0.4573449673281947
 40
0.4573449673281947
 10
-14.60933345385474
 20
22.1799260005538
 30
0.0
 41
1.0
 10
-14.61900114130695
 20
22.41008278481596
 30
0.0
 41
0.99823900942191
 10
-14.65563164007524
 20
22.63607475788146
 30
0.0
 41
1.0
  0
SPLINE
  5
5B
330
1F
100
AcDbEntity
  8
Make2D visible lines - Tangent
100
AcDbSpline
210
0.0
220
0.0
230
1.0
 70
    24
 71
     2
 72
     6
 73
     3
 74
     0
 42
0.0000000001
 43
0.0000000001
 40
0.0
 40
0.0
 40
0.0
 40
2.834527124727227
 40
2.834527124727227
 40
2.834527124727227
 10
-14.65563164007524
 20
22.63607475788146
 30
0.0
 10
-14.88239383262367
 20
24.03507973043667
 30
0.0
 10
-15.1091560251721
 20
25.43408470299189
 30
0.0
  0
LINE
  5
5C
330
1F
100
AcDbEntity
  8
Make2D visible lines
100
AcDbLine
 10
-8.82179066725703
 20
25.58872905074592
 30
0.0
 11
-9.983252446870036
 21
25.4339919815663
 31
0.0
  0
POLYLINE
  5
5D
330
1F
100
AcDbEntity
  8
Make2D visible lines
100
AcDb2dPolyline
 66
     1
 10
0.0
 20
0.0
 30
0.0
  0
VERTEX
  5
5E
330
5D
100
AcDbEntity
  8
Make2D visible lines
100
AcDbVertex
100
AcDb2dVertex
 10
-9.983252446870036
 20
25.4339919815663
 30
0.0
  0
VERTEX
  5
5F
330
5D
100
AcDbEntity
  8
Make2D visible lines
100
AcDbVertex
100
AcDb2dVertex
 10
-23.35825244687001
 20
25.4339919815663
 30
0.0
  0
SEQEND
  5
60
330
5D
100
AcDbEntity
  8
Make2D visible lines
  0
LINE
  5
61
330
1F
100
AcDbEntity
  8
Make2D visible lines
100
AcDbLine
 10
-23.35825244687001
 20
25.4339919815663
 30
0.0
 11
-24.51971422648301
 21
25.58872905074593
 31
0.0
  0
POLYLINE
  5
63
330
1F
100
AcDbEntity
  8
Default
100
AcDb2dPolyline
 66
     1
 10
0.0
 20
0.0
 30
0.0
  0
VERTEX
  5
64
330
63
100
AcDbEntity
  8
Default
100
AcDbVertex
100
AcDb2dVertex
 10
-8.82179066725703
 20
25.5887290507459
 30
0.0
  0
VERTEX
  5
65
330
63
100
AcDbEntity
  8
Default
100
AcDbVertex
100
AcDb2dVertex
 10
-24.51971422648301
 20
25.58872905074589
 30
0.0
  0
SEQEND
  5
66
330
63
100
AcDbEntity
  8
Default
  0
SPLINE
  5
67
330
1F
100
AcDbEntity
  8
Default
100
AcDbSpline
210
0.0
220
0.0
230
1.0
 70
    12
 71
     2
 72
     6
 73
     3
 74
     0
 42
0.0000000001
 43
0.0000000001
 40
0.0
 40
0.0
 40
0.0
 40
0.0431172320695658
 40
0.0431172320695658
 40
0.0431172320695658
 10
-24.51971422648301
 20
25.58872905074589
 30
0.0
 41
1.0
 10
-24.54567091504167
 20
25.5922694123679
 30
0.0
 41
0.754396026161636
 10
-24.54575244687001
 20
25.61846630519714
 30
0.0
 41
1.0
  0
SPLINE
  5
68
330
1F
100
AcDbEntity
  8
Default
100
AcDbSpline
210
0.0
220
0.0
230
1.0
 70
    24
 71
     2
 72
     6
 73
     3
 74
     0
 42
0.0000000001
 43
0.0000000001
 40
0.0
 40
0.0
 40
0.0
 40
0.1037317171327032
 40
0.1037317171327032
 40
0.1037317171327032
 10
-24.54575244687001
 20
25.61846630519714
 30
0.0
 10
-24.54575244687001
 20
25.67033216376349
 30
0.0
 10
-24.54575244687001
 20
25.72219802232984
 30
0.0
  0
SPLINE
  5
69
330
1F
100
AcDbEntity
  8
Default
100
AcDbSpline
210
0.0
220
0.0
230
1.0
 70
    12
 71
     2
 72
     6
 73
     3
 74
     0
 42
0.0000000001
 43
0.0000000001
 40
0.0
 40
0.0
 40
0.0
 40
0.0470942880630165
 40
0.0470942880630165
 40
0.0470942880630165
 10
-24.54575244687001
 20
25.72219802232984
 30
0.0
 41
1.0
 10
-24.54568414796596
 20
25.75212944760979
 30
0.0
 41
0.7087216954127066
 10
-24.51575272331666
 20
25.75219802232858
 30
0.0
 41
1.0
  0
POLYLINE
  5
6A
330
1F
100
AcDbEntity
  8
Default
100
AcDb2dPolyline
 66
     1
 10
0.0
 20
0.0
 30
0.0
  0
VERTEX
  5
6B
330
6A
100
AcDbEntity
  8
Default
100
AcDbVertex
100
AcDb2dVertex
 10
-24.51575272331666
 20
25.75219802232858
 30
0.0
  0
VERTEX
  5
6C
330
6A
100
AcDbEntity
  8
Default
100
AcDbVertex
100
AcDb2dVertex
 10
-8.825752170423382
 20
25.75219802232857
 30
0.0
  0
SEQEND
  5
6D
330
6A
100
AcDbEntity
  8
Default
  0
SPLINE
  5
6E
330
1F
100
AcDbEntity
  8
Default
100
AcDbSpline
210
0.0
220
0.0
230
1.0
 70
    12
 71
     2
 72
     6
 73
     3
 74
     0
 42
0.0000000001
 43
0.0000000001
 40
0.0
 40
0.0
 40
0.0
 40
0.0470830900804005
 40
0.0470830900804005
 40
0.0470830900804005
 10
-8.825752170423382
 20
25.75219802232857
 30
0.0
 41
1.0
 10
-8.795846812365864
 20
25.7521033812582
 30
0.0
 41
0.709337752437847
 10
-8.795752446870022
 20
25.72219802232984
 30
0.0
 41
1.0
  0
SPLINE
  5
6F
330
1F
100
AcDbEntity
  8
Default
100
AcDbSpline
210
0.0
220
0.0
230
1.0
 70
    24
 71
     2
 72
     6
 73
     3
 74
     0
 42
0.0000000001
 43
0.0000000001
 40
0.0
 40
0.0
 40
0.0
 40
0.1037317171327068
 40
0.1037317171327068
 40
0.1037317171327068
 10
-8.795752446870022
 20
25.72219802232985
 30
0.0
 10
-8.795752446870022
 20
25.67033216376349
 30
0.0
 10
-8.795752446870022
 20
25.61846630519714
 30
0.0
  0
SPLINE
  5
70
330
1F
100
AcDbEntity
  8
Default
100
AcDbSpline
210
0.0
220
0.0
230
1.0
 70
    12
 71
     2
 72
     6
 73
     3
 74
     0
 42
0.0000000001
 43
0.0000000001
 40
0.0
 40
0.0
 40
0.0
 40
0.0431192810070287
 40
0.0431192810070287
 40
0.0431192810070287
 10
-8.795752446870022
 20
25.61846630519714
 30
0.0
 41
1.0
 10
-8.795828957768437
 20
25.5922650159943
 30
0.0
 41
0.7542698814906877
 10
-8.82179066725703
 20
25.5887290507459
 30
0.0
 41
1.0
  0
SPLINE
  5
71
330
1F
100
AcDbEntity
  8
Default
100
AcDbSpline
210
0.0
220
0.0
230
1.0
 70
     8
 71
     3
 72
    11
 73
     7
 74
     0
 42
0.0000000001
 43
0.0000000001
 40
0.0
 40
0.0
 40
0.0
 40
0.0
 40
0.1253255972496818
 40
0.2513039754497304
 40
0.4987317322664389
 40
0.9688442191042036
 40
0.9688442191042036
 40
0.9688442191042036
 40
0.9688442191042036
 10
-1.233931175928038
 20
6.854219928194
 30
0.0
 10
-1.23467305222108
 20
6.812556320277297
 30
0.0
 10
-1.242264625258811
 20
6.728608986485762
 30
0.0
 10
-1.283946118584169
 20
6.567490792756628
 30
0.0
 10
-1.4188663182738
 20
6.315723651030756
 30
0.0
 10
-1.634703816377003
 20
6.181635136261791
 30
0.0
 10
-1.789888363667075
 20
6.155372616098481
 30
0.0
  0
SPLINE
  5
72
330
1F
100
AcDbEntity
  8
Default
100
AcDbSpline
210
0.0
220
0.0
230
1.0
 70
    24
 71
     2
 72
     6
 73
     3
 74
     0
 42
0.0000000001
 43
0.0000000001
 40
0.0
 40
0.0
 40
0.0
 40
10.6106773182712
 40
10.6106773182712
 40
10.6106773182712
 10
-1.789888363667075
 20
6.155372616098481
 30
0.0
 10
-7.014116204513529
 20
5.231217999682199
 30
0.0
 10
-12.23834404535998
 20
4.307063383265918
 30
0.0
  0
SPLINE
  5
73
330
1F
100
AcDbEntity
  8
Default
100
AcDbSpline
210
0.0
220
0.0
230
1.0
 70
     8
 71
     3
 72
     8
 73
     4
 74
     0
 42
0.0000000001
 43
0.0000000001
 40
0.0
 40
0.0
 40
0.0
 40
0.0
 40
1.0
 40
1.0
 40
1.0
 40
1.0
 10
-12.23834404535998
 20
4.307063383265918
 30
0.0
 10
-12.3870957013065
 20
4.280749536754915
 30
0.0
 10
-12.53891528303043
 20
4.219465901919556
 30
0.0
 10
-12.64957970104333
 20
4.116641487256009
 30
0.0
  0
SPLINE
  5
74
330
1F
100
AcDbEntity
  8
Default
100
AcDbSpline
210
0.0
220
0.0
230
1.0
 70
     8
 71
     3
 72
    11
 73
     7
 74
     0
 42
0.0000000001
 43
0.0000000001
 40
-1.380178003129728
 40
-1.380178003129728
 40
-1.380178003129728
 40
-1.380178003129728
 40
-0.9139752417836994
 40
-0.8294769469874151
 40
-0.7414398127600529
 40
0.0
 40
0.0
 40
0.0
 40
0.0
 10
-12.64957970104333
 20
4.116641487256009
 30
0.0
 10
-12.76482594389031
 20
4.009559846420637
 30
0.0
 10
-12.84019467390332
 20
3.833863810798341
 30
0.0
 10
-12.87358700758287
 20
3.624145861508745
 30
0.0
 10
-12.89067083421591
 20
3.319744497831932
 30
0.0
 10
-12.89695214670612
 20
3.043448157988741
 30
0.0
 10
-12.90916395426856
 20
2.796533989153949
 30
0.0
  0
SPLINE
  5
75
330
1F
100
AcDbEntity
  8
Default
100
AcDbSpline
210
0.0
220
0.0
230
1.0
 70
     8
 71
     3
 72
    11
 73
     7
 74
     0
 42
0.0000000001
 43
0.0000000001
 40
0.0
 40
0.0
 40
0.0
 40
0.0
 40
0.1253255972496818
 40
0.2513039754497304
 40
0.4987317322664389
 40
0.9688442191042036
 40
0.9688442191042036
 40
0.9688442191042036
 40
0.9688442191042036
 10
1.233931175928038
 20
6.854219928194
 30
0.0
 10
1.23467305222108
 20
6.812556320277297
 30
0.0
 10
1.242264625258811
 20
6.728608986485762
 30
0.0
 10
1.283946118584169
 20
6.567490792756628
 30
0.0
 10
1.4188663182738
 20
6.315723651030756
 30
0.0
 10
1.634703816377003
 20
6.181635136261791
 30
0.0
 10
1.789888363667075
 20
6.155372616098481
 30
0.0
  0
SPLINE
  5
76
330
1F
100
AcDbEntity
  8
Default
100
AcDbSpline
210
0.0
220
0.0
230
1.0
 70
    24
 71
     2
 72
     6
 73
     3
 74
     0
 42
0.0000000001
 43
0.0000000001
 40
0.0
 40
0.0
 40
0.0
 40
10.6106773182712
 40
10.6106773182712
 40
10.6106773182712
 10
1.789888363667075
 20
6.155372616098481
 30
0.0
 10
7.014116204513529
 20
5.231217999682199
 30
0.0
 10
12.23834404535998
 20
4.307063383265918
 30
0.0
  0
SPLINE
  5
77
330
1F
100
AcDbEntity
  8
Default
100
AcDbSpline
210
0.0
220
0.0
230
1.0
 70
     8
 71
     3
 72
     8
 73
     4
 74
     0
 42
0.0000000001
 43
0.0000000001
 40
0.0
 40
0.0
 40
0.0
 40
0.0
 40
1.0
 40
1.0
 40
1.0
 40
1.0
 10
12.23834404535998
 20
4.307063383265918
 30
0.0
 10
12.3870957013065
 20
4.280749536754915
 30
0.0
 10
12.53891528303043
 20
4.219465901919556
 30
0.0
 10
12.64957970104333
 20
4.116641487256009
 30
0.0
  0
SPLINE
  5
78
330
1F
100
AcDbEntity
  8
Default
100
AcDbSpline
210
0.0
220
0.0
230
1.0
 70
     8
 71
     3
 72
    11
 73
     7
 74
     0
 42
0.0000000001
 43
0.0000000001
 40
-1.380178003129728
 40
-1.380178003129728
 40
-1.380178003129728
 40
-1.380178003129728
 40
-0.9139752417836994
 40
-0.8294769469874151
 40
-0.7414398127600529
 40
0.0
 40
0.0
 40
0.0
 40
0.0
 10
12.64957970104333
 20
4.116641487256009
 30
0.0
 10
12.76482594389031
 20
4.009559846420637
 30
0.0
 10
12.84019467390332
 20
3.833863810798341
 30
0.0
 10
12.87358700758287
 20
3.624145861508745
 30
0.0
 10
12.89067083421591
 20
3.319744497831932
 30
0.0
 10
12.89695214670612
 20
3.043448157988741
 30
0.0
 10
12.90916395426856
 20
2.796533989153949
 30
0.0
  0
SPLINE
  5
79
330
1F
100
AcDbEntity
  8
Make2D visible lines
100
AcDbSpline
210
0.0
220
0.0
230
1.0
 70
    12
 71
     2
 72
     6
 73
     3
 74
     0
 42
0.0000000001
 43
0.0000000001
 40
0.0
 40
0.0
 40
0.0
 40
0.45463726350635
 40
0.45463726350635
 40
0.45463726350635
 10
-1.525639248006444
 20
6.273574874417954
 30
0.0
 41
1.0
 10
-1.331866525684014
 20
6.416079376188438
 30
0.0
 41
0.9195620123765541
 10
-1.300914760346337
 20
6.654611112365369
 30
0.0
 41
0.9999952872160333
  0
LINE
  5
7A
330
1F
100
AcDbEntity
  8
Make2D visible lines
100
AcDbLine
 10
-1.300914760346337
 20
6.65461111236537
 30
0.0
 11
-1.289999999999569
 21
7.279999999999992
 31
0.0
  0
POLYLINE
  5
7B
330
1F
100
AcDbEntity
  8
Make2D visible lines
100
AcDb2dPolyline
 66
     1
 10
0.0
 20
0.0
 30
0.0
  0
VERTEX
  5
7C
330
7B
100
AcDbEntity
  8
Make2D visible lines
100
AcDbVertex
100
AcDb2dVertex
 10
-1.289999999999569
 20
7.279999999999992
 30
0.0
  0
VERTEX
  5
7D
330
7B
100
AcDbEntity
  8
Make2D visible lines
100
AcDbVertex
100
AcDb2dVertex
 10
1.289999999999592
 20
7.279999999999992
 30
0.0
  0
SEQEND
  5
7E
330
7B
100
AcDbEntity
  8
Make2D visible lines
  0
LINE
  5
7F
330
1F
100
AcDbEntity
  8
Make2D visible lines
100
AcDbLine
 10
1.289999999999592
 20
7.279999999999992
 30
0.0
 11
1.300914760346337
 21
6.65461111236537
 31
0.0
  0
SPLINE
  5
80
330
1F
100
AcDbEntity
  8
Make2D visible lines
100
AcDbSpline
210
0.0
220
0.0
230
1.0
 70
    12
 71
     2
 72
     6
 73
     3
 74
     0
 42
0.0000000001
 43
0.0000000001
 40
-0.45463726350635
 40
-0.45463726350635
 40
-0.45463726350635
 40
0.0
 40
0.0
 40
0.0
 10
1.300914760346337
 20
6.654611112365369
 30
0.0
 41
0.9999952872160333
 10
1.331866525684014
 20
6.416079376188438
 30
0.0
 41
0.9195620123765541
 10
1.525639248006444
 20
6.273574874417954
 30
0.0
 41
1.0
  0
SPLINE
  5
81
330
1F
100
AcDbEntity
  8
Make2D visible lines
100
AcDbSpline
210
0.0
220
0.0
230
1.0
 70
    12
 71
     2
 72
     6
 73
     3
 74
     0
 42
0.0000000001
 43
0.0000000001
 40
0.0
 40
0.0
 40
0.0
 40
0.715017489309887
 40
0.715017489309887
 40
0.715017489309887
 10
8.126722355013005
 20
2.79730837210623
 30
0.0
 41
1.0
 10
8.104889429230154
 20
3.154150786496702
 30
0.0
 41
0.9999959930683374
 10
8.08507719706722
 20
3.511111093551959
 30
0.0
 41
1.0
  0
SPLINE
  5
82
330
1F
100
AcDbEntity
  8
Make2D visible lines - Tangent
100
AcDbSpline
210
0.0
220
0.0
230
1.0
 70
    12
 71
     3
 72
    12
 73
     8
 74
     0
 42
0.0000000001
 43
0.0000000001
 40
-0.7166866764941487
 40
-0.7166866764941487
 40
-0.7166866764941487
 40
-0.7166866764941487
 40
0.0
 40
0.0
 40
0.0
 40
5.426935465500462
 40
6.005717626902
 40
6.005717626902
 40
6.005717626902
 40
6.005717626902
 10
0.6170939324199887
 20
4.144275746056073
 30
0.0
 41
1.0
 10
0.8549403253933607
 20
4.121609837324083
 30
0.0
 41
0.9997624307684584
 10
1.092096912421841
 20
4.092602884742096
 30
0.0
 41
0.9997624307684584
 10
1.328394670181023
 20
4.057275561788416
 30
0.0
 41
1.0
 10
3.117482356701391
 20
3.789800833743934
 30
0.0
 41
1.0
 10
4.962818904875473
 20
3.51835316869112
 30
0.0
 41
1.0
 10
6.858249519855342
 20
3.232953152428765
 30
0.0
 41
1.0
 10
7.190070262656594
 20
3.097166056710528
 30
0.0
 41
1.0
  0
SPLINE
  5
83
330
1F
100
AcDbEntity
  8
Make2D visible lines - Tangent
100
AcDbSpline
210
0.0
220
0.0
230
1.0
 70
     8
 71
     3
 72
    11
 73
     7
 74
     0
 42
0.0000000001
 43
0.0000000001
 40
0.0
 40
0.0
 40
0.0
 40
0.0
 40
0.066894803380304
 40
0.1150772171461536
 40
0.2142351287725906
 40
0.3577299678759472
 40
0.3577299678759472
 40
0.3577299678759472
 40
0.3577299678759472
 10
7.190070262656594
 20
3.097166056710528
 30
0.0
 10
7.208121581512791
 20
3.085283282473688
 30
0.0
 10
7.24451976032389
 20
3.067447034369017
 30
0.0
 10
7.287917173120947
 20
3.010049314205599
 30
0.0
 10
7.308915743437923
 20
2.912711916718788
 30
0.0
 10
7.331854348652731
 20
2.837086405743809
 30
0.0
 10
7.338967423585012
 20
2.788958449657228
 30
0.0
  0
SPLINE
  5
84
330
1F
100
AcDbEntity
  8
Default
100
AcDbSpline
210
0.0
220
0.0
230
1.0
 70
    12
 71
     2
 72
     6
 73
     3
 74
     0
 42
0.0000000001
 43
0.0000000001
 40
-0.0405034352679367
 40
-0.0405034352679367
 40
-0.0405034352679367
 40
0.0
 40
0.0
 40
0.0
 10
12.14911371442322
 20
2.760035477590776
 30
0.0
 41
1.0
 10
12.12629078105089
 20
2.761184994890809
 30
0.0
 41
0.8377474461443447
 10
12.11806098244238
 20
2.782509390905094
 30
0.0
 41
1.0
  0
SPLINE
  5
85
330
1F
100
AcDbEntity
  8
Default
100
AcDbSpline
210
0.0
220
0.0
230
1.0
 70
     8
 71
     3
 72
    11
 73
     7
 74
     0
 42
0.0000000001
 43
0.0000000001
 40
-0.5190498716913017
 40
-0.5190498716913017
 40
-0.5190498716913017
 40
-0.5190498716913017
 40
-0.3020474028680822
 40
-0.2374224159260925
 40
-0.1669895205952948
 40
0.0
 40
0.0
 40
0.0
 40
0.0
 10
12.11806098244238
 20
2.782509390905094
 30
0.0
 10
12.09223346747857
 20
2.850638090585806
 30
0.0
 10
12.02956425645359
 20
2.924693852895348
 30
0.0
 10
11.93187101904603
 20
2.989616466604408
 30
0.0
 10
11.84364717303091
 20
3.038432671694692
 30
0.0
 10
11.77004209026178
 20
3.068032893056389
 30
0.0
 10
11.71556540523546
 20
3.087346865324408
 30
0.0
  0
SPLINE
  5
86
330
1F
100
AcDbEntity
  8
Default
100
AcDbSpline
210
0.0
220
0.0
230
1.0
 70
     8
 71
     3
 72
    11
 73
     7
 74
     0
 42
0.0000000001
 43
0.0000000001
 40
-9.62873534496378
 40
-9.62873534496378
 40
-9.62873534496378
 40
-9.62873534496378
 40
-9.235760971098028
 40
-8.993257344707228
 40
-8.729254607404698
 40
0.0
 40
0.0
 40
0.0
 40
0.0
 10
11.71556540523546
 20
3.087346865324408
 30
0.0
 10
11.58988661813639
 20
3.132737362778273
 30
0.0
 10
11.38308034450261
 20
3.177620608886414
 30
0.0
 10
11.08778954878018
 20
3.232731597892199
 30
0.0
 10
8.022689235877312
 20
3.520429176121879
 30
0.0
 10
5.036998118275312
 20
3.789332298799763
 30
0.0
 10
2.13965468369018
 20
4.057697784693569
 30
0.0
  0
ARC
  5
87
330
1F
100
AcDbEntity
  8
Default
100
AcDbCircle
 10
-3.866135974223456
 20
-60.78237684056489
 30
0.0
 40
65.11762279779389
100
AcDbArc
 50
84.70809639775777
 51
85.73558766099688
  0
SPLINE
  5
88
330
1F
100
AcDbEntity
  8
Default
100
AcDbSpline
210
0.0
220
0.0
230
1.0
 70
    12
 71
     2
 72
     6
 73
     3
 74
     0
 42
0.0000000001
 43
0.0000000001
 40
0.0
 40
0.0
 40
0.0
 40
0.1645726248110703
 40
0.1645726248110703
 40
0.1645726248110703
 10
0.975967409105224
 20
4.154968606111039
 30
0.0
 41
1.0
 10
0.893930876010418
 20
4.148116645719011
 30
0.0
 41
0.999346492540072
 10
0.8116136902486488
 20
4.147209423754928
 30
0.0
 41
1.0
  0
POLYLINE
  5
89
330
1F
100
AcDbEntity
  8
Default
100
AcDb2dPolyline
 66
     1
 10
0.0
 20
0.0
 30
0.0
  0
VERTEX
  5
8A
330
89
100
AcDbEntity
  8
Default
100
AcDbVertex
100
AcDb2dVertex
 10
0.8116136902486488
 20
4.147209423754928
 30
0.0
  0
VERTEX
  5
8B
330
89
100
AcDbEntity
  8
Default
100
AcDbVertex
100
AcDb2dVertex
 10
0.4595528730361971
 20
4.147209423754928
 30
0.0
  0
SEQEND
  5
8C
330
89
100
AcDbEntity
  8
Default
  0
SPLINE
  5
8D
330
1F
100
AcDbEntity
  8
Default
100
AcDbSpline
210
0.0
220
0.0
230
1.0
 70
    12
 71
     2
 72
     6
 73
     3
 74
     0
 42
0.0000000001
 43
0.0000000001
 40
-0.0205148466803361
 40
-0.0205148466803361
 40
-0.0205148466803361
 40
0.0
 40
0.0
 40
0.0
 10
7.34583666515714
 20
1.321916756511124
 30
0.0
 41
1.0
 10
7.343092444785353
 20
1.331850316586209
 30
0.0
 41
0.9929165310438545
 10
7.342770214288228
 20
1.342150924790038
 30
0.0
 41
0.9999992470307488
  0
SPLINE
  5
8E
330
1F
100
AcDbEntity
  8
Default
100
AcDbSpline
210
0.0
220
0.0
230
1.0
 70
    12
 71
     2
 72
     6
 73
     3
 74
     0
 42
0.0000000001
 43
0.0000000001
 40
-0.1306670865212424
 40
-0.1306670865212424
 40
-0.1306670865212424
 40
0.0
 40
0.0
 40
0.0
 10
7.342770214288228
 20
1.342150924790038
 30
0.0
 41
1.0
 10
7.345526689575028
 20
1.259999371951817
 30
0.0
 41
0.7188571908882943
 10
7.427723384606649
 20
1.260000489392885
 30
0.0
 41
1.0
  0
SPLINE
  5
8F
330
1F
100
AcDbEntity
  8
Default
100
AcDbSpline
210
0.0
220
0.0
230
1.0
 70
    24
 71
     2
 72
     6
 73
     3
 74
     0
 42
0.0000000001
 43
0.0000000001
 40
-0.6179999986728006
 40
-0.6179999986728006
 40
-0.6179999986728006
 40
0.0
 40
0.0
 40
0.0
 10
7.427723384606649
 20
1.260000489392885
 30
0.0
 10
7.736723383943049
 20
1.260000489380662
 30
0.0
 10
8.04572338327945
 20
1.260000489368439
 30
0.0
  0
SPLINE
  5
90
330
1F
100
AcDbEntity
  8
Default
100
AcDbSpline
210
0.0
220
0.0
230
1.0
 70
    12
 71
     2
 72
     6
 73
     3
 74
     0
 42
0.0000000001
 43
0.0000000001
 40
-0.1306642149348706
 40
-0.1306642149348706
 40
-0.1306642149348706
 40
0.0
 40
0.0
 40
0.0
 10
8.04572338327945
 20
1.260000489368439
 30
0.0
 41
1.0
 10
8.127917296957516
 20
1.259999377635789
 30
0.0
 41
0.7188689686272367
 10
8.130699315015447
 20
1.343573495961616
 30
0.0
 41
1.0
  0
LINE
  5
91
330
1F
100
AcDbEntity
  8
Default
100
AcDbLine
 10
8.130699315015447
 20
1.343573495961616
 30
0.0
 11
8.130723497231317
 21
2.719999999999945
 31
0.0
  0
SPLINE
  5
92
330
1F
100
AcDbEntity
  8
Default
100
AcDbSpline
210
0.0
220
0.0
230
1.0
 70
    12
 71
     2
 72
     8
 73
     5
 74
     0
 42
0.0000000001
 43
0.0000000001
 40
-0.0628318931243996
 40
-0.0628318931243996
 40
-0.0628318931243996
 40
-0.0314159465621985
 40
-0.0314159465621985
 40
0.0
 40
0.0
 40
0.0
 10
8.130723497231317
 20
2.719999999999945
 30
0.0
 41
1.0
 10
8.130723383299998
 20
2.736568554226062
 30
0.0
 41
0.923879436714611
 10
8.119007640386725
 20
2.748284285408195
 30
0.0
 41
1.0
 10
8.107291897473448
 20
2.760000016590326
 30
0.0
 41
0.9238794367145934
 10
8.090723343247399
 20
2.759999999999986
 30
0.0
 41
1.0
  0
POLYLINE
  5
93
330
1F
100
AcDbEntity
  8
Default
100
AcDb2dPolyline
 66
     1
 10
0.0
 20
0.0
 30
0.0
  0
VERTEX
  5
94
330
93
100
AcDbEntity
  8
Default
100
AcDbVertex
100
AcDb2dVertex
 10
8.090723343247399
 20
2.759999999999986
 30
0.0
  0
VERTEX
  5
95
330
93
100
AcDbEntity
  8
Default
100
AcDbVertex
100
AcDb2dVertex
 10
7.3827234246387
 20
2.759999999999986
 30
0.0
  0
SEQEND
  5
96
330
93
100
AcDbEntity
  8
Default
  0
SPLINE
  5
97
330
1F
100
AcDbEntity
  8
Default
100
AcDbSpline
210
0.0
220
0.0
230
1.0
 70
    12
 71
     2
 72
     8
 73
     5
 74
     0
 42
0.0000000001
 43
0.0000000001
 40
0.0
 40
0.0
 40
0.0
 40
0.0314159465621985
 40
0.0314159465621985
 40
0.0628318931243996
 40
0.0628318931243996
 40
0.0628318931243996
 10
7.3827234246387
 20
2.759999999999986
 30
0.0
 41
1.0
 10
7.366154870412649
 20
2.760000016590326
 30
0.0
 41
0.9238794367145934
 10
7.354439127499374
 20
2.748284285408195
 30
0.0
 41
1.0
 10
7.342723384586099
 20
2.736568554226062
 30
0.0
 41
0.923879436714611
 10
7.342723270654782
 20
2.719999999999945
 30
0.0
 41
1.0
  0
LINE
  5
98
330
1F
100
AcDbEntity
  8
Default
100
AcDbLine
 10
7.342723270654782
 20
2.719999999999945
 30
0.0
 11
7.342747452870652
 21
1.343573495961616
 31
0.0
  0
SPLINE
  5
99
330
1F
100
AcDbEntity
  8
Make2D visible lines
100
AcDbSpline
210
0.0
220
0.0
230
1.0
 70
    24
 71
     2
 72
     6
 73
     3
 74
     0
 42
0.0000000001
 43
0.0000000001
 40
-2.415105423527796
 40
-2.415105423527796
 40
-2.415105423527796
 40
0.0
 40
0.0
 40
0.0
 10
8.199723383299999
 20
2.487552711763898
 30
0.0
 10
8.199723383299999
 20
1.278776359863449
 30
0.0
 10
8.199723383299999
 20
0.0700000079629994
 30
0.0
  0
SPLINE
  5
9A
330
1F
100
AcDbEntity
  8
Make2D visible lines
100
AcDbSpline
210
0.0
220
0.0
230
1.0
 70
    12
 71
     2
 72
     8
 73
     5
 74
     0
 42
0.0000000001
 43
0.0000000001
 40
-0.1099557508386429
 40
-0.1099557508386429
 40
-0.1099557508386429
 40
-0.0549778754193212
 40
-0.0549778754193212
 40
0.0
 40
0.0
 40
0.0
 10
8.199723383299999
 20
0.0700000079629994
 30
0.0
 41
1.0
 10
8.199723380001615
 20
0.0410050562645741
 30
0.0
 41
0.9238795216280429
 10
8.220225905801593
 20
0.0205025281322868
 30
0.0
 41
1.0
 10
8.240728431601573
 20
0.0
 30
0.0
 41
0.923879521628049
 10
8.269723383299997
 20
0.0
 30
0.0
 41
1.0
  0
SPLINE
  5
9B
330
1F
100
AcDbEntity
  8
Make2D visible lines
100
AcDbSpline
210
0.0
220
0.0
230
1.0
 70
    24
 71
     2
 72
     6
 73
     3
 74
     0
 42
0.0000000001
 43
0.0000000001
 40
0.0
 40
0.0
 40
0.0
 40
0.3520000000000003
 40
0.3520000000000003
 40
0.3520000000000003
 10
8.269723383299997
 20
0.0
 30
0.0
 10
8.445723383299995
 20
0.0
 30
0.0
 10
8.621723383299996
 20
0.0
 30
0.0
  0
SPLINE
  5
9C
330
1F
100
AcDbEntity
  8
Make2D visible lines
100
AcDbSpline
210
0.0
220
0.0
230
1.0
 70
    12
 71
     2
 72
     6
 73
     3
 74
     0
 42
0.0000000001
 43
0.0000000001
 40
0.0
 40
0.0
 40
0.0
 40
0.2356194483882336
 40
0.2356194483882336
 40
0.2356194483882336
 10
8.621723383299996
 20
0.0
 30
0.0
 41
1.0
 10
8.771723382668993
 20
0.0
 30
0.0
 41
0.7071067826738353
 10
8.771723383299998
 20
0.1499999993689993
 30
0.0
 41
1.0
  0
SPLINE
  5
9D
330
1F
100
AcDbEntity
  8
Make2D visible lines
100
AcDbSpline
210
0.0
220
0.0
230
1.0
 70
    24
 71
     2
 72
     6
 73
     3
 74
     0
 42
0.0000000001
 43
0.0000000001
 40
-2.260000001262
 40
-2.260000001262
 40
-2.260000001262
 40
0.0
 40
0.0
 40
0.0
 10
8.771723383299998
 20
0.1499999993689993
 30
0.0
 10
8.771723383299998
 20
1.279999999999999
 30
0.0
 10
8.771723383299998
 20
2.410000000630999
 30
0.0
  0
SPLINE
  5
9E
330
1F
100
AcDbEntity
  8
Make2D visible lines
100
AcDbSpline
210
0.0
220
0.0
230
1.0
 70
    12
 71
     2
 72
     6
 73
     3
 74
     0
 42
0.0000000001
 43
0.0000000001
 40
0.0
 40
0.0
 40
0.0
 40
0.2356194483882358
 40
0.2356194483882358
 40
0.2356194483882358
 10
8.771723383299998
 20
2.410000000630999
 30
0.0
 41
1.0
 10
8.771723382668998
 20
2.560000000000001
 30
0.0
 41
0.7071067826738272
 10
8.621723383299996
 20
2.56
 30
0.0
 41
1.0
  0
SPLINE
  5
9F
330
1F
100
AcDbEntity
  8
Make2D visible lines
100
AcDbSpline
210
0.0
220
0.0
230
1.0
 70
    24
 71
     2
 72
     6
 73
     3
 74
     0
 42
0.0000000001
 43
0.0000000001
 40
0.0
 40
0.0
 40
0.0
 40
0.3520000000000003
 40
0.3520000000000003
 40
0.3520000000000003
 10
8.621723383299996
 20
2.56
 30
0.0
 10
8.445723383299995
 20
2.56
 30
0.0
 10
8.269723383299997
 20
2.56
 30
0.0
  0
SPLINE
  5
A0
330
1F
100
AcDbEntity
  8
Make2D visible lines
100
AcDbSpline
210
0.0
220
0.0
230
1.0
 70
    12
 71
     2
 72
     8
 73
     5
 74
     0
 42
0.0000000001
 43
0.0000000001
 40
-0.1099557508386414
 40
-0.1099557508386414
 40
-0.1099557508386414
 40
-0.0549778754193184
 40
-0.0549778754193184
 40
0.0
 40
0.0
 40
0.0
 10
8.269723383299997
 20
2.56
 30
0.0
 41
1.0
 10
8.240728431601571
 20
2.56
 30
0.0
 41
0.9238795216280236
 10
8.220225905801595
 20
2.53949747186771
 30
0.0
 41
1.0
 10
8.199723380001616
 20
2.518994943735425
 30
0.0
 41
0.9238795216280324
 10
8.199723383299999
 20
2.487552711763898
 30
0.0
 41
1.0
  0
SPLINE
  5
A1
330
1F
100
AcDbEntity
  8
Make2D visible lines
100
AcDbSpline
210
0.0
220
0.0
230
1.0
 70
    24
 71
     2
 72
     6
 73
     3
 74
     0
 42
0.0000000001
 43
0.0000000001
 40
-2.415105433753071
 40
-2.415105433753071
 40
-2.415105433753071
 40
0.0
 40
0.0
 40
0.0
 10
7.273723383299997
 20
2.487552716876536
 30
0.0
 10
7.273723383299997
 20
1.278776359858268
 30
0.0
 10
7.273723383299997
 20
0.0700000028400005
 30
0.0
  0
SPLINE
  5
A2
330
1F
100
AcDbEntity
  8
Make2D visible lines
100
AcDbSpline
210
0.0
220
0.0
230
1.0
 70
    12
 71
     2
 72
     6
 73
     3
 74
     0
 42
0.0000000001
 43
0.0000000001
 40
0.0
 40
0.0
 40
0.0
 40
0.1099557457156439
 40
0.1099557457156439
 40
0.1099557457156439
 10
7.273723383299997
 20
0.0700000028400005
 30
0.0
 41
1.0
 10
7.273723386139999
 20
0.0
 30
0.0
 41
0.7071067668423728
 10
7.203723383299996
 20
-0.0000000000000001
 30
0.0
 41
1.0
  0
SPLINE
  5
A3
330
1F
100
AcDbEntity
  8
Make2D visible lines
100
AcDbSpline
210
0.0
220
0.0
230
1.0
 70
    24
 71
     2
 72
     6
 73
     3
 74
     0
 42
0.0000000001
 43
0.0000000001
 40
0.0
 40
0.0
 40
0.0
 40
0.3520000000000003
 40
0.3520000000000003
 40
0.3520000000000003
 10
7.203723383299996
 20
-0.0000000000000001
 30
0.0
 10
7.027723383299996
 20
0.0
 30
0.0
 10
6.851723383299996
 20
0.0
 30
0.0
  0
SPLINE
  5
A4
330
1F
100
AcDbEntity
  8
Make2D visible lines
100
AcDbSpline
210
0.0
220
0.0
230
1.0
 70
    12
 71
     2
 72
     6
 73
     3
 74
     0
 42
0.0000000001
 43
0.0000000001
 40
0.0
 40
0.0
 40
0.0
 40
0.2356194519512337
 40
0.2356194519512337
 40
0.2356194519512337
 10
6.851723383299996
 20
0.0
 30
0.0
 41
1.0
 10
6.701723380367998
 20
0.000000000000002
 30
0.0
 41
0.7071067742757676
 10
6.701723383299997
 20
0.1500000029319999
 30
0.0
 41
1.0
  0
SPLINE
  5
A5
330
1F
100
AcDbEntity
  8
Make2D visible lines
100
AcDbSpline
210
0.0
220
0.0
230
1.0
 70
    24
 71
     2
 72
     6
 73
     3
 74
     0
 42
0.0000000001
 43
0.0000000001
 40
0.0
 40
0.0
 40
0.0
 40
2.255429040880414
 40
2.255429040880414
 40
2.255429040880414
 10
6.701723383299997
 20
0.1500000029319999
 30
0.0
 10
6.701723383299997
 20
1.278857261686103
 30
0.0
 10
6.701723383299997
 20
2.407714520440207
 30
0.0
  0
SPLINE
  5
A6
330
1F
100
AcDbEntity
  8
Make2D visible lines
100
AcDbSpline
210
0.0
220
0.0
230
1.0
 70
    12
 71
     2
 72
     6
 73
     3
 74
     0
 42
0.0000000001
 43
0.0000000001
 40
0.0
 40
0.0
 40
0.0
 40
0.2356194519512344
 40
0.2356194519512344
 40
0.2356194519512344
 10
6.701723383299997
 20
2.407714520440207
 30
0.0
 41
1.0
 10
6.701723380367997
 20
2.56
 30
0.0
 41
0.7071067742757604
 10
6.851723383299996
 20
2.56
 30
0.0
 41
1.0
  0
SPLINE
  5
A7
330
1F
100
AcDbEntity
  8
Make2D visible lines
100
AcDbSpline
210
0.0
220
0.0
230
1.0
 70
    24
 71
     2
 72
     6
 73
     3
 74
     0
 42
0.0000000001
 43
0.0000000001
 40
0.0
 40
0.0
 40
0.0
 40
0.3520000000000003
 40
0.3520000000000003
 40
0.3520000000000003
 10
6.851723383299996
 20
2.56
 30
0.0
 10
7.027723383299996
 20
2.56
 30
0.0
 10
7.203723383299996
 20
2.56
 30
0.0
  0
SPLINE
  5
A8
330
1F
100
AcDbEntity
  8
Make2D visible lines
100
AcDbSpline
210
0.0
220
0.0
230
1.0
 70
    12
 71
     2
 72
     6
 73
     3
 74
     0
 42
0.0000000001
 43
0.0000000001
 40
0.0
 40
0.0
 40
0.0
 40
0.1099557457156434
 40
0.1099557457156434
 40
0.1099557457156434
 10
7.203723383299996
 20
2.56
 30
0.0
 41
1.0
 10
7.273723386139998
 20
2.56
 30
0.0
 41
0.7071067668423767
 10
7.273723383299997
 20
2.487552716876536
 30
0.0
 41
1.0
  0
SPLINE
  5
A9
330
1F
100
AcDbEntity
  8
Make2D visible lines
100
AcDbSpline
210
0.0
220
0.0
230
1.0
 70
    24
 71
     2
 72
     6
 73
     3
 74
     0
 42
0.0000000001
 43
0.0000000001
 40
0.0
 40
0.0
 40
0.0
 40
0.0689999999999991
 40
0.0689999999999991
 40
0.0689999999999991
 10
7.342723383299996
 20
1.595000000000001
 30
0.0
 10
7.308223383299996
 20
1.595000000000001
 30
0.0
 10
7.273723383299997
 20
1.595000000000001
 30
0.0
  0
SPLINE
  5
AA
330
1F
100
AcDbEntity
  8
Make2D visible lines
100
AcDbSpline
210
0.0
220
0.0
230
1.0
 70
    24
 71
     2
 72
     6
 73
     3
 74
     0
 42
0.0000000001
 43
0.0000000001
 40
0.0
 40
0.0
 40
0.0
 40
0.9260000000000002
 40
0.9260000000000002
 40
0.9260000000000002
 10
7.273723383299997
 20
0.9650000000000016
 30
0.0
 10
7.736723383299998
 20
0.9650000000000016
 30
0.0
 10
8.199723383299999
 20
0.9650000000000016
 30
0.0
  0
SPLINE
  5
AB
330
1F
100
AcDbEntity
  8
Make2D visible lines
100
AcDbSpline
210
0.0
220
0.0
230
1.0
 70
    24
 71
     2
 72
     6
 73
     3
 74
     0
 42
0.0000000001
 43
0.0000000001
 40
0.0
 40
0.0
 40
0.0
 40
0.0690000000000008
 40
0.0690000000000008
 40
0.0690000000000008
 10
8.199723383299999
 20
1.595000000000001
 30
0.0
 10
8.165223383299997
 20
1.595000000000001
 30
0.0
 10
8.130723383299996
 20
1.595000000000001
 30
0.0
  0
SPLINE
  5
AC
330
1F
100
AcDbEntity
  8
Make2D visible lines
100
AcDbSpline
210
0.0
220
0.0
230
1.0
 70
     8
 71
     3
 72
    12
 73
     8
 74
     0
 42
0.0000000001
 43
0.0000000001
 40
0.0
 40
0.0
 40
0.0
 40
0.0
 40
0.1463411183411369
 40
0.2853842069860231
 40
0.4774826785392335
 40
0.6695434217140405
 40
0.9551044705190225
 40
0.9551044705190225
 40
0.9551044705190225
 40
0.9551044705190225
 10
7.3927233833
 20
2.135695657233184
 30
0.0
 10
7.413281236588784
 20
2.092235288994199
 30
0.0
 10
7.468515601759259
 20
2.011139443753334
 30
0.0
 10
7.567462974376896
 20
1.892867635552798
 30
0.0
 10
7.737845440740765
 20
1.800191929265525
 30
0.0
 10
7.949823775274854
 20
1.918743261260477
 30
0.0
 10
8.034011522679057
 20
2.051490853594749
 30
0.0
 10
8.080723383299995
 20
2.135695657233184
 30
0.0
  0
SPLINE
  5
AD
330
1F
100
AcDbEntity
  8
Make2D visible lines
100
AcDbSpline
210
0.0
220
0.0
230
1.0
 70
    12
 71
     2
 72
     6
 73
     3
 74
     0
 42
0.0000000001
 43
0.0000000001
 40
0.0
 40
0.0
 40
0.0
 40
0.1228476419690088
 40
0.1228476419690088
 40
0.1228476419690088
 10
7.3927233833
 20
2.135695657233184
 30
0.0
 41
1.0
 10
7.35740756176717
 20
2.186799143881471
 30
0.0
 41
0.9832969456840381
 10
7.342723387830643
 20
2.247157644806792
 30
0.0
 41
1.0
  0
SPLINE
  5
AE
330
1F
100
AcDbEntity
  8
Make2D visible lines
100
AcDbSpline
210
0.0
220
0.0
230
1.0
 70
    12
 71
     2
 72
     6
 73
     3
 74
     0
 42
0.0000000001
 43
0.0000000001
 40
0.0
 40
0.0
 40
0.0
 40
0.1227840813427634
 40
0.1227840813427634
 40
0.1227840813427634
 10
8.080723383299995
 20
2.135695657233184
 30
0.0
 41
1.0
 10
8.115540250748406
 20
2.187022966392655
 30
0.0
 41
0.9848379823800321
 10
8.130723378769352
 20
2.247157644806793
 30
0.0
 41
1.0
  0
SPLINE
  5
AF
330
1F
100
AcDbEntity
  8
Default
100
AcDbSpline
210
0.0
220
0.0
230
1.0
 70
    12
 71
     2
 72
     6
 73
     3
 74
     0
 42
0.0000000001
 43
0.0000000001
 40
-0.0205148466803361
 40
-0.0205148466803361
 40
-0.0205148466803361
 40
0.0
 40
0.0
 40
0.0
 10
12.12739467758714
 20
1.321916756511124
 30
0.0
 41
1.0
 10
12.12465045721535
 20
1.331850316586209
 30
0.0
 41
0.9929165310438545
 10
12.12432822671823
 20
1.342150924790038
 30
0.0
 41
0.9999992470307488
  0
SPLINE
  5
B0
330
1F
100
AcDbEntity
  8
Default
100
AcDbSpline
210
0.0
220
0.0
230
1.0
 70
    12
 71
     2
 72
     6
 73
     3
 74
     0
 42
0.0000000001
 43
0.0000000001
 40
-0.1306670865212424
 40
-0.1306670865212424
 40
-0.1306670865212424
 40
0.0
 40
0.0
 40
0.0
 10
12.12432822671823
 20
1.342150924790038
 30
0.0
 41
1.0
 10
12.12708470200503
 20
1.259999371951817
 30
0.0
 41
0.7188571908882943
 10
12.20928139703665
 20
1.260000489392885
 30
0.0
 41
1.0
  0
SPLINE
  5
B1
330
1F
100
AcDbEntity
  8
Default
100
AcDbSpline
210
0.0
220
0.0
230
1.0
 70
    24
 71
     2
 72
     6
 73
     3
 74
     0
 42
0.0000000001
 43
0.0000000001
 40
-0.6179999986728006
 40
-0.6179999986728006
 40
-0.6179999986728006
 40
0.0
 40
0.0
 40
0.0
 10
12.20928139703665
 20
1.260000489392885
 30
0.0
 10
12.51828139637305
 20
1.260000489380662
 30
0.0
 10
12.82728139570945
 20
1.260000489368439
 30
0.0
  0
SPLINE
  5
B2
330
1F
100
AcDbEntity
  8
Default
100
AcDbSpline
210
0.0
220
0.0
230
1.0
 70
    12
 71
     2
 72
     6
 73
     3
 74
     0
 42
0.0000000001
 43
0.0000000001
 40
-0.1306642149348706
 40
-0.1306642149348706
 40
-0.1306642149348706
 40
0.0
 40
0.0
 40
0.0
 10
12.82728139570945
 20
1.260000489368439
 30
0.0
 41
1.0
 10
12.90947530938752
 20
1.259999377635789
 30
0.0
 41
0.7188689686272367
 10
12.91225732744545
 20
1.343573495961616
 30
0.0
 41
1.0
  0
LINE
  5
B3
330
1F
100
AcDbEntity
  8
Default
100
AcDbLine
 10
12.91225732744545
 20
1.343573495961616
 30
0.0
 11
12.91228150966132
 21
2.719999999999945
 31
0.0
  0
SPLINE
  5
B4
330
1F
100
AcDbEntity
  8
Default
100
AcDbSpline
210
0.0
220
0.0
230
1.0
 70
    12
 71
     2
 72
     8
 73
     5
 74
     0
 42
0.0000000001
 43
0.0000000001
 40
-0.0628318931243996
 40
-0.0628318931243996
 40
-0.0628318931243996
 40
-0.0314159465621985
 40
-0.0314159465621985
 40
0.0
 40
0.0
 40
0.0
 10
12.91228150966132
 20
2.719999999999945
 30
0.0
 41
1.0
 10
12.91228139573
 20
2.736568554226062
 30
0.0
 41
0.923879436714611
 10
12.90056565281673
 20
2.748284285408195
 30
0.0
 41
1.0
 10
12.88884990990345
 20
2.760000016590326
 30
0.0
 41
0.9238794367145934
 10
12.8722813556774
 20
2.759999999999986
 30
0.0
 41
1.0
  0
POLYLINE
  5
B5
330
1F
100
AcDbEntity
  8
Default
100
AcDb2dPolyline
 66
     1
 10
0.0
 20
0.0
 30
0.0
  0
VERTEX
  5
B6
330
B5
100
AcDbEntity
  8
Default
100
AcDbVertex
100
AcDb2dVertex
 10
12.8722813556774
 20
2.759999999999986
 30
0.0
  0
VERTEX
  5
B7
330
B5
100
AcDbEntity
  8
Default
100
AcDbVertex
100
AcDb2dVertex
 10
12.1642814370687
 20
2.759999999999986
 30
0.0
  0
SEQEND
  5
B8
330
B5
100
AcDbEntity
  8
Default
  0
SPLINE
  5
B9
330
1F
100
AcDbEntity
  8
Default
100
AcDbSpline
210
0.0
220
0.0
230
1.0
 70
    12
 71
     2
 72
     8
 73
     5
 74
     0
 42
0.0000000001
 43
0.0000000001
 40
0.0
 40
0.0
 40
0.0
 40
0.0314159465621985
 40
0.0314159465621985
 40
0.0628318931243996
 40
0.0628318931243996
 40
0.0628318931243996
 10
12.1642814370687
 20
2.759999999999986
 30
0.0
 41
1.0
 10
12.14771288284265
 20
2.760000016590326
 30
0.0
 41
0.9238794367145934
 10
12.13599713992938
 20
2.748284285408195
 30
0.0
 41
1.0
 10
12.1242813970161
 20
2.736568554226062
 30
0.0
 41
0.923879436714611
 10
12.12428128308478
 20
2.719999999999945
 30
0.0
 41
1.0
  0
LINE
  5
BA
330
1F
100
AcDbEntity
  8
Default
100
AcDbLine
 10
12.12428128308478
 20
2.719999999999945
 30
0.0
 11
12.12430546530065
 21
1.343573495961616
 31
0.0
  0
SPLINE
  5
BB
330
1F
100
AcDbEntity
  8
Make2D visible lines
100
AcDbSpline
210
0.0
220
0.0
230
1.0
 70
    24
 71
     2
 72
     6
 73
     3
 74
     0
 42
0.0000000001
 43
0.0000000001
 40
-2.415105423527796
 40
-2.415105423527796
 40
-2.415105423527796
 40
0.0
 40
0.0
 40
0.0
 10
12.98128139573
 20
2.487552711763898
 30
0.0
 10
12.98128139573
 20
1.278776359863449
 30
0.0
 10
12.98128139573
 20
0.0700000079629994
 30
0.0
  0
SPLINE
  5
BC
330
1F
100
AcDbEntity
  8
Make2D visible lines
100
AcDbSpline
210
0.0
220
0.0
230
1.0
 70
    12
 71
     2
 72
     8
 73
     5
 74
     0
 42
0.0000000001
 43
0.0000000001
 40
-0.1099557508386429
 40
-0.1099557508386429
 40
-0.1099557508386429
 40
-0.0549778754193212
 40
-0.0549778754193212
 40
0.0
 40
0.0
 40
0.0
 10
12.98128139573
 20
0.0700000079629994
 30
0.0
 41
1.0
 10
12.98128139243162
 20
0.0410050562645741
 30
0.0
 41
0.9238795216280429
 10
13.0017839182316
 20
0.0205025281322868
 30
0.0
 41
1.0
 10
13.02228644403157
 20
0.0
 30
0.0
 41
0.923879521628049
 10
13.05128139573
 20
0.0
 30
0.0
 41
1.0
  0
SPLINE
  5
BD
330
1F
100
AcDbEntity
  8
Make2D visible lines
100
AcDbSpline
210
0.0
220
0.0
230
1.0
 70
    24
 71
     2
 72
     6
 73
     3
 74
     0
 42
0.0000000001
 43
0.0000000001
 40
0.0
 40
0.0
 40
0.0
 40
0.3520000000000003
 40
0.3520000000000003
 40
0.3520000000000003
 10
13.05128139573
 20
0.0
 30
0.0
 10
13.22728139573
 20
0.0
 30
0.0
 10
13.40328139573
 20
0.0
 30
0.0
  0
SPLINE
  5
BE
330
1F
100
AcDbEntity
  8
Make2D visible lines
100
AcDbSpline
210
0.0
220
0.0
230
1.0
 70
    12
 71
     2
 72
     6
 73
     3
 74
     0
 42
0.0000000001
 43
0.0000000001
 40
0.0
 40
0.0
 40
0.0
 40
0.2356194483882336
 40
0.2356194483882336
 40
0.2356194483882336
 10
13.40328139573
 20
0.0
 30
0.0
 41
1.0
 10
13.553281395099
 20
0.0
 30
0.0
 41
0.7071067826738353
 10
13.55328139573
 20
0.1499999993689993
 30
0.0
 41
1.0
  0
SPLINE
  5
BF
330
1F
100
AcDbEntity
  8
Make2D visible lines
100
AcDbSpline
210
0.0
220
0.0
230
1.0
 70
    24
 71
     2
 72
     6
 73
     3
 74
     0
 42
0.0000000001
 43
0.0000000001
 40
-2.260000001262
 40
-2.260000001262
 40
-2.260000001262
 40
0.0
 40
0.0
 40
0.0
 10
13.55328139573
 20
0.1499999993689993
 30
0.0
 10
13.55328139573
 20
1.279999999999999
 30
0.0
 10
13.55328139573
 20
2.410000000630999
 30
0.0
  0
SPLINE
  5
C0
330
1F
100
AcDbEntity
  8
Make2D visible lines
100
AcDbSpline
210
0.0
220
0.0
230
1.0
 70
    12
 71
     2
 72
     6
 73
     3
 74
     0
 42
0.0000000001
 43
0.0000000001
 40
0.0
 40
0.0
 40
0.0
 40
0.2356194483882358
 40
0.2356194483882358
 40
0.2356194483882358
 10
13.55328139573
 20
2.410000000630999
 30
0.0
 41
1.0
 10
13.553281395099
 20
2.560000000000001
 30
0.0
 41
0.7071067826738272
 10
13.40328139573
 20
2.56
 30
0.0
 41
1.0
  0
SPLINE
  5
C1
330
1F
100
AcDbEntity
  8
Make2D visible lines
100
AcDbSpline
210
0.0
220
0.0
230
1.0
 70
    24
 71
     2
 72
     6
 73
     3
 74
     0
 42
0.0000000001
 43
0.0000000001
 40
0.0
 40
0.0
 40
0.0
 40
0.3520000000000003
 40
0.3520000000000003
 40
0.3520000000000003
 10
13.40328139573
 20
2.56
 30
0.0
 10
13.22728139573
 20
2.56
 30
0.0
 10
13.05128139573
 20
2.56
 30
0.0
  0
SPLINE
  5
C2
330
1F
100
AcDbEntity
  8
Make2D visible lines
100
AcDbSpline
210
0.0
220
0.0
230
1.0
 70
    12
 71
     2
 72
     8
 73
     5
 74
     0
 42
0.0000000001
 43
0.0000000001
 40
-0.1099557508386414
 40
-0.1099557508386414
 40
-0.1099557508386414
 40
-0.0549778754193184
 40
-0.0549778754193184
 40
0.0
 40
0.0
 40
0.0
 10
13.05128139573
 20
2.56
 30
0.0
 41
1.0
 10
13.02228644403157
 20
2.56
 30
0.0
 41
0.9238795216280236
 10
13.0017839182316
 20
2.53949747186771
 30
0.0
 41
1.0
 10
12.98128139243162
 20
2.518994943735425
 30
0.0
 41
0.9238795216280324
 10
12.98128139573
 20
2.487552711763898
 30
0.0
 41
1.0
  0
SPLINE
  5
C3
330
1F
100
AcDbEntity
  8
Make2D visible lines
100
AcDbSpline
210
0.0
220
0.0
230
1.0
 70
    24
 71
     2
 72
     6
 73
     3
 74
     0
 42
0.0000000001
 43
0.0000000001
 40
-2.415105433753071
 40
-2.415105433753071
 40
-2.415105433753071
 40
0.0
 40
0.0
 40
0.0
 10
12.05528139573
 20
2.487552716876536
 30
0.0
 10
12.05528139573
 20
1.278776359858268
 30
0.0
 10
12.05528139573
 20
0.0700000028400005
 30
0.0
  0
SPLINE
  5
C4
330
1F
100
AcDbEntity
  8
Make2D visible lines
100
AcDbSpline
210
0.0
220
0.0
230
1.0
 70
    12
 71
     2
 72
     6
 73
     3
 74
     0
 42
0.0000000001
 43
0.0000000001
 40
0.0
 40
0.0
 40
0.0
 40
0.1099557457156439
 40
0.1099557457156439
 40
0.1099557457156439
 10
12.05528139573
 20
0.0700000028400005
 30
0.0
 41
1.0
 10
12.05528139857
 20
0.0
 30
0.0
 41
0.7071067668423728
 10
11.98528139573
 20
-0.0000000000000001
 30
0.0
 41
1.0
  0
SPLINE
  5
C5
330
1F
100
AcDbEntity
  8
Make2D visible lines
100
AcDbSpline
210
0.0
220
0.0
230
1.0
 70
    24
 71
     2
 72
     6
 73
     3
 74
     0
 42
0.0000000001
 43
0.0000000001
 40
0.0
 40
0.0
 40
0.0
 40
0.3520000000000003
 40
0.3520000000000003
 40
0.3520000000000003
 10
11.98528139573
 20
-0.0000000000000001
 30
0.0
 10
11.80928139573
 20
0.0
 30
0.0
 10
11.63328139573
 20
0.0
 30
0.0
  0
SPLINE
  5
C6
330
1F
100
AcDbEntity
  8
Make2D visible lines
100
AcDbSpline
210
0.0
220
0.0
230
1.0
 70
    12
 71
     2
 72
     6
 73
     3
 74
     0
 42
0.0000000001
 43
0.0000000001
 40
0.0
 40
0.0
 40
0.0
 40
0.2356194519512337
 40
0.2356194519512337
 40
0.2356194519512337
 10
11.63328139573
 20
0.0
 30
0.0
 41
1.0
 10
11.483281392798
 20
0.000000000000002
 30
0.0
 41
0.7071067742757676
 10
11.48328139573
 20
0.1500000029319999
 30
0.0
 41
1.0
  0
SPLINE
  5
C7
330
1F
100
AcDbEntity
  8
Make2D visible lines
100
AcDbSpline
210
0.0
220
0.0
230
1.0
 70
    24
 71
     2
 72
     6
 73
     3
 74
     0
 42
0.0000000001
 43
0.0000000001
 40
0.0
 40
0.0
 40
0.0
 40
2.255429040880414
 40
2.255429040880414
 40
2.255429040880414
 10
11.48328139573
 20
0.1500000029319999
 30
0.0
 10
11.48328139573
 20
1.278857261686103
 30
0.0
 10
11.48328139573
 20
2.407714520440207
 30
0.0
  0
SPLINE
  5
C8
330
1F
100
AcDbEntity
  8
Make2D visible lines
100
AcDbSpline
210
0.0
220
0.0
230
1.0
 70
    12
 71
     2
 72
     6
 73
     3
 74
     0
 42
0.0000000001
 43
0.0000000001
 40
0.0
 40
0.0
 40
0.0
 40
0.2356194519512344
 40
0.2356194519512344
 40
0.2356194519512344
 10
11.48328139573
 20
2.407714520440207
 30
0.0
 41
1.0
 10
11.483281392798
 20
2.56
 30
0.0
 41
0.7071067742757604
 10
11.63328139573
 20
2.56
 30
0.0
 41
1.0
  0
SPLINE
  5
C9
330
1F
100
AcDbEntity
  8
Make2D visible lines
100
AcDbSpline
210
0.0
220
0.0
230
1.0
 70
    24
 71
     2
 72
     6
 73
     3
 74
     0
 42
0.0000000001
 43
0.0000000001
 40
0.0
 40
0.0
 40
0.0
 40
0.3520000000000003
 40
0.3520000000000003
 40
0.3520000000000003
 10
11.63328139573
 20
2.56
 30
0.0
 10
11.80928139573
 20
2.56
 30
0.0
 10
11.98528139573
 20
2.56
 30
0.0
  0
SPLINE
  5
CA
330
1F
100
AcDbEntity
  8
Make2D visible lines
100
AcDbSpline
210
0.0
220
0.0
230
1.0
 70
    12
 71
     2
 72
     6
 73
     3
 74
     0
 42
0.0000000001
 43
0.0000000001
 40
0.0
 40
0.0
 40
0.0
 40
0.1099557457156434
 40
0.1099557457156434
 40
0.1099557457156434
 10
11.98528139573
 20
2.56
 30
0.0
 41
1.0
 10
12.05528139857
 20
2.56
 30
0.0
 41
0.7071067668423767
 10
12.05528139573
 20
2.487552716876536
 30
0.0
 41
1.0
  0
SPLINE
  5
CB
330
1F
100
AcDbEntity
  8
Make2D visible lines
100
AcDbSpline
210
0.0
220
0.0
230
1.0
 70
    24
 71
     2
 72
     6
 73
     3
 74
     0
 42
0.0000000001
 43
0.0000000001
 40
0.0
 40
0.0
 40
0.0
 40
0.0689999999999991
 40
0.0689999999999991
 40
0.0689999999999991
 10
12.12428139573
 20
1.595000000000001
 30
0.0
 10
12.08978139573
 20
1.595000000000001
 30
0.0
 10
12.05528139573
 20
1.595000000000001
 30
0.0
  0
SPLINE
  5
CC
330
1F
100
AcDbEntity
  8
Make2D visible lines
100
AcDbSpline
210
0.0
220
0.0
230
1.0
 70
    24
 71
     2
 72
     6
 73
     3
 74
     0
 42
0.0000000001
 43
0.0000000001
 40
0.0
 40
0.0
 40
0.0
 40
0.9260000000000002
 40
0.9260000000000002
 40
0.9260000000000002
 10
12.05528139573
 20
0.9650000000000016
 30
0.0
 10
12.51828139573
 20
0.9650000000000016
 30
0.0
 10
12.98128139573
 20
0.9650000000000016
 30
0.0
  0
SPLINE
  5
CD
330
1F
100
AcDbEntity
  8
Make2D visible lines
100
AcDbSpline
210
0.0
220
0.0
230
1.0
 70
    24
 71
     2
 72
     6
 73
     3
 74
     0
 42
0.0000000001
 43
0.0000000001
 40
0.0
 40
0.0
 40
0.0
 40
0.0690000000000008
 40
0.0690000000000008
 40
0.0690000000000008
 10
12.98128139573
 20
1.595000000000001
 30
0.0
 10
12.94678139573
 20
1.595000000000001
 30
0.0
 10
12.91228139573
 20
1.595000000000001
 30
0.0
  0
SPLINE
  5
CE
330
1F
100
AcDbEntity
  8
Make2D visible lines
100
AcDbSpline
210
0.0
220
0.0
230
1.0
 70
     8
 71
     3
 72
    12
 73
     8
 74
     0
 42
0.0000000001
 43
0.0000000001
 40
0.0
 40
0.0
 40
0.0
 40
0.0
 40
0.1463411183411369
 40
0.2853842069860231
 40
0.4774826785392335
 40
0.6695434217140405
 40
0.9551044705190225
 40
0.9551044705190225
 40
0.9551044705190225
 40
0.9551044705190225
 10
12.17428139573
 20
2.135695657233184
 30
0.0
 10
12.19483924901879
 20
2.092235288994199
 30
0.0
 10
12.25007361418926
 20
2.011139443753334
 30
0.0
 10
12.3490209868069
 20
1.892867635552798
 30
0.0
 10
12.51940345317077
 20
1.800191929265525
 30
0.0
 10
12.73138178770486
 20
1.918743261260477
 30
0.0
 10
12.81556953510906
 20
2.051490853594749
 30
0.0
 10
12.86228139573
 20
2.135695657233184
 30
0.0
  0
SPLINE
  5
CF
330
1F
100
AcDbEntity
  8
Make2D visible lines
100
AcDbSpline
210
0.0
220
0.0
230
1.0
 70
    12
 71
     2
 72
     6
 73
     3
 74
     0
 42
0.0000000001
 43
0.0000000001
 40
0.0
 40
0.0
 40
0.0
 40
0.1228476419690088
 40
0.1228476419690088
 40
0.1228476419690088
 10
12.17428139573
 20
2.135695657233184
 30
0.0
 41
1.0
 10
12.13896557419717
 20
2.186799143881471
 30
0.0
 41
0.9832969456840381
 10
12.12428140026065
 20
2.247157644806792
 30
0.0
 41
1.0
  0
SPLINE
  5
D0
330
1F
100
AcDbEntity
  8
Make2D visible lines
100
AcDbSpline
210
0.0
220
0.0
230
1.0
 70
    12
 71
     2
 72
     6
 73
     3
 74
     0
 42
0.0000000001
 43
0.0000000001
 40
0.0
 40
0.0
 40
0.0
 40
0.1227840813427634
 40
0.1227840813427634
 40
0.1227840813427634
 10
12.86228139573
 20
2.135695657233184
 30
0.0
 41
1.0
 10
12.89709826317841
 20
2.187022966392655
 30
0.0
 41
0.9848379823800321
 10
12.91228139119935
 20
2.247157644806793
 30
0.0
 41
1.0
  0
SPLINE
  5
D1
330
1F
100
AcDbEntity
  8
Make2D visible lines
100
AcDbSpline
210
0.0
220
0.0
230
1.0
 70
    12
 71
     2
 72
     6
 73
     3
 74
     0
 42
0.0000000001
 43
0.0000000001
 40
0.0
 40
0.0
 40
0.0
 40
0.0483212497416666
 40
0.0483212497416666
 40
0.0483212497416666
 10
7.339092164560495
 20
2.788441279212112
 30
0.0
 41
1.0
 10
7.344577707264786
 20
2.760100728064051
 30
0.0
 41
0.7724816427213782
 10
7.373444086878428
 20
2.760000000026418
 30
0.0
 41
1.0
  0
SPLINE
  5
D2
330
1F
100
AcDbEntity
  8
Make2D visible lines
100
AcDbSpline
210
0.0
220
0.0
230
1.0
 70
    12
 71
     2
 72
     8
 73
     5
 74
     0
 42
0.0000000001
 43
0.0000000001
 40
0.0
 40
0.0
 40
0.0
 40
0.0286061523138886
 40
0.0286061523138886
 40
0.0572123046277773
 40
0.0572123046277773
 40
0.0572123046277773
 10
8.09179832887641
 20
2.760000000000004
 30
0.0
 41
1.0
 10
8.106948194180319
 20
2.760056392118597
 30
0.0
 41
0.9182200393676768
 10
8.11730386400521
 20
2.771114497800655
 30
0.0
 41
1.0
 10
8.127659533830098
 20
2.782172603482712
 30
0.0
 41
0.9182200393676768
 10
8.12672295131464
 20
2.79729359591011
 30
0.0
 41
1.0
  0
SPLINE
  5
D3
330
1F
100
AcDbEntity
  8
Make2D visible lines
100
AcDbSpline
210
0.0
220
0.0
230
1.0
 70
    12
 71
     2
 72
     8
 73
     5
 74
     0
 42
0.0000000001
 43
0.0000000001
 40
0.0
 40
0.0
 40
0.0
 40
0.0281928929716271
 40
0.0281928929716271
 40
0.0563857859432542
 40
0.0563857859432542
 40
0.0563857859432542
 10
12.87419962211639
 20
2.760000000033125
 30
0.0
 41
1.0
 10
12.8891051433937
 20
2.760054542525548
 30
0.0
 41
0.9205244397931974
 10
12.89942123268554
 20
2.770813531379281
 30
0.0
 41
1.0
 10
12.90973732197737
 20
2.781572520233012
 30
0.0
 41
0.9205244397931974
 10
12.90916560420659
 20
2.796467172905111
 30
0.0
 41
1.0
  0
SPLINE
  5
D4
330
1F
100
AcDbEntity
  8
Make2D visible lines - Tangent
100
AcDbSpline
210
0.0
220
0.0
230
1.0
 70
     8
 71
     3
 72
    11
 73
     7
 74
     0
 42
0.0000000001
 43
0.0000000001
 40
-0.7386030843065078
 40
-0.7386030843065078
 40
-0.7386030843065078
 40
-0.7386030843065078
 40
-0.3141361316168274
 40
-0.1452787980732192
 40
-0.0706522820738642
 40
0.0
 40
0.0
 40
0.0
 40
0.0
 10
0.3694721734610606
 20
3.739901380785775
 30
0.0
 10
0.3623696674723007
 20
3.880125352297963
 30
0.0
 10
0.3168498802065578
 20
4.08131084374745
 30
0.0
 10
0.1672431529643266
 20
4.252393228620664
 30
0.0
 10
0.0716772847736351
 20
4.299262188269639
 30
0.0
 10
0.0236962094207662
 20
4.307091201466158
 30
0.0
 10
0.0000032653121318
 20
4.307063383217811
 30
0.0
  0
SPLINE
  5
D5
330
1F
100
AcDbEntity
  8
Make2D visible lines - Tangent
100
AcDbSpline
210
0.0
220
0.0
230
1.0
 70
     8
 71
     3
 72
    11
 73
     7
 74
     0
 42
0.0000000001
 43
0.0000000001
 40
0.0
 40
0.0
 40
0.0
 40
0.0
 40
0.0706588126847526
 40
0.1452853286841054
 40
0.3141426622277108
 40
0.7386081388400023
 40
0.7386081388400023
 40
0.7386081388400023
 40
0.7386081388400023
 10
0.0000032653121318
 20
4.307063383217811
 30
0.0
 10
-0.0236918657242597
 20
4.307091899015024
 30
0.0
 10
-0.0716753146773375
 20
4.299263167152766
 30
0.0
 10
-0.1672431439844395
 20
4.252393224364116
 30
0.0
 10
-0.3168495639057287
 20
4.081311231398825
 30
0.0
 10
-0.3623694260001908
 20
3.880126339338435
 30
0.0
 10
-0.3694721094709443
 20
3.739902855478209
 30
0.0
  0
SPLINE
  5
D6
330
1F
100
AcDbEntity
  8
Make2D visible lines - Tangent
100
AcDbSpline
210
0.0
220
0.0
230
1.0
 70
     8
 71
     3
 72
    10
 73
     6
 74
     0
 42
0.0000000001
 43
0.0000000001
 40
0.0
 40
0.0
 40
0.0
 40
0.0
 40
0.9325163551893328
 40
1.201969207291272
 40
1.321746330228334
 40
1.321746330228334
 40
1.321746330228334
 40
1.321746330228334
 10
-0.4922361881355855
 20
4.312547573972912
 30
0.0
 10
-0.4781444779559614
 20
4.623074921349136
 30
0.0
 10
-0.4518634598309603
 20
5.022888491869843
 30
0.0
 10
-0.4248667814347975
 20
5.462639508991959
 30
0.0
 10
-0.4137931651459663
 20
5.591924565014583
 30
0.0
 10
-0.40734788353494
 20
5.631381523326024
 30
0.0
  0
SPLINE
  5
D7
330
1F
100
AcDbEntity
  8
Make2D visible lines - Tangent
100
AcDbSpline
210
0.0
220
0.0
230
1.0
 70
     8
 71
     3
 72
    14
 73
    10
 74
     0
 42
0.0000000001
 43
0.0000000001
 40
0.0
 40
0.0
 40
0.0
 40
0.0
 40
1.0
 40
2.0
 40
3.0
 40
4.0
 40
5.0
 40
6.0
 40
7.0
 40
7.0
 40
7.0
 40
7.0
 10
-0.40734788353494
 20
5.631381523326024
 30
0.0
 10
-0.3987132793635011
 20
5.700251292020925
 30
0.0
 10
-0.366388363362373
 20
5.834900712213313
 30
0.0
 10
-0.2811332489969679
 20
6.027827083836947
 30
0.0
 10
-0.1106055230578875
 20
6.161541295642544
 30
0.0
 10
0.110605503527551
 20
6.16154130441812
 30
0.0
 10
0.2811332478089688
 20
6.027827090257112
 30
0.0
 10
0.3663883611175909
 20
5.83490071215478
 30
0.0
 10
0.3987132743976017
 20
5.700251319852618
 30
0.0
 10
0.4073478837483213
 20
5.631381523390508
 30
0.0
  0
SPLINE
  5
D8
330
1F
100
AcDbEntity
  8
Make2D visible lines - Tangent
100
AcDbSpline
210
0.0
220
0.0
230
1.0
 70
     8
 71
     3
 72
    10
 73
     6
 74
     0
 42
0.0000000001
 43
0.0000000001
 40
-1.320997012290119
 40
-1.320997012290119
 40
-1.320997012290119
 40
-1.320997012290119
 40
-1.207504293467593
 40
-0.9725110545717917
 40
0.0
 40
0.0
 40
0.0
 40
0.0
 10
0.4073478837483213
 20
5.631381523390508
 30
0.0
 10
0.4133345900279615
 20
5.593988089779013
 30
0.0
 10
0.423801054350939
 20
5.478277267718975
 30
0.0
 10
0.4508886585945078
 20
5.038783424917222
 30
0.0
 10
0.4774380453713576
 20
4.637135479399406
 30
0.0
 10
0.4922052179077561
 20
4.313294790905834
 30
0.0
  0
SPLINE
  5
D9
330
1F
100
AcDbEntity
  8
Make2D visible lines
100
AcDbSpline
210
0.0
220
0.0
230
1.0
 70
    12
 71
     2
 72
     6
 73
     3
 74
     0
 42
0.0000000001
 43
0.0000000001
 40
0.0
 40
0.0
 40
0.0
 40
0.715017489309887
 40
0.715017489309887
 40
0.715017489309887
 10
-8.126722355013005
 20
2.79730837210623
 30
0.0
 41
1.0
 10
-8.104889429230154
 20
3.154150786496702
 30
0.0
 41
0.9999959930683374
 10
-8.08507719706722
 20
3.511111093551959
 30
0.0
 41
1.0
  0
SPLINE
  5
DA
330
1F
100
AcDbEntity
  8
Make2D visible lines - Tangent
100
AcDbSpline
210
0.0
220
0.0
230
1.0
 70
    12
 71
     3
 72
    12
 73
     8
 74
     0
 42
0.0000000001
 43
0.0000000001
 40
-0.7166866764941487
 40
-0.7166866764941487
 40
-0.7166866764941487
 40
-0.7166866764941487
 40
0.0
 40
0.0
 40
0.0
 40
5.426935465500462
 40
6.005717626902
 40
6.005717626902
 40
6.005717626902
 40
6.005717626902
 10
-0.6170939324199887
 20
4.144275746056073
 30
0.0
 41
1.0
 10
-0.8549403253933607
 20
4.121609837324083
 30
0.0
 41
0.9997624307684584
 10
-1.092096912421841
 20
4.092602884742096
 30
0.0
 41
0.9997624307684584
 10
-1.328394670181023
 20
4.057275561788416
 30
0.0
 41
1.0
 10
-3.117482356701391
 20
3.789800833743934
 30
0.0
 41
1.0
 10
-4.962818904875473
 20
3.51835316869112
 30
0.0
 41
1.0
 10
-6.858249519855342
 20
3.232953152428765
 30
0.0
 41
1.0
 10
-7.190070262656594
 20
3.097166056710528
 30
0.0
 41
1.0
  0
SPLINE
  5
DB
330
1F
100
AcDbEntity
  8
Make2D visible lines - Tangent
100
AcDbSpline
210
0.0
220
0.0
230
1.0
 70
     8
 71
     3
 72
    11
 73
     7
 74
     0
 42
0.0000000001
 43
0.0000000001
 40
0.0
 40
0.0
 40
0.0
 40
0.0
 40
0.066894803380304
 40
0.1150772171461536
 40
0.2142351287725906
 40
0.3577299678759472
 40
0.3577299678759472
 40
0.3577299678759472
 40
0.3577299678759472
 10
-7.190070262656594
 20
3.097166056710528
 30
0.0
 10
-7.208121581512791
 20
3.085283282473688
 30
0.0
 10
-7.24451976032389
 20
3.067447034369017
 30
0.0
 10
-7.287917173120947
 20
3.010049314205599
 30
0.0
 10
-7.308915743437923
 20
2.912711916718788
 30
0.0
 10
-7.331854348652731
 20
2.837086405743809
 30
0.0
 10
-7.338967423585012
 20
2.788958449657228
 30
0.0
  0
SPLINE
  5
DC
330
1F
100
AcDbEntity
  8
Default
100
AcDbSpline
210
0.0
220
0.0
230
1.0
 70
    12
 71
     2
 72
     6
 73
     3
 74
     0
 42
0.0000000001
 43
0.0000000001
 40
-0.0405034352679367
 40
-0.0405034352679367
 40
-0.0405034352679367
 40
0.0
 40
0.0
 40
0.0
 10
-12.14911371442322
 20
2.760035477590776
 30
0.0
 41
1.0
 10
-12.12629078105089
 20
2.761184994890809
 30
0.0
 41
0.8377474461443447
 10
-12.11806098244238
 20
2.782509390905094
 30
0.0
 41
1.0
  0
SPLINE
  5
DD
330
1F
100
AcDbEntity
  8
Default
100
AcDbSpline
210
0.0
220
0.0
230
1.0
 70
     8
 71
     3
 72
    11
 73
     7
 74
     0
 42
0.0000000001
 43
0.0000000001
 40
-0.5190498716913017
 40
-0.5190498716913017
 40
-0.5190498716913017
 40
-0.5190498716913017
 40
-0.3020474028680822
 40
-0.2374224159260925
 40
-0.1669895205952948
 40
0.0
 40
0.0
 40
0.0
 40
0.0
 10
-12.11806098244238
 20
2.782509390905094
 30
0.0
 10
-12.09223346747857
 20
2.850638090585806
 30
0.0
 10
-12.02956425645359
 20
2.924693852895348
 30
0.0
 10
-11.93187101904603
 20
2.989616466604408
 30
0.0
 10
-11.84364717303091
 20
3.038432671694692
 30
0.0
 10
-11.77004209026178
 20
3.068032893056389
 30
0.0
 10
-11.71556540523546
 20
3.087346865324408
 30
0.0
  0
SPLINE
  5
DE
330
1F
100
AcDbEntity
  8
Default
100
AcDbSpline
210
0.0
220
0.0
230
1.0
 70
     8
 71
     3
 72
    11
 73
     7
 74
     0
 42
0.0000000001
 43
0.0000000001
 40
-9.62873534496378
 40
-9.62873534496378
 40
-9.62873534496378
 40
-9.62873534496378
 40
-9.235760971098028
 40
-8.993257344707228
 40
-8.729254607404698
 40
0.0
 40
0.0
 40
0.0
 40
0.0
 10
-11.71556540523546
 20
3.087346865324408
 30
0.0
 10
-11.58988661813639
 20
3.132737362778273
 30
0.0
 10
-11.38308034450261
 20
3.177620608886414
 30
0.0
 10
-11.08778954878018
 20
3.232731597892199
 30
0.0
 10
-8.022689235877312
 20
3.520429176121879
 30
0.0
 10
-5.036998118275312
 20
3.789332298799763
 30
0.0
 10
-2.13965468369018
 20
4.057697784693569
 30
0.0
  0
ARC
  5
DF
330
1F
100
AcDbEntity
  8
Default
100
AcDbCircle
 10
3.866135974223456
 20
-60.78237684056489
 30
0.0
 40
65.11762279779389
100
AcDbArc
 50
94.26441233900313
 51
95.29190360224223
  0
SPLINE
  5
E0
330
1F
100
AcDbEntity
  8
Default
100
AcDbSpline
210
0.0
220
0.0
230
1.0
 70
    12
 71
     2
 72
     6
 73
     3
 74
     0
 42
0.0000000001
 43
0.0000000001
 40
0.0
 40
0.0
 40
0.0
 40
0.1645726248110703
 40
0.1645726248110703
 40
0.1645726248110703
 10
-0.975967409105224
 20
4.154968606111039
 30
0.0
 41
1.0
 10
-0.893930876010418
 20
4.148116645719011
 30
0.0
 41
0.999346492540072
 10
-0.8116136902486488
 20
4.147209423754928
 30
0.0
 41
1.0
  0
POLYLINE
  5
E1
330
1F
100
AcDbEntity
  8
Default
100
AcDb2dPolyline
 66
     1
 10
0.0
 20
0.0
 30
0.0
  0
VERTEX
  5
E2
330
E1
100
AcDbEntity
  8
Default
100
AcDbVertex
100
AcDb2dVertex
 10
-0.8116136902486488
 20
4.147209423754928
 30
0.0
  0
VERTEX
  5
E3
330
E1
100
AcDbEntity
  8
Default
100
AcDbVertex
100
AcDb2dVertex
 10
-0.4595528730361971
 20
4.147209423754928
 30
0.0
  0
SEQEND
  5
E4
330
E1
100
AcDbEntity
  8
Default
  0
SPLINE
  5
E5
330
1F
100
AcDbEntity
  8
Default
100
AcDbSpline
210
0.0
220
0.0
230
1.0
 70
    12
 71
     2
 72
     6
 73
     3
 74
     0
 42
0.0000000001
 43
0.0000000001
 40
-0.0205148466803361
 40
-0.0205148466803361
 40
-0.0205148466803361
 40
0.0
 40
0.0
 40
0.0
 10
0.3908867181428572
 20
1.321916756511124
 30
0.0
 41
1.0
 10
0.3936309385146441
 20
1.331850316586209
 30
0.0
 41
0.9929165310438545
 10
0.3939531690117691
 20
1.342150924790038
 30
0.0
 41
0.9999992470307488
  0
SPLINE
  5
E6
330
1F
100
AcDbEntity
  8
Default
100
AcDbSpline
210
0.0
220
0.0
230
1.0
 70
    12
 71
     2
 72
     6
 73
     3
 74
     0
 42
0.0000000001
 43
0.0000000001
 40
-0.1306670865212424
 40
-0.1306670865212424
 40
-0.1306670865212424
 40
0.0
 40
0.0
 40
0.0
 10
0.3939531690117697
 20
1.342150924790038
 30
0.0
 41
1.0
 10
0.3911966937249701
 20
1.259999371951817
 30
0.0
 41
0.7188571908882943
 10
0.3089999986933485
 20
1.260000489392885
 30
0.0
 41
1.0
  0
SPLINE
  5
E7
330
1F
100
AcDbEntity
  8
Default
100
AcDbSpline
210
0.0
220
0.0
230
1.0
 70
    24
 71
     2
 72
     6
 73
     3
 74
     0
 42
0.0000000001
 43
0.0000000001
 40
-0.6179999986728006
 40
-0.6179999986728006
 40
-0.6179999986728006
 40
0.0
 40
0.0
 40
0.0
 10
0.3089999986933485
 20
1.260000489392885
 30
0.0
 10
-0.0000000006430518
 20
1.260000489380662
 30
0.0
 10
-0.3089999999794522
 20
1.260000489368439
 30
0.0
  0
SPLINE
  5
E8
330
1F
100
AcDbEntity
  8
Default
100
AcDbSpline
210
0.0
220
0.0
230
1.0
 70
    12
 71
     2
 72
     6
 73
     3
 74
     0
 42
0.0000000001
 43
0.0000000001
 40
-0.1306642149348706
 40
-0.1306642149348706
 40
-0.1306642149348706
 40
0.0
 40
0.0
 40
0.0
 10
-0.3089999999794522
 20
1.260000489368439
 30
0.0
 41
1.0
 10
-0.3911939136575184
 20
1.259999377635789
 30
0.0
 41
0.7188689686272367
 10
-0.393975931715449
 20
1.343573495961616
 30
0.0
 41
1.0
  0
LINE
  5
E9
330
1F
100
AcDbEntity
  8
Default
100
AcDbLine
 10
-0.393975931715449
 20
1.343573495961616
 30
0.0
 11
-0.3940001139313196
 21
2.719999999999945
 31
0.0
  0
SPLINE
  5
EA
330
1F
100
AcDbEntity
  8
Default
100
AcDbSpline
210
0.0
220
0.0
230
1.0
 70
    12
 71
     2
 72
     8
 73
     5
 74
     0
 42
0.0000000001
 43
0.0000000001
 40
-0.0628318931243996
 40
-0.0628318931243996
 40
-0.0628318931243996
 40
-0.0314159465621985
 40
-0.0314159465621985
 40
0.0
 40
0.0
 40
0.0
 10
-0.3940001139313196
 20
2.719999999999945
 30
0.0
 41
1.0
 10
-0.3940000000000003
 20
2.736568554226062
 30
0.0
 41
0.923879436714611
 10
-0.3822842570867273
 20
2.748284285408195
 30
0.0
 41
1.0
 10
-0.3705685141734518
 20
2.760000016590326
 30
0.0
 41
0.9238794367145934
 10
-0.3539999599474015
 20
2.759999999999986
 30
0.0
 41
1.0
  0
POLYLINE
  5
EB
330
1F
100
AcDbEntity
  8
Default
100
AcDb2dPolyline
 66
     1
 10
0.0
 20
0.0
 30
0.0
  0
VERTEX
  5
EC
330
EB
100
AcDbEntity
  8
Default
100
AcDbVertex
100
AcDb2dVertex
 10
-0.3539999599474015
 20
2.759999999999986
 30
0.0
  0
VERTEX
  5
ED
330
EB
100
AcDbEntity
  8
Default
100
AcDbVertex
100
AcDb2dVertex
 10
0.3539999586612979
 20
2.759999999999986
 30
0.0
  0
SEQEND
  5
EE
330
EB
100
AcDbEntity
  8
Default
  0
SPLINE
  5
EF
330
1F
100
AcDbEntity
  8
Default
100
AcDbSpline
210
0.0
220
0.0
230
1.0
 70
    12
 71
     2
 72
     8
 73
     5
 74
     0
 42
0.0000000001
 43
0.0000000001
 40
0.0
 40
0.0
 40
0.0
 40
0.0314159465621985
 40
0.0314159465621985
 40
0.0628318931243996
 40
0.0628318931243996
 40
0.0628318931243996
 10
0.3539999586612979
 20
2.759999999999986
 30
0.0
 41
1.0
 10
0.3705685128873479
 20
2.760000016590326
 30
0.0
 41
0.9238794367145934
 10
0.3822842558006236
 20
2.748284285408195
 30
0.0
 41
1.0
 10
0.3939999987138978
 20
2.736568554226062
 30
0.0
 41
0.923879436714611
 10
0.3940001126452159
 20
2.719999999999945
 30
0.0
 41
1.0
  0
LINE
  5
F0
330
1F
100
AcDbEntity
  8
Default
100
AcDbLine
 10
0.3940001126452159
 20
2.719999999999945
 30
0.0
 11
0.3939759304293453
 21
1.343573495961616
 31
0.0
  0
SPLINE
  5
F1
330
1F
100
AcDbEntity
  8
Make2D visible lines
100
AcDbSpline
210
0.0
220
0.0
230
1.0
 70
    24
 71
     2
 72
     6
 73
     3
 74
     0
 42
0.0000000001
 43
0.0000000001
 40
-2.415105423527796
 40
-2.415105423527796
 40
-2.415105423527796
 40
0.0
 40
0.0
 40
0.0
 10
-0.463000000000001
 20
2.487552711763898
 30
0.0
 10
-0.463000000000001
 20
1.278776359863449
 30
0.0
 10
-0.463000000000001
 20
0.0700000079629994
 30
0.0
  0
SPLINE
  5
F2
330
1F
100
AcDbEntity
  8
Make2D visible lines
100
AcDbSpline
210
0.0
220
0.0
230
1.0
 70
    12
 71
     2
 72
     8
 73
     5
 74
     0
 42
0.0000000001
 43
0.0000000001
 40
-0.1099557508386429
 40
-0.1099557508386429
 40
-0.1099557508386429
 40
-0.0549778754193212
 40
-0.0549778754193212
 40
0.0
 40
0.0
 40
0.0
 10
-0.463000000000001
 20
0.0700000079629994
 30
0.0
 41
1.0
 10
-0.4629999967016183
 20
0.0410050562645741
 30
0.0
 41
0.9238795216280429
 10
-0.4835025225015954
 20
0.0205025281322868
 30
0.0
 41
1.0
 10
-0.5040050483015753
 20
0.0
 30
0.0
 41
0.923879521628049
 10
-0.5329999999999995
 20
0.0
 30
0.0
 41
1.0
  0
SPLINE
  5
F3
330
1F
100
AcDbEntity
  8
Make2D visible lines
100
AcDbSpline
210
0.0
220
0.0
230
1.0
 70
    24
 71
     2
 72
     6
 73
     3
 74
     0
 42
0.0000000001
 43
0.0000000001
 40
0.0
 40
0.0
 40
0.0
 40
0.3520000000000003
 40
0.3520000000000003
 40
0.3520000000000003
 10
-0.5329999999999995
 20
0.0
 30
0.0
 10
-0.7089999999999987
 20
0.0
 30
0.0
 10
-0.884999999999998
 20
0.0
 30
0.0
  0
SPLINE
  5
F4
330
1F
100
AcDbEntity
  8
Make2D visible lines
100
AcDbSpline
210
0.0
220
0.0
230
1.0
 70
    12
 71
     2
 72
     6
 73
     3
 74
     0
 42
0.0000000001
 43
0.0000000001
 40
0.0
 40
0.0
 40
0.0
 40
0.2356194483882336
 40
0.2356194483882336
 40
0.2356194483882336
 10
-0.884999999999998
 20
0.0
 30
0.0
 41
1.0
 10
-1.034999999368996
 20
0.0
 30
0.0
 41
0.7071067826738353
 10
-1.035
 20
0.1499999993689993
 30
0.0
 41
1.0
  0
SPLINE
  5
F5
330
1F
100
AcDbEntity
  8
Make2D visible lines
100
AcDbSpline
210
0.0
220
0.0
230
1.0
 70
    24
 71
     2
 72
     6
 73
     3
 74
     0
 42
0.0000000001
 43
0.0000000001
 40
-2.260000001262
 40
-2.260000001262
 40
-2.260000001262
 40
0.0
 40
0.0
 40
0.0
 10
-1.035
 20
0.1499999993689993
 30
0.0
 10
-1.035
 20
1.279999999999999
 30
0.0
 10
-1.035
 20
2.410000000630999
 30
0.0
  0
SPLINE
  5
F6
330
1F
100
AcDbEntity
  8
Make2D visible lines
100
AcDbSpline
210
0.0
220
0.0
230
1.0
 70
    12
 71
     2
 72
     6
 73
     3
 74
     0
 42
0.0000000001
 43
0.0000000001
 40
0.0
 40
0.0
 40
0.0
 40
0.2356194483882358
 40
0.2356194483882358
 40
0.2356194483882358
 10
-1.035
 20
2.410000000630999
 30
0.0
 41
1.0
 10
-1.034999999369002
 20
2.560000000000001
 30
0.0
 41
0.7071067826738272
 10
-0.884999999999998
 20
2.56
 30
0.0
 41
1.0
  0
SPLINE
  5
F7
330
1F
100
AcDbEntity
  8
Make2D visible lines
100
AcDbSpline
210
0.0
220
0.0
230
1.0
 70
    24
 71
     2
 72
     6
 73
     3
 74
     0
 42
0.0000000001
 43
0.0000000001
 40
0.0
 40
0.0
 40
0.0
 40
0.3520000000000003
 40
0.3520000000000003
 40
0.3520000000000003
 10
-0.884999999999998
 20
2.56
 30
0.0
 10
-0.7089999999999987
 20
2.56
 30
0.0
 10
-0.5329999999999995
 20
2.56
 30
0.0
  0
SPLINE
  5
F8
330
1F
100
AcDbEntity
  8
Make2D visible lines
100
AcDbSpline
210
0.0
220
0.0
230
1.0
 70
    12
 71
     2
 72
     8
 73
     5
 74
     0
 42
0.0000000001
 43
0.0000000001
 40
-0.1099557508386414
 40
-0.1099557508386414
 40
-0.1099557508386414
 40
-0.0549778754193184
 40
-0.0549778754193184
 40
0.0
 40
0.0
 40
0.0
 10
-0.5329999999999995
 20
2.56
 30
0.0
 41
1.0
 10
-0.5040050483015742
 20
2.56
 30
0.0
 41
0.9238795216280236
 10
-0.4835025225015972
 20
2.53949747186771
 30
0.0
 41
1.0
 10
-0.4629999967016187
 20
2.518994943735425
 30
0.0
 41
0.9238795216280324
 10
-0.463000000000001
 20
2.487552711763898
 30
0.0
 41
1.0
  0
SPLINE
  5
F9
330
1F
100
AcDbEntity
  8
Make2D visible lines
100
AcDbSpline
210
0.0
220
0.0
230
1.0
 70
    24
 71
     2
 72
     6
 73
     3
 74
     0
 42
0.0000000001
 43
0.0000000001
 40
-2.415105433753071
 40
-2.415105433753071
 40
-2.415105433753071
 40
0.0
 40
0.0
 40
0.0
 10
0.463000000000001
 20
2.487552716876536
 30
0.0
 10
0.463000000000001
 20
1.278776359858268
 30
0.0
 10
0.463000000000001
 20
0.0700000028400005
 30
0.0
  0
SPLINE
  5
FA
330
1F
100
AcDbEntity
  8
Make2D visible lines
100
AcDbSpline
210
0.0
220
0.0
230
1.0
 70
    12
 71
     2
 72
     6
 73
     3
 74
     0
 42
0.0000000001
 43
0.0000000001
 40
0.0
 40
0.0
 40
0.0
 40
0.1099557457156439
 40
0.1099557457156439
 40
0.1099557457156439
 10
0.463000000000001
 20
0.0700000028400005
 30
0.0
 41
1.0
 10
0.4629999971599989
 20
0.0
 30
0.0
 41
0.7071067668423728
 10
0.5330000000000013
 20
-0.0000000000000001
 30
0.0
 41
1.0
  0
SPLINE
  5
FB
330
1F
100
AcDbEntity
  8
Make2D visible lines
100
AcDbSpline
210
0.0
220
0.0
230
1.0
 70
    24
 71
     2
 72
     6
 73
     3
 74
     0
 42
0.0000000001
 43
0.0000000001
 40
0.0
 40
0.0
 40
0.0
 40
0.3520000000000003
 40
0.3520000000000003
 40
0.3520000000000003
 10
0.5330000000000013
 20
-0.0000000000000001
 30
0.0
 10
0.7090000000000014
 20
0.0
 30
0.0
 10
0.8850000000000016
 20
0.0
 30
0.0
  0
SPLINE
  5
FC
330
1F
100
AcDbEntity
  8
Make2D visible lines
100
AcDbSpline
210
0.0
220
0.0
230
1.0
 70
    12
 71
     2
 72
     6
 73
     3
 74
     0
 42
0.0000000001
 43
0.0000000001
 40
0.0
 40
0.0
 40
0.0
 40
0.2356194519512337
 40
0.2356194519512337
 40
0.2356194519512337
 10
0.8850000000000016
 20
0.0
 30
0.0
 41
1.0
 10
1.035000002932
 20
0.000000000000002
 30
0.0
 41
0.7071067742757676
 10
1.035
 20
0.1500000029319999
 30
0.0
 41
1.0
  0
SPLINE
  5
FD
330
1F
100
AcDbEntity
  8
Make2D visible lines
100
AcDbSpline
210
0.0
220
0.0
230
1.0
 70
    24
 71
     2
 72
     6
 73
     3
 74
     0
 42
0.0000000001
 43
0.0000000001
 40
0.0
 40
0.0
 40
0.0
 40
2.255429040880414
 40
2.255429040880414
 40
2.255429040880414
 10
1.035
 20
0.1500000029319999
 30
0.0
 10
1.035
 20
1.278857261686103
 30
0.0
 10
1.035
 20
2.407714520440207
 30
0.0
  0
SPLINE
  5
FE
330
1F
100
AcDbEntity
  8
Make2D visible lines
100
AcDbSpline
210
0.0
220
0.0
230
1.0
 70
    12
 71
     2
 72
     6
 73
     3
 74
     0
 42
0.0000000001
 43
0.0000000001
 40
0.0
 40
0.0
 40
0.0
 40
0.2356194519512344
 40
0.2356194519512344
 40
0.2356194519512344
 10
1.035
 20
2.407714520440207
 30
0.0
 41
1.0
 10
1.035000002932001
 20
2.56
 30
0.0
 41
0.7071067742757604
 10
0.8850000000000016
 20
2.56
 30
0.0
 41
1.0
  0
SPLINE
  5
FF
330
1F
100
AcDbEntity
  8
Make2D visible lines
100
AcDbSpline
210
0.0
220
0.0
230
1.0
 70
    24
 71
     2
 72
     6
 73
     3
 74
     0
 42
0.0000000001
 43
0.0000000001
 40
0.0
 40
0.0
 40
0.0
 40
0.3520000000000003
 40
0.3520000000000003
 40
0.3520000000000003
 10
0.8850000000000016
 20
2.56
 30
0.0
 10
0.7090000000000014
 20
2.56
 30
0.0
 10
0.5330000000000013
 20
2.56
 30
0.0
  0
SPLINE
  5
100
330
1F
100
AcDbEntity
  8
Make2D visible lines
100
AcDbSpline
210
0.0
220
0.0
230
1.0
 70
    12
 71
     2
 72
     6
 73
     3
 74
     0
 42
0.0000000001
 43
0.0000000001
 40
0.0
 40
0.0
 40
0.0
 40
0.1099557457156434
 40
0.1099557457156434
 40
0.1099557457156434
 10
0.5330000000000013
 20
2.56
 30
0.0
 41
1.0
 10
0.46299999716
 20
2.56
 30
0.0
 41
0.7071067668423767
 10
0.463000000000001
 20
2.487552716876536
 30
0.0
 41
1.0
  0
SPLINE
  5
101
330
1F
100
AcDbEntity
  8
Make2D visible lines
100
AcDbSpline
210
0.0
220
0.0
230
1.0
 70
    24
 71
     2
 72
     6
 73
     3
 74
     0
 42
0.0000000001
 43
0.0000000001
 40
0.0
 40
0.0
 40
0.0
 40
0.0689999999999991
 40
0.0689999999999991
 40
0.0689999999999991
 10
0.3940000000000019
 20
1.595000000000001
 30
0.0
 10
0.4285000000000014
 20
1.595000000000001
 30
0.0
 10
0.463000000000001
 20
1.595000000000001
 30
0.0
  0
SPLINE
  5
102
330
1F
100
AcDbEntity
  8
Make2D visible lines
100
AcDbSpline
210
0.0
220
0.0
230
1.0
 70
    24
 71
     2
 72
     6
 73
     3
 74
     0
 42
0.0000000001
 43
0.0000000001
 40
0.0
 40
0.0
 40
0.0
 40
0.9260000000000002
 40
0.9260000000000002
 40
0.9260000000000002
 10
0.463000000000001
 20
0.9650000000000016
 30
0.0
 10
0.0
 20
0.9650000000000016
 30
0.0
 10
-0.463000000000001
 20
0.9650000000000016
 30
0.0
  0
SPLINE
  5
103
330
1F
100
AcDbEntity
  8
Make2D visible lines
100
AcDbSpline
210
0.0
220
0.0
230
1.0
 70
    24
 71
     2
 72
     6
 73
     3
 74
     0
 42
0.0000000001
 43
0.0000000001
 40
0.0
 40
0.0
 40
0.0
 40
0.0690000000000008
 40
0.0690000000000008
 40
0.0690000000000008
 10
-0.463000000000001
 20
1.595000000000001
 30
0.0
 10
-0.4284999999999997
 20
1.595000000000001
 30
0.0
 10
-0.3939999999999984
 20
1.595000000000001
 30
0.0
  0
SPLINE
  5
104
330
1F
100
AcDbEntity
  8
Make2D visible lines
100
AcDbSpline
210
0.0
220
0.0
230
1.0
 70
     8
 71
     3
 72
    12
 73
     8
 74
     0
 42
0.0000000001
 43
0.0000000001
 40
0.0
 40
0.0
 40
0.0
 40
0.0
 40
0.1463411183411369
 40
0.2853842069860231
 40
0.4774826785392335
 40
0.6695434217140405
 40
0.9551044705190225
 40
0.9551044705190225
 40
0.9551044705190225
 40
0.9551044705190225
 10
0.3439999999999976
 20
2.135695657233184
 30
0.0
 10
0.3234421467112139
 20
2.092235288994199
 30
0.0
 10
0.2682077815407382
 20
2.011139443753334
 30
0.0
 10
0.1692604089231011
 20
1.892867635552798
 30
0.0
 10
-0.0011220574407673
 20
1.800191929265525
 30
0.0
 10
-0.2131003919748569
 20
1.918743261260477
 30
0.0
 10
-0.2972881393790594
 20
2.051490853594749
 30
0.0
 10
-0.3439999999999976
 20
2.135695657233184
 30
0.0
  0
SPLINE
  5
105
330
1F
100
AcDbEntity
  8
Make2D visible lines
100
AcDbSpline
210
0.0
220
0.0
230
1.0
 70
    12
 71
     2
 72
     6
 73
     3
 74
     0
 42
0.0000000001
 43
0.0000000001
 40
0.0
 40
0.0
 40
0.0
 40
0.1228476419690088
 40
0.1228476419690088
 40
0.1228476419690088
 10
0.3439999999999976
 20
2.135695657233184
 30
0.0
 41
1.0
 10
0.3793158215328276
 20
2.186799143881471
 30
0.0
 41
0.9832969456840381
 10
0.393999995469354
 20
2.247157644806792
 30
0.0
 41
1.0
  0
SPLINE
  5
106
330
1F
100
AcDbEntity
  8
Make2D visible lines
100
AcDbSpline
210
0.0
220
0.0
230
1.0
 70
    12
 71
     2
 72
     6
 73
     3
 74
     0
 42
0.0000000001
 43
0.0000000001
 40
0.0
 40
0.0
 40
0.0
 40
0.1227840813427634
 40
0.1227840813427634
 40
0.1227840813427634
 10
-0.3439999999999976
 20
2.135695657233184
 30
0.0
 41
1.0
 10
-0.3788168674484081
 20
2.187022966392655
 30
0.0
 41
0.9848379823800321
 10
-0.393999995469354
 20
2.247157644806793
 30
0.0
 41
1.0
  0
SPLINE
  5
107
330
1F
100
AcDbEntity
  8
Default
100
AcDbSpline
210
0.0
220
0.0
230
1.0
 70
    12
 71
     2
 72
     6
 73
     3
 74
     0
 42
0.0000000001
 43
0.0000000001
 40
-0.0205148466803361
 40
-0.0205148466803361
 40
-0.0205148466803361
 40
0.0
 40
0.0
 40
0.0
 10
-7.34583666515714
 20
1.321916756511124
 30
0.0
 41
1.0
 10
-7.343092444785353
 20
1.331850316586209
 30
0.0
 41
0.9929165310438545
 10
-7.342770214288228
 20
1.342150924790038
 30
0.0
 41
0.9999992470307488
  0
SPLINE
  5
108
330
1F
100
AcDbEntity
  8
Default
100
AcDbSpline
210
0.0
220
0.0
230
1.0
 70
    12
 71
     2
 72
     6
 73
     3
 74
     0
 42
0.0000000001
 43
0.0000000001
 40
-0.1306670865212424
 40
-0.1306670865212424
 40
-0.1306670865212424
 40
0.0
 40
0.0
 40
0.0
 10
-7.342770214288228
 20
1.342150924790038
 30
0.0
 41
1.0
 10
-7.345526689575028
 20
1.259999371951817
 30
0.0
 41
0.7188571908882943
 10
-7.427723384606649
 20
1.260000489392885
 30
0.0
 41
1.0
  0
SPLINE
  5
109
330
1F
100
AcDbEntity
  8
Default
100
AcDbSpline
210
0.0
220
0.0
230
1.0
 70
    24
 71
     2
 72
     6
 73
     3
 74
     0
 42
0.0000000001
 43
0.0000000001
 40
-0.6179999986728006
 40
-0.6179999986728006
 40
-0.6179999986728006
 40
0.0
 40
0.0
 40
0.0
 10
-7.427723384606649
 20
1.260000489392885
 30
0.0
 10
-7.736723383943049
 20
1.260000489380662
 30
0.0
 10
-8.04572338327945
 20
1.260000489368439
 30
0.0
  0
SPLINE
  5
10A
330
1F
100
AcDbEntity
  8
Default
100
AcDbSpline
210
0.0
220
0.0
230
1.0
 70
    12
 71
     2
 72
     6
 73
     3
 74
     0
 42
0.0000000001
 43
0.0000000001
 40
-0.1306642149348706
 40
-0.1306642149348706
 40
-0.1306642149348706
 40
0.0
 40
0.0
 40
0.0
 10
-8.04572338327945
 20
1.260000489368439
 30
0.0
 41
1.0
 10
-8.127917296957516
 20
1.259999377635789
 30
0.0
 41
0.7188689686272367
 10
-8.130699315015447
 20
1.343573495961616
 30
0.0
 41
1.0
  0
LINE
  5
10B
330
1F
100
AcDbEntity
  8
Default
100
AcDbLine
 10
-8.130699315015447
 20
1.343573495961616
 30
0.0
 11
-8.130723497231317
 21
2.719999999999945
 31
0.0
  0
SPLINE
  5
10C
330
1F
100
AcDbEntity
  8
Default
100
AcDbSpline
210
0.0
220
0.0
230
1.0
 70
    12
 71
     2
 72
     8
 73
     5
 74
     0
 42
0.0000000001
 43
0.0000000001
 40
-0.0628318931243996
 40
-0.0628318931243996
 40
-0.0628318931243996
 40
-0.0314159465621985
 40
-0.0314159465621985
 40
0.0
 40
0.0
 40
0.0
 10
-8.130723497231317
 20
2.719999999999945
 30
0.0
 41
1.0
 10
-8.130723383299998
 20
2.736568554226062
 30
0.0
 41
0.923879436714611
 10
-8.119007640386725
 20
2.748284285408195
 30
0.0
 41
1.0
 10
-8.107291897473448
 20
2.760000016590326
 30
0.0
 41
0.9238794367145934
 10
-8.090723343247399
 20
2.759999999999986
 30
0.0
 41
1.0
  0
POLYLINE
  5
10D
330
1F
100
AcDbEntity
  8
Default
100
AcDb2dPolyline
 66
     1
 10
0.0
 20
0.0
 30
0.0
  0
VERTEX
  5
10E
330
10D
100
AcDbEntity
  8
Default
100
AcDbVertex
100
AcDb2dVertex
 10
-8.090723343247399
 20
2.759999999999986
 30
0.0
  0
VERTEX
  5
10F
330
10D
100
AcDbEntity
  8
Default
100
AcDbVertex
100
AcDb2dVertex
 10
-7.3827234246387
 20
2.759999999999986
 30
0.0
  0
SEQEND
  5
110
330
10D
100
AcDbEntity
  8
Default
  0
SPLINE
  5
111
330
1F
100
AcDbEntity
  8
Default
100
AcDbSpline
210
0.0
220
0.0
230
1.0
 70
    12
 71
     2
 72
     8
 73
     5
 74
     0
 42
0.0000000001
 43
0.0000000001
 40
0.0
 40
0.0
 40
0.0
 40
0.0314159465621985
 40
0.0314159465621985
 40
0.0628318931243996
 40
0.0628318931243996
 40
0.0628318931243996
 10
-7.3827234246387
 20
2.759999999999986
 30
0.0
 41
1.0
 10
-7.366154870412649
 20
2.760000016590326
 30
0.0
 41
0.9238794367145934
 10
-7.354439127499374
 20
2.748284285408195
 30
0.0
 41
1.0
 10
-7.342723384586099
 20
2.736568554226062
 30
0.0
 41
0.923879436714611
 10
-7.342723270654782
 20
2.719999999999945
 30
0.0
 41
1.0
  0
LINE
  5
112
330
1F
100
AcDbEntity
  8
Default
100
AcDbLine
 10
-7.342723270654782
 20
2.719999999999945
 30
0.0
 11
-7.342747452870652
 21
1.343573495961616
 31
0.0
  0
SPLINE
  5
113
330
1F
100
AcDbEntity
  8
Make2D visible lines
100
AcDbSpline
210
0.0
220
0.0
230
1.0
 70
    24
 71
     2
 72
     6
 73
     3
 74
     0
 42
0.0000000001
 43
0.0000000001
 40
-2.415105423527796
 40
-2.415105423527796
 40
-2.415105423527796
 40
0.0
 40
0.0
 40
0.0
 10
-8.199723383299999
 20
2.487552711763898
 30
0.0
 10
-8.199723383299999
 20
1.278776359863449
 30
0.0
 10
-8.199723383299999
 20
0.0700000079629994
 30
0.0
  0
SPLINE
  5
114
330
1F
100
AcDbEntity
  8
Make2D visible lines
100
AcDbSpline
210
0.0
220
0.0
230
1.0
 70
    12
 71
     2
 72
     8
 73
     5
 74
     0
 42
0.0000000001
 43
0.0000000001
 40
-0.1099557508386429
 40
-0.1099557508386429
 40
-0.1099557508386429
 40
-0.0549778754193212
 40
-0.0549778754193212
 40
0.0
 40
0.0
 40
0.0
 10
-8.199723383299999
 20
0.0700000079629994
 30
0.0
 41
1.0
 10
-8.199723380001615
 20
0.0410050562645741
 30
0.0
 41
0.9238795216280429
 10
-8.220225905801593
 20
0.0205025281322868
 30
0.0
 41
1.0
 10
-8.240728431601573
 20
0.0
 30
0.0
 41
0.923879521628049
 10
-8.269723383299997
 20
0.0
 30
0.0
 41
1.0
  0
SPLINE
  5
115
330
1F
100
AcDbEntity
  8
Make2D visible lines
100
AcDbSpline
210
0.0
220
0.0
230
1.0
 70
    24
 71
     2
 72
     6
 73
     3
 74
     0
 42
0.0000000001
 43
0.0000000001
 40
0.0
 40
0.0
 40
0.0
 40
0.3520000000000003
 40
0.3520000000000003
 40
0.3520000000000003
 10
-8.269723383299997
 20
0.0
 30
0.0
 10
-8.445723383299995
 20
0.0
 30
0.0
 10
-8.621723383299996
 20
0.0
 30
0.0
  0
SPLINE
  5
116
330
1F
100
AcDbEntity
  8
Make2D visible lines
100
AcDbSpline
210
0.0
220
0.0
230
1.0
 70
    12
 71
     2
 72
     6
 73
     3
 74
     0
 42
0.0000000001
 43
0.0000000001
 40
0.0
 40
0.0
 40
0.0
 40
0.2356194483882336
 40
0.2356194483882336
 40
0.2356194483882336
 10
-8.621723383299996
 20
0.0
 30
0.0
 41
1.0
 10
-8.771723382668993
 20
0.0
 30
0.0
 41
0.7071067826738353
 10
-8.771723383299998
 20
0.1499999993689993
 30
0.0
 41
1.0
  0
SPLINE
  5
117
330
1F
100
AcDbEntity
  8
Make2D visible lines
100
AcDbSpline
210
0.0
220
0.0
230
1.0
 70
    24
 71
     2
 72
     6
 73
     3
 74
     0
 42
0.0000000001
 43
0.0000000001
 40
-2.260000001262
 40
-2.260000001262
 40
-2.260000001262
 40
0.0
 40
0.0
 40
0.0
 10
-8.771723383299998
 20
0.1499999993689993
 30
0.0
 10
-8.771723383299998
 20
1.279999999999999
 30
0.0
 10
-8.771723383299998
 20
2.410000000630999
 30
0.0
  0
SPLINE
  5
118
330
1F
100
AcDbEntity
  8
Make2D visible lines
100
AcDbSpline
210
0.0
220
0.0
230
1.0
 70
    12
 71
     2
 72
     6
 73
     3
 74
     0
 42
0.0000000001
 43
0.0000000001
 40
0.0
 40
0.0
 40
0.0
 40
0.2356194483882358
 40
0.2356194483882358
 40
0.2356194483882358
 10
-8.771723383299998
 20
2.410000000630999
 30
0.0
 41
1.0
 10
-8.771723382668998
 20
2.560000000000001
 30
0.0
 41
0.7071067826738272
 10
-8.621723383299996
 20
2.56
 30
0.0
 41
1.0
  0
SPLINE
  5
119
330
1F
100
AcDbEntity
  8
Make2D visible lines
100
AcDbSpline
210
0.0
220
0.0
230
1.0
 70
    24
 71
     2
 72
     6
 73
     3
 74
     0
 42
0.0000000001
 43
0.0000000001
 40
0.0
 40
0.0
 40
0.0
 40
0.3520000000000003
 40
0.3520000000000003
 40
0.3520000000000003
 10
-8.621723383299996
 20
2.56
 30
0.0
 10
-8.445723383299995
 20
2.56
 30
0.0
 10
-8.269723383299997
 20
2.56
 30
0.0
  0
SPLINE
  5
11A
330
1F
100
AcDbEntity
  8
Make2D visible lines
100
AcDbSpline
210
0.0
220
0.0
230
1.0
 70
    12
 71
     2
 72
     8
 73
     5
 74
     0
 42
0.0000000001
 43
0.0000000001
 40
-0.1099557508386414
 40
-0.1099557508386414
 40
-0.1099557508386414
 40
-0.0549778754193184
 40
-0.0549778754193184
 40
0.0
 40
0.0
 40
0.0
 10
-8.269723383299997
 20
2.56
 30
0.0
 41
1.0
 10
-8.240728431601571
 20
2.56
 30
0.0
 41
0.9238795216280236
 10
-8.220225905801595
 20
2.53949747186771
 30
0.0
 41
1.0
 10
-8.199723380001616
 20
2.518994943735425
 30
0.0
 41
0.9238795216280324
 10
-8.199723383299999
 20
2.487552711763898
 30
0.0
 41
1.0
  0
SPLINE
  5
11B
330
1F
100
AcDbEntity
  8
Make2D visible lines
100
AcDbSpline
210
0.0
220
0.0
230
1.0
 70
    24
 71
     2
 72
     6
 73
     3
 74
     0
 42
0.0000000001
 43
0.0000000001
 40
-2.415105433753071
 40
-2.415105433753071
 40
-2.415105433753071
 40
0.0
 40
0.0
 40
0.0
 10
-7.273723383299997
 20
2.487552716876536
 30
0.0
 10
-7.273723383299997
 20
1.278776359858268
 30
0.0
 10
-7.273723383299997
 20
0.0700000028400005
 30
0.0
  0
SPLINE
  5
11C
330
1F
100
AcDbEntity
  8
Make2D visible lines
100
AcDbSpline
210
0.0
220
0.0
230
1.0
 70
    12
 71
     2
 72
     6
 73
     3
 74
     0
 42
0.0000000001
 43
0.0000000001
 40
0.0
 40
0.0
 40
0.0
 40
0.1099557457156439
 40
0.1099557457156439
 40
0.1099557457156439
 10
-7.273723383299997
 20
0.0700000028400005
 30
0.0
 41
1.0
 10
-7.273723386139999
 20
0.0
 30
0.0
 41
0.7071067668423728
 10
-7.203723383299996
 20
-0.0000000000000001
 30
0.0
 41
1.0
  0
SPLINE
  5
11D
330
1F
100
AcDbEntity
  8
Make2D visible lines
100
AcDbSpline
210
0.0
220
0.0
230
1.0
 70
    24
 71
     2
 72
     6
 73
     3
 74
     0
 42
0.0000000001
 43
0.0000000001
 40
0.0
 40
0.0
 40
0.0
 40
0.3520000000000003
 40
0.3520000000000003
 40
0.3520000000000003
 10
-7.203723383299996
 20
-0.0000000000000001
 30
0.0
 10
-7.027723383299996
 20
0.0
 30
0.0
 10
-6.851723383299996
 20
0.0
 30
0.0
  0
SPLINE
  5
11E
330
1F
100
AcDbEntity
  8
Make2D visible lines
100
AcDbSpline
210
0.0
220
0.0
230
1.0
 70
    12
 71
     2
 72
     6
 73
     3
 74
     0
 42
0.0000000001
 43
0.0000000001
 40
0.0
 40
0.0
 40
0.0
 40
0.2356194519512337
 40
0.2356194519512337
 40
0.2356194519512337
 10
-6.851723383299996
 20
0.0
 30
0.0
 41
1.0
 10
-6.701723380367998
 20
0.000000000000002
 30
0.0
 41
0.7071067742757676
 10
-6.701723383299997
 20
0.1500000029319999
 30
0.0
 41
1.0
  0
SPLINE
  5
11F
330
1F
100
AcDbEntity
  8
Make2D visible lines
100
AcDbSpline
210
0.0
220
0.0
230
1.0
 70
    24
 71
     2
 72
     6
 73
     3
 74
     0
 42
0.0000000001
 43
0.0000000001
 40
0.0
 40
0.0
 40
0.0
 40
2.255429040880414
 40
2.255429040880414
 40
2.255429040880414
 10
-6.701723383299997
 20
0.1500000029319999
 30
0.0
 10
-6.701723383299997
 20
1.278857261686103
 30
0.0
 10
-6.701723383299997
 20
2.407714520440207
 30
0.0
  0
SPLINE
  5
120
330
1F
100
AcDbEntity
  8
Make2D visible lines
100
AcDbSpline
210
0.0
220
0.0
230
1.0
 70
    12
 71
     2
 72
     6
 73
     3
 74
     0
 42
0.0000000001
 43
0.0000000001
 40
0.0
 40
0.0
 40
0.0
 40
0.2356194519512344
 40
0.2356194519512344
 40
0.2356194519512344
 10
-6.701723383299997
 20
2.407714520440207
 30
0.0
 41
1.0
 10
-6.701723380367997
 20
2.56
 30
0.0
 41
0.7071067742757604
 10
-6.851723383299996
 20
2.56
 30
0.0
 41
1.0
  0
SPLINE
  5
121
330
1F
100
AcDbEntity
  8
Make2D visible lines
100
AcDbSpline
210
0.0
220
0.0
230
1.0
 70
    24
 71
     2
 72
     6
 73
     3
 74
     0
 42
0.0000000001
 43
0.0000000001
 40
0.0
 40
0.0
 40
0.0
 40
0.3520000000000003
 40
0.3520000000000003
 40
0.3520000000000003
 10
-6.851723383299996
 20
2.56
 30
0.0
 10
-7.027723383299996
 20
2.56
 30
0.0
 10
-7.203723383299996
 20
2.56
 30
0.0
  0
SPLINE
  5
122
330
1F
100
AcDbEntity
  8
Make2D visible lines
100
AcDbSpline
210
0.0
220
0.0
230
1.0
 70
    12
 71
     2
 72
     6
 73
     3
 74
     0
 42
0.0000000001
 43
0.0000000001
 40
0.0
 40
0.0
 40
0.0
 40
0.1099557457156434
 40
0.1099557457156434
 40
0.1099557457156434
 10
-7.203723383299996
 20
2.56
 30
0.0
 41
1.0
 10
-7.273723386139998
 20
2.56
 30
0.0
 41
0.7071067668423767
 10
-7.273723383299997
 20
2.487552716876536
 30
0.0
 41
1.0
  0
SPLINE
  5
123
330
1F
100
AcDbEntity
  8
Make2D visible lines
100
AcDbSpline
210
0.0
220
0.0
230
1.0
 70
    24
 71
     2
 72
     6
 73
     3
 74
     0
 42
0.0000000001
 43
0.0000000001
 40
0.0
 40
0.0
 40
0.0
 40
0.0689999999999991
 40
0.0689999999999991
 40
0.0689999999999991
 10
-7.342723383299996
 20
1.595000000000001
 30
0.0
 10
-7.308223383299996
 20
1.595000000000001
 30
0.0
 10
-7.273723383299997
 20
1.595000000000001
 30
0.0
  0
SPLINE
  5
124
330
1F
100
AcDbEntity
  8
Make2D visible lines
100
AcDbSpline
210
0.0
220
0.0
230
1.0
 70
    24
 71
     2
 72
     6
 73
     3
 74
     0
 42
0.0000000001
 43
0.0000000001
 40
0.0
 40
0.0
 40
0.0
 40
0.9260000000000002
 40
0.9260000000000002
 40
0.9260000000000002
 10
-7.273723383299997
 20
0.9650000000000016
 30
0.0
 10
-7.736723383299998
 20
0.9650000000000016
 30
0.0
 10
-8.199723383299999
 20
0.9650000000000016
 30
0.0
  0
SPLINE
  5
125
330
1F
100
AcDbEntity
  8
Make2D visible lines
100
AcDbSpline
210
0.0
220
0.0
230
1.0
 70
    24
 71
     2
 72
     6
 73
     3
 74
     0
 42
0.0000000001
 43
0.0000000001
 40
0.0
 40
0.0
 40
0.0
 40
0.0690000000000008
 40
0.0690000000000008
 40
0.0690000000000008
 10
-8.199723383299999
 20
1.595000000000001
 30
0.0
 10
-8.165223383299997
 20
1.595000000000001
 30
0.0
 10
-8.130723383299996
 20
1.595000000000001
 30
0.0
  0
SPLINE
  5
126
330
1F
100
AcDbEntity
  8
Make2D visible lines
100
AcDbSpline
210
0.0
220
0.0
230
1.0
 70
     8
 71
     3
 72
    12
 73
     8
 74
     0
 42
0.0000000001
 43
0.0000000001
 40
0.0
 40
0.0
 40
0.0
 40
0.0
 40
0.1463411183411369
 40
0.2853842069860231
 40
0.4774826785392335
 40
0.6695434217140405
 40
0.9551044705190225
 40
0.9551044705190225
 40
0.9551044705190225
 40
0.9551044705190225
 10
-7.3927233833
 20
2.135695657233184
 30
0.0
 10
-7.413281236588784
 20
2.092235288994199
 30
0.0
 10
-7.468515601759259
 20
2.011139443753334
 30
0.0
 10
-7.567462974376896
 20
1.892867635552798
 30
0.0
 10
-7.737845440740765
 20
1.800191929265525
 30
0.0
 10
-7.949823775274854
 20
1.918743261260477
 30
0.0
 10
-8.034011522679057
 20
2.051490853594749
 30
0.0
 10
-8.080723383299995
 20
2.135695657233184
 30
0.0
  0
SPLINE
  5
127
330
1F
100
AcDbEntity
  8
Make2D visible lines
100
AcDbSpline
210
0.0
220
0.0
230
1.0
 70
    12
 71
     2
 72
     6
 73
     3
 74
     0
 42
0.0000000001
 43
0.0000000001
 40
0.0
 40
0.0
 40
0.0
 40
0.1228476419690088
 40
0.1228476419690088
 40
0.1228476419690088
 10
-7.3927233833
 20
2.135695657233184
 30
0.0
 41
1.0
 10
-7.35740756176717
 20
2.186799143881471
 30
0.0
 41
0.9832969456840381
 10
-7.342723387830643
 20
2.247157644806792
 30
0.0
 41
1.0
  0
SPLINE
  5
128
330
1F
100
AcDbEntity
  8
Make2D visible lines
100
AcDbSpline
210
0.0
220
0.0
230
1.0
 70
    12
 71
     2
 72
     6
 73
     3
 74
     0
 42
0.0000000001
 43
0.0000000001
 40
0.0
 40
0.0
 40
0.0
 40
0.1227840813427634
 40
0.1227840813427634
 40
0.1227840813427634
 10
-8.080723383299995
 20
2.135695657233184
 30
0.0
 41
1.0
 10
-8.115540250748406
 20
2.187022966392655
 30
0.0
 41
0.9848379823800321
 10
-8.130723378769352
 20
2.247157644806793
 30
0.0
 41
1.0
  0
SPLINE
  5
129
330
1F
100
AcDbEntity
  8
Make2D visible lines
100
AcDbSpline
210
0.0
220
0.0
230
1.0
 70
    12
 71
     2
 72
     6
 73
     3
 74
     0
 42
0.0000000001
 43
0.0000000001
 40
0.0
 40
0.0
 40
0.0
 40
0.1227840813427634
 40
0.1227840813427634
 40
0.1227840813427634
 10
-12.86228139573
 20
2.135695657233184
 30
0.0
 41
1.0
 10
-12.89709826317841
 20
2.187022966392655
 30
0.0
 41
0.9848379823800321
 10
-12.91228139119935
 20
2.247157644806793
 30
0.0
 41
1.0
  0
SPLINE
  5
12A
330
1F
100
AcDbEntity
  8
Make2D visible lines
100
AcDbSpline
210
0.0
220
0.0
230
1.0
 70
    12
 71
     2
 72
     6
 73
     3
 74
     0
 42
0.0000000001
 43
0.0000000001
 40
0.0
 40
0.0
 40
0.0
 40
0.1228476419690088
 40
0.1228476419690088
 40
0.1228476419690088
 10
-12.17428139573
 20
2.135695657233184
 30
0.0
 41
1.0
 10
-12.13896557419717
 20
2.186799143881471
 30
0.0
 41
0.9832969456840381
 10
-12.12428140026065
 20
2.247157644806792
 30
0.0
 41
1.0
  0
SPLINE
  5
12B
330
1F
100
AcDbEntity
  8
Make2D visible lines
100
AcDbSpline
210
0.0
220
0.0
230
1.0
 70
     8
 71
     3
 72
    12
 73
     8
 74
     0
 42
0.0000000001
 43
0.0000000001
 40
0.0
 40
0.0
 40
0.0
 40
0.0
 40
0.1463411183411369
 40
0.2853842069860231
 40
0.4774826785392335
 40
0.6695434217140405
 40
0.9551044705190225
 40
0.9551044705190225
 40
0.9551044705190225
 40
0.9551044705190225
 10
-12.17428139573
 20
2.135695657233184
 30
0.0
 10
-12.19483924901879
 20
2.092235288994199
 30
0.0
 10
-12.25007361418926
 20
2.011139443753334
 30
0.0
 10
-12.3490209868069
 20
1.892867635552798
 30
0.0
 10
-12.51940345317077
 20
1.800191929265525
 30
0.0
 10
-12.73138178770486
 20
1.918743261260477
 30
0.0
 10
-12.81556953510906
 20
2.051490853594749
 30
0.0
 10
-12.86228139573
 20
2.135695657233184
 30
0.0
  0
SPLINE
  5
12C
330
1F
100
AcDbEntity
  8
Make2D visible lines
100
AcDbSpline
210
0.0
220
0.0
230
1.0
 70
    24
 71
     2
 72
     6
 73
     3
 74
     0
 42
0.0000000001
 43
0.0000000001
 40
0.0
 40
0.0
 40
0.0
 40
0.0690000000000008
 40
0.0690000000000008
 40
0.0690000000000008
 10
-12.98128139573
 20
1.595000000000001
 30
0.0
 10
-12.94678139573
 20
1.595000000000001
 30
0.0
 10
-12.91228139573
 20
1.595000000000001
 30
0.0
  0
SPLINE
  5
12D
330
1F
100
AcDbEntity
  8
Make2D visible lines
100
AcDbSpline
210
0.0
220
0.0
230
1.0
 70
    24
 71
     2
 72
     6
 73
     3
 74
     0
 42
0.0000000001
 43
0.0000000001
 40
0.0
 40
0.0
 40
0.0
 40
0.9260000000000002
 40
0.9260000000000002
 40
0.9260000000000002
 10
-12.05528139573
 20
0.9650000000000016
 30
0.0
 10
-12.51828139573
 20
0.9650000000000016
 30
0.0
 10
-12.98128139573
 20
0.9650000000000016
 30
0.0
  0
SPLINE
  5
12E
330
1F
100
AcDbEntity
  8
Make2D visible lines
100
AcDbSpline
210
0.0
220
0.0
230
1.0
 70
    24
 71
     2
 72
     6
 73
     3
 74
     0
 42
0.0000000001
 43
0.0000000001
 40
0.0
 40
0.0
 40
0.0
 40
0.0689999999999991
 40
0.0689999999999991
 40
0.0689999999999991
 10
-12.12428139573
 20
1.595000000000001
 30
0.0
 10
-12.08978139573
 20
1.595000000000001
 30
0.0
 10
-12.05528139573
 20
1.595000000000001
 30
0.0
  0
SPLINE
  5
12F
330
1F
100
AcDbEntity
  8
Make2D visible lines
100
AcDbSpline
210
0.0
220
0.0
230
1.0
 70
    24
 71
     2
 72
     6
 73
     3
 74
     0
 42
0.0000000001
 43
0.0000000001
 40
-2.415105433753071
 40
-2.415105433753071
 40
-2.415105433753071
 40
0.0
 40
0.0
 40
0.0
 10
-12.05528139573
 20
2.487552716876536
 30
0.0
 10
-12.05528139573
 20
1.278776359858268
 30
0.0
 10
-12.05528139573
 20
0.0700000028400005
 30
0.0
  0
SPLINE
  5
130
330
1F
100
AcDbEntity
  8
Make2D visible lines
100
AcDbSpline
210
0.0
220
0.0
230
1.0
 70
    12
 71
     2
 72
     6
 73
     3
 74
     0
 42
0.0000000001
 43
0.0000000001
 40
0.0
 40
0.0
 40
0.0
 40
0.1099557457156439
 40
0.1099557457156439
 40
0.1099557457156439
 10
-12.05528139573
 20
0.0700000028400005
 30
0.0
 41
1.0
 10
-12.05528139857
 20
0.0
 30
0.0
 41
0.7071067668423728
 10
-11.98528139573
 20
-0.0000000000000001
 30
0.0
 41
1.0
  0
SPLINE
  5
131
330
1F
100
AcDbEntity
  8
Make2D visible lines
100
AcDbSpline
210
0.0
220
0.0
230
1.0
 70
    24
 71
     2
 72
     6
 73
     3
 74
     0
 42
0.0000000001
 43
0.0000000001
 40
0.0
 40
0.0
 40
0.0
 40
0.3520000000000003
 40
0.3520000000000003
 40
0.3520000000000003
 10
-11.98528139573
 20
-0.0000000000000001
 30
0.0
 10
-11.80928139573
 20
0.0
 30
0.0
 10
-11.63328139573
 20
0.0
 30
0.0
  0
SPLINE
  5
132
330
1F
100
AcDbEntity
  8
Make2D visible lines
100
AcDbSpline
210
0.0
220
0.0
230
1.0
 70
    12
 71
     2
 72
     6
 73
     3
 74
     0
 42
0.0000000001
 43
0.0000000001
 40
0.0
 40
0.0
 40
0.0
 40
0.2356194519512337
 40
0.2356194519512337
 40
0.2356194519512337
 10
-11.63328139573
 20
0.0
 30
0.0
 41
1.0
 10
-11.483281392798
 20
0.000000000000002
 30
0.0
 41
0.7071067742757676
 10
-11.48328139573
 20
0.1500000029319999
 30
0.0
 41
1.0
  0
SPLINE
  5
133
330
1F
100
AcDbEntity
  8
Make2D visible lines
100
AcDbSpline
210
0.0
220
0.0
230
1.0
 70
    24
 71
     2
 72
     6
 73
     3
 74
     0
 42
0.0000000001
 43
0.0000000001
 40
0.0
 40
0.0
 40
0.0
 40
2.255429040880414
 40
2.255429040880414
 40
2.255429040880414
 10
-11.48328139573
 20
0.1500000029319999
 30
0.0
 10
-11.48328139573
 20
1.278857261686103
 30
0.0
 10
-11.48328139573
 20
2.407714520440207
 30
0.0
  0
SPLINE
  5
134
330
1F
100
AcDbEntity
  8
Make2D visible lines
100
AcDbSpline
210
0.0
220
0.0
230
1.0
 70
    12
 71
     2
 72
     6
 73
     3
 74
     0
 42
0.0000000001
 43
0.0000000001
 40
0.0
 40
0.0
 40
0.0
 40
0.2356194519512344
 40
0.2356194519512344
 40
0.2356194519512344
 10
-11.48328139573
 20
2.407714520440207
 30
0.0
 41
1.0
 10
-11.483281392798
 20
2.56
 30
0.0
 41
0.7071067742757604
 10
-11.63328139573
 20
2.56
 30
0.0
 41
1.0
  0
SPLINE
  5
135
330
1F
100
AcDbEntity
  8
Make2D visible lines
100
AcDbSpline
210
0.0
220
0.0
230
1.0
 70
    24
 71
     2
 72
     6
 73
     3
 74
     0
 42
0.0000000001
 43
0.0000000001
 40
0.0
 40
0.0
 40
0.0
 40
0.3520000000000003
 40
0.3520000000000003
 40
0.3520000000000003
 10
-11.63328139573
 20
2.56
 30
0.0
 10
-11.80928139573
 20
2.56
 30
0.0
 10
-11.98528139573
 20
2.56
 30
0.0
  0
SPLINE
  5
136
330
1F
100
AcDbEntity
  8
Make2D visible lines
100
AcDbSpline
210
0.0
220
0.0
230
1.0
 70
    12
 71
     2
 72
     6
 73
     3
 74
     0
 42
0.0000000001
 43
0.0000000001
 40
0.0
 40
0.0
 40
0.0
 40
0.1099557457156434
 40
0.1099557457156434
 40
0.1099557457156434
 10
-11.98528139573
 20
2.56
 30
0.0
 41
1.0
 10
-12.05528139857
 20
2.56
 30
0.0
 41
0.7071067668423767
 10
-12.05528139573
 20
2.487552716876536
 30
0.0
 41
1.0
  0
SPLINE
  5
137
330
1F
100
AcDbEntity
  8
Make2D visible lines
100
AcDbSpline
210
0.0
220
0.0
230
1.0
 70
    24
 71
     2
 72
     6
 73
     3
 74
     0
 42
0.0000000001
 43
0.0000000001
 40
-2.415105423527796
 40
-2.415105423527796
 40
-2.415105423527796
 40
0.0
 40
0.0
 40
0.0
 10
-12.98128139573
 20
2.487552711763898
 30
0.0
 10
-12.98128139573
 20
1.278776359863449
 30
0.0
 10
-12.98128139573
 20
0.0700000079629994
 30
0.0
  0
SPLINE
  5
138
330
1F
100
AcDbEntity
  8
Make2D visible lines
100
AcDbSpline
210
0.0
220
0.0
230
1.0
 70
    12
 71
     2
 72
     8
 73
     5
 74
     0
 42
0.0000000001
 43
0.0000000001
 40
-0.1099557508386429
 40
-0.1099557508386429
 40
-0.1099557508386429
 40
-0.0549778754193212
 40
-0.0549778754193212
 40
0.0
 40
0.0
 40
0.0
 10
-12.98128139573
 20
0.0700000079629994
 30
0.0
 41
1.0
 10
-12.98128139243162
 20
0.0410050562645741
 30
0.0
 41
0.9238795216280429
 10
-13.0017839182316
 20
0.0205025281322868
 30
0.0
 41
1.0
 10
-13.02228644403157
 20
0.0
 30
0.0
 41
0.923879521628049
 10
-13.05128139573
 20
0.0
 30
0.0
 41
1.0
  0
SPLINE
  5
139
330
1F
100
AcDbEntity
  8
Make2D visible lines
100
AcDbSpline
210
0.0
220
0.0
230
1.0
 70
    24
 71
     2
 72
     6
 73
     3
 74
     0
 42
0.0000000001
 43
0.0000000001
 40
0.0
 40
0.0
 40
0.0
 40
0.3520000000000003
 40
0.3520000000000003
 40
0.3520000000000003
 10
-13.05128139573
 20
0.0
 30
0.0
 10
-13.22728139573
 20
0.0
 30
0.0
 10
-13.40328139573
 20
0.0
 30
0.0
  0
SPLINE
  5
13A
330
1F
100
AcDbEntity
  8
Make2D visible lines
100
AcDbSpline
210
0.0
220
0.0
230
1.0
 70
    12
 71
     2
 72
     6
 73
     3
 74
     0
 42
0.0000000001
 43
0.0000000001
 40
0.0
 40
0.0
 40
0.0
 40
0.2356194483882336
 40
0.2356194483882336
 40
0.2356194483882336
 10
-13.40328139573
 20
0.0
 30
0.0
 41
1.0
 10
-13.553281395099
 20
0.0
 30
0.0
 41
0.7071067826738353
 10
-13.55328139573
 20
0.1499999993689993
 30
0.0
 41
1.0
  0
SPLINE
  5
13B
330
1F
100
AcDbEntity
  8
Make2D visible lines
100
AcDbSpline
210
0.0
220
0.0
230
1.0
 70
    24
 71
     2
 72
     6
 73
     3
 74
     0
 42
0.0000000001
 43
0.0000000001
 40
-2.260000001262
 40
-2.260000001262
 40
-2.260000001262
 40
0.0
 40
0.0
 40
0.0
 10
-13.55328139573
 20
0.1499999993689993
 30
0.0
 10
-13.55328139573
 20
1.279999999999999
 30
0.0
 10
-13.55328139573
 20
2.410000000630999
 30
0.0
  0
SPLINE
  5
13C
330
1F
100
AcDbEntity
  8
Make2D visible lines
100
AcDbSpline
210
0.0
220
0.0
230
1.0
 70
    12
 71
     2
 72
     6
 73
     3
 74
     0
 42
0.0000000001
 43
0.0000000001
 40
0.0
 40
0.0
 40
0.0
 40
0.2356194483882358
 40
0.2356194483882358
 40
0.2356194483882358
 10
-13.55328139573
 20
2.410000000630999
 30
0.0
 41
1.0
 10
-13.553281395099
 20
2.560000000000001
 30
0.0
 41
0.7071067826738272
 10
-13.40328139573
 20
2.56
 30
0.0
 41
1.0
  0
SPLINE
  5
13D
330
1F
100
AcDbEntity
  8
Make2D visible lines
100
AcDbSpline
210
0.0
220
0.0
230
1.0
 70
    24
 71
     2
 72
     6
 73
     3
 74
     0
 42
0.0000000001
 43
0.0000000001
 40
0.0
 40
0.0
 40
0.0
 40
0.3520000000000003
 40
0.3520000000000003
 40
0.3520000000000003
 10
-13.40328139573
 20
2.56
 30
0.0
 10
-13.22728139573
 20
2.56
 30
0.0
 10
-13.05128139573
 20
2.56
 30
0.0
  0
SPLINE
  5
13E
330
1F
100
AcDbEntity
  8
Make2D visible lines
100
AcDbSpline
210
0.0
220
0.0
230
1.0
 70
    12
 71
     2
 72
     8
 73
     5
 74
     0
 42
0.0000000001
 43
0.0000000001
 40
-0.1099557508386414
 40
-0.1099557508386414
 40
-0.1099557508386414
 40
-0.0549778754193184
 40
-0.0549778754193184
 40
0.0
 40
0.0
 40
0.0
 10
-13.05128139573
 20
2.56
 30
0.0
 41
1.0
 10
-13.02228644403157
 20
2.56
 30
0.0
 41
0.9238795216280236
 10
-13.0017839182316
 20
2.53949747186771
 30
0.0
 41
1.0
 10
-12.98128139243162
 20
2.518994943735425
 30
0.0
 41
0.9238795216280324
 10
-12.98128139573
 20
2.487552711763898
 30
0.0
 41
1.0
  0
SPLINE
  5
13F
330
1F
100
AcDbEntity
  8
Default
100
AcDbSpline
210
0.0
220
0.0
230
1.0
 70
    12
 71
     2
 72
     6
 73
     3
 74
     0
 42
0.0000000001
 43
0.0000000001
 40
-0.0205148466803361
 40
-0.0205148466803361
 40
-0.0205148466803361
 40
0.0
 40
0.0
 40
0.0
 10
-12.12739467758714
 20
1.321916756511124
 30
0.0
 41
1.0
 10
-12.12465045721535
 20
1.331850316586209
 30
0.0
 41
0.9929165310438545
 10
-12.12432822671823
 20
1.342150924790038
 30
0.0
 41
0.9999992470307488
  0
SPLINE
  5
140
330
1F
100
AcDbEntity
  8
Default
100
AcDbSpline
210
0.0
220
0.0
230
1.0
 70
    12
 71
     2
 72
     6
 73
     3
 74
     0
 42
0.0000000001
 43
0.0000000001
 40
-0.1306670865212424
 40
-0.1306670865212424
 40
-0.1306670865212424
 40
0.0
 40
0.0
 40
0.0
 10
-12.12432822671823
 20
1.342150924790038
 30
0.0
 41
1.0
 10
-12.12708470200503
 20
1.259999371951817
 30
0.0
 41
0.7188571908882943
 10
-12.20928139703665
 20
1.260000489392885
 30
0.0
 41
1.0
  0
SPLINE
  5
141
330
1F
100
AcDbEntity
  8
Default
100
AcDbSpline
210
0.0
220
0.0
230
1.0
 70
    24
 71
     2
 72
     6
 73
     3
 74
     0
 42
0.0000000001
 43
0.0000000001
 40
-0.6179999986728006
 40
-0.6179999986728006
 40
-0.6179999986728006
 40
0.0
 40
0.0
 40
0.0
 10
-12.20928139703665
 20
1.260000489392885
 30
0.0
 10
-12.51828139637305
 20
1.260000489380662
 30
0.0
 10
-12.82728139570945
 20
1.260000489368439
 30
0.0
  0
SPLINE
  5
142
330
1F
100
AcDbEntity
  8
Default
100
AcDbSpline
210
0.0
220
0.0
230
1.0
 70
    12
 71
     2
 72
     6
 73
     3
 74
     0
 42
0.0000000001
 43
0.0000000001
 40
-0.1306642149348706
 40
-0.1306642149348706
 40
-0.1306642149348706
 40
0.0
 40
0.0
 40
0.0
 10
-12.82728139570945
 20
1.260000489368439
 30
0.0
 41
1.0
 10
-12.90947530938752
 20
1.259999377635789
 30
0.0
 41
0.7188689686272367
 10
-12.91225732744545
 20
1.343573495961616
 30
0.0
 41
1.0
  0
LINE
  5
143
330
1F
100
AcDbEntity
  8
Default
100
AcDbLine
 10
-12.91225732744545
 20
1.343573495961616
 30
0.0
 11
-12.91228150966132
 21
2.719999999999945
 31
0.0
  0
SPLINE
  5
144
330
1F
100
AcDbEntity
  8
Default
100
AcDbSpline
210
0.0
220
0.0
230
1.0
 70
    12
 71
     2
 72
     8
 73
     5
 74
     0
 42
0.0000000001
 43
0.0000000001
 40
-0.0628318931243996
 40
-0.0628318931243996
 40
-0.0628318931243996
 40
-0.0314159465621985
 40
-0.0314159465621985
 40
0.0
 40
0.0
 40
0.0
 10
-12.91228150966132
 20
2.719999999999945
 30
0.0
 41
1.0
 10
-12.91228139573
 20
2.736568554226062
 30
0.0
 41
0.923879436714611
 10
-12.90056565281673
 20
2.748284285408195
 30
0.0
 41
1.0
 10
-12.88884990990345
 20
2.760000016590326
 30
0.0
 41
0.9238794367145934
 10
-12.8722813556774
 20
2.759999999999986
 30
0.0
 41
1.0
  0
POLYLINE
  5
145
330
1F
100
AcDbEntity
  8
Default
100
AcDb2dPolyline
 66
     1
 10
0.0
 20
0.0
 30
0.0
  0
VERTEX
  5
146
330
145
100
AcDbEntity
  8
Default
100
AcDbVertex
100
AcDb2dVertex
 10
-12.8722813556774
 20
2.759999999999986
 30
0.0
  0
VERTEX
  5
147
330
145
100
AcDbEntity
  8
Default
100
AcDbVertex
100
AcDb2dVertex
 10
-12.1642814370687
 20
2.759999999999986
 30
0.0
  0
SEQEND
  5
148
330
145
100
AcDbEntity
  8
Default
  0
SPLINE
  5
149
330
1F
100
AcDbEntity
  8
Default
100
AcDbSpline
210
0.0
220
0.0
230
1.0
 70
    12
 71
     2
 72
     8
 73
     5
 74
     0
 42
0.0000000001
 43
0.0000000001
 40
0.0
 40
0.0
 40
0.0
 40
0.0314159465621985
 40
0.0314159465621985
 40
0.0628318931243996
 40
0.0628318931243996
 40
0.0628318931243996
 10
-12.1642814370687
 20
2.759999999999986
 30
0.0
 41
1.0
 10
-12.14771288284265
 20
2.760000016590326
 30
0.0
 41
0.9238794367145934
 10
-12.13599713992938
 20
2.748284285408195
 30
0.0
 41
1.0
 10
-12.1242813970161
 20
2.736568554226062
 30
0.0
 41
0.923879436714611
 10
-12.12428128308478
 20
2.719999999999945
 30
0.0
 41
1.0
  0
LINE
  5
14A
330
1F
100
AcDbEntity
  8
Default
100
AcDbLine
 10
-12.12428128308478
 20
2.719999999999945
 30
0.0
 11
-12.12430546530065
 21
1.343573495961616
 31
0.0
  0
SPLINE
  5
14B
330
1F
100
AcDbEntity
  8
Make2D visible lines
100
AcDbSpline
210
0.0
220
0.0
230
1.0
 70
    24
 71
     2
 72
     6
 73
     3
 74
     0
 42
0.0000000001
 43
0.0000000001
 40
0.0
 40
0.0
 40
0.0
 40
0.0400060931217512
 40
0.0400060931217512
 40
0.0400060931217512
 10
1.199301797402622
 20
7.319999999999991
 30
0.0
 10
1.199650898701165
 20
7.299999999999994
 30
0.0
 10
1.199999999999708
 20
7.279999999999996
 30
0.0
  0
SPLINE
  5
14C
330
1F
100
AcDbEntity
  8
Make2D visible lines
100
AcDbSpline
210
0.0
220
0.0
230
1.0
 70
    24
 71
     2
 72
     6
 73
     3
 74
     0
 42
0.0000000001
 43
0.0000000001
 40
0.0
 40
0.0
 40
0.0
 40
0.0399213772270035
 40
0.0399213772270035
 40
0.0399213772270035
 10
-1.199998521503481
 20
7.280084702992102
 30
0.0
 10
-1.199650159453052
 20
7.300042351496047
 30
0.0
 10
-1.199301797402622
 20
7.319999999999991
 30
0.0
  0
SPLINE
  5
14D
330
1F
100
AcDbEntity
  8
Make2D visible lines
100
AcDbSpline
210
0.0
220
0.0
230
1.0
 70
     8
 71
     3
 72
    10
 73
     6
 74
     0
 42
0.0000000001
 43
0.0000000001
 40
0.0
 40
0.0
 40
0.0
 40
0.0
 40
0.1391330979403417
 40
0.4324509644282648
 40
0.6069566116810106
 40
0.6069566116810106
 40
0.6069566116810106
 40
0.6069566116810106
 10
-0.372341809286814
 20
3.71621560366935
 30
0.0
 10
-0.375778393328865
 20
3.762523541766038
 30
0.0
 10
-0.3995594495262029
 20
3.904844969657872
 30
0.0
 10
-0.4521358506302917
 20
4.10043907930714
 30
0.0
 10
-0.4811972892511474
 20
4.25370276395725
 30
0.0
 10
-0.4919398215763238
 20
4.310860686608981
 30
0.0
  0
SPLINE
  5
14E
330
1F
100
AcDbEntity
  8
Make2D visible lines
100
AcDbSpline
210
0.0
220
0.0
230
1.0
 70
     8
 71
     3
 72
    10
 73
     6
 74
     0
 42
0.0000000001
 43
0.0000000001
 40
0.0
 40
0.0
 40
0.0
 40
0.0
 40
0.1433698128057911
 40
0.4430225636810531
 40
0.6174910235575549
 40
0.6174910235575549
 40
0.6174910235575549
 40
0.6174910235575549
 10
0.3713722818984841
 20
3.706431423623549
 30
0.0
 10
0.3747594189904628
 20
3.754160023142436
 30
0.0
 10
0.3980913625064755
 20
3.900127902315828
 30
0.0
 10
0.4518920455993438
 20
4.09909627514287
 30
0.0
 10
0.4810290329776841
 20
4.254465881479404
 30
0.0
 10
0.4919039992344878
 20
4.311590862398229
 30
0.0
  0
SPLINE
  5
14F
330
1F
100
AcDbEntity
  8
Make2D visible lines
100
AcDbSpline
210
0.0
220
0.0
230
1.0
 70
    12
 71
     2
 72
     8
 73
     5
 74
     0
 42
0.0000000001
 43
0.0000000001
 40
0.0
 40
0.0
 40
0.0
 40
0.0275193652394809
 40
0.0275193652394809
 40
0.0550387304789617
 40
0.0550387304789617
 40
0.0550387304789617
 10
-0.392469098286945
 20
2.795060859175598
 30
0.0
 41
1.0
 10
-0.3924943380273489
 20
2.780545578019801
 30
0.0
 41
0.9237130894356401
 10
-0.3822393962683055
 20
2.770272789031655
 30
0.0
 41
1.0
 10
-0.3719844545092662
 20
2.760000000043509
 30
0.0
 41
0.9237130894356401
 10
-0.3574691514095605
 20
2.759999999999999
 30
0.0
 41
1.0
  0
SPLINE
  5
150
330
1F
100
AcDbEntity
  8
Make2D visible lines
100
AcDbSpline
210
0.0
220
0.0
230
1.0
 70
    12
 71
     2
 72
     8
 73
     5
 74
     0
 42
0.0000000001
 43
0.0000000001
 40
0.0
 40
0.0
 40
0.0
 40
0.027519365239457
 40
0.027519365239457
 40
0.055038730478914
 40
0.055038730478914
 40
0.055038730478914
 10
0.3924690982870231
 20
2.795060859175598
 30
0.0
 41
1.0
 10
0.3924943380273974
 20
2.780545578019819
 30
0.0
 41
0.9237130894360682
 10
0.3822393962683694
 20
2.770272789031682
 30
0.0
 41
1.0
 10
0.3719844545093454
 20
2.760000000043546
 30
0.0
 41
0.9237130894360682
 10
0.3574691514096564
 20
2.76
 30
0.0
 41
1.0
  0
SPLINE
  5
151
330
1F
100
AcDbEntity
  8
Make2D visible lines
100
AcDbSpline
210
0.0
220
0.0
230
1.0
 70
    12
 71
     2
 72
     6
 73
     3
 74
     0
 42
0.0000000001
 43
0.0000000001
 40
0.0
 40
0.0
 40
0.0
 40
0.0483212497416666
 40
0.0483212497416666
 40
0.0483212497416666
 10
-7.339092164560495
 20
2.788441279212112
 30
0.0
 41
1.0
 10
-7.344577707264786
 20
2.760100728064051
 30
0.0
 41
0.7724816427213782
 10
-7.373444086878428
 20
2.760000000026418
 30
0.0
 41
1.0
  0
SPLINE
  5
152
330
1F
100
AcDbEntity
  8
Make2D visible lines
100
AcDbSpline
210
0.0
220
0.0
230
1.0
 70
    12
 71
     2
 72
     8
 73
     5
 74
     0
 42
0.0000000001
 43
0.0000000001
 40
0.0
 40
0.0
 40
0.0
 40
0.0286061523138886
 40
0.0286061523138886
 40
0.0572123046277773
 40
0.0572123046277773
 40
0.0572123046277773
 10
-8.09179832887641
 20
2.760000000000004
 30
0.0
 41
1.0
 10
-8.106948194180319
 20
2.760056392118597
 30
0.0
 41
0.9182200393676768
 10
-8.11730386400521
 20
2.771114497800655
 30
0.0
 41
1.0
 10
-8.127659533830098
 20
2.782172603482712
 30
0.0
 41
0.9182200393676768
 10
-8.12672295131464
 20
2.79729359591011
 30
0.0
 41
1.0
  0
SPLINE
  5
153
330
1F
100
AcDbEntity
  8
Make2D visible lines
100
AcDbSpline
210
0.0
220
0.0
230
1.0
 70
    12
 71
     2
 72
     8
 73
     5
 74
     0
 42
0.0000000001
 43
0.0000000001
 40
0.0
 40
0.0
 40
0.0
 40
0.0281928929716271
 40
0.0281928929716271
 40
0.0563857859432542
 40
0.0563857859432542
 40
0.0563857859432542
 10
-12.87419962211639
 20
2.760000000033125
 30
0.0
 41
1.0
 10
-12.8891051433937
 20
2.760054542525548
 30
0.0
 41
0.9205244397931974
 10
-12.89942123268554
 20
2.770813531379281
 30
0.0
 41
1.0
 10
-12.90973732197737
 20
2.781572520233012
 30
0.0
 41
0.9205244397931974
 10
-12.90916560420659
 20
2.796467172905111
 30
0.0
 41
1.0
  0
SPLINE
  5
154
330
1F
100
AcDbEntity
  8
Make2D visible lines
100
AcDbSpline
210
0.0
220
0.0
230
1.0
 70
    12
 71
     2
 72
     6
 73
     3
 74
     0
 42
0.0000000001
 43
0.0000000001
 40
0.0
 40
0.0
 40
0.0
 40
0.9451955936296548
 40
0.9451955936296548
 40
0.9451955936296548
 10
-0.3924691019662347
 20
2.795061688830217
 30
0.0
 41
1.0
 10
-0.3912492713989337
 20
3.267732525302891
 30
0.0
 41
0.9997632344084707
 10
-0.3694653196555304
 20
3.739902692811206
 30
0.0
 41
1.0
  0
SPLINE
  5
155
330
1F
100
AcDbEntity
  8
Make2D visible lines
100
AcDbSpline
210
0.0
220
0.0
230
1.0
 70
    12
 71
     2
 72
     6
 73
     3
 74
     0
 42
0.0000000001
 43
0.0000000001
 40
0.0
 40
0.0
 40
0.0
 40
0.9451941989567216
 40
0.9451941989567216
 40
0.9451941989567216
 10
0.3694653799216745
 20
3.739901312996954
 30
0.0
 41
1.0
 10
0.3912483426810571
 20
3.267731811760904
 30
0.0
 41
0.9997632778586072
 10
0.3924691019662365
 20
2.79506168883071
 30
0.0
 41
1.0
  0
POLYLINE
  5
156
330
1F
100
AcDbEntity
  8
Default
100
AcDb2dPolyline
 66
     1
 10
0.0
 20
0.0
 30
0.0
  0
VERTEX
  5
157
330
156
100
AcDbEntity
  8
Default
100
AcDbVertex
100
AcDb2dVertex
 10
-9.932300318906105
 20
14.74247627664253
 30
0.0
  0
VERTEX
  5
158
330
156
100
AcDbEntity
  8
Default
100
AcDbVertex
100
AcDb2dVertex
 10
9.933699681093893
 20
14.74247627664252
 30
0.0
  0
SEQEND
  5
159
330
156
100
AcDbEntity
  8
Default
  0
SPLINE
  5
15A
330
1F
100
AcDbEntity
  8
Default
100
AcDbSpline
210
0.0
220
0.0
230
1.0
 70
    12
 71
     2
 72
     8
 73
     5
 74
     0
 42
0.0000000001
 43
0.0000000001
 40
0.0
 40
0.0
 40
0.0
 40
0.4494222823880094
 40
0.4494222823880094
 40
0.8988445647760217
 40
0.8988445647760217
 40
0.8988445647760217
 10
9.933699681093893
 20
14.74247627664252
 30
0.0
 41
1.0
 10
10.1748710515025
 20
14.74247627664252
 30
0.0
 41
0.9006982393219981
 10
10.32500375951931
 20
14.55373359496107
 30
0.0
 41
1.0
 10
10.47513646753612
 20
14.36499091327962
 30
0.0
 41
0.9006982393220062
 10
10.4208847134839
 20
14.13000074947053
 30
0.0
 41
1.0
  0
SPLINE
  5
15B
330
1F
100
AcDbEntity
  8
Default
100
AcDbSpline
210
0.0
220
0.0
230
1.0
 70
    12
 71
     3
 72
     8
 73
     4
 74
     0
 42
0.0000000001
 43
0.0000000001
 40
-1.0
 40
-1.0
 40
-1.0
 40
-1.0
 40
0.0
 40
0.0
 40
0.0
 40
0.0
 10
10.4208847134839
 20
14.13000074947053
 30
0.0
 41
1.0
 10
10.2185033133139
 20
13.25339059722843
 30
0.0
 41
1.0
 10
7.580577519391897
 20
12.75123147323673
 30
0.0
 41
1.0
 10
4.400699681093894
 20
12.52508470299203
 30
0.0
 41
1.0
  0
SPLINE
  5
15C
330
1F
100
AcDbEntity
  8
Default
100
AcDbSpline
210
0.0
220
0.0
230
1.0
 70
    24
 71
     2
 72
     6
 73
     3
 74
     0
 42
0.0000000001
 43
0.0000000001
 40
-8.799999999999997
 40
-8.799999999999997
 40
-8.799999999999997
 40
0.0
 40
0.0
 40
0.0
 10
4.400699681093894
 20
12.52508470299203
 30
0.0
 10
0.0006996810938951
 20
12.52508470299203
 30
0.0
 10
-4.399300318906104
 20
12.52508470299203
 30
0.0
  0
SPLINE
  5
15D
330
1F
100
AcDbEntity
  8
Default
100
AcDbSpline
210
0.0
220
0.0
230
1.0
 70
    12
 71
     3
 72
     8
 73
     4
 74
     0
 42
0.0000000001
 43
0.0000000001
 40
-5.141592653589793
 40
-5.141592653589793
 40
-5.141592653589793
 40
-5.141592653589793
 40
-4.141645969756981
 40
-4.141645969756981
 40
-4.141645969756981
 40
-4.141645969756981
 10
-4.399300318906104
 20
12.52508470299203
 30
0.0
 41
1.0
 10
-7.579008618306295
 20
12.75121941595773
 30
0.0
 41
1.0
 10
-10.21682266140144
 20
13.25333705161343
 30
0.0
 41
1.0
 10
-10.41946915561173
 20
14.12993064482702
 30
0.0
 41
1.0
  0
SPLINE
  5
15E
330
1F
100
AcDbEntity
  8
Default
100
AcDbSpline
210
0.0
220
0.0
230
1.0
 70
    12
 71
     2
 72
     8
 73
     5
 74
     0
 42
0.0000000001
 43
0.0000000001
 40
0.0
 40
0.0
 40
0.0
 40
0.44942228238828
 40
0.44942228238828
 40
0.898844564776559
 40
0.898844564776559
 40
0.898844564776559
 10
-10.41946915561173
 20
14.12993064482702
 30
0.0
 41
1.0
 10
-10.47373710534903
 20
14.36499091327988
 30
0.0
 41
0.9006982393222969
 10
-10.32360439733192
 20
14.5537335949612
 30
0.0
 41
1.0
 10
-10.1734716893148
 20
14.74247627664252
 30
0.0
 41
0.9006982393223016
 10
-9.932300318906105
 20
14.74247627664253
 30
0.0
 41
1.0
  0
SPLINE
  5
15F
330
1F
100
AcDbEntity
  8
Make2D visible lines
100
AcDbSpline
210
0.0
220
0.0
230
1.0
 70
    12
 71
     2
 72
    10
 73
     7
 74
     0
 42
0.0000000001
 43
0.0000000001
 40
-2.236909683916288
 40
-2.236909683916288
 40
-2.236909683916288
 40
-2.144474540076866
 40
-2.144474540076866
 40
-0.8141924107935481
 40
-0.8141924107935481
 40
0.0
 40
0.0
 40
0.0
 10
9.931141781925968
 20
14.74300717314207
 30
0.0
 41
1.0
 10
9.979907166958442
 20
14.75318488990232
 30
0.0
 41
0.8950844710220611
 10
10.001156953089
 20
14.79824146861423
 30
0.0
 41
1.0
 10
10.29783369559014
 20
15.42729434178983
 30
0.0
 41
0.9357858921034148
 10
10.10566830771362
 20
16.09572314913869
 30
0.0
 41
1.0
 10
9.98066427406627
 20
16.53053764954237
 30
0.0
 41
0.8562683536386121
 10
9.536609864591307
 20
16.62298966170525
 30
0.0
 41
1.0
  0
SPLINE
  5
160
330
1F
100
AcDbEntity
  8
Make2D visible lines
100
AcDbSpline
210
0.0
220
0.0
230
1.0
 70
    12
 71
     3
 72
    11
 73
     7
 74
     0
 42
0.0000000001
 43
0.0000000001
 40
-1.999412645572524
 40
-1.999412645572524
 40
-1.999412645572524
 40
-1.999412645572524
 40
-1.0
 40
-1.0
 40
-1.0
 40
-0.0005873544274767
 40
-0.0005873544274767
 40
-0.0005873544274767
 40
-0.0005873544274767
 10
9.536609864591307
 20
16.62298966170525
 30
0.0
 41
1.0
 10
8.258035994901855
 20
16.88899598130173
 30
0.0
 41
1.0
 10
6.753953616454085
 20
17.03778946496555
 30
0.0
 41
1.0
 10
0.0006996810938951
 20
17.03778946496553
 30
0.0
 41
1.0
 10
-6.752554254266272
 20
17.03778946496553
 30
0.0
 41
1.0
 10
-8.256636632714036
 20
16.8889959813017
 30
0.0
 41
1.0
 10
-9.535210502403483
 20
16.62298966170521
 30
0.0
 41
1.0
  0
SPLINE
  5
161
330
1F
100
AcDbEntity
  8
Make2D visible lines
100
AcDbSpline
210
0.0
220
0.0
230
1.0
 70
    12
 71
     2
 72
    10
 73
     7
 74
     0
 42
0.0000000001
 43
0.0000000001
 40
-2.23690968391617
 40
-2.23690968391617
 40
-2.23690968391617
 40
-1.422717273123032
 40
-1.422717273123032
 40
-0.0924351438995765
 40
-0.0924351438995765
 40
0.0
 40
0.0
 40
0.0
 10
-9.535210502403483
 20
16.62298966170521
 30
0.0
 41
1.0
 10
-9.979264911878262
 20
16.53053764954244
 30
0.0
 41
0.8562683536385453
 10
-10.10426894552549
 20
16.09572314913893
 30
0.0
 41
1.0
 10
-10.29643433339294
 20
15.42729434182301
 30
0.0
 41
0.9357858921090954
 10
-9.999757590927004
 20
14.79824146866858
 30
0.0
 41
1.0
 10
-9.978507804807423
 20
14.75318488990997
 30
0.0
 41
0.8950844708874731
 10
-9.929742419738137
 20
14.74300717314227
 30
0.0
 41
1.0
  0
SPLINE
  5
162
330
1F
100
AcDbEntity
  8
Make2D visible lines
100
AcDbSpline
210
0.0
220
0.0
230
1.0
 70
    12
 71
     2
 72
     8
 73
     5
 74
     0
 42
0.0000000001
 43
0.0000000001
 40
3.585625397787048
 40
3.585625397787048
 40
3.585625397787048
 40
16.38811833380997
 40
16.38811833380997
 40
32.77623666761517
 40
32.77623666761517
 40
32.77623666761517
 10
-9.877993076201422
 20
54.32812436887883
 30
0.0
 41
0.899875443995264
 10
-7.47305561835085
 20
61.40363396881639
 30
0.0
 41
0.771190114709349
 10
0.0000000000010749
 20
61.40363396881562
 30
0.0
 41
1.0
 10
10.4330002563532
 20
61.40363396881455
 30
0.0
 41
0.7071067724992287
 10
10.43299999999998
 20
50.9706337124624
 30
0.0
 41
0.999999999999829
  0
SPLINE
  5
163
330
1F
100
AcDbEntity
  8
Make2D visible lines
100
AcDbSpline
210
0.0
220
0.0
230
1.0
 70
    12
 71
     2
 72
     8
 73
     5
 74
     0
 42
0.0000000001
 43
0.0000000001
 40
0.0
 40
0.0
 40
0.0
 40
16.388117226351
 40
16.388117226351
 40
28.41442587246248
 40
28.41442587246248
 40
28.41442587246248
 10
10.43299999999998
 20
50.97063371246242
 30
0.0
 41
1.0
 10
10.43299914890095
 20
40.53763456356258
 30
0.0
 41
0.707106810028621
 10
0.0000000000010802
 20
40.53763456356151
 30
0.0
 41
1.0
 10
-6.895937906929275
 20
40.53763456356079
 30
0.0
 41
0.7850623195887234
 10
-9.598447228081724
 20
46.88195509339872
 30
0.0
 41
0.8855857563518985
  0
SPLINE
  5
164
330
1F
100
AcDbEntity
  8
Make2D visible lines - Tangent
100
AcDbSpline
210
0.0
220
0.0
230
1.0
 70
    12
 71
     2
 72
     6
 73
     3
 74
     0
 42
0.0000000001
 43
0.0000000001
 40
0.0
 40
0.0
 40
0.0
 40
0.6213186892081751
 40
0.6213186892081751
 40
0.6213186892081751
 10
12.63229049105452
 20
47.27882015441067
 30
0.0
 41
1.0
 10
13.00902400149077
 20
47.15930483248073
 30
0.0
 41
0.7078628796196968
 10
12.89031505462575
 20
46.7823164560076
 30
0.0
 41
1.0
  0
SPLINE
  5
165
330
1F
100
AcDbEntity
  8
Make2D visible lines - Tangent
100
AcDbSpline
210
0.0
220
0.0
230
1.0
 70
    12
 71
     2
 72
     6
 73
     3
 74
     0
 42
0.0000000001
 43
0.0000000001
 40
0.0
 40
0.0
 40
0.0
 40
0.6213184385489916
 40
0.6213184385489916
 40
0.6213184385489916
 10
12.89031505462575
 20
46.7823164560076
 30
0.0
 41
1.0
 10
12.7647640390575
 20
46.40755181005846
 30
0.0
 41
0.7078638982414072
 10
12.38973124811677
 20
46.53229956788525
 30
0.0
 41
1.0
  0
SPLINE
  5
166
330
1F
100
AcDbEntity
  8
Make2D visible lines - Tangent
100
AcDbSpline
210
0.0
220
0.0
230
1.0
 70
    12
 71
     2
 72
     6
 73
     3
 74
     0
 42
0.0000000001
 43
0.0000000001
 40
0.0
 40
0.0
 40
0.0
 40
0.6213186892081751
 40
0.6213186892081751
 40
0.6213186892081751
 10
7.414715780946771
 20
61.8438227702098
 30
0.0
 41
1.0
 10
7.644798663740686
 20
62.16518536465242
 30
0.0
 41
0.7078628796196968
 10
7.966652833787339
 20
61.93579063218188
 30
0.0
 41
1.0
  0
SPLINE
  5
167
330
1F
100
AcDbEntity
  8
Make2D visible lines - Tangent
100
AcDbSpline
210
0.0
220
0.0
230
1.0
 70
    12
 71
     2
 72
     6
 73
     3
 74
     0
 42
0.0000000001
 43
0.0000000001
 40
0.0
 40
0.0
 40
0.0
 40
0.6213184385489916
 40
0.6213184385489916
 40
0.6213184385489916
 10
7.966652833787339
 20
61.93579063218188
 30
0.0
 41
1.0
 10
8.284277794922682
 20
61.70057587620903
 30
0.0
 41
0.7078638982414072
 10
8.049744121099767
 20
61.38244767373914
 30
0.0
 41
1.0
  0
SPLINE
  5
168
330
1F
100
AcDbEntity
  8
Make2D visible lines - Tangent
100
AcDbSpline
210
0.0
220
0.0
230
1.0
 70
    12
 71
     2
 72
     6
 73
     3
 74
     0
 42
0.0000000001
 43
0.0000000001
 40
0.0
 40
0.0
 40
0.0
 40
0.6213186892081751
 40
0.6213186892081751
 40
0.6213186892081751
 10
-8.049744121509201
 20
61.38244767430253
 30
0.0
 41
1.0
 10
-8.28427859014926
 20
61.70057600231085
 30
0.0
 41
0.7078628796196968
 10
-7.966652826774515
 20
61.935790637277
 30
0.0
 41
1.0
  0
SPLINE
  5
169
330
1F
100
AcDbEntity
  8
Make2D visible lines - Tangent
100
AcDbSpline
210
0.0
220
0.0
230
1.0
 70
    12
 71
     2
 72
     6
 73
     3
 74
     0
 42
0.0000000001
 43
0.0000000001
 40
0.0
 40
0.0
 40
0.0
 40
0.6213184385489916
 40
0.6213184385489916
 40
0.6213184385489916
 10
-7.966652826774515
 20
61.935790637277
 30
0.0
 41
1.0
 10
-7.644798789549257
 20
62.16518456937939
 30
0.0
 41
0.7078638982414072
 10
-7.414715780537476
 20
61.84382276964633
 30
0.0
 41
1.0
  0
POLYLINE
  5
16A
330
1F
100
AcDbEntity
  8
Default
100
AcDb2dPolyline
 66
     1
 10
0.0
 20
0.0
 30
0.0
  0
VERTEX
  5
16B
330
16A
100
AcDbEntity
  8
Default
100
AcDbVertex
100
AcDb2dVertex
 10
12.38973124811677
 20
46.53229956788525
 30
0.0
  0
VERTEX
  5
16C
330
16A
100
AcDbEntity
  8
Default
100
AcDbVertex
100
AcDb2dVertex
 10
11.86682830808593
 20
46.72538864264594
 30
0.0
  0
SEQEND
  5
16D
330
16A
100
AcDbEntity
  8
Default
  0
POLYLINE
  5
16E
330
1F
100
AcDbEntity
  8
Default
100
AcDb2dPolyline
 66
     1
 10
0.0
 20
0.0
 30
0.0
  0
VERTEX
  5
16F
330
16E
100
AcDbEntity
  8
Default
100
AcDbVertex
100
AcDb2dVertex
 10
12.63229049105452
 20
47.27882015441067
 30
0.0
  0
VERTEX
  5
170
330
16E
100
AcDbEntity
  8
Default
100
AcDbVertex
100
AcDb2dVertex
 10
12.09575821497562
 20
47.42996244824742
 30
0.0
  0
SEQEND
  5
171
330
16E
100
AcDbEntity
  8
Default
  0
POLYLINE
  5
172
330
1F
100
AcDbEntity
  8
Default
100
AcDb2dPolyline
 66
     1
 10
0.0
 20
0.0
 30
0.0
  0
VERTEX
  5
173
330
172
100
AcDbEntity
  8
Default
100
AcDbVertex
100
AcDb2dVertex
 10
8.049744121099767
 20
61.38244767373914
 30
0.0
  0
VERTEX
  5
174
330
172
100
AcDbEntity
  8
Default
100
AcDbVertex
100
AcDb2dVertex
 10
7.704519603445051
 20
60.94480523076211
 30
0.0
  0
SEQEND
  5
175
330
172
100
AcDbEntity
  8
Default
  0
POLYLINE
  5
176
330
1F
100
AcDbEntity
  8
Default
100
AcDb2dPolyline
 66
     1
 10
0.0
 20
0.0
 30
0.0
  0
VERTEX
  5
177
330
176
100
AcDbEntity
  8
Default
100
AcDbVertex
100
AcDb2dVertex
 10
7.414715780946771
 20
61.8438227702098
 30
0.0
  0
VERTEX
  5
178
330
176
100
AcDbEntity
  8
Default
100
AcDbVertex
100
AcDb2dVertex
 10
7.105173326166486
 20
61.38025579020667
 30
0.0
  0
SEQEND
  5
179
330
176
100
AcDbEntity
  8
Default
  0
POLYLINE
  5
17A
330
1F
100
AcDbEntity
  8
Default
100
AcDb2dPolyline
 66
     1
 10
0.0
 20
0.0
 30
0.0
  0
VERTEX
  5
17B
330
17A
100
AcDbEntity
  8
Default
100
AcDbVertex
100
AcDb2dVertex
 10
-7.414715780537476
 20
61.84382276964633
 30
0.0
  0
VERTEX
  5
17C
330
17A
100
AcDbEntity
  8
Default
100
AcDbVertex
100
AcDb2dVertex
 10
-7.105173326167034
 20
61.38025579020628
 30
0.0
  0
SEQEND
  5
17D
330
17A
100
AcDbEntity
  8
Default
  0
POLYLINE
  5
17E
330
1F
100
AcDbEntity
  8
Default
100
AcDb2dPolyline
 66
     1
 10
0.0
 20
0.0
 30
0.0
  0
VERTEX
  5
17F
330
17E
100
AcDbEntity
  8
Default
100
AcDbVertex
100
AcDb2dVertex
 10
-8.049744121509201
 20
61.38244767430253
 30
0.0
  0
VERTEX
  5
180
330
17E
100
AcDbEntity
  8
Default
100
AcDbVertex
100
AcDb2dVertex
 10
-7.7045196034456
 20
60.94480523076171
 30
0.0
  0
SEQEND
  5
181
330
17E
100
AcDbEntity
  8
Default
  0
POLYLINE
  5
182
330
1F
100
AcDbEntity
  8
Default
100
AcDb2dPolyline
 66
     1
 10
0.0
 20
0.0
 30
0.0
  0
VERTEX
  5
183
330
182
100
AcDbEntity
  8
Default
100
AcDbVertex
100
AcDb2dVertex
 10
-7.827692674076795
 20
61.10095220407585
 30
0.0
  0
VERTEX
  5
184
330
182
100
AcDbEntity
  8
Default
100
AcDbVertex
100
AcDb2dVertex
 10
-8.080723383299606
 20
61.10095220407585
 30
0.0
  0
SEQEND
  5
185
330
182
100
AcDbEntity
  8
Default
  0
SPLINE
  5
186
330
1F
100
AcDbEntity
  8
Default
100
AcDbSpline
210
0.0
220
0.0
230
1.0
 70
    12
 71
     2
 72
     6
 73
     3
 74
     0
 42
0.0000000001
 43
0.0000000001
 40
-0.0784842030870699
 40
-0.0784842030870699
 40
-0.0784842030870699
 40
0.0
 40
0.0
 40
0.0
 10
-8.080723383299606
 20
61.10095220407585
 30
0.0
 41
1.0
 10
-8.130687197508317
 20
61.100918509086
 30
0.0
 41
0.7071217743558633
 10
-8.130723423814192
 20
61.15088232182087
 30
0.0
 41
1.0
  0
ARC
  5
187
330
1F
100
AcDbEntity
  8
Default
100
AcDbCircle
 10
3515562.163514707
 20
61.0740241828429
 30
0.0
 40
3515570.294238132
100
AcDbArc
 50
179.9999911428347
 51
179.9999987473873
  0
ARC
  5
188
330
1F
100
AcDbEntity
  8
Default
100
AcDbCircle
 10
3515562.163514707
 20
61.0740241828429
 30
0.0
 40
3515570.294238132
100
AcDbArc
 50
179.9999902076223
 51
179.9999911428347
  0
LINE
  5
189
330
1F
100
AcDbEntity
  8
Default
100
AcDbLine
 10
-8.130723372410607
 20
61.67486758027281
 30
0.0
 11
-8.130723029454002
 21
63.60622313495478
 31
0.0
  0
SPLINE
  5
18A
330
1F
100
AcDbEntity
  8
Default
100
AcDbSpline
210
0.0
220
0.0
230
1.0
 70
    12
 71
     2
 72
     6
 73
     3
 74
     0
 42
0.0000000001
 43
0.0000000001
 40
0.0
 40
0.0
 40
0.0
 40
0.0784456575506041
 40
0.0784456575506041
 40
0.0784456575506041
 10
-8.130723029454002
 20
63.60622313495478
 30
0.0
 41
1.0
 10
-8.130663353121165
 20
63.65616310460762
 30
0.0
 41
0.7071077818591103
 10
-8.080723383299668
 20
63.65610358448138
 30
0.0
 41
1.0
  0
SPLINE
  5
18B
330
1F
100
AcDbEntity
  8
Default
100
AcDbSpline
210
0.0
220
0.0
230
1.0
 70
    12
 71
     2
 72
     6
 73
     3
 74
     0
 42
0.0000000001
 43
0.0000000001
 40
0.0
 40
0.0
 40
0.0
 40
0.0351460068279919
 40
0.0351460068279919
 40
0.0351460068279919
 10
-8.080723383299668
 20
63.65610358448138
 30
0.0
 41
1.0
 10
-8.063347303627186
 20
63.65927098893076
 30
0.0
 41
0.9924246250463485
 10
-8.045723383296234
 20
63.65810564439006
 30
0.0
 41
1.0
  0
SPLINE
  5
18C
330
1F
100
AcDbEntity
  8
Default
100
AcDbSpline
210
0.0
220
0.0
230
1.0
 70
    24
 71
     2
 72
     6
 73
     3
 74
     0
 42
0.0000000001
 43
0.0000000001
 40
-0.6179999945348698
 40
-0.6179999945348698
 40
-0.6179999945348698
 40
0.0
 40
0.0
 40
0.0
 10
-8.045723383296234
 20
63.65810564439006
 30
0.0
 10
-7.7367233860288
 20
63.65810564439001
 30
0.0
 10
-7.427723388761365
 20
63.65810564438997
 30
0.0
  0
SPLINE
  5
18D
330
1F
100
AcDbEntity
  8
Default
100
AcDbSpline
210
0.0
220
0.0
230
1.0
 70
    12
 71
     2
 72
     6
 73
     3
 74
     0
 42
0.0000000001
 43
0.0000000001
 40
0.0
 40
0.0
 40
0.0
 40
0.0351460122197656
 40
0.0351460122197656
 40
0.0351460122197656
 10
-7.427723388761365
 20
63.65810564438997
 30
0.0
 41
1.0
 10
-7.410099465754602
 20
63.65927098857753
 30
0.0
 41
0.9924246303389436
 10
-7.392723383300293
 20
63.65610358463031
 30
0.0
 41
1.0
  0
SPLINE
  5
18E
330
1F
100
AcDbEntity
  8
Default
100
AcDbSpline
210
0.0
220
0.0
230
1.0
 70
    12
 71
     2
 72
     6
 73
     3
 74
     0
 42
0.0000000001
 43
0.0000000001
 40
0.0
 40
0.0
 40
0.0
 40
0.0784456577816192
 40
0.0784456577816192
 40
0.0784456577816192
 10
-7.392723383300293
 20
63.65610358463031
 30
0.0
 41
1.0
 10
-7.342783413520244
 20
63.65616310423989
 30
0.0
 41
0.707107785543906
 10
-7.342723722286082
 20
63.60622313462913
 30
0.0
 41
1.0
  0
LINE
  5
18F
330
1F
100
AcDbEntity
  8
Default
100
AcDbLine
 10
-7.342723722286082
 20
63.60622313462913
 30
0.0
 11
-7.342723404575841
 21
61.73600787125017
 31
0.0
  0
POLYLINE
  5
190
330
1F
100
AcDbEntity
  8
Default
100
AcDb2dPolyline
 66
     1
 10
0.0
 20
0.0
 30
0.0
  0
VERTEX
  5
191
330
190
100
AcDbEntity
  8
Default
100
AcDbVertex
100
AcDb2dVertex
 10
-7.273723383299996
 20
61.63267428649457
 30
0.0
  0
VERTEX
  5
192
330
190
100
AcDbEntity
  8
Default
100
AcDbVertex
100
AcDb2dVertex
 10
-7.273723383299997
 20
63.58916363854028
 30
0.0
  0
SEQEND
  5
193
330
190
100
AcDbEntity
  8
Default
  0
SPLINE
  5
194
330
1F
100
AcDbEntity
  8
Default
100
AcDbSpline
210
0.0
220
0.0
230
1.0
 70
    12
 71
     2
 72
     6
 73
     3
 74
     0
 42
0.0000000001
 43
0.0000000001
 40
0.0
 40
0.0
 40
0.0
 40
0.109941564851661
 40
0.109941564851661
 40
0.109941564851661
 10
-7.273723383299997
 20
63.58916363854028
 30
0.0
 41
1.0
 10
-7.273690348845307
 20
63.65913060408693
 30
0.0
 41
0.7074405726109262
 10
-7.203723383299997
 20
63.65916364138027
 30
0.0
 41
1.0
  0
SPLINE
  5
195
330
1F
100
AcDbEntity
  8
Default
100
AcDbSpline
210
0.0
220
0.0
230
1.0
 70
    24
 71
     2
 72
     6
 73
     3
 74
     0
 42
0.0000000001
 43
0.0000000001
 40
0.0
 40
0.0
 40
0.0
 40
0.3520000000000003
 40
0.3520000000000003
 40
0.3520000000000003
 10
-7.203723383299997
 20
63.65916364138027
 30
0.0
 10
-7.027723383299997
 20
63.65916364138027
 30
0.0
 10
-6.851723383299997
 20
63.65916364138028
 30
0.0
  0
SPLINE
  5
196
330
1F
100
AcDbEntity
  8
Default
100
AcDbSpline
210
0.0
220
0.0
230
1.0
 70
    12
 71
     2
 72
     6
 73
     3
 74
     0
 42
0.0000000001
 43
0.0000000001
 40
0.0
 40
0.0
 40
0.0
 40
0.2356186331260159
 40
0.2356186331260159
 40
0.2356186331260159
 10
-6.851723383299997
 20
63.65916364138028
 30
0.0
 41
1.0
 10
-6.701725288141643
 20
63.65916173360667
 30
0.0
 41
0.7071157676638842
 10
-6.701723383299997
 20
63.50916363844828
 30
0.0
 41
1.0
  0
POLYLINE
  5
197
330
1F
100
AcDbEntity
  8
Default
100
AcDb2dPolyline
 66
     1
 10
0.0
 20
0.0
 30
0.0
  0
VERTEX
  5
198
330
197
100
AcDbEntity
  8
Default
100
AcDbVertex
100
AcDb2dVertex
 10
-6.701723383299997
 20
63.50916363844828
 30
0.0
  0
VERTEX
  5
199
330
197
100
AcDbEntity
  8
Default
100
AcDbVertex
100
AcDb2dVertex
 10
-6.701723383299998
 20
61.24916364431227
 30
0.0
  0
SEQEND
  5
19A
330
197
100
AcDbEntity
  8
Default
  0
SPLINE
  5
19B
330
1F
100
AcDbEntity
  8
Default
100
AcDbSpline
210
0.0
220
0.0
230
1.0
 70
    12
 71
     2
 72
     6
 73
     3
 74
     0
 42
0.0000000001
 43
0.0000000001
 40
0.0
 40
0.0
 40
0.0
 40
0.2355890798875016
 40
0.2355890798875016
 40
0.2355890798875016
 10
-6.701723383299998
 20
61.24916364431227
 30
0.0
 41
1.0
 10
-6.70179413845778
 20
61.09923439946868
 30
0.0
 41
0.7074404097356639
 10
-6.851723383299997
 20
61.09916364138028
 30
0.0
 41
1.0
  0
SPLINE
  5
19C
330
1F
100
AcDbEntity
  8
Default
100
AcDbSpline
210
0.0
220
0.0
230
1.0
 70
    24
 71
     2
 72
     6
 73
     3
 74
     0
 42
0.0000000001
 43
0.0000000001
 40
0.0
 40
0.0
 40
0.0
 40
0.0443355314108551
 40
0.0443355314108551
 40
0.0443355314108551
 10
-6.851723383299997
 20
61.09916364138028
 30
0.0
 10
-6.873891149005424
 20
61.09916364138028
 30
0.0
 10
-6.896058914710852
 20
61.09916364138028
 30
0.0
  0
POLYLINE
  5
19D
330
1F
100
AcDbEntity
  8
Make2D visible lines - Tangent
100
AcDb2dPolyline
 66
     1
 10
0.0
 20
0.0
 30
0.0
  0
VERTEX
  5
19E
330
19D
100
AcDbEntity
  8
Make2D visible lines - Tangent
100
AcDbVertex
100
AcDb2dVertex
 10
7.827692674088722
 20
61.10095220407585
 30
0.0
  0
VERTEX
  5
19F
330
19D
100
AcDbEntity
  8
Make2D visible lines - Tangent
100
AcDbVertex
100
AcDb2dVertex
 10
8.080723383299606
 20
61.10095220407585
 30
0.0
  0
SEQEND
  5
1A0
330
19D
100
AcDbEntity
  8
Make2D visible lines - Tangent
  0
SPLINE
  5
1A1
330
1F
100
AcDbEntity
  8
Make2D visible lines - Tangent
100
AcDbSpline
210
0.0
220
0.0
230
1.0
 70
    12
 71
     2
 72
     6
 73
     3
 74
     0
 42
0.0000000001
 43
0.0000000001
 40
-0.0784842030870699
 40
-0.0784842030870699
 40
-0.0784842030870699
 40
0.0
 40
0.0
 40
0.0
 10
8.080723383299606
 20
61.10095220407585
 30
0.0
 41
1.0
 10
8.130687197508317
 20
61.100918509086
 30
0.0
 41
0.7071217743558633
 10
8.130723423814192
 20
61.15088232182087
 30
0.0
 41
1.0
  0
ARC
  5
1A2
330
1F
100
AcDbEntity
  8
Make2D visible lines - Tangent
100
AcDbCircle
 10
-3515562.163514707
 20
61.0740241828429
 30
0.0
 40
3515570.294238132
100
AcDbArc
 50
0.000001252612744
 51
0.000008857163335
  0
ARC
  5
1A3
330
1F
100
AcDbEntity
  8
Make2D visible lines - Tangent
100
AcDbCircle
 10
-3515562.163514707
 20
61.0740241828429
 30
0.0
 40
3515570.294238132
100
AcDbArc
 50
0.000008857163335
 51
0.0000097923776537
  0
LINE
  5
1A4
330
1F
100
AcDbEntity
  8
Make2D visible lines - Tangent
100
AcDbLine
 10
8.130723372410607
 20
61.67486758027281
 30
0.0
 11
8.130723029454002
 21
63.60622313495478
 31
0.0
  0
SPLINE
  5
1A5
330
1F
100
AcDbEntity
  8
Make2D visible lines - Tangent
100
AcDbSpline
210
0.0
220
0.0
230
1.0
 70
    12
 71
     2
 72
     6
 73
     3
 74
     0
 42
0.0000000001
 43
0.0000000001
 40
0.0
 40
0.0
 40
0.0
 40
0.0784456575506041
 40
0.0784456575506041
 40
0.0784456575506041
 10
8.130723029454002
 20
63.60622313495478
 30
0.0
 41
1.0
 10
8.130663353121165
 20
63.65616310460762
 30
0.0
 41
0.7071077818591103
 10
8.080723383299668
 20
63.65610358448138
 30
0.0
 41
1.0
  0
SPLINE
  5
1A6
330
1F
100
AcDbEntity
  8
Make2D visible lines - Tangent
100
AcDbSpline
210
0.0
220
0.0
230
1.0
 70
    12
 71
     2
 72
     6
 73
     3
 74
     0
 42
0.0000000001
 43
0.0000000001
 40
0.0
 40
0.0
 40
0.0
 40
0.0351460068279919
 40
0.0351460068279919
 40
0.0351460068279919
 10
8.080723383299668
 20
63.65610358448138
 30
0.0
 41
1.0
 10
8.063347303627186
 20
63.65927098893076
 30
0.0
 41
0.9924246250463485
 10
8.045723383296234
 20
63.65810564439006
 30
0.0
 41
1.0
  0
SPLINE
  5
1A7
330
1F
100
AcDbEntity
  8
Make2D visible lines - Tangent
100
AcDbSpline
210
0.0
220
0.0
230
1.0
 70
    24
 71
     2
 72
     6
 73
     3
 74
     0
 42
0.0000000001
 43
0.0000000001
 40
-0.6179999945348698
 40
-0.6179999945348698
 40
-0.6179999945348698
 40
0.0
 40
0.0
 40
0.0
 10
8.045723383296234
 20
63.65810564439006
 30
0.0
 10
7.7367233860288
 20
63.65810564439001
 30
0.0
 10
7.427723388761365
 20
63.65810564438997
 30
0.0
  0
SPLINE
  5
1A8
330
1F
100
AcDbEntity
  8
Make2D visible lines - Tangent
100
AcDbSpline
210
0.0
220
0.0
230
1.0
 70
    12
 71
     2
 72
     6
 73
     3
 74
     0
 42
0.0000000001
 43
0.0000000001
 40
0.0
 40
0.0
 40
0.0
 40
0.0351460122197656
 40
0.0351460122197656
 40
0.0351460122197656
 10
7.427723388761365
 20
63.65810564438997
 30
0.0
 41
1.0
 10
7.410099465754602
 20
63.65927098857753
 30
0.0
 41
0.9924246303389436
 10
7.392723383300293
 20
63.65610358463031
 30
0.0
 41
1.0
  0
SPLINE
  5
1A9
330
1F
100
AcDbEntity
  8
Make2D visible lines - Tangent
100
AcDbSpline
210
0.0
220
0.0
230
1.0
 70
    12
 71
     2
 72
     6
 73
     3
 74
     0
 42
0.0000000001
 43
0.0000000001
 40
0.0
 40
0.0
 40
0.0
 40
0.0784456577816192
 40
0.0784456577816192
 40
0.0784456577816192
 10
7.392723383300293
 20
63.65610358463031
 30
0.0
 41
1.0
 10
7.342783413520244
 20
63.65616310423989
 30
0.0
 41
0.707107785543906
 10
7.342723752043508
 20
63.60622313462913
 30
0.0
 41
1.0
  0
LINE
  5
1AA
330
1F
100
AcDbEntity
  8
Make2D visible lines - Tangent
100
AcDbLine
 10
7.342723722286082
 20
63.60622313462913
 30
0.0
 11
7.342723403760224
 21
61.73600787003569
 31
0.0
  0
POLYLINE
  5
1AB
330
1F
100
AcDbEntity
  8
Default
100
AcDb2dPolyline
 66
     1
 10
0.0
 20
0.0
 30
0.0
  0
VERTEX
  5
1AC
330
1AB
100
AcDbEntity
  8
Default
100
AcDbVertex
100
AcDb2dVertex
 10
7.273723383299996
 20
61.63267428646817
 30
0.0
  0
VERTEX
  5
1AD
330
1AB
100
AcDbEntity
  8
Default
100
AcDbVertex
100
AcDb2dVertex
 10
7.273723383299997
 20
63.58916363854028
 30
0.0
  0
SEQEND
  5
1AE
330
1AB
100
AcDbEntity
  8
Default
  0
SPLINE
  5
1AF
330
1F
100
AcDbEntity
  8
Default
100
AcDbSpline
210
0.0
220
0.0
230
1.0
 70
    12
 71
     2
 72
     6
 73
     3
 74
     0
 42
0.0000000001
 43
0.0000000001
 40
0.0
 40
0.0
 40
0.0
 40
0.109941564851661
 40
0.109941564851661
 40
0.109941564851661
 10
7.273723383299997
 20
63.58916363854028
 30
0.0
 41
1.0
 10
7.273690348845307
 20
63.65913060408693
 30
0.0
 41
0.7074405726109262
 10
7.203723383299997
 20
63.65916364138027
 30
0.0
 41
1.0
  0
SPLINE
  5
1B0
330
1F
100
AcDbEntity
  8
Default
100
AcDbSpline
210
0.0
220
0.0
230
1.0
 70
    24
 71
     2
 72
     6
 73
     3
 74
     0
 42
0.0000000001
 43
0.0000000001
 40
0.0
 40
0.0
 40
0.0
 40
0.3520000000000003
 40
0.3520000000000003
 40
0.3520000000000003
 10
7.203723383299997
 20
63.65916364138027
 30
0.0
 10
7.027723383299997
 20
63.65916364138027
 30
0.0
 10
6.851723383299997
 20
63.65916364138028
 30
0.0
  0
SPLINE
  5
1B1
330
1F
100
AcDbEntity
  8
Default
100
AcDbSpline
210
0.0
220
0.0
230
1.0
 70
    12
 71
     2
 72
     6
 73
     3
 74
     0
 42
0.0000000001
 43
0.0000000001
 40
0.0
 40
0.0
 40
0.0
 40
0.2356186331260159
 40
0.2356186331260159
 40
0.2356186331260159
 10
6.851723383299997
 20
63.65916364138028
 30
0.0
 41
1.0
 10
6.701725288141643
 20
63.65916173360667
 30
0.0
 41
0.7071157676638842
 10
6.701723383299997
 20
63.50916363844828
 30
0.0
 41
1.0
  0
POLYLINE
  5
1B2
330
1F
100
AcDbEntity
  8
Default
100
AcDb2dPolyline
 66
     1
 10
0.0
 20
0.0
 30
0.0
  0
VERTEX
  5
1B3
330
1B2
100
AcDbEntity
  8
Default
100
AcDbVertex
100
AcDb2dVertex
 10
6.701723383299997
 20
63.50916363844828
 30
0.0
  0
VERTEX
  5
1B4
330
1B2
100
AcDbEntity
  8
Default
100
AcDbVertex
100
AcDb2dVertex
 10
6.701723383299998
 20
61.24916364431227
 30
0.0
  0
SEQEND
  5
1B5
330
1B2
100
AcDbEntity
  8
Default
  0
SPLINE
  5
1B6
330
1F
100
AcDbEntity
  8
Default
100
AcDbSpline
210
0.0
220
0.0
230
1.0
 70
    12
 71
     2
 72
     6
 73
     3
 74
     0
 42
0.0000000001
 43
0.0000000001
 40
0.0
 40
0.0
 40
0.0
 40
0.2355890798875016
 40
0.2355890798875016
 40
0.2355890798875016
 10
6.701723383299998
 20
61.24916364431227
 30
0.0
 41
1.0
 10
6.70179413845778
 20
61.09923439946868
 30
0.0
 41
0.7074404097356639
 10
6.851723383299997
 20
61.09916364138028
 30
0.0
 41
1.0
  0
SPLINE
  5
1B7
330
1F
100
AcDbEntity
  8
Default
100
AcDbSpline
210
0.0
220
0.0
230
1.0
 70
    24
 71
     2
 72
     6
 73
     3
 74
     0
 42
0.0000000001
 43
0.0000000001
 40
0.0
 40
0.0
 40
0.0
 40
0.044335403351365
 40
0.044335403351365
 40
0.044335403351365
 10
6.851723383299997
 20
61.09916364138028
 30
0.0
 10
6.873891084975679
 20
61.09916364138028
 30
0.0
 10
6.896058786651362
 20
61.09916364138028
 30
0.0
  0
ARC
  5
1B8
330
1F
100
AcDbEntity
  8
Default
100
AcDbCircle
 10
-3515557.381956695
 20
46.35790180592489
 30
0.0
 40
3515570.294238132
100
AcDbArc
 50
0.0000012526123369
 51
0.0000088558212607
  0
SPLINE
  5
1B9
330
1F
100
AcDbEntity
  8
Default
100
AcDbSpline
210
0.0
220
0.0
230
1.0
 70
    12
 71
     2
 72
     6
 73
     3
 74
     0
 42
0.0000000001
 43
0.0000000001
 40
0.0
 40
0.0
 40
0.0
 40
0.0784842030870699
 40
0.0784842030870699
 40
0.0784842030870699
 10
12.91228143624419
 20
46.43475994490286
 30
0.0
 41
1.0
 10
12.91224520993832
 20
46.38479613216798
 30
0.0
 41
0.7071217743558633
 10
12.86228139572961
 20
46.38482982715784
 30
0.0
 41
1.0
  0
POLYLINE
  5
1BA
330
1F
100
AcDbEntity
  8
Default
100
AcDb2dPolyline
 66
     1
 10
0.0
 20
0.0
 30
0.0
  0
VERTEX
  5
1BB
330
1BA
100
AcDbEntity
  8
Default
100
AcDbVertex
100
AcDb2dVertex
 10
12.86228139572961
 20
46.38482982715784
 30
0.0
  0
VERTEX
  5
1BC
330
1BA
100
AcDbEntity
  8
Default
100
AcDbVertex
100
AcDb2dVertex
 10
12.17428139573039
 20
46.38482982715784
 30
0.0
  0
SEQEND
  5
1BD
330
1BA
100
AcDbEntity
  8
Default
  0
SPLINE
  5
1BE
330
1F
100
AcDbEntity
  8
Default
100
AcDbSpline
210
0.0
220
0.0
230
1.0
 70
    12
 71
     2
 72
     6
 73
     3
 74
     0
 42
0.0000000001
 43
0.0000000001
 40
-0.0784842030870699
 40
-0.0784842030870699
 40
-0.0784842030870699
 40
0.0
 40
0.0
 40
0.0
 10
12.17428139573039
 20
46.38482982715784
 30
0.0
 41
1.0
 10
12.12431758152168
 20
46.38479613216798
 30
0.0
 41
0.7071217743558633
 10
12.12428135521581
 20
46.43475994490286
 30
0.0
 41
1.0
  0
ARC
  5
1BF
330
1F
100
AcDbEntity
  8
Default
100
AcDbCircle
 10
3515582.418519486
 20
46.35790180592489
 30
0.0
 40
3515570.294238132
100
AcDbArc
 50
179.9999955601953
 51
179.9999987473877
  0
LINE
  5
1C0
330
1F
100
AcDbEntity
  8
Default
100
AcDbLine
 10
12.1242814853043
 20
47.4219273846093
 30
0.0
 11
12.12428173471608
 21
48.89010075771111
 31
0.0
  0
SPLINE
  5
1C1
330
1F
100
AcDbEntity
  8
Default
100
AcDbSpline
210
0.0
220
0.0
230
1.0
 70
    12
 71
     2
 72
     6
 73
     3
 74
     0
 42
0.0000000001
 43
0.0000000001
 40
-0.0784456577816192
 40
-0.0784456577816192
 40
-0.0784456577816192
 40
0.0
 40
0.0
 40
0.0
 10
12.12428176447351
 20
48.89010075771111
 30
0.0
 41
1.0
 10
12.12434142595024
 20
48.94004072732187
 30
0.0
 41
0.707107785543906
 10
12.17428139573029
 20
48.93998120771229
 30
0.0
 41
1.0
  0
SPLINE
  5
1C2
330
1F
100
AcDbEntity
  8
Default
100
AcDbSpline
210
0.0
220
0.0
230
1.0
 70
    12
 71
     2
 72
     6
 73
     3
 74
     0
 42
0.0000000001
 43
0.0000000001
 40
-0.0351460122197656
 40
-0.0351460122197656
 40
-0.0351460122197656
 40
0.0
 40
0.0
 40
0.0
 10
12.17428139573029
 20
48.93998120771229
 30
0.0
 41
1.0
 10
12.1916574781846
 20
48.94314861165952
 30
0.0
 41
0.9924246303389436
 10
12.20928140119137
 20
48.94198326747195
 30
0.0
 41
1.0
  0
SPLINE
  5
1C3
330
1F
100
AcDbEntity
  8
Default
100
AcDbSpline
210
0.0
220
0.0
230
1.0
 70
    24
 71
     2
 72
     6
 73
     3
 74
     0
 42
0.0000000001
 43
0.0000000001
 40
0.0
 40
0.0
 40
0.0
 40
0.6179999945348698
 40
0.6179999945348698
 40
0.6179999945348698
 10
12.20928140119137
 20
48.94198326747195
 30
0.0
 10
12.5182813984588
 20
48.941983267472
 30
0.0
 10
12.82728139572624
 20
48.94198326747204
 30
0.0
  0
SPLINE
  5
1C4
330
1F
100
AcDbEntity
  8
Default
100
AcDbSpline
210
0.0
220
0.0
230
1.0
 70
    12
 71
     2
 72
     6
 73
     3
 74
     0
 42
0.0000000001
 43
0.0000000001
 40
-0.0351460068279919
 40
-0.0351460068279919
 40
-0.0351460068279919
 40
0.0
 40
0.0
 40
0.0
 10
12.82728139572624
 20
48.94198326747204
 30
0.0
 41
1.0
 10
12.84490531605719
 20
48.94314861201274
 30
0.0
 41
0.9924246250463485
 10
12.86228139572967
 20
48.93998120756336
 30
0.0
 41
1.0
  0
SPLINE
  5
1C5
330
1F
100
AcDbEntity
  8
Default
100
AcDbSpline
210
0.0
220
0.0
230
1.0
 70
    12
 71
     2
 72
     6
 73
     3
 74
     0
 42
0.0000000001
 43
0.0000000001
 40
-0.0784456575506041
 40
-0.0784456575506041
 40
-0.0784456575506041
 40
0.0
 40
0.0
 40
0.0
 10
12.86228139572967
 20
48.93998120756336
 30
0.0
 41
1.0
 10
12.91222136555117
 20
48.94004072768961
 30
0.0
 41
0.7071077818591103
 10
12.912281041884
 20
48.89010075803677
 30
0.0
 41
1.0
  0
LINE
  5
1C6
330
1F
100
AcDbEntity
  8
Default
100
AcDbLine
 10
12.912281041884
 20
48.89010075803677
 30
0.0
 11
12.91228138484061
 21
46.9587452033548
 31
0.0
  0
ARC
  5
1C7
330
1F
100
AcDbEntity
  8
Default
100
AcDbCircle
 10
-3515557.381956695
 20
46.35790180592489
 30
0.0
 40
3515570.294238132
100
AcDbArc
 50
0.0000088558212607
 51
0.0000097923772466
  0
POLYLINE
  5
1C8
330
1F
100
AcDbEntity
  8
Default
100
AcDb2dPolyline
 66
     1
 10
0.0
 20
0.0
 30
0.0
  0
VERTEX
  5
1C9
330
1C8
100
AcDbEntity
  8
Default
100
AcDbVertex
100
AcDb2dVertex
 10
11.48328139573
 20
46.84523948387923
 30
0.0
  0
VERTEX
  5
1CA
330
1C8
100
AcDbEntity
  8
Default
100
AcDbVertex
100
AcDb2dVertex
 10
11.48328139573
 20
46.53304126739427
 30
0.0
  0
SEQEND
  5
1CB
330
1C8
100
AcDbEntity
  8
Default
  0
SPLINE
  5
1CC
330
1F
100
AcDbEntity
  8
Default
100
AcDbSpline
210
0.0
220
0.0
230
1.0
 70
    12
 71
     2
 72
     6
 73
     3
 74
     0
 42
0.0000000001
 43
0.0000000001
 40
0.0
 40
0.0
 40
0.0
 40
0.2355890798875016
 40
0.2355890798875016
 40
0.2355890798875016
 10
11.48328139573
 20
46.53304126739427
 30
0.0
 41
1.0
 10
11.48335215088778
 20
46.38311202255066
 30
0.0
 41
0.7074404097356639
 10
11.63328139573
 20
46.38304126446227
 30
0.0
 41
1.0
  0
SPLINE
  5
1CD
330
1F
100
AcDbEntity
  8
Default
100
AcDbSpline
210
0.0
220
0.0
230
1.0
 70
    24
 71
     2
 72
     6
 73
     3
 74
     0
 42
0.0000000001
 43
0.0000000001
 40
0.0
 40
0.0
 40
0.0
 40
0.3520000000000003
 40
0.3520000000000003
 40
0.3520000000000003
 10
11.63328139573
 20
46.38304126446227
 30
0.0
 10
11.80928139573
 20
46.38304126446227
 30
0.0
 10
11.98528139573
 20
46.38304126446227
 30
0.0
  0
SPLINE
  5
1CE
330
1F
100
AcDbEntity
  8
Default
100
AcDbSpline
210
0.0
220
0.0
230
1.0
 70
    12
 71
     2
 72
     6
 73
     3
 74
     0
 42
0.0000000001
 43
0.0000000001
 40
0.0
 40
0.0
 40
0.0
 40
0.1098876245644455
 40
0.1098876245644455
 40
0.1098876245644455
 10
11.98528139573
 20
46.38304126446226
 30
0.0
 41
1.0
 10
12.05512274393969
 20
46.38319991908615
 30
0.0
 41
0.7087112325863247
 10
12.05528139573
 20
46.45304126730227
 30
0.0
 41
1.0
  0
POLYLINE
  5
1CF
330
1F
100
AcDbEntity
  8
Default
100
AcDb2dPolyline
 66
     1
 10
0.0
 20
0.0
 30
0.0
  0
VERTEX
  5
1D0
330
1CF
100
AcDbEntity
  8
Default
100
AcDbVertex
100
AcDb2dVertex
 10
12.05528139573
 20
46.45304126730227
 30
0.0
  0
VERTEX
  5
1D1
330
1CF
100
AcDbEntity
  8
Default
100
AcDbVertex
100
AcDb2dVertex
 10
12.05528139573
 20
46.65579975808767
 30
0.0
  0
SEQEND
  5
1D2
330
1CF
100
AcDbEntity
  8
Default
  0
POLYLINE
  5
1D3
330
1F
100
AcDbEntity
  8
Default
100
AcDb2dPolyline
 66
     1
 10
0.0
 20
0.0
 30
0.0
  0
VERTEX
  5
1D4
330
1D3
100
AcDbEntity
  8
Default
100
AcDbVertex
100
AcDb2dVertex
 10
12.05528139573
 20
47.44362063629514
 30
0.0
  0
VERTEX
  5
1D5
330
1D3
100
AcDbEntity
  8
Default
100
AcDbVertex
100
AcDb2dVertex
 10
12.05528139573
 20
48.87304126162227
 30
0.0
  0
SEQEND
  5
1D6
330
1D3
100
AcDbEntity
  8
Default
  0
SPLINE
  5
1D7
330
1F
100
AcDbEntity
  8
Default
100
AcDbSpline
210
0.0
220
0.0
230
1.0
 70
    12
 71
     2
 72
     6
 73
     3
 74
     0
 42
0.0000000001
 43
0.0000000001
 40
0.0
 40
0.0
 40
0.0
 40
0.109941564851661
 40
0.109941564851661
 40
0.109941564851661
 10
12.05528139573
 20
48.87304126162227
 30
0.0
 41
1.0
 10
12.05524836127531
 20
48.94300822716892
 30
0.0
 41
0.7074405726109262
 10
11.98528139573
 20
48.94304126446226
 30
0.0
 41
1.0
  0
SPLINE
  5
1D8
330
1F
100
AcDbEntity
  8
Default
100
AcDbSpline
210
0.0
220
0.0
230
1.0
 70
    24
 71
     2
 72
     6
 73
     3
 74
     0
 42
0.0000000001
 43
0.0000000001
 40
0.0
 40
0.0
 40
0.0
 40
0.3520000000000003
 40
0.3520000000000003
 40
0.3520000000000003
 10
11.98528139573
 20
48.94304126446226
 30
0.0
 10
11.80928139573
 20
48.94304126446227
 30
0.0
 10
11.63328139573
 20
48.94304126446227
 30
0.0
  0
SPLINE
  5
1D9
330
1F
100
AcDbEntity
  8
Default
100
AcDbSpline
210
0.0
220
0.0
230
1.0
 70
    12
 71
     2
 72
     6
 73
     3
 74
     0
 42
0.0000000001
 43
0.0000000001
 40
0.0
 40
0.0
 40
0.0
 40
0.2356186331260159
 40
0.2356186331260159
 40
0.2356186331260159
 10
11.63328139573
 20
48.94304126446227
 30
0.0
 41
1.0
 10
11.48328330057164
 20
48.94303935668867
 30
0.0
 41
0.7071157676638842
 10
11.48328139573
 20
48.79304126153027
 30
0.0
 41
1.0
  0
POLYLINE
  5
1DA
330
1F
100
AcDbEntity
  8
Default
100
AcDb2dPolyline
 66
     1
 10
0.0
 20
0.0
 30
0.0
  0
VERTEX
  5
1DB
330
1DA
100
AcDbEntity
  8
Default
100
AcDbVertex
100
AcDb2dVertex
 10
11.48328139573
 20
48.79304126153027
 30
0.0
  0
VERTEX
  5
1DC
330
1DA
100
AcDbEntity
  8
Default
100
AcDbVertex
100
AcDb2dVertex
 10
11.48328139573
 20
47.63665120194349
 30
0.0
  0
SEQEND
  5
1DD
330
1DA
100
AcDbEntity
  8
Default
  0
CIRCLE
  5
1DE
330
1F
100
AcDbEntity
  8
Default
100
AcDbCircle
 10
-16.6712557618871
 20
50.34475806846525
 30
0.0
 40
7.874999999999993
  0
POLYLINE
  5
1DF
330
1F
100
AcDbEntity
  8
Default
100
AcDb2dPolyline
 66
     1
 10
0.0
 20
0.0
 30
0.0
  0
VERTEX
  5
1E0
330
1DF
100
AcDbEntity
  8
Default
100
AcDbVertex
100
AcDb2dVertex
 10
1.035000000000002
 20
39.69797744998828
 30
0.0
  0
VERTEX
  5
1E1
330
1DF
100
AcDbEntity
  8
Default
100
AcDbVertex
100
AcDb2dVertex
 10
1.035
 20
37.43797745585228
 30
0.0
  0
SEQEND
  5
1E2
330
1DF
100
AcDbEntity
  8
Default
  0
SPLINE
  5
1E3
330
1F
100
AcDbEntity
  8
Default
100
AcDbSpline
210
0.0
220
0.0
230
1.0
 70
    12
 71
     2
 72
     6
 73
     3
 74
     0
 42
0.0000000001
 43
0.0000000001
 40
0.0
 40
0.0
 40
0.0
 40
0.2355890798875016
 40
0.2355890798875016
 40
0.2355890798875016
 10
1.035
 20
37.43797745585228
 30
0.0
 41
1.0
 10
1.034929244842217
 20
37.28804821100867
 30
0.0
 41
0.7074404097356639
 10
0.8850000000000016
 20
37.28797745292028
 30
0.0
 41
1.0
  0
SPLINE
  5
1E4
330
1F
100
AcDbEntity
  8
Default
100
AcDbSpline
210
0.0
220
0.0
230
1.0
 70
    24
 71
     2
 72
     6
 73
     3
 74
     0
 42
0.0000000001
 43
0.0000000001
 40
0.0
 40
0.0
 40
0.0
 40
0.3520000000000003
 40
0.3520000000000003
 40
0.3520000000000003
 10
0.8850000000000016
 20
37.28797745292028
 30
0.0
 10
0.7090000000000014
 20
37.28797745292028
 30
0.0
 10
0.5330000000000013
 20
37.28797745292028
 30
0.0
  0
SPLINE
  5
1E5
330
1F
100
AcDbEntity
  8
Default
100
AcDbSpline
210
0.0
220
0.0
230
1.0
 70
    12
 71
     2
 72
     6
 73
     3
 74
     0
 42
0.0000000001
 43
0.0000000001
 40
0.0
 40
0.0
 40
0.0
 40
0.1098876245644455
 40
0.1098876245644455
 40
0.1098876245644455
 10
0.5330000000000013
 20
37.28797745292027
 30
0.0
 41
1.0
 10
0.4631586517903132
 20
37.28813610754415
 30
0.0
 41
0.7087112325863247
 10
0.4630000000000027
 20
37.35797745576028
 30
0.0
 41
1.0
  0
POLYLINE
  5
1E6
330
1F
100
AcDbEntity
  8
Default
100
AcDb2dPolyline
 66
     1
 10
0.0
 20
0.0
 30
0.0
  0
VERTEX
  5
1E7
330
1E6
100
AcDbEntity
  8
Default
100
AcDbVertex
100
AcDb2dVertex
 10
0.4630000000000027
 20
37.35797745576028
 30
0.0
  0
VERTEX
  5
1E8
330
1E6
100
AcDbEntity
  8
Default
100
AcDbVertex
100
AcDb2dVertex
 10
0.463000000000001
 20
39.77797745008028
 30
0.0
  0
SEQEND
  5
1E9
330
1E6
100
AcDbEntity
  8
Default
  0
SPLINE
  5
1EA
330
1F
100
AcDbEntity
  8
Default
100
AcDbSpline
210
0.0
220
0.0
230
1.0
 70
    12
 71
     2
 72
     6
 73
     3
 74
     0
 42
0.0000000001
 43
0.0000000001
 40
0.0
 40
0.0
 40
0.0
 40
0.109941564851661
 40
0.109941564851661
 40
0.109941564851661
 10
0.463000000000001
 20
39.77797745008028
 30
0.0
 41
1.0
 10
0.4630330344546917
 20
39.84794441562693
 30
0.0
 41
0.7074405726109262
 10
0.5330000000000013
 20
39.84797745292027
 30
0.0
 41
1.0
  0
SPLINE
  5
1EB
330
1F
100
AcDbEntity
  8
Default
100
AcDbSpline
210
0.0
220
0.0
230
1.0
 70
    24
 71
     2
 72
     6
 73
     3
 74
     0
 42
0.0000000001
 43
0.0000000001
 40
0.0
 40
0.0
 40
0.0
 40
0.3520000000000003
 40
0.3520000000000003
 40
0.3520000000000003
 10
0.5330000000000013
 20
39.84797745292027
 30
0.0
 10
0.7090000000000014
 20
39.84797745292028
 30
0.0
 10
0.8850000000000016
 20
39.84797745292028
 30
0.0
  0
SPLINE
  5
1EC
330
1F
100
AcDbEntity
  8
Default
100
AcDbSpline
210
0.0
220
0.0
230
1.0
 70
    12
 71
     2
 72
     6
 73
     3
 74
     0
 42
0.0000000001
 43
0.0000000001
 40
0.0
 40
0.0
 40
0.0
 40
0.2356186331260159
 40
0.2356186331260159
 40
0.2356186331260159
 10
0.8850000000000016
 20
39.84797745292028
 30
0.0
 41
1.0
 10
1.034998095158355
 20
39.84797554514667
 30
0.0
 41
0.7071157676638842
 10
1.035000000000002
 20
39.69797744998828
 30
0.0
 41
1.0
  0
SPLINE
  5
1ED
330
1F
100
AcDbEntity
  8
Make2D visible lines - Tangent
100
AcDbSpline
210
0.0
220
0.0
230
1.0
 70
    12
 71
     2
 72
     6
 73
     3
 74
     0
 42
0.0000000001
 43
0.0000000001
 40
0.0
 40
0.0
 40
0.0
 40
0.6213186892081751
 40
0.6213186892081751
 40
0.6213186892081751
 10
0.3924690982870231
 20
37.81577839570839
 30
0.0
 41
1.0
 10
0.3952203296437779
 20
37.4205512701367
 30
0.0
 41
0.7078628796196968
 10
-0.000000004334165
 20
37.4169543725832
 30
0.0
 41
1.0
  0
SPLINE
  5
1EE
330
1F
100
AcDbEntity
  8
Make2D visible lines - Tangent
100
AcDbSpline
210
0.0
220
0.0
230
1.0
 70
    12
 71
     2
 72
     6
 73
     3
 74
     0
 42
0.0000000001
 43
0.0000000001
 40
0.0
 40
0.0
 40
0.0
 40
0.6213184385489916
 40
0.6213184385489916
 40
0.6213184385489916
 10
-0.000000004334165
 20
37.4169543725832
 30
0.0
 41
1.0
 10
-0.3952197604127546
 20
37.42055183957766
 30
0.0
 41
0.7078638982414072
 10
-0.3924690982869414
 20
37.81577839640484
 30
0.0
 41
1.0
  0
SPLINE
  5
1EF
330
1F
100
AcDbEntity
  8
Make2D visible lines
100
AcDbSpline
210
0.0
220
0.0
230
1.0
 70
    24
 71
     2
 72
     6
 73
     3
 74
     0
 42
0.0000000001
 43
0.0000000001
 40
0.0
 40
0.0
 40
0.0
 40
0.0653749093108864
 40
0.0653749093108864
 40
0.0653749093108864
 10
0.463000000000001
 20
38.25297745292028
 30
0.0
 10
0.4303125453445578
 20
38.25297745292028
 30
0.0
 10
0.3976250906891146
 20
38.25297745292028
 30
0.0
  0
SPLINE
  5
1F0
330
1F
100
AcDbEntity
  8
Make2D visible lines
100
AcDbSpline
210
0.0
220
0.0
230
1.0
 70
    24
 71
     2
 72
     6
 73
     3
 74
     0
 42
0.0000000001
 43
0.0000000001
 40
0.0
 40
0.0
 40
0.0
 40
0.0653749093108864
 40
0.0653749093108864
 40
0.0653749093108864
 10
-0.463000000000001
 20
38.25297745292028
 30
0.0
 10
-0.4303125453445578
 20
38.25297745292028
 30
0.0
 10
-0.3976250906891146
 20
38.25297745292028
 30
0.0
  0
SPLINE
  5
1F1
330
1F
100
AcDbEntity
  8
Make2D visible lines
100
AcDbSpline
210
0.0
220
0.0
230
1.0
 70
    24
 71
     2
 72
     6
 73
     3
 74
     0
 42
0.0000000001
 43
0.0000000001
 40
0.0
 40
0.0
 40
0.0
 40
0.071889705667429
 40
0.071889705667429
 40
0.071889705667429
 10
-0.3911102943325719
 20
38.88297745292028
 30
0.0
 10
-0.4270551471662865
 20
38.88297745292028
 30
0.0
 10
-0.463000000000001
 20
38.88297745292028
 30
0.0
  0
POLYLINE
  5
1F2
330
1F
100
AcDbEntity
  8
Default
100
AcDb2dPolyline
 66
     1
 10
0.0
 20
0.0
 30
0.0
  0
VERTEX
  5
1F3
330
1F2
100
AcDbEntity
  8
Default
100
AcDbVertex
100
AcDb2dVertex
 10
-1.035000000000002
 20
39.69797744998828
 30
0.0
  0
VERTEX
  5
1F4
330
1F2
100
AcDbEntity
  8
Default
100
AcDbVertex
100
AcDb2dVertex
 10
-1.035
 20
37.43797745585228
 30
0.0
  0
SEQEND
  5
1F5
330
1F2
100
AcDbEntity
  8
Default
  0
SPLINE
  5
1F6
330
1F
100
AcDbEntity
  8
Default
100
AcDbSpline
210
0.0
220
0.0
230
1.0
 70
    12
 71
     2
 72
     6
 73
     3
 74
     0
 42
0.0000000001
 43
0.0000000001
 40
0.0
 40
0.0
 40
0.0
 40
0.2355890798875016
 40
0.2355890798875016
 40
0.2355890798875016
 10
-1.035
 20
37.43797745585228
 30
0.0
 41
1.0
 10
-1.034929244842217
 20
37.28804821100867
 30
0.0
 41
0.7074404097356639
 10
-0.8850000000000016
 20
37.28797745292028
 30
0.0
 41
1.0
  0
SPLINE
  5
1F7
330
1F
100
AcDbEntity
  8
Default
100
AcDbSpline
210
0.0
220
0.0
230
1.0
 70
    24
 71
     2
 72
     6
 73
     3
 74
     0
 42
0.0000000001
 43
0.0000000001
 40
0.0
 40
0.0
 40
0.0
 40
0.3520000000000003
 40
0.3520000000000003
 40
0.3520000000000003
 10
-0.8850000000000016
 20
37.28797745292028
 30
0.0
 10
-0.7090000000000014
 20
37.28797745292028
 30
0.0
 10
-0.5330000000000013
 20
37.28797745292028
 30
0.0
  0
SPLINE
  5
1F8
330
1F
100
AcDbEntity
  8
Default
100
AcDbSpline
210
0.0
220
0.0
230
1.0
 70
    12
 71
     2
 72
     6
 73
     3
 74
     0
 42
0.0000000001
 43
0.0000000001
 40
0.0
 40
0.0
 40
0.0
 40
0.1098876245644455
 40
0.1098876245644455
 40
0.1098876245644455
 10
-0.5330000000000013
 20
37.28797745292027
 30
0.0
 41
1.0
 10
-0.4631586517903132
 20
37.28813610754415
 30
0.0
 41
0.7087112325863247
 10
-0.4630000000000027
 20
37.35797745576028
 30
0.0
 41
1.0
  0
POLYLINE
  5
1F9
330
1F
100
AcDbEntity
  8
Default
100
AcDb2dPolyline
 66
     1
 10
0.0
 20
0.0
 30
0.0
  0
VERTEX
  5
1FA
330
1F9
100
AcDbEntity
  8
Default
100
AcDbVertex
100
AcDb2dVertex
 10
-0.4630000000000027
 20
37.35797745576028
 30
0.0
  0
VERTEX
  5
1FB
330
1F9
100
AcDbEntity
  8
Default
100
AcDbVertex
100
AcDb2dVertex
 10
-0.463000000000001
 20
39.77797745008028
 30
0.0
  0
SEQEND
  5
1FC
330
1F9
100
AcDbEntity
  8
Default
  0
SPLINE
  5
1FD
330
1F
100
AcDbEntity
  8
Default
100
AcDbSpline
210
0.0
220
0.0
230
1.0
 70
    12
 71
     2
 72
     6
 73
     3
 74
     0
 42
0.0000000001
 43
0.0000000001
 40
0.0
 40
0.0
 40
0.0
 40
0.109941564851661
 40
0.109941564851661
 40
0.109941564851661
 10
-0.463000000000001
 20
39.77797745008028
 30
0.0
 41
1.0
 10
-0.4630330344546917
 20
39.84794441562693
 30
0.0
 41
0.7074405726109262
 10
-0.5330000000000013
 20
39.84797745292027
 30
0.0
 41
1.0
  0
SPLINE
  5
1FE
330
1F
100
AcDbEntity
  8
Default
100
AcDbSpline
210
0.0
220
0.0
230
1.0
 70
    24
 71
     2
 72
     6
 73
     3
 74
     0
 42
0.0000000001
 43
0.0000000001
 40
0.0
 40
0.0
 40
0.0
 40
0.3520000000000003
 40
0.3520000000000003
 40
0.3520000000000003
 10
-0.5330000000000013
 20
39.84797745292027
 30
0.0
 10
-0.7090000000000014
 20
39.84797745292028
 30
0.0
 10
-0.8850000000000016
 20
39.84797745292028
 30
0.0
  0
SPLINE
  5
1FF
330
1F
100
AcDbEntity
  8
Default
100
AcDbSpline
210
0.0
220
0.0
230
1.0
 70
    12
 71
     2
 72
     6
 73
     3
 74
     0
 42
0.0000000001
 43
0.0000000001
 40
0.0
 40
0.0
 40
0.0
 40
0.2356186331260159
 40
0.2356186331260159
 40
0.2356186331260159
 10
-0.8850000000000016
 20
39.84797745292028
 30
0.0
 41
1.0
 10
-1.034998095158355
 20
39.84797554514667
 30
0.0
 41
0.7071157676638842
 10
-1.035000000000002
 20
39.69797744998828
 30
0.0
 41
1.0
  0
LINE
  5
200
330
1F
100
AcDbEntity
  8
Default
100
AcDbLine
 10
-0.3939996833986878
 20
39.66326800617954
 30
0.0
 11
-0.3939999891106076
 21
37.86368139181281
 31
0.0
  0
ARC
  5
201
330
1F
100
AcDbEntity
  8
Default
100
AcDbCircle
 10
3515569.900238091
 20
37.2628379943829
 30
0.0
 40
3515570.294238132
100
AcDbArc
 50
179.9999902076227
 51
179.9999987473877
  0
SPLINE
  5
202
330
1F
100
AcDbEntity
  8
Default
100
AcDbSpline
210
0.0
220
0.0
230
1.0
 70
    12
 71
     2
 72
     6
 73
     3
 74
     0
 42
0.0000000001
 43
0.0000000001
 40
0.0
 40
0.0
 40
0.0
 40
0.0784842030870699
 40
0.0784842030870699
 40
0.0784842030870699
 10
-0.3940000405141934
 20
37.33969613336087
 30
0.0
 41
1.0
 10
-0.3939638142083186
 20
37.28973232062599
 30
0.0
 41
0.7071217743558633
 10
-0.3439999999996068
 20
37.28976601561585
 30
0.0
 41
1.0
  0
POLYLINE
  5
203
330
1F
100
AcDbEntity
  8
Default
100
AcDb2dPolyline
 66
     1
 10
0.0
 20
0.0
 30
0.0
  0
VERTEX
  5
204
330
203
100
AcDbEntity
  8
Default
100
AcDbVertex
100
AcDb2dVertex
 10
-0.3439999999996068
 20
37.28976601561585
 30
0.0
  0
VERTEX
  5
205
330
203
100
AcDbEntity
  8
Default
100
AcDbVertex
100
AcDb2dVertex
 10
0.3439999999996068
 20
37.28976601561585
 30
0.0
  0
SEQEND
  5
206
330
203
100
AcDbEntity
  8
Default
  0
SPLINE
  5
207
330
1F
100
AcDbEntity
  8
Default
100
AcDbSpline
210
0.0
220
0.0
230
1.0
 70
    12
 71
     2
 72
     6
 73
     3
 74
     0
 42
0.0000000001
 43
0.0000000001
 40
-0.0784842030870699
 40
-0.0784842030870699
 40
-0.0784842030870699
 40
0.0
 40
0.0
 40
0.0
 10
0.3439999999996068
 20
37.28976601561585
 30
0.0
 41
1.0
 10
0.3939638142083186
 20
37.28973232062599
 30
0.0
 41
0.7071217743558633
 10
0.3940000405141934
 20
37.33969613336087
 30
0.0
 41
1.0
  0
ARC
  5
208
330
1F
100
AcDbEntity
  8
Default
100
AcDbCircle
 10
-3515569.900238091
 20
37.2628379943829
 30
0.0
 40
3515570.294238132
100
AcDbArc
 50
0.0000012526123369
 51
0.0000097923772466
  0
LINE
  5
209
330
1F
100
AcDbEntity
  8
Default
100
AcDbLine
 10
0.3939999891106076
 20
37.86368139181281
 30
0.0
 11
0.3939996833986878
 21
39.66326800617954
 31
0.0
  0
POLYLINE
  5
20A
330
1F
100
AcDbEntity
  8
Default
100
AcDb2dPolyline
 66
     1
 10
0.0
 20
0.0
 30
0.0
  0
VERTEX
  5
20B
330
20A
100
AcDbEntity
  8
Default
100
AcDbVertex
100
AcDb2dVertex
 10
8.7717233833
 20
63.50916363844828
 30
0.0
  0
VERTEX
  5
20C
330
20A
100
AcDbEntity
  8
Default
100
AcDbVertex
100
AcDb2dVertex
 10
8.7717233833
 20
61.24916364431227
 30
0.0
  0
SEQEND
  5
20D
330
20A
100
AcDbEntity
  8
Default
  0
SPLINE
  5
20E
330
1F
100
AcDbEntity
  8
Default
100
AcDbSpline
210
0.0
220
0.0
230
1.0
 70
    12
 71
     2
 72
     6
 73
     3
 74
     0
 42
0.0000000001
 43
0.0000000001
 40
0.0
 40
0.0
 40
0.0
 40
0.2355890798875016
 40
0.2355890798875016
 40
0.2355890798875016
 10
8.7717233833
 20
61.24916364431227
 30
0.0
 41
1.0
 10
8.771652628142215
 20
61.09923439946868
 30
0.0
 41
0.7074404097356639
 10
8.6217233833
 20
61.09916364138028
 30
0.0
 41
1.0
  0
SPLINE
  5
20F
330
1F
100
AcDbEntity
  8
Default
100
AcDbSpline
210
0.0
220
0.0
230
1.0
 70
    24
 71
     2
 72
     6
 73
     3
 74
     0
 42
0.0000000001
 43
0.0000000001
 40
0.0
 40
0.0
 40
0.0
 40
0.3520000000000003
 40
0.3520000000000003
 40
0.3520000000000003
 10
8.6217233833
 20
61.09916364138028
 30
0.0
 10
8.4457233833
 20
61.09916364138028
 30
0.0
 10
8.2697233833
 20
61.09916364138028
 30
0.0
  0
SPLINE
  5
210
330
1F
100
AcDbEntity
  8
Default
100
AcDbSpline
210
0.0
220
0.0
230
1.0
 70
    12
 71
     2
 72
     6
 73
     3
 74
     0
 42
0.0000000001
 43
0.0000000001
 40
0.0
 40
0.0
 40
0.0
 40
0.1098876245644455
 40
0.1098876245644455
 40
0.1098876245644455
 10
8.2697233833
 20
61.09916364138028
 30
0.0
 41
1.0
 10
8.199882035090312
 20
61.09932229600415
 30
0.0
 41
0.7087112325863247
 10
8.1997233833
 20
61.16916364422028
 30
0.0
 41
1.0
  0
POLYLINE
  5
211
330
1F
100
AcDbEntity
  8
Default
100
AcDb2dPolyline
 66
     1
 10
0.0
 20
0.0
 30
0.0
  0
VERTEX
  5
212
330
211
100
AcDbEntity
  8
Default
100
AcDbVertex
100
AcDb2dVertex
 10
8.1997233833
 20
61.16916364422028
 30
0.0
  0
VERTEX
  5
213
330
211
100
AcDbEntity
  8
Default
100
AcDbVertex
100
AcDb2dVertex
 10
8.1997233833
 20
63.58916363854028
 30
0.0
  0
SEQEND
  5
214
330
211
100
AcDbEntity
  8
Default
  0
SPLINE
  5
215
330
1F
100
AcDbEntity
  8
Default
100
AcDbSpline
210
0.0
220
0.0
230
1.0
 70
    12
 71
     2
 72
     6
 73
     3
 74
     0
 42
0.0000000001
 43
0.0000000001
 40
0.0
 40
0.0
 40
0.0
 40
0.109941564851661
 40
0.109941564851661
 40
0.109941564851661
 10
8.1997233833
 20
63.58916363854028
 30
0.0
 41
1.0
 10
8.19975641775469
 20
63.65913060408693
 30
0.0
 41
0.7074405726109262
 10
8.2697233833
 20
63.65916364138027
 30
0.0
 41
1.0
  0
SPLINE
  5
216
330
1F
100
AcDbEntity
  8
Default
100
AcDbSpline
210
0.0
220
0.0
230
1.0
 70
    24
 71
     2
 72
     6
 73
     3
 74
     0
 42
0.0000000001
 43
0.0000000001
 40
0.0
 40
0.0
 40
0.0
 40
0.3520000000000003
 40
0.3520000000000003
 40
0.3520000000000003
 10
8.2697233833
 20
63.65916364138027
 30
0.0
 10
8.4457233833
 20
63.65916364138027
 30
0.0
 10
8.6217233833
 20
63.65916364138028
 30
0.0
  0
SPLINE
  5
217
330
1F
100
AcDbEntity
  8
Default
100
AcDbSpline
210
0.0
220
0.0
230
1.0
 70
    12
 71
     2
 72
     6
 73
     3
 74
     0
 42
0.0000000001
 43
0.0000000001
 40
0.0
 40
0.0
 40
0.0
 40
0.2356186331260159
 40
0.2356186331260159
 40
0.2356186331260159
 10
8.6217233833
 20
63.65916364138028
 30
0.0
 41
1.0
 10
8.771721478458353
 20
63.65916173360667
 30
0.0
 41
0.7071157676638842
 10
8.7717233833
 20
63.50916363844828
 30
0.0
 41
1.0
  0
POLYLINE
  5
218
330
1F
100
AcDbEntity
  8
Default
100
AcDb2dPolyline
 66
     1
 10
0.0
 20
0.0
 30
0.0
  0
VERTEX
  5
219
330
218
100
AcDbEntity
  8
Default
100
AcDbVertex
100
AcDb2dVertex
 10
-8.7717233833
 20
63.50916363844828
 30
0.0
  0
VERTEX
  5
21A
330
218
100
AcDbEntity
  8
Default
100
AcDbVertex
100
AcDb2dVertex
 10
-8.7717233833
 20
61.24916364431227
 30
0.0
  0
SEQEND
  5
21B
330
218
100
AcDbEntity
  8
Default
  0
SPLINE
  5
21C
330
1F
100
AcDbEntity
  8
Default
100
AcDbSpline
210
0.0
220
0.0
230
1.0
 70
    12
 71
     2
 72
     6
 73
     3
 74
     0
 42
0.0000000001
 43
0.0000000001
 40
0.0
 40
0.0
 40
0.0
 40
0.2355890798875016
 40
0.2355890798875016
 40
0.2355890798875016
 10
-8.7717233833
 20
61.24916364431227
 30
0.0
 41
1.0
 10
-8.771652628142215
 20
61.09923439946868
 30
0.0
 41
0.7074404097356639
 10
-8.6217233833
 20
61.09916364138028
 30
0.0
 41
1.0
  0
SPLINE
  5
21D
330
1F
100
AcDbEntity
  8
Default
100
AcDbSpline
210
0.0
220
0.0
230
1.0
 70
    24
 71
     2
 72
     6
 73
     3
 74
     0
 42
0.0000000001
 43
0.0000000001
 40
0.0
 40
0.0
 40
0.0
 40
0.3520000000000003
 40
0.3520000000000003
 40
0.3520000000000003
 10
-8.6217233833
 20
61.09916364138028
 30
0.0
 10
-8.4457233833
 20
61.09916364138028
 30
0.0
 10
-8.2697233833
 20
61.09916364138028
 30
0.0
  0
SPLINE
  5
21E
330
1F
100
AcDbEntity
  8
Default
100
AcDbSpline
210
0.0
220
0.0
230
1.0
 70
    12
 71
     2
 72
     6
 73
     3
 74
     0
 42
0.0000000001
 43
0.0000000001
 40
0.0
 40
0.0
 40
0.0
 40
0.1098876245644455
 40
0.1098876245644455
 40
0.1098876245644455
 10
-8.2697233833
 20
61.09916364138028
 30
0.0
 41
1.0
 10
-8.199882035090312
 20
61.09932229600415
 30
0.0
 41
0.7087112325863247
 10
-8.1997233833
 20
61.16916364422028
 30
0.0
 41
1.0
  0
POLYLINE
  5
21F
330
1F
100
AcDbEntity
  8
Default
100
AcDb2dPolyline
 66
     1
 10
0.0
 20
0.0
 30
0.0
  0
VERTEX
  5
220
330
21F
100
AcDbEntity
  8
Default
100
AcDbVertex
100
AcDb2dVertex
 10
-8.1997233833
 20
61.16916364422028
 30
0.0
  0
VERTEX
  5
221
330
21F
100
AcDbEntity
  8
Default
100
AcDbVertex
100
AcDb2dVertex
 10
-8.1997233833
 20
63.58916363854028
 30
0.0
  0
SEQEND
  5
222
330
21F
100
AcDbEntity
  8
Default
  0
SPLINE
  5
223
330
1F
100
AcDbEntity
  8
Default
100
AcDbSpline
210
0.0
220
0.0
230
1.0
 70
    12
 71
     2
 72
     6
 73
     3
 74
     0
 42
0.0000000001
 43
0.0000000001
 40
0.0
 40
0.0
 40
0.0
 40
0.109941564851661
 40
0.109941564851661
 40
0.109941564851661
 10
-8.1997233833
 20
63.58916363854028
 30
0.0
 41
1.0
 10
-8.19975641775469
 20
63.65913060408693
 30
0.0
 41
0.7074405726109262
 10
-8.2697233833
 20
63.65916364138027
 30
0.0
 41
1.0
  0
SPLINE
  5
224
330
1F
100
AcDbEntity
  8
Default
100
AcDbSpline
210
0.0
220
0.0
230
1.0
 70
    24
 71
     2
 72
     6
 73
     3
 74
     0
 42
0.0000000001
 43
0.0000000001
 40
0.0
 40
0.0
 40
0.0
 40
0.3520000000000003
 40
0.3520000000000003
 40
0.3520000000000003
 10
-8.2697233833
 20
63.65916364138027
 30
0.0
 10
-8.4457233833
 20
63.65916364138027
 30
0.0
 10
-8.6217233833
 20
63.65916364138028
 30
0.0
  0
SPLINE
  5
225
330
1F
100
AcDbEntity
  8
Default
100
AcDbSpline
210
0.0
220
0.0
230
1.0
 70
    12
 71
     2
 72
     6
 73
     3
 74
     0
 42
0.0000000001
 43
0.0000000001
 40
0.0
 40
0.0
 40
0.0
 40
0.2356186331260159
 40
0.2356186331260159
 40
0.2356186331260159
 10
-8.6217233833
 20
63.65916364138028
 30
0.0
 41
1.0
 10
-8.771721478458353
 20
63.65916173360667
 30
0.0
 41
0.7071157676638842
 10
-8.7717233833
 20
63.50916363844828
 30
0.0
 41
1.0
  0
POLYLINE
  5
226
330
1F
100
AcDbEntity
  8
Default
100
AcDb2dPolyline
 66
     1
 10
0.0
 20
0.0
 30
0.0
  0
VERTEX
  5
227
330
226
100
AcDbEntity
  8
Default
100
AcDbVertex
100
AcDb2dVertex
 10
13.55328139573
 20
48.79304126153027
 30
0.0
  0
VERTEX
  5
228
330
226
100
AcDbEntity
  8
Default
100
AcDbVertex
100
AcDb2dVertex
 10
13.55328139573
 20
46.53304126739427
 30
0.0
  0
SEQEND
  5
229
330
226
100
AcDbEntity
  8
Default
  0
SPLINE
  5
22A
330
1F
100
AcDbEntity
  8
Default
100
AcDbSpline
210
0.0
220
0.0
230
1.0
 70
    12
 71
     2
 72
     6
 73
     3
 74
     0
 42
0.0000000001
 43
0.0000000001
 40
0.0
 40
0.0
 40
0.0
 40
0.2355890798875016
 40
0.2355890798875016
 40
0.2355890798875016
 10
13.55328139573
 20
46.53304126739427
 30
0.0
 41
1.0
 10
13.55321064057222
 20
46.38311202255066
 30
0.0
 41
0.7074404097356639
 10
13.40328139573
 20
46.38304126446227
 30
0.0
 41
1.0
  0
SPLINE
  5
22B
330
1F
100
AcDbEntity
  8
Default
100
AcDbSpline
210
0.0
220
0.0
230
1.0
 70
    24
 71
     2
 72
     6
 73
     3
 74
     0
 42
0.0000000001
 43
0.0000000001
 40
0.0
 40
0.0
 40
0.0
 40
0.3520000000000003
 40
0.3520000000000003
 40
0.3520000000000003
 10
13.40328139573
 20
46.38304126446227
 30
0.0
 10
13.22728139573
 20
46.38304126446227
 30
0.0
 10
13.05128139573
 20
46.38304126446227
 30
0.0
  0
SPLINE
  5
22C
330
1F
100
AcDbEntity
  8
Default
100
AcDbSpline
210
0.0
220
0.0
230
1.0
 70
    12
 71
     2
 72
     6
 73
     3
 74
     0
 42
0.0000000001
 43
0.0000000001
 40
0.0
 40
0.0
 40
0.0
 40
0.1098876245644455
 40
0.1098876245644455
 40
0.1098876245644455
 10
13.05128139573
 20
46.38304126446226
 30
0.0
 41
1.0
 10
12.98144004752031
 20
46.38319991908615
 30
0.0
 41
0.7087112325863247
 10
12.98128139573
 20
46.45304126730227
 30
0.0
 41
1.0
  0
POLYLINE
  5
22D
330
1F
100
AcDbEntity
  8
Default
100
AcDb2dPolyline
 66
     1
 10
0.0
 20
0.0
 30
0.0
  0
VERTEX
  5
22E
330
22D
100
AcDbEntity
  8
Default
100
AcDbVertex
100
AcDb2dVertex
 10
12.98128139573
 20
46.45304126730227
 30
0.0
  0
VERTEX
  5
22F
330
22D
100
AcDbEntity
  8
Default
100
AcDbVertex
100
AcDb2dVertex
 10
12.98128139573
 20
48.87304126162227
 30
0.0
  0
SEQEND
  5
230
330
22D
100
AcDbEntity
  8
Default
  0
SPLINE
  5
231
330
1F
100
AcDbEntity
  8
Default
100
AcDbSpline
210
0.0
220
0.0
230
1.0
 70
    12
 71
     2
 72
     6
 73
     3
 74
     0
 42
0.0000000001
 43
0.0000000001
 40
0.0
 40
0.0
 40
0.0
 40
0.109941564851661
 40
0.109941564851661
 40
0.109941564851661
 10
12.98128139573
 20
48.87304126162227
 30
0.0
 41
1.0
 10
12.98131443018469
 20
48.94300822716892
 30
0.0
 41
0.7074405726109262
 10
13.05128139573
 20
48.94304126446226
 30
0.0
 41
1.0
  0
SPLINE
  5
232
330
1F
100
AcDbEntity
  8
Default
100
AcDbSpline
210
0.0
220
0.0
230
1.0
 70
    24
 71
     2
 72
     6
 73
     3
 74
     0
 42
0.0000000001
 43
0.0000000001
 40
0.0
 40
0.0
 40
0.0
 40
0.3520000000000003
 40
0.3520000000000003
 40
0.3520000000000003
 10
13.05128139573
 20
48.94304126446226
 30
0.0
 10
13.22728139573
 20
48.94304126446227
 30
0.0
 10
13.40328139573
 20
48.94304126446227
 30
0.0
  0
SPLINE
  5
233
330
1F
100
AcDbEntity
  8
Default
100
AcDbSpline
210
0.0
220
0.0
230
1.0
 70
    12
 71
     2
 72
     6
 73
     3
 74
     0
 42
0.0000000001
 43
0.0000000001
 40
0.0
 40
0.0
 40
0.0
 40
0.2356186331260159
 40
0.2356186331260159
 40
0.2356186331260159
 10
13.40328139573
 20
48.94304126446227
 30
0.0
 41
1.0
 10
13.55327949088835
 20
48.94303935668867
 30
0.0
 41
0.7071157676638842
 10
13.55328139573
 20
48.79304126153027
 30
0.0
 41
1.0
  0
SPLINE
  5
234
330
1F
100
AcDbEntity
  8
Make2D visible lines
100
AcDbSpline
210
0.0
220
0.0
230
1.0
 70
    24
 71
     2
 72
     6
 73
     3
 74
     0
 42
0.0000000001
 43
0.0000000001
 40
0.0
 40
0.0
 40
0.0
 40
0.071889705667429
 40
0.071889705667429
 40
0.071889705667429
 10
12.90939169006257
 20
47.97804126446227
 30
0.0
 10
12.94533654289629
 20
47.97804126446227
 30
0.0
 10
12.98128139573
 20
47.97804126446227
 30
0.0
  0
SPLINE
  5
235
330
1F
100
AcDbEntity
  8
Make2D visible lines
100
AcDbSpline
210
0.0
220
0.0
230
1.0
 70
    24
 71
     2
 72
     6
 73
     3
 74
     0
 42
0.0000000001
 43
0.0000000001
 40
0.0
 40
0.0
 40
0.0
 40
0.0653749093108864
 40
0.0653749093108864
 40
0.0653749093108864
 10
12.98128139573
 20
47.34804126446227
 30
0.0
 10
12.94859394107456
 20
47.34804126446227
 30
0.0
 10
12.91590648641911
 20
47.34804126446227
 30
0.0
  0
SPLINE
  5
236
330
1F
100
AcDbEntity
  8
Make2D visible lines
100
AcDbSpline
210
0.0
220
0.0
230
1.0
 70
    24
 71
     2
 72
     6
 73
     3
 74
     0
 42
0.0000000001
 43
0.0000000001
 40
0.0
 40
0.0
 40
0.0
 40
0.071889705667429
 40
0.071889705667429
 40
0.071889705667429
 10
12.12717110139743
 20
47.97804126446227
 30
0.0
 10
12.09122624856371
 20
47.97804126446227
 30
0.0
 10
12.05528139573
 20
47.97804126446227
 30
0.0
  0
SPLINE
  5
237
330
1F
100
AcDbEntity
  8
Make2D visible lines
100
AcDbSpline
210
0.0
220
0.0
230
1.0
 70
    24
 71
     2
 72
     6
 73
     3
 74
     0
 42
0.0000000001
 43
0.0000000001
 40
0.0
 40
0.0
 40
0.0
 40
0.071889705667429
 40
0.071889705667429
 40
0.071889705667429
 10
-7.345613088967426
 20
62.69416364138028
 30
0.0
 10
-7.309668236133712
 20
62.69416364138028
 30
0.0
 10
-7.273723383299997
 20
62.69416364138028
 30
0.0
  0
SPLINE
  5
238
330
1F
100
AcDbEntity
  8
Make2D visible lines
100
AcDbSpline
210
0.0
220
0.0
230
1.0
 70
    24
 71
     2
 72
     6
 73
     3
 74
     0
 42
0.0000000001
 43
0.0000000001
 40
0.0
 40
0.0
 40
0.0
 40
0.0653749093108864
 40
0.0653749093108864
 40
0.0653749093108864
 10
-7.273723383299997
 20
62.06416364138028
 30
0.0
 10
-7.306410837955441
 20
62.06416364138028
 30
0.0
 10
-7.339098292610884
 20
62.06416364138028
 30
0.0
  0
SPLINE
  5
239
330
1F
100
AcDbEntity
  8
Make2D visible lines
100
AcDbSpline
210
0.0
220
0.0
230
1.0
 70
    24
 71
     2
 72
     6
 73
     3
 74
     0
 42
0.0000000001
 43
0.0000000001
 40
0.0
 40
0.0
 40
0.0
 40
0.071889705667429
 40
0.071889705667429
 40
0.071889705667429
 10
-8.12783367763257
 20
62.69416364138028
 30
0.0
 10
-8.163778530466285
 20
62.69416364138028
 30
0.0
 10
-8.1997233833
 20
62.69416364138028
 30
0.0
  0
SPLINE
  5
23A
330
1F
100
AcDbEntity
  8
Make2D visible lines
100
AcDbSpline
210
0.0
220
0.0
230
1.0
 70
    24
 71
     2
 72
     6
 73
     3
 74
     0
 42
0.0000000001
 43
0.0000000001
 40
0.0
 40
0.0
 40
0.0
 40
0.0653749093108864
 40
0.0653749093108864
 40
0.0653749093108864
 10
-8.1997233833
 20
62.06416364138028
 30
0.0
 10
-8.167035928644557
 20
62.06416364138028
 30
0.0
 10
-8.134348473989114
 20
62.06416364138028
 30
0.0
  0
SPLINE
  5
23B
330
1F
100
AcDbEntity
  8
Make2D visible lines
100
AcDbSpline
210
0.0
220
0.0
230
1.0
 70
    24
 71
     2
 72
     6
 73
     3
 74
     0
 42
0.0000000001
 43
0.0000000001
 40
0.0
 40
0.0
 40
0.0
 40
0.0653749093108864
 40
0.0653749093108864
 40
0.0653749093108864
 10
7.273723383299997
 20
62.06416364138028
 30
0.0
 10
7.306410837955441
 20
62.06416364138028
 30
0.0
 10
7.339098292610884
 20
62.06416364138028
 30
0.0
  0
SPLINE
  5
23C
330
1F
100
AcDbEntity
  8
Make2D visible lines
100
AcDbSpline
210
0.0
220
0.0
230
1.0
 70
    24
 71
     2
 72
     6
 73
     3
 74
     0
 42
0.0000000001
 43
0.0000000001
 40
0.0
 40
0.0
 40
0.0
 40
0.071889705667429
 40
0.071889705667429
 40
0.071889705667429
 10
7.345613088967426
 20
62.69416364138028
 30
0.0
 10
7.309668236133712
 20
62.69416364138028
 30
0.0
 10
7.273723383299997
 20
62.69416364138028
 30
0.0
  0
SPLINE
  5
23D
330
1F
100
AcDbEntity
  8
Make2D visible lines
100
AcDbSpline
210
0.0
220
0.0
230
1.0
 70
    24
 71
     2
 72
     6
 73
     3
 74
     0
 42
0.0000000001
 43
0.0000000001
 40
0.0
 40
0.0
 40
0.0
 40
0.0653749093108864
 40
0.0653749093108864
 40
0.0653749093108864
 10
8.1997233833
 20
62.06416364138028
 30
0.0
 10
8.167035928644557
 20
62.06416364138028
 30
0.0
 10
8.134348473989114
 20
62.06416364138028
 30
0.0
  0
SPLINE
  5
23E
330
1F
100
AcDbEntity
  8
Make2D visible lines
100
AcDbSpline
210
0.0
220
0.0
230
1.0
 70
    24
 71
     2
 72
     6
 73
     3
 74
     0
 42
0.0000000001
 43
0.0000000001
 40
0.0
 40
0.0
 40
0.0
 40
0.071889705667429
 40
0.071889705667429
 40
0.071889705667429
 10
8.12783367763257
 20
62.69416364138028
 30
0.0
 10
8.163778530466285
 20
62.69416364138028
 30
0.0
 10
8.1997233833
 20
62.69416364138028
 30
0.0
  0
SPLINE
  5
23F
330
1F
100
AcDbEntity
  8
Make2D visible lines - Tangent
100
AcDbSpline
210
0.0
220
0.0
230
1.0
 70
    12
 71
     2
 72
     6
 73
     3
 74
     0
 42
0.0000000001
 43
0.0000000001
 40
-2.1725027118793
 40
-2.1725027118793
 40
-2.1725027118793
 40
0.0
 40
0.0
 40
0.0
 10
-6.447630195598861
 20
59.17280160065545
 30
0.0
 41
0.9999999612107987
 10
-7.075984866013109
 20
60.0588672768441
 30
0.0
 41
0.999999975442316
 10
-7.7045196034456
 20
60.94480523076171
 30
0.0
 41
1.0
  0
SPLINE
  5
240
330
1F
100
AcDbEntity
  8
Make2D visible lines - Tangent
100
AcDbSpline
210
0.0
220
0.0
230
1.0
 70
     8
 71
     3
 72
    11
 73
     7
 74
     0
 42
0.0000000001
 43
0.0000000001
 40
-0.5061957594563898
 40
-0.5061957594563898
 40
-0.5061957594563898
 40
-0.5061957594563898
 40
-0.2779307972340258
 40
-0.1436576036068027
 40
-0.0724650654421722
 40
0.0
 40
0.0
 40
0.0
 40
0.0
 10
-7.7045196034456
 20
60.94480523076171
 30
0.0
 10
-7.750799423108105
 20
61.00801222001594
 30
0.0
 10
-7.753136344864747
 20
61.13944579457246
 30
0.0
 10
-7.681371592213259
 20
61.26624312054977
 30
0.0
 10
-7.620183295805351
 20
61.33633500990566
 30
0.0
 10
-7.583154305177039
 20
61.36686084850297
 30
0.0
 10
-7.563712586048847
 20
61.38119096753817
 30
0.0
  0
SPLINE
  5
241
330
1F
100
AcDbEntity
  8
Make2D visible lines - Tangent
100
AcDbSpline
210
0.0
220
0.0
230
1.0
 70
     8
 71
     3
 72
    11
 73
     7
 74
     0
 42
0.0000000001
 43
0.0000000001
 40
0.0
 40
0.0
 40
0.0
 40
0.0
 40
0.0724650654421701
 40
0.143657603606799
 40
0.2779307972340275
 40
0.5061957594563471
 40
0.5061957594563471
 40
0.5061957594563471
 40
0.5061957594563471
 10
-7.563712586048847
 20
61.38119096753817
 30
0.0
 10
-7.54407601135064
 20
61.39525289088967
 30
0.0
 10
-7.503601626248532
 20
61.4210365508244
 30
0.0
 10
-7.418032054690341
 20
61.45757049386541
 30
0.0
 10
-7.275264103404406
 20
61.48664030094655
 30
0.0
 10
-7.150985494399791
 20
61.44380254811241
 30
0.0
 10
-7.105173326167034
 20
61.38025579020628
 30
0.0
  0
SPLINE
  5
242
330
1F
100
AcDbEntity
  8
Make2D visible lines - Tangent
100
AcDbSpline
210
0.0
220
0.0
230
1.0
 70
    12
 71
     2
 72
     6
 73
     3
 74
     0
 42
0.0000000001
 43
0.0000000001
 40
0.0
 40
0.0
 40
0.0
 40
2.172502741170998
 40
2.172502741170998
 40
2.172502741170998
 10
-7.105173326167034
 20
61.38025579020628
 30
0.0
 41
1.0
 10
-6.456824536287427
 20
60.50871356386472
 30
0.0
 41
0.9999999750560995
 10
-5.808297245048799
 20
59.63730415483044
 30
0.0
 41
0.999999960600675
  0
SPLINE
  5
243
330
1F
100
AcDbEntity
  8
Make2D visible lines - Tangent
100
AcDbSpline
210
0.0
220
0.0
230
1.0
 70
    12
 71
     2
 72
     6
 73
     3
 74
     0
 42
0.0000000001
 43
0.0000000001
 40
-2.172503765193
 40
-2.172503765193
 40
-2.172503765193
 40
0.0
 40
0.0
 40
0.0
 10
0.3951290922652202
 20
40.54511961222956
 30
0.0
 41
0.9999999612107849
 10
0.3826623559475911
 20
39.4589392869611
 30
0.0
 41
0.9999999754423041
 10
0.3704163703892096
 20
38.37275645044026
 30
0.0
 41
1.0
  0
SPLINE
  5
244
330
1F
100
AcDbEntity
  8
Make2D visible lines - Tangent
100
AcDbSpline
210
0.0
220
0.0
230
1.0
 70
     8
 71
     3
 72
    11
 73
     7
 74
     0
 42
0.0000000001
 43
0.0000000001
 40
-0.5061957594563898
 40
-0.5061957594563898
 40
-0.5061957594563898
 40
-0.5061957594563898
 40
-0.2779307972340258
 40
-0.1436576036068027
 40
-0.0724650654421722
 40
0.0
 40
0.0
 40
0.0
 40
0.0
 10
0.3704163703892096
 20
38.37275645044026
 30
0.0
 10
0.3707053948673433
 20
38.29441832649395
 30
0.0
 10
0.2953412875025805
 20
38.18671272290195
 30
0.0
 10
0.1627527847708343
 20
38.12631379458798
 30
0.0
 10
0.0720514342512679
 20
38.10557384317267
 30
0.0
 10
0.0241517138070542
 20
38.1026430155785
 30
0.0
 10
0.0
 20
38.10247726153037
 30
0.0
  0
SPLINE
  5
245
330
1F
100
AcDbEntity
  8
Make2D visible lines - Tangent
100
AcDbSpline
210
0.0
220
0.0
230
1.0
 70
     8
 71
     3
 72
    11
 73
     7
 74
     0
 42
0.0000000001
 43
0.0000000001
 40
0.0
 40
0.0
 40
0.0
 40
0.0
 40
0.0724650654421701
 40
0.143657603606799
 40
0.2779307972340275
 40
0.5061957594563471
 40
0.5061957594563471
 40
0.5061957594563471
 40
0.5061957594563471
 10
0.0
 20
38.10247726153037
 30
0.0
 10
-0.0241517138070435
 20
38.10264301557856
 30
0.0
 10
-0.0720514342512857
 20
38.1055738431728
 30
0.0
 10
-0.1627527847708432
 20
38.12631379458799
 30
0.0
 10
-0.2953412875025379
 20
38.18671272290203
 30
0.0
 10
-0.3707053948672936
 20
38.29441832649402
 30
0.0
 10
-0.3704163703885346
 20
38.37275645044026
 30
0.0
  0
SPLINE
  5
246
330
1F
100
AcDbEntity
  8
Make2D visible lines - Tangent
100
AcDbSpline
210
0.0
220
0.0
230
1.0
 70
    12
 71
     2
 72
     6
 73
     3
 74
     0
 42
0.0000000001
 43
0.0000000001
 40
0.0
 40
0.0
 40
0.0
 40
2.172503805912248
 40
2.172503805912248
 40
2.172503805912248
 10
-0.3704163703885346
 20
38.37275645044026
 30
0.0
 41
1.0
 10
-0.3826618982913621
 20
39.45893931223568
 30
0.0
 41
0.9999999750560873
 10
-0.3951299050997084
 20
40.54511964303619
 30
0.0
 41
0.9999999606006608
  0
SPLINE
  5
247
330
1F
100
AcDbEntity
  8
Make2D visible lines - Tangent
100
AcDbSpline
210
0.0
220
0.0
230
1.0
 70
    12
 71
     2
 72
     6
 73
     3
 74
     0
 42
0.0000000001
 43
0.0000000001
 40
-2.172503146108327
 40
-2.172503146108327
 40
-2.172503146108327
 40
0.0
 40
0.0
 40
0.0
 10
10.03735531178344
 20
48.12476258031751
 30
0.0
 41
0.999999961210793
 10
11.06652146136013
 20
47.77725792912787
 30
0.0
 41
0.999999975442311
 10
12.09575821497562
 20
47.42996244824742
 30
0.0
 41
1.0
  0
SPLINE
  5
248
330
1F
100
AcDbEntity
  8
Make2D visible lines - Tangent
100
AcDbSpline
210
0.0
220
0.0
230
1.0
 70
     8
 71
     3
 72
    11
 73
     7
 74
     0
 42
0.0000000001
 43
0.0000000001
 40
-0.5061957594563898
 40
-0.5061957594563898
 40
-0.5061957594563898
 40
-0.5061957594563898
 40
-0.2779307972340258
 40
-0.1436576036068027
 40
-0.0724650654421722
 40
0.0
 40
0.0
 40
0.0
 40
0.0
 10
12.09575821497562
 20
47.42996244824742
 30
0.0
 10
12.17035151170464
 20
47.40602951525385
 30
0.0
 10
12.2494968379007
 20
47.30107112795049
 30
0.0
 10
12.26596753164811
 20
47.15630767315059
 30
0.0
 10
12.25766413886598
 20
47.06363656525235
 30
0.0
 10
12.24564969390448
 20
47.01717554846098
 30
0.0
 10
12.23834404536239
 20
46.99415468284732
 30
0.0
  0
SPLINE
  5
249
330
1F
100
AcDbEntity
  8
Make2D visible lines - Tangent
100
AcDbSpline
210
0.0
220
0.0
230
1.0
 70
     8
 71
     3
 72
    11
 73
     7
 74
     0
 42
0.0000000001
 43
0.0000000001
 40
0.0
 40
0.0
 40
0.0
 40
0.0
 40
0.0724650654421701
 40
0.143657603606799
 40
0.2779307972340275
 40
0.5061957594563471
 40
0.5061957594563471
 40
0.5061957594563471
 40
0.5061957594563471
 10
12.23834404536239
 20
46.99415468284732
 30
0.0
 10
12.23072311388511
 20
46.97123625886921
 30
0.0
 10
12.21313390356039
 20
46.9265865931462
 30
0.0
 10
12.16538077889603
 20
46.84673348014761
 30
0.0
 10
12.06696588394289
 20
46.73929861592989
 30
0.0
 10
11.94124297786362
 20
46.70090595242521
 30
0.0
 10
11.86682830808593
 20
46.72538864264594
 30
0.0
  0
SPLINE
  5
24A
330
1F
100
AcDbEntity
  8
Make2D visible lines - Tangent
100
AcDbSpline
210
0.0
220
0.0
230
1.0
 70
    12
 71
     2
 72
     6
 73
     3
 74
     0
 42
0.0000000001
 43
0.0000000001
 40
0.0
 40
0.0
 40
0.0
 40
2.17250324821463
 40
2.17250324821463
 40
2.17250324821463
 10
11.86682830808593
 20
46.72538864264594
 30
0.0
 41
1.0
 10
10.83002320941575
 20
47.04939133365819
 30
0.0
 41
0.9999999750560937
 10
9.793151768136111
 20
47.37318165264622
 30
0.0
 41
0.9999999606006682
  0
SPLINE
  5
24B
330
1F
100
AcDbEntity
  8
Make2D visible lines
100
AcDbSpline
210
0.0
220
0.0
230
1.0
 70
    12
 71
     2
 72
    12
 73
     9
 74
     0
 42
0.0000000001
 43
0.0000000001
 40
3.111355986048807
 40
3.111355986048807
 40
3.111355986048807
 40
7.992863251026782
 40
7.992863251026782
 40
15.98572650205356
 40
15.98572650205356
 40
23.97858975308035
 40
23.97858975308035
 40
31.97145300410281
 40
31.97145300410281
 40
31.97145300410281
 10
-9.708203078211248
 20
54.02327982650263
 30
0.0
 41
0.9638065187254201
 10
-8.959961170377367
 20
56.40288288669863
 30
0.0
 41
0.9535106963485571
 10
-7.196105131058315
 20
58.16673904559903
 30
0.0
 41
1.0
 10
-4.215380848698596
 20
61.14746353003814
 30
0.0
 41
0.9238795260252225
 10
0.0000000000010501
 20
61.14746353003772
 30
0.0
 41
1.0
 10
4.215380848700695
 20
61.14746353003728
 30
0.0
 41
0.9238795260252225
 10
7.196105131059801
 20
58.16673904559754
 30
0.0
 41
1.0
 10
10.17682941341716
 20
55.18601456115955
 30
0.0
 41
0.9238795260252636
 10
10.17682912763416
 20
50.97063371246236
 30
0.0
 41
0.9999999999999178
  0
SPLINE
  5
24C
330
1F
100
AcDbEntity
  8
Make2D visible lines
100
AcDbSpline
210
0.0
220
0.0
230
1.0
 70
    12
 71
     2
 72
     8
 73
     5
 74
     0
 42
0.0000000001
 43
0.0000000001
 40
0.0
 40
0.0
 40
0.0
 40
15.9857256088408
 40
15.9857256088408
 40
27.94744457286706
 40
27.94744457286706
 40
27.94744457286706
 10
10.17682912763416
 20
50.97063371246236
 30
0.0
 41
1.0
 10
10.17682892436897
 20
40.79380478809446
 30
0.0
 41
0.7071067882482235
 10
0.0000000000010554
 20
40.7938047880934
 30
0.0
 41
1.0
 10
-6.89603196400237
 20
40.79380478809269
 30
0.0
 41
0.780835329519969
 10
-9.451992105095986
 20
47.19867204711513
 30
0.0
 41
0.8896615503230593
  0
SPLINE
  5
24D
330
1F
100
AcDbEntity
  8
Make2D visible lines - Tangent
100
AcDbSpline
210
0.0
220
0.0
230
1.0
 70
    12
 71
     2
 72
     6
 73
     3
 74
     0
 42
0.0000000001
 43
0.0000000001
 40
-2.172502700451803
 40
-2.172502700451803
 40
-2.172502700451803
 40
0.0
 40
0.0
 40
0.0
 10
5.808297920752358
 20
59.63730370198208
 30
0.0
 41
0.9999999612107988
 10
6.456824180891946
 20
60.5087138533157
 30
0.0
 41
0.9999999754423161
 10
7.105173326166486
 20
61.38025579020667
 30
0.0
 41
1.0
  0
SPLINE
  5
24E
330
1F
100
AcDbEntity
  8
Make2D visible lines - Tangent
100
AcDbSpline
210
0.0
220
0.0
230
1.0
 70
     8
 71
     3
 72
    11
 73
     7
 74
     0
 42
0.0000000001
 43
0.0000000001
 40
-0.5061957594563898
 40
-0.5061957594563898
 40
-0.5061957594563898
 40
-0.5061957594563898
 40
-0.2779307972340258
 40
-0.1436576036068027
 40
-0.0724650654421722
 40
0.0
 40
0.0
 40
0.0
 40
0.0
 10
7.105173326166486
 20
61.38025579020667
 30
0.0
 10
7.15098549439979
 20
61.44380254811249
 30
0.0
 10
7.275264103404415
 20
61.48664030094664
 30
0.0
 10
7.41803205469035
 20
61.45757049386541
 30
0.0
 10
7.503601626248619
 20
61.42103655082449
 30
0.0
 10
7.544076011350662
 20
61.39525289088972
 30
0.0
 10
7.563712586048845
 20
61.38119096753817
 30
0.0
  0
SPLINE
  5
24F
330
1F
100
AcDbEntity
  8
Make2D visible lines - Tangent
100
AcDbSpline
210
0.0
220
0.0
230
1.0
 70
     8
 71
     3
 72
    11
 73
     7
 74
     0
 42
0.0000000001
 43
0.0000000001
 40
0.0
 40
0.0
 40
0.0
 40
0.0
 40
0.0724650654421701
 40
0.143657603606799
 40
0.2779307972340275
 40
0.5061957594563471
 40
0.5061957594563471
 40
0.5061957594563471
 40
0.5061957594563471
 10
7.563712586048845
 20
61.38119096753817
 30
0.0
 10
7.583154305176993
 20
61.36686084850293
 30
0.0
 10
7.620183295805288
 20
61.33633500990555
 30
0.0
 10
7.681371592213259
 20
61.26624312054974
 30
0.0
 10
7.753136344864664
 20
61.13944579457242
 30
0.0
 10
7.75079942310802
 20
61.00801222001589
 30
0.0
 10
7.704519603445051
 20
60.94480523076211
 30
0.0
  0
SPLINE
  5
250
330
1F
100
AcDbEntity
  8
Make2D visible lines - Tangent
100
AcDbSpline
210
0.0
220
0.0
230
1.0
 70
    12
 71
     2
 72
     6
 73
     3
 74
     0
 42
0.0000000001
 43
0.0000000001
 40
0.0
 40
0.0
 40
0.0
 40
2.172502752598456
 40
2.172502752598456
 40
2.172502752598456
 10
7.704519603445051
 20
60.94480523076211
 30
0.0
 41
1.0
 10
7.075984480905622
 20
60.05886752540003
 30
0.0
 41
0.9999999750560994
 10
6.447630835087142
 20
59.17280109796103
 30
0.0
 41
0.9999999606006749
  0
SPLINE
  5
251
330
1F
100
AcDbEntity
  8
Make2D visible lines
100
AcDbSpline
210
0.0
220
0.0
230
1.0
 70
    24
 71
     2
 72
     6
 73
     3
 74
     0
 42
0.0000000001
 43
0.0000000001
 40
0.0
 40
0.0
 40
0.0
 40
0.071889705667429
 40
0.071889705667429
 40
0.071889705667429
 10
0.3911102943325719
 20
38.88297745292028
 30
0.0
 10
0.4270551471662865
 20
38.88297745292028
 30
0.0
 10
0.463000000000001
 20
38.88297745292028
 30
0.0
  0
ENDSEC
  0
SECTION
  2
OBJECTS
  0
DICTIONARY
  5
C
330
0
100
AcDbDictionary
281
     1
  3
ACAD_GROUP
350
D
  3
ACAD_LAYOUT
350
1A
  3
ACAD_MLEADERSTYLE
350
253
  3
ACAD_MLINESTYLE
350
17
  3
ACAD_PLOTSETTINGS
350
19
  3
ACAD_PLOTSTYLENAME
350
E
  3
ACAD_TABLESTYLE
350
252
  3
ACAD_VISUALSTYLE
350
2A
  0
DICTIONARY
  5
D
102
{ACAD_REACTORS
330
C
102
}
330
C
100
AcDbDictionary
281
     1
  0
DICTIONARY
  5
1A
102
{ACAD_REACTORS
330
C
102
}
330
C
100
AcDbDictionary
281
     1
  3
Layout1
350
1E
  3
Layout2
350
26
  3
Model
350
22
  0
DICTIONARY
  5
253
102
{ACAD_REACTORS
330
C
102
}
330
C
100
AcDbDictionary
281
     1
  0
DICTIONARY
  5
17
102
{ACAD_REACTORS
330
C
102
}
330
C
100
AcDbDictionary
281
     1
  3
Standard
350
18
  0
DICTIONARY
  5
19
102
{ACAD_REACTORS
330
C
102
}
330
C
100
AcDbDictionary
281
     1
  0
ACDBDICTIONARYWDFLT
  5
E
102
{ACAD_REACTORS
330
C
102
}
330
C
100
AcDbDictionary
281
     1
  3
Normal
350
F
100
AcDbDictionaryWithDefault
340
F
  0
DICTIONARY
  5
252
102
{ACAD_REACTORS
330
C
102
}
330
C
100
AcDbDictionary
281
     1
  0
DICTIONARY
  5
2A
102
{ACAD_REACTORS
330
C
102
}
330
C
100
AcDbDictionary
281
     1
  3
2dWireframe
350
2F
  3
3D Hidden
350
31
  3
3dWireframe
350
30
  3
Basic
350
32
  3
Brighten
350
36
  3
ColorChange
350
3A
  3
Conceptual
350
34
  3
Dim
350
35
  3
Facepattern
350
39
  3
Flat
350
2B
  3
FlatWithEdges
350
2C
  3
Gouraud
350
2D
  3
GouraudWithEdges
350
2E
  3
Linepattern
350
38
  3
Realistic
350
33
  3
Thicken
350
37
  0
LAYOUT
  5
1E
102
{ACAD_REACTORS
330
1A
102
}
330
1A
100
AcDbPlotSettings
  1

  2
none_device
  4

  6

 40
0.0
 41
0.0
 42
0.0
 43
0.0
 44
0.0
 45
0.0
 46
0.0
 47
0.0
 48
0.0
 49
0.0
140
0.0
141
0.0
142
1.0
143
1.0
 70
   688
 72
     0
 73
     0
 74
     5
  7

 75
    16
 76
     0
 77
     2
 78
   300
147
1.0
148
0.0
149
0.0
100
AcDbLayout
  1
Layout1
 70
     1
 71
     1
 10
0.0
 20
0.0
 11
12.0
 21
9.0
 12
0.0
 22
0.0
 32
0.0
 14
1.000000000000000E+20
 24
1.000000000000000E+20
 34
1.000000000000000E+20
 15
-1.000000000000000E+20
 25
-1.000000000000000E+20
 35
-1.000000000000000E+20
146
0.0
 13
0.0
 23
0.0
 33
0.0
 16
1.0
 26
0.0
 36
0.0
 17
0.0
 27
1.0
 37
0.0
 76
     0
330
1B
  0
LAYOUT
  5
26
102
{ACAD_REACTORS
330
1A
102
}
330
1A
100
AcDbPlotSettings
  1

  2
none_device
  4

  6

 40
0.0
 41
0.0
 42
0.0
 43
0.0
 44
0.0
 45
0.0
 46
0.0
 47
0.0
 48
0.0
 49
0.0
140
0.0
141
0.0
142
1.0
143
1.0
 70
   688
 72
     0
 73
     0
 74
     5
  7

 75
    16
 76
     0
 77
     2
 78
   300
147
1.0
148
0.0
149
0.0
100
AcDbLayout
  1
Layout2
 70
     1
 71
     2
 10
0.0
 20
0.0
 11
0.0
 21
0.0
 12
0.0
 22
0.0
 32
0.0
 14
0.0
 24
0.0
 34
0.0
 15
0.0
 25
0.0
 35
0.0
146
0.0
 13
0.0
 23
0.0
 33
0.0
 16
1.0
 26
0.0
 36
0.0
 17
0.0
 27
1.0
 37
0.0
 76
     0
330
23
  0
LAYOUT
  5
22
102
{ACAD_REACTORS
330
1A
102
}
330
1A
100
AcDbPlotSettings
  1

  2
none_device
  4

  6

 40
0.0
 41
0.0
 42
0.0
 43
0.0
 44
0.0
 45
0.0
 46
0.0
 47
0.0
 48
0.0
 49
0.0
140
0.0
141
0.0
142
1.0
143
1.0
 70
  1712
 72
     0
 73
     0
 74
     0
  7

 75
     0
 76
     0
 77
     2
 78
   300
147
1.0
148
0.0
149
0.0
100
AcDbLayout
  1
Model
 70
     1
 71
     0
 10
0.0
 20
0.0
 11
12.0
 21
9.0
 12
0.0
 22
0.0
 32
0.0
 14
-24.5462557618871
 24
-0.0000000000000001
 34
0.0
 15
13.55328139573
 25
63.65916364138028
 35
0.0
146
0.0
 13
0.0
 23
0.0
 33
0.0
 16
1.0
 26
0.0
 36
0.0
 17
0.0
 27
1.0
 37
0.0
 76
     0
330
1F
331
29
  0
MLINESTYLE
  5
18
102
{ACAD_REACTORS
330
17
102
}
330
17
100
AcDbMlineStyle
  2
Standard
 70
     0
  3

 62
   256
 51
90.0
 52
90.0
 71
     2
 49
0.5
 62
   256
  6
BYLAYER
 49
-0.5
 62
   256
  6
BYLAYER
  0
ACDBPLACEHOLDER
  5
F
102
{ACAD_REACTORS
330
E
102
}
330
E
  0
VISUALSTYLE
  5
2F
102
{ACAD_REACTORS
330
2A
102
}
330
2A
100
AcDbVisualStyle
  2
2dWireframe
 70
     4
 71
     0
 72
     2
 73
     0
 90
        0
 40
-0.6
 41
-30.0
 62
     5
 63
     7
421
 16777215
 74
     1
 91
        4
 64
     7
 65
   257
 75
     1
175
     1
 42
1.0
 92
        0
 66
   257
 43
1.0
 76
     1
 77
     6
 78
     2
 67
     7
 79
     5
170
     0
171
     0
290
     0
174
     0
 93
        1
 44
0.0
173
     0
291
     0
 45
0.0
1001
ACAD
1000
AcDbSavedByObjectVersion
1070
     0
  0
VISUALSTYLE
  5
31
102
{ACAD_REACTORS
330
2A
102
}
330
2A
100
AcDbVisualStyle
  2
3D Hidden
 70
     6
 71
     1
 72
     2
 73
     2
 90
        0
 40
-0.6
 41
-30.0
 62
     5
 63
     7
421
 16777215
 74
     2
 91
        2
 64
     7
 65
   257
 75
     2
175
     1
 42
40.0
 92
        0
 66
   257
 43
1.0
 76
     1
 77
     6
 78
     2
 67
     7
 79
     3
170
     0
171
     0
290
     0
174
     0
 93
        1
 44
0.0
173
     0
291
     0
 45
0.0
1001
ACAD
1000
AcDbSavedByObjectVersion
1070
     0
  0
VISUALSTYLE
  5
30
102
{ACAD_REACTORS
330
2A
102
}
330
2A
100
AcDbVisualStyle
  2
3dWireframe
 70
     5
 71
     0
 72
     2
 73
     0
 90
        0
 40
-0.6
 41
-30.0
 62
     5
 63
     7
421
 16777215
 74
     1
 91
        4
 64
     7
 65
   257
 75
     1
175
     1
 42
1.0
 92
        0
 66
   257
 43
1.0
 76
     1
 77
     6
 78
     2
 67
     7
 79
     5
170
     0
171
     0
290
     0
174
     0
 93
        1
 44
0.0
173
     0
291
     0
 45
0.0
1001
ACAD
1000
AcDbSavedByObjectVersion
1070
     0
  0
VISUALSTYLE
  5
32
102
{ACAD_REACTORS
330
2A
102
}
330
2A
100
AcDbVisualStyle
  2
Basic
 70
     7
 71
     1
 72
     0
 73
     1
 90
        0
 40
-0.6
 41
-30.0
 62
     5
 63
     7
421
 16777215
 74
     0
 91
        4
 64
     7
 65
   257
 75
     1
175
     1
 42
1.0
 92
        8
 66
     7
 43
1.0
 76
     1
 77
     6
 78
     2
 67
     7
 79
     5
170
     0
171
     0
290
     0
174
     0
 93
        1
 44
0.0
173
     0
291
     1
 45
0.0
1001
ACAD
1000
AcDbSavedByObjectVersion
1070
     0
  0
VISUALSTYLE
  5
36
102
{ACAD_REACTORS
330
2A
102
}
330
2A
100
AcDbVisualStyle
  2
Brighten
 70
    12
 71
     2
 72
     2
 73
     0
 90
        0
 40
-0.6
 41
-30.0
 62
     5
 63
     7
421
 16777215
 74
     1
 91
        4
 64
     7
 65
   257
 75
     1
175
     1
 42
1.0
 92
        8
 66
     7
 43
1.0
 76
     1
 77
     6
 78
     2
 67
     7
 79
     5
170
     0
171
     0
290
     0
174
     0
 93
        1
 44
50.0
173
     0
291
     1
 45
0.0
1001
ACAD
1000
AcDbSavedByObjectVersion
1070
     0
  0
VISUALSTYLE
  5
3A
102
{ACAD_REACTORS
330
2A
102
}
330
2A
100
AcDbVisualStyle
  2
ColorChange
 70
    16
 71
     2
 72
     2
 73
     3
 90
        0
 40
-0.6
 41
-30.0
 62
     5
 63
     8
421
  8421504
 74
     1
 91
        4
 64
     7
 65
   257
 75
     1
175
     1
 42
1.0
 92
        8
 66
     8
424
  8421504
 43
1.0
 76
     1
 77
     6
 78
     2
 67
     7
 79
     5
170
     0
171
     0
290
     0
174
     0
 93
        1
 44
0.0
173
     0
291
     1
 45
0.0
1001
ACAD
1000
AcDbSavedByObjectVersion
1070
     0
  0
VISUALSTYLE
  5
34
102
{ACAD_REACTORS
330
2A
102
}
330
2A
100
AcDbVisualStyle
  2
Conceptual
 70
     9
 71
     3
 72
     2
 73
     0
 90
        0
 40
-0.6
 41
-30.0
 62
     5
 63
     7
421
 16777215
 74
     2
 91
        2
 64
     7
 65
   257
 75
     1
175
     1
 42
40.0
 92
        8
 66
     7
 43
1.0
 76
     1
 77
     6
 78
     2
 67
     7
 79
     3
170
     0
171
     0
290
     0
174
     0
 93
        1
 44
0.0
173
     0
291
     0
 45
0.0
1001
ACAD
1000
AcDbSavedByObjectVersion
1070
     0
  0
VISUALSTYLE
  5
35
102
{ACAD_REACTORS
330
2A
102
}
330
2A
100
AcDbVisualStyle
  2
Dim
 70
    11
 71
     2
 72
     2
 73
     0
 90
        0
 40
-0.6
 41
-30.0
 62
     5
 63
     7
421
 16777215
 74
     1
 91
        4
 64
     7
 65
   257
 75
     1
175
     1
 42
1.0
 92
        8
 66
     7
 43
1.0
 76
     1
 77
     6
 78
     2
 67
     7
 79
     5
170
     0
171
     0
290
     0
174
     0
 93
        1
 44
-50.0
173
     0
291
     1
 45
0.0
1001
ACAD
1000
AcDbSavedByObjectVersion
1070
     0
  0
VISUALSTYLE
  5
39
102
{ACAD_REACTORS
330
2A
102
}
330
2A
100
AcDbVisualStyle
  2
Facepattern
 70
    15
 71
     2
 72
     2
 73
     0
 90
        0
 40
-0.6
 41
-30.0
 62
     5
 63
     7
421
 16777215
 74
     1
 91
        4
 64
     7
 65
   257
 75
     1
175
     1
 42
1.0
 92
        8
 66
     7
 43
1.0
 76
     1
 77
     6
 78
     2
 67
     7
 79
     5
170
     0
171
     0
290
     0
174
     0
 93
        1
 44
0.0
173
     0
291
     1
 45
0.0
1001
ACAD
1000
AcDbSavedByObjectVersion
1070
     0
  0
VISUALSTYLE
  5
2B
102
{ACAD_REACTORS
330
2A
102
}
330
2A
100
AcDbVisualStyle
  2
Flat
 70
     0
 71
     2
 72
     1
 73
     1
 90
        2
 40
-0.6
 41
30.0
 62
     5
 63
     7
421
 16777215
 74
     0
 91
        4
 64
     7
 65
   257
 75
     1
175
     1
 42
1.0
 92
        8
 66
     7
 43
1.0
 76
     1
 77
     6
 78
     2
 67
     7
 79
     5
170
     0
171
     0
290
     0
174
     0
 93
       13
 44
0.0
173
     0
291
     1
 45
0.0
1001
ACAD
1000
AcDbSavedByObjectVersion
1070
     0
  0
VISUALSTYLE
  5
2C
102
{ACAD_REACTORS
330
2A
102
}
330
2A
100
AcDbVisualStyle
  2
FlatWithEdges
 70
     1
 71
     2
 72
     1
 73
     1
 90
        2
 40
-0.6
 41
30.0
 62
     5
 63
     7
421
 16777215
 74
     1
 91
        4
 64
     7
 65
   257
 75
     1
175
     1
 42
1.0
 92
        0
 66
   257
 43
1.0
 76
     1
 77
     6
 78
     2
 67
     7
 79
     5
170
     0
171
     0
290
     0
174
     0
 93
       13
 44
0.0
173
     0
291
     1
 45
0.0
1001
ACAD
1000
AcDbSavedByObjectVersion
1070
     0
  0
VISUALSTYLE
  5
2D
102
{ACAD_REACTORS
330
2A
102
}
330
2A
100
AcDbVisualStyle
  2
Gouraud
 70
     2
 71
     2
 72
     2
 73
     1
 90
        2
 40
-0.6
 41
30.0
 62
     5
 63
     7
421
 16777215
 74
     0
 91
        4
 64
     7
 65
   257
 75
     1
175
     1
 42
1.0
 92
        0
 66
     7
 43
1.0
 76
     1
 77
     6
 78
     2
 67
     7
 79
     5
170
     0
171
     0
290
     0
174
     0
 93
       13
 44
0.0
173
     0
291
     1
 45
0.0
1001
ACAD
1000
AcDbSavedByObjectVersion
1070
     0
  0
VISUALSTYLE
  5
2E
102
{ACAD_REACTORS
330
2A
102
}
330
2A
100
AcDbVisualStyle
  2
GouraudWithEdges
 70
     3
 71
     2
 72
     2
 73
     1
 90
        2
 40
-0.6
 41
30.0
 62
     5
 63
     7
421
 16777215
 74
     1
 91
        4
 64
     7
 65
   257
 75
     1
175
     1
 42
1.0
 92
        0
 66
   257
 43
1.0
 76
     1
 77
     6
 78
     2
 67
     7
 79
     5
170
     0
171
     0
290
     0
174
     0
 93
       13
 44
0.0
173
     0
291
     1
 45
0.0
1001
ACAD
1000
AcDbSavedByObjectVersion
1070
     0
  0
VISUALSTYLE
  5
38
102
{ACAD_REACTORS
330
2A
102
}
330
2A
100
AcDbVisualStyle
  2
Linepattern
 70
    14
 71
     2
 72
     2
 73
     0
 90
        0
 40
-0.6
 41
-30.0
 62
     5
 63
     7
421
 16777215
 74
     1
 91
        4
 64
     7
 65
   257
 75
     7
175
     7
 42
1.0
 92
        8
 66
     7
 43
1.0
 76
     1
 77
     6
 78
     2
 67
     7
 79
     5
170
     0
171
     0
290
     0
174
     0
 93
        1
 44
0.0
173
     0
291
     1
 45
0.0
1001
ACAD
1000
AcDbSavedByObjectVersion
1070
     0
  0
VISUALSTYLE
  5
33
102
{ACAD_REACTORS
330
2A
102
}
330
2A
100
AcDbVisualStyle
  2
Realistic
 70
     8
 71
     2
 72
     2
 73
     0
 90
        0
 40
-0.6
 41
-30.0
 62
     5
 63
     7
421
 16777215
 74
     1
 91
        0
 64
     7
 65
   257
 75
     1
175
     1
 42
1.0
 92
        8
 66
     8
424
  7895160
 43
1.0
 76
     1
 77
     6
 78
     2
 67
     7
 79
     5
170
     0
171
     0
290
     0
174
     0
 93
       13
 44
0.0
173
     0
291
     0
 45
0.0
1001
ACAD
1000
AcDbSavedByObjectVersion
1070
     0
  0
VISUALSTYLE
  5
37
102
{ACAD_REACTORS
330
2A
102
}
330
2A
100
AcDbVisualStyle
  2
Thicken
 70
    13
 71
     2
 72
     2
 73
     0
 90
        0
 40
-0.6
 41
-30.0
 62
     5
 63
     7
421
 16777215
 74
     1
 91
        4
 64
     7
 65
   257
 75
     1
175
     1
 42
1.0
 92
       12
 66
     7
 43
1.0
 76
     1
 77
     6
 78
     2
 67
     7
 79
     5
170
     0
171
     0
290
     0
174
     0
 93
        1
 44
0.0
173
     0
291
     1
 45
0.0
1001
ACAD
1000
AcDbSavedByObjectVersion
1070
     0
  0
ENDSEC
  0
EOF
