  0
SECTION
  2
HEADER
  9
$ACADVER
  1
AC1018
  9
$ACADMAINTVER
 70
     0
  9
$DWGCODEPAGE
  3
ANSI_1252
  9
$INSBASE
 10
0.0
 20
0.0
 30
0.0
  9
$EXTMIN
 10
-12.09174768740044
 20
-0.0017796313076643
 30
0.0
  9
$EXTMAX
 10
46.74347082689494
 20
66.4043111476682
 30
0.0
  9
$LIMMIN
 10
0.0
 20
0.0
  9
$LIMMAX
 10
12.0
 20
9.0
  9
$ORTHOMODE
 70
     0
  9
$REGENMODE
 70
     1
  9
$FILLMODE
 70
     1
  9
$QTEXTMODE
 70
     0
  9
$MIRRTEXT
 70
     1
  9
$LTSCALE
 40
0.0393700787401575
  9
$ATTMODE
 70
     1
  9
$TEXTSIZE
 40
0.2
  9
$TRACEWID
 40
0.05
  9
$TEXTSTYLE
  7
Standard
  9
$CLAYER
  8
Default
  9
$CELTYPE
  6
ByLayer
  9
$CECOLOR
 62
   256
  9
$CELTSCALE
 40
1.0
  9
$DISPSILH
 70
     0
  9
$DIMSCALE
 40
1.0
  9
$DIMASZ
 40
0.18
  9
$DIMEXO
 40
0.0625
  9
$DIMDLI
 40
0.38
  9
$DIMRND
 40
0.0
  9
$DIMDLE
 40
0.0
  9
$DIMEXE
 40
0.18
  9
$DIMTP
 40
0.0
  9
$DIMTM
 40
0.0
  9
$DIMTXT
 40
0.18
  9
$DIMCEN
 40
0.09
  9
$DIMTSZ
 40
0.0
  9
$DIMTOL
 70
     0
  9
$DIMLIM
 70
     0
  9
$DIMTIH
 70
     1
  9
$DIMTOH
 70
     1
  9
$DIMSE1
 70
     0
  9
$DIMSE2
 70
     0
  9
$DIMTAD
 70
     0
  9
$DIMZIN
 70
     0
  9
$DIMBLK
  1

  9
$DIMASO
 70
     1
  9
$DIMSHO
 70
     1
  9
$DIMPOST
  1

  9
$DIMAPOST
  1

  9
$DIMALT
 70
     0
  9
$DIMALTD
 70
     2
  9
$DIMALTF
 40
25.4
  9
$DIMLFAC
 40
1.0
  9
$DIMTOFL
 70
     0
  9
$DIMTVP
 40
0.0
  9
$DIMTIX
 70
     0
  9
$DIMSOXD
 70
     0
  9
$DIMSAH
 70
     0
  9
$DIMBLK1
  1

  9
$DIMBLK2
  1

  9
$DIMSTYLE
  2
Standard
  9
$DIMCLRD
 70
     0
  9
$DIMCLRE
 70
     0
  9
$DIMCLRT
 70
     0
  9
$DIMTFAC
 40
1.0
  9
$DIMGAP
 40
0.09
  9
$DIMJUST
 70
     0
  9
$DIMSD1
 70
     0
  9
$DIMSD2
 70
     0
  9
$DIMTOLJ
 70
     1
  9
$DIMTZIN
 70
     0
  9
$DIMALTZ
 70
     0
  9
$DIMALTTZ
 70
     0
  9
$DIMUPT
 70
     0
  9
$DIMDEC
 70
     4
  9
$DIMTDEC
 70
     4
  9
$DIMALTU
 70
     2
  9
$DIMALTTD
 70
     2
  9
$DIMTXSTY
  7
Standard
  9
$DIMAUNIT
 70
     0
  9
$DIMADEC
 70
     0
  9
$DIMALTRND
 40
0.0
  9
$DIMAZIN
 70
     0
  9
$DIMDSEP
 70
    46
  9
$DIMATFIT
 70
     3
  9
$DIMFRAC
 70
     0
  9
$DIMLDRBLK
  1

  9
$DIMLUNIT
 70
     2
  9
$DIMLWD
 70
    -2
  9
$DIMLWE
 70
    -2
  9
$DIMTMOVE
 70
     2
  9
$LUNITS
 70
     2
  9
$LUPREC
 70
     3
  9
$SKETCHINC
 40
0.1
  9
$FILLETRAD
 40
0.5
  9
$AUNITS
 70
     0
  9
$AUPREC
 70
     0
  9
$MENU
  1
.
  9
$ELEVATION
 40
0.0
  9
$PELEVATION
 40
0.0
  9
$THICKNESS
 40
0.0
  9
$LIMCHECK
 70
     0
  9
$CHAMFERA
 40
0.5
  9
$CHAMFERB
 40
0.5
  9
$CHAMFERC
 40
1.0
  9
$CHAMFERD
 40
0.0
  9
$SKPOLY
 70
     0
  9
$TDCREATE
 40
2456338.463144375
  9
$TDUCREATE
 40
2456338.671477708
  9
$TDUPDATE
 40
2456338.463144387
  9
$TDUUPDATE
 40
2456338.67147772
  9
$TDINDWG
 40
0.0000000116
  9
$TDUSRTIMER
 40
0.0000000116
  9
$USRTIMER
 70
     1
  9
$ANGBASE
 50
0.0
  9
$ANGDIR
 70
     0
  9
$PDMODE
 70
     0
  9
$PDSIZE
 40
0.0
  9
$PLINEWID
 40
0.0
  9
$SPLFRAME
 70
     0
  9
$SPLINETYPE
 70
     6
  9
$SPLINESEGS
 70
     8
  9
$HANDSEED
  5
CD
  9
$SURFTAB1
 70
     6
  9
$SURFTAB2
 70
     6
  9
$SURFTYPE
 70
     6
  9
$SURFU
 70
     6
  9
$SURFV
 70
     6
  9
$UCSBASE
  2

  9
$UCSNAME
  2

  9
$UCSORG
 10
0.0
 20
0.0
 30
0.0
  9
$UCSXDIR
 10
1.0
 20
0.0
 30
0.0
  9
$UCSYDIR
 10
0.0
 20
1.0
 30
0.0
  9
$UCSORTHOREF
  2

  9
$UCSORTHOVIEW
 70
     0
  9
$UCSORGTOP
 10
0.0
 20
0.0
 30
0.0
  9
$UCSORGBOTTOM
 10
0.0
 20
0.0
 30
0.0
  9
$UCSORGLEFT
 10
0.0
 20
0.0
 30
0.0
  9
$UCSORGRIGHT
 10
0.0
 20
0.0
 30
0.0
  9
$UCSORGFRONT
 10
0.0
 20
0.0
 30
0.0
  9
$UCSORGBACK
 10
0.0
 20
0.0
 30
0.0
  9
$PUCSBASE
  2

  9
$PUCSNAME
  2

  9
$PUCSORG
 10
0.0
 20
0.0
 30
0.0
  9
$PUCSXDIR
 10
1.0
 20
0.0
 30
0.0
  9
$PUCSYDIR
 10
0.0
 20
1.0
 30
0.0
  9
$PUCSORTHOREF
  2

  9
$PUCSORTHOVIEW
 70
     0
  9
$PUCSORGTOP
 10
0.0
 20
0.0
 30
0.0
  9
$PUCSORGBOTTOM
 10
0.0
 20
0.0
 30
0.0
  9
$PUCSORGLEFT
 10
0.0
 20
0.0
 30
0.0
  9
$PUCSORGRIGHT
 10
0.0
 20
0.0
 30
0.0
  9
$PUCSORGFRONT
 10
0.0
 20
0.0
 30
0.0
  9
$PUCSORGBACK
 10
0.0
 20
0.0
 30
0.0
  9
$USERI1
 70
     0
  9
$USERI2
 70
     0
  9
$USERI3
 70
     0
  9
$USERI4
 70
     0
  9
$USERI5
 70
     0
  9
$USERR1
 40
0.0
  9
$USERR2
 40
0.0
  9
$USERR3
 40
0.0
  9
$USERR4
 40
0.0
  9
$USERR5
 40
0.0
  9
$WORLDVIEW
 70
     1
  9
$SHADEDGE
 70
     3
  9
$SHADEDIF
 70
    70
  9
$TILEMODE
 70
     1
  9
$MAXACTVP
 70
    64
  9
$PINSBASE
 10
0.0
 20
0.0
 30
0.0
  9
$PLIMCHECK
 70
     0
  9
$PEXTMIN
 10
1.000000000000000E+20
 20
1.000000000000000E+20
 30
1.000000000000000E+20
  9
$PEXTMAX
 10
-1.000000000000000E+20
 20
-1.000000000000000E+20
 30
-1.000000000000000E+20
  9
$PLIMMIN
 10
0.0
 20
0.0
  9
$PLIMMAX
 10
12.0
 20
9.0
  9
$UNITMODE
 70
     0
  9
$VISRETAIN
 70
     1
  9
$PLINEGEN
 70
     0
  9
$PSLTSCALE
 70
     1
  9
$TREEDEPTH
 70
  3020
  9
$CMLSTYLE
  2
Standard
  9
$CMLJUST
 70
     0
  9
$CMLSCALE
 40
1.0
  9
$PROXYGRAPHICS
 70
     1
  9
$MEASUREMENT
 70
     0
  9
$CELWEIGHT
370
    -1
  9
$ENDCAPS
280
     0
  9
$JOINSTYLE
280
     0
  9
$LWDISPLAY
290
     0
  9
$INSUNITS
 70
     1
  9
$HYPERLINKBASE
  1

  9
$STYLESHEET
  1

  9
$XEDIT
290
     1
  9
$CEPSNTYPE
380
     0
  9
$PSTYLEMODE
290
     1
  9
$FINGERPRINTGUID
  2
{126743F8-EBC5-490C-9CF4-DC6EF6F30F71}
  9
$VERSIONGUID
  2
{FAEB1C32-E019-11D5-929B-00C0DF256EC4}
  9
$EXTNAMES
290
     1
  9
$PSVPSCALE
 40
0.0
  9
$OLESTARTUP
290
     0
  9
$SORTENTS
280
   127
  9
$INDEXCTL
280
     0
  9
$HIDETEXT
280
     1
  9
$XCLIPFRAME
290
     0
  9
$HALOGAP
280
     0
  9
$OBSCOLOR
 70
   257
  9
$OBSLTYPE
280
     0
  9
$INTERSECTIONDISPLAY
280
     0
  9
$INTERSECTIONCOLOR
 70
   257
  9
$DIMASSOC
280
     2
  9
$PROJECTNAME
  1

  0
ENDSEC
  0
SECTION
  2
CLASSES
  0
CLASS
  1
ACDBDICTIONARYWDFLT
  2
AcDbDictionaryWithDefault
  3
ObjectDBX Classes
 90
        0
 91
        4
280
     0
281
     0
  0
CLASS
  1
VISUALSTYLE
  2
AcDbVisualStyle
  3
ObjectDBX Classes
 90
     4095
 91
        4
280
     0
281
     0
  0
ENDSEC
  0
SECTION
  2
TABLES
  0
TABLE
  2
VPORT
  5
8
330
0
100
AcDbSymbolTable
 70
     1
  0
VPORT
  5
29
330
8
100
AcDbSymbolTableRecord
100
AcDbViewportTableRecord
  2
*Active
 70
     0
 10
0.0
 20
0.0
 11
1.0
 21
1.0
 12
17.32586156974725
 22
33.20126575818026
 13
0.0
 23
0.0
 14
0.5
 24
0.5
 15
0.5
 25
0.5
 16
0.0
 26
0.0
 36
1.0
 17
0.0
 27
0.0
 37
0.0
 40
67.73421259455539
 41
0.8859912972459234
 42
50.0
 43
0.0
 44
0.0
 50
0.0
 51
0.0
 71
     0
 72
   100
 73
     1
 74
     3
 75
     0
 76
     0
 77
     0
 78
     0
281
     0
 65
     1
110
0.0
120
0.0
130
0.0
111
1.0
121
0.0
131
0.0
112
0.0
122
1.0
132
0.0
 79
     0
146
0.0
  0
ENDTAB
  0
TABLE
  2
LTYPE
  5
5
330
0
100
AcDbSymbolTable
 70
     1
  0
LTYPE
  5
14
330
5
100
AcDbSymbolTableRecord
100
AcDbLinetypeTableRecord
  2
ByBlock
 70
     0
  3

 72
    65
 73
     0
 40
0.0
  0
LTYPE
  5
15
330
5
100
AcDbSymbolTableRecord
100
AcDbLinetypeTableRecord
  2
ByLayer
 70
     0
  3

 72
    65
 73
     0
 40
0.0
  0
LTYPE
  5
16
330
5
100
AcDbSymbolTableRecord
100
AcDbLinetypeTableRecord
  2
Continuous
 70
     0
  3
Solid line
 72
    65
 73
     0
 40
0.0
  0
ENDTAB
  0
TABLE
  2
LAYER
  5
2
330
0
100
AcDbSymbolTable
 70
     3
  0
LAYER
  5
10
330
2
100
AcDbSymbolTableRecord
100
AcDbLayerTableRecord
  2
0
 70
     0
 62
     7
  6
Continuous
370
    -3
390
F
  0
LAYER
  5
3B
330
2
100
AcDbSymbolTableRecord
100
AcDbLayerTableRecord
  2
Make2D visible lines
 70
     0
 62
     7
  6
Continuous
370
    -3
390
F
  0
LAYER
  5
50
330
2
100
AcDbSymbolTableRecord
100
AcDbLayerTableRecord
  2
Default
 70
     0
 62
     7
  6
Continuous
370
    -3
390
F
  0
ENDTAB
  0
TABLE
  2
STYLE
  5
3
330
0
100
AcDbSymbolTable
 70
     1
  0
STYLE
  5
11
330
3
100
AcDbSymbolTableRecord
100
AcDbTextStyleTableRecord
  2
Standard
 70
     0
 40
0.0
 41
1.0
 50
0.0
 71
     0
 42
0.2
  3
txt
  4

  0
ENDTAB
  0
TABLE
  2
VIEW
  5
6
330
0
100
AcDbSymbolTable
 70
     0
  0
ENDTAB
  0
TABLE
  2
UCS
  5
7
330
0
100
AcDbSymbolTable
 70
     0
  0
ENDTAB
  0
TABLE
  2
APPID
  5
9
330
0
100
AcDbSymbolTable
 70
     1
  0
APPID
  5
12
330
9
100
AcDbSymbolTableRecord
100
AcDbRegAppTableRecord
  2
ACAD
 70
     0
  0
ENDTAB
  0
TABLE
  2
DIMSTYLE
  5
A
330
0
100
AcDbSymbolTable
 70
     1
100
AcDbDimStyleTable
  0
DIMSTYLE
105
27
330
A
100
AcDbSymbolTableRecord
100
AcDbDimStyleTableRecord
  2
Standard
 70
     0
340
11
  0
ENDTAB
  0
TABLE
  2
BLOCK_RECORD
  5
1
330
0
100
AcDbSymbolTable
 70
     1
  0
BLOCK_RECORD
  5
1F
330
1
100
AcDbSymbolTableRecord
100
AcDbBlockTableRecord
  2
*Model_Space
340
22
  0
BLOCK_RECORD
  5
1B
330
1
100
AcDbSymbolTableRecord
100
AcDbBlockTableRecord
  2
*Paper_Space
340
1E
  0
BLOCK_RECORD
  5
23
330
1
100
AcDbSymbolTableRecord
100
AcDbBlockTableRecord
  2
*Paper_Space0
340
26
  0
ENDTAB
  0
ENDSEC
  0
SECTION
  2
BLOCKS
  0
BLOCK
  5
20
330
1F
100
AcDbEntity
  8
0
100
AcDbBlockBegin
  2
*Model_Space
 70
     0
 10
0.0
 20
0.0
 30
0.0
  3
*Model_Space
  1

  0
ENDBLK
  5
21
330
1F
100
AcDbEntity
  8
0
100
AcDbBlockEnd
  0
BLOCK
  5
1C
330
1B
100
AcDbEntity
 67
     1
  8
0
100
AcDbBlockBegin
  2
*Paper_Space
 70
     0
 10
0.0
 20
0.0
 30
0.0
  3
*Paper_Space
  1

  0
ENDBLK
  5
1D
330
1B
100
AcDbEntity
 67
     1
  8
0
100
AcDbBlockEnd
  0
BLOCK
  5
24
330
23
100
AcDbEntity
  8
0
100
AcDbBlockBegin
  2
*Paper_Space0
 70
     0
 10
0.0
 20
0.0
 30
0.0
  3
*Paper_Space0
  1

  0
ENDBLK
  5
25
330
23
100
AcDbEntity
  8
0
100
AcDbBlockEnd
  0
ENDSEC
  0
SECTION
  2
ENTITIES
  0
SPLINE
  5
3C
330
1F
100
AcDbEntity
  8
Make2D visible lines
100
AcDbSpline
210
0.0
220
0.0
230
1.0
 70
    12
 71
     2
 72
     8
 73
     5
 74
     0
 42
0.0000000001
 43
0.0000000001
 40
-0.5202994329098187
 40
-0.5202994329098187
 40
-0.5202994329098187
 40
-0.4908660760738508
 40
-0.4908660760738508
 40
0.0
 40
0.0
 40
0.0
 10
-8.588197715348175
 20
0.2736763833125623
 30
0.0
 41
1.0
 10
-8.587274544253164
 20
0.2902084399416757
 30
0.0
 41
0.84093902136173
 10
-8.601938086204987
 20
0.297898802656532
 30
0.0
 41
1.0
 10
-8.694542781672634
 20
0.3704138886380521
 30
0.0
 41
0.7071888352815602
 10
-8.990432191461906
 20
0.3880901797958438
 30
0.0
 41
0.999835932519513
  0
SPLINE
  5
3D
330
1F
100
AcDbEntity
  8
Make2D visible lines
100
AcDbSpline
210
0.0
220
0.0
230
1.0
 70
    12
 71
     3
 72
     8
 73
     4
 74
     0
 42
0.0000000001
 43
0.0000000001
 40
-1.963087469356249
 40
-1.963087469356249
 40
-1.963087469356249
 40
-1.963087469356249
 40
-1.582998516805881
 40
-1.582998516805881
 40
-1.582998516805881
 40
-1.582998516805881
 10
-8.990432191461906
 20
0.3880901797958438
 30
0.0
 41
1.0
 10
-9.116908792850431
 20
0.3966008300486344
 30
0.0
 41
1.0
 10
-9.20005216628825
 20
0.3829426317818387
 30
0.0
 41
1.0
 10
-9.207357859619933
 20
0.3578284635590593
 30
0.0
 41
1.0
  0
SPLINE
  5
3E
330
1F
100
AcDbEntity
  8
Make2D visible lines
100
AcDbSpline
210
0.0
220
0.0
230
1.0
 70
    12
 71
     2
 72
     8
 73
     5
 74
     0
 42
0.0000000001
 43
0.0000000001
 40
-0.5202994329098187
 40
-0.5202994329098187
 40
-0.5202994329098187
 40
-0.4908660760738508
 40
-0.4908660760738508
 40
0.0
 40
0.0
 40
0.0
 10
8.588197715348175
 20
0.2736763833125623
 30
0.0
 41
1.0
 10
8.587274544253164
 20
0.2902084399416757
 30
0.0
 41
0.84093902136173
 10
8.601938086204987
 20
0.297898802656532
 30
0.0
 41
1.0
 10
8.694542781672634
 20
0.3704138886380521
 30
0.0
 41
0.7071888352815602
 10
8.990432191461906
 20
0.3880901797958438
 30
0.0
 41
0.999835932519513
  0
SPLINE
  5
3F
330
1F
100
AcDbEntity
  8
Make2D visible lines
100
AcDbSpline
210
0.0
220
0.0
230
1.0
 70
    12
 71
     3
 72
     8
 73
     4
 74
     0
 42
0.0000000001
 43
0.0000000001
 40
-1.963087469356249
 40
-1.963087469356249
 40
-1.963087469356249
 40
-1.963087469356249
 40
-1.582998516805881
 40
-1.582998516805881
 40
-1.582998516805881
 40
-1.582998516805881
 10
8.990432191461906
 20
0.3880901797958438
 30
0.0
 41
1.0
 10
9.116908792850431
 20
0.3966008300486344
 30
0.0
 41
1.0
 10
9.20005216628825
 20
0.3829426317818387
 30
0.0
 41
1.0
 10
9.207357859619933
 20
0.3578284635590593
 30
0.0
 41
1.0
  0
SPLINE
  5
40
330
1F
100
AcDbEntity
  8
Make2D visible lines
100
AcDbSpline
210
0.0
220
0.0
230
1.0
 70
    24
 71
     2
 72
     6
 73
     3
 74
     0
 42
0.0000000001
 43
0.0000000001
 40
0.0
 40
0.0
 40
0.0
 40
11.19019005670523
 40
11.19019005670523
 40
11.19019005670523
 10
-6.103263048612298
 20
11.21439820764473
 30
0.0
 10
-7.224594808674299
 20
5.732610813899691
 30
0.0
 10
-8.3459265687363
 20
0.2508234201546527
 30
0.0
  0
SPLINE
  5
41
330
1F
100
AcDbEntity
  8
Make2D visible lines
100
AcDbSpline
210
0.0
220
0.0
230
1.0
 70
    12
 71
     2
 72
     8
 73
     5
 74
     0
 42
0.0000000001
 43
0.0000000001
 40
-0.58087817316153
 40
-0.58087817316153
 40
-0.58087817316153
 40
-0.2740820155844018
 40
-0.2740820155844018
 40
-0.1706093440027808
 40
-0.1706093440027808
 40
-0.1706093440027808
 10
-8.345926568736298
 20
0.2508234201546527
 30
0.0
 41
0.8627063036811942
 10
-8.358445493001197
 20
0.196384565553119
 30
0.0
 41
0.8169417382415922
 10
-8.50379614643217
 20
0.1955328452721709
 30
0.0
 41
1.0
 10
-8.555556928718213
 20
0.1960401402044483
 30
0.0
 41
0.9955460879863995
 10
-8.60691097264942
 20
0.2025361468949102
 30
0.0
 41
0.9944550976446503
  0
SPLINE
  5
42
330
1F
100
AcDbEntity
  8
Make2D visible lines
100
AcDbSpline
210
0.0
220
0.0
230
1.0
 70
    12
 71
     2
 72
     6
 73
     3
 74
     0
 42
0.0000000001
 43
0.0000000001
 40
0.0
 40
0.0
 40
0.0
 40
0.1264146628890321
 40
0.1264146628890321
 40
0.1264146628890321
 10
-8.774574541058236
 20
0.0299690987098233
 30
0.0
 41
1.0
 10
-8.715666392999573
 20
0.0047363356567515
 30
0.0
 41
0.9795874100105771
 10
-8.65158158825496
 20
0.004742647422339
 30
0.0
 41
1.0
  0
SPLINE
  5
43
330
1F
100
AcDbEntity
  8
Make2D visible lines
100
AcDbSpline
210
0.0
220
0.0
230
1.0
 70
    12
 71
     2
 72
     6
 73
     3
 74
     0
 42
0.0000000001
 43
0.0000000001
 40
0.0
 40
0.0
 40
0.0
 40
0.4054849752577168
 40
0.4054849752577168
 40
0.4054849752577168
 10
-8.65158158825496
 20
0.004742647422339
 30
0.0
 41
1.0
 10
-8.41467826400711
 20
0.0048887412593003
 30
0.0
 41
0.7970977390766091
 10
-8.350682157147546
 20
0.2329845647412546
 30
0.0
 41
1.0
  0
SPLINE
  5
44
330
1F
100
AcDbEntity
  8
Make2D visible lines
100
AcDbSpline
210
0.0
220
0.0
230
1.0
 70
    12
 71
     2
 72
     8
 73
     5
 74
     0
 42
0.0000000001
 43
0.0000000001
 40
0.0
 40
0.0
 40
0.0
 40
0.4899288290525353
 40
0.4899288290525353
 40
0.9798576581050706
 40
0.9798576581050706
 40
0.9798576581050706
 10
-9.207736920367005
 20
0.3554292163143787
 30
0.0
 41
1.0
 10
-9.245817935948274
 20
0.0462031591105043
 30
0.0
 41
0.7081574404104211
 10
-8.93670649610173
 20
0.0072026981189982
 30
0.0
 41
1.0
 10
-8.627595056255183
 20
-0.0317977628725079
 30
0.0
 41
0.7081574404104211
 10
-8.587675494782276
 20
0.2771963257657144
 30
0.0
 41
1.0
  0
SPLINE
  5
45
330
1F
100
AcDbEntity
  8
Make2D visible lines
100
AcDbSpline
210
0.0
220
0.0
230
1.0
 70
    12
 71
     3
 72
    10
 73
     6
 74
     0
 42
0.0000000001
 43
0.0000000001
 40
0.8078408789122629
 40
0.8078408789122629
 40
0.8078408789122629
 40
0.8078408789122629
 40
0.9999985439659037
 40
0.9999985439659037
 40
1.557289640677526
 40
1.557289640677526
 40
1.557289640677526
 40
1.557289640677526
 10
8.605685630742828
 20
0.2056748809510123
 30
0.0
 41
1.0
 10
8.570754026573685
 20
0.2011262291482048
 30
0.0
 41
1.0
 10
8.536140860250939
 20
0.1987334452330106
 30
0.0
 41
1.0
 10
8.408358896028098
 20
0.199482217170023
 30
0.0
 41
1.0
 10
8.352073569440362
 20
0.2216435234511657
 30
0.0
 41
1.0
 10
8.345318831729223
 20
0.2546650798978219
 30
0.0
 41
1.0
  0
SPLINE
  5
46
330
1F
100
AcDbEntity
  8
Make2D visible lines
100
AcDbSpline
210
0.0
220
0.0
230
1.0
 70
    12
 71
     2
 72
     6
 73
     3
 74
     0
 42
0.0000000001
 43
0.0000000001
 40
0.0
 40
0.0
 40
0.0
 40
0.1264146628890321
 40
0.1264146628890321
 40
0.1264146628890321
 10
8.774574541058236
 20
0.0299690987098233
 30
0.0
 41
1.0
 10
8.715666392999573
 20
0.0047363356567515
 30
0.0
 41
0.9795874100105771
 10
8.65158158825496
 20
0.004742647422339
 30
0.0
 41
1.0
  0
SPLINE
  5
47
330
1F
100
AcDbEntity
  8
Make2D visible lines
100
AcDbSpline
210
0.0
220
0.0
230
1.0
 70
    12
 71
     2
 72
     6
 73
     3
 74
     0
 42
0.0000000001
 43
0.0000000001
 40
0.0
 40
0.0
 40
0.0
 40
0.4054849752577168
 40
0.4054849752577168
 40
0.4054849752577168
 10
8.65158158825496
 20
0.004742647422339
 30
0.0
 41
1.0
 10
8.41467826400711
 20
0.0048887412593003
 30
0.0
 41
0.7970977390766091
 10
8.350682157147546
 20
0.2329845647412546
 30
0.0
 41
1.0
  0
SPLINE
  5
48
330
1F
100
AcDbEntity
  8
Make2D visible lines
100
AcDbSpline
210
0.0
220
0.0
230
1.0
 70
    12
 71
     2
 72
     8
 73
     5
 74
     0
 42
0.0000000001
 43
0.0000000001
 40
0.0
 40
0.0
 40
0.0
 40
0.4899288290525353
 40
0.4899288290525353
 40
0.9798576581050706
 40
0.9798576581050706
 40
0.9798576581050706
 10
9.207736920367005
 20
0.3554292163143787
 30
0.0
 41
1.0
 10
9.245817935948274
 20
0.0462031591105043
 30
0.0
 41
0.7081574404104211
 10
8.93670649610173
 20
0.0072026981189982
 30
0.0
 41
1.0
 10
8.627595056255183
 20
-0.0317977628725079
 30
0.0
 41
0.7081574404104211
 10
8.587675494782276
 20
0.2771963257657144
 30
0.0
 41
1.0
  0
SPLINE
  5
49
330
1F
100
AcDbEntity
  8
Make2D visible lines
100
AcDbSpline
210
0.0
220
0.0
230
1.0
 70
    24
 71
     2
 72
     6
 73
     3
 74
     0
 42
0.0000000001
 43
0.0000000001
 40
0.0
 40
0.0
 40
0.0
 40
6.364943275724004
 40
6.364943275724004
 40
6.364943275724004
 10
-7.983667222298562
 20
5.140433629333178
 30
0.0
 10
-7.345882118572954
 20
8.258342525895387
 30
0.0
 10
-6.708097014847345
 20
11.37625142245759
 30
0.0
  0
SPLINE
  5
4A
330
1F
100
AcDbEntity
  8
Make2D visible lines
100
AcDbSpline
210
0.0
220
0.0
230
1.0
 70
    12
 71
     2
 72
     6
 73
     3
 74
     0
 42
0.0000000001
 43
0.0000000001
 40
-0.8436208550946255
 40
-0.8436208550946255
 40
-0.8436208550946255
 40
0.0
 40
0.0
 40
0.0
 10
-4.9338143594778
 20
10.97749903747302
 30
0.0
 41
1.0
 10
-4.589722410570922
 20
10.72734120170837
 30
0.0
 41
0.9873375337234498
 10
-4.162044317750794
 20
10.59066387092882
 30
0.0
 41
1.0
  0
SPLINE
  5
4B
330
1F
100
AcDbEntity
  8
Make2D visible lines
100
AcDbSpline
210
0.0
220
0.0
230
1.0
 70
     8
 71
     3
 72
    11
 73
     7
 74
     0
 42
0.0000000001
 43
0.0000000001
 40
-1.168375855721459
 40
-1.168375855721459
 40
-1.168375855721459
 40
-1.168375855721459
 40
-0.9807542986841283
 40
-0.7324560601477451
 40
-0.398990183726646
 40
0.0
 40
0.0
 40
0.0
 40
0.0
 10
-4.162044317750794
 20
10.59066387092882
 30
0.0
 10
-4.102059846114321
 20
10.57279296043826
 30
0.0
 10
-3.959102880551977
 20
10.54537302104643
 30
0.0
 10
-3.703785814877286
 20
10.51993893394864
 30
0.0
 10
-3.377152142550382
 20
10.50458123486796
 30
0.0
 10
-3.132998527109332
 20
10.50153050107272
 30
0.0
 10
-3.000000719711506
 20
10.50135006421026
 30
0.0
  0
SPLINE
  5
4C
330
1F
100
AcDbEntity
  8
Make2D visible lines
100
AcDbSpline
210
0.0
220
0.0
230
1.0
 70
    24
 71
     2
 72
     6
 73
     3
 74
     0
 42
0.0000000001
 43
0.0000000001
 40
-3.000000000000007
 40
-3.000000000000007
 40
-3.000000000000007
 40
0.0
 40
0.0
 40
0.0
 10
-3.000000719711506
 20
10.50135006421026
 30
0.0
 10
-1.500000359855753
 20
10.50135006376591
 30
0.0
 10
0.0
 20
10.50135006332155
 30
0.0
  0
SPLINE
  5
4D
330
1F
100
AcDbEntity
  8
Make2D visible lines
100
AcDbSpline
210
0.0
220
0.0
230
1.0
 70
    24
 71
     2
 72
     6
 73
     3
 74
     0
 42
0.0000000001
 43
0.0000000001
 40
0.0
 40
0.0
 40
0.0
 40
3.000000000000007
 40
3.000000000000007
 40
3.000000000000007
 10
0.0
 20
10.50135006332155
 30
0.0
 10
1.500000359855753
 20
10.50135006376591
 30
0.0
 10
3.000000719711506
 20
10.50135006421026
 30
0.0
  0
SPLINE
  5
4E
330
1F
100
AcDbEntity
  8
Make2D visible lines
100
AcDbSpline
210
0.0
220
0.0
230
1.0
 70
     8
 71
     3
 72
    11
 73
     7
 74
     0
 42
0.0000000001
 43
0.0000000001
 40
0.0
 40
0.0
 40
0.0
 40
0.0
 40
0.398990183726646
 40
0.7324560601477451
 40
0.9807542986841283
 40
1.168375855721459
 40
1.168375855721459
 40
1.168375855721459
 40
1.168375855721459
 10
3.000000719711506
 20
10.50135006421026
 30
0.0
 10
3.132998527109332
 20
10.50153050107272
 30
0.0
 10
3.377152142550382
 20
10.50458123486796
 30
0.0
 10
3.703785814877286
 20
10.51993893394864
 30
0.0
 10
3.959102880551977
 20
10.54537302104643
 30
0.0
 10
4.102059846114321
 20
10.57279296043826
 30
0.0
 10
4.162044317750794
 20
10.59066387092882
 30
0.0
  0
SPLINE
  5
4F
330
1F
100
AcDbEntity
  8
Make2D visible lines
100
AcDbSpline
210
0.0
220
0.0
230
1.0
 70
    12
 71
     2
 72
     6
 73
     3
 74
     0
 42
0.0000000001
 43
0.0000000001
 40
0.0
 40
0.0
 40
0.0
 40
0.8436208550946255
 40
0.8436208550946255
 40
0.8436208550946255
 10
4.162044317750794
 20
10.59066387092882
 30
0.0
 41
1.0
 10
4.589722410570922
 20
10.72734120170837
 30
0.0
 41
0.9873375337234498
 10
4.9338143594778
 20
10.97749903747302
 30
0.0
 41
1.0
  0
SPLINE
  5
51
330
1F
100
AcDbEntity
  8
Default
100
AcDbSpline
210
0.0
220
0.0
230
1.0
 70
    24
 71
     2
 72
     6
 73
     3
 74
     0
 42
0.0000000001
 43
0.0000000001
 40
0.0
 40
0.0
 40
0.0
 40
10.56228668149916
 40
10.56228668149916
 40
10.56228668149916
 10
9.207736920367005
 20
0.3554292163143787
 30
0.0
 10
8.556804130775093
 20
5.59669275156776
 30
0.0
 10
7.905871341183182
 20
10.83795628682114
 30
0.0
  0
SPLINE
  5
52
330
1F
100
AcDbEntity
  8
Default
100
AcDbSpline
210
0.0
220
0.0
230
1.0
 70
     8
 71
     3
 72
    12
 73
     8
 74
     0
 42
0.0000000001
 43
0.0000000001
 40
0.0
 40
0.0
 40
0.0
 40
0.0
 40
0.2779373345813006
 40
0.5311831987203071
 40
0.9932833818794501
 40
1.381057475511472
 40
1.7316709966046
 40
1.7316709966046
 40
1.7316709966046
 40
1.7316709966046
 10
7.905871341183182
 20
10.83795628682114
 30
0.0
 10
7.893961758777585
 20
10.9304387067347
 30
0.0
 10
7.863705422584454
 20
11.10562631385517
 30
0.0
 10
7.766877012680658
 20
11.42223814247077
 30
0.0
 10
7.597499359099467
 20
11.75338468678861
 30
0.0
 10
7.288207148077664
 20
12.02303319009918
 30
0.0
 10
7.036619739278535
 20
12.07298377448418
 30
0.0
 10
6.92064638851565
 20
12.06126555793396
 30
0.0
  0
SPLINE
  5
53
330
1F
100
AcDbEntity
  8
Default
100
AcDbSpline
210
0.0
220
0.0
230
1.0
 70
     8
 71
     3
 72
     8
 73
     4
 74
     0
 42
0.0000000001
 43
0.0000000001
 40
0.0
 40
0.0
 40
0.0
 40
0.0
 40
1.0
 40
1.0
 40
1.0
 40
1.0
 10
6.92064638851565
 20
12.06126555793396
 30
0.0
 10
6.888030306970419
 20
12.05796995334849
 30
0.0
 10
6.855528817929383
 20
12.052576051504
 30
0.0
 10
6.823701236233191
 20
12.04472271919719
 30
0.0
  0
SPLINE
  5
54
330
1F
100
AcDbEntity
  8
Default
100
AcDbSpline
210
0.0
220
0.0
230
1.0
 70
    12
 71
     2
 72
    10
 73
     7
 74
     0
 42
0.0000000001
 43
0.0000000001
 40
-0.192093564250425
 40
-0.192093564250425
 40
-0.192093564250425
 40
-0.1279604400037003
 40
-0.1279604400037003
 40
-0.0639305869732642
 40
-0.0639305869732642
 40
0.0
 40
0.0
 40
0.0
 10
6.823701236233191
 20
12.04472271919719
 30
0.0
 41
1.0
 10
6.792568188280995
 20
12.03704076039724
 30
0.0
 41
0.9999892348847124
 10
6.761365192262653
 20
12.02964804741234
 30
0.0
 41
1.0
 10
6.730212439662554
 20
12.02226723907107
 30
0.0
 41
0.9999891656151457
 10
6.698992323148515
 20
12.01517677708448
 30
0.0
 41
1.0
 10
6.667820604850812
 20
12.00809731254347
 30
0.0
 41
0.9999890984933278
 10
6.636584133447034
 20
12.00130925729474
 30
0.0
 41
1.0
  0
SPLINE
  5
55
330
1F
100
AcDbEntity
  8
Default
100
AcDbSpline
210
0.0
220
0.0
230
1.0
 70
    12
 71
     2
 72
     6
 73
     3
 74
     0
 42
0.0000000001
 43
0.0000000001
 40
-0.1645939861043443
 40
-0.1645939861043443
 40
-0.1645939861043443
 40
0.0
 40
0.0
 40
0.0
 10
6.636584133447034
 20
12.00130925729474
 30
0.0
 41
1.0
 10
6.556257987290905
 20
11.98335902151252
 30
0.0
 41
0.999811166942512
 10
6.476690014504333
 20
11.96230102046507
 30
0.0
 41
1.0
  0
SPLINE
  5
56
330
1F
100
AcDbEntity
  8
Default
100
AcDbSpline
210
0.0
220
0.0
230
1.0
 70
    12
 71
     2
 72
     6
 73
     3
 74
     0
 42
0.0000000001
 43
0.0000000001
 40
0.0
 40
0.0
 40
0.0
 40
0.2034365546988051
 40
0.2034365546988051
 40
0.2034365546988051
 10
6.476690014504333
 20
11.96230102046507
 30
0.0
 41
1.0
 10
6.378293482813755
 20
11.93651478014979
 30
0.0
 41
0.999985612974861
 10
6.280180580476579
 20
11.9096695517467
 30
0.0
 41
1.0
  0
SPLINE
  5
57
330
1F
100
AcDbEntity
  8
Default
100
AcDbSpline
210
0.0
220
0.0
230
1.0
 70
    12
 71
     2
 72
     6
 73
     3
 74
     0
 42
0.0000000001
 43
0.0000000001
 40
-0.0715383633173021
 40
-0.0715383633173021
 40
-0.0715383633173021
 40
0.0
 40
0.0
 40
0.0
 10
6.280180580476579
 20
11.9096695517467
 30
0.0
 41
1.0
 10
6.245668150623342
 20
11.90027132734854
 30
0.0
 41
0.9999999759228646
 10
6.211157306934158
 20
11.89086728230372
 30
0.0
 41
0.9999999999999996
  0
SPLINE
  5
58
330
1F
100
AcDbEntity
  8
Default
100
AcDbSpline
210
0.0
220
0.0
230
1.0
 70
    12
 71
     2
 72
     6
 73
     3
 74
     0
 42
0.0000000001
 43
0.0000000001
 40
0.0
 40
0.0
 40
0.0
 40
0.2577599672274734
 40
0.2577599672274734
 40
0.2577599672274734
 10
6.211157306934158
 20
11.89086728230372
 30
0.0
 41
0.9999999999998186
 10
6.086842884948049
 20
11.85686600590125
 30
0.0
 41
0.9999949110065189
 10
5.962315237846548
 20
11.82365414963374
 30
0.0
 41
1.0
  0
ARC
  5
59
330
1F
100
AcDbEntity
  8
Default
100
AcDbCircle
 10
3.356575869301819
 20
21.34668683503122
 30
0.0
 40
9.8730962308656
100
AcDbArc
 50
282.8651821148426
 51
285.3029802967349
  0
ARC
  5
5A
330
1F
100
AcDbEntity
  8
Default
100
AcDbCircle
 10
3.764515028239754
 20
19.56054386087505
 30
0.0
 40
8.040960569534152
100
AcDbArc
 50
268.7988925315835
 51
282.8651821148426
  0
SPLINE
  5
5B
330
1F
100
AcDbEntity
  8
Default
100
AcDbSpline
210
0.0
220
0.0
230
1.0
 70
    24
 71
     2
 72
     6
 73
     3
 74
     0
 42
0.0000000001
 43
0.0000000001
 40
-3.595962466357996
 40
-3.595962466357996
 40
-3.595962466357996
 40
0.0
 40
0.0
 40
0.0
 10
3.595962466358
 20
11.52135006331761
 30
0.0
 10
1.797981233179
 20
11.52135006331831
 30
0.0
 10
0.0
 20
11.52135006331901
 30
0.0
  0
SPLINE
  5
5C
330
1F
100
AcDbEntity
  8
Default
100
AcDbSpline
210
0.0
220
0.0
230
1.0
 70
    24
 71
     2
 72
     6
 73
     3
 74
     0
 42
0.0000000001
 43
0.0000000001
 40
0.0
 40
0.0
 40
0.0
 40
3.595962466357996
 40
3.595962466357996
 40
3.595962466357996
 10
0.0
 20
11.52135006331901
 30
0.0
 10
-1.797981233179
 20
11.52135006331831
 30
0.0
 10
-3.595962466358
 20
11.52135006331761
 30
0.0
  0
ARC
  5
5D
330
1F
100
AcDbEntity
  8
Default
100
AcDbCircle
 10
-3.764515028239754
 20
19.56054386087505
 30
0.0
 40
8.040960569534152
100
AcDbArc
 50
257.1348178851574
 51
271.2011074684164
  0
ARC
  5
5E
330
1F
100
AcDbEntity
  8
Default
100
AcDbCircle
 10
-3.356575869301819
 20
21.34668683503122
 30
0.0
 40
9.8730962308656
100
AcDbArc
 50
254.6970197032651
 51
257.1348178851573
  0
SPLINE
  5
5F
330
1F
100
AcDbEntity
  8
Default
100
AcDbSpline
210
0.0
220
0.0
230
1.0
 70
    12
 71
     2
 72
     6
 73
     3
 74
     0
 42
0.0000000001
 43
0.0000000001
 40
-0.2577599672274734
 40
-0.2577599672274734
 40
-0.2577599672274734
 40
0.0
 40
0.0
 40
0.0
 10
-5.962315237846548
 20
11.82365414963374
 30
0.0
 41
1.0
 10
-6.086842884948049
 20
11.85686600590125
 30
0.0
 41
0.9999949110065189
 10
-6.211157306934158
 20
11.89086728230372
 30
0.0
 41
0.9999999999998186
  0
SPLINE
  5
60
330
1F
100
AcDbEntity
  8
Default
100
AcDbSpline
210
0.0
220
0.0
230
1.0
 70
    12
 71
     2
 72
     6
 73
     3
 74
     0
 42
0.0000000001
 43
0.0000000001
 40
0.0
 40
0.0
 40
0.0
 40
0.0715383633173021
 40
0.0715383633173021
 40
0.0715383633173021
 10
-6.211157306934158
 20
11.89086728230372
 30
0.0
 41
0.9999999999999996
 10
-6.245668150623342
 20
11.90027132734854
 30
0.0
 41
0.9999999759228646
 10
-6.280180580476579
 20
11.9096695517467
 30
0.0
 41
1.0
  0
SPLINE
  5
61
330
1F
100
AcDbEntity
  8
Default
100
AcDbSpline
210
0.0
220
0.0
230
1.0
 70
    12
 71
     2
 72
     6
 73
     3
 74
     0
 42
0.0000000001
 43
0.0000000001
 40
-0.2034365546988051
 40
-0.2034365546988051
 40
-0.2034365546988051
 40
0.0
 40
0.0
 40
0.0
 10
-6.280180580476579
 20
11.9096695517467
 30
0.0
 41
1.0
 10
-6.378293482813755
 20
11.93651478014979
 30
0.0
 41
0.999985612974861
 10
-6.476690014504333
 20
11.96230102046507
 30
0.0
 41
1.0
  0
SPLINE
  5
62
330
1F
100
AcDbEntity
  8
Default
100
AcDbSpline
210
0.0
220
0.0
230
1.0
 70
    12
 71
     2
 72
     6
 73
     3
 74
     0
 42
0.0000000001
 43
0.0000000001
 40
0.0
 40
0.0
 40
0.0
 40
0.1645939861043443
 40
0.1645939861043443
 40
0.1645939861043443
 10
-6.476690014504333
 20
11.96230102046507
 30
0.0
 41
1.0
 10
-6.556257987290905
 20
11.98335902151252
 30
0.0
 41
0.999811166942512
 10
-6.636584133447034
 20
12.00130925729474
 30
0.0
 41
1.0
  0
SPLINE
  5
63
330
1F
100
AcDbEntity
  8
Default
100
AcDbSpline
210
0.0
220
0.0
230
1.0
 70
    12
 71
     2
 72
    10
 73
     7
 74
     0
 42
0.0000000001
 43
0.0000000001
 40
0.0
 40
0.0
 40
0.0
 40
0.0639305869732642
 40
0.0639305869732642
 40
0.1279604400037003
 40
0.1279604400037003
 40
0.192093564250425
 40
0.192093564250425
 40
0.192093564250425
 10
-6.636584133447034
 20
12.00130925729474
 30
0.0
 41
1.0
 10
-6.667820604850812
 20
12.00809731254347
 30
0.0
 41
0.9999890984933278
 10
-6.698992323148515
 20
12.01517677708448
 30
0.0
 41
1.0
 10
-6.730212439662554
 20
12.02226723907107
 30
0.0
 41
0.9999891656151457
 10
-6.761365192262653
 20
12.02964804741234
 30
0.0
 41
1.0
 10
-6.792568188280995
 20
12.03704076039724
 30
0.0
 41
0.9999892348847124
 10
-6.823701236233191
 20
12.04472271919719
 30
0.0
 41
1.0
  0
SPLINE
  5
64
330
1F
100
AcDbEntity
  8
Default
100
AcDbSpline
210
0.0
220
0.0
230
1.0
 70
     8
 71
     3
 72
     8
 73
     4
 74
     0
 42
0.0000000001
 43
0.0000000001
 40
-1.0
 40
-1.0
 40
-1.0
 40
-1.0
 40
0.0
 40
0.0
 40
0.0
 40
0.0
 10
-6.823701236233191
 20
12.04472271919719
 30
0.0
 10
-6.855528817929383
 20
12.052576051504
 30
0.0
 10
-6.888030306970419
 20
12.05796995334849
 30
0.0
 10
-6.92064638851565
 20
12.06126555793396
 30
0.0
  0
SPLINE
  5
65
330
1F
100
AcDbEntity
  8
Default
100
AcDbSpline
210
0.0
220
0.0
230
1.0
 70
     8
 71
     3
 72
    12
 73
     8
 74
     0
 42
0.0000000001
 43
0.0000000001
 40
-1.7316709966046
 40
-1.7316709966046
 40
-1.7316709966046
 40
-1.7316709966046
 40
-1.381057475511472
 40
-0.9932833818794501
 40
-0.5311831987203071
 40
-0.2779373345813006
 40
0.0
 40
0.0
 40
0.0
 40
0.0
 10
-6.92064638851565
 20
12.06126555793396
 30
0.0
 10
-7.036619739278535
 20
12.07298377448418
 30
0.0
 10
-7.288207148077664
 20
12.02303319009918
 30
0.0
 10
-7.597499359099467
 20
11.75338468678861
 30
0.0
 10
-7.766877012680658
 20
11.42223814247077
 30
0.0
 10
-7.863705422584454
 20
11.10562631385517
 30
0.0
 10
-7.893961758777585
 20
10.9304387067347
 30
0.0
 10
-7.905871341183182
 20
10.83795628682114
 30
0.0
  0
SPLINE
  5
66
330
1F
100
AcDbEntity
  8
Default
100
AcDbSpline
210
0.0
220
0.0
230
1.0
 70
    24
 71
     2
 72
     6
 73
     3
 74
     0
 42
0.0000000001
 43
0.0000000001
 40
-10.56228668149916
 40
-10.56228668149916
 40
-10.56228668149916
 40
0.0
 40
0.0
 40
0.0
 10
-7.905871341183182
 20
10.83795628682114
 30
0.0
 10
-8.556804130775093
 20
5.59669275156776
 30
0.0
 10
-9.207736920367005
 20
0.3554292163143787
 30
0.0
  0
SPLINE
  5
67
330
1F
100
AcDbEntity
  8
Make2D visible lines
100
AcDbSpline
210
0.0
220
0.0
230
1.0
 70
    24
 71
     2
 72
     6
 73
     3
 74
     0
 42
0.0000000001
 43
0.0000000001
 40
-10.5545367849474
 40
-10.5545367849474
 40
-10.5545367849474
 40
0.0
 40
0.0
 40
0.0
 10
8.586737261788242
 20
0.2845566867776547
 30
0.0
 10
7.935598493011805
 20
5.527373087566202
 30
0.0
 10
7.284459724235369
 20
10.77018948835475
 30
0.0
  0
SPLINE
  5
68
330
1F
100
AcDbEntity
  8
Make2D visible lines
100
AcDbSpline
210
0.0
220
0.0
230
1.0
 70
     8
 71
     3
 72
    12
 73
     8
 74
     0
 42
0.0000000001
 43
0.0000000001
 40
-0.761295221738784
 40
-0.761295221738784
 40
-0.761295221738784
 40
-0.761295221738784
 40
-0.3025165941887742
 40
-0.1208941401645658
 40
-0.0477218467254063
 40
-0.0185914585234393
 40
0.0
 40
0.0
 40
0.0
 40
0.0
 10
7.284459724235369
 20
10.77018948835475
 30
0.0
 10
7.264271378432435
 20
10.92141260151411
 30
0.0
 10
7.215199285230393
 20
11.13211737762841
 30
0.0
 10
7.098007292164214
 20
11.34099243587946
 30
0.0
 10
7.032574069105944
 20
11.41041260789298
 30
0.0
 10
6.999053591767813
 20
11.43288030341617
 30
0.0
 10
6.984122661268853
 20
11.43913590989802
 30
0.0
 10
6.977865535270835
 20
11.43891987089935
 30
0.0
  0
ARC
  5
69
330
1F
100
AcDbEntity
  8
Make2D visible lines
100
AcDbCircle
 10
8.141164936491956
 20
5.781445141642664
 30
0.0
 40
5.775836373120296
100
AcDbArc
 50
101.619304580716
 51
104.8564605299103
  0
LINE
  5
6A
330
1F
100
AcDbEntity
  8
Make2D visible lines
100
AcDbLine
 10
6.660249945859372
 20
11.36420222032512
 30
0.0
 11
5.855644247783827
 21
11.150767778698
 31
0.0
  0
SPLINE
  5
6B
330
1F
100
AcDbEntity
  8
Make2D visible lines
100
AcDbSpline
210
0.0
220
0.0
230
1.0
 70
     8
 71
     3
 72
    10
 73
     6
 74
     0
 42
0.0000000001
 43
0.0000000001
 40
0.0
 40
0.0
 40
0.0
 40
0.0
 40
0.9999999970617786
 40
1.999999998530889
 40
3.0
 40
3.0
 40
3.0
 40
3.0
 10
5.855644247783827
 20
11.150767778698
 30
0.0
 10
5.609948440573057
 20
11.08911442616838
 30
0.0
 10
5.112428804771087
 20
10.99042672373339
 30
0.0
 10
4.355851162888508
 20
10.91241094137218
 30
0.0
 10
3.849287833836864
 20
10.89510613732732
 30
0.0
 10
3.595962466357999
 20
10.89635006331766
 30
0.0
  0
SPLINE
  5
6C
330
1F
100
AcDbEntity
  8
Make2D visible lines
100
AcDbSpline
210
0.0
220
0.0
230
1.0
 70
    24
 71
     2
 72
     6
 73
     3
 74
     0
 42
0.0000000001
 43
0.0000000001
 40
0.0
 40
0.0
 40
0.0
 40
3.595962466357999
 40
3.595962466357999
 40
3.595962466357999
 10
3.595962466357999
 20
10.89635006331766
 30
0.0
 10
1.797981233179
 20
10.89635006331696
 30
0.0
 10
0.0
 20
10.89635006331626
 30
0.0
  0
SPLINE
  5
6D
330
1F
100
AcDbEntity
  8
Make2D visible lines
100
AcDbSpline
210
0.0
220
0.0
230
1.0
 70
    24
 71
     2
 72
     6
 73
     3
 74
     0
 42
0.0000000001
 43
0.0000000001
 40
-3.595962466357999
 40
-3.595962466357999
 40
-3.595962466357999
 40
0.0
 40
0.0
 40
0.0
 10
0.0
 20
10.89635006331626
 30
0.0
 10
-1.797981233179
 20
10.89635006331696
 30
0.0
 10
-3.595962466357999
 20
10.89635006331766
 30
0.0
  0
SPLINE
  5
6E
330
1F
100
AcDbEntity
  8
Make2D visible lines
100
AcDbSpline
210
0.0
220
0.0
230
1.0
 70
     8
 71
     3
 72
    10
 73
     6
 74
     0
 42
0.0000000001
 43
0.0000000001
 40
-3.0
 40
-3.0
 40
-3.0
 40
-3.0
 40
-1.999999998530889
 40
-0.9999999970617786
 40
0.0
 40
0.0
 40
0.0
 40
0.0
 10
-3.595962466357999
 20
10.89635006331766
 30
0.0
 10
-3.849287833836864
 20
10.89510613732732
 30
0.0
 10
-4.355851162888508
 20
10.91241094137218
 30
0.0
 10
-5.112428804771087
 20
10.99042672373339
 30
0.0
 10
-5.609948440573057
 20
11.08911442616838
 30
0.0
 10
-5.855644247783827
 20
11.150767778698
 30
0.0
  0
LINE
  5
6F
330
1F
100
AcDbEntity
  8
Make2D visible lines
100
AcDbLine
 10
-5.855644247783827
 20
11.150767778698
 30
0.0
 11
-6.660249945859372
 21
11.36420222032512
 31
0.0
  0
ARC
  5
70
330
1F
100
AcDbEntity
  8
Make2D visible lines
100
AcDbCircle
 10
-8.141164936491956
 20
5.781445141642664
 30
0.0
 40
5.775836373120296
100
AcDbArc
 50
75.1435394700897
 51
78.38069541928402
  0
SPLINE
  5
71
330
1F
100
AcDbEntity
  8
Make2D visible lines
100
AcDbSpline
210
0.0
220
0.0
230
1.0
 70
     8
 71
     3
 72
    12
 73
     8
 74
     0
 42
0.0000000001
 43
0.0000000001
 40
0.0
 40
0.0
 40
0.0
 40
0.0
 40
0.0185914585234393
 40
0.0477218467254063
 40
0.1208941401645658
 40
0.3025165941887742
 40
0.761295221738784
 40
0.761295221738784
 40
0.761295221738784
 40
0.761295221738784
 10
-6.977865535270835
 20
11.43891987089935
 30
0.0
 10
-6.984122661268853
 20
11.43913590989802
 30
0.0
 10
-6.999053591767813
 20
11.43288030341617
 30
0.0
 10
-7.032574069105944
 20
11.41041260789298
 30
0.0
 10
-7.098007292164214
 20
11.34099243587946
 30
0.0
 10
-7.215199285230393
 20
11.13211737762841
 30
0.0
 10
-7.264271378432435
 20
10.92141260151411
 30
0.0
 10
-7.284459724235369
 20
10.77018948835475
 30
0.0
  0
SPLINE
  5
72
330
1F
100
AcDbEntity
  8
Make2D visible lines
100
AcDbSpline
210
0.0
220
0.0
230
1.0
 70
    24
 71
     2
 72
     6
 73
     3
 74
     0
 42
0.0000000001
 43
0.0000000001
 40
0.0
 40
0.0
 40
0.0
 40
10.5545367849474
 40
10.5545367849474
 40
10.5545367849474
 10
-7.284459724235369
 20
10.77018948835475
 30
0.0
 10
-7.935598493011805
 20
5.527373087566202
 30
0.0
 10
-8.586737261788242
 20
0.2845566867776547
 30
0.0
  0
SPLINE
  5
73
330
1F
100
AcDbEntity
  8
Make2D visible lines
100
AcDbSpline
210
0.0
220
0.0
230
1.0
 70
    24
 71
     2
 72
     6
 73
     3
 74
     0
 42
0.0000000001
 43
0.0000000001
 40
0.0
 40
0.0
 40
0.0
 40
11.19019005670523
 40
11.19019005670523
 40
11.19019005670523
 10
6.103263048612298
 20
11.21439820764473
 30
0.0
 10
7.224551364447894
 20
5.732810765209217
 30
0.0
 10
8.34583968028349
 20
0.2512233227737047
 30
0.0
  0
SPLINE
  5
74
330
1F
100
AcDbEntity
  8
Make2D visible lines
100
AcDbSpline
210
0.0
220
0.0
230
1.0
 70
    24
 71
     2
 72
     6
 73
     3
 74
     0
 42
0.0000000001
 43
0.0000000001
 40
0.0
 40
0.0
 40
0.0
 40
6.364943275724004
 40
6.364943275724004
 40
6.364943275724004
 10
7.983667222298562
 20
5.140433629333178
 30
0.0
 10
7.345882118572954
 20
8.258342525895387
 30
0.0
 10
6.708097014847345
 20
11.37625142245759
 30
0.0
  0
SPLINE
  5
75
330
1F
100
AcDbEntity
  8
Make2D visible lines
100
AcDbSpline
210
0.0
220
0.0
230
1.0
 70
    12
 71
     2
 72
     8
 73
     5
 74
     0
 42
0.0000000001
 43
0.0000000001
 40
-0.4711376355475253
 40
-0.4711376355475253
 40
-0.4711376355475253
 40
-0.4273369520327914
 40
-0.4273369520327914
 40
0.0
 40
0.0
 40
0.0
 10
22.66657600309023
 20
0.4224548925680525
 30
0.0
 41
0.9443287023156676
 10
22.68425126636118
 20
0.4392180643753931
 30
0.0
 41
0.8402680307771294
 10
22.70756875592718
 20
0.4321672813636136
 30
0.0
 41
1.0
 10
22.92203492070412
 20
0.4079199946575095
 30
0.0
 41
0.9850280476532692
 10
23.11551831301513
 20
0.3122756344130875
 30
0.0
 41
1.0
  0
SPLINE
  5
76
330
1F
100
AcDbEntity
  8
Make2D visible lines
100
AcDbSpline
210
0.0
220
0.0
230
1.0
 70
    12
 71
     2
 72
     6
 73
     3
 74
     0
 42
0.0000000001
 43
0.0000000001
 40
0.0
 40
0.0
 40
0.0
 40
0.3082430371142515
 40
0.3082430371142515
 40
0.3082430371142515
 10
23.11551831301513
 20
0.3122756344130875
 30
0.0
 41
1.0
 10
23.25066147985249
 20
0.2478995681321218
 30
0.0
 41
0.8160784182602362
 10
23.25116838910477
 20
0.2136523156983464
 30
0.0
 41
0.8631430530446698
  0
SPLINE
  5
77
330
1F
100
AcDbEntity
  8
Make2D visible lines
100
AcDbSpline
210
0.0
220
0.0
230
1.0
 70
    12
 71
     2
 72
     6
 73
     3
 74
     0
 42
0.0000000001
 43
0.0000000001
 40
-0.4803814146146277
 40
-0.4803814146146277
 40
-0.4803814146146277
 40
-0.4711376355475253
 40
-0.4711376355475253
 40
-0.4711376355475253
 10
22.66081002204282
 20
0.4156874799685248
 30
0.0
 41
1.0
 10
22.66333227099961
 20
0.4193785458399466
 30
0.0
 41
0.9662898631946522
 10
22.66657600309023
 20
0.4224548925680525
 30
0.0
 41
0.9443287023156676
  0
SPLINE
  5
78
330
1F
100
AcDbEntity
  8
Make2D visible lines
100
AcDbSpline
210
0.0
220
0.0
230
1.0
 70
    12
 71
     3
 72
    11
 73
     7
 74
     0
 42
0.0000000001
 43
0.0000000001
 40
0.0
 40
0.0
 40
0.0
 40
0.0
 40
0.3934469952921459
 40
0.3934469952921459
 40
0.3934469952921459
 40
0.7718077406171964
 40
0.7718077406171964
 40
0.7718077406171964
 40
0.7718077406171964
 10
43.27645098490225
 20
0.3863938877440814
 30
0.0
 41
1.0
 10
43.14494675561851
 20
0.3844333084350905
 30
0.0
 41
0.9943884200698394
 10
43.01480329292976
 20
0.365462665058106
 30
0.0
 41
0.9943884200698386
 10
42.88821152816594
 20
0.3298013234580369
 30
0.0
 41
1.0
 10
42.76877560505131
 20
0.2998728649363879
 30
0.0
 41
0.8106778878943465
 10
42.68657795255186
 20
0.2699827157487586
 30
0.0
 41
0.7347248930850707
 10
42.68130592531193
 20
0.2518902867095984
 30
0.0
 41
0.7625027761254605
  0
SPLINE
  5
79
330
1F
100
AcDbEntity
  8
Make2D visible lines
100
AcDbSpline
210
0.0
220
0.0
230
1.0
 70
    12
 71
     2
 72
     8
 73
     5
 74
     0
 42
0.0000000001
 43
0.0000000001
 40
0.0
 40
0.0
 40
0.0
 40
0.2959495117544358
 40
0.2959495117544358
 40
0.5918990235088717
 40
0.5918990235088717
 40
0.5918990235088717
 10
22.65947585485023
 20
0.4100944723012909
 30
0.0
 41
1.0
 10
22.60863325846411
 20
0.2582650721525375
 30
0.0
 41
0.8900445242472584
 10
22.70213184687002
 20
0.1282837260950554
 30
0.0
 41
1.0
 10
22.79563043527592
 20
-0.0016976199624266
 30
0.0
 41
0.8900445242472584
 10
22.95574642333131
 20
-0.0017796313076667
 30
0.0
 41
1.0
  0
SPLINE
  5
7A
330
1F
100
AcDbEntity
  8
Make2D visible lines
100
AcDbSpline
210
0.0
220
0.0
230
1.0
 70
    12
 71
     2
 72
     6
 73
     3
 74
     0
 42
0.0000000001
 43
0.0000000001
 40
0.0
 40
0.0
 40
0.0
 40
0.3842394126997106
 40
0.3842394126997106
 40
0.3842394126997106
 10
22.95574642333142
 20
-0.0017796313076643
 30
0.0
 41
1.0
 10
23.1763226105886
 20
-0.0016118035881994
 30
0.0
 41
0.8172584746271535
 10
23.25023904858378
 20
0.2062108196874292
 30
0.0
 41
1.0
  0
SPLINE
  5
7B
330
1F
100
AcDbEntity
  8
Make2D visible lines
100
AcDbSpline
210
0.0
220
0.0
230
1.0
 70
    12
 71
     2
 72
     8
 73
     5
 74
     0
 42
0.0000000001
 43
0.0000000001
 40
0.0
 40
0.0
 40
0.0
 40
0.4890995006559049
 40
0.4890995006559049
 40
0.9781990013118097
 40
0.9781990013118097
 40
0.9781990013118097
 10
42.68177845640321
 20
0.2425475599930521
 30
0.0
 41
1.0
 10
42.74956139900247
 20
-0.0607025654509406
 30
0.0
 41
0.7091031950961089
 10
43.05318996715582
 20
0.0053645102400404
 30
0.0
 41
1.0
 10
43.35681853530917
 20
0.0714315859310213
 30
0.0
 41
0.7091031950961089
 10
43.29246943906685
 20
0.3754288880605129
 30
0.0
 41
1.0
  0
SPLINE
  5
7C
330
1F
100
AcDbEntity
  8
Make2D visible lines
100
AcDbSpline
210
0.0
220
0.0
230
1.0
 70
    24
 71
     2
 72
     6
 73
     3
 74
     0
 42
0.0000000001
 43
0.0000000001
 40
-11.72227739926365
 40
-11.72227739926365
 40
-11.72227739926365
 40
0.0
 40
0.0
 40
0.0
 10
22.66389531007122
 20
0.4252814432592197
 30
0.0
 10
24.6221227450205
 20
5.952290186917056
 30
0.0
 10
26.58035017996978
 20
11.47929893057489
 30
0.0
  0
SPLINE
  5
7D
330
1F
100
AcDbEntity
  8
Make2D visible lines
100
AcDbSpline
210
0.0
220
0.0
230
1.0
 70
     8
 71
     3
 72
    12
 73
     8
 74
     0
 42
0.0000000001
 43
0.0000000001
 40
-2.573929048860964
 40
-2.573929048860964
 40
-2.573929048860964
 40
-2.573929048860964
 40
-1.893248078869892
 40
-1.257960203361009
 40
-0.6264657551691639
 40
-0.3106905553538196
 40
0.0
 40
0.0
 40
0.0
 40
0.0
 10
26.58035017996978
 20
11.47929893057489
 30
0.0
 10
26.65909195810828
 20
11.69733736869101
 30
0.0
 10
26.89200160023858
 20
12.08102904617056
 30
0.0
 10
27.45263650760276
 20
12.44376771746394
 30
0.0
 10
27.99561422508559
 20
12.48662716058788
 30
0.0
 10
28.39900934468339
 20
12.3599667451507
 30
0.0
 10
28.57937991484181
 20
12.25248654071315
 30
0.0
 10
28.6616780202242
 20
12.18944234052404
 30
0.0
  0
ARC
  5
7E
330
1F
100
AcDbEntity
  8
Make2D visible lines
100
AcDbCircle
 10
31.85822282942988
 20
16.42255866018239
 30
0.0
 40
5.30444836839964
100
AcDbArc
 50
232.9425232885743
 51
260.0502390062414
  0
ARC
  5
7F
330
1F
100
AcDbEntity
  8
Make2D visible lines
100
AcDbCircle
 10
32.33796046140415
 20
19.15730593422045
 30
0.0
 40
8.080955319298717
100
AcDbArc
 50
260.0502390062414
 51
263.6976946864867
  0
SPLINE
  5
80
330
1F
100
AcDbEntity
  8
Make2D visible lines
100
AcDbSpline
210
0.0
220
0.0
230
1.0
 70
    12
 71
     2
 72
     6
 73
     3
 74
     0
 42
0.0000000001
 43
0.0000000001
 40
-0.4908738521268115
 40
-0.4908738521268115
 40
-0.4908738521268115
 40
0.0
 40
0.0
 40
0.0
 10
31.45087922098348
 20
11.12518754954782
 30
0.0
 41
1.0
 10
31.76221670722792
 20
11.09825764674997
 30
0.0
 41
0.7071067811648746
 10
31.73528680441098
 20
10.78692016050718
 30
0.0
 41
1.0
  0
SPLINE
  5
81
330
1F
100
AcDbEntity
  8
Make2D visible lines
100
AcDbSpline
210
0.0
220
0.0
230
1.0
 70
    12
 71
     2
 72
     8
 73
     5
 74
     0
 42
0.0000000001
 43
0.0000000001
 40
0.0
 40
0.0
 40
0.0
 40
0.4908738521241969
 40
0.4908738521241969
 40
0.4983571956953172
 40
0.4983571956953172
 40
0.4983571956953172
 10
31.73528680441098
 20
10.78692016050718
 30
0.0
 41
1.0
 10
31.70835690159321
 20
10.4755826742783
 30
0.0
 41
0.7071067812025927
 10
31.3970194153631
 20
10.50251257708193
 30
0.0
 41
1.0
 10
31.39329148461295
 20
10.50283503363547
 30
0.0
 41
0.9999283203046679
 10
31.38956078895674
 20
10.50328355254479
 30
0.0
 41
1.0
  0
ARC
  5
82
330
1F
100
AcDbEntity
  8
Make2D visible lines
100
AcDbCircle
 10
32.36572950763129
 20
19.36592595631515
 30
0.0
 40
8.91624000038285
100
AcDbArc
 50
260.1139939458539
 51
263.7145379715565
  0
ARC
  5
83
330
1F
100
AcDbEntity
  8
Make2D visible lines
100
AcDbCircle
 10
31.84911821010108
 20
16.40160213501587
 30
0.0
 40
5.907236352950992
100
AcDbArc
 50
232.8608844136646
 51
260.1139939458539
  0
SPLINE
  5
84
330
1F
100
AcDbEntity
  8
Make2D visible lines
100
AcDbSpline
210
0.0
220
0.0
230
1.0
 70
     8
 71
     3
 72
    12
 73
     8
 74
     0
 42
0.0000000001
 43
0.0000000001
 40
-1.404091065260296
 40
-1.404091065260296
 40
-1.404091065260296
 40
-1.404091065260296
 40
-1.062417909018669
 40
-0.729580448501684
 40
-0.3751817481579005
 40
-0.188401197218608
 40
0.0
 40
0.0
 40
0.0
 40
0.0
 10
28.28261035455249
 20
11.69251909837955
 30
0.0
 10
28.19257142372722
 20
11.76128861832037
 30
0.0
 10
27.98045451583531
 20
11.8586636278592
 30
0.0
 10
27.62742980528707
 20
11.81786988234269
 30
0.0
 10
27.38549404203532
 20
11.64015945184879
 30
0.0
 10
27.24298155738706
 20
11.44285105996107
 30
0.0
 10
27.19001674589126
 20
11.32828778219324
 30
0.0
 10
27.16858696367592
 20
11.26812040910749
 30
0.0
  0
SPLINE
  5
85
330
1F
100
AcDbEntity
  8
Make2D visible lines
100
AcDbSpline
210
0.0
220
0.0
230
1.0
 70
    24
 71
     2
 72
     6
 73
     3
 74
     0
 42
0.0000000001
 43
0.0000000001
 40
-11.7264901888389
 40
-11.7264901888389
 40
-11.7264901888389
 40
0.0
 40
0.0
 40
0.0
 10
27.16858696367592
 20
11.26812040910749
 30
0.0
 10
25.21028733309427
 20
5.740892425624266
 30
0.0
 10
23.25198770251262
 20
0.2136644421410432
 30
0.0
  0
SPLINE
  5
86
330
1F
100
AcDbEntity
  8
Default
100
AcDbSpline
210
0.0
220
0.0
230
1.0
 70
    24
 71
     2
 72
     6
 73
     3
 74
     0
 42
0.0000000001
 43
0.0000000001
 40
0.0
 40
0.0
 40
0.0
 40
10.70899345845929
 40
10.70899345845929
 40
10.70899345845929
 10
43.29179363349857
 20
0.3827460294363292
 30
0.0
 10
42.18683999665822
 20
5.623478572108619
 30
0.0
 10
41.08188635981787
 20
10.86421111478091
 30
0.0
  0
SPLINE
  5
87
330
1F
100
AcDbEntity
  8
Default
100
AcDbSpline
210
0.0
220
0.0
230
1.0
 70
    12
 71
     2
 72
     6
 73
     3
 74
     0
 42
0.0000000001
 43
0.0000000001
 40
0.0
 40
0.0
 40
0.0
 40
0.7441357564216832
 40
0.7441357564216832
 40
0.7441357564216832
 10
41.08188635981787
 20
10.86421111478091
 30
0.0
 41
1.0
 10
41.00400970887483
 20
11.23769618604829
 30
0.0
 41
0.9742761547969873
 10
40.77182747775763
 20
11.53675802696186
 30
0.0
 41
1.0
  0
SPLINE
  5
88
330
1F
100
AcDbEntity
  8
Default
100
AcDbSpline
210
0.0
220
0.0
230
1.0
 70
     8
 71
     3
 72
     8
 73
     4
 74
     0
 42
0.0000000001
 43
0.0000000001
 40
0.0
 40
0.0
 40
0.0
 40
0.0
 40
1.0
 40
1.0
 40
1.0
 40
1.0
 10
40.77182747775763
 20
11.53675802696186
 30
0.0
 10
40.63876442006396
 20
11.70814962226171
 30
0.0
 10
40.46063105574426
 20
11.85195149850079
 30
0.0
 10
40.26433268412374
 20
11.94440584161862
 30
0.0
  0
SPLINE
  5
89
330
1F
100
AcDbEntity
  8
Default
100
AcDbSpline
210
0.0
220
0.0
230
1.0
 70
    12
 71
     2
 72
     6
 73
     3
 74
     0
 42
0.0000000001
 43
0.0000000001
 40
0.0
 40
0.0
 40
0.0
 40
0.7311920014828095
 40
0.7311920014828095
 40
0.7311920014828095
 10
40.26433268412374
 20
11.94440584161862
 30
0.0
 41
1.0
 10
39.92388276255018
 20
12.10475395660173
 30
0.0
 41
0.9577928888427971
 10
39.55140136315063
 20
12.05113237345241
 30
0.0
 41
1.0
  0
SPLINE
  5
8A
330
1F
100
AcDbEntity
  8
Default
100
AcDbSpline
210
0.0
220
0.0
230
1.0
 70
     8
 71
     3
 72
     8
 73
     4
 74
     0
 42
0.0000000001
 43
0.0000000001
 40
0.0
 40
0.0
 40
0.0
 40
0.0
 40
1.0
 40
1.0
 40
1.0
 40
1.0
 10
39.55140136315063
 20
12.05113237345241
 30
0.0
 10
39.43978833921643
 20
12.03506481396331
 30
0.0
 10
39.32782947758539
 20
12.02146449791587
 30
0.0
 10
39.21621505752057
 20
12.00540663961323
 30
0.0
  0
SPLINE
  5
8B
330
1F
100
AcDbEntity
  8
Default
100
AcDbSpline
210
0.0
220
0.0
230
1.0
 70
     8
 71
     3
 72
    12
 73
     8
 74
     0
 42
0.0000000001
 43
0.0000000001
 40
0.0
 40
0.0
 40
0.0
 40
0.0
 40
0.1921023075555342
 40
0.372816422853232
 40
0.6893916895242499
 40
0.9282225167547821
 40
1.14192952017723
 40
1.14192952017723
 40
1.14192952017723
 40
1.14192952017723
 10
39.21621505752057
 20
12.00540663961323
 30
0.0
 10
39.15292962137189
 20
11.99630182532752
 30
0.0
 10
39.03005652298918
 20
11.97542820619877
 30
0.0
 10
38.80912667653349
 20
11.91212027468575
 30
0.0
 10
38.58191560201108
 20
11.81532478321378
 30
0.0
 10
38.38806641983195
 20
11.63866947703025
 30
0.0
 10
38.34140140264611
 20
11.4878599081092
 30
0.0
 10
38.34194931955988
 20
11.41693134160572
 30
0.0
  0
SPLINE
  5
8C
330
1F
100
AcDbEntity
  8
Default
100
AcDbSpline
210
0.0
220
0.0
230
1.0
 70
    12
 71
     2
 72
     6
 73
     3
 74
     0
 42
0.0000000001
 43
0.0000000001
 40
0.0
 40
0.0
 40
0.0
 40
0.1562640355086327
 40
0.1562640355086327
 40
0.1562640355086327
 10
38.34194931955988
 20
11.41693134160572
 30
0.0
 41
1.0
 10
38.34194968248358
 20
11.28732918211752
 30
0.0
 41
0.9999999999998554
 10
38.34194945396511
 20
11.20902361384044
 30
0.0
 41
1.0
  0
SPLINE
  5
8D
330
1F
100
AcDbEntity
  8
Default
100
AcDbSpline
210
0.0
220
0.0
230
1.0
 70
    12
 71
     2
 72
     6
 73
     3
 74
     0
 42
0.0000000001
 43
0.0000000001
 40
0.0
 40
0.0
 40
0.0
 40
0.4908738521233666
 40
0.4908738521233666
 40
0.4908738521233666
 10
38.34194945396511
 20
11.20902361384044
 30
0.0
 41
1.0
 10
38.34194931817582
 20
10.89635006331767
 30
0.0
 41
0.7071067811866039
 10
38.65444931817578
 20
10.89635006331767
 30
0.0
 41
1.0
  0
SPLINE
  5
8E
330
1F
100
AcDbEntity
  8
Default
100
AcDbSpline
210
0.0
220
0.0
230
1.0
 70
    12
 71
     2
 72
     6
 73
     3
 74
     0
 42
0.0000000001
 43
0.0000000001
 40
0.0
 40
0.0
 40
0.0
 40
0.4908738521234364
 40
0.4908738521234364
 40
0.4908738521234364
 10
38.65444931817578
 20
10.89635006331767
 30
0.0
 41
1.0
 10
38.96694931817579
 20
10.89635006331768
 30
0.0
 41
0.7071067811865375
 10
38.96694918239133
 20
11.20902361383926
 30
0.0
 41
1.0
  0
SPLINE
  5
8F
330
1F
100
AcDbEntity
  8
Default
100
AcDbSpline
210
0.0
220
0.0
230
1.0
 70
    12
 71
     2
 72
     6
 73
     3
 74
     0
 42
0.0000000001
 43
0.0000000001
 40
0.0
 40
0.0
 40
0.0
 40
0.0869328280030571
 40
0.0869328280030571
 40
0.0869328280030571
 10
38.96694918239133
 20
11.20902361383926
 30
0.0
 41
1.0
 10
38.96694821801805
 20
11.25266357835978
 30
0.0
 41
0.999999999815881
 10
38.96694905762886
 20
11.29612999235853
 30
0.0
 41
1.0
  0
ARC
  5
90
330
1F
100
AcDbEntity
  8
Default
100
AcDbCircle
 10
39.40883555626839
 20
10.35738375342237
 30
0.0
 40
1.034448667275178
100
AcDbArc
 50
95.95967767913591
 51
118.7379243994009
  0
ARC
  5
91
330
1F
100
AcDbEntity
  8
Default
100
AcDbCircle
 10
41.52932322540654
 20
-4.988971024112234
 30
0.0
 40
16.52607304946735
100
AcDbArc
 50
96.24380826290141
 51
97.74767892271223
  0
SPLINE
  5
92
330
1F
100
AcDbEntity
  8
Default
100
AcDbSpline
210
0.0
220
0.0
230
1.0
 70
     8
 71
     3
 72
     8
 73
     4
 74
     0
 42
0.0000000001
 43
0.0000000001
 40
-1.0
 40
-1.0
 40
-1.0
 40
-1.0
 40
0.0
 40
0.0
 40
0.0
 40
0.0
 10
39.7319566044887
 20
11.43907096713984
 30
0.0
 10
39.82302334945072
 20
11.44903443860878
 30
0.0
 10
39.91871716552887
 20
11.42046537509887
 30
0.0
 10
39.99993536728563
 20
11.37808582218609
 30
0.0
  0
SPLINE
  5
93
330
1F
100
AcDbEntity
  8
Default
100
AcDbSpline
210
0.0
220
0.0
230
1.0
 70
    12
 71
     2
 72
     6
 73
     3
 74
     0
 42
0.0000000001
 43
0.0000000001
 40
0.0
 40
0.0
 40
0.0
 40
0.8224495834174671
 40
0.8224495834174671
 40
0.8224495834174671
 10
39.99993536728563
 20
11.37808582218609
 30
0.0
 41
1.0
 10
40.39217829934145
 20
11.17341396619612
 30
0.0
 41
0.8974817562644566
 10
40.47017183477874
 20
10.73602372921157
 30
0.0
 41
1.0
  0
SPLINE
  5
94
330
1F
100
AcDbEntity
  8
Default
100
AcDbSpline
210
0.0
220
0.0
230
1.0
 70
    24
 71
     2
 72
     6
 73
     3
 74
     0
 42
0.0000000001
 43
0.0000000001
 40
0.0
 40
0.0
 40
0.0
 40
10.71255698384767
 40
10.71255698384767
 40
10.71255698384767
 10
40.47017183477874
 20
10.73602372921157
 30
0.0
 10
41.57538549719587
 20
5.494059981641152
 30
0.0
 10
42.68059915961299
 20
0.2520962340707317
 30
0.0
  0
SPLINE
  5
95
330
1F
100
AcDbEntity
  8
Make2D visible lines
100
AcDbSpline
210
0.0
220
0.0
230
1.0
 70
    12
 71
     2
 72
     6
 73
     3
 74
     0
 42
0.0000000001
 43
0.0000000001
 40
0.0
 40
0.0
 40
0.0
 40
0.0208053500132229
 40
0.0208053500132229
 40
0.0208053500132229
 10
43.27645098490225
 20
0.3863938877440814
 30
0.0
 41
1.0
 10
43.2889377985348
 20
0.3886763263770563
 30
0.0
 41
0.7500142205744408
 10
43.29276370755996
 20
0.3765729193799095
 30
0.0
 41
1.0
  0
SPLINE
  5
96
330
1F
100
AcDbEntity
  8
Default
100
AcDbSpline
210
0.0
220
0.0
230
1.0
 70
    15
 71
     3
 72
    75
 73
    71
 74
     0
 42
0.0000000001
 43
0.0000000001
 40
4.284889557905307
 40
4.284889557905307
 40
4.284889557905307
 40
4.284889557905307
 40
4.675638648515629
 40
4.675638648515629
 40
4.675638648515629
 40
4.945696450076055
 40
4.945696450076055
 40
4.945696450076055
 40
5.945696454513373
 40
6.945696458950692
 40
7.945696463388011
 40
8.945696467825329
 40
9.945696472262647
 40
10.94569647669997
 40
11.94569648113729
 40
12.9456964855746
 40
13.94569649001192
 40
14.94569649444924
 40
15.94569649888656
 40
16.94569650332388
 40
17.94569650776119
 40
18.94569651219851
 40
19.94569651663583
 40
20.94569652107315
 40
21.94569645007606
 40
21.94569645007606
 40
21.94569645007606
 40
22.94569637907896
 40
23.94569638351628
 40
24.9456963879536
 40
25.94569639239092
 40
26.94569639682824
 40
27.94569640126555
 40
28.94569640570287
 40
29.94569641014019
 40
30.94569641457751
 40
31.94569641901483
 40
32.94569642345215
 40
33.94569642788947
 40
34.94569643232678
 40
35.9456964367641
 40
36.94569644120142
 40
37.94569644563874
 40
38.94569645007606
 40
38.94569645007606
 40
38.94569645007606
 40
39.21575425163648
 40
39.21575425163648
 40
39.21575425163648
 40
39.6065033422468
 40
39.6065033422468
 40
39.6065033422468
 40
39.83703306378663
 40
40.1166735561765
 40
40.93450556052316
 40
42.1915997428571
 40
43.89139290015211
 40
43.89139290015211
 40
43.89139290015211
 40
44.89139290015211
 40
44.89139290015211
 40
44.89139290015211
 40
45.89139290015211
 40
45.89139290015211
 40
45.89139290015211
 40
47.59118605744712
 40
48.84828023978106
 40
49.66611224412772
 40
49.94575273651759
 40
50.17628245805742
 40
50.17628245805742
 40
50.17628245805742
 40
50.17628245805742
 10
11.66587582277404
 20
15.50120911157071
 30
0.0
 41
1.0
 10
11.75433634643018
 20
15.60060919528692
 30
0.0
 41
0.9584284795972055
 10
11.80272919027854
 20
15.72455988529135
 30
0.0
 41
0.9584284795972055
 10
11.80501906203295
 20
15.85760272566863
 30
0.0
 41
1.0
 10
11.80741125667456
 20
15.94761034588455
 30
0.0
 41
0.9995527887139662
 10
11.80650557157476
 20
16.03764519484113
 30
0.0
 41
0.9995527887139662
 10
11.80230322183134
 20
16.12758647873662
 30
0.0
 41
1.0
 10
11.78828636422133
 20
16.57550540900878
 30
0.0
 41
1.0
 10
11.64287168915603
 20
17.45895407171866
 30
0.0
 41
1.0
 10
11.37378171756114
 20
18.77309537841564
 30
0.0
 41
1.0
 10
11.08680851307306
 20
20.08378440489779
 30
0.0
 41
1.0
 10
10.75308423711167
 20
21.38343706719301
 30
0.0
 41
1.0
 10
10.37725314079816
 20
22.67150157406719
 30
0.0
 41
1.0
 10
9.955080523943034
 20
23.94518230421873
 30
0.0
 41
1.0
 10
9.484666036602695
 20
25.20190740213064
 30
0.0
 41
1.0
 10
8.964962003635621
 20
26.43889227003586
 30
0.0
 41
1.0
 10
8.398604861032114
 20
27.65583411151832
 30
0.0
 41
1.0
 10
7.781755930991918
 20
28.84588792319921
 30
0.0
 41
1.0
 10
7.172272618247313
 20
30.04632359637773
 30
0.0
 41
1.0
 10
6.291031161949897
 20
31.07234032590161
 30
0.0
 41
1.0
 10
5.193302032357755
 20
31.85770709764407
 30
0.0
 41
1.0
 10
3.966856014764327
 20
32.413768305683
 30
0.0
 41
1.0
 10
2.670846195148177
 20
32.7726831293418
 30
0.0
 41
1.0
 10
1.341704273556205
 20
32.96939552653927
 30
0.0
 41
1.0
 10
0.4471825479257645
 20
33.00967031389514
 30
0.0
 41
1.0
 10
0.0
 20
33.00971648154012
 30
0.0
 41
1.0
 10
-0.4471825479257645
 20
33.00967031389514
 30
0.0
 41
1.0
 10
-1.341704273556205
 20
32.96939552653927
 30
0.0
 41
1.0
 10
-2.670846195148177
 20
32.7726831293418
 30
0.0
 41
1.0
 10
-3.966856014764327
 20
32.413768305683
 30
0.0
 41
1.0
 10
-5.193302032357755
 20
31.85770709764407
 30
0.0
 41
1.0
 10
-6.291031161949897
 20
31.07234032590161
 30
0.0
 41
1.0
 10
-7.172272618247313
 20
30.04632359637773
 30
0.0
 41
1.0
 10
-7.781755930991918
 20
28.84588792319921
 30
0.0
 41
1.0
 10
-8.398604861032114
 20
27.65583411151832
 30
0.0
 41
1.0
 10
-8.964962003635621
 20
26.43889227003586
 30
0.0
 41
1.0
 10
-9.484666036602695
 20
25.20190740213064
 30
0.0
 41
1.0
 10
-9.955080523943034
 20
23.94518230421873
 30
0.0
 41
1.0
 10
-10.37725314079816
 20
22.67150157406719
 30
0.0
 41
1.0
 10
-10.75308423711167
 20
21.38343706719301
 30
0.0
 41
1.0
 10
-11.08680851307306
 20
20.08378440489779
 30
0.0
 41
1.0
 10
-11.37378171756114
 20
18.77309537841564
 30
0.0
 41
1.0
 10
-11.64287168915603
 20
17.45895407171866
 30
0.0
 41
1.0
 10
-11.78828636422133
 20
16.57550540900878
 30
0.0
 41
1.0
 10
-11.80230322183134
 20
16.12758647873662
 30
0.0
 41
1.0
 10
-11.80650557157476
 20
16.03764519484113
 30
0.0
 41
0.9995527887139662
 10
-11.80741125667456
 20
15.94761034588454
 30
0.0
 41
0.9995527887139662
 10
-11.80501906203294
 20
15.85760272566863
 30
0.0
 41
1.0
 10
-11.80272919027854
 20
15.72455988529135
 30
0.0
 41
0.9584284795972055
 10
-11.75433634643018
 20
15.60060919528691
 30
0.0
 41
0.9584284795972055
 10
-11.66587582277404
 20
15.50120911157071
 30
0.0
 41
1.0
 10
-11.61479771314997
 20
15.44406838338684
 30
0.0
 41
1.0
 10
-11.48099359683521
 20
15.33564231289572
 30
0.0
 41
1.0
 10
-11.07187871696787
 20
15.15972515295359
 30
0.0
 41
1.0
 10
-10.2981356961296
 20
15.01176864821474
 30
0.0
 41
1.0
 10
-9.044345901534959
 20
14.90517712991399
 30
0.0
 41
1.0
 10
-8.058309444359741
 20
14.87799475522105
 30
0.0
 41
1.0
 10
-7.49196544933581
 20
14.87056204037078
 30
0.0
 41
1.0
 10
-4.994831242527269
 20
14.83778957934862
 30
0.0
 41
1.0
 10
-2.497349250908809
 20
14.87555258202281
 30
0.0
 41
1.0
 10
-0.0000000000000039
 20
14.87555258202281
 30
0.0
 41
1.0
 10
2.497349250908809
 20
14.87555258202281
 30
0.0
 41
1.0
 10
4.994831242527269
 20
14.83778957934862
 30
0.0
 41
1.0
 10
7.49196544933581
 20
14.87056204037078
 30
0.0
 41
1.0
 10
8.058309444359741
 20
14.87799475522105
 30
0.0
 41
1.0
 10
9.044345901534959
 20
14.90517712991399
 30
0.0
 41
1.0
 10
10.2981356961296
 20
15.01176864821474
 30
0.0
 41
1.0
 10
11.07187871696787
 20
15.15972515295359
 30
0.0
 41
1.0
 10
11.48099359683521
 20
15.33564231289572
 30
0.0
 41
1.0
 10
11.61479771314997
 20
15.44406838338684
 30
0.0
 41
1.0
 10
11.66587582277404
 20
15.50120911157071
 30
0.0
 41
1.0
  0
SPLINE
  5
97
330
1F
100
AcDbEntity
  8
Default
100
AcDbSpline
210
0.0
220
0.0
230
1.0
 70
    24
 71
     2
 72
     6
 73
     3
 74
     0
 42
0.0000000001
 43
0.0000000001
 40
0.0
 40
0.0
 40
0.0
 40
0.4856498277096888
 40
0.4856498277096888
 40
0.4856498277096888
 10
-9.624993309876375
 20
15.28325440332804
 30
0.0
 10
-9.623210319527969
 20
15.55021025539533
 30
0.0
 10
-9.621427329179562
 20
15.81716610746263
 30
0.0
  0
SPLINE
  5
98
330
1F
100
AcDbEntity
  8
Default
100
AcDbSpline
210
0.0
220
0.0
230
1.0
 70
     8
 71
     3
 72
    12
 73
     8
 74
     0
 42
0.0000000001
 43
0.0000000001
 40
-1.720214381111756
 40
-1.720214381111756
 40
-1.720214381111756
 40
-1.720214381111756
 40
-1.482822203410309
 40
-1.179337141630985
 40
-0.6967675392865215
 40
-0.3758833544094314
 40
0.0
 40
0.0
 40
0.0
 40
0.0
 10
-9.621427329179562
 20
15.81716610746263
 30
0.0
 10
-9.611323934152997
 20
15.89633142151539
 30
0.0
 10
-9.512790473526826
 20
16.05864077292025
 30
0.0
 10
-9.204224857354143
 20
16.21735399726427
 30
0.0
 10
-8.848528353069655
 20
16.31342507885909
 30
0.0
 10
-8.463064248171577
 20
16.39452516804376
 30
0.0
 10
-8.234295257469666
 20
16.43175324292472
 30
0.0
 10
-8.110341141780179
 20
16.45135623698594
 30
0.0
  0
SPLINE
  5
99
330
1F
100
AcDbEntity
  8
Default
100
AcDbSpline
210
0.0
220
0.0
230
1.0
 70
    12
 71
     3
 72
    12
 73
     8
 74
     0
 42
0.0000000001
 43
0.0000000001
 40
-0.6640119920747329
 40
-0.6640119920747329
 40
-0.6640119920747329
 40
-0.6640119920747329
 40
-0.5000000008353003
 40
-0.5000000008353003
 40
-0.2500000004176502
 40
-0.2500000004176502
 40
-0.000000020861917
 40
-0.000000020861917
 40
-0.000000020861917
 40
-0.000000020861917
 10
-8.110341141780179
 20
16.45135623698594
 30
0.0
 41
1.0
 10
-7.696178675953282
 20
16.51537834178193
 30
0.0
 41
1.0
 10
-7.19275651018704
 20
16.57438498024031
 30
0.0
 41
1.0
 10
-5.739844429351672
 20
16.70565351205596
 30
0.0
 41
1.0
 10
-4.695881372966747
 20
16.76856098593769
 30
0.0
 41
1.0
 10
-2.434270817672484
 20
16.85330586008789
 30
0.0
 41
1.0
 10
-1.216609737867254
 20
16.87519094388058
 30
0.0
 41
1.0
 10
0.0
 20
16.87518953878461
 30
0.0
 41
1.0
  0
SPLINE
  5
9A
330
1F
100
AcDbEntity
  8
Default
100
AcDbSpline
210
0.0
220
0.0
230
1.0
 70
    12
 71
     3
 72
    12
 73
     8
 74
     0
 42
0.0000000001
 43
0.0000000001
 40
0.000000020861917
 40
0.000000020861917
 40
0.000000020861917
 40
0.000000020861917
 40
0.2500000004176502
 40
0.2500000004176502
 40
0.5000000008353003
 40
0.5000000008353003
 40
0.6640119920747329
 40
0.6640119920747329
 40
0.6640119920747329
 40
0.6640119920747329
 10
0.0
 20
16.87518953878461
 30
0.0
 41
1.0
 10
1.216609737867254
 20
16.87519094388058
 30
0.0
 41
1.0
 10
2.434270817672484
 20
16.85330586008789
 30
0.0
 41
1.0
 10
4.695881372966747
 20
16.76856098593769
 30
0.0
 41
1.0
 10
5.739844429351672
 20
16.70565351205596
 30
0.0
 41
1.0
 10
7.19275651018704
 20
16.57438498024031
 30
0.0
 41
1.0
 10
7.696178675953282
 20
16.51537834178193
 30
0.0
 41
1.0
 10
8.110341141780179
 20
16.45135623698594
 30
0.0
 41
1.0
  0
SPLINE
  5
9B
330
1F
100
AcDbEntity
  8
Default
100
AcDbSpline
210
0.0
220
0.0
230
1.0
 70
     8
 71
     3
 72
    12
 73
     8
 74
     0
 42
0.0000000001
 43
0.0000000001
 40
0.0
 40
0.0
 40
0.0
 40
0.0
 40
0.3758833544094314
 40
0.6967675392865215
 40
1.179337141630985
 40
1.482822203410309
 40
1.720214381111756
 40
1.720214381111756
 40
1.720214381111756
 40
1.720214381111756
 10
8.110341141780179
 20
16.45135623698594
 30
0.0
 10
8.234295257469666
 20
16.43175324292472
 30
0.0
 10
8.463064248171577
 20
16.39452516804376
 30
0.0
 10
8.848528353069655
 20
16.31342507885909
 30
0.0
 10
9.204224857354143
 20
16.21735399726427
 30
0.0
 10
9.512790473526826
 20
16.05864077292025
 30
0.0
 10
9.611323934152997
 20
15.89633142151539
 30
0.0
 10
9.621427329179562
 20
15.81716610746263
 30
0.0
  0
SPLINE
  5
9C
330
1F
100
AcDbEntity
  8
Default
100
AcDbSpline
210
0.0
220
0.0
230
1.0
 70
    24
 71
     2
 72
     6
 73
     3
 74
     0
 42
0.0000000001
 43
0.0000000001
 40
-0.4856498277096888
 40
-0.4856498277096888
 40
-0.4856498277096888
 40
0.0
 40
0.0
 40
0.0
 10
9.621427329179562
 20
15.81716610746263
 30
0.0
 10
9.623210319527969
 20
15.55021025539533
 30
0.0
 10
9.624993309876375
 20
15.28325440332804
 30
0.0
  0
SPLINE
  5
9D
330
1F
100
AcDbEntity
  8
Default
100
AcDbSpline
210
0.0
220
0.0
230
1.0
 70
     8
 71
     3
 72
    24
 73
    20
 74
     0
 42
0.0000000001
 43
0.0000000001
 40
-17.0
 40
-17.0
 40
-17.0
 40
-17.0
 40
-15.99999503831422
 40
-14.99999007662845
 40
-13.99998511494267
 40
-12.9999801532569
 40
-11.99997519157112
 40
-10.99997022988535
 40
-9.999965268199569
 40
-8.999960306513794
 40
-7.999955344828018
 40
-6.999950383142242
 40
-5.999945421456466
 40
-4.99994045977069
 40
-3.999935498084914
 40
-2.999930536399139
 40
-1.999925574713363
 40
-0.9999206130275872
 40
0.0
 40
0.0
 40
0.0
 40
0.0
 10
-10.77000079585685
 20
18.7220507581302
 30
0.0
 10
-10.79220483068231
 20
18.57981136393505
 30
0.0
 10
-10.84277508271578
 20
18.29630171690821
 30
0.0
 10
-10.93355952296308
 20
17.87404220015824
 30
0.0
 10
-11.03649984412718
 20
17.45444961548913
 30
0.0
 10
-11.14724148772615
 20
17.03745934444326
 30
0.0
 10
-11.26036030806843
 20
16.61891592331698
 30
0.0
 10
-11.34753290394163
 20
16.20175131971805
 30
0.0
 10
-11.38593389096562
 20
15.74804690236837
 30
0.0
 10
-11.08527146730168
 20
15.39684532892483
 30
0.0
 10
-10.6386233901275
 20
15.34509186930432
 30
0.0
 10
-10.21394584646875
 20
15.29900520077174
 30
0.0
 10
-9.78072814735198
 20
15.28548608333302
 30
0.0
 10
-9.349286093318248
 20
15.27898967765747
 30
0.0
 10
-8.917282704527004
 20
15.28156976594546
 30
0.0
 10
-8.485460841551111
 20
15.28677405888382
 30
0.0
 10
-8.053633505578937
 20
15.29442467963947
 30
0.0
 10
-7.621854781845875
 20
15.30331014392416
 30
0.0
 10
-7.334008185543743
 20
15.30943639100752
 30
0.0
 10
-7.190089762725695
 20
15.31242144537113
 30
0.0
  0
SPLINE
  5
9E
330
1F
100
AcDbEntity
  8
Default
100
AcDbSpline
210
0.0
220
0.0
230
1.0
 70
     8
 71
     3
 72
    11
 73
     7
 74
     0
 42
0.0000000001
 43
0.0000000001
 40
0.0
 40
0.0
 40
0.0
 40
0.0
 40
1.468805984317369
 40
3.119226025440186
 40
7.305246808252567
 40
14.38113980964615
 40
14.38113980964615
 40
14.38113980964615
 40
14.38113980964615
 10
-7.190089762725695
 20
15.31242144537113
 30
0.0
 10
-6.700629134352771
 20
15.32462523322345
 30
0.0
 10
-5.661131818580204
 20
15.34585820173457
 30
0.0
 10
-3.226141439707986
 20
15.37456209053093
 30
0.0
 10
1.077892075699229
 20
15.3780131511825
 30
0.0
 10
4.832029175664239
 20
15.37169599026884
 30
0.0
 10
7.19005528367714
 20
15.31242224603244
 30
0.0
  0
SPLINE
  5
9F
330
1F
100
AcDbEntity
  8
Default
100
AcDbSpline
210
0.0
220
0.0
230
1.0
 70
     8
 71
     3
 72
    24
 73
    20
 74
     0
 42
0.0000000001
 43
0.0000000001
 40
0.0
 40
0.0
 40
0.0
 40
0.0
 40
0.9999957712122703
 40
1.999996035511503
 40
2.999996299810737
 40
3.99999656410997
 40
4.999996828409203
 40
5.999997092708436
 40
6.999997357007669
 40
7.999997621306902
 40
8.999997885606135
 40
9.999998149905368
 40
10.9999984142046
 40
11.99999867850383
 40
12.99999894280307
 40
13.9999992071023
 40
14.99999947140153
 40
15.99999973570077
 40
17.0
 40
17.0
 40
17.0
 40
17.0
 10
7.19005528367714
 20
15.31242224603244
 30
0.0
 10
7.333985198540041
 20
15.30943688024088
 30
0.0
 10
7.621843288270576
 20
15.30331038044752
 30
0.0
 10
8.053633505578937
 20
15.29442467963947
 30
0.0
 10
8.485460841551111
 20
15.28677405888382
 30
0.0
 10
8.917282704527004
 20
15.28156976594546
 30
0.0
 10
9.349286093318248
 20
15.27898967765747
 30
0.0
 10
9.78072814735198
 20
15.28548608333302
 30
0.0
 10
10.21394584646875
 20
15.29900520077174
 30
0.0
 10
10.6386233901275
 20
15.34509186930432
 30
0.0
 10
11.08527146730168
 20
15.39684532892483
 30
0.0
 10
11.38593389096562
 20
15.74804690236837
 30
0.0
 10
11.34753290394163
 20
16.20175131971805
 30
0.0
 10
11.26036030806843
 20
16.61891592331698
 30
0.0
 10
11.14724148772615
 20
17.03745934444326
 30
0.0
 10
11.03649984412718
 20
17.45444961548913
 30
0.0
 10
10.93355952296308
 20
17.87404220015824
 30
0.0
 10
10.84277508271578
 20
18.29630171690821
 30
0.0
 10
10.79220483068231
 20
18.57981136393505
 30
0.0
 10
10.77000079585685
 20
18.7220507581302
 30
0.0
  0
SPLINE
  5
A0
330
1F
100
AcDbEntity
  8
Default
100
AcDbSpline
210
0.0
220
0.0
230
1.0
 70
    24
 71
     2
 72
     6
 73
     3
 74
     0
 42
0.0000000001
 43
0.0000000001
 40
0.0
 40
0.0
 40
0.0
 40
1.279662316143878
 40
1.279662316143878
 40
1.279662316143878
 10
46.24052641856929
 20
15.37545193093925
 30
0.0
 10
46.18053534314022
 20
16.01246447532794
 30
0.0
 10
46.12054426771115
 20
16.64947701971662
 30
0.0
  0
SPLINE
  5
A1
330
1F
100
AcDbEntity
  8
Default
100
AcDbSpline
210
0.0
220
0.0
230
1.0
 70
     8
 71
     3
 72
     8
 73
     4
 74
     0
 42
0.0000000001
 43
0.0000000001
 40
0.0
 40
0.0
 40
0.0
 40
0.0
 40
1.0
 40
1.0
 40
1.0
 40
1.0
 10
46.12054426771115
 20
16.64947701971662
 30
0.0
 10
46.10646316069891
 20
16.79899662311632
 30
0.0
 10
46.00704136159153
 20
16.87330211866091
 30
0.0
 10
45.85150999073344
 20
16.87855686349003
 30
0.0
  0
SPLINE
  5
A2
330
1F
100
AcDbEntity
  8
Default
100
AcDbSpline
210
0.0
220
0.0
230
1.0
 70
     8
 71
     3
 72
    10
 73
     6
 74
     0
 42
0.0000000001
 43
0.0000000001
 40
-3.0
 40
-3.0
 40
-3.0
 40
-3.0
 40
-2.0
 40
-1.0
 40
0.0
 40
0.0
 40
0.0
 40
0.0
 10
45.85150999073344
 20
16.87855686349003
 30
0.0
 10
44.54588830599791
 20
16.92266827817637
 30
0.0
 10
41.93510486926891
 20
16.80298908468772
 30
0.0
 10
38.02374994312964
 20
16.58343318323652
 30
0.0
 10
35.42406329004743
 20
16.318133929627
 30
0.0
 10
34.12817492942771
 20
16.15772103226452
 30
0.0
  0
SPLINE
  5
A3
330
1F
100
AcDbEntity
  8
Default
100
AcDbSpline
210
0.0
220
0.0
230
1.0
 70
    12
 71
     2
 72
     6
 73
     3
 74
     0
 42
0.0000000001
 43
0.0000000001
 40
0.0
 40
0.0
 40
0.0
 40
0.0278459026180733
 40
0.0278459026180733
 40
0.0278459026180733
 10
34.12109290671234
 20
16.12742166150236
 30
0.0
 41
1.0
 10
34.12457223984379
 20
16.14091718650291
 30
0.0
 41
0.9985079917047226
 10
34.12950249183167
 20
16.15395281343129
 30
0.0
 41
1.0
  0
SPLINE
  5
A4
330
1F
100
AcDbEntity
  8
Default
100
AcDbSpline
210
0.0
220
0.0
230
1.0
 70
     8
 71
     3
 72
    14
 73
    10
 74
     0
 42
0.0000000001
 43
0.0000000001
 40
0.0
 40
0.0
 40
0.0
 40
0.0
 40
1.0
 40
2.0
 40
3.0
 40
4.0
 40
5.0
 40
6.0
 40
7.0
 40
7.0
 40
7.0
 40
7.0
 10
19.68600239552509
 20
33.00794921187873
 30
0.0
 10
20.15229965865774
 20
32.22257489877263
 30
0.0
 10
21.05171822755552
 20
30.63175790113347
 30
0.0
 10
22.25692693425504
 20
28.16910139067704
 30
0.0
 10
23.67385342695501
 20
25.82088883835851
 30
0.0
 10
25.22073299404126
 20
23.55810283709751
 30
0.0
 10
26.90514301600962
 20
21.39467219794527
 30
0.0
 10
28.74935241025047
 20
19.36440228072785
 30
0.0
 10
30.10485996482013
 20
18.13610696659559
 30
0.0
 10
30.8163807317053
 20
17.5631874717851
 30
0.0
  0
SPLINE
  5
A5
330
1F
100
AcDbEntity
  8
Default
100
AcDbSpline
210
0.0
220
0.0
230
1.0
 70
     8
 71
     3
 72
    10
 73
     6
 74
     0
 42
0.0000000001
 43
0.0000000001
 40
0.0
 40
0.0
 40
0.0
 40
0.0
 40
1.0
 40
2.0
 40
3.0
 40
3.0
 40
3.0
 40
3.0
 10
30.8163807317053
 20
17.5631874717851
 30
0.0
 10
31.13237566732807
 20
17.31226663100485
 30
0.0
 10
31.83336103565649
 20
16.90708405294716
 30
0.0
 10
32.95904961523615
 20
16.46195065205688
 30
0.0
 10
33.73359864597095
 20
16.2375343127021
 30
0.0
 10
34.12109290671234
 20
16.12742166150236
 30
0.0
  0
SPLINE
  5
A6
330
1F
100
AcDbEntity
  8
Default
100
AcDbSpline
210
0.0
220
0.0
230
1.0
 70
     8
 71
     3
 72
    12
 73
     8
 74
     0
 42
0.0000000001
 43
0.0000000001
 40
0.0
 40
0.0
 40
0.0
 40
0.0
 40
1.0
 40
2.0
 40
3.0
 40
4.0
 40
5.0
 40
5.0
 40
5.0
 40
5.0
 10
34.12109290671234
 20
16.12742166150236
 30
0.0
 10
34.93274395900479
 20
15.87834871073201
 30
0.0
 10
36.59346679783329
 20
15.51856033920608
 30
0.0
 10
39.11983947812064
 20
15.19759830888284
 30
0.0
 10
41.65476632539025
 20
14.96590918533387
 30
0.0
 10
44.1984522373901
 20
14.85251519986053
 30
0.0
 10
45.89594321582756
 20
14.86371488794988
 30
0.0
 10
46.74347082689665
 20
14.90567948748004
 30
0.0
  0
SPLINE
  5
A7
330
1F
100
AcDbEntity
  8
Default
100
AcDbSpline
210
0.0
220
0.0
230
1.0
 70
     8
 71
     3
 72
    24
 73
    20
 74
     0
 42
0.0000000001
 43
0.0000000001
 40
-17.0
 40
-17.0
 40
-17.0
 40
-17.0
 40
-15.99999999439031
 40
-14.99999998878062
 40
-13.99999998317094
 40
-12.99999997756125
 40
-11.99999997195156
 40
-10.99999996634187
 40
-9.999999960732184
 40
-8.999999955122496
 40
-7.999999949512807
 40
-6.999999943903119
 40
-5.99999993829343
 40
-4.999999932683743
 40
-3.999999927074055
 40
-2.999999921464366
 40
-1.999999915854678
 40
-0.9999999102449904
 40
0.0
 40
0.0
 40
0.0
 40
0.0
 10
-7.492066427726122
 20
41.20615997139608
 30
0.0
 10
-8.008787838875966
 20
41.5980919058701
 30
0.0
 10
-8.970944231068819
 20
42.47687974634504
 30
0.0
 10
-10.13660804114786
 20
44.04557645826608
 30
0.0
 10
-10.99445697809347
 20
45.80091210894862
 30
0.0
 10
-11.5402817807703
 20
47.67413723649324
 30
0.0
 10
-11.81338227621509
 20
49.60678995530136
 30
0.0
 10
-11.80420829723795
 20
51.55384872371723
 30
0.0
 10
-11.78037407859902
 20
53.50114033818864
 30
0.0
 10
-11.5309249629178
 20
55.4325369562256
 30
0.0
 10
-11.14500113781196
 20
57.34116928822123
 30
0.0
 10
-10.59235023483119
 20
59.20867971746861
 30
0.0
 10
-9.81577183963642
 20
61.00038901138469
 30
0.0
 10
-8.755199259310285
 20
62.63329574896704
 30
0.0
 10
-7.463485215504122
 20
64.11470239674063
 30
0.0
 10
-5.769111681793586
 20
65.11125482975713
 30
0.0
 10
-3.874707628334563
 20
65.60514960120747
 30
0.0
 10
-1.946783870830548
 20
65.87110516834983
 30
0.0
 10
-0.6483690366232893
 20
65.91704444047001
 30
0.0
 10
0.0
 20
65.9170920287374
 30
0.0
  0
SPLINE
  5
A8
330
1F
100
AcDbEntity
  8
Default
100
AcDbSpline
210
0.0
220
0.0
230
1.0
 70
     8
 71
     3
 72
    24
 73
    20
 74
     0
 42
0.0000000001
 43
0.0000000001
 40
0.0
 40
0.0
 40
0.0
 40
0.0
 40
0.9999999102449904
 40
1.999999915854678
 40
2.999999921464366
 40
3.999999927074055
 40
4.999999932683743
 40
5.99999993829343
 40
6.999999943903119
 40
7.999999949512807
 40
8.999999955122496
 40
9.999999960732184
 40
10.99999996634187
 40
11.99999997195156
 40
12.99999997756125
 40
13.99999998317094
 40
14.99999998878062
 40
15.99999999439031
 40
17.0
 40
17.0
 40
17.0
 40
17.0
 10
0.0
 20
65.9170920287374
 30
0.0
 10
0.6483690366232893
 20
65.91704444047001
 30
0.0
 10
1.946783870830548
 20
65.87110516834983
 30
0.0
 10
3.874707628334563
 20
65.60514960120747
 30
0.0
 10
5.769111681793586
 20
65.11125482975713
 30
0.0
 10
7.463485215504122
 20
64.11470239674063
 30
0.0
 10
8.755199259310285
 20
62.63329574896704
 30
0.0
 10
9.81577183963642
 20
61.00038901138469
 30
0.0
 10
10.59235023483119
 20
59.20867971746861
 30
0.0
 10
11.14500113781196
 20
57.34116928822123
 30
0.0
 10
11.5309249629178
 20
55.4325369562256
 30
0.0
 10
11.78037407859902
 20
53.50114033818864
 30
0.0
 10
11.80420829723795
 20
51.55384872371723
 30
0.0
 10
11.81338227621509
 20
49.60678995530136
 30
0.0
 10
11.5402817807703
 20
47.67413723649324
 30
0.0
 10
10.99445697809347
 20
45.80091210894862
 30
0.0
 10
10.13660804114786
 20
44.04557645826608
 30
0.0
 10
8.970944231068819
 20
42.47687974634504
 30
0.0
 10
8.008787838875966
 20
41.5980919058701
 30
0.0
 10
7.491834978137192
 20
41.20596615907152
 30
0.0
  0
SPLINE
  5
A9
330
1F
100
AcDbEntity
  8
Default
100
AcDbSpline
210
0.0
220
0.0
230
1.0
 70
     8
 71
     3
 72
    12
 73
     8
 74
     0
 42
0.0000000001
 43
0.0000000001
 40
0.0
 40
0.0
 40
0.0
 40
0.0
 40
1.932841302156171
 40
3.834618248229879
 40
8.02201959796539
 40
12.14534094516417
 40
15.98237434364643
 40
15.98237434364643
 40
15.98237434364643
 40
15.98237434364643
 10
7.491834978137192
 20
41.20596615907152
 30
0.0
 10
6.976739281750428
 20
40.81631640948952
 30
0.0
 10
5.891238774838714
 20
40.13883331945541
 30
0.0
 10
3.397113783820577
 20
39.13071396761737
 30
0.0
 10
-0.0092203384763607
 20
38.67068386448758
 30
0.0
 10
-4.063226015699296
 20
39.22630331998374
 30
0.0
 10
-6.474346960809259
 20
40.4320519474268
 30
0.0
 10
-7.492066427726122
 20
41.20615997139608
 30
0.0
  0
SPLINE
  5
AA
330
1F
100
AcDbEntity
  8
Default
100
AcDbSpline
210
0.0
220
0.0
230
1.0
 70
    12
 71
     2
 72
     6
 73
     3
 74
     0
 42
0.0000000001
 43
0.0000000001
 40
0.0
 40
0.0
 40
0.0
 40
0.584707951152618
 40
0.584707951152618
 40
0.584707951152618
 10
9.4631044537989
 20
43.15302505458069
 30
0.0
 41
1.0
 10
9.643024492224626
 20
43.38354614279516
 30
0.0
 41
0.9996461359736499
 10
9.810430153527337
 20
43.62330964481852
 30
0.0
 41
1.0
  0
SPLINE
  5
AB
330
1F
100
AcDbEntity
  8
Default
100
AcDbSpline
210
0.0
220
0.0
230
1.0
 70
     8
 71
     3
 72
    12
 73
     8
 74
     0
 42
0.0000000001
 43
0.0000000001
 40
0.0
 40
0.0
 40
0.0
 40
0.0
 40
1.832654236483523
 40
3.669578742657731
 40
7.371880427553499
 40
11.11625269817009
 40
14.89017125028417
 40
14.89017125028417
 40
14.89017125028417
 40
14.89017125028417
 10
-9.624980990171995
 20
48.81805340272961
 30
0.0
 10
-9.62502418278978
 20
48.20498190099975
 30
0.0
 10
-9.49944621198297
 20
46.98253375827135
 30
0.0
 10
-8.763869827142013
 20
44.62391800680235
 30
0.0
 10
-6.967179258847953
 20
42.02896647447341
 30
0.0
 10
-3.764029543155733
 20
39.96358544332251
 30
0.0
 10
-1.25797427814617
 20
39.48277038433466
 30
0.0
 10
-0.0000005814717703
 20
39.48255015656465
 30
0.0
  0
SPLINE
  5
AC
330
1F
100
AcDbEntity
  8
Default
100
AcDbSpline
210
0.0
220
0.0
230
1.0
 70
     8
 71
     3
 72
    12
 73
     8
 74
     0
 42
0.0000000001
 43
0.0000000001
 40
0.0
 40
0.0
 40
0.0
 40
0.0
 40
1.88935509858243
 40
3.77451955929682
 40
7.516682166840943
 40
11.21816918271822
 40
14.89017237659326
 40
14.89017237659326
 40
14.89017237659326
 40
14.89017237659326
 10
-0.0000005814717703
 20
39.48255015656465
 30
0.0
 10
0.6297326916292256
 20
39.48261792455734
 30
0.0
 10
1.887980909715477
 20
39.60363134936301
 30
0.0
 10
4.303047773193624
 20
40.31133168669716
 30
0.0
 10
6.966156210691965
 20
42.02820565424422
 30
0.0
 10
9.118162076826243
 20
45.13502828404761
 30
0.0
 10
9.625315071949734
 20
47.59222372740859
 30
0.0
 10
9.62498701095819
 20
48.81639002128781
 30
0.0
  0
SPLINE
  5
AD
330
1F
100
AcDbEntity
  8
Default
100
AcDbSpline
210
0.0
220
0.0
230
1.0
 70
     8
 71
     3
 72
    12
 73
     8
 74
     0
 42
0.0000000001
 43
0.0000000001
 40
-15.35241690788854
 40
-15.35241690788854
 40
-15.35241690788854
 40
-15.35241690788854
 40
-11.42846766997576
 40
-7.624449320975276
 40
-3.868777776849769
 40
-1.918305221211262
 40
0.0
 40
0.0
 40
0.0
 40
0.0
 10
9.62498701095819
 20
48.81639002128781
 30
0.0
 10
9.625008104502973
 20
50.12377304533464
 30
0.0
 10
9.15954152232864
 20
52.70557907940275
 30
0.0
 10
7.055061779093675
 20
55.9952741964395
 30
0.0
 10
4.375153949274265
 20
57.80998055800563
 30
0.0
 10
1.929225369751245
 20
58.5440655802784
 30
0.0
 10
0.6393730720011721
 20
58.66887584711144
 30
0.0
 10
-0.0000000469943897
 20
58.66834516126203
 30
0.0
  0
SPLINE
  5
AE
330
1F
100
AcDbEntity
  8
Default
100
AcDbSpline
210
0.0
220
0.0
230
1.0
 70
     8
 71
     3
 72
    12
 73
     8
 74
     0
 42
0.0000000001
 43
0.0000000001
 40
-15.34910739099933
 40
-15.34910739099933
 40
-15.34910739099933
 40
-15.34910739099933
 40
-11.58400586625319
 40
-7.773657509622682
 40
-3.936637318219009
 40
-1.971105179282632
 40
0.0
 40
0.0
 40
0.0
 40
0.0
 10
-0.0000000469943897
 20
58.66834516126203
 30
0.0
 10
-1.254420347894149
 20
58.66804147018571
 30
0.0
 10
-3.783412189800023
 20
58.19296176283212
 30
0.0
 10
-7.019266667085994
 20
56.04093920895674
 30
0.0
 10
-8.791082307449651
 20
53.29197359743527
 30
0.0
 10
-9.505187217210235
 20
50.78971243568019
 30
0.0
 10
-9.625224841600971
 20
49.47689812697438
 30
0.0
 10
-9.624980990171995
 20
48.81805340272961
 30
0.0
  0
SPLINE
  5
AF
330
1F
100
AcDbEntity
  8
Default
100
AcDbSpline
210
0.0
220
0.0
230
1.0
 70
     8
 71
     3
 72
    24
 73
    20
 74
     0
 42
0.0000000001
 43
0.0000000001
 40
-17.0
 40
-17.0
 40
-17.0
 40
-17.0
 40
-16.0
 40
-15.0
 40
-14.0
 40
-13.0
 40
-12.0
 40
-11.0
 40
-10.0
 40
-9.0
 40
-8.0
 40
-7.0
 40
-6.0
 40
-5.0
 40
-4.0
 40
-3.0
 40
-2.0
 40
-1.0
 40
0.0
 40
0.0
 40
0.0
 40
0.0
 10
8.870175152358163
 20
42.4495859278767
 30
0.0
 10
9.295094494604816
 20
42.90541209648147
 30
0.0
 10
10.06280023108082
 20
43.89240035113833
 30
0.0
 10
10.95879633584163
 20
45.53999568201098
 30
0.0
 10
11.58937157870377
 20
47.30407559118509
 30
0.0
 10
11.98843268469422
 20
49.13516065155743
 30
0.0
 10
12.12159802741233
 20
51.00302669413588
 30
0.0
 10
12.0756613300591
 20
52.87240069093249
 30
0.0
 10
11.94573056226142
 20
54.73894086093993
 30
0.0
 10
11.58264786222494
 20
56.57557555583876
 30
0.0
 10
11.11593144705227
 20
58.38663873804791
 30
0.0
 10
10.46381493567852
 20
60.14077374709824
 30
0.0
 10
9.613028899891802
 20
61.81276726707454
 30
0.0
 10
8.50039539231559
 20
63.31471617887785
 30
0.0
 10
7.216824673342535
 20
64.6991764464368
 30
0.0
 10
5.547391472741262
 20
65.58586409774992
 30
0.0
 10
3.727768302860393
 20
66.0455456488076
 30
0.0
 10
1.869620599532348
 20
66.26599222201426
 30
0.0
 10
0.62300179376192
 20
66.30322310878198
 30
0.0
 10
0.0
 20
66.30347953771013
 30
0.0
  0
SPLINE
  5
B0
330
1F
100
AcDbEntity
  8
Default
100
AcDbSpline
210
0.0
220
0.0
230
1.0
 70
     8
 71
     3
 72
    24
 73
    20
 74
     0
 42
0.0000000001
 43
0.0000000001
 40
0.0
 40
0.0
 40
0.0
 40
0.0
 40
1.0
 40
2.0
 40
3.0
 40
4.0
 40
5.0
 40
6.0
 40
7.0
 40
8.0
 40
9.0
 40
10.0
 40
11.0
 40
12.0
 40
13.0
 40
14.0
 40
15.0
 40
16.0
 40
17.0
 40
17.0
 40
17.0
 40
17.0
 10
0.0
 20
66.30347953771013
 30
0.0
 10
-0.62300179376192
 20
66.30322310878198
 30
0.0
 10
-1.869620599532348
 20
66.26599222201426
 30
0.0
 10
-3.727768302860393
 20
66.0455456488076
 30
0.0
 10
-5.547391472741262
 20
65.58586409774992
 30
0.0
 10
-7.216824673342535
 20
64.6991764464368
 30
0.0
 10
-8.50039539231559
 20
63.31471617887785
 30
0.0
 10
-9.613028899891802
 20
61.81276726707454
 30
0.0
 10
-10.46381493567852
 20
60.14077374709824
 30
0.0
 10
-11.11593144705227
 20
58.38663873804791
 30
0.0
 10
-11.58264786222494
 20
56.57557555583876
 30
0.0
 10
-11.94573056226142
 20
54.73894086093993
 30
0.0
 10
-12.0756613300591
 20
52.87240069093249
 30
0.0
 10
-12.12159802741233
 20
51.00302669413588
 30
0.0
 10
-11.98843268469422
 20
49.13516065155743
 30
0.0
 10
-11.58937157870377
 20
47.30407559118509
 30
0.0
 10
-10.95879633584163
 20
45.53999568201098
 30
0.0
 10
-10.06280023108082
 20
43.89240035113833
 30
0.0
 10
-9.295094494604816
 20
42.90541209648147
 30
0.0
 10
-8.870175152358163
 20
42.4495859278767
 30
0.0
  0
SPLINE
  5
B1
330
1F
100
AcDbEntity
  8
Default
100
AcDbSpline
210
0.0
220
0.0
230
1.0
 70
     8
 71
     3
 72
    11
 73
     7
 74
     0
 42
0.0000000001
 43
0.0000000001
 40
-4.376489242092979
 40
-4.376489242092979
 40
-4.376489242092979
 40
-4.376489242092979
 40
-2.254729024945146
 40
-1.152264979760032
 40
-0.5805792687200015
 40
0.0
 40
0.0
 40
0.0
 40
0.0
 10
4.333208217745751
 20
65.88376304700358
 30
0.0
 10
3.648821360543321
 20
66.06237492534503
 30
0.0
 10
2.589879827030044
 20
66.25957031491178
 30
0.0
 10
1.328620282926259
 20
66.36810313649384
 30
0.0
 10
0.5776243337471616
 20
66.39926396931594
 30
0.0
 10
0.1935250271774613
 20
66.40430994228268
 30
0.0
 10
0.0
 20
66.4043111476682
 30
0.0
  0
SPLINE
  5
B2
330
1F
100
AcDbEntity
  8
Default
100
AcDbSpline
210
0.0
220
0.0
230
1.0
 70
     8
 71
     3
 72
    11
 73
     7
 74
     0
 42
0.0000000001
 43
0.0000000001
 40
0.0
 40
0.0
 40
0.0
 40
0.0
 40
0.5805792687200015
 40
1.152264979760032
 40
2.254729024945146
 40
4.376489242092979
 40
4.376489242092979
 40
4.376489242092979
 40
4.376489242092979
 10
0.0
 20
66.4043111476682
 30
0.0
 10
-0.1935250271774613
 20
66.40430994228268
 30
0.0
 10
-0.5776243337471616
 20
66.39926396931594
 30
0.0
 10
-1.328620282926259
 20
66.36810313649384
 30
0.0
 10
-2.589879827030044
 20
66.25957031491178
 30
0.0
 10
-3.648821360543321
 20
66.06237492534503
 30
0.0
 10
-4.333208217745751
 20
65.88376304700358
 30
0.0
  0
SPLINE
  5
B3
330
1F
100
AcDbEntity
  8
Default
100
AcDbSpline
210
0.0
220
0.0
230
1.0
 70
     8
 71
     3
 72
    10
 73
     6
 74
     0
 42
0.0000000001
 43
0.0000000001
 40
0.0
 40
0.0
 40
0.0
 40
0.0
 40
1.13000657183866
 40
2.287921106073678
 40
8.404575460652145
 40
8.404575460652145
 40
8.404575460652145
 40
8.404575460652145
 10
11.18620468396877
 20
48.74503062796697
 30
0.0
 10
11.12322790899783
 20
48.37371207800068
 30
0.0
 10
10.96249005938277
 20
47.62735762061442
 30
0.0
 10
10.54435860173578
 20
46.22901819314061
 30
0.0
 10
9.824186564915292
 20
44.61858235807157
 30
0.0
 10
8.245557655002846
 20
42.95108214354737
 30
0.0
  0
ARC
  5
B4
330
1F
100
AcDbEntity
  8
Default
100
AcDbCircle
 10
2.038901308439048
 20
48.82694773998623
 30
0.0
 40
8.546834473169264
100
AcDbArc
 50
289.2352185728923
 51
316.568230607434
  0
SPLINE
  5
B5
330
1F
100
AcDbEntity
  8
Default
100
AcDbSpline
210
0.0
220
0.0
230
1.0
 70
     8
 71
     3
 72
    10
 73
     6
 74
     0
 42
0.0000000001
 43
0.0000000001
 40
0.0
 40
0.0
 40
0.0
 40
0.0
 40
1.13000657183866
 40
2.287921106073678
 40
8.404575460652145
 40
8.404575460652145
 40
8.404575460652145
 40
8.404575460652145
 10
-11.18620468396877
 20
48.74503062796697
 30
0.0
 10
-11.12322790899783
 20
48.37371207800068
 30
0.0
 10
-10.96249005938277
 20
47.62735762061442
 30
0.0
 10
-10.54435860173578
 20
46.22901819314061
 30
0.0
 10
-9.824186564915292
 20
44.61858235807157
 30
0.0
 10
-8.245557655002846
 20
42.95108214354737
 30
0.0
  0
ARC
  5
B6
330
1F
100
AcDbEntity
  8
Default
100
AcDbCircle
 10
-2.038901308439048
 20
48.82694773998623
 30
0.0
 40
8.546834473169264
100
AcDbArc
 50
223.431769392566
 51
250.7647814271077
  0
POLYLINE
  5
B7
330
1F
100
AcDbEntity
  8
Make2D visible lines
100
AcDb2dPolyline
 66
     1
 10
0.0
 20
0.0
 30
0.0
  0
VERTEX
  5
B8
330
B7
100
AcDbEntity
  8
Make2D visible lines
100
AcDbVertex
100
AcDb2dVertex
 10
9.162650446524996
 20
42.77674250721121
 30
0.0
  0
VERTEX
  5
B9
330
B7
100
AcDbEntity
  8
Make2D visible lines
100
AcDbVertex
100
AcDb2dVertex
 10
9.167266071652886
 20
42.76890673059793
 30
0.0
  0
SEQEND
  5
BA
330
B7
100
AcDbEntity
  8
Make2D visible lines
  0
SPLINE
  5
BB
330
1F
100
AcDbEntity
  8
Make2D visible lines
100
AcDbSpline
210
0.0
220
0.0
230
1.0
 70
    12
 71
     2
 72
     8
 73
     5
 74
     0
 42
0.0000000001
 43
0.0000000001
 40
0.0
 40
0.0
 40
0.0
 40
0.0657021758075414
 40
0.0657021758075414
 40
0.5513779496561004
 40
0.5513779496561004
 40
0.5513779496561004
 10
9.167266071652886
 20
42.76890673059793
 30
0.0
 41
1.0
 10
9.184011046407068
 20
42.7404694836537
 30
0.0
 41
0.9938146782922428
 10
9.194061912369504
 20
42.70905059758789
 30
0.0
 41
1.0
 10
9.283099963474898
 20
42.41498708845738
 30
0.0
 41
0.713273625154114
 10
8.990641397334992
 20
42.32081114121931
 30
0.0
 41
1.0
  0
SPLINE
  5
BC
330
1F
100
AcDbEntity
  8
Make2D visible lines
100
AcDbSpline
210
0.0
220
0.0
230
1.0
 70
    12
 71
     2
 72
     6
 73
     3
 74
     0
 42
0.0000000001
 43
0.0000000001
 40
0.0
 40
0.0
 40
0.0
 40
0.2409856468466241
 40
0.2409856468466241
 40
0.2409856468466241
 10
8.990641397334992
 20
42.32081114121931
 30
0.0
 41
1.0
 10
8.869790129568946
 20
42.2789283908451
 30
0.0
 41
0.8709777826878489
 10
8.75511162935224
 20
42.33556791170906
 30
0.0
 41
0.8913391083513609
  0
POLYLINE
  5
BD
330
1F
100
AcDbEntity
  8
Make2D visible lines
100
AcDb2dPolyline
 66
     1
 10
0.0
 20
0.0
 30
0.0
  0
VERTEX
  5
BE
330
BD
100
AcDbEntity
  8
Make2D visible lines
100
AcDbVertex
100
AcDb2dVertex
 10
-9.157507371654438
 20
42.78547371580689
 30
0.0
  0
VERTEX
  5
BF
330
BD
100
AcDbEntity
  8
Make2D visible lines
100
AcDbVertex
100
AcDb2dVertex
 10
-9.162650446524996
 20
42.77674250721121
 30
0.0
  0
SEQEND
  5
C0
330
BD
100
AcDbEntity
  8
Make2D visible lines
  0
POLYLINE
  5
C1
330
1F
100
AcDbEntity
  8
Make2D visible lines
100
AcDb2dPolyline
 66
     1
 10
0.0
 20
0.0
 30
0.0
  0
VERTEX
  5
C2
330
C1
100
AcDbEntity
  8
Make2D visible lines
100
AcDbVertex
100
AcDb2dVertex
 10
-9.162650446524996
 20
42.77674250721121
 30
0.0
  0
VERTEX
  5
C3
330
C1
100
AcDbEntity
  8
Make2D visible lines
100
AcDbVertex
100
AcDb2dVertex
 10
-9.167266071652886
 20
42.76890673059793
 30
0.0
  0
SEQEND
  5
C4
330
C1
100
AcDbEntity
  8
Make2D visible lines
  0
SPLINE
  5
C5
330
1F
100
AcDbEntity
  8
Make2D visible lines
100
AcDbSpline
210
0.0
220
0.0
230
1.0
 70
    12
 71
     2
 72
     8
 73
     5
 74
     0
 42
0.0000000001
 43
0.0000000001
 40
0.0
 40
0.0
 40
0.0
 40
0.0657021758075414
 40
0.0657021758075414
 40
0.5513779496561004
 40
0.5513779496561004
 40
0.5513779496561004
 10
-9.167266071652886
 20
42.76890673059793
 30
0.0
 41
1.0
 10
-9.184011046407068
 20
42.7404694836537
 30
0.0
 41
0.9938146782922428
 10
-9.194061912369504
 20
42.70905059758789
 30
0.0
 41
1.0
 10
-9.283099963474898
 20
42.41498708845738
 30
0.0
 41
0.713273625154114
 10
-8.990641397334992
 20
42.32081114121931
 30
0.0
 41
1.0
  0
SPLINE
  5
C6
330
1F
100
AcDbEntity
  8
Make2D visible lines
100
AcDbSpline
210
0.0
220
0.0
230
1.0
 70
    12
 71
     2
 72
     6
 73
     3
 74
     0
 42
0.0000000001
 43
0.0000000001
 40
0.0
 40
0.0
 40
0.0
 40
0.2409855735434258
 40
0.2409855735434258
 40
0.2409855735434258
 10
-8.990641397334992
 20
42.32081114121931
 30
0.0
 41
1.0
 10
-8.869790171775106
 20
42.27892840547225
 30
0.0
 41
0.8709778219339256
 10
-8.755111697524534
 20
42.33556787803889
 30
0.0
 41
0.8913390959643274
  0
SPLINE
  5
C7
330
1F
100
AcDbEntity
  8
Default
100
AcDbSpline
210
0.0
220
0.0
230
1.0
 70
     8
 71
     3
 72
    17
 73
    13
 74
     0
 42
0.0000000001
 43
0.0000000001
 40
-74.38274473681527
 40
-74.38274473681527
 40
-74.38274473681527
 40
-74.38274473681527
 40
-74.0
 40
-73.0
 40
-72.0
 40
-71.0
 40
-70.0
 40
-69.0
 40
-68.0
 40
-67.0
 40
-66.0
 40
-65.55208884286856
 40
-65.55208884286856
 40
-65.55208884286856
 40
-65.55208884286856
 10
38.36015925364354
 20
11.5320528396041
 30
0.0
 10
38.26310919817791
 20
11.51752019628763
 30
0.0
 10
37.91226989513411
 20
11.46652511698956
 30
0.0
 10
37.30640702124553
 20
11.38786214033355
 30
0.0
 10
36.54164681291032
 20
11.30520245119702
 30
0.0
 10
35.77534467745756
 20
11.23837526699202
 30
0.0
 10
35.00792637468608
 20
11.18607668661164
 30
0.0
 10
34.23981959837273
 20
11.14533293156296
 30
0.0
 10
33.47129264612883
 20
11.11352725761453
 30
0.0
 10
32.70260193370978
 20
11.0866151761358
 30
0.0
 10
32.07494736773251
 20
11.07679277918175
 30
0.0
 10
31.70380170251094
 20
11.07821216686231
 30
0.0
 10
31.5889795510227
 20
11.07922012991646
 30
0.0
  0
SPLINE
  5
C8
330
1F
100
AcDbEntity
  8
Default
100
AcDbSpline
210
0.0
220
0.0
230
1.0
 70
     8
 71
     3
 72
    79
 73
    75
 74
     0
 42
0.0000000001
 43
0.0000000001
 40
-59.67587248160121
 40
-59.67587248160121
 40
-59.67587248160121
 40
-59.67587248160121
 40
-59.0
 40
-58.0
 40
-57.0
 40
-56.0
 40
-55.0
 40
-54.0
 40
-53.0
 40
-52.0
 40
-51.0
 40
-50.0
 40
-49.0
 40
-48.0
 40
-47.0
 40
-46.0
 40
-45.0
 40
-44.0
 40
-43.0
 40
-42.0
 40
-41.0
 40
-40.0
 40
-39.0
 40
-38.0
 40
-37.0
 40
-36.0
 40
-35.0
 40
-34.0
 40
-33.0
 40
-32.0
 40
-32.0
 40
-32.0
 40
-31.0
 40
-30.0
 40
-29.0
 40
-28.0
 40
-27.0
 40
-27.0
 40
-27.0
 40
-26.0
 40
-25.0
 40
-24.0
 40
-23.0
 40
-22.0
 40
-21.0
 40
-20.0
 40
-19.0
 40
-18.0
 40
-17.0
 40
-16.0
 40
-15.0
 40
-14.0
 40
-13.0
 40
-12.0
 40
-11.0
 40
-10.0
 40
-10.0
 40
-10.0
 40
-9.0
 40
-8.0
 40
-7.0
 40
-6.0
 40
-5.0
 40
-5.0
 40
-5.0
 40
-4.0
 40
-3.0
 40
-2.0
 40
-1.0
 40
0.0
 40
0.0
 40
0.0
 40
1.0
 40
1.975888172852621
 40
1.975888172852621
 40
1.975888172852621
 40
1.975888172852621
 10
27.34745821591616
 20
12.34460450194144
 30
0.0
 10
27.20929874315761
 20
12.44920484253034
 30
0.0
 10
26.87715101004591
 20
12.72234151844498
 30
0.0
 10
26.3911897951577
 20
13.20799120246343
 30
0.0
 10
25.90271968810786
 20
13.80338405002156
 30
0.0
 10
25.47457276221023
 20
14.44319269990249
 30
0.0
 10
25.08538692324731
 20
15.10674108535875
 30
0.0
 10
24.70670221476787
 20
15.7762522012112
 30
0.0
 10
24.34323145945979
 20
16.45419378125372
 30
0.0
 10
23.99489206437437
 20
17.14000886826605
 30
0.0
 10
23.65996141131544
 20
17.83247059153385
 30
0.0
 10
23.33875170852318
 20
18.53139981094886
 30
0.0
 10
23.03032612857363
 20
19.23605995662347
 30
0.0
 10
22.73485530206847
 20
19.94624924860441
 30
0.0
 10
22.45171329878167
 20
20.66143969588398
 30
0.0
 10
22.17994131149303
 20
21.38102177111845
 30
0.0
 10
21.9198477645446
 20
22.1049126366273
 30
0.0
 10
21.67157862449
 20
22.83293868940525
 30
0.0
 10
21.43291965391432
 20
23.56415602669342
 30
0.0
 10
21.19990427633574
 20
24.29718751504451
 30
0.0
 10
20.97157778526762
 20
25.03169139525316
 30
0.0
 10
20.74782653026374
 20
25.76760450082615
 30
0.0
 10
20.52952075977256
 20
26.50514851817768
 30
0.0
 10
20.31549159147906
 20
27.24394824454082
 30
0.0
 10
20.10855528043658
 20
27.98476834643023
 30
0.0
 10
19.9080662778035
 20
28.72736050212789
 30
0.0
 10
19.71529857471741
 20
29.47199305803498
 30
0.0
 10
19.532264683617
 20
30.21909981188396
 30
0.0
 10
19.36260544136813
 20
30.96934045387261
 30
0.0
 10
19.26512387822116
 20
31.4729747699315
 30
0.0
 10
19.23112109508055
 20
31.72718888996965
 30
0.0
 10
19.21089185267179
 20
31.86949689556254
 30
0.0
 10
19.18675624734252
 20
32.15876492288042
 30
0.0
 10
19.22554273969384
 20
32.58637392677166
 30
0.0
 10
19.43537618994239
 20
33.00469852465657
 30
0.0
 10
19.91942386291814
 20
33.02874605415689
 30
0.0
 10
20.148322346399
 20
32.82709973657433
 30
0.0
 10
20.21838940387122
 20
32.70112322633864
 30
0.0
 10
20.53563923331512
 20
32.15562927362927
 30
0.0
 10
21.14111282418937
 20
31.04757990590031
 30
0.0
 10
21.96599327842435
 20
29.34368202991659
 30
0.0
 10
22.82877849995334
 20
27.65821827971494
 30
0.0
 10
23.79144498966223
 20
26.02715076288791
 30
0.0
 10
24.82090221429885
 20
24.43803673608429
 30
0.0
 10
25.91896205240237
 20
22.89525929481507
 30
0.0
 10
27.08714307018186
 20
21.40488874798815
 30
0.0
 10
28.32996821923245
 20
19.97573844922559
 30
0.0
 10
29.65451890053778
 20
18.62256354499029
 30
0.0
 10
31.10963179478404
 20
17.40076862787419
 30
0.0
 10
32.80135566500883
 20
16.52415798653755
 30
0.0
 10
34.62408343479053
 20
15.99430209936919
 30
0.0
 10
36.47957708886387
 20
15.61740514831919
 30
0.0
 10
38.36298503724765
 20
15.40826321003038
 30
0.0
 10
40.25317168314533
 20
15.29884479899422
 30
0.0
 10
42.1464979466467
 20
15.26909526182923
 30
0.0
 10
43.40846614213061
 20
15.2942468661739
 30
0.0
 10
44.04030135806148
 20
15.31225306799268
 30
0.0
 10
44.23965717180025
 20
15.31987557961208
 30
0.0
 10
44.63535453014278
 20
15.3308759191502
 30
0.0
 10
45.23249365234425
 20
15.35591442495508
 30
0.0
 10
45.81834751130436
 20
15.34669581216689
 30
0.0
 10
46.44580006073398
 20
15.46428257045693
 30
0.0
 10
46.75390886344983
 20
15.11092932748347
 30
0.0
 10
46.74347082689494
 20
14.90567948747996
 30
0.0
 10
46.74194036799472
 20
14.49809518154209
 30
0.0
 10
46.14759741840997
 20
13.93326093351048
 30
0.0
 10
45.14023249376512
 20
13.39824820322761
 30
0.0
 10
44.0680024991546
 20
12.96617804587873
 30
0.0
 10
42.98193418747135
 20
12.58507919805611
 30
0.0
 10
42.22527725410063
 20
12.36163157003051
 30
0.0
 10
41.85511222596315
 20
12.26006451710911
 30
0.0
 10
41.60785926755025
 20
12.19222246720383
 30
0.0
 10
41.09745469513695
 20
12.0610337012452
 30
0.0
 10
40.60334372891246
 20
11.94794734272844
 30
0.0
 10
40.35875350247287
 20
11.89520848197371
 30
0.0
  0
SPLINE
  5
C9
330
1F
100
AcDbEntity
  8
Default
100
AcDbSpline
210
0.0
220
0.0
230
1.0
 70
     8
 71
     3
 72
    24
 73
    20
 74
     0
 42
0.0000000001
 43
0.0000000001
 40
0.0
 40
0.0
 40
0.0
 40
0.0
 40
1.0
 40
2.0
 40
3.0
 40
4.0
 40
5.0
 40
6.0
 40
7.0
 40
8.0
 40
9.0
 40
10.0
 40
11.0
 40
12.0
 40
13.0
 40
14.0
 40
15.0
 40
16.0
 40
16.33333418094753
 40
16.33333418094753
 40
16.33333418094753
 40
16.33333418094753
 10
-7.100609934487617
 20
30.06832959334874
 30
0.0
 10
-7.347832354333884
 20
29.7017838913938
 30
0.0
 10
-7.762286742270459
 20
28.9200681442663
 30
0.0
 10
-8.370559793632474
 20
27.74260320123756
 30
0.0
 10
-8.942594987670693
 20
26.54634611985242
 30
0.0
 10
-9.469246518791648
 20
25.32957424798057
 30
0.0
 10
-9.950752853987835
 20
24.09422478863063
 30
0.0
 10
-10.390000060604
 20
22.84326567825224
 30
0.0
 10
-10.78962386204678
 20
21.57914554549094
 30
0.0
 10
-11.15055080946478
 20
20.30328984948162
 30
0.0
 10
-11.47731655607154
 20
19.01895956666468
 30
0.0
 10
-11.7620787988282
 20
17.72189198012794
 30
0.0
 10
-12.05580366509817
 20
16.43780292615699
 30
0.0
 10
-12.153453356043
 20
15.07201082714396
 30
0.0
 10
-11.28747956486986
 20
13.97749894568165
 30
0.0
 10
-10.25230856340619
 20
13.16586421980318
 30
0.0
 10
-9.109706646116448
 20
12.48073657159709
 30
0.0
 10
-8.154920368242793
 20
12.08543640283708
 30
0.0
 10
-7.591709362086608
 20
11.91295107656129
 30
0.0
 10
-7.450051916672983
 20
11.87268047742932
 30
0.0
  0
SPLINE
  5
CA
330
1F
100
AcDbEntity
  8
Default
100
AcDbSpline
210
0.0
220
0.0
230
1.0
 70
     8
 71
     3
 72
    24
 73
    20
 74
     0
 42
0.0000000001
 43
0.0000000001
 40
-16.33333418094753
 40
-16.33333418094753
 40
-16.33333418094753
 40
-16.33333418094753
 40
-16.0
 40
-15.0
 40
-14.0
 40
-13.0
 40
-12.0
 40
-11.0
 40
-10.0
 40
-9.0
 40
-8.0
 40
-7.0
 40
-6.0
 40
-5.0
 40
-4.0
 40
-3.0
 40
-2.0
 40
-1.0
 40
0.0
 40
0.0
 40
0.0
 40
0.0
 10
7.450051916672983
 20
11.87268047742932
 30
0.0
 10
7.591709362086608
 20
11.91295107656129
 30
0.0
 10
8.154920368242793
 20
12.08543640283708
 30
0.0
 10
9.109706646116448
 20
12.48073657159709
 30
0.0
 10
10.25230856340619
 20
13.16586421980318
 30
0.0
 10
11.28747956486986
 20
13.97749894568165
 30
0.0
 10
12.153453356043
 20
15.07201082714396
 30
0.0
 10
12.05580366509817
 20
16.43780292615699
 30
0.0
 10
11.7620787988282
 20
17.72189198012794
 30
0.0
 10
11.47731655607154
 20
19.01895956666468
 30
0.0
 10
11.15055080946478
 20
20.30328984948162
 30
0.0
 10
10.78962386204678
 20
21.57914554549094
 30
0.0
 10
10.390000060604
 20
22.84326567825224
 30
0.0
 10
9.950752853987835
 20
24.09422478863063
 30
0.0
 10
9.469246518791648
 20
25.32957424798057
 30
0.0
 10
8.942594987670693
 20
26.54634611985242
 30
0.0
 10
8.370559793632474
 20
27.74260320123756
 30
0.0
 10
7.762286742270459
 20
28.9200681442663
 30
0.0
 10
7.347832354333884
 20
29.7017838913938
 30
0.0
 10
7.100609934487617
 20
30.06832959334874
 30
0.0
  0
ENDSEC
  0
SECTION
  2
OBJECTS
  0
DICTIONARY
  5
C
330
0
100
AcDbDictionary
281
     1
  3
ACAD_GROUP
350
D
  3
ACAD_LAYOUT
350
1A
  3
ACAD_MLEADERSTYLE
350
CC
  3
ACAD_MLINESTYLE
350
17
  3
ACAD_PLOTSETTINGS
350
19
  3
ACAD_PLOTSTYLENAME
350
E
  3
ACAD_TABLESTYLE
350
CB
  3
ACAD_VISUALSTYLE
350
2A
  0
DICTIONARY
  5
D
102
{ACAD_REACTORS
330
C
102
}
330
C
100
AcDbDictionary
281
     1
  0
DICTIONARY
  5
1A
102
{ACAD_REACTORS
330
C
102
}
330
C
100
AcDbDictionary
281
     1
  3
Layout1
350
1E
  3
Layout2
350
26
  3
Model
350
22
  0
DICTIONARY
  5
CC
102
{ACAD_REACTORS
330
C
102
}
330
C
100
AcDbDictionary
281
     1
  0
DICTIONARY
  5
17
102
{ACAD_REACTORS
330
C
102
}
330
C
100
AcDbDictionary
281
     1
  3
Standard
350
18
  0
DICTIONARY
  5
19
102
{ACAD_REACTORS
330
C
102
}
330
C
100
AcDbDictionary
281
     1
  0
ACDBDICTIONARYWDFLT
  5
E
102
{ACAD_REACTORS
330
C
102
}
330
C
100
AcDbDictionary
281
     1
  3
Normal
350
F
100
AcDbDictionaryWithDefault
340
F
  0
DICTIONARY
  5
CB
102
{ACAD_REACTORS
330
C
102
}
330
C
100
AcDbDictionary
281
     1
  0
DICTIONARY
  5
2A
102
{ACAD_REACTORS
330
C
102
}
330
C
100
AcDbDictionary
281
     1
  3
2dWireframe
350
2F
  3
3D Hidden
350
31
  3
3dWireframe
350
30
  3
Basic
350
32
  3
Brighten
350
36
  3
ColorChange
350
3A
  3
Conceptual
350
34
  3
Dim
350
35
  3
Facepattern
350
39
  3
Flat
350
2B
  3
FlatWithEdges
350
2C
  3
Gouraud
350
2D
  3
GouraudWithEdges
350
2E
  3
Linepattern
350
38
  3
Realistic
350
33
  3
Thicken
350
37
  0
LAYOUT
  5
1E
102
{ACAD_REACTORS
330
1A
102
}
330
1A
100
AcDbPlotSettings
  1

  2
none_device
  4

  6

 40
0.0
 41
0.0
 42
0.0
 43
0.0
 44
0.0
 45
0.0
 46
0.0
 47
0.0
 48
0.0
 49
0.0
140
0.0
141
0.0
142
1.0
143
1.0
 70
   688
 72
     0
 73
     0
 74
     5
  7

 75
    16
 76
     0
 77
     2
 78
   300
147
1.0
148
0.0
149
0.0
100
AcDbLayout
  1
Layout1
 70
     1
 71
     1
 10
0.0
 20
0.0
 11
12.0
 21
9.0
 12
0.0
 22
0.0
 32
0.0
 14
1.000000000000000E+20
 24
1.000000000000000E+20
 34
1.000000000000000E+20
 15
-1.000000000000000E+20
 25
-1.000000000000000E+20
 35
-1.000000000000000E+20
146
0.0
 13
0.0
 23
0.0
 33
0.0
 16
1.0
 26
0.0
 36
0.0
 17
0.0
 27
1.0
 37
0.0
 76
     0
330
1B
  0
LAYOUT
  5
26
102
{ACAD_REACTORS
330
1A
102
}
330
1A
100
AcDbPlotSettings
  1

  2
none_device
  4

  6

 40
0.0
 41
0.0
 42
0.0
 43
0.0
 44
0.0
 45
0.0
 46
0.0
 47
0.0
 48
0.0
 49
0.0
140
0.0
141
0.0
142
1.0
143
1.0
 70
   688
 72
     0
 73
     0
 74
     5
  7

 75
    16
 76
     0
 77
     2
 78
   300
147
1.0
148
0.0
149
0.0
100
AcDbLayout
  1
Layout2
 70
     1
 71
     2
 10
0.0
 20
0.0
 11
0.0
 21
0.0
 12
0.0
 22
0.0
 32
0.0
 14
0.0
 24
0.0
 34
0.0
 15
0.0
 25
0.0
 35
0.0
146
0.0
 13
0.0
 23
0.0
 33
0.0
 16
1.0
 26
0.0
 36
0.0
 17
0.0
 27
1.0
 37
0.0
 76
     0
330
23
  0
LAYOUT
  5
22
102
{ACAD_REACTORS
330
1A
102
}
330
1A
100
AcDbPlotSettings
  1

  2
none_device
  4

  6

 40
0.0
 41
0.0
 42
0.0
 43
0.0
 44
0.0
 45
0.0
 46
0.0
 47
0.0
 48
0.0
 49
0.0
140
0.0
141
0.0
142
1.0
143
1.0
 70
  1712
 72
     0
 73
     0
 74
     0
  7

 75
     0
 76
     0
 77
     2
 78
   300
147
1.0
148
0.0
149
0.0
100
AcDbLayout
  1
Model
 70
     1
 71
     0
 10
0.0
 20
0.0
 11
12.0
 21
9.0
 12
0.0
 22
0.0
 32
0.0
 14
-12.09174768740044
 24
-0.0017796313076643
 34
0.0
 15
46.74347082689494
 25
66.4043111476682
 35
0.0
146
0.0
 13
0.0
 23
0.0
 33
0.0
 16
1.0
 26
0.0
 36
0.0
 17
0.0
 27
1.0
 37
0.0
 76
     0
330
1F
331
29
  0
MLINESTYLE
  5
18
102
{ACAD_REACTORS
330
17
102
}
330
17
100
AcDbMlineStyle
  2
Standard
 70
     0
  3

 62
   256
 51
90.0
 52
90.0
 71
     2
 49
0.5
 62
   256
  6
BYLAYER
 49
-0.5
 62
   256
  6
BYLAYER
  0
ACDBPLACEHOLDER
  5
F
102
{ACAD_REACTORS
330
E
102
}
330
E
  0
VISUALSTYLE
  5
2F
102
{ACAD_REACTORS
330
2A
102
}
330
2A
100
AcDbVisualStyle
  2
2dWireframe
 70
     4
 71
     0
 72
     2
 73
     0
 90
        0
 40
-0.6
 41
-30.0
 62
     5
 63
     7
421
 16777215
 74
     1
 91
        4
 64
     7
 65
   257
 75
     1
175
     1
 42
1.0
 92
        0
 66
   257
 43
1.0
 76
     1
 77
     6
 78
     2
 67
     7
 79
     5
170
     0
171
     0
290
     0
174
     0
 93
        1
 44
0.0
173
     0
291
     0
 45
0.0
1001
ACAD
1000
AcDbSavedByObjectVersion
1070
     0
  0
VISUALSTYLE
  5
31
102
{ACAD_REACTORS
330
2A
102
}
330
2A
100
AcDbVisualStyle
  2
3D Hidden
 70
     6
 71
     1
 72
     2
 73
     2
 90
        0
 40
-0.6
 41
-30.0
 62
     5
 63
     7
421
 16777215
 74
     2
 91
        2
 64
     7
 65
   257
 75
     2
175
     1
 42
40.0
 92
        0
 66
   257
 43
1.0
 76
     1
 77
     6
 78
     2
 67
     7
 79
     3
170
     0
171
     0
290
     0
174
     0
 93
        1
 44
0.0
173
     0
291
     0
 45
0.0
1001
ACAD
1000
AcDbSavedByObjectVersion
1070
     0
  0
VISUALSTYLE
  5
30
102
{ACAD_REACTORS
330
2A
102
}
330
2A
100
AcDbVisualStyle
  2
3dWireframe
 70
     5
 71
     0
 72
     2
 73
     0
 90
        0
 40
-0.6
 41
-30.0
 62
     5
 63
     7
421
 16777215
 74
     1
 91
        4
 64
     7
 65
   257
 75
     1
175
     1
 42
1.0
 92
        0
 66
   257
 43
1.0
 76
     1
 77
     6
 78
     2
 67
     7
 79
     5
170
     0
171
     0
290
     0
174
     0
 93
        1
 44
0.0
173
     0
291
     0
 45
0.0
1001
ACAD
1000
AcDbSavedByObjectVersion
1070
     0
  0
VISUALSTYLE
  5
32
102
{ACAD_REACTORS
330
2A
102
}
330
2A
100
AcDbVisualStyle
  2
Basic
 70
     7
 71
     1
 72
     0
 73
     1
 90
        0
 40
-0.6
 41
-30.0
 62
     5
 63
     7
421
 16777215
 74
     0
 91
        4
 64
     7
 65
   257
 75
     1
175
     1
 42
1.0
 92
        8
 66
     7
 43
1.0
 76
     1
 77
     6
 78
     2
 67
     7
 79
     5
170
     0
171
     0
290
     0
174
     0
 93
        1
 44
0.0
173
     0
291
     1
 45
0.0
1001
ACAD
1000
AcDbSavedByObjectVersion
1070
     0
  0
VISUALSTYLE
  5
36
102
{ACAD_REACTORS
330
2A
102
}
330
2A
100
AcDbVisualStyle
  2
Brighten
 70
    12
 71
     2
 72
     2
 73
     0
 90
        0
 40
-0.6
 41
-30.0
 62
     5
 63
     7
421
 16777215
 74
     1
 91
        4
 64
     7
 65
   257
 75
     1
175
     1
 42
1.0
 92
        8
 66
     7
 43
1.0
 76
     1
 77
     6
 78
     2
 67
     7
 79
     5
170
     0
171
     0
290
     0
174
     0
 93
        1
 44
50.0
173
     0
291
     1
 45
0.0
1001
ACAD
1000
AcDbSavedByObjectVersion
1070
     0
  0
VISUALSTYLE
  5
3A
102
{ACAD_REACTORS
330
2A
102
}
330
2A
100
AcDbVisualStyle
  2
ColorChange
 70
    16
 71
     2
 72
     2
 73
     3
 90
        0
 40
-0.6
 41
-30.0
 62
     5
 63
     8
421
  8421504
 74
     1
 91
        4
 64
     7
 65
   257
 75
     1
175
     1
 42
1.0
 92
        8
 66
     8
424
  8421504
 43
1.0
 76
     1
 77
     6
 78
     2
 67
     7
 79
     5
170
     0
171
     0
290
     0
174
     0
 93
        1
 44
0.0
173
     0
291
     1
 45
0.0
1001
ACAD
1000
AcDbSavedByObjectVersion
1070
     0
  0
VISUALSTYLE
  5
34
102
{ACAD_REACTORS
330
2A
102
}
330
2A
100
AcDbVisualStyle
  2
Conceptual
 70
     9
 71
     3
 72
     2
 73
     0
 90
        0
 40
-0.6
 41
-30.0
 62
     5
 63
     7
421
 16777215
 74
     2
 91
        2
 64
     7
 65
   257
 75
     1
175
     1
 42
40.0
 92
        8
 66
     7
 43
1.0
 76
     1
 77
     6
 78
     2
 67
     7
 79
     3
170
     0
171
     0
290
     0
174
     0
 93
        1
 44
0.0
173
     0
291
     0
 45
0.0
1001
ACAD
1000
AcDbSavedByObjectVersion
1070
     0
  0
VISUALSTYLE
  5
35
102
{ACAD_REACTORS
330
2A
102
}
330
2A
100
AcDbVisualStyle
  2
Dim
 70
    11
 71
     2
 72
     2
 73
     0
 90
        0
 40
-0.6
 41
-30.0
 62
     5
 63
     7
421
 16777215
 74
     1
 91
        4
 64
     7
 65
   257
 75
     1
175
     1
 42
1.0
 92
        8
 66
     7
 43
1.0
 76
     1
 77
     6
 78
     2
 67
     7
 79
     5
170
     0
171
     0
290
     0
174
     0
 93
        1
 44
-50.0
173
     0
291
     1
 45
0.0
1001
ACAD
1000
AcDbSavedByObjectVersion
1070
     0
  0
VISUALSTYLE
  5
39
102
{ACAD_REACTORS
330
2A
102
}
330
2A
100
AcDbVisualStyle
  2
Facepattern
 70
    15
 71
     2
 72
     2
 73
     0
 90
        0
 40
-0.6
 41
-30.0
 62
     5
 63
     7
421
 16777215
 74
     1
 91
        4
 64
     7
 65
   257
 75
     1
175
     1
 42
1.0
 92
        8
 66
     7
 43
1.0
 76
     1
 77
     6
 78
     2
 67
     7
 79
     5
170
     0
171
     0
290
     0
174
     0
 93
        1
 44
0.0
173
     0
291
     1
 45
0.0
1001
ACAD
1000
AcDbSavedByObjectVersion
1070
     0
  0
VISUALSTYLE
  5
2B
102
{ACAD_REACTORS
330
2A
102
}
330
2A
100
AcDbVisualStyle
  2
Flat
 70
     0
 71
     2
 72
     1
 73
     1
 90
        2
 40
-0.6
 41
30.0
 62
     5
 63
     7
421
 16777215
 74
     0
 91
        4
 64
     7
 65
   257
 75
     1
175
     1
 42
1.0
 92
        8
 66
     7
 43
1.0
 76
     1
 77
     6
 78
     2
 67
     7
 79
     5
170
     0
171
     0
290
     0
174
     0
 93
       13
 44
0.0
173
     0
291
     1
 45
0.0
1001
ACAD
1000
AcDbSavedByObjectVersion
1070
     0
  0
VISUALSTYLE
  5
2C
102
{ACAD_REACTORS
330
2A
102
}
330
2A
100
AcDbVisualStyle
  2
FlatWithEdges
 70
     1
 71
     2
 72
     1
 73
     1
 90
        2
 40
-0.6
 41
30.0
 62
     5
 63
     7
421
 16777215
 74
     1
 91
        4
 64
     7
 65
   257
 75
     1
175
     1
 42
1.0
 92
        0
 66
   257
 43
1.0
 76
     1
 77
     6
 78
     2
 67
     7
 79
     5
170
     0
171
     0
290
     0
174
     0
 93
       13
 44
0.0
173
     0
291
     1
 45
0.0
1001
ACAD
1000
AcDbSavedByObjectVersion
1070
     0
  0
VISUALSTYLE
  5
2D
102
{ACAD_REACTORS
330
2A
102
}
330
2A
100
AcDbVisualStyle
  2
Gouraud
 70
     2
 71
     2
 72
     2
 73
     1
 90
        2
 40
-0.6
 41
30.0
 62
     5
 63
     7
421
 16777215
 74
     0
 91
        4
 64
     7
 65
   257
 75
     1
175
     1
 42
1.0
 92
        0
 66
     7
 43
1.0
 76
     1
 77
     6
 78
     2
 67
     7
 79
     5
170
     0
171
     0
290
     0
174
     0
 93
       13
 44
0.0
173
     0
291
     1
 45
0.0
1001
ACAD
1000
AcDbSavedByObjectVersion
1070
     0
  0
VISUALSTYLE
  5
2E
102
{ACAD_REACTORS
330
2A
102
}
330
2A
100
AcDbVisualStyle
  2
GouraudWithEdges
 70
     3
 71
     2
 72
     2
 73
     1
 90
        2
 40
-0.6
 41
30.0
 62
     5
 63
     7
421
 16777215
 74
     1
 91
        4
 64
     7
 65
   257
 75
     1
175
     1
 42
1.0
 92
        0
 66
   257
 43
1.0
 76
     1
 77
     6
 78
     2
 67
     7
 79
     5
170
     0
171
     0
290
     0
174
     0
 93
       13
 44
0.0
173
     0
291
     1
 45
0.0
1001
ACAD
1000
AcDbSavedByObjectVersion
1070
     0
  0
VISUALSTYLE
  5
38
102
{ACAD_REACTORS
330
2A
102
}
330
2A
100
AcDbVisualStyle
  2
Linepattern
 70
    14
 71
     2
 72
     2
 73
     0
 90
        0
 40
-0.6
 41
-30.0
 62
     5
 63
     7
421
 16777215
 74
     1
 91
        4
 64
     7
 65
   257
 75
     7
175
     7
 42
1.0
 92
        8
 66
     7
 43
1.0
 76
     1
 77
     6
 78
     2
 67
     7
 79
     5
170
     0
171
     0
290
     0
174
     0
 93
        1
 44
0.0
173
     0
291
     1
 45
0.0
1001
ACAD
1000
AcDbSavedByObjectVersion
1070
     0
  0
VISUALSTYLE
  5
33
102
{ACAD_REACTORS
330
2A
102
}
330
2A
100
AcDbVisualStyle
  2
Realistic
 70
     8
 71
     2
 72
     2
 73
     0
 90
        0
 40
-0.6
 41
-30.0
 62
     5
 63
     7
421
 16777215
 74
     1
 91
        0
 64
     7
 65
   257
 75
     1
175
     1
 42
1.0
 92
        8
 66
     8
424
  7895160
 43
1.0
 76
     1
 77
     6
 78
     2
 67
     7
 79
     5
170
     0
171
     0
290
     0
174
     0
 93
       13
 44
0.0
173
     0
291
     0
 45
0.0
1001
ACAD
1000
AcDbSavedByObjectVersion
1070
     0
  0
VISUALSTYLE
  5
37
102
{ACAD_REACTORS
330
2A
102
}
330
2A
100
AcDbVisualStyle
  2
Thicken
 70
    13
 71
     2
 72
     2
 73
     0
 90
        0
 40
-0.6
 41
-30.0
 62
     5
 63
     7
421
 16777215
 74
     1
 91
        4
 64
     7
 65
   257
 75
     1
175
     1
 42
1.0
 92
       12
 66
     7
 43
1.0
 76
     1
 77
     6
 78
     2
 67
     7
 79
     5
170
     0
171
     0
290
     0
174
     0
 93
        1
 44
0.0
173
     0
291
     1
 45
0.0
1001
ACAD
1000
AcDbSavedByObjectVersion
1070
     0
  0
ENDSEC
  0
EOF
