  0
SECTION
  2
HEADER
  9
$ACADVER
  1
AC1018
  9
$ACADMAINTVER
 70
     0
  9
$DWGCODEPAGE
  3
ANSI_1252
  9
$INSBASE
 10
0.0
 20
0.0
 30
0.0
  9
$EXTMIN
 10
-12.09179098392149
 20
-0.0002651114711827
 30
0.0
  9
$EXTMAX
 10
46.14125399589466
 20
65.84248448876818
 30
0.0
  9
$LIMMIN
 10
0.0
 20
0.0
  9
$LIMMAX
 10
12.0
 20
9.0
  9
$ORTHOMODE
 70
     0
  9
$REGENMODE
 70
     1
  9
$FILLMODE
 70
     1
  9
$QTEXTMODE
 70
     0
  9
$MIRRTEXT
 70
     1
  9
$LTSCALE
 40
0.0393700787401575
  9
$ATTMODE
 70
     1
  9
$TEXTSIZE
 40
0.2
  9
$TRACEWID
 40
0.05
  9
$TEXTSTYLE
  7
Standard
  9
$CLAYER
  8
Default
  9
$CELTYPE
  6
ByLayer
  9
$CECOLOR
 62
   256
  9
$CELTSCALE
 40
1.0
  9
$DISPSILH
 70
     0
  9
$DIMSCALE
 40
1.0
  9
$DIMASZ
 40
0.18
  9
$DIMEXO
 40
0.0625
  9
$DIMDLI
 40
0.38
  9
$DIMRND
 40
0.0
  9
$DIMDLE
 40
0.0
  9
$DIMEXE
 40
0.18
  9
$DIMTP
 40
0.0
  9
$DIMTM
 40
0.0
  9
$DIMTXT
 40
0.18
  9
$DIMCEN
 40
0.09
  9
$DIMTSZ
 40
0.0
  9
$DIMTOL
 70
     0
  9
$DIMLIM
 70
     0
  9
$DIMTIH
 70
     1
  9
$DIMTOH
 70
     1
  9
$DIMSE1
 70
     0
  9
$DIMSE2
 70
     0
  9
$DIMTAD
 70
     0
  9
$DIMZIN
 70
     0
  9
$DIMBLK
  1

  9
$DIMASO
 70
     1
  9
$DIMSHO
 70
     1
  9
$DIMPOST
  1

  9
$DIMAPOST
  1

  9
$DIMALT
 70
     0
  9
$DIMALTD
 70
     2
  9
$DIMALTF
 40
25.4
  9
$DIMLFAC
 40
1.0
  9
$DIMTOFL
 70
     0
  9
$DIMTVP
 40
0.0
  9
$DIMTIX
 70
     0
  9
$DIMSOXD
 70
     0
  9
$DIMSAH
 70
     0
  9
$DIMBLK1
  1

  9
$DIMBLK2
  1

  9
$DIMSTYLE
  2
Standard
  9
$DIMCLRD
 70
     0
  9
$DIMCLRE
 70
     0
  9
$DIMCLRT
 70
     0
  9
$DIMTFAC
 40
1.0
  9
$DIMGAP
 40
0.09
  9
$DIMJUST
 70
     0
  9
$DIMSD1
 70
     0
  9
$DIMSD2
 70
     0
  9
$DIMTOLJ
 70
     1
  9
$DIMTZIN
 70
     0
  9
$DIMALTZ
 70
     0
  9
$DIMALTTZ
 70
     0
  9
$DIMUPT
 70
     0
  9
$DIMDEC
 70
     4
  9
$DIMTDEC
 70
     4
  9
$DIMALTU
 70
     2
  9
$DIMALTTD
 70
     2
  9
$DIMTXSTY
  7
Standard
  9
$DIMAUNIT
 70
     0
  9
$DIMADEC
 70
     0
  9
$DIMALTRND
 40
0.0
  9
$DIMAZIN
 70
     0
  9
$DIMDSEP
 70
    46
  9
$DIMATFIT
 70
     3
  9
$DIMFRAC
 70
     0
  9
$DIMLDRBLK
  1

  9
$DIMLUNIT
 70
     2
  9
$DIMLWD
 70
    -2
  9
$DIMLWE
 70
    -2
  9
$DIMTMOVE
 70
     2
  9
$LUNITS
 70
     2
  9
$LUPREC
 70
     3
  9
$SKETCHINC
 40
0.1
  9
$FILLETRAD
 40
0.5
  9
$AUNITS
 70
     0
  9
$AUPREC
 70
     0
  9
$MENU
  1
.
  9
$ELEVATION
 40
0.0
  9
$PELEVATION
 40
0.0
  9
$THICKNESS
 40
0.0
  9
$LIMCHECK
 70
     0
  9
$CHAMFERA
 40
0.5
  9
$CHAMFERB
 40
0.5
  9
$CHAMFERC
 40
1.0
  9
$CHAMFERD
 40
0.0
  9
$SKPOLY
 70
     0
  9
$TDCREATE
 40
2456338.463753924
  9
$TDUCREATE
 40
2456338.672087257
  9
$TDUPDATE
 40
2456338.463753935
  9
$TDUUPDATE
 40
2456338.672087268
  9
$TDINDWG
 40
0.0000000116
  9
$TDUSRTIMER
 40
0.0000000116
  9
$USRTIMER
 70
     1
  9
$ANGBASE
 50
0.0
  9
$ANGDIR
 70
     0
  9
$PDMODE
 70
     0
  9
$PDSIZE
 40
0.0
  9
$PLINEWID
 40
0.0
  9
$SPLFRAME
 70
     0
  9
$SPLINETYPE
 70
     6
  9
$SPLINESEGS
 70
     8
  9
$HANDSEED
  5
F2
  9
$SURFTAB1
 70
     6
  9
$SURFTAB2
 70
     6
  9
$SURFTYPE
 70
     6
  9
$SURFU
 70
     6
  9
$SURFV
 70
     6
  9
$UCSBASE
  2

  9
$UCSNAME
  2

  9
$UCSORG
 10
0.0
 20
0.0
 30
0.0
  9
$UCSXDIR
 10
1.0
 20
0.0
 30
0.0
  9
$UCSYDIR
 10
0.0
 20
1.0
 30
0.0
  9
$UCSORTHOREF
  2

  9
$UCSORTHOVIEW
 70
     0
  9
$UCSORGTOP
 10
0.0
 20
0.0
 30
0.0
  9
$UCSORGBOTTOM
 10
0.0
 20
0.0
 30
0.0
  9
$UCSORGLEFT
 10
0.0
 20
0.0
 30
0.0
  9
$UCSORGRIGHT
 10
0.0
 20
0.0
 30
0.0
  9
$UCSORGFRONT
 10
0.0
 20
0.0
 30
0.0
  9
$UCSORGBACK
 10
0.0
 20
0.0
 30
0.0
  9
$PUCSBASE
  2

  9
$PUCSNAME
  2

  9
$PUCSORG
 10
0.0
 20
0.0
 30
0.0
  9
$PUCSXDIR
 10
1.0
 20
0.0
 30
0.0
  9
$PUCSYDIR
 10
0.0
 20
1.0
 30
0.0
  9
$PUCSORTHOREF
  2

  9
$PUCSORTHOVIEW
 70
     0
  9
$PUCSORGTOP
 10
0.0
 20
0.0
 30
0.0
  9
$PUCSORGBOTTOM
 10
0.0
 20
0.0
 30
0.0
  9
$PUCSORGLEFT
 10
0.0
 20
0.0
 30
0.0
  9
$PUCSORGRIGHT
 10
0.0
 20
0.0
 30
0.0
  9
$PUCSORGFRONT
 10
0.0
 20
0.0
 30
0.0
  9
$PUCSORGBACK
 10
0.0
 20
0.0
 30
0.0
  9
$USERI1
 70
     0
  9
$USERI2
 70
     0
  9
$USERI3
 70
     0
  9
$USERI4
 70
     0
  9
$USERI5
 70
     0
  9
$USERR1
 40
0.0
  9
$USERR2
 40
0.0
  9
$USERR3
 40
0.0
  9
$USERR4
 40
0.0
  9
$USERR5
 40
0.0
  9
$WORLDVIEW
 70
     1
  9
$SHADEDGE
 70
     3
  9
$SHADEDIF
 70
    70
  9
$TILEMODE
 70
     1
  9
$MAXACTVP
 70
    64
  9
$PINSBASE
 10
0.0
 20
0.0
 30
0.0
  9
$PLIMCHECK
 70
     0
  9
$PEXTMIN
 10
1.000000000000000E+20
 20
1.000000000000000E+20
 30
1.000000000000000E+20
  9
$PEXTMAX
 10
-1.000000000000000E+20
 20
-1.000000000000000E+20
 30
-1.000000000000000E+20
  9
$PLIMMIN
 10
0.0
 20
0.0
  9
$PLIMMAX
 10
12.0
 20
9.0
  9
$UNITMODE
 70
     0
  9
$VISRETAIN
 70
     1
  9
$PLINEGEN
 70
     0
  9
$PSLTSCALE
 70
     1
  9
$TREEDEPTH
 70
  3020
  9
$CMLSTYLE
  2
Standard
  9
$CMLJUST
 70
     0
  9
$CMLSCALE
 40
1.0
  9
$PROXYGRAPHICS
 70
     1
  9
$MEASUREMENT
 70
     0
  9
$CELWEIGHT
370
    -1
  9
$ENDCAPS
280
     0
  9
$JOINSTYLE
280
     0
  9
$LWDISPLAY
290
     0
  9
$INSUNITS
 70
     1
  9
$HYPERLINKBASE
  1

  9
$STYLESHEET
  1

  9
$XEDIT
290
     1
  9
$CEPSNTYPE
380
     0
  9
$PSTYLEMODE
290
     1
  9
$FINGERPRINTGUID
  2
{817F9DD1-5371-4093-9268-08893BB63117}
  9
$VERSIONGUID
  2
{FAEB1C32-E019-11D5-929B-00C0DF256EC4}
  9
$EXTNAMES
290
     1
  9
$PSVPSCALE
 40
0.0
  9
$OLESTARTUP
290
     0
  9
$SORTENTS
280
   127
  9
$INDEXCTL
280
     0
  9
$HIDETEXT
280
     1
  9
$XCLIPFRAME
290
     0
  9
$HALOGAP
280
     0
  9
$OBSCOLOR
 70
   257
  9
$OBSLTYPE
280
     0
  9
$INTERSECTIONDISPLAY
280
     0
  9
$INTERSECTIONCOLOR
 70
   257
  9
$DIMASSOC
280
     2
  9
$PROJECTNAME
  1

  0
ENDSEC
  0
SECTION
  2
CLASSES
  0
CLASS
  1
ACDBDICTIONARYWDFLT
  2
AcDbDictionaryWithDefault
  3
ObjectDBX Classes
 90
        0
 91
        4
280
     0
281
     0
  0
CLASS
  1
VISUALSTYLE
  2
AcDbVisualStyle
  3
ObjectDBX Classes
 90
     4095
 91
        4
280
     0
281
     0
  0
ENDSEC
  0
SECTION
  2
TABLES
  0
TABLE
  2
VPORT
  5
8
330
0
100
AcDbSymbolTable
 70
     1
  0
VPORT
  5
29
330
8
100
AcDbSymbolTableRecord
100
AcDbViewportTableRecord
  2
*Active
 70
     0
 10
0.0
 20
0.0
 11
1.0
 21
1.0
 12
17.02473150598659
 22
32.9211096886485
 13
0.0
 23
0.0
 14
0.5
 24
0.5
 15
0.5
 25
0.5
 16
0.0
 26
0.0
 36
1.0
 17
0.0
 27
0.0
 37
0.0
 40
67.15960459224415
 41
0.8844260808270443
 42
50.0
 43
0.0
 44
0.0
 50
0.0
 51
0.0
 71
     0
 72
   100
 73
     1
 74
     3
 75
     0
 76
     0
 77
     0
 78
     0
281
     0
 65
     1
110
0.0
120
0.0
130
0.0
111
1.0
121
0.0
131
0.0
112
0.0
122
1.0
132
0.0
 79
     0
146
0.0
  0
ENDTAB
  0
TABLE
  2
LTYPE
  5
5
330
0
100
AcDbSymbolTable
 70
     1
  0
LTYPE
  5
14
330
5
100
AcDbSymbolTableRecord
100
AcDbLinetypeTableRecord
  2
ByBlock
 70
     0
  3

 72
    65
 73
     0
 40
0.0
  0
LTYPE
  5
15
330
5
100
AcDbSymbolTableRecord
100
AcDbLinetypeTableRecord
  2
ByLayer
 70
     0
  3

 72
    65
 73
     0
 40
0.0
  0
LTYPE
  5
16
330
5
100
AcDbSymbolTableRecord
100
AcDbLinetypeTableRecord
  2
Continuous
 70
     0
  3
Solid line
 72
    65
 73
     0
 40
0.0
  0
ENDTAB
  0
TABLE
  2
LAYER
  5
2
330
0
100
AcDbSymbolTable
 70
     3
  0
LAYER
  5
10
330
2
100
AcDbSymbolTableRecord
100
AcDbLayerTableRecord
  2
0
 70
     0
 62
     7
  6
Continuous
370
    -3
390
F
  0
LAYER
  5
3B
330
2
100
AcDbSymbolTableRecord
100
AcDbLayerTableRecord
  2
Make2D visible lines
 70
     0
 62
     7
  6
Continuous
370
    -3
390
F
  0
LAYER
  5
40
330
2
100
AcDbSymbolTableRecord
100
AcDbLayerTableRecord
  2
Default
 70
     0
 62
     7
  6
Continuous
370
    -3
390
F
  0
ENDTAB
  0
TABLE
  2
STYLE
  5
3
330
0
100
AcDbSymbolTable
 70
     1
  0
STYLE
  5
11
330
3
100
AcDbSymbolTableRecord
100
AcDbTextStyleTableRecord
  2
Standard
 70
     0
 40
0.0
 41
1.0
 50
0.0
 71
     0
 42
0.2
  3
txt
  4

  0
ENDTAB
  0
TABLE
  2
VIEW
  5
6
330
0
100
AcDbSymbolTable
 70
     0
  0
ENDTAB
  0
TABLE
  2
UCS
  5
7
330
0
100
AcDbSymbolTable
 70
     0
  0
ENDTAB
  0
TABLE
  2
APPID
  5
9
330
0
100
AcDbSymbolTable
 70
     1
  0
APPID
  5
12
330
9
100
AcDbSymbolTableRecord
100
AcDbRegAppTableRecord
  2
ACAD
 70
     0
  0
ENDTAB
  0
TABLE
  2
DIMSTYLE
  5
A
330
0
100
AcDbSymbolTable
 70
     1
100
AcDbDimStyleTable
  0
DIMSTYLE
105
27
330
A
100
AcDbSymbolTableRecord
100
AcDbDimStyleTableRecord
  2
Standard
 70
     0
340
11
  0
ENDTAB
  0
TABLE
  2
BLOCK_RECORD
  5
1
330
0
100
AcDbSymbolTable
 70
     1
  0
BLOCK_RECORD
  5
1F
330
1
100
AcDbSymbolTableRecord
100
AcDbBlockTableRecord
  2
*Model_Space
340
22
  0
BLOCK_RECORD
  5
1B
330
1
100
AcDbSymbolTableRecord
100
AcDbBlockTableRecord
  2
*Paper_Space
340
1E
  0
BLOCK_RECORD
  5
23
330
1
100
AcDbSymbolTableRecord
100
AcDbBlockTableRecord
  2
*Paper_Space0
340
26
  0
ENDTAB
  0
ENDSEC
  0
SECTION
  2
BLOCKS
  0
BLOCK
  5
20
330
1F
100
AcDbEntity
  8
0
100
AcDbBlockBegin
  2
*Model_Space
 70
     0
 10
0.0
 20
0.0
 30
0.0
  3
*Model_Space
  1

  0
ENDBLK
  5
21
330
1F
100
AcDbEntity
  8
0
100
AcDbBlockEnd
  0
BLOCK
  5
1C
330
1B
100
AcDbEntity
 67
     1
  8
0
100
AcDbBlockBegin
  2
*Paper_Space
 70
     0
 10
0.0
 20
0.0
 30
0.0
  3
*Paper_Space
  1

  0
ENDBLK
  5
1D
330
1B
100
AcDbEntity
 67
     1
  8
0
100
AcDbBlockEnd
  0
BLOCK
  5
24
330
23
100
AcDbEntity
  8
0
100
AcDbBlockBegin
  2
*Paper_Space0
 70
     0
 10
0.0
 20
0.0
 30
0.0
  3
*Paper_Space0
  1

  0
ENDBLK
  5
25
330
23
100
AcDbEntity
  8
0
100
AcDbBlockEnd
  0
ENDSEC
  0
SECTION
  2
ENTITIES
  0
SPLINE
  5
3C
330
1F
100
AcDbEntity
  8
Make2D visible lines
100
AcDbSpline
210
0.0
220
0.0
230
1.0
 70
     8
 71
     3
 72
    12
 73
     8
 74
     0
 42
0.0000000001
 43
0.0000000001
 40
0.0
 40
0.0
 40
0.0
 40
0.0
 40
0.1045449495724591
 40
0.2148937681762403
 40
0.5007879948566512
 40
0.8561420073208538
 40
1.264081239529036
 40
1.264081239529036
 40
1.264081239529036
 40
1.264081239529036
 10
-8.246604095506871
 20
0.5946423465464109
 30
0.0
 10
-8.280550316403623
 20
0.6020719707281382
 30
0.0
 10
-8.347849109360109
 20
0.6310631011182968
 30
0.0
 10
-8.463624316933032
 20
0.7555571056216934
 30
0.0
 10
-8.547639076530153
 20
0.9968449928249623
 30
0.0
 10
-8.56330217480092
 20
1.348128394503139
 30
0.0
 10
-8.521299246639952
 20
1.600551821673184
 30
0.0
 10
-8.487381968538457
 20
1.732138477176544
 30
0.0
  0
SPLINE
  5
3D
330
1F
100
AcDbEntity
  8
Make2D visible lines
100
AcDbSpline
210
0.0
220
0.0
230
1.0
 70
    24
 71
     2
 72
     6
 73
     3
 74
     0
 42
0.0000000001
 43
0.0000000001
 40
0.0
 40
0.0
 40
0.0
 40
10.18306939563208
 40
10.18306939563208
 40
10.18306939563208
 10
-8.487381968538457
 20
1.732138477176544
 30
0.0
 10
-7.196624356155145
 20
6.664279276977405
 30
0.0
 10
-5.905866743771833
 20
11.59642007677827
 30
0.0
  0
LINE
  5
3E
330
1F
100
AcDbEntity
  8
Make2D visible lines
100
AcDbLine
 10
-6.313222426880717
 20
11.76790423380818
 30
0.0
 11
-8.908927380983805
 21
1.849471051043777
 31
0.0
  0
SPLINE
  5
3F
330
1F
100
AcDbEntity
  8
Make2D visible lines
100
AcDbSpline
210
0.0
220
0.0
230
1.0
 70
     8
 71
     3
 72
    11
 73
     7
 74
     0
 42
0.0000000001
 43
0.0000000001
 40
0.0
 40
0.0
 40
0.0
 40
0.0
 40
0.1808079666173053
 40
0.3573749741682617
 40
0.6971779454963127
 40
1.284847912810405
 40
1.284847912810405
 40
1.284847912810405
 40
1.284847912810405
 10
-8.908927380983805
 20
1.849471051043777
 30
0.0
 10
-8.924896261503992
 20
1.787942529339398
 30
0.0
 10
-8.951101138414256
 20
1.671789227455212
 30
0.0
 10
-8.986177759548589
 20
1.441694512673601
 30
0.0
 10
-9.002700310655467
 20
1.073539047268699
 30
0.0
 10
-8.941866848531038
 20
0.7646989773466698
 30
0.0
 10
-8.853776599370029
 20
0.5887500000162448
 30
0.0
  0
SPLINE
  5
41
330
1F
100
AcDbEntity
  8
Default
100
AcDbSpline
210
0.0
220
0.0
230
1.0
 70
    12
 71
     2
 72
     6
 73
     3
 74
     0
 42
0.0000000001
 43
0.0000000001
 40
-0.211553587540477
 40
-0.211553587540477
 40
-0.211553587540477
 40
0.0
 40
0.0
 40
0.0
 10
-6.502477518353821
 20
0.1525787539958214
 30
0.0
 41
1.0
 10
-6.539067175206425
 20
0.0438962250914205
 30
0.0
 41
0.8875534162529749
 10
-6.649005203120783
 20
0.0112722293835135
 30
0.0
 41
1.0
  0
SPLINE
  5
42
330
1F
100
AcDbEntity
  8
Default
100
AcDbSpline
210
0.0
220
0.0
230
1.0
 70
     8
 71
     3
 72
     8
 73
     4
 74
     0
 42
0.0000000001
 43
0.0000000001
 40
0.0
 40
0.0
 40
0.0
 40
0.0
 40
1.0
 40
1.0
 40
1.0
 40
1.0
 10
-6.649005203120783
 20
0.0112722293835135
 30
0.0
 10
-6.672607570321087
 20
0.0042682514074945
 30
0.0
 10
-6.697379272183255
 20
0.0000000000000027
 30
0.0
 10
-6.721998927845885
 20
0.0000000000000036
 30
0.0
  0
LINE
  5
43
330
1F
100
AcDbEntity
  8
Default
100
AcDbLine
 10
-6.721998927845885
 20
0.0000000000000036
 30
0.0
 11
-7.452311446698971
 21
0.0000000000000299
 31
0.0
  0
SPLINE
  5
44
330
1F
100
AcDbEntity
  8
Make2D visible lines
100
AcDbSpline
210
0.0
220
0.0
230
1.0
 70
    12
 71
     2
 72
     6
 73
     3
 74
     0
 42
0.0000000001
 43
0.0000000001
 40
0.0
 40
0.0
 40
0.0
 40
0.6012576679582256
 40
0.6012576679582256
 40
0.6012576679582256
 10
4.938078286857392
 20
11.30375263810943
 30
0.0
 41
1.0
 10
4.685904875097432
 20
11.11119152789185
 30
0.0
 41
0.9924518525083379
 10
4.403383683492304
 20
11.00405581872977
 30
0.0
 41
1.0
  0
SPLINE
  5
45
330
1F
100
AcDbEntity
  8
Make2D visible lines
100
AcDbSpline
210
0.0
220
0.0
230
1.0
 70
    12
 71
     2
 72
     6
 73
     3
 74
     0
 42
0.0000000001
 43
0.0000000001
 40
0.0
 40
0.0
 40
0.0
 40
1.008606465763914
 40
1.008606465763914
 40
1.008606465763914
 10
4.403383683492304
 20
11.00405581872977
 30
0.0
 41
1.0
 10
3.926853414400399
 20
10.82334934490279
 30
0.0
 41
0.9843578174881131
 10
3.400000000002606
 20
10.84224999999912
 30
0.0
 41
1.0
  0
SPLINE
  5
46
330
1F
100
AcDbEntity
  8
Make2D visible lines
100
AcDbSpline
210
0.0
220
0.0
230
1.0
 70
    24
 71
     2
 72
     6
 73
     3
 74
     0
 42
0.0000000001
 43
0.0000000001
 40
0.0
 40
0.0
 40
0.0
 40
3.399999999999999
 40
3.399999999999999
 40
3.399999999999999
 10
3.400000000002606
 20
10.84224999999912
 30
0.0
 10
1.700000000002628
 20
10.84224999999748
 30
0.0
 10
0.0000000000026503
 20
10.84224999999585
 30
0.0
  0
SPLINE
  5
47
330
1F
100
AcDbEntity
  8
Make2D visible lines
100
AcDbSpline
210
0.0
220
0.0
230
1.0
 70
    24
 71
     2
 72
     6
 73
     3
 74
     0
 42
0.0000000001
 43
0.0000000001
 40
-3.399999999999999
 40
-3.399999999999999
 40
-3.399999999999999
 40
0.0
 40
0.0
 40
0.0
 10
0.0000000000026503
 20
10.84224999999585
 30
0.0
 10
-1.699999999997328
 20
10.84224999999748
 30
0.0
 10
-3.399999999997306
 20
10.84224999999912
 30
0.0
  0
SPLINE
  5
48
330
1F
100
AcDbEntity
  8
Make2D visible lines
100
AcDbSpline
210
0.0
220
0.0
230
1.0
 70
    12
 71
     2
 72
     6
 73
     3
 74
     0
 42
0.0000000001
 43
0.0000000001
 40
-1.008606465763914
 40
-1.008606465763914
 40
-1.008606465763914
 40
0.0
 40
0.0
 40
0.0
 10
-3.399999999997306
 20
10.84224999999912
 30
0.0
 41
1.0
 10
-3.926853414395099
 20
10.82334934490279
 30
0.0
 41
0.9843578174881131
 10
-4.403383683487004
 20
11.00405581872977
 30
0.0
 41
1.0
  0
SPLINE
  5
49
330
1F
100
AcDbEntity
  8
Make2D visible lines
100
AcDbSpline
210
0.0
220
0.0
230
1.0
 70
    12
 71
     2
 72
     6
 73
     3
 74
     0
 42
0.0000000001
 43
0.0000000001
 40
-0.6012576679582256
 40
-0.6012576679582256
 40
-0.6012576679582256
 40
0.0
 40
0.0
 40
0.0
 10
-4.403383683487004
 20
11.00405581872977
 30
0.0
 41
1.0
 10
-4.685904875092131
 20
11.11119152789185
 30
0.0
 41
0.9924518525083379
 10
-4.938078286852091
 20
11.30375263810943
 30
0.0
 41
1.0
  0
SPLINE
  5
4A
330
1F
100
AcDbEntity
  8
Default
100
AcDbSpline
210
0.0
220
0.0
230
1.0
 70
    24
 71
     2
 72
     6
 73
     3
 74
     0
 42
0.0000000001
 43
0.0000000001
 40
0.0
 40
0.0
 40
0.0
 40
5.309158539051804
 40
5.309158539051804
 40
5.309158539051804
 10
-7.232969042618141
 20
0.1525787539958415
 30
0.0
 10
-4.578389773092239
 20
0.1525787539958106
 30
0.0
 10
-1.923810503566337
 20
0.1525787539957797
 30
0.0
  0
SPLINE
  5
4B
330
1F
100
AcDbEntity
  8
Default
100
AcDbSpline
210
0.0
220
0.0
230
1.0
 70
    12
 71
     2
 72
     8
 73
     5
 74
     0
 42
0.0000000001
 43
0.0000000001
 40
0.0
 40
0.0
 40
0.0
 40
0.3167097645631024
 40
0.3167097645631024
 40
0.605160883947577
 40
0.605160883947577
 40
0.605160883947577
 10
-1.923810503566337
 20
0.1525787539957797
 30
0.0
 41
1.0
 10
-1.73459107258021
 20
0.2012120727525021
 30
0.0
 41
0.7386023741328179
 10
-1.765790675435264
 20
0.3940741414381114
 30
0.0
 41
1.0
 10
-1.767734106779069
 20
0.5707402431660344
 30
0.0
 41
0.7459465885243229
 10
-1.943490577741672
 20
0.588749999963412
 30
0.0
 41
0.9999999930443638
  0
POLYLINE
  5
4C
330
1F
100
AcDbEntity
  8
Default
100
AcDb2dPolyline
 66
     1
 10
0.0
 20
0.0
 30
0.0
  0
VERTEX
  5
4D
330
4C
100
AcDbEntity
  8
Default
100
AcDbVertex
100
AcDb2dVertex
 10
-1.943490577741672
 20
0.588749999963412
 30
0.0
  0
VERTEX
  5
4E
330
4C
100
AcDbEntity
  8
Default
100
AcDbVertex
100
AcDb2dVertex
 10
-8.908422971651042
 20
0.5887499999999743
 30
0.0
  0
SEQEND
  5
4F
330
4C
100
AcDbEntity
  8
Default
  0
SPLINE
  5
50
330
1F
100
AcDbEntity
  8
Default
100
AcDbSpline
210
0.0
220
0.0
230
1.0
 70
     8
 71
     3
 72
    11
 73
     7
 74
     0
 42
0.0000000001
 43
0.0000000001
 40
0.0
 40
0.0
 40
0.0
 40
0.0
 40
0.0845988574993078
 40
0.1984421163829465
 40
0.4958697716758607
 40
1.189939830360232
 40
1.189939830360232
 40
1.189939830360232
 40
1.189939830360232
 10
-8.908422971651042
 20
0.5887499999999743
 30
0.0
 10
-8.937015453675482
 20
0.5888436509776955
 30
0.0
 10
-8.999875571346163
 20
0.6144104622495807
 30
0.0
 10
-9.11814638788088
 20
0.7336114840239678
 30
0.0
 10
-9.271114683673744
 20
1.07437291399231
 30
0.0
 10
-9.281919128889207
 20
1.414252175010208
 30
0.0
 10
-9.240907669108385
 20
1.641580709923929
 30
0.0
  0
SPLINE
  5
51
330
1F
100
AcDbEntity
  8
Default
100
AcDbSpline
210
0.0
220
0.0
230
1.0
 70
    12
 71
     3
 72
    30
 73
    26
 74
     0
 42
0.0000000001
 43
0.0000000001
 40
-17.8484931894299
 40
-17.8484931894299
 40
-17.8484931894299
 40
-17.8484931894299
 40
-7.615999840475066
 40
-7.615999840475066
 40
-7.615999840475066
 40
-7.52816003568542
 40
-7.445381776445632
 40
-7.297640003543176
 40
-7.1738051283902
 40
-7.091305656952183
 40
-7.091305656952183
 40
-7.091305656952183
 40
-7.0
 40
-7.0
 40
-7.0
 40
-6.0
 40
-5.0
 40
-4.0
 40
-3.0
 40
-2.0
 40
-1.0
 40
0.0
 40
0.0
 40
0.0
 40
3.750000000000004
 40
3.750000000000004
 40
3.750000000000004
 40
3.750000000000004
 10
-9.240907669108385
 20
1.641580709923929
 30
0.0
 41
1.0
 10
-8.601984642009985
 20
5.006568753598065
 30
0.0
 41
1.0
 10
-7.965060421862091
 20
8.361028736880007
 30
0.0
 41
1.0
 10
-7.328136201714198
 20
11.71548872016195
 30
0.0
 41
1.0
 10
-7.322454667446028
 20
11.74420403768131
 30
0.0
 41
1.0
 10
-7.309094107101156
 20
11.79956150224595
 30
0.0
 41
1.0
 10
-7.275956267619204
 20
11.90041419925976
 30
0.0
 41
1.0
 10
-7.224034486267982
 20
12.00722081597929
 30
0.0
 41
1.0
 10
-7.148360556766725
 20
12.09931539010405
 30
0.0
 41
1.0
 10
-7.084624204310717
 20
12.13165304371249
 30
0.0
 41
1.0
 10
-7.056236441000898
 20
12.12811585097298
 30
0.0
 41
1.0
 10
-7.02593021550299
 20
12.12379047909632
 30
0.0
 41
0.9884316066092852
 10
-6.996952262405774
 20
12.11391891757107
 30
0.0
 41
0.9884316066092852
 10
-6.970308266792511
 20
12.09884376071855
 30
0.0
 41
1.0
 10
-6.829531128729148
 20
12.02055637818338
 30
0.0
 41
1.0
 10
-6.543712945106325
 20
11.8718701943614
 30
0.0
 41
1.0
 10
-6.103851757783982
 20
11.67092569413197
 30
0.0
 41
1.0
 10
-5.652272386472159
 20
11.49982142631847
 30
0.0
 41
1.0
 10
-5.194561240719295
 20
11.34014150444726
 30
0.0
 41
1.0
 10
-4.715395276231874
 20
11.26881073540698
 30
0.0
 41
1.0
 10
-4.233343930663601
 20
11.23421136461893
 30
0.0
 41
1.0
 10
-3.911039945280974
 20
11.23178641422753
 30
0.0
 41
1.0
 10
-3.749999999997353
 20
11.23125000000139
 30
0.0
 41
1.0
 10
-2.499999999997351
 20
11.23125000000187
 30
0.0
 41
1.0
 10
-1.249999999997351
 20
11.23125000000235
 30
0.0
 41
1.0
 10
0.0000000000026503
 20
11.23125000000283
 30
0.0
 41
1.0
  0
SPLINE
  5
52
330
1F
100
AcDbEntity
  8
Default
100
AcDbSpline
210
0.0
220
0.0
230
1.0
 70
    12
 71
     3
 72
    30
 73
    26
 74
     0
 42
0.0000000001
 43
0.0000000001
 40
-3.750000000000004
 40
-3.750000000000004
 40
-3.750000000000004
 40
-3.750000000000004
 40
0.0
 40
0.0
 40
0.0
 40
1.0
 40
2.0
 40
3.0
 40
4.0
 40
5.0
 40
6.0
 40
7.0
 40
7.0
 40
7.0
 40
7.091305656952183
 40
7.091305656952183
 40
7.091305656952183
 40
7.1738051283902
 40
7.297640003543176
 40
7.445381776445632
 40
7.52816003568542
 40
7.615999840475066
 40
7.615999840475066
 40
7.615999840475066
 40
17.8484931894299
 40
17.8484931894299
 40
17.8484931894299
 40
17.8484931894299
 10
0.0000000000026503
 20
11.23125000000283
 30
0.0
 41
1.0
 10
1.250000000002652
 20
11.23125000000235
 30
0.0
 41
1.0
 10
2.500000000002652
 20
11.23125000000187
 30
0.0
 41
1.0
 10
3.750000000002654
 20
11.23125000000139
 30
0.0
 41
1.0
 10
3.911039945286275
 20
11.23178641422753
 30
0.0
 41
1.0
 10
4.233343930668902
 20
11.23421136461893
 30
0.0
 41
1.0
 10
4.715395276237174
 20
11.26881073540698
 30
0.0
 41
1.0
 10
5.194561240724596
 20
11.34014150444726
 30
0.0
 41
1.0
 10
5.65227238647746
 20
11.49982142631847
 30
0.0
 41
1.0
 10
6.103851757789283
 20
11.67092569413197
 30
0.0
 41
1.0
 10
6.543712945111626
 20
11.8718701943614
 30
0.0
 41
1.0
 10
6.829531128734448
 20
12.02055637818338
 30
0.0
 41
1.0
 10
6.970308266797812
 20
12.09884376071855
 30
0.0
 41
1.0
 10
6.996952262411074
 20
12.11391891757107
 30
0.0
 41
0.9884316066092852
 10
7.025930215508291
 20
12.12379047909632
 30
0.0
 41
0.9884316066092852
 10
7.056236441006199
 20
12.12811585097298
 30
0.0
 41
1.0
 10
7.084624204316018
 20
12.13165304371249
 30
0.0
 41
1.0
 10
7.148360556772026
 20
12.09931539010405
 30
0.0
 41
1.0
 10
7.224034486273283
 20
12.00722081597929
 30
0.0
 41
1.0
 10
7.275956267624505
 20
11.90041419925976
 30
0.0
 41
1.0
 10
7.309094107106457
 20
11.79956150224595
 30
0.0
 41
1.0
 10
7.322454667451328
 20
11.74420403768131
 30
0.0
 41
1.0
 10
7.328136201719499
 20
11.71548872016195
 30
0.0
 41
1.0
 10
7.965060421867392
 20
8.361028736880007
 30
0.0
 41
1.0
 10
8.601984642015285
 20
5.006568753598065
 30
0.0
 41
1.0
 10
9.240907669113685
 20
1.641580709923929
 30
0.0
 41
1.0
  0
SPLINE
  5
53
330
1F
100
AcDbEntity
  8
Default
100
AcDbSpline
210
0.0
220
0.0
230
1.0
 70
     8
 71
     3
 72
    11
 73
     7
 74
     0
 42
0.0000000001
 43
0.0000000001
 40
-1.189939830360232
 40
-1.189939830360232
 40
-1.189939830360232
 40
-1.189939830360232
 40
-0.4958697716758607
 40
-0.1984421163829465
 40
-0.0845988574993078
 40
0.0
 40
0.0
 40
0.0
 40
0.0
 10
9.240907669113685
 20
1.641580709923929
 30
0.0
 10
9.281919128894508
 20
1.414252175010208
 30
0.0
 10
9.271114683679045
 20
1.07437291399231
 30
0.0
 10
9.118146387886181
 20
0.7336114840239678
 30
0.0
 10
8.999875571351463
 20
0.6144104622495807
 30
0.0
 10
8.937015453680782
 20
0.5888436509776955
 30
0.0
 10
8.908422971656343
 20
0.5887499999999743
 30
0.0
  0
POLYLINE
  5
54
330
1F
100
AcDbEntity
  8
Default
100
AcDb2dPolyline
 66
     1
 10
0.0
 20
0.0
 30
0.0
  0
VERTEX
  5
55
330
54
100
AcDbEntity
  8
Default
100
AcDbVertex
100
AcDb2dVertex
 10
8.908422971656343
 20
0.5887499999999743
 30
0.0
  0
VERTEX
  5
56
330
54
100
AcDbEntity
  8
Default
100
AcDbVertex
100
AcDb2dVertex
 10
1.943490577746973
 20
0.588749999963412
 30
0.0
  0
SEQEND
  5
57
330
54
100
AcDbEntity
  8
Default
  0
SPLINE
  5
58
330
1F
100
AcDbEntity
  8
Default
100
AcDbSpline
210
0.0
220
0.0
230
1.0
 70
    12
 71
     2
 72
     8
 73
     5
 74
     0
 42
0.0000000001
 43
0.0000000001
 40
-0.605160883947577
 40
-0.605160883947577
 40
-0.605160883947577
 40
-0.3167097645631024
 40
-0.3167097645631024
 40
0.0
 40
0.0
 40
0.0
 10
1.943490577746973
 20
0.588749999963412
 30
0.0
 41
0.9999999930443638
 10
1.76773410678437
 20
0.5707402431660344
 30
0.0
 41
0.7459465885243229
 10
1.765790675440565
 20
0.3940741414381114
 30
0.0
 41
1.0
 10
1.734591072585511
 20
0.2012120727525021
 30
0.0
 41
0.7386023741328179
 10
1.923810503571637
 20
0.1525787539957797
 30
0.0
 41
1.0
  0
SPLINE
  5
59
330
1F
100
AcDbEntity
  8
Default
100
AcDbSpline
210
0.0
220
0.0
230
1.0
 70
    24
 71
     2
 72
     6
 73
     3
 74
     0
 42
0.0000000001
 43
0.0000000001
 40
-5.309158539051804
 40
-5.309158539051804
 40
-5.309158539051804
 40
0.0
 40
0.0
 40
0.0
 10
1.923810503571637
 20
0.1525787539957797
 30
0.0
 10
4.578389773097539
 20
0.1525787539958106
 30
0.0
 10
7.232969042623441
 20
0.1525787539958415
 30
0.0
  0
ARC
  5
5A
330
1F
100
AcDbEntity
  8
Default
100
AcDbCircle
 10
-8.59618659594
 20
0.2238598264421936
 30
0.0
 40
0.2224166428770481
100
AcDbArc
 50
198.6922236255341
 51
258.2725353600697
  0
ARC
  5
5B
330
1F
100
AcDbEntity
  8
Default
100
AcDbCircle
 10
-8.575820583580455
 20
0.3219667312215891
 30
0.0
 40
0.3226151419916679
100
AcDbArc
 50
258.2725353600695
 51
267.206766273397
  0
SPLINE
  5
5C
330
1F
100
AcDbEntity
  8
Default
100
AcDbSpline
210
0.0
220
0.0
230
1.0
 70
    12
 71
     3
 72
    35
 73
    31
 74
     0
 42
0.0000000001
 43
0.0000000001
 40
0.0
 40
0.0
 40
0.0
 40
0.0
 40
0.9122513769519713
 40
0.9122513769519713
 40
0.9122513769519713
 40
1.912251376951971
 40
1.912251376951971
 40
1.912251376951971
 40
2.082430706518049
 40
2.082430706518049
 40
2.082430706518049
 40
2.245705597085521
 40
2.245705597085521
 40
2.245705597085521
 40
3.245705597085521
 40
3.245705597085521
 40
3.245705597085521
 40
4.168715527706236
 40
4.168715527706236
 40
4.168715527706236
 40
5.168715527706236
 40
5.168715527706236
 40
5.168715527706236
 40
5.304502684826552
 40
5.304502684826552
 40
5.304502684826552
 40
5.485477739033714
 40
5.485477739033714
 40
5.485477739033714
 40
5.546420283634844
 40
5.546420283634844
 40
5.546420283634844
 40
5.546420283634844
 10
-8.591542205542737
 20
-0.0002651114711826
 30
0.0
 41
1.0
 10
-8.060479031333617
 20
0.0000000000000023
 30
0.0
 41
1.0
 10
-7.756395239016296
 20
0.0000000000000012
 30
0.0
 41
1.0
 10
-7.452311446698971
 20
0.0
 30
0.0
 41
1.0
 10
-7.35746656496072
 20
-0.0000000000000004
 30
0.0
 41
1.0
 10
-7.238438515071365
 20
0.0810182739360133
 30
0.0
 41
1.0
 10
-7.228198027044499
 20
0.1753086976115603
 30
0.0
 41
1.0
 10
-7.222072356984127
 20
0.2317114807381092
 30
0.0
 41
0.9997177881689924
 10
-7.217160811103144
 20
0.2964983093396986
 30
0.0
 41
0.9997177881689924
 10
-7.213467547690616
 20
0.3696143325877538
 30
0.0
 41
1.0
 10
-7.213431922112052
 20
0.4260478234631951
 30
0.0
 41
0.9308066682344033
 10
-7.238435587153829
 20
0.4766398870310019
 30
0.0
 41
0.9308066682344033
 10
-7.28328828214417
 20
0.5108886229737142
 30
0.0
 41
1.0
 10
-7.305571695375434
 20
0.5279038488330348
 30
0.0
 41
1.0
 10
-7.334163622205661
 20
0.5400000000000098
 30
0.0
 41
1.0
 10
-7.362200533880788
 20
0.5400000000000098
 30
0.0
 41
1.0
 10
-7.669870510754361
 20
0.5400000000000102
 30
0.0
 41
1.0
 10
-7.977540487627934
 20
0.5400000000000108
 30
0.0
 41
1.0
 10
-8.285210464501503
 20
0.5400000000000112
 30
0.0
 41
1.0
 10
-8.326839319245622
 20
0.5400000000000114
 30
0.0
 41
1.0
 10
-8.392541108511754
 20
0.526877196620711
 30
0.0
 41
1.0
 10
-8.397605637993095
 20
0.4855575634127614
 30
0.0
 41
1.0
 10
-8.40311360714462
 20
0.4406200690413195
 30
0.0
 41
0.9994962782114493
 10
-8.406873931081783
 20
0.3954569479266211
 30
0.0
 41
0.9994962782114493
 10
-8.408880927333279
 20
0.3501364490130996
 30
0.0
 41
1.0
 10
-8.41217014042476
 20
0.2884254997444136
 30
0.0
 41
0.955925473531078
 10
-8.437334393463482
 20
0.2319459535361545
 30
0.0
 41
0.955925473531078
 10
-8.481046378839565
 20
0.188165738151248
 30
0.0
 41
1.0
 10
-8.494124661709257
 20
0.1733188843989754
 30
0.0
 41
0.9572798549558303
 10
-8.51005888699122
 20
0.1610610832498368
 30
0.0
 41
0.9278642387305256
 10
-8.528524440888326
 20
0.1523791424077525
 30
0.0
 41
0.9117531513240855
  0
SPLINE
  5
5D
330
1F
100
AcDbEntity
  8
Default
100
AcDbSpline
210
0.0
220
0.0
230
1.0
 70
    24
 71
     2
 72
     6
 73
     3
 74
     0
 42
0.0000000001
 43
0.0000000001
 40
-0.3601265109904084
 40
-0.3601265109904084
 40
-0.3601265109904084
 40
0.0
 40
0.0
 40
0.0
 10
-8.528524440888326
 20
0.1523791424077525
 30
0.0
 10
-8.708635953144636
 20
0.1524789482018744
 30
0.0
 10
-8.888747465400947
 20
0.1525787539959964
 30
0.0
  0
SPLINE
  5
5E
330
1F
100
AcDbEntity
  8
Default
100
AcDbSpline
210
0.0
220
0.0
230
1.0
 70
     8
 71
     3
 72
     8
 73
     4
 74
     0
 42
0.0000000001
 43
0.0000000001
 40
-1.0
 40
-1.0
 40
-1.0
 40
-1.0
 40
0.0
 40
0.0
 40
0.0
 40
0.0
 10
-8.888747465400947
 20
0.1525787539959964
 30
0.0
 10
-8.920978778481324
 20
0.1525787539960002
 30
0.0
 10
-8.953390982860348
 20
0.1525183932655625
 30
0.0
 10
-8.985355302735641
 20
0.1566584171538156
 30
0.0
  0
SPLINE
  5
5F
330
1F
100
AcDbEntity
  8
Default
100
AcDbSpline
210
0.0
220
0.0
230
1.0
 70
     8
 71
     3
 72
    12
 73
     8
 74
     0
 42
0.0000000001
 43
0.0000000001
 40
-1.882643585528527
 40
-1.882643585528527
 40
-1.882643585528527
 40
-1.882643585528527
 40
-1.503763677712677
 40
-1.061032220590192
 40
-0.5456832805761264
 40
-0.2765128888932682
 40
0.0
 40
0.0
 40
0.0
 40
0.0
 10
-8.985355302735641
 20
0.1566584171538156
 30
0.0
 10
-9.111465104168264
 20
0.1729921790643102
 30
0.0
 10
-9.361862337321163
 20
0.3099004743505681
 30
0.0
 10
-9.604676447760212
 20
0.6956934905061424
 30
0.0
 10
-9.697526439842513
 20
1.09725276203288
 30
0.0
 10
-9.708375353893171
 20
1.452224519479913
 30
0.0
 10
-9.687618172947843
 20
1.633030989492872
 30
0.0
 10
-9.670621564679742
 20
1.72375537629401
 30
0.0
  0
SPLINE
  5
60
330
1F
100
AcDbEntity
  8
Default
100
AcDbSpline
210
0.0
220
0.0
230
1.0
 70
    12
 71
     3
 72
    26
 73
    22
 74
     0
 42
0.0000000001
 43
0.0000000001
 40
-23.82068071894498
 40
-23.82068071894498
 40
-23.82068071894498
 40
-23.82068071894498
 40
-13.58928802782913
 40
-13.58928802782913
 40
-13.58928802782913
 40
-12.58928802782913
 40
-11.58928802782913
 40
-10.58928802782913
 40
-9.589288027829125
 40
-8.589288027829125
 40
-8.589288027829125
 40
-8.589288027829125
 40
-6.749838568985957
 40
-6.749838568985957
 40
-6.749838568985957
 40
-5.749838568985957
 40
-4.749838568985957
 40
-3.749838568985957
 40
-3.749838568985957
 40
-3.749838568985957
 40
0.0
 40
0.0
 40
0.0
 40
0.0
 10
-9.670621564679742
 20
1.72375537629401
 30
0.0
 41
1.0
 10
-9.031489312747638
 20
5.089847101776663
 30
0.0
 41
1.0
 10
-8.394561247918322
 20
8.444329854237838
 30
0.0
 41
1.0
 10
-7.757633183089009
 20
11.79881260669901
 30
0.0
 41
1.0
 10
-7.739396228434174
 20
11.89090412116827
 30
0.0
 41
1.0
 10
-7.686826324959398
 20
12.07212813714344
 30
0.0
 41
1.0
 10
-7.549800235371851
 20
12.32091656899396
 30
0.0
 41
1.0
 10
-7.338972542431033
 20
12.51593629715272
 30
0.0
 41
1.0
 10
-7.056989612822196
 20
12.59432727921582
 30
0.0
 41
1.0
 10
-6.871231658240543
 20
12.53303486293809
 30
0.0
 41
1.0
 10
-6.789607031626787
 20
12.48794463682504
 30
0.0
 41
1.0
 10
-6.252824357134526
 20
12.18891135282014
 30
0.0
 41
0.9957547492158003
 10
-5.677372023588524
 20
11.95000960403209
 30
0.0
 41
0.9957547492158003
 10
-5.070578849399547
 20
11.77428198397008
 30
0.0
 41
1.0
 10
-4.926042872780684
 20
11.74510412946222
 30
0.0
 41
1.0
 10
-4.634383387331349
 20
11.69846325933713
 30
0.0
 41
1.0
 10
-4.192447621785901
 20
11.67189710402615
 30
0.0
 41
1.0
 10
-3.89747405444658
 20
11.66911360858841
 30
0.0
 41
1.0
 10
-3.749919284490332
 20
11.66874999999746
 30
0.0
 41
1.0
 10
-2.499946189659338
 20
11.66874999999737
 30
0.0
 41
1.0
 10
-1.249973094828343
 20
11.66874999999728
 30
0.0
 41
1.0
 10
0.0000000000026503
 20
11.66874999999719
 30
0.0
 41
1.0
  0
SPLINE
  5
61
330
1F
100
AcDbEntity
  8
Default
100
AcDbSpline
210
0.0
220
0.0
230
1.0
 70
    12
 71
     3
 72
    26
 73
    22
 74
     0
 42
0.0000000001
 43
0.0000000001
 40
0.0
 40
0.0
 40
0.0
 40
0.0
 40
3.749838568985957
 40
3.749838568985957
 40
3.749838568985957
 40
4.749838568985957
 40
5.749838568985957
 40
6.749838568985957
 40
6.749838568985957
 40
6.749838568985957
 40
8.589288027829125
 40
8.589288027829125
 40
8.589288027829125
 40
9.589288027829125
 40
10.58928802782913
 40
11.58928802782913
 40
12.58928802782913
 40
13.58928802782913
 40
13.58928802782913
 40
13.58928802782913
 40
23.82068071894498
 40
23.82068071894498
 40
23.82068071894498
 40
23.82068071894498
 10
0.0000000000026503
 20
11.66874999999719
 30
0.0
 41
1.0
 10
1.249973094833644
 20
11.66874999999728
 30
0.0
 41
1.0
 10
2.499946189664639
 20
11.66874999999737
 30
0.0
 41
1.0
 10
3.749919284495633
 20
11.66874999999746
 30
0.0
 41
1.0
 10
3.89747405445188
 20
11.66911360858841
 30
0.0
 41
1.0
 10
4.192447621791201
 20
11.67189710402615
 30
0.0
 41
1.0
 10
4.63438338733665
 20
11.69846325933713
 30
0.0
 41
1.0
 10
4.926042872785985
 20
11.74510412946222
 30
0.0
 41
1.0
 10
5.070578849404848
 20
11.77428198397008
 30
0.0
 41
1.0
 10
5.677372023593824
 20
11.95000960403209
 30
0.0
 41
0.9957547492158003
 10
6.252824357139827
 20
12.18891135282014
 30
0.0
 41
0.9957547492158003
 10
6.789607031632087
 20
12.48794463682504
 30
0.0
 41
1.0
 10
6.871231658245843
 20
12.53303486293809
 30
0.0
 41
1.0
 10
7.056989612827497
 20
12.59432727921582
 30
0.0
 41
1.0
 10
7.338972542436334
 20
12.51593629715272
 30
0.0
 41
1.0
 10
7.549800235377152
 20
12.32091656899396
 30
0.0
 41
1.0
 10
7.686826324964699
 20
12.07212813714344
 30
0.0
 41
1.0
 10
7.739396228439475
 20
11.89090412116827
 30
0.0
 41
1.0
 10
7.75763318309431
 20
11.79881260669901
 30
0.0
 41
1.0
 10
8.394561247923622
 20
8.444329854237838
 30
0.0
 41
1.0
 10
9.031489312752939
 20
5.089847101776663
 30
0.0
 41
1.0
 10
9.670621564685042
 20
1.72375537629401
 30
0.0
 41
1.0
  0
SPLINE
  5
62
330
1F
100
AcDbEntity
  8
Default
100
AcDbSpline
210
0.0
220
0.0
230
1.0
 70
     8
 71
     3
 72
    12
 73
     8
 74
     0
 42
0.0000000001
 43
0.0000000001
 40
0.0
 40
0.0
 40
0.0
 40
0.0
 40
0.2765128888932682
 40
0.5456832805761264
 40
1.061032220590192
 40
1.503763677712677
 40
1.882643585528527
 40
1.882643585528527
 40
1.882643585528527
 40
1.882643585528527
 10
9.670621564685042
 20
1.72375537629401
 30
0.0
 10
9.687618172953144
 20
1.633030989492872
 30
0.0
 10
9.708375353898472
 20
1.452224519479913
 30
0.0
 10
9.697526439847813
 20
1.09725276203288
 30
0.0
 10
9.604676447765513
 20
0.6956934905061424
 30
0.0
 10
9.361862337326464
 20
0.3099004743505681
 30
0.0
 10
9.111465104173565
 20
0.1729921790643102
 30
0.0
 10
8.985355302740942
 20
0.1566584171538156
 30
0.0
  0
SPLINE
  5
63
330
1F
100
AcDbEntity
  8
Default
100
AcDbSpline
210
0.0
220
0.0
230
1.0
 70
     8
 71
     3
 72
     8
 73
     4
 74
     0
 42
0.0000000001
 43
0.0000000001
 40
0.0
 40
0.0
 40
0.0
 40
0.0
 40
1.0
 40
1.0
 40
1.0
 40
1.0
 10
8.985355302740942
 20
0.1566584171538156
 30
0.0
 10
8.953390982865649
 20
0.1525183932655625
 30
0.0
 10
8.920978778486624
 20
0.1525787539960002
 30
0.0
 10
8.888747465406247
 20
0.1525787539959964
 30
0.0
  0
SPLINE
  5
64
330
1F
100
AcDbEntity
  8
Default
100
AcDbSpline
210
0.0
220
0.0
230
1.0
 70
    24
 71
     2
 72
     6
 73
     3
 74
     0
 42
0.0000000001
 43
0.0000000001
 40
0.0
 40
0.0
 40
0.0
 40
0.3601265109904084
 40
0.3601265109904084
 40
0.3601265109904084
 10
8.888747465406247
 20
0.1525787539959964
 30
0.0
 10
8.708635953149937
 20
0.1524789482018744
 30
0.0
 10
8.528524440893626
 20
0.1523791424077525
 30
0.0
  0
SPLINE
  5
65
330
1F
100
AcDbEntity
  8
Default
100
AcDbSpline
210
0.0
220
0.0
230
1.0
 70
    12
 71
     3
 72
    35
 73
    31
 74
     0
 42
0.0000000001
 43
0.0000000001
 40
-5.546420283634844
 40
-5.546420283634844
 40
-5.546420283634844
 40
-5.546420283634844
 40
-5.485477739033714
 40
-5.485477739033714
 40
-5.485477739033714
 40
-5.304502684826552
 40
-5.304502684826552
 40
-5.304502684826552
 40
-5.168715527706236
 40
-5.168715527706236
 40
-5.168715527706236
 40
-4.168715527706236
 40
-4.168715527706236
 40
-4.168715527706236
 40
-3.245705597085521
 40
-3.245705597085521
 40
-3.245705597085521
 40
-2.245705597085521
 40
-2.245705597085521
 40
-2.245705597085521
 40
-2.082430706518049
 40
-2.082430706518049
 40
-2.082430706518049
 40
-1.912251376951971
 40
-1.912251376951971
 40
-1.912251376951971
 40
-0.9122513769519713
 40
-0.9122513769519713
 40
-0.9122513769519713
 40
0.0
 40
0.0
 40
0.0
 40
0.0
 10
8.528524440893626
 20
0.1523791424077525
 30
0.0
 41
0.9117531513240855
 10
8.510058886996521
 20
0.1610610832498368
 30
0.0
 41
0.9278642387305256
 10
8.49412466171456
 20
0.1733188843989754
 30
0.0
 41
0.9572798549558303
 10
8.481046378844866
 20
0.188165738151248
 30
0.0
 41
1.0
 10
8.437334393468781
 20
0.2319459535361545
 30
0.0
 41
0.955925473531078
 10
8.412170140430058
 20
0.2884254997444136
 30
0.0
 41
0.955925473531078
 10
8.40888092733858
 20
0.3501364490130996
 30
0.0
 41
1.0
 10
8.406873931087084
 20
0.3954569479266211
 30
0.0
 41
0.9994962782114493
 10
8.40311360714992
 20
0.4406200690413195
 30
0.0
 41
0.9994962782114493
 10
8.397605637998396
 20
0.4855575634127614
 30
0.0
 41
1.0
 10
8.392541108517054
 20
0.526877196620711
 30
0.0
 41
1.0
 10
8.326839319250922
 20
0.5400000000000114
 30
0.0
 41
1.0
 10
8.285210464506804
 20
0.5400000000000112
 30
0.0
 41
1.0
 10
7.977540487633235
 20
0.5400000000000108
 30
0.0
 41
1.0
 10
7.669870510759662
 20
0.5400000000000102
 30
0.0
 41
1.0
 10
7.362200533886089
 20
0.5400000000000098
 30
0.0
 41
1.0
 10
7.334163622210962
 20
0.5400000000000098
 30
0.0
 41
1.0
 10
7.305571695380735
 20
0.5279038488330348
 30
0.0
 41
1.0
 10
7.283288282149471
 20
0.5108886229737142
 30
0.0
 41
1.0
 10
7.238435587159128
 20
0.4766398870310019
 30
0.0
 41
0.9308066682344033
 10
7.213431922117351
 20
0.4260478234631951
 30
0.0
 41
0.9308066682344033
 10
7.213467547695917
 20
0.3696143325877538
 30
0.0
 41
1.0
 10
7.217160811108446
 20
0.2964983093396986
 30
0.0
 41
0.9997177881689924
 10
7.222072356989427
 20
0.2317114807381092
 30
0.0
 41
0.9997177881689924
 10
7.2281980270498
 20
0.1753086976115603
 30
0.0
 41
1.0
 10
7.238438515076666
 20
0.0810182739360133
 30
0.0
 41
1.0
 10
7.357466564966021
 20
-0.0000000000000004
 30
0.0
 41
1.0
 10
7.452311446704272
 20
0.0
 30
0.0
 41
1.0
 10
7.756395239021597
 20
0.0000000000000012
 30
0.0
 41
1.0
 10
8.060479031338918
 20
0.0000000000000023
 30
0.0
 41
1.0
 10
8.591542205548038
 20
-0.0002651114711826
 30
0.0
 41
1.0
  0
ARC
  5
66
330
1F
100
AcDbEntity
  8
Default
100
AcDbCircle
 10
8.575820583585756
 20
0.3219667312215891
 30
0.0
 40
0.3226151419916679
100
AcDbArc
 50
272.7932337266029
 51
281.7274646399305
  0
ARC
  5
67
330
1F
100
AcDbEntity
  8
Default
100
AcDbCircle
 10
8.596186595945301
 20
0.2238598264421936
 30
0.0
 40
0.2224166428770481
100
AcDbArc
 50
281.7274646399303
 51
341.3077763744659
  0
SPLINE
  5
68
330
1F
100
AcDbEntity
  8
Default
100
AcDbSpline
210
0.0
220
0.0
230
1.0
 70
    12
 71
     2
 72
     6
 73
     3
 74
     0
 42
0.0000000001
 43
0.0000000001
 40
-0.211553587540477
 40
-0.211553587540477
 40
-0.211553587540477
 40
0.0
 40
0.0
 40
0.0
 10
6.502477518359122
 20
0.1525787539958214
 30
0.0
 41
1.0
 10
6.539067175211725
 20
0.0438962250914205
 30
0.0
 41
0.8875534162529749
 10
6.649005203126084
 20
0.0112722293835135
 30
0.0
 41
1.0
  0
SPLINE
  5
69
330
1F
100
AcDbEntity
  8
Default
100
AcDbSpline
210
0.0
220
0.0
230
1.0
 70
     8
 71
     3
 72
     8
 73
     4
 74
     0
 42
0.0000000001
 43
0.0000000001
 40
0.0
 40
0.0
 40
0.0
 40
0.0
 40
1.0
 40
1.0
 40
1.0
 40
1.0
 10
6.649005203126084
 20
0.0112722293835135
 30
0.0
 10
6.672607570326388
 20
0.0042682514074945
 30
0.0
 10
6.697379272188556
 20
0.0000000000000027
 30
0.0
 10
6.721998927851185
 20
0.0000000000000036
 30
0.0
  0
LINE
  5
6A
330
1F
100
AcDbEntity
  8
Default
100
AcDbLine
 10
6.721998927851185
 20
0.0000000000000036
 30
0.0
 11
7.452311446704272
 21
0.0000000000000299
 31
0.0
  0
LINE
  5
6B
330
1F
100
AcDbEntity
  8
Make2D visible lines
100
AcDbLine
 10
6.313222426886018
 20
11.76790423380818
 30
0.0
 11
8.908927380989105
 21
1.849471051043777
 31
0.0
  0
SPLINE
  5
6C
330
1F
100
AcDbEntity
  8
Make2D visible lines
100
AcDbSpline
210
0.0
220
0.0
230
1.0
 70
     8
 71
     3
 72
    11
 73
     7
 74
     0
 42
0.0000000001
 43
0.0000000001
 40
0.0
 40
0.0
 40
0.0
 40
0.0
 40
0.1808079666173053
 40
0.3573749741682617
 40
0.6971779454963127
 40
1.284847912810405
 40
1.284847912810405
 40
1.284847912810405
 40
1.284847912810405
 10
8.908927380989105
 20
1.849471051043777
 30
0.0
 10
8.924896261509293
 20
1.787942529339398
 30
0.0
 10
8.951101138419556
 20
1.671789227455212
 30
0.0
 10
8.98617775955389
 20
1.441694512673601
 30
0.0
 10
9.002700310660767
 20
1.073539047268699
 30
0.0
 10
8.941866848536339
 20
0.7646989773466698
 30
0.0
 10
8.85377659937533
 20
0.5887500000162448
 30
0.0
  0
SPLINE
  5
6D
330
1F
100
AcDbEntity
  8
Make2D visible lines
100
AcDbSpline
210
0.0
220
0.0
230
1.0
 70
     8
 71
     3
 72
    12
 73
     8
 74
     0
 42
0.0000000001
 43
0.0000000001
 40
0.0
 40
0.0
 40
0.0
 40
0.0
 40
0.1045449495724591
 40
0.2148937681762403
 40
0.5007879948566512
 40
0.8561420073208538
 40
1.264081239529036
 40
1.264081239529036
 40
1.264081239529036
 40
1.264081239529036
 10
8.246604095512172
 20
0.5946423465464109
 30
0.0
 10
8.280550316408924
 20
0.6020719707281382
 30
0.0
 10
8.34784910936541
 20
0.6310631011182968
 30
0.0
 10
8.463624316938333
 20
0.7555571056216934
 30
0.0
 10
8.547639076535454
 20
0.9968449928249623
 30
0.0
 10
8.563302174806221
 20
1.348128394503139
 30
0.0
 10
8.521299246645253
 20
1.600551821673184
 30
0.0
 10
8.487381968543758
 20
1.732138477176544
 30
0.0
  0
SPLINE
  5
6E
330
1F
100
AcDbEntity
  8
Make2D visible lines
100
AcDbSpline
210
0.0
220
0.0
230
1.0
 70
    24
 71
     2
 72
     6
 73
     3
 74
     0
 42
0.0000000001
 43
0.0000000001
 40
0.0
 40
0.0
 40
0.0
 40
10.18306939563208
 40
10.18306939563208
 40
10.18306939563208
 10
8.487381968543758
 20
1.732138477176544
 30
0.0
 10
7.196624356160446
 20
6.664279276977405
 30
0.0
 10
5.905866743777134
 20
11.59642007677827
 30
0.0
  0
POLYLINE
  5
6F
330
1F
100
AcDbEntity
  8
Default
100
AcDb2dPolyline
 66
     1
 10
0.0
 20
0.0
 30
0.0
  0
VERTEX
  5
70
330
6F
100
AcDbEntity
  8
Default
100
AcDbVertex
100
AcDb2dVertex
 10
-1.943490577741672
 20
0.588749999963412
 30
0.0
  0
VERTEX
  5
71
330
6F
100
AcDbEntity
  8
Default
100
AcDbVertex
100
AcDb2dVertex
 10
1.943490577746973
 20
0.588749999963412
 30
0.0
  0
SEQEND
  5
72
330
6F
100
AcDbEntity
  8
Default
  0
POLYLINE
  5
73
330
1F
100
AcDbEntity
  8
Default
100
AcDb2dPolyline
 66
     1
 10
0.0
 20
0.0
 30
0.0
  0
VERTEX
  5
74
330
73
100
AcDbEntity
  8
Default
100
AcDbVertex
100
AcDb2dVertex
 10
1.923810503571637
 20
0.1525787539957797
 30
0.0
  0
VERTEX
  5
75
330
73
100
AcDbEntity
  8
Default
100
AcDbVertex
100
AcDb2dVertex
 10
-1.923810503566337
 20
0.1525787539957797
 30
0.0
  0
SEQEND
  5
76
330
73
100
AcDbEntity
  8
Default
  0
SPLINE
  5
77
330
1F
100
AcDbEntity
  8
Make2D visible lines
100
AcDbSpline
210
0.0
220
0.0
230
1.0
 70
    12
 71
     2
 72
     6
 73
     3
 74
     0
 42
0.0000000001
 43
0.0000000001
 40
0.0
 40
0.0
 40
0.0
 40
0.0069107903204605
 40
0.0069107903204605
 40
0.0069107903204605
 10
31.02510084461779
 20
11.01743659990862
 30
0.0
 41
1.0
 10
31.02578903333955
 20
11.02082306390346
 30
0.0
 41
0.9998752443302995
 10
31.02636991066183
 20
11.02422957584995
 30
0.0
 41
1.0
  0
SPLINE
  5
78
330
1F
100
AcDbEntity
  8
Make2D visible lines
100
AcDbSpline
210
0.0
220
0.0
230
1.0
 70
     8
 71
     3
 72
    11
 73
     7
 74
     0
 42
0.0000000001
 43
0.0000000001
 40
0.0
 40
0.0
 40
0.0
 40
0.0
 40
0.4159378345350481
 40
0.4818392722098486
 40
0.61768497100472
 40
0.752773533095209
 40
0.752773533095209
 40
0.752773533095209
 40
0.752773533095209
 10
32.5499259367829
 20
0.1512500000556773
 30
0.0
 10
32.6884717204269
 20
0.1583451110739899
 30
0.0
 10
32.84932489694478
 20
0.1414917295164001
 30
0.0
 10
33.05496984067634
 20
0.1588010538891932
 30
0.0
 10
33.14960087711021
 20
0.237433514730164
 30
0.0
 10
33.17927625463201
 20
0.3215601154978443
 30
0.0
 10
33.17947634530914
 20
0.3683607840883141
 30
0.0
  0
SPLINE
  5
79
330
1F
100
AcDbEntity
  8
Make2D visible lines
100
AcDbSpline
210
0.0
220
0.0
230
1.0
 70
     8
 71
     3
 72
    13
 73
     9
 74
     0
 42
0.0000000001
 43
0.0000000001
 40
0.0
 40
0.0
 40
0.0
 40
0.0
 40
0.0645918922571933
 40
0.127569144864081
 40
0.2513808316523651
 40
0.3175277900059248
 40
0.3207867867362607
 40
0.7170587281926446
 40
0.7170587281926446
 40
0.7170587281926446
 40
0.7170587281926446
 10
33.18128655285277
 20
0.346385892231618
 30
0.0
 10
33.18365885360276
 20
0.3249450831641772
 30
0.0
 10
33.19458878339043
 20
0.2834954290521402
 30
0.0
 10
33.23845690141292
 20
0.210892073592651
 30
0.0
 10
33.31105246087122
 20
0.1618325785058019
 30
0.0
 10
33.37540902038351
 20
0.1512648036215163
 30
0.0
 10
33.53062396627021
 20
0.1512126780757154
 30
0.0
 10
33.66381553373562
 20
0.1512801696995873
 30
0.0
 10
33.8016374762534
 20
0.1512499974492805
 30
0.0
  0
SPLINE
  5
7A
330
1F
100
AcDbEntity
  8
Make2D visible lines
100
AcDbSpline
210
0.0
220
0.0
230
1.0
 70
    24
 71
     2
 72
     6
 73
     3
 74
     0
 42
0.0000000001
 43
0.0000000001
 40
0.0
 40
0.0
 40
0.0
 40
7.66562781082844
 40
7.66562781082844
 40
7.66562781082844
 10
33.8016374762534
 20
0.1512499974492805
 30
0.0
 10
37.63732031785993
 20
0.1512499987246438
 30
0.0
 10
41.47300315946647
 20
0.151250000000007
 30
0.0
  0
SPLINE
  5
7B
330
1F
100
AcDbEntity
  8
Default
100
AcDbSpline
210
0.0
220
0.0
230
1.0
 70
    12
 71
     2
 72
     6
 73
     3
 74
     0
 42
0.0000000001
 43
0.0000000001
 40
0.0
 40
0.0
 40
0.0
 40
0.3211240945390638
 40
0.3211240945390638
 40
0.3211240945390638
 10
33.17998860083163
 20
0.3683646126931484
 30
0.0
 41
1.0
 10
33.17851324765715
 20
0.5657029229883656
 30
0.0
 41
0.7425023569909016
 10
33.37465834654735
 20
0.5874212460938948
 30
0.0
 41
1.0
  0
SPLINE
  5
7C
330
1F
100
AcDbEntity
  8
Default
100
AcDbSpline
210
0.0
220
0.0
230
1.0
 70
    24
 71
     2
 72
     6
 73
     3
 74
     0
 42
0.0000000001
 43
0.0000000001
 40
0.0
 40
0.0
 40
0.0
 40
0.4188446961876835
 40
0.4188446961876835
 40
0.4188446961876835
 10
33.37465834654735
 20
0.5874212460938948
 30
0.0
 10
33.58408069464119
 20
0.5874212460490408
 30
0.0
 10
33.79350304273503
 20
0.5874212460041868
 30
0.0
  0
SPLINE
  5
7D
330
1F
100
AcDbEntity
  8
Default
100
AcDbSpline
210
0.0
220
0.0
230
1.0
 70
    24
 71
     2
 72
     6
 73
     3
 74
     0
 42
0.0000000001
 43
0.0000000001
 40
0.0
 40
0.0
 40
0.0
 40
9.878551154483567
 40
9.878551154483567
 40
9.878551154483567
 10
33.79350304273503
 20
0.5874212460041868
 30
0.0
 10
38.73277861997681
 20
0.5874212460041415
 30
0.0
 10
43.6720541972186
 20
0.5874212460040962
 30
0.0
  0
SPLINE
  5
7E
330
1F
100
AcDbEntity
  8
Default
100
AcDbSpline
210
0.0
220
0.0
230
1.0
 70
     8
 71
     3
 72
     8
 73
     4
 74
     0
 42
0.0000000001
 43
0.0000000001
 40
-1.0
 40
-1.0
 40
-1.0
 40
-1.0
 40
0.0
 40
0.0
 40
0.0
 40
0.0
 10
43.6720541972186
 20
0.5874212460040962
 30
0.0
 10
43.70569949483879
 20
0.5874212460040958
 30
0.0
 10
43.73946699539535
 20
0.5908637538263873
 30
0.0
 10
43.77252047441872
 20
0.5971465538712157
 30
0.0
  0
SPLINE
  5
7F
330
1F
100
AcDbEntity
  8
Default
100
AcDbSpline
210
0.0
220
0.0
230
1.0
 70
     8
 71
     3
 72
    12
 73
     8
 74
     0
 42
0.0000000001
 43
0.0000000001
 40
-1.256367916518869
 40
-1.256367916518869
 40
-1.256367916518869
 40
-1.256367916518869
 40
-0.9823984631797978
 40
-0.6757000851809867
 40
-0.3400530620765876
 40
-0.1710042736780821
 40
0.0
 40
0.0
 40
0.0
 40
0.0
 10
43.77252047441872
 20
0.5971465538712157
 30
0.0
 10
43.86256192958238
 20
0.6142616193727569
 30
0.0
 10
44.0382011811454
 20
0.7095271891638906
 30
0.0
 10
44.21814511196626
 20
0.9643176976111016
 30
0.0
 10
44.28566802119072
 20
1.230088982482319
 30
0.0
 10
44.28560043449956
 20
1.456238959567053
 30
0.0
 10
44.26625328707544
 20
1.568271903875915
 30
0.0
 10
44.25057058893833
 20
1.627411950362194
 30
0.0
  0
SPLINE
  5
80
330
1F
100
AcDbEntity
  8
Default
100
AcDbSpline
210
0.0
220
0.0
230
1.0
 70
    24
 71
     2
 72
     6
 73
     3
 74
     0
 42
0.0000000001
 43
0.0000000001
 40
-10.41363611845926
 40
-10.41363611845926
 40
-10.41363611845926
 40
0.0
 40
0.0
 40
0.0
 10
44.25057058893833
 20
1.627411950362194
 30
0.0
 10
42.89554589415707
 20
6.659117063976371
 30
0.0
 10
41.5405211993758
 20
11.69082217759055
 30
0.0
  0
SPLINE
  5
81
330
1F
100
AcDbEntity
  8
Default
100
AcDbSpline
210
0.0
220
0.0
230
1.0
 70
    12
 71
     3
 72
    10
 73
     6
 74
     0
 42
0.0000000001
 43
0.0000000001
 40
-0.7432422403753207
 40
-0.7432422403753207
 40
-0.7432422403753207
 40
-0.7432422403753207
 40
-0.4087616417526939
 40
-0.2886660316447319
 40
-0.0000142522616549
 40
-0.0000142522616549
 40
-0.0000142522616549
 40
-0.0000142522616549
 10
41.5405211993758
 20
11.69082217759055
 30
0.0
 41
1.0
 10
41.51049517765259
 20
11.79928719277445
 30
0.0
 41
1.0
 10
41.4430166832617
 20
11.92649302819422
 30
0.0
 41
1.0
 10
41.29758389829827
 20
12.06741682048352
 30
0.0
 41
1.0
 10
41.20725522745563
 20
12.10953404820672
 30
0.0
 41
1.0
 10
41.14353723887558
 20
12.12193617116669
 30
0.0
 41
1.0
  0
SPLINE
  5
82
330
1F
100
AcDbEntity
  8
Default
100
AcDbSpline
210
0.0
220
0.0
230
1.0
 70
    12
 71
     2
 72
     6
 73
     3
 74
     0
 42
0.0000000001
 43
0.0000000001
 40
-0.0190705034318554
 40
-0.0190705034318554
 40
-0.0190705034318554
 40
0.0
 40
0.0
 40
0.0
 10
41.14353723887558
 20
12.12193617116669
 30
0.0
 41
1.0
 10
41.13417296236354
 20
12.12375946719421
 30
0.0
 41
0.999683517008335
 10
41.12473860489474
 20
12.12514386983682
 30
0.0
 41
0.999999871234565
  0
SPLINE
  5
83
330
1F
100
AcDbEntity
  8
Default
100
AcDbSpline
210
0.0
220
0.0
230
1.0
 70
    12
 71
     2
 72
     8
 73
     5
 74
     0
 42
0.0000000001
 43
0.0000000001
 40
0.0
 40
0.0
 40
0.0
 40
0.0924484761156222
 40
0.0924484761156222
 40
0.2336560678843569
 40
0.2336560678843569
 40
0.2336560678843569
 10
41.12473860489474
 20
12.12514386983682
 30
0.0
 41
0.9999995706939798
 10
41.07886958011058
 20
12.13210265331877
 30
0.0
 41
0.9945014947976099
 10
41.03255927374724
 20
12.12931942295961
 30
0.0
 41
1.0
 10
40.9615109453424
 20
12.12491311002677
 30
0.0
 41
0.9877784638459917
 10
40.8952714587092
 20
12.09884376071856
 30
0.0
 41
1.0
  0
ARC
  5
84
330
1F
100
AcDbEntity
  8
Default
100
AcDbCircle
 10
35.4044347418718
 20
26.07033683217787
 30
0.0
 40
15.01172563354411
100
AcDbArc
 50
281.4277668771628
 51
291.4549686071013
  0
ARC
  5
85
330
1F
100
AcDbEntity
  8
Default
100
AcDbCircle
 10
38.75738691568976
 20
9.483038932934294
 30
0.0
 40
1.911061958284869
100
AcDbArc
 50
101.4277668771631
 51
111.0178002976082
  0
SPLINE
  5
86
330
1F
100
AcDbEntity
  8
Default
100
AcDbSpline
210
0.0
220
0.0
230
1.0
 70
    12
 71
     2
 72
     6
 73
     3
 74
     0
 42
0.0000000001
 43
0.0000000001
 40
-0.1178533984600588
 40
-0.1178533984600588
 40
-0.1178533984600588
 40
0.0
 40
0.0
 40
0.0
 10
38.07196931084442
 20
11.26695611581349
 30
0.0
 41
1.0
 10
38.02012650316907
 20
11.2359761148388
 30
0.0
 41
0.9639516831847292
 10
37.95973248717549
 20
11.23597658348235
 30
0.0
 41
1.0
  0
SPLINE
  5
87
330
1F
100
AcDbEntity
  8
Default
100
AcDbSpline
210
0.0
220
0.0
230
1.0
 70
    12
 71
     2
 72
     8
 73
     5
 74
     0
 42
0.0000000001
 43
0.0000000001
 40
0.0
 40
0.0
 40
0.0
 40
0.1717819738134855
 40
0.1717819738134855
 40
0.343563947626971
 40
0.343563947626971
 40
0.343563947626971
 10
37.95973248717549
 20
11.23597658348235
 30
0.0
 41
1.0
 10
37.86913574983345
 20
11.23596297250521
 30
0.0
 41
0.9238778425203193
 10
37.80506512381794
 20
11.30001548131055
 30
0.0
 41
1.0
 10
37.74099449780243
 20
11.36406799011588
 30
0.0
 41
0.9238778425203193
 10
37.74098249552122
 20
11.45470744358629
 30
0.0
 41
1.0
  0
SPLINE
  5
88
330
1F
100
AcDbEntity
  8
Default
100
AcDbSpline
210
0.0
220
0.0
230
1.0
 70
     8
 71
     3
 72
    11
 73
     7
 74
     0
 42
0.0000000001
 43
0.0000000001
 40
-0.6923244433759334
 40
-0.6923244433759334
 40
-0.6923244433759334
 40
-0.6923244433759334
 40
-0.4552812475966863
 40
-0.384497341986419
 40
-0.2824629699385423
 40
0.0
 40
0.0
 40
0.0
 40
0.0
 10
37.74098249552122
 20
11.45470744358629
 30
0.0
 10
37.73910580844365
 20
11.53584121994334
 30
0.0
 10
37.80277598080038
 20
11.63113167107209
 30
0.0
 10
37.92963516543102
 20
11.68428107348924
 30
0.0
 10
38.07329231350668
 20
11.73198281140984
 30
0.0
 10
38.19915900631919
 20
11.75950213171444
 30
0.0
 10
38.2910287500121
 20
11.77914463824212
 30
0.0
  0
SPLINE
  5
89
330
1F
100
AcDbEntity
  8
Default
100
AcDbSpline
210
0.0
220
0.0
230
1.0
 70
    12
 71
     2
 72
     6
 73
     3
 74
     0
 42
0.0000000001
 43
0.0000000001
 40
-2.549388596132513
 40
-2.549388596132513
 40
-2.549388596132513
 40
0.0
 40
0.0
 40
0.0
 10
38.2910287500121
 20
11.77914463824212
 30
0.0
 41
1.0
 10
39.57549706711364
 20
12.03994323602687
 30
0.0
 41
0.9962671304741558
 10
40.76543980359667
 20
12.50578481718578
 30
0.0
 41
1.0
  0
SPLINE
  5
8A
330
1F
100
AcDbEntity
  8
Default
100
AcDbSpline
210
0.0
220
0.0
230
1.0
 70
     8
 71
     3
 72
     8
 73
     4
 74
     0
 42
0.0000000001
 43
0.0000000001
 40
0.0
 40
0.0
 40
0.0
 40
0.0
 40
1.0
 40
1.0
 40
1.0
 40
1.0
 10
40.76543980359667
 20
12.50578481718578
 30
0.0
 10
41.02629125841867
 20
12.60790355822792
 30
0.0
 10
41.37938040314893
 20
12.55670018904231
 30
0.0
 10
41.59626771310887
 20
12.37941055727236
 30
0.0
  0
SPLINE
  5
8B
330
1F
100
AcDbEntity
  8
Default
100
AcDbSpline
210
0.0
220
0.0
230
1.0
 70
    12
 71
     2
 72
     6
 73
     3
 74
     0
 42
0.0000000001
 43
0.0000000001
 40
-0.6920571584047958
 40
-0.6920571584047958
 40
-0.6920571584047958
 40
0.0
 40
0.0
 40
0.0
 10
41.59626771310887
 20
12.37941055727236
 30
0.0
 41
1.0
 10
41.87353129342193
 20
12.15276770727804
 30
0.0
 41
0.9501587101388346
 10
41.96298022630035
 20
11.80458501807744
 30
0.0
 41
1.0
  0
SPLINE
  5
8C
330
1F
100
AcDbEntity
  8
Default
100
AcDbSpline
210
0.0
220
0.0
230
1.0
 70
    24
 71
     2
 72
     6
 73
     3
 74
     0
 42
0.0000000001
 43
0.0000000001
 40
-10.4191782813946
 40
-10.4191782813946
 40
-10.4191782813946
 40
0.0
 40
0.0
 40
0.0
 10
41.96298022630035
 20
11.80458501807744
 30
0.0
 10
43.31800305035672
 20
6.77287462359081
 30
0.0
 10
44.67302587441309
 20
1.741164229104183
 30
0.0
  0
SPLINE
  5
8D
330
1F
100
AcDbEntity
  8
Default
100
AcDbSpline
210
0.0
220
0.0
230
1.0
 70
     8
 71
     3
 72
    11
 73
     7
 74
     0
 42
0.0000000001
 43
0.0000000001
 40
-1.726404297546127
 40
-1.726404297546127
 40
-1.726404297546127
 40
-1.726404297546127
 40
-0.838716792329123
 40
-0.4044932505427863
 40
-0.1969251035520202
 40
0.0
 40
0.0
 40
0.0
 40
0.0
 10
44.67302587441309
 20
1.741164229104183
 30
0.0
 10
44.75007625534623
 20
1.454201412764787
 30
0.0
 10
44.7293352381817
 20
0.9921833407259197
 30
0.0
 10
44.46936479935962
 20
0.5445698325663991
 30
0.0
 10
44.2657245966715
 20
0.3506491829157447
 30
0.0
 10
44.15158129724674
 20
0.2779617928821737
 30
0.0
 10
44.09280869150779
 20
0.2486095729242301
 30
0.0
  0
SPLINE
  5
8E
330
1F
100
AcDbEntity
  8
Default
100
AcDbSpline
210
0.0
220
0.0
230
1.0
 70
     8
 71
     3
 72
     8
 73
     4
 74
     0
 42
0.0000000001
 43
0.0000000001
 40
-1.0
 40
-1.0
 40
-1.0
 40
-1.0
 40
0.0
 40
0.0
 40
0.0
 40
0.0
 10
44.09280869150779
 20
0.2486095729242301
 30
0.0
 10
43.96471572768859
 20
0.1846373736008588
 30
0.0
 10
43.81762984046973
 20
0.1512500000000062
 30
0.0
 10
43.67445075796724
 20
0.1512500000000063
 30
0.0
  0
LINE
  5
8F
330
1F
100
AcDbEntity
  8
Default
100
AcDbLine
 10
43.67445075796724
 20
0.1512500000000063
 30
0.0
 11
43.18652998651714
 21
0.1512499999999969
 31
0.0
  0
LINE
  5
90
330
1F
100
AcDbEntity
  8
Default
100
AcDbLine
 10
43.18652998651714
 20
0.1512499999999969
 30
0.0
 11
43.16190115810274
 21
0.1881235128176343
 31
0.0
  0
ARC
  5
91
330
1F
100
AcDbEntity
  8
Default
100
AcDbCircle
 10
43.41357848739509
 20
0.3562256892923296
 30
0.0
 40
0.3026546213347083
100
AcDbArc
 50
181.1264065300817
 51
213.7400458541078
  0
SPLINE
  5
92
330
1F
100
AcDbEntity
  8
Default
100
AcDbSpline
210
0.0
220
0.0
230
1.0
 70
    12
 71
     2
 72
     6
 73
     3
 74
     0
 42
0.0000000001
 43
0.0000000001
 40
-0.1396938593169805
 40
-0.1396938593169805
 40
-0.1396938593169805
 40
0.0
 40
0.0
 40
0.0
 10
43.11098235158372
 20
0.3502760332277277
 30
0.0
 41
1.0
 10
43.10972369142549
 20
0.4214375658324448
 30
0.0
 41
0.977942097569061
 10
43.07962761199938
 20
0.4856289278781634
 30
0.0
 41
1.0
  0
SPLINE
  5
93
330
1F
100
AcDbEntity
  8
Default
100
AcDbSpline
210
0.0
220
0.0
230
1.0
 70
    12
 71
     2
 72
     6
 73
     3
 74
     0
 42
0.0000000001
 43
0.0000000001
 40
-0.1043707694466919
 40
-0.1043707694466919
 40
-0.1043707694466919
 40
0.0
 40
0.0
 40
0.0
 10
43.07962761199938
 20
0.4856289278781634
 30
0.0
 41
1.0
 10
43.04637805115967
 20
0.5296435445783575
 30
0.0
 41
0.9209949828452051
 10
42.99163639932483
 20
0.5364384937091319
 30
0.0
 41
1.0
  0
SPLINE
  5
94
330
1F
100
AcDbEntity
  8
Default
100
AcDbSpline
210
0.0
220
0.0
230
1.0
 70
     8
 71
     3
 72
     8
 73
     4
 74
     0
 42
0.0000000001
 43
0.0000000001
 40
0.0
 40
0.0
 40
0.0
 40
0.0
 40
1.0
 40
1.0
 40
1.0
 40
1.0
 10
42.99163639932483
 20
0.5364384937091319
 30
0.0
 10
42.97883333043228
 20
0.5380277077523087
 30
0.0
 10
42.96599796201235
 20
0.540000000000008
 30
0.0
 10
42.95309663749343
 20
0.540000000000008
 30
0.0
  0
SPLINE
  5
95
330
1F
100
AcDbEntity
  8
Default
100
AcDbSpline
210
0.0
220
0.0
230
1.0
 70
    24
 71
     2
 72
     6
 73
     3
 74
     0
 42
0.0000000001
 43
0.0000000001
 40
0.0
 40
0.0
 40
0.0
 40
1.324002867092183
 40
1.324002867092183
 40
1.324002867092183
 10
42.95309663749343
 20
0.540000000000008
 30
0.0
 10
42.29109520394734
 20
0.5400000000000089
 30
0.0
 10
41.62909377040125
 20
0.5400000000000098
 30
0.0
  0
SPLINE
  5
96
330
1F
100
AcDbEntity
  8
Default
100
AcDbSpline
210
0.0
220
0.0
230
1.0
 70
     8
 71
     3
 72
     8
 73
     4
 74
     0
 42
0.0000000001
 43
0.0000000001
 40
-1.0
 40
-1.0
 40
-1.0
 40
-1.0
 40
0.0
 40
0.0
 40
0.0
 40
0.0
 10
41.62909377040125
 20
0.5400000000000098
 30
0.0
 10
41.54170013200658
 20
0.5400000000000099
 30
0.0
 10
41.45068721487783
 20
0.4319284955974776
 30
0.0
 10
41.45427662837098
 20
0.3446086001404092
 30
0.0
  0
SPLINE
  5
97
330
1F
100
AcDbEntity
  8
Default
100
AcDbSpline
210
0.0
220
0.0
230
1.0
 70
    12
 71
     2
 72
     6
 73
     3
 74
     0
 42
0.0000000001
 43
0.0000000001
 40
0.0
 40
0.0
 40
0.0
 40
0.1715427106131254
 40
0.1715427106131254
 40
0.1715427106131254
 10
41.45427662837098
 20
0.3446086001404092
 30
0.0
 41
1.0
 10
41.4578011647495
 20
0.2588669744698873
 30
0.0
 41
0.9992541276325925
 10
41.46793223206671
 20
0.1736530659553631
 30
0.0
 41
1.0
  0
SPLINE
  5
98
330
1F
100
AcDbEntity
  8
Default
100
AcDbSpline
210
0.0
220
0.0
230
1.0
 70
     8
 71
     3
 72
     8
 73
     4
 74
     0
 42
0.0000000001
 43
0.0000000001
 40
0.0
 40
0.0
 40
0.0
 40
0.0
 40
1.0
 40
1.0
 40
1.0
 40
1.0
 10
41.46793223206671
 20
0.1736530659553631
 30
0.0
 10
41.47908195834864
 20
0.0798710659348248
 30
0.0
 10
41.59736256638138
 20
0.0000000000000164
 30
0.0
 10
41.69180503523948
 20
0.000000000000016
 30
0.0
  0
LINE
  5
99
330
1F
100
AcDbEntity
  8
Default
100
AcDbLine
 10
41.69180503523948
 20
0.000000000000016
 30
0.0
 11
43.1596778116735
 21
0.0000000000000045
 31
0.0
  0
SPLINE
  5
9A
330
1F
100
AcDbEntity
  8
Default
100
AcDbSpline
210
0.0
220
0.0
230
1.0
 70
    12
 71
     2
 72
     6
 73
     3
 74
     0
 42
0.0000000001
 43
0.0000000001
 40
-0.2660416618951972
 40
-0.2660416618951972
 40
-0.2660416618951972
 40
0.0
 40
0.0
 40
0.0
 10
43.1596778116735
 20
0.0000000000000045
 30
0.0
 41
1.0
 10
43.31130537539932
 20
0.0071679241737777
 30
0.0
 41
0.8243825005637507
 10
43.35908246428471
 20
0.1512500084036474
 30
0.0
 41
1.0
  0
LINE
  5
9B
330
1F
100
AcDbEntity
  8
Default
100
AcDbLine
 10
24.43978283370371
 20
0.1512500000000045
 30
0.0
 11
24.46441166211811
 21
0.188123512817642
 31
0.0
  0
ARC
  5
9C
330
1F
100
AcDbEntity
  8
Default
100
AcDbCircle
 10
24.21273433282577
 20
0.3562256892923373
 30
0.0
 40
0.3026546213347083
100
AcDbArc
 50
326.2599541458921
 51
358.8735934699181
  0
SPLINE
  5
9D
330
1F
100
AcDbEntity
  8
Default
100
AcDbSpline
210
0.0
220
0.0
230
1.0
 70
    12
 71
     2
 72
     6
 73
     3
 74
     0
 42
0.0000000001
 43
0.0000000001
 40
-0.1396938593169805
 40
-0.1396938593169805
 40
-0.1396938593169805
 40
0.0
 40
0.0
 40
0.0
 10
24.51533046863713
 20
0.3502760332277354
 30
0.0
 41
1.0
 10
24.51658912879536
 20
0.4214375658324525
 30
0.0
 41
0.977942097569061
 10
24.54668520822148
 20
0.4856289278781711
 30
0.0
 41
1.0
  0
SPLINE
  5
9E
330
1F
100
AcDbEntity
  8
Default
100
AcDbSpline
210
0.0
220
0.0
230
1.0
 70
    12
 71
     2
 72
     6
 73
     3
 74
     0
 42
0.0000000001
 43
0.0000000001
 40
-0.1043707694466919
 40
-0.1043707694466919
 40
-0.1043707694466919
 40
0.0
 40
0.0
 40
0.0
 10
24.54668520822148
 20
0.4856289278781711
 30
0.0
 41
1.0
 10
24.57993476906117
 20
0.5296435445783652
 30
0.0
 41
0.9209949828452051
 10
24.63467642089603
 20
0.5364384937091395
 30
0.0
 41
1.0
  0
SPLINE
  5
9F
330
1F
100
AcDbEntity
  8
Default
100
AcDbSpline
210
0.0
220
0.0
230
1.0
 70
     8
 71
     3
 72
     8
 73
     4
 74
     0
 42
0.0000000001
 43
0.0000000001
 40
0.0
 40
0.0
 40
0.0
 40
0.0
 40
1.0
 40
1.0
 40
1.0
 40
1.0
 10
24.63467642089603
 20
0.5364384937091395
 30
0.0
 10
24.64747948978857
 20
0.5380277077523163
 30
0.0
 10
24.66031485820851
 20
0.5400000000000158
 30
0.0
 10
24.67321618272742
 20
0.5400000000000158
 30
0.0
  0
SPLINE
  5
A0
330
1F
100
AcDbEntity
  8
Default
100
AcDbSpline
210
0.0
220
0.0
230
1.0
 70
    24
 71
     2
 72
     6
 73
     3
 74
     0
 42
0.0000000001
 43
0.0000000001
 40
0.0
 40
0.0
 40
0.0
 40
1.324002867092183
 40
1.324002867092183
 40
1.324002867092183
 10
24.67321618272742
 20
0.5400000000000158
 30
0.0
 10
25.33521761627351
 20
0.5400000000000167
 30
0.0
 10
25.99721904981961
 20
0.5400000000000176
 30
0.0
  0
SPLINE
  5
A1
330
1F
100
AcDbEntity
  8
Default
100
AcDbSpline
210
0.0
220
0.0
230
1.0
 70
     8
 71
     3
 72
     8
 73
     4
 74
     0
 42
0.0000000001
 43
0.0000000001
 40
-1.0
 40
-1.0
 40
-1.0
 40
-1.0
 40
0.0
 40
0.0
 40
0.0
 40
0.0
 10
25.99721904981961
 20
0.5400000000000176
 30
0.0
 10
26.08461268821428
 20
0.5400000000000176
 30
0.0
 10
26.17562560534302
 20
0.4319284955974853
 30
0.0
 10
26.17203619184987
 20
0.3446086001404169
 30
0.0
  0
SPLINE
  5
A2
330
1F
100
AcDbEntity
  8
Default
100
AcDbSpline
210
0.0
220
0.0
230
1.0
 70
    12
 71
     2
 72
     6
 73
     3
 74
     0
 42
0.0000000001
 43
0.0000000001
 40
0.0
 40
0.0
 40
0.0
 40
0.1715427106131254
 40
0.1715427106131254
 40
0.1715427106131254
 10
26.17203619184987
 20
0.3446086001404169
 30
0.0
 41
1.0
 10
26.16851165547135
 20
0.258866974469895
 30
0.0
 41
0.9992541276325925
 10
26.15838058815415
 20
0.1736530659553708
 30
0.0
 41
1.0
  0
SPLINE
  5
A3
330
1F
100
AcDbEntity
  8
Default
100
AcDbSpline
210
0.0
220
0.0
230
1.0
 70
     8
 71
     3
 72
     8
 73
     4
 74
     0
 42
0.0000000001
 43
0.0000000001
 40
0.0
 40
0.0
 40
0.0
 40
0.0
 40
1.0
 40
1.0
 40
1.0
 40
1.0
 10
26.15838058815415
 20
0.1736530659553708
 30
0.0
 10
26.14723086187222
 20
0.0798710659348325
 30
0.0
 10
26.02895025383948
 20
0.0000000000000241
 30
0.0
 10
25.93450778498137
 20
0.0000000000000237
 30
0.0
  0
LINE
  5
A4
330
1F
100
AcDbEntity
  8
Default
100
AcDbLine
 10
25.93450778498137
 20
0.0000000000000237
 30
0.0
 11
24.46663500854736
 21
0.0000000000000122
 31
0.0
  0
SPLINE
  5
A5
330
1F
100
AcDbEntity
  8
Default
100
AcDbSpline
210
0.0
220
0.0
230
1.0
 70
    12
 71
     2
 72
     6
 73
     3
 74
     0
 42
0.0000000001
 43
0.0000000001
 40
-0.2660416618951972
 40
-0.2660416618951972
 40
-0.2660416618951972
 40
0.0
 40
0.0
 40
0.0
 10
24.46663500854736
 20
0.0000000000000122
 30
0.0
 41
1.0
 10
24.31500744482154
 20
0.0071679241737854
 30
0.0
 41
0.8243825005637507
 10
24.26723035593614
 20
0.151250008403655
 30
0.0
 41
1.0
  0
LINE
  5
A6
330
1F
100
AcDbEntity
  8
Make2D visible lines
100
AcDbLine
 10
26.15365552279232
 20
0.1512499999999968
 30
0.0
 11
32.54896302448273
 21
0.1512500000000099
 31
0.0
  0
SPLINE
  5
A7
330
1F
100
AcDbEntity
  8
Make2D visible lines
100
AcDbSpline
210
0.0
220
0.0
230
1.0
 70
     8
 71
     3
 72
    13
 73
     9
 74
     0
 42
0.0000000001
 43
0.0000000001
 40
0.0
 40
0.0
 40
0.0
 40
0.0
 40
0.0669909275443719
 40
0.1332575209594614
 40
0.2649155669711206
 40
0.332668664327405
 40
0.3376075390522567
 40
0.7481878552349414
 40
0.7481878552349414
 40
0.7481878552349414
 40
0.7481878552349414
 10
33.1794203401633
 20
0.3752139673553216
 30
0.0
 10
33.1789052405889
 20
0.3976565949571415
 30
0.0
 10
33.17078809839137
 20
0.4415435685432696
 30
0.0
 10
33.12973916199058
 20
0.5213084423103875
 30
0.0
 10
33.05521558382394
 20
0.5757883745338983
 30
0.0
 10
32.98734828015553
 20
0.5886361654697606
 30
0.0
 10
32.82627176027417
 20
0.5890248407860289
 30
0.0
 10
32.68774586911727
 20
0.5885352940958735
 30
0.0
 10
32.55041175445899
 20
0.5887500186223245
 30
0.0
  0
SPLINE
  5
A8
330
1F
100
AcDbEntity
  8
Make2D visible lines
100
AcDbSpline
210
0.0
220
0.0
230
1.0
 70
    24
 71
     2
 72
     6
 73
     3
 74
     0
 42
0.0000000001
 43
0.0000000001
 40
0.0
 40
0.0
 40
0.0
 40
8.531245711461779
 40
8.531245711461779
 40
8.531245711461779
 10
32.55041175445899
 20
0.5887500186223245
 30
0.0
 10
28.28430598875202
 20
0.5887500093111787
 30
0.0
 10
24.01820022304506
 20
0.588750000000033
 30
0.0
  0
SPLINE
  5
A9
330
1F
100
AcDbEntity
  8
Make2D visible lines
100
AcDbSpline
210
0.0
220
0.0
230
1.0
 70
     8
 71
     3
 72
    12
 73
     8
 74
     0
 42
0.0000000001
 43
0.0000000001
 40
0.0
 40
0.0
 40
0.0
 40
0.0
 40
0.1693085055607524
 40
0.3260743370091164
 40
0.6324790294380792
 40
1.006716325339112
 40
1.461314524040565
 40
1.461314524040565
 40
1.461314524040565
 40
1.461314524040565
 10
24.01820022304506
 20
0.588750000000033
 30
0.0
 10
23.96051596321968
 20
0.5881722851479865
 30
0.0
 10
23.85389314588895
 20
0.6006958467837804
 30
0.0
 10
23.65148077141981
 20
0.6784579728153245
 30
0.0
 10
23.47858290580406
 20
0.915523100227029
 30
0.0
 10
23.45409327072694
 20
1.303334086639778
 30
0.0
 10
23.52561508263959
 20
1.571017573668503
 30
0.0
 10
23.58440402860816
 20
1.716989753589089
 30
0.0
  0
SPLINE
  5
AA
330
1F
100
AcDbEntity
  8
Make2D visible lines
100
AcDbSpline
210
0.0
220
0.0
230
1.0
 70
    24
 71
     2
 72
     6
 73
     3
 74
     0
 42
0.0000000001
 43
0.0000000001
 40
0.0
 40
0.0
 40
0.0
 40
10.6548645082842
 40
10.6548645082842
 40
10.6548645082842
 10
23.58440402860816
 20
1.716989753589089
 30
0.0
 10
25.57765120310633
 20
6.663102504123819
 30
0.0
 10
27.57089837760452
 20
11.60921525465855
 30
0.0
  0
SPLINE
  5
AB
330
1F
100
AcDbEntity
  8
Make2D visible lines
100
AcDbSpline
210
0.0
220
0.0
230
1.0
 70
     8
 71
     3
 72
    12
 73
     8
 74
     0
 42
0.0000000001
 43
0.0000000001
 40
0.0
 40
0.0
 40
0.0
 40
0.0
 40
0.1320490318873899
 40
0.2557655710982562
 40
0.4930712698847956
 40
0.7139044511273421
 40
0.9457968106286055
 40
0.9457968106286055
 40
0.9457968106286055
 40
0.9457968106286055
 10
27.57089837760452
 20
11.60921525465855
 30
0.0
 10
27.58959322447066
 20
11.65452546615029
 30
0.0
 10
27.62924205375858
 20
11.73104089310783
 30
0.0
 10
27.73065886320771
 20
11.86016550873743
 30
0.0
 10
27.89493635014199
 20
11.97414392652546
 30
0.0
 10
28.13248064387356
 20
11.99403633134802
 30
0.0
 10
28.27253214418768
 20
11.92360786310596
 30
0.0
 10
28.33243869976675
 20
11.87557508212785
 30
0.0
  0
SPLINE
  5
AC
330
1F
100
AcDbEntity
  8
Make2D visible lines
100
AcDbSpline
210
0.0
220
0.0
230
1.0
 70
    12
 71
     2
 72
     6
 73
     3
 74
     0
 42
0.0000000001
 43
0.0000000001
 40
0.0
 40
0.0
 40
0.0
 40
1.946494377530773
 40
1.946494377530773
 40
1.946494377530773
 10
28.35358922280542
 20
11.85866470256931
 30
0.0
 41
1.0
 10
29.12352559925922
 20
11.23950279041793
 30
0.0
 41
0.9777372131974623
 10
30.08289646411841
 20
10.98997997939098
 30
0.0
 41
1.0
  0
SPLINE
  5
AD
330
1F
100
AcDbEntity
  8
Make2D visible lines
100
AcDbSpline
210
0.0
220
0.0
230
1.0
 70
     8
 71
     3
 72
    11
 73
     7
 74
     0
 42
0.0000000001
 43
0.0000000001
 40
0.0
 40
0.0
 40
0.0
 40
0.0
 40
0.4196919291784062
 40
0.6976150775001599
 40
0.7467532413215971
 40
1.039467887128562
 40
1.039467887128562
 40
1.039467887128562
 40
1.039467887128562
 10
30.08289646411841
 20
10.98997997939098
 30
0.0
 10
30.22121535733476
 20
10.95343768147915
 30
0.0
 10
30.45013709958683
 20
10.90875905493618
 30
0.0
 10
30.69273234406143
 20
10.8566789603242
 30
0.0
 10
30.89863401919823
 20
10.82857634371156
 30
0.0
 10
31.00851654040603
 20
10.92239357313235
 30
0.0
 10
31.02574089910702
 20
11.02086743248052
 30
0.0
  0
SPLINE
  5
AE
330
1F
100
AcDbEntity
  8
Make2D visible lines
100
AcDbSpline
210
0.0
220
0.0
230
1.0
 70
     8
 71
     3
 72
    12
 73
     8
 74
     0
 42
0.0000000001
 43
0.0000000001
 40
0.0
 40
0.0
 40
0.0
 40
0.0
 40
0.0705042199092246
 40
0.1431282627150424
 40
0.2852659170048956
 40
0.3344757646873034
 40
1.017718419022621
 40
1.017718419022621
 40
1.017718419022621
 40
1.017718419022621
 10
31.02574089910702
 20
11.02086743248052
 30
0.0
 10
31.02984261672133
 20
11.04495042244621
 30
0.0
 10
31.03130831507702
 20
11.10018216559762
 30
0.0
 10
30.99935793217686
 20
11.18139982255883
 30
0.0
 10
30.93472355086843
 20
11.25818641318619
 30
0.0
 10
30.64911299779771
 20
11.31596622329378
 30
0.0
 10
30.40804955386503
 20
11.35652108466264
 30
0.0
 10
30.18452453983445
 20
11.41556346743971
 30
0.0
  0
SPLINE
  5
AF
330
1F
100
AcDbEntity
  8
Make2D visible lines
100
AcDbSpline
210
0.0
220
0.0
230
1.0
 70
    12
 71
     2
 72
     6
 73
     3
 74
     0
 42
0.0000000001
 43
0.0000000001
 40
0.0
 40
0.0
 40
0.0
 40
1.772140572908841
 40
1.772140572908841
 40
1.772140572908841
 10
30.18452453983445
 20
11.41556346743971
 30
0.0
 41
1.0
 10
29.31114600965506
 20
11.64473868553964
 30
0.0
 41
0.9774902787265793
 10
28.60967265203003
 20
12.21405154153193
 30
0.0
 41
1.0
  0
SPLINE
  5
B0
330
1F
100
AcDbEntity
  8
Make2D visible lines
100
AcDbSpline
210
0.0
220
0.0
230
1.0
 70
     8
 71
     3
 72
    12
 73
     8
 74
     0
 42
0.0000000001
 43
0.0000000001
 40
0.0
 40
0.0
 40
0.0
 40
0.0
 40
0.2156803412029633
 40
0.4368707080375416
 40
0.8635677051415032
 40
1.293573178904501
 40
1.758188522809053
 40
1.758188522809053
 40
1.758188522809053
 40
1.758188522809053
 10
28.60967265203003
 20
12.21405154153193
 30
0.0
 10
28.55074838134057
 20
12.26162128860347
 30
0.0
 10
28.42700010338601
 20
12.33987208957403
 30
0.0
 10
28.15237097604061
 20
12.43389784776257
 30
0.0
 10
27.78195214722444
 20
12.41392740928093
 30
0.0
 10
27.39527250366473
 20
12.17848143615861
 30
0.0
 10
27.22768747333417
 20
11.92399001174881
 30
0.0
 10
27.16647421645179
 20
11.7761097914318
 30
0.0
  0
SPLINE
  5
B1
330
1F
100
AcDbEntity
  8
Make2D visible lines
100
AcDbSpline
210
0.0
220
0.0
230
1.0
 70
    24
 71
     2
 72
     6
 73
     3
 74
     0
 42
0.0000000001
 43
0.0000000001
 40
0.0
 40
0.0
 40
0.0
 40
10.66170904135123
 40
10.66170904135123
 40
10.66170904135123
 10
27.16647421645179
 20
11.7761097914318
 30
0.0
 10
25.17257402825248
 20
6.82838917488401
 30
0.0
 10
23.17867384005316
 20
1.880668558336224
 30
0.0
  0
SPLINE
  5
B2
330
1F
100
AcDbEntity
  8
Make2D visible lines
100
AcDbSpline
210
0.0
220
0.0
230
1.0
 70
     8
 71
     3
 72
    12
 73
     8
 74
     0
 42
0.0000000001
 43
0.0000000001
 40
0.0
 40
0.0
 40
0.0
 40
0.0
 40
0.3467521753746221
 40
0.6716705991412102
 40
1.245376892639522
 40
1.774064081213415
 40
2.318726595427466
 40
2.318726595427466
 40
2.318726595427466
 40
2.318726595427466
 10
23.17867384005316
 20
1.880668558336224
 30
0.0
 10
23.13480062593128
 20
1.772263020368184
 30
0.0
 10
23.06621824537299
 20
1.556958937189357
 30
0.0
 10
23.01092369696179
 20
1.146194563389029
 30
0.0
 10
23.08673410377297
 20
0.6605528456990877
 30
0.0
 10
23.47121074612046
 20
0.2328403624388516
 30
0.0
 10
23.83662414142578
 20
0.1509524442178886
 30
0.0
 10
24.0172344009443
 20
0.1512501707452093
 30
0.0
  0
SPLINE
  5
B3
330
1F
100
AcDbEntity
  8
Make2D visible lines
100
AcDbSpline
210
0.0
220
0.0
230
1.0
 70
    24
 71
     2
 72
     6
 73
     3
 74
     0
 42
0.0000000001
 43
0.0000000001
 40
0.0
 40
0.0
 40
0.0
 40
0.4220655206783377
 40
0.4220655206783377
 40
0.4220655206783377
 10
24.0172344009443
 20
0.1512501707452093
 30
0.0
 10
24.228508617324
 20
0.1512500853726069
 30
0.0
 10
24.43978283370371
 20
0.1512500000000045
 30
0.0
  0
SPLINE
  5
B4
330
1F
100
AcDbEntity
  8
Default
100
AcDbSpline
210
0.0
220
0.0
230
1.0
 70
    15
 71
     3
 72
    75
 73
    71
 74
     0
 42
0.0000000001
 43
0.0000000001
 40
4.284889557905307
 40
4.284889557905307
 40
4.284889557905307
 40
4.284889557905307
 40
4.675638648515629
 40
4.675638648515629
 40
4.675638648515629
 40
4.945696450076055
 40
4.945696450076055
 40
4.945696450076055
 40
5.945696454513373
 40
6.945696458950692
 40
7.945696463388011
 40
8.945696467825329
 40
9.945696472262647
 40
10.94569647669997
 40
11.94569648113729
 40
12.9456964855746
 40
13.94569649001192
 40
14.94569649444924
 40
15.94569649888656
 40
16.94569650332388
 40
17.94569650776119
 40
18.94569651219851
 40
19.94569651663583
 40
20.94569652107315
 40
21.94569645007606
 40
21.94569645007606
 40
21.94569645007606
 40
22.94569637907896
 40
23.94569638351628
 40
24.9456963879536
 40
25.94569639239092
 40
26.94569639682824
 40
27.94569640126555
 40
28.94569640570287
 40
29.94569641014019
 40
30.94569641457751
 40
31.94569641901483
 40
32.94569642345215
 40
33.94569642788947
 40
34.94569643232678
 40
35.9456964367641
 40
36.94569644120142
 40
37.94569644563874
 40
38.94569645007606
 40
38.94569645007606
 40
38.94569645007606
 40
39.21575425163648
 40
39.21575425163648
 40
39.21575425163648
 40
39.6065033422468
 40
39.6065033422468
 40
39.6065033422468
 40
39.83703306378663
 40
40.1166735561765
 40
40.93450556052316
 40
42.1915997428571
 40
43.89139290015211
 40
43.89139290015211
 40
43.89139290015211
 40
44.89139290015211
 40
44.89139290015211
 40
44.89139290015211
 40
45.89139290015211
 40
45.89139290015211
 40
45.89139290015211
 40
47.59118605744712
 40
48.84828023978106
 40
49.66611224412772
 40
49.94575273651759
 40
50.17628245805742
 40
50.17628245805742
 40
50.17628245805742
 40
50.17628245805742
 10
11.66587582277404
 20
15.62864942733039
 30
0.0
 41
1.0
 10
11.75433634643018
 20
15.72804951104659
 30
0.0
 41
0.9584284795972055
 10
11.80272919027854
 20
15.85200020105103
 30
0.0
 41
0.9584284795972055
 10
11.80501906203295
 20
15.98504304142832
 30
0.0
 41
1.0
 10
11.80741125667456
 20
16.07505066164423
 30
0.0
 41
0.9995527887139662
 10
11.80650557157476
 20
16.16508551060081
 30
0.0
 41
0.9995527887139662
 10
11.80230322183134
 20
16.2550267944963
 30
0.0
 41
1.0
 10
11.78828636422133
 20
16.70294572476847
 30
0.0
 41
1.0
 10
11.64287168915603
 20
17.58639438747834
 30
0.0
 41
1.0
 10
11.37378171756114
 20
18.90053569417532
 30
0.0
 41
1.0
 10
11.08680851307306
 20
20.21122472065747
 30
0.0
 41
1.0
 10
10.75308423711167
 20
21.51087738295269
 30
0.0
 41
1.0
 10
10.37725314079816
 20
22.79894188982687
 30
0.0
 41
1.0
 10
9.955080523943034
 20
24.07262261997841
 30
0.0
 41
1.0
 10
9.484666036602695
 20
25.32934771789032
 30
0.0
 41
1.0
 10
8.964962003635621
 20
26.56633258579555
 30
0.0
 41
1.0
 10
8.398604861032114
 20
27.78327442727799
 30
0.0
 41
1.0
 10
7.781755930991918
 20
28.97332823895889
 30
0.0
 41
1.0
 10
7.172272618247313
 20
30.17376391213741
 30
0.0
 41
1.0
 10
6.291031161949897
 20
31.19978064166129
 30
0.0
 41
1.0
 10
5.193302032357755
 20
31.98514741340374
 30
0.0
 41
1.0
 10
3.966856014764327
 20
32.54120862144268
 30
0.0
 41
1.0
 10
2.670846195148177
 20
32.90012344510149
 30
0.0
 41
1.0
 10
1.341704273556205
 20
33.09683584229894
 30
0.0
 41
1.0
 10
0.4471825479257645
 20
33.13711062965483
 30
0.0
 41
1.0
 10
0.0
 20
33.1371567972998
 30
0.0
 41
1.0
 10
-0.4471825479257645
 20
33.13711062965483
 30
0.0
 41
1.0
 10
-1.341704273556205
 20
33.09683584229894
 30
0.0
 41
1.0
 10
-2.670846195148177
 20
32.90012344510149
 30
0.0
 41
1.0
 10
-3.966856014764327
 20
32.54120862144268
 30
0.0
 41
1.0
 10
-5.193302032357755
 20
31.98514741340374
 30
0.0
 41
1.0
 10
-6.291031161949897
 20
31.19978064166129
 30
0.0
 41
1.0
 10
-7.172272618247313
 20
30.17376391213741
 30
0.0
 41
1.0
 10
-7.781755930991918
 20
28.97332823895889
 30
0.0
 41
1.0
 10
-8.398604861032114
 20
27.78327442727799
 30
0.0
 41
1.0
 10
-8.964962003635621
 20
26.56633258579555
 30
0.0
 41
1.0
 10
-9.484666036602695
 20
25.32934771789032
 30
0.0
 41
1.0
 10
-9.955080523943034
 20
24.07262261997841
 30
0.0
 41
1.0
 10
-10.37725314079816
 20
22.79894188982687
 30
0.0
 41
1.0
 10
-10.75308423711167
 20
21.51087738295269
 30
0.0
 41
1.0
 10
-11.08680851307306
 20
20.21122472065747
 30
0.0
 41
1.0
 10
-11.37378171756114
 20
18.90053569417532
 30
0.0
 41
1.0
 10
-11.64287168915603
 20
17.58639438747834
 30
0.0
 41
1.0
 10
-11.78828636422133
 20
16.70294572476847
 30
0.0
 41
1.0
 10
-11.80230322183134
 20
16.2550267944963
 30
0.0
 41
1.0
 10
-11.80650557157476
 20
16.16508551060081
 30
0.0
 41
0.9995527887139662
 10
-11.80741125667456
 20
16.07505066164423
 30
0.0
 41
0.9995527887139662
 10
-11.80501906203294
 20
15.98504304142832
 30
0.0
 41
1.0
 10
-11.80272919027854
 20
15.85200020105103
 30
0.0
 41
0.9584284795972055
 10
-11.75433634643018
 20
15.72804951104659
 30
0.0
 41
0.9584284795972055
 10
-11.66587582277404
 20
15.62864942733039
 30
0.0
 41
1.0
 10
-11.61479771314997
 20
15.57150869914652
 30
0.0
 41
1.0
 10
-11.48099359683521
 20
15.4630826286554
 30
0.0
 41
1.0
 10
-11.07187871696787
 20
15.28716546871327
 30
0.0
 41
1.0
 10
-10.2981356961296
 20
15.13920896397442
 30
0.0
 41
1.0
 10
-9.044345901534959
 20
15.03261744567367
 30
0.0
 41
1.0
 10
-8.058309444359741
 20
15.00543507098073
 30
0.0
 41
1.0
 10
-7.49196544933581
 20
14.99800235613046
 30
0.0
 41
1.0
 10
-4.994831242527269
 20
14.9652298951083
 30
0.0
 41
1.0
 10
-2.497349250908809
 20
15.00299289778249
 30
0.0
 41
1.0
 10
-0.0000000000000039
 20
15.00299289778249
 30
0.0
 41
1.0
 10
2.497349250908809
 20
15.00299289778249
 30
0.0
 41
1.0
 10
4.994831242527269
 20
14.9652298951083
 30
0.0
 41
1.0
 10
7.49196544933581
 20
14.99800235613046
 30
0.0
 41
1.0
 10
8.058309444359741
 20
15.00543507098073
 30
0.0
 41
1.0
 10
9.044345901534959
 20
15.03261744567367
 30
0.0
 41
1.0
 10
10.2981356961296
 20
15.13920896397442
 30
0.0
 41
1.0
 10
11.07187871696787
 20
15.28716546871327
 30
0.0
 41
1.0
 10
11.48099359683521
 20
15.4630826286554
 30
0.0
 41
1.0
 10
11.61479771314997
 20
15.57150869914652
 30
0.0
 41
1.0
 10
11.66587582277404
 20
15.62864942733039
 30
0.0
 41
1.0
  0
SPLINE
  5
B5
330
1F
100
AcDbEntity
  8
Default
100
AcDbSpline
210
0.0
220
0.0
230
1.0
 70
    24
 71
     2
 72
     6
 73
     3
 74
     0
 42
0.0000000001
 43
0.0000000001
 40
0.0
 40
0.0
 40
0.0
 40
0.4856498277096888
 40
0.4856498277096888
 40
0.4856498277096888
 10
-9.624993309876375
 20
15.41069471908772
 30
0.0
 10
-9.623210319527969
 20
15.67765057115502
 30
0.0
 10
-9.621427329179562
 20
15.94460642322231
 30
0.0
  0
SPLINE
  5
B6
330
1F
100
AcDbEntity
  8
Default
100
AcDbSpline
210
0.0
220
0.0
230
1.0
 70
     8
 71
     3
 72
    12
 73
     8
 74
     0
 42
0.0000000001
 43
0.0000000001
 40
-1.720214381111756
 40
-1.720214381111756
 40
-1.720214381111756
 40
-1.720214381111756
 40
-1.482822203410309
 40
-1.179337141630985
 40
-0.6967675392865215
 40
-0.3758833544094314
 40
0.0
 40
0.0
 40
0.0
 40
0.0
 10
-9.621427329179562
 20
15.94460642322231
 30
0.0
 10
-9.611323934152997
 20
16.02377173727508
 30
0.0
 10
-9.512790473526826
 20
16.18608108867993
 30
0.0
 10
-9.204224857354143
 20
16.34479431302395
 30
0.0
 10
-8.848528353069655
 20
16.44086539461878
 30
0.0
 10
-8.463064248171577
 20
16.52196548380344
 30
0.0
 10
-8.234295257469666
 20
16.5591935586844
 30
0.0
 10
-8.110341141780179
 20
16.57879655274562
 30
0.0
  0
SPLINE
  5
B7
330
1F
100
AcDbEntity
  8
Default
100
AcDbSpline
210
0.0
220
0.0
230
1.0
 70
    12
 71
     3
 72
    12
 73
     8
 74
     0
 42
0.0000000001
 43
0.0000000001
 40
-0.6640119920747329
 40
-0.6640119920747329
 40
-0.6640119920747329
 40
-0.6640119920747329
 40
-0.5000000008353003
 40
-0.5000000008353003
 40
-0.2500000004176502
 40
-0.2500000004176502
 40
-0.000000020861917
 40
-0.000000020861917
 40
-0.000000020861917
 40
-0.000000020861917
 10
-8.110341141780179
 20
16.57879655274562
 30
0.0
 41
1.0
 10
-7.696178675953282
 20
16.64281865754161
 30
0.0
 41
1.0
 10
-7.19275651018704
 20
16.70182529599999
 30
0.0
 41
1.0
 10
-5.739844429351672
 20
16.83309382781564
 30
0.0
 41
1.0
 10
-4.695881372966747
 20
16.89600130169737
 30
0.0
 41
1.0
 10
-2.434270817672484
 20
16.98074617584757
 30
0.0
 41
1.0
 10
-1.216609737867254
 20
17.00263125964025
 30
0.0
 41
1.0
 10
0.0
 20
17.00262985454429
 30
0.0
 41
1.0
  0
SPLINE
  5
B8
330
1F
100
AcDbEntity
  8
Default
100
AcDbSpline
210
0.0
220
0.0
230
1.0
 70
    12
 71
     3
 72
    12
 73
     8
 74
     0
 42
0.0000000001
 43
0.0000000001
 40
0.000000020861917
 40
0.000000020861917
 40
0.000000020861917
 40
0.000000020861917
 40
0.2500000004176502
 40
0.2500000004176502
 40
0.5000000008353003
 40
0.5000000008353003
 40
0.6640119920747329
 40
0.6640119920747329
 40
0.6640119920747329
 40
0.6640119920747329
 10
0.0
 20
17.00262985454429
 30
0.0
 41
1.0
 10
1.216609737867254
 20
17.00263125964025
 30
0.0
 41
1.0
 10
2.434270817672484
 20
16.98074617584757
 30
0.0
 41
1.0
 10
4.695881372966747
 20
16.89600130169737
 30
0.0
 41
1.0
 10
5.739844429351672
 20
16.83309382781564
 30
0.0
 41
1.0
 10
7.19275651018704
 20
16.70182529599999
 30
0.0
 41
1.0
 10
7.696178675953282
 20
16.64281865754161
 30
0.0
 41
1.0
 10
8.110341141780179
 20
16.57879655274562
 30
0.0
 41
1.0
  0
SPLINE
  5
B9
330
1F
100
AcDbEntity
  8
Default
100
AcDbSpline
210
0.0
220
0.0
230
1.0
 70
     8
 71
     3
 72
    12
 73
     8
 74
     0
 42
0.0000000001
 43
0.0000000001
 40
0.0
 40
0.0
 40
0.0
 40
0.0
 40
0.3758833544094314
 40
0.6967675392865215
 40
1.179337141630985
 40
1.482822203410309
 40
1.720214381111756
 40
1.720214381111756
 40
1.720214381111756
 40
1.720214381111756
 10
8.110341141780179
 20
16.57879655274562
 30
0.0
 10
8.234295257469666
 20
16.5591935586844
 30
0.0
 10
8.463064248171577
 20
16.52196548380344
 30
0.0
 10
8.848528353069655
 20
16.44086539461878
 30
0.0
 10
9.204224857354143
 20
16.34479431302395
 30
0.0
 10
9.512790473526826
 20
16.18608108867993
 30
0.0
 10
9.611323934152997
 20
16.02377173727508
 30
0.0
 10
9.621427329179562
 20
15.94460642322231
 30
0.0
  0
SPLINE
  5
BA
330
1F
100
AcDbEntity
  8
Default
100
AcDbSpline
210
0.0
220
0.0
230
1.0
 70
    24
 71
     2
 72
     6
 73
     3
 74
     0
 42
0.0000000001
 43
0.0000000001
 40
-0.4856498277096888
 40
-0.4856498277096888
 40
-0.4856498277096888
 40
0.0
 40
0.0
 40
0.0
 10
9.621427329179562
 20
15.94460642322231
 30
0.0
 10
9.623210319527969
 20
15.67765057115502
 30
0.0
 10
9.624993309876375
 20
15.41069471908772
 30
0.0
  0
SPLINE
  5
BB
330
1F
100
AcDbEntity
  8
Default
100
AcDbSpline
210
0.0
220
0.0
230
1.0
 70
     8
 71
     3
 72
    24
 73
    20
 74
     0
 42
0.0000000001
 43
0.0000000001
 40
-17.0
 40
-17.0
 40
-17.0
 40
-17.0
 40
-15.99999503831422
 40
-14.99999007662845
 40
-13.99998511494267
 40
-12.9999801532569
 40
-11.99997519157112
 40
-10.99997022988535
 40
-9.999965268199569
 40
-8.999960306513794
 40
-7.999955344828018
 40
-6.999950383142242
 40
-5.999945421456466
 40
-4.99994045977069
 40
-3.999935498084914
 40
-2.999930536399139
 40
-1.999925574713363
 40
-0.9999206130275872
 40
0.0
 40
0.0
 40
0.0
 40
0.0
 10
-10.77000079585685
 20
18.84949107388989
 30
0.0
 10
-10.79220483068231
 20
18.70725167969473
 30
0.0
 10
-10.84277508271578
 20
18.42374203266789
 30
0.0
 10
-10.93355952296308
 20
18.00148251591792
 30
0.0
 10
-11.03649984412718
 20
17.58188993124881
 30
0.0
 10
-11.14724148772615
 20
17.16489966020295
 30
0.0
 10
-11.26036030806843
 20
16.74635623907666
 30
0.0
 10
-11.34753290394163
 20
16.32919163547773
 30
0.0
 10
-11.38593389096562
 20
15.87548721812805
 30
0.0
 10
-11.08527146730168
 20
15.52428564468451
 30
0.0
 10
-10.6386233901275
 20
15.47253218506401
 30
0.0
 10
-10.21394584646875
 20
15.42644551653142
 30
0.0
 10
-9.78072814735198
 20
15.4129263990927
 30
0.0
 10
-9.349286093318248
 20
15.40642999341715
 30
0.0
 10
-8.917282704527004
 20
15.40901008170514
 30
0.0
 10
-8.485460841551111
 20
15.41421437464351
 30
0.0
 10
-8.053633505578937
 20
15.42186499539916
 30
0.0
 10
-7.621854781845875
 20
15.43075045968384
 30
0.0
 10
-7.334008185543743
 20
15.4368767067672
 30
0.0
 10
-7.190089762725695
 20
15.43986176113081
 30
0.0
  0
SPLINE
  5
BC
330
1F
100
AcDbEntity
  8
Default
100
AcDbSpline
210
0.0
220
0.0
230
1.0
 70
     8
 71
     3
 72
    11
 73
     7
 74
     0
 42
0.0000000001
 43
0.0000000001
 40
0.0
 40
0.0
 40
0.0
 40
0.0
 40
1.468805984317369
 40
3.119226025440186
 40
7.305246808252567
 40
14.38113980964615
 40
14.38113980964615
 40
14.38113980964615
 40
14.38113980964615
 10
-7.190089762725695
 20
15.43986176113081
 30
0.0
 10
-6.700629134352771
 20
15.45206554898313
 30
0.0
 10
-5.661131818580204
 20
15.47329851749425
 30
0.0
 10
-3.226141439707986
 20
15.50200240629061
 30
0.0
 10
1.077892075699229
 20
15.50545346694219
 30
0.0
 10
4.832029175664239
 20
15.49913630602852
 30
0.0
 10
7.19005528367714
 20
15.43986256179212
 30
0.0
  0
SPLINE
  5
BD
330
1F
100
AcDbEntity
  8
Default
100
AcDbSpline
210
0.0
220
0.0
230
1.0
 70
     8
 71
     3
 72
    24
 73
    20
 74
     0
 42
0.0000000001
 43
0.0000000001
 40
0.0
 40
0.0
 40
0.0
 40
0.0
 40
0.9999957712122703
 40
1.999996035511503
 40
2.999996299810737
 40
3.99999656410997
 40
4.999996828409203
 40
5.999997092708436
 40
6.999997357007669
 40
7.999997621306902
 40
8.999997885606135
 40
9.999998149905368
 40
10.9999984142046
 40
11.99999867850383
 40
12.99999894280307
 40
13.9999992071023
 40
14.99999947140153
 40
15.99999973570077
 40
17.0
 40
17.0
 40
17.0
 40
17.0
 10
7.19005528367714
 20
15.43986256179212
 30
0.0
 10
7.333985198540041
 20
15.43687719600056
 30
0.0
 10
7.621843288270576
 20
15.4307506962072
 30
0.0
 10
8.053633505578937
 20
15.42186499539916
 30
0.0
 10
8.485460841551111
 20
15.41421437464351
 30
0.0
 10
8.917282704527004
 20
15.40901008170514
 30
0.0
 10
9.349286093318248
 20
15.40642999341715
 30
0.0
 10
9.78072814735198
 20
15.4129263990927
 30
0.0
 10
10.21394584646875
 20
15.42644551653142
 30
0.0
 10
10.6386233901275
 20
15.47253218506401
 30
0.0
 10
11.08527146730168
 20
15.52428564468451
 30
0.0
 10
11.38593389096562
 20
15.87548721812805
 30
0.0
 10
11.34753290394163
 20
16.32919163547773
 30
0.0
 10
11.26036030806843
 20
16.74635623907666
 30
0.0
 10
11.14724148772615
 20
17.16489966020295
 30
0.0
 10
11.03649984412718
 20
17.58188993124881
 30
0.0
 10
10.93355952296308
 20
18.00148251591792
 30
0.0
 10
10.84277508271578
 20
18.42374203266789
 30
0.0
 10
10.79220483068231
 20
18.70725167969473
 30
0.0
 10
10.77000079585685
 20
18.84949107388989
 30
0.0
  0
SPLINE
  5
BE
330
1F
100
AcDbEntity
  8
Default
100
AcDbSpline
210
0.0
220
0.0
230
1.0
 70
    24
 71
     2
 72
     6
 73
     3
 74
     0
 42
0.0000000001
 43
0.0000000001
 40
0.0
 40
0.0
 40
0.0
 40
1.279662316143878
 40
1.279662316143878
 40
1.279662316143878
 10
45.638309587569
 20
15.50289224669898
 30
0.0
 10
45.57831851213993
 20
16.13990479108767
 30
0.0
 10
45.51832743671086
 20
16.77691733547635
 30
0.0
  0
SPLINE
  5
BF
330
1F
100
AcDbEntity
  8
Default
100
AcDbSpline
210
0.0
220
0.0
230
1.0
 70
     8
 71
     3
 72
     8
 73
     4
 74
     0
 42
0.0000000001
 43
0.0000000001
 40
0.0
 40
0.0
 40
0.0
 40
0.0
 40
1.0
 40
1.0
 40
1.0
 40
1.0
 10
45.51832743671086
 20
16.77691733547635
 30
0.0
 10
45.50424632969862
 20
16.92643693887605
 30
0.0
 10
45.40482453059125
 20
17.00074243442064
 30
0.0
 10
45.24929315973316
 20
17.00599717924976
 30
0.0
  0
SPLINE
  5
C0
330
1F
100
AcDbEntity
  8
Default
100
AcDbSpline
210
0.0
220
0.0
230
1.0
 70
     8
 71
     3
 72
    10
 73
     6
 74
     0
 42
0.0000000001
 43
0.0000000001
 40
-3.0
 40
-3.0
 40
-3.0
 40
-3.0
 40
-2.0
 40
-1.0
 40
0.0
 40
0.0
 40
0.0
 40
0.0
 10
45.24929315973316
 20
17.00599717924976
 30
0.0
 10
43.94367147499762
 20
17.0501085939361
 30
0.0
 10
41.33288803826863
 20
16.93042940044745
 30
0.0
 10
37.42153311212936
 20
16.71087349899625
 30
0.0
 10
34.82184645904714
 20
16.44557424538673
 30
0.0
 10
33.52595809842743
 20
16.28516134802425
 30
0.0
  0
SPLINE
  5
C1
330
1F
100
AcDbEntity
  8
Default
100
AcDbSpline
210
0.0
220
0.0
230
1.0
 70
    12
 71
     2
 72
     6
 73
     3
 74
     0
 42
0.0000000001
 43
0.0000000001
 40
0.0
 40
0.0
 40
0.0
 40
0.0278459026180733
 40
0.0278459026180733
 40
0.0278459026180733
 10
33.51887607571206
 20
16.25486197726209
 30
0.0
 41
1.0
 10
33.5223554088435
 20
16.26835750226264
 30
0.0
 41
0.9985079917047226
 10
33.52728566083138
 20
16.28139312919102
 30
0.0
 41
1.0
  0
SPLINE
  5
C2
330
1F
100
AcDbEntity
  8
Default
100
AcDbSpline
210
0.0
220
0.0
230
1.0
 70
     8
 71
     3
 72
    14
 73
    10
 74
     0
 42
0.0000000001
 43
0.0000000001
 40
0.0
 40
0.0
 40
0.0
 40
0.0
 40
1.0
 40
2.0
 40
3.0
 40
4.0
 40
5.0
 40
6.0
 40
7.0
 40
7.0
 40
7.0
 40
7.0
 10
19.08378556452481
 20
33.13538952763845
 30
0.0
 10
19.55008282765746
 20
32.35001521453236
 30
0.0
 10
20.44950139655523
 20
30.7591982168932
 30
0.0
 10
21.65471010325475
 20
28.29654170643677
 30
0.0
 10
23.07163659595473
 20
25.94832915411824
 30
0.0
 10
24.61851616304098
 20
23.68554315285724
 30
0.0
 10
26.30292618500934
 20
21.522112513705
 30
0.0
 10
28.14713557925019
 20
19.49184259648758
 30
0.0
 10
29.50264313381984
 20
18.26354728235532
 30
0.0
 10
30.21416390070502
 20
17.69062778754483
 30
0.0
  0
SPLINE
  5
C3
330
1F
100
AcDbEntity
  8
Default
100
AcDbSpline
210
0.0
220
0.0
230
1.0
 70
     8
 71
     3
 72
    10
 73
     6
 74
     0
 42
0.0000000001
 43
0.0000000001
 40
0.0
 40
0.0
 40
0.0
 40
0.0
 40
1.0
 40
2.0
 40
3.0
 40
3.0
 40
3.0
 40
3.0
 10
30.21416390070502
 20
17.69062778754483
 30
0.0
 10
30.53015883632779
 20
17.43970694676458
 30
0.0
 10
31.23114420465621
 20
17.03452436870689
 30
0.0
 10
32.35683278423587
 20
16.58939096781661
 30
0.0
 10
33.13138181497067
 20
16.36497462846183
 30
0.0
 10
33.51887607571206
 20
16.25486197726209
 30
0.0
  0
SPLINE
  5
C4
330
1F
100
AcDbEntity
  8
Default
100
AcDbSpline
210
0.0
220
0.0
230
1.0
 70
     8
 71
     3
 72
    12
 73
     8
 74
     0
 42
0.0000000001
 43
0.0000000001
 40
0.0
 40
0.0
 40
0.0
 40
0.0
 40
1.0
 40
2.0
 40
3.0
 40
4.0
 40
5.0
 40
5.0
 40
5.0
 40
5.0
 10
33.51887607571206
 20
16.25486197726209
 30
0.0
 10
34.3305271280045
 20
16.00578902649174
 30
0.0
 10
35.99124996683301
 20
15.64600065496581
 30
0.0
 10
38.51762264712035
 20
15.32503862464257
 30
0.0
 10
41.05254949438996
 20
15.0933495010936
 30
0.0
 10
43.59623540638982
 20
14.97995551562026
 30
0.0
 10
45.29372638482728
 20
14.99115520370961
 30
0.0
 10
46.14125399589636
 20
15.03311980323977
 30
0.0
  0
SPLINE
  5
C5
330
1F
100
AcDbEntity
  8
Default
100
AcDbSpline
210
0.0
220
0.0
230
1.0
 70
     8
 71
     3
 72
    12
 73
     8
 74
     0
 42
0.0000000001
 43
0.0000000001
 40
0.0
 40
0.0
 40
0.0
 40
0.0
 40
1.832654236483523
 40
3.669578742657731
 40
7.371880427553499
 40
11.11625269817009
 40
14.89017125028417
 40
14.89017125028417
 40
14.89017125028417
 40
14.89017125028417
 10
-9.625024286693044
 20
48.25622674382959
 30
0.0
 10
-9.625067479310829
 20
47.64315524209974
 30
0.0
 10
-9.49948950850402
 20
46.42070709937133
 30
0.0
 10
-8.763913123663063
 20
44.06209134790233
 30
0.0
 10
-6.967222555369002
 20
41.4671398155734
 30
0.0
 10
-3.764072839676782
 20
39.4017587844225
 30
0.0
 10
-1.258017574667219
 20
38.92094372543465
 30
0.0
 10
-0.0000438779928196
 20
38.92072349766463
 30
0.0
  0
SPLINE
  5
C6
330
1F
100
AcDbEntity
  8
Default
100
AcDbSpline
210
0.0
220
0.0
230
1.0
 70
     8
 71
     3
 72
    12
 73
     8
 74
     0
 42
0.0000000001
 43
0.0000000001
 40
0.0
 40
0.0
 40
0.0
 40
0.0
 40
1.88935509858243
 40
3.77451955929682
 40
7.516682166840943
 40
11.21816918271822
 40
14.89017237659326
 40
14.89017237659326
 40
14.89017237659326
 40
14.89017237659326
 10
-0.0000438779928196
 20
38.92072349766463
 30
0.0
 10
0.6296893951081763
 20
38.92079126565732
 30
0.0
 10
1.887937613194428
 20
39.041804690463
 30
0.0
 10
4.303004476672575
 20
39.74950502779714
 30
0.0
 10
6.966112914170916
 20
41.46637899534421
 30
0.0
 10
9.118118780305194
 20
44.57320162514759
 30
0.0
 10
9.625271775428685
 20
47.03039706850858
 30
0.0
 10
9.62494371443714
 20
48.25456336238779
 30
0.0
  0
SPLINE
  5
C7
330
1F
100
AcDbEntity
  8
Default
100
AcDbSpline
210
0.0
220
0.0
230
1.0
 70
     8
 71
     3
 72
    12
 73
     8
 74
     0
 42
0.0000000001
 43
0.0000000001
 40
-15.35241690788854
 40
-15.35241690788854
 40
-15.35241690788854
 40
-15.35241690788854
 40
-11.42846766997576
 40
-7.624449320975276
 40
-3.868777776849769
 40
-1.918305221211262
 40
0.0
 40
0.0
 40
0.0
 40
0.0
 10
9.62494371443714
 20
48.25456336238779
 30
0.0
 10
9.624964807981923
 20
49.56194638643463
 30
0.0
 10
9.15949822580759
 20
52.14375242050274
 30
0.0
 10
7.055018482572626
 20
55.43344753753948
 30
0.0
 10
4.375110652753216
 20
57.24815389910561
 30
0.0
 10
1.929182073230196
 20
57.98223892137838
 30
0.0
 10
0.6393297754801228
 20
58.10704918821142
 30
0.0
 10
-0.000043343515439
 20
58.10651850236201
 30
0.0
  0
SPLINE
  5
C8
330
1F
100
AcDbEntity
  8
Default
100
AcDbSpline
210
0.0
220
0.0
230
1.0
 70
     8
 71
     3
 72
    12
 73
     8
 74
     0
 42
0.0000000001
 43
0.0000000001
 40
-15.34910739099933
 40
-15.34910739099933
 40
-15.34910739099933
 40
-15.34910739099933
 40
-11.58400586625319
 40
-7.773657509622682
 40
-3.936637318219009
 40
-1.971105179282632
 40
0.0
 40
0.0
 40
0.0
 40
0.0
 10
-0.000043343515439
 20
58.10651850236201
 30
0.0
 10
-1.254463644415198
 20
58.1062148112857
 30
0.0
 10
-3.783455486321072
 20
57.6311351039321
 30
0.0
 10
-7.019309963607043
 20
55.47911255005673
 30
0.0
 10
-8.7911256039707
 20
52.73014693853526
 30
0.0
 10
-9.505230513731284
 20
50.22788577678018
 30
0.0
 10
-9.62526813812202
 20
48.91507146807437
 30
0.0
 10
-9.625024286693044
 20
48.25622674382959
 30
0.0
  0
SPLINE
  5
C9
330
1F
100
AcDbEntity
  8
Default
100
AcDbSpline
210
0.0
220
0.0
230
1.0
 70
    12
 71
     2
 72
     6
 73
     3
 74
     0
 42
0.0000000001
 43
0.0000000001
 40
0.0
 40
0.0
 40
0.0
 40
0.584707951152618
 40
0.584707951152618
 40
0.584707951152618
 10
9.463061157277851
 20
42.59119839568067
 30
0.0
 41
1.0
 10
9.642981195703577
 20
42.82171948389514
 30
0.0
 41
0.9996461359736499
 10
9.810386857006288
 20
43.0614829859185
 30
0.0
 41
1.0
  0
SPLINE
  5
CA
330
1F
100
AcDbEntity
  8
Default
100
AcDbSpline
210
0.0
220
0.0
230
1.0
 70
     8
 71
     3
 72
    24
 73
    20
 74
     0
 42
0.0000000001
 43
0.0000000001
 40
-17.0
 40
-17.0
 40
-17.0
 40
-17.0
 40
-16.0
 40
-15.0
 40
-14.0
 40
-13.0
 40
-12.0
 40
-11.0
 40
-10.0
 40
-9.0
 40
-8.0
 40
-7.0
 40
-6.0
 40
-5.0
 40
-4.0
 40
-3.0
 40
-2.0
 40
-1.0
 40
0.0
 40
0.0
 40
0.0
 40
0.0
 10
8.870131855837114
 20
41.88775926897668
 30
0.0
 10
9.295051198083767
 20
42.34358543758145
 30
0.0
 10
10.06275693455977
 20
43.33057369223832
 30
0.0
 10
10.95875303932058
 20
44.97816902311096
 30
0.0
 10
11.58932828218272
 20
46.74224893228507
 30
0.0
 10
11.98838938817317
 20
48.57333399265741
 30
0.0
 10
12.12155473089128
 20
50.44120003523586
 30
0.0
 10
12.07561803353805
 20
52.31057403203248
 30
0.0
 10
11.94568726574037
 20
54.17711420203991
 30
0.0
 10
11.58260456570389
 20
56.01374889693874
 30
0.0
 10
11.11588815053122
 20
57.8248120791479
 30
0.0
 10
10.46377163915747
 20
59.57894708819823
 30
0.0
 10
9.612985603370753
 20
61.25094060817452
 30
0.0
 10
8.500352095794542
 20
62.75288951997783
 30
0.0
 10
7.216781376821485
 20
64.13734978753678
 30
0.0
 10
5.547348176220213
 20
65.02403743884992
 30
0.0
 10
3.727725006339344
 20
65.48371898990759
 30
0.0
 10
1.869577303011299
 20
65.70416556311423
 30
0.0
 10
0.6229584972408707
 20
65.74139644988196
 30
0.0
 10
-0.0000432965210493
 20
65.74165287881011
 30
0.0
  0
SPLINE
  5
CB
330
1F
100
AcDbEntity
  8
Default
100
AcDbSpline
210
0.0
220
0.0
230
1.0
 70
     8
 71
     3
 72
    24
 73
    20
 74
     0
 42
0.0000000001
 43
0.0000000001
 40
0.0
 40
0.0
 40
0.0
 40
0.0
 40
1.0
 40
2.0
 40
3.0
 40
4.0
 40
5.0
 40
6.0
 40
7.0
 40
8.0
 40
9.0
 40
10.0
 40
11.0
 40
12.0
 40
13.0
 40
14.0
 40
15.0
 40
16.0
 40
17.0
 40
17.0
 40
17.0
 40
17.0
 10
-0.0000432965210493
 20
65.74165287881011
 30
0.0
 10
-0.6230450902829693
 20
65.74139644988196
 30
0.0
 10
-1.869663896053397
 20
65.70416556311423
 30
0.0
 10
-3.727811599381443
 20
65.48371898990759
 30
0.0
 10
-5.547434769262312
 20
65.02403743884992
 30
0.0
 10
-7.216867969863584
 20
64.13734978753678
 30
0.0
 10
-8.50043868883664
 20
62.75288951997783
 30
0.0
 10
-9.613072196412851
 20
61.25094060817452
 30
0.0
 10
-10.46385823219957
 20
59.57894708819823
 30
0.0
 10
-11.11597474357331
 20
57.8248120791479
 30
0.0
 10
-11.58269115874599
 20
56.01374889693874
 30
0.0
 10
-11.94577385878247
 20
54.17711420203991
 30
0.0
 10
-12.07570462658015
 20
52.31057403203248
 30
0.0
 10
-12.12164132393337
 20
50.44120003523586
 30
0.0
 10
-11.98847598121527
 20
48.57333399265741
 30
0.0
 10
-11.58941487522482
 20
46.74224893228507
 30
0.0
 10
-10.95883963236268
 20
44.97816902311096
 30
0.0
 10
-10.06284352760187
 20
43.33057369223832
 30
0.0
 10
-9.295137791125866
 20
42.34358543758145
 30
0.0
 10
-8.870218448879212
 20
41.88775926897668
 30
0.0
  0
SPLINE
  5
CC
330
1F
100
AcDbEntity
  8
Default
100
AcDbSpline
210
0.0
220
0.0
230
1.0
 70
     8
 71
     3
 72
    10
 73
     6
 74
     0
 42
0.0000000001
 43
0.0000000001
 40
0.0
 40
0.0
 40
0.0
 40
0.0
 40
1.13000657183866
 40
2.287921106073678
 40
8.404575460652145
 40
8.404575460652145
 40
8.404575460652145
 40
8.404575460652145
 10
11.18616138744772
 20
48.18320396906695
 30
0.0
 10
11.12318461247678
 20
47.81188541910066
 30
0.0
 10
10.96244676286172
 20
47.0655309617144
 30
0.0
 10
10.54431530521473
 20
45.66719153424059
 30
0.0
 10
9.824143268394243
 20
44.05675569917155
 30
0.0
 10
8.245514358481797
 20
42.38925548464735
 30
0.0
  0
ARC
  5
CD
330
1F
100
AcDbEntity
  8
Default
100
AcDbCircle
 10
2.038858011917998
 20
48.26512108108621
 30
0.0
 40
8.546834473169264
100
AcDbArc
 50
289.2352185728923
 51
316.568230607434
  0
SPLINE
  5
CE
330
1F
100
AcDbEntity
  8
Default
100
AcDbSpline
210
0.0
220
0.0
230
1.0
 70
     8
 71
     3
 72
    10
 73
     6
 74
     0
 42
0.0000000001
 43
0.0000000001
 40
0.0
 40
0.0
 40
0.0
 40
0.0
 40
1.13000657183866
 40
2.287921106073678
 40
8.404575460652145
 40
8.404575460652145
 40
8.404575460652145
 40
8.404575460652145
 10
-11.18624798048982
 20
48.18320396906695
 30
0.0
 10
-11.12327120551888
 20
47.81188541910066
 30
0.0
 10
-10.96253335590382
 20
47.0655309617144
 30
0.0
 10
-10.54440189825683
 20
45.66719153424059
 30
0.0
 10
-9.824229861436342
 20
44.05675569917155
 30
0.0
 10
-8.245600951523896
 20
42.38925548464735
 30
0.0
  0
ARC
  5
CF
330
1F
100
AcDbEntity
  8
Default
100
AcDbCircle
 10
-2.038944604960097
 20
48.26512108108621
 30
0.0
 40
8.546834473169264
100
AcDbArc
 50
223.431769392566
 51
250.7647814271077
  0
SPLINE
  5
D0
330
1F
100
AcDbEntity
  8
Default
100
AcDbSpline
210
0.0
220
0.0
230
1.0
 70
     8
 71
     3
 72
    11
 73
     7
 74
     0
 42
0.0000000001
 43
0.0000000001
 40
-4.376489242092979
 40
-4.376489242092979
 40
-4.376489242092979
 40
-4.376489242092979
 40
-2.254729024945146
 40
-1.152264979760032
 40
-0.5805792687200015
 40
0.0
 40
0.0
 40
0.0
 40
0.0
 10
4.333164921224702
 20
65.32193638810357
 30
0.0
 10
3.648778064022272
 20
65.50054826644501
 30
0.0
 10
2.589836530508995
 20
65.69774365601177
 30
0.0
 10
1.32857698640521
 20
65.80627647759383
 30
0.0
 10
0.5775810372261123
 20
65.83743731041592
 30
0.0
 10
0.1934817306564121
 20
65.84248328338266
 30
0.0
 10
-0.0000432965210493
 20
65.84248448876818
 30
0.0
  0
SPLINE
  5
D1
330
1F
100
AcDbEntity
  8
Default
100
AcDbSpline
210
0.0
220
0.0
230
1.0
 70
     8
 71
     3
 72
    11
 73
     7
 74
     0
 42
0.0000000001
 43
0.0000000001
 40
0.0
 40
0.0
 40
0.0
 40
0.0
 40
0.5805792687200015
 40
1.152264979760032
 40
2.254729024945146
 40
4.376489242092979
 40
4.376489242092979
 40
4.376489242092979
 40
4.376489242092979
 10
-0.0000432965210493
 20
65.84248448876818
 30
0.0
 10
-0.1935683236985106
 20
65.84248328338266
 30
0.0
 10
-0.5776676302682109
 20
65.83743731041592
 30
0.0
 10
-1.328663579447309
 20
65.80627647759383
 30
0.0
 10
-2.589923123551094
 20
65.69774365601177
 30
0.0
 10
-3.648864657064371
 20
65.50054826644501
 30
0.0
 10
-4.3332515142668
 20
65.32193638810357
 30
0.0
  0
SPLINE
  5
D2
330
1F
100
AcDbEntity
  8
Default
100
AcDbSpline
210
0.0
220
0.0
230
1.0
 70
     8
 71
     3
 72
    24
 73
    20
 74
     0
 42
0.0000000001
 43
0.0000000001
 40
-17.0
 40
-17.0
 40
-17.0
 40
-17.0
 40
-15.99999999439031
 40
-14.99999998878062
 40
-13.99999998317094
 40
-12.99999997756125
 40
-11.99999997195156
 40
-10.99999996634187
 40
-9.999999960732184
 40
-8.999999955122496
 40
-7.999999949512807
 40
-6.999999943903119
 40
-5.99999993829343
 40
-4.999999932683743
 40
-3.999999927074055
 40
-2.999999921464366
 40
-1.999999915854678
 40
-0.9999999102449904
 40
0.0
 40
0.0
 40
0.0
 40
0.0
 10
-7.492109724247172
 20
40.64433331249606
 30
0.0
 10
-8.008831135397015
 20
41.03626524697008
 30
0.0
 10
-8.970987527589868
 20
41.91505308744502
 30
0.0
 10
-10.13665133766891
 20
43.48374979936606
 30
0.0
 10
-10.99450027461452
 20
45.2390854500486
 30
0.0
 10
-11.54032507729135
 20
47.11231057759323
 30
0.0
 10
-11.81342557273614
 20
49.04496329640134
 30
0.0
 10
-11.804251593759
 20
50.99202206481721
 30
0.0
 10
-11.78041737512007
 20
52.93931367928862
 30
0.0
 10
-11.53096825943885
 20
54.87071029732559
 30
0.0
 10
-11.14504443433301
 20
56.77934262932121
 30
0.0
 10
-10.59239353135224
 20
58.6468530585686
 30
0.0
 10
-9.81581513615747
 20
60.43856235248467
 30
0.0
 10
-8.755242555831334
 20
62.07146909006702
 30
0.0
 10
-7.463528512025171
 20
63.55287573784062
 30
0.0
 10
-5.769154978314635
 20
64.54942817085711
 30
0.0
 10
-3.874750924855613
 20
65.04332294230746
 30
0.0
 10
-1.946827167351597
 20
65.30927850944983
 30
0.0
 10
-0.6484123331443385
 20
65.35521778156999
 30
0.0
 10
-0.0000432965210493
 20
65.35526536983738
 30
0.0
  0
SPLINE
  5
D3
330
1F
100
AcDbEntity
  8
Default
100
AcDbSpline
210
0.0
220
0.0
230
1.0
 70
     8
 71
     3
 72
    24
 73
    20
 74
     0
 42
0.0000000001
 43
0.0000000001
 40
0.0
 40
0.0
 40
0.0
 40
0.0
 40
0.9999999102449904
 40
1.999999915854678
 40
2.999999921464366
 40
3.999999927074055
 40
4.999999932683743
 40
5.99999993829343
 40
6.999999943903119
 40
7.999999949512807
 40
8.999999955122496
 40
9.999999960732184
 40
10.99999996634187
 40
11.99999997195156
 40
12.99999997756125
 40
13.99999998317094
 40
14.99999998878062
 40
15.99999999439031
 40
17.0
 40
17.0
 40
17.0
 40
17.0
 10
-0.0000432965210493
 20
65.35526536983738
 30
0.0
 10
0.64832574010224
 20
65.35521778156999
 30
0.0
 10
1.946740574309499
 20
65.30927850944983
 30
0.0
 10
3.874664331813514
 20
65.04332294230746
 30
0.0
 10
5.769068385272536
 20
64.54942817085711
 30
0.0
 10
7.463441918983072
 20
63.55287573784062
 30
0.0
 10
8.755155962789235
 20
62.07146909006702
 30
0.0
 10
9.815728543115371
 20
60.43856235248467
 30
0.0
 10
10.59230693831014
 20
58.6468530585686
 30
0.0
 10
11.14495784129091
 20
56.77934262932121
 30
0.0
 10
11.53088166639675
 20
54.87071029732559
 30
0.0
 10
11.78033078207797
 20
52.93931367928862
 30
0.0
 10
11.8041650007169
 20
50.99202206481721
 30
0.0
 10
11.81333897969404
 20
49.04496329640134
 30
0.0
 10
11.54023848424925
 20
47.11231057759323
 30
0.0
 10
10.99441368157242
 20
45.2390854500486
 30
0.0
 10
10.13656474462681
 20
43.48374979936606
 30
0.0
 10
8.97090093454777
 20
41.91505308744502
 30
0.0
 10
8.008744542354917
 20
41.03626524697008
 30
0.0
 10
7.491791681616142
 20
40.64413950017151
 30
0.0
  0
SPLINE
  5
D4
330
1F
100
AcDbEntity
  8
Default
100
AcDbSpline
210
0.0
220
0.0
230
1.0
 70
     8
 71
     3
 72
    12
 73
     8
 74
     0
 42
0.0000000001
 43
0.0000000001
 40
0.0
 40
0.0
 40
0.0
 40
0.0
 40
1.932841302156171
 40
3.834618248229879
 40
8.02201959796539
 40
12.14534094516417
 40
15.98237434364643
 40
15.98237434364643
 40
15.98237434364643
 40
15.98237434364643
 10
7.491791681616142
 20
40.64413950017151
 30
0.0
 10
6.976695985229378
 20
40.2544897505895
 30
0.0
 10
5.891195478317664
 20
39.57700666055539
 30
0.0
 10
3.397070487299528
 20
38.56888730871736
 30
0.0
 10
-0.00926363499741
 20
38.10885720558756
 30
0.0
 10
-4.063269312220346
 20
38.66447666108373
 30
0.0
 10
-6.474390257330309
 20
39.87022528852678
 30
0.0
 10
-7.492109724247172
 20
40.64433331249606
 30
0.0
  0
SPLINE
  5
D5
330
1F
100
AcDbEntity
  8
Default
100
AcDbSpline
210
0.0
220
0.0
230
1.0
 70
     8
 71
     3
 72
    24
 73
    20
 74
     0
 42
0.0000000001
 43
0.0000000001
 40
0.0
 40
0.0
 40
0.0
 40
0.0
 40
1.0
 40
2.0
 40
3.0
 40
4.0
 40
5.0
 40
6.0
 40
7.0
 40
8.0
 40
9.0
 40
10.0
 40
11.0
 40
12.0
 40
13.0
 40
14.0
 40
15.0
 40
16.0
 40
16.15436416559305
 40
16.15436416559305
 40
16.15436416559305
 40
16.15436416559305
 10
-7.100609934487617
 20
30.19576990910842
 30
0.0
 10
-7.347832354333884
 20
29.82922420715348
 30
0.0
 10
-7.762286742270459
 20
29.04750846002598
 30
0.0
 10
-8.370559793632474
 20
27.87004351699724
 30
0.0
 10
-8.942594987670693
 20
26.67378643561209
 30
0.0
 10
-9.469246518791648
 20
25.45701456374024
 30
0.0
 10
-9.950752853987835
 20
24.22166510439031
 30
0.0
 10
-10.390000060604
 20
22.97070599401192
 30
0.0
 10
-10.78962386204678
 20
21.70658586125062
 30
0.0
 10
-11.15055080946478
 20
20.4307301652413
 30
0.0
 10
-11.47731655607154
 20
19.14639988242437
 30
0.0
 10
-11.7620787988282
 20
17.84933229588762
 30
0.0
 10
-12.05580366509817
 20
16.56524324191667
 30
0.0
 10
-12.153453356043
 20
15.19945114290365
 30
0.0
 10
-11.28747956486986
 20
14.10493926144133
 30
0.0
 10
-10.25230856340619
 20
13.29330453556286
 30
0.0
 10
-9.109706646116448
 20
12.60817688735677
 30
0.0
 10
-8.22815381941604
 20
12.24319679784228
 30
0.0
 10
-7.742588653469474
 20
12.08765803286335
 30
0.0
 10
-7.677446144736302
 20
12.06752645101199
 30
0.0
  0
SPLINE
  5
D6
330
1F
100
AcDbEntity
  8
Default
100
AcDbSpline
210
0.0
220
0.0
230
1.0
 70
     8
 71
     3
 72
    24
 73
    20
 74
     0
 42
0.0000000001
 43
0.0000000001
 40
-16.15436416558934
 40
-16.15436416558934
 40
-16.15436416558934
 40
-16.15436416558934
 40
-16.0
 40
-15.0
 40
-14.0
 40
-13.0
 40
-12.0
 40
-11.0
 40
-10.0
 40
-9.0
 40
-8.0
 40
-7.0
 40
-6.0
 40
-5.0
 40
-4.0
 40
-3.0
 40
-2.0
 40
-1.0
 40
0.0
 40
0.0
 40
0.0
 40
0.0
 10
7.677446144741003
 20
12.06752645101344
 30
0.0
 10
7.742588653472597
 20
12.08765803286435
 30
0.0
 10
8.22815381941756
 20
12.24319679784291
 30
0.0
 10
9.109706646116448
 20
12.60817688735677
 30
0.0
 10
10.25230856340619
 20
13.29330453556286
 30
0.0
 10
11.28747956486986
 20
14.10493926144133
 30
0.0
 10
12.153453356043
 20
15.19945114290365
 30
0.0
 10
12.05580366509817
 20
16.56524324191667
 30
0.0
 10
11.7620787988282
 20
17.84933229588762
 30
0.0
 10
11.47731655607154
 20
19.14639988242437
 30
0.0
 10
11.15055080946478
 20
20.4307301652413
 30
0.0
 10
10.78962386204678
 20
21.70658586125062
 30
0.0
 10
10.390000060604
 20
22.97070599401192
 30
0.0
 10
9.950752853987835
 20
24.22166510439031
 30
0.0
 10
9.469246518791648
 20
25.45701456374024
 30
0.0
 10
8.942594987670693
 20
26.67378643561209
 30
0.0
 10
8.370559793632474
 20
27.87004351699724
 30
0.0
 10
7.762286742270459
 20
29.04750846002598
 30
0.0
 10
7.347832354333884
 20
29.82922420715348
 30
0.0
 10
7.100609934487617
 20
30.19576990910842
 30
0.0
  0
SPLINE
  5
D7
330
1F
100
AcDbEntity
  8
Default
100
AcDbSpline
210
0.0
220
0.0
230
1.0
 70
     8
 71
     3
 72
     9
 73
     5
 74
     0
 42
0.0000000001
 43
0.0000000001
 40
16.48795020943787
 40
16.48795020943787
 40
16.48795020943787
 40
16.48795020943787
 40
17.0
 40
17.2075667548102
 40
17.2075667548102
 40
17.2075667548102
 40
17.2075667548102
 10
-7.252402939441959
 20
11.94587413175473
 30
0.0
 10
-7.033660430803085
 20
11.88791438274108
 30
0.0
 10
-6.723793527920698
 20
11.81516524969706
 30
0.0
 10
-6.412244461628005
 20
11.7511657279526
 30
0.0
 10
-6.322254045810926
 20
11.73339356696609
 30
0.0
  0
SPLINE
  5
D8
330
1F
100
AcDbEntity
  8
Default
100
AcDbSpline
210
0.0
220
0.0
230
1.0
 70
     8
 71
     3
 72
     9
 73
     5
 74
     0
 42
0.0000000001
 43
0.0000000001
 40
-17.20756675480633
 40
-17.20756675480633
 40
-17.20756675480633
 40
-17.20756675480633
 40
-17.0
 40
-16.48795020943422
 40
-16.48795020943422
 40
-16.48795020943422
 40
-16.48795020943422
 10
6.322254045815962
 20
11.73339356696708
 30
0.0
 10
6.412244461631357
 20
11.75116572795329
 30
0.0
 10
6.723793527923948
 20
11.81516524969777
 30
0.0
 10
7.033660430806234
 20
11.88791438274182
 30
0.0
 10
7.252402939446643
 20
11.94587413175597
 30
0.0
  0
SPLINE
  5
D9
330
1F
100
AcDbEntity
  8
Default
100
AcDbSpline
210
0.0
220
0.0
230
1.0
 70
     8
 71
     3
 72
    17
 73
    13
 74
     0
 42
0.0000000001
 43
0.0000000001
 40
-74.62441084685815
 40
-74.62441084685815
 40
-74.62441084685815
 40
-74.62441084685815
 40
-74.0
 40
-73.0
 40
-72.0
 40
-71.0
 40
-70.0
 40
-69.0
 40
-68.0
 40
-67.0
 40
-66.0
 40
-65.53491915654806
 40
-65.53491915654806
 40
-65.53491915654806
 40
-65.53491915654806
 10
37.94169947039581
 20
11.68752185926701
 30
0.0
 10
37.78350368394089
 20
11.66294890044908
 30
0.0
 10
37.3715017462733
 20
11.60194370053398
 30
0.0
 10
36.70419019024524
 20
11.51530245609328
 30
0.0
 10
35.93942998191003
 20
11.43264276695675
 30
0.0
 10
35.17312784645728
 20
11.36581558275175
 30
0.0
 10
34.40570954368579
 20
11.31351700237137
 30
0.0
 10
33.63760276737244
 20
11.27277324732269
 30
0.0
 10
32.86907581512855
 20
11.24096757337426
 30
0.0
 10
32.1003851027095
 20
11.21405549189553
 30
0.0
 10
31.46832815800043
 20
11.20416420049892
 30
0.0
 10
31.09278261322931
 20
11.20568716207658
 30
0.0
 10
30.97355832069215
 20
11.20677886059595
 30
0.0
  0
SPLINE
  5
DA
330
1F
100
AcDbEntity
  8
Default
100
AcDbSpline
210
0.0
220
0.0
230
1.0
 70
     8
 71
     3
 72
    10
 73
     6
 74
     0
 42
0.0000000001
 43
0.0000000001
 40
-63.12014415966212
 40
-63.12014415966212
 40
-63.12014415966212
 40
-63.12014415966212
 40
-63.0
 40
-62.0
 40
-61.19863512245092
 40
-61.19863512245092
 40
-61.19863512245092
 40
-61.19863512245092
 10
29.12618226697069
 20
11.35598848305972
 30
0.0
 10
29.09612049433908
 20
11.36269997967904
 30
0.0
 10
28.81637781830034
 20
11.42764382720849
 30
0.0
 10
28.34574221772814
 20
11.57692570865217
 30
0.0
 10
27.92246920610762
 20
11.76299567854914
 30
0.0
 10
27.73866296309047
 20
11.85476295665326
 30
0.0
  0
SPLINE
  5
DB
330
1F
100
AcDbEntity
  8
Default
100
AcDbSpline
210
0.0
220
0.0
230
1.0
 70
     8
 71
     3
 72
    76
 73
    72
 74
     0
 42
0.0000000001
 43
0.0000000001
 40
-60.61077479581882
 40
-60.61077479581882
 40
-60.61077479581882
 40
-60.61077479581882
 40
-60.0
 40
-59.0
 40
-58.0
 40
-57.0
 40
-56.0
 40
-55.0
 40
-54.0
 40
-53.0
 40
-52.0
 40
-51.0
 40
-50.0
 40
-49.0
 40
-48.0
 40
-47.0
 40
-46.0
 40
-45.0
 40
-44.0
 40
-43.0
 40
-42.0
 40
-41.0
 40
-40.0
 40
-39.0
 40
-38.0
 40
-37.0
 40
-36.0
 40
-35.0
 40
-34.0
 40
-33.0
 40
-32.0
 40
-32.0
 40
-32.0
 40
-31.0
 40
-30.0
 40
-29.0
 40
-28.0
 40
-27.0
 40
-27.0
 40
-27.0
 40
-26.0
 40
-25.0
 40
-24.0
 40
-23.0
 40
-22.0
 40
-21.0
 40
-20.0
 40
-19.0
 40
-18.0
 40
-17.0
 40
-16.0
 40
-15.0
 40
-14.0
 40
-13.0
 40
-12.0
 40
-11.0
 40
-10.0
 40
-10.0
 40
-10.0
 40
-9.0
 40
-8.0
 40
-7.0
 40
-6.0
 40
-5.0
 40
-5.0
 40
-5.0
 40
-4.0
 40
-3.0
 40
-2.0
 40
-1.0
 40
-0.2094959652649184
 40
-0.2094959652649184
 40
-0.2094959652649184
 40
-0.2094959652649184
 10
27.34176421877641
 20
12.07112026309722
 30
0.0
 10
27.20705492504432
 20
12.15096891702739
 30
0.0
 10
26.85961290435776
 20
12.37479323178417
 30
0.0
 10
26.3337984947792
 20
12.79095525409882
 30
0.0
 10
25.78897296415742
 20
13.33543151822317
 30
0.0
 10
25.30050285710757
 20
13.93082436578129
 30
0.0
 10
24.87235593120995
 20
14.57063301566222
 30
0.0
 10
24.48317009224702
 20
15.23418140111848
 30
0.0
 10
24.10448538376759
 20
15.90369251697093
 30
0.0
 10
23.74101462845951
 20
16.58163409701345
 30
0.0
 10
23.39267523337409
 20
17.26744918402579
 30
0.0
 10
23.05774458031516
 20
17.95991090729358
 30
0.0
 10
22.73653487752289
 20
18.65884012670859
 30
0.0
 10
22.42810929757334
 20
19.3635002723832
 30
0.0
 10
22.13263847106819
 20
20.07368956436414
 30
0.0
 10
21.84949646778139
 20
20.78888001164371
 30
0.0
 10
21.57772448049275
 20
21.50846208687818
 30
0.0
 10
21.31763093354432
 20
22.23235295238703
 30
0.0
 10
21.06936179348972
 20
22.96037900516498
 30
0.0
 10
20.83070282291404
 20
23.69159634245316
 30
0.0
 10
20.59768744533546
 20
24.42462783080424
 30
0.0
 10
20.36936095426734
 20
25.15913171101289
 30
0.0
 10
20.14560969926346
 20
25.89504481658588
 30
0.0
 10
19.92730392877228
 20
26.63258883393742
 30
0.0
 10
19.71327476047878
 20
27.37138856030055
 30
0.0
 10
19.5063384494363
 20
28.11220866218996
 30
0.0
 10
19.30584944680322
 20
28.85480081788763
 30
0.0
 10
19.11308174371713
 20
29.59943337379471
 30
0.0
 10
18.93004785261672
 20
30.3465401276437
 30
0.0
 10
18.76038861036784
 20
31.09678076963234
 30
0.0
 10
18.66290704722088
 20
31.60041508569124
 30
0.0
 10
18.62890426408027
 20
31.85462920572938
 30
0.0
 10
18.60867502167151
 20
31.99693721132227
 30
0.0
 10
18.58453941634224
 20
32.28620523864015
 30
0.0
 10
18.62332590869356
 20
32.71381424253138
 30
0.0
 10
18.8331593589421
 20
33.1321388404163
 30
0.0
 10
19.31720703191786
 20
33.15618636991663
 30
0.0
 10
19.54610551539871
 20
32.95454005233407
 30
0.0
 10
19.61617257287094
 20
32.82856354209837
 30
0.0
 10
19.93342240231484
 20
32.283069589389
 30
0.0
 10
20.53889599318908
 20
31.17502022166004
 30
0.0
 10
21.36377644742406
 20
29.47112234567632
 30
0.0
 10
22.22656166895305
 20
27.78565859547467
 30
0.0
 10
23.18922815866195
 20
26.15459107864764
 30
0.0
 10
24.21868538329857
 20
24.56547705184402
 30
0.0
 10
25.31674522140209
 20
23.0226996105748
 30
0.0
 10
26.48492623918158
 20
21.53232906374788
 30
0.0
 10
27.72775138823216
 20
20.10317876498532
 30
0.0
 10
29.0523020695375
 20
18.75000386075001
 30
0.0
 10
30.50741496378375
 20
17.52820894363392
 30
0.0
 10
32.19913883400854
 20
16.65159830229728
 30
0.0
 10
34.02186660379024
 20
16.12174241512892
 30
0.0
 10
35.87736025786359
 20
15.74484546407892
 30
0.0
 10
37.76076820624736
 20
15.53570352579011
 30
0.0
 10
39.65095485214505
 20
15.42628511475395
 30
0.0
 10
41.54428111564641
 20
15.39653557758897
 30
0.0
 10
42.80624931113033
 20
15.42168718193363
 30
0.0
 10
43.43808452706119
 20
15.43969338375241
 30
0.0
 10
43.63744034079996
 20
15.44731589537181
 30
0.0
 10
44.0331376991425
 20
15.45831623490994
 30
0.0
 10
44.63027682134397
 20
15.48335474071482
 30
0.0
 10
45.21613068030408
 20
15.47413612792662
 30
0.0
 10
45.8435832297337
 20
15.59172288621667
 30
0.0
 10
46.15169203244955
 20
15.2383696432432
 30
0.0
 10
46.14125399589466
 20
15.03311980323969
 30
0.0
 10
46.13972353699444
 20
14.62553549730182
 30
0.0
 10
45.54538058740968
 20
14.06070124927022
 30
0.0
 10
44.53801566276483
 20
13.52568851898734
 30
0.0
 10
43.46578566815432
 20
13.09361836163847
 30
0.0
 10
42.45555966623764
 20
12.73913240414449
 30
0.0
 10
41.78121918097428
 20
12.53621921025624
 30
0.0
 10
41.48646445956043
 20
12.45265278672275
 30
0.0
  0
LINE
  5
DC
330
1F
100
AcDbEntity
  8
Make2D visible lines
100
AcDbLine
 10
-8.773267857487715
 20
41.31854751597881
 30
0.0
 11
-8.801985246994732
 21
41.33797182971335
 31
0.0
  0
ARC
  5
DD
330
1F
100
AcDbEntity
  8
Make2D visible lines
100
AcDbCircle
 10
-8.770884598342427
 20
41.38395180375385
 30
0.0
 40
0.0555104346889764
100
AcDbArc
 50
144.3533666786394
 51
235.9257554298866
  0
SPLINE
  5
DE
330
1F
100
AcDbEntity
  8
Make2D visible lines
100
AcDbSpline
210
0.0
220
0.0
230
1.0
 70
    24
 71
     2
 72
     6
 73
     3
 74
     0
 42
0.0000000001
 43
0.0000000001
 40
0.0
 40
0.0
 40
0.0
 40
0.2968584531760914
 40
0.2968584531760914
 40
0.2968584531760914
 10
-8.815993859643125
 20
41.41630242823413
 30
0.0
 10
-8.730359977428535
 20
41.53775918952994
 30
0.0
 10
-8.644726095213942
 20
41.65921595082576
 30
0.0
  0
LINE
  5
DF
330
1F
100
AcDbEntity
  8
Make2D visible lines
100
AcDbLine
 10
-8.415693977754518
 20
41.06645990324818
 30
0.0
 11
-8.387761448674247
 21
41.04592063749163
 31
0.0
  0
ARC
  5
E0
330
1F
100
AcDbEntity
  8
Make2D visible lines
100
AcDbCircle
 10
-8.354902686531934
 20
41.09060715841994
 30
0.0
 40
0.0554669577514513
100
AcDbArc
 50
233.6723200580443
 51
323.4367134050225
  0
SPLINE
  5
E1
330
1F
100
AcDbEntity
  8
Make2D visible lines
100
AcDbSpline
210
0.0
220
0.0
230
1.0
 70
    24
 71
     2
 72
     6
 73
     3
 74
     0
 42
0.0000000001
 43
0.0000000001
 40
0.0
 40
0.0
 40
0.0
 40
0.2039243416554586
 40
0.2039243416554586
 40
0.2039243416554586
 10
-8.310351661939531
 20
41.05756491863556
 30
0.0
 10
-8.251431802530336
 20
41.14112970233109
 30
0.0
 10
-8.19251194312114
 20
41.22469448602661
 30
0.0
  0
SPLINE
  5
E2
330
1F
100
AcDbEntity
  8
Make2D visible lines
100
AcDbSpline
210
0.0
220
0.0
230
1.0
 70
    24
 71
     2
 72
     6
 73
     3
 74
     0
 42
0.0000000001
 43
0.0000000001
 40
1.452304184781549
 40
1.452304184781549
 40
1.452304184781549
 40
3.293043573786101
 40
3.293043573786101
 40
3.293043573786101
 10
-8.579566187652624
 20
41.59327928015641
 30
0.0
 10
-9.113595972403683
 20
40.83585191769253
 30
0.0
 10
-9.647625757154742
 20
40.07842455522865
 30
0.0
  0
SPLINE
  5
E3
330
1F
100
AcDbEntity
  8
Make2D visible lines
100
AcDbSpline
210
0.0
220
0.0
230
1.0
 70
    12
 71
     2
 72
     8
 73
     5
 74
     0
 42
0.0000000001
 43
0.0000000001
 40
0.0
 40
0.0
 40
0.0
 40
0.197163615910639
 40
0.197163615910639
 40
0.3943272318212779
 40
0.3943272318212779
 40
0.3943272318212779
 10
-9.647625757154742
 20
40.07842455522865
 30
0.0
 41
1.0
 10
-9.717082928954984
 20
39.99892240672829
 30
0.0
 41
0.903610101610362
 10
-9.699505604083093
 20
39.89482664321694
 30
0.0
 41
1.0
 10
-9.681928279211201
 20
39.7907308797056
 30
0.0
 41
0.903610101610362
 10
-9.59014942179822
 20
39.73840566466279
 30
0.0
 41
1.0
  0
SPLINE
  5
E4
330
1F
100
AcDbEntity
  8
Make2D visible lines
100
AcDbSpline
210
0.0
220
0.0
230
1.0
 70
    12
 71
     2
 72
     6
 73
     3
 74
     0
 42
0.0000000001
 43
0.0000000001
 40
0.0
 40
0.0
 40
0.0
 40
0.3210187875113308
 40
0.3210187875113308
 40
0.3210187875113308
 10
-9.59014942179822
 20
39.73840566466279
 30
0.0
 41
1.0
 10
-9.41727787729478
 20
39.64328882864923
 30
0.0
 41
0.7427400324777469
 10
-9.304852387233758
 20
39.80534332939839
 30
0.0
 41
1.0
  0
SPLINE
  5
E5
330
1F
100
AcDbEntity
  8
Make2D visible lines
100
AcDbSpline
210
0.0
220
0.0
230
1.0
 70
    24
 71
     2
 72
     6
 73
     3
 74
     0
 42
0.0000000001
 43
0.0000000001
 40
0.0
 40
0.0
 40
0.0
 40
1.785915105102117
 40
1.785915105102117
 40
1.785915105102117
 10
-9.304852387233758
 20
39.80534332939839
 30
0.0
 10
-8.782643241268833
 20
40.54600618763759
 30
0.0
 10
-8.260434095303907
 20
41.28666904587679
 30
0.0
  0
LINE
  5
E6
330
1F
100
AcDbEntity
  8
Make2D visible lines
100
AcDbLine
 10
8.773267857487715
 20
41.31854751597881
 30
0.0
 11
8.801985246994732
 21
41.33797182971335
 31
0.0
  0
ARC
  5
E7
330
1F
100
AcDbEntity
  8
Make2D visible lines
100
AcDbCircle
 10
8.770884598342427
 20
41.38395180375385
 30
0.0
 40
0.0555104346889764
100
AcDbArc
 50
304.0742445701134
 51
35.6466333213606
  0
SPLINE
  5
E8
330
1F
100
AcDbEntity
  8
Make2D visible lines
100
AcDbSpline
210
0.0
220
0.0
230
1.0
 70
    24
 71
     2
 72
     6
 73
     3
 74
     0
 42
0.0000000001
 43
0.0000000001
 40
0.0
 40
0.0
 40
0.0
 40
0.2969215589535001
 40
0.2969215589535001
 40
0.2969215589535001
 10
8.815993859643125
 20
41.41630242823413
 30
0.0
 10
8.730341773491094
 20
41.53778500864765
 30
0.0
 10
8.644689687339065
 20
41.65926758906116
 30
0.0
  0
LINE
  5
E9
330
1F
100
AcDbEntity
  8
Make2D visible lines
100
AcDbLine
 10
8.415693977754518
 20
41.06645990324818
 30
0.0
 11
8.387761448674247
 21
41.04592063749163
 31
0.0
  0
ARC
  5
EA
330
1F
100
AcDbEntity
  8
Make2D visible lines
100
AcDbCircle
 10
8.354902686531934
 20
41.09060715841994
 30
0.0
 40
0.0554669577514513
100
AcDbArc
 50
216.5632865949774
 51
306.3276799419556
  0
SPLINE
  5
EB
330
1F
100
AcDbEntity
  8
Make2D visible lines
100
AcDbSpline
210
0.0
220
0.0
230
1.0
 70
    24
 71
     2
 72
     6
 73
     3
 74
     0
 42
0.0000000001
 43
0.0000000001
 40
0.0
 40
0.0
 40
0.0
 40
0.2039844337108959
 40
0.2039844337108959
 40
0.2039844337108959
 10
8.310351661939531
 20
41.05756491863556
 30
0.0
 10
8.251414440132944
 20
41.14115432705011
 30
0.0
 10
8.192477218326355
 20
41.22474373546466
 30
0.0
  0
SPLINE
  5
EC
330
1F
100
AcDbEntity
  8
Make2D visible lines
100
AcDbSpline
210
0.0
220
0.0
230
1.0
 70
    24
 71
     2
 72
     6
 73
     3
 74
     0
 42
0.0000000001
 43
0.0000000001
 40
1.452241904537081
 40
1.452241904537081
 40
1.452241904537081
 40
3.293043573786101
 40
3.293043573786101
 40
3.293043573786101
 10
8.579530050537564
 20
41.5933305343009
 30
0.0
 10
9.113577903846153
 20
40.83587754476477
 30
0.0
 10
9.647625757154742
 20
40.07842455522865
 30
0.0
  0
SPLINE
  5
ED
330
1F
100
AcDbEntity
  8
Make2D visible lines
100
AcDbSpline
210
0.0
220
0.0
230
1.0
 70
    12
 71
     2
 72
     8
 73
     5
 74
     0
 42
0.0000000001
 43
0.0000000001
 40
0.0
 40
0.0
 40
0.0
 40
0.197163615910639
 40
0.197163615910639
 40
0.3943272318212779
 40
0.3943272318212779
 40
0.3943272318212779
 10
9.647625757154742
 20
40.07842455522865
 30
0.0
 41
1.0
 10
9.717082928954984
 20
39.99892240672829
 30
0.0
 41
0.903610101610362
 10
9.699505604083093
 20
39.89482664321694
 30
0.0
 41
1.0
 10
9.681928279211201
 20
39.7907308797056
 30
0.0
 41
0.903610101610362
 10
9.59014942179822
 20
39.73840566466279
 30
0.0
 41
1.0
  0
SPLINE
  5
EE
330
1F
100
AcDbEntity
  8
Make2D visible lines
100
AcDbSpline
210
0.0
220
0.0
230
1.0
 70
    12
 71
     2
 72
     6
 73
     3
 74
     0
 42
0.0000000001
 43
0.0000000001
 40
0.0
 40
0.0
 40
0.0
 40
0.3210187875113308
 40
0.3210187875113308
 40
0.3210187875113308
 10
9.59014942179822
 20
39.73840566466279
 30
0.0
 41
1.0
 10
9.41727787729478
 20
39.64328882864923
 30
0.0
 41
0.7427400324777469
 10
9.304852387233758
 20
39.80534332939839
 30
0.0
 41
1.0
  0
SPLINE
  5
EF
330
1F
100
AcDbEntity
  8
Make2D visible lines
100
AcDbSpline
210
0.0
220
0.0
230
1.0
 70
    24
 71
     2
 72
     6
 73
     3
 74
     0
 42
0.0000000001
 43
0.0000000001
 40
0.0
 40
0.0
 40
0.0
 40
1.785974990715438
 40
1.785974990715438
 40
1.785974990715438
 10
9.304852387233758
 20
39.80534332939839
 30
0.0
 10
8.782625730461685
 20
40.5460310236723
 30
0.0
 10
8.260399073689612
 20
41.2867187179462
 30
0.0
  0
ENDSEC
  0
SECTION
  2
OBJECTS
  0
DICTIONARY
  5
C
330
0
100
AcDbDictionary
281
     1
  3
ACAD_GROUP
350
D
  3
ACAD_LAYOUT
350
1A
  3
ACAD_MLEADERSTYLE
350
F1
  3
ACAD_MLINESTYLE
350
17
  3
ACAD_PLOTSETTINGS
350
19
  3
ACAD_PLOTSTYLENAME
350
E
  3
ACAD_TABLESTYLE
350
F0
  3
ACAD_VISUALSTYLE
350
2A
  0
DICTIONARY
  5
D
102
{ACAD_REACTORS
330
C
102
}
330
C
100
AcDbDictionary
281
     1
  0
DICTIONARY
  5
1A
102
{ACAD_REACTORS
330
C
102
}
330
C
100
AcDbDictionary
281
     1
  3
Layout1
350
1E
  3
Layout2
350
26
  3
Model
350
22
  0
DICTIONARY
  5
F1
102
{ACAD_REACTORS
330
C
102
}
330
C
100
AcDbDictionary
281
     1
  0
DICTIONARY
  5
17
102
{ACAD_REACTORS
330
C
102
}
330
C
100
AcDbDictionary
281
     1
  3
Standard
350
18
  0
DICTIONARY
  5
19
102
{ACAD_REACTORS
330
C
102
}
330
C
100
AcDbDictionary
281
     1
  0
ACDBDICTIONARYWDFLT
  5
E
102
{ACAD_REACTORS
330
C
102
}
330
C
100
AcDbDictionary
281
     1
  3
Normal
350
F
100
AcDbDictionaryWithDefault
340
F
  0
DICTIONARY
  5
F0
102
{ACAD_REACTORS
330
C
102
}
330
C
100
AcDbDictionary
281
     1
  0
DICTIONARY
  5
2A
102
{ACAD_REACTORS
330
C
102
}
330
C
100
AcDbDictionary
281
     1
  3
2dWireframe
350
2F
  3
3D Hidden
350
31
  3
3dWireframe
350
30
  3
Basic
350
32
  3
Brighten
350
36
  3
ColorChange
350
3A
  3
Conceptual
350
34
  3
Dim
350
35
  3
Facepattern
350
39
  3
Flat
350
2B
  3
FlatWithEdges
350
2C
  3
Gouraud
350
2D
  3
GouraudWithEdges
350
2E
  3
Linepattern
350
38
  3
Realistic
350
33
  3
Thicken
350
37
  0
LAYOUT
  5
1E
102
{ACAD_REACTORS
330
1A
102
}
330
1A
100
AcDbPlotSettings
  1

  2
none_device
  4

  6

 40
0.0
 41
0.0
 42
0.0
 43
0.0
 44
0.0
 45
0.0
 46
0.0
 47
0.0
 48
0.0
 49
0.0
140
0.0
141
0.0
142
1.0
143
1.0
 70
   688
 72
     0
 73
     0
 74
     5
  7

 75
    16
 76
     0
 77
     2
 78
   300
147
1.0
148
0.0
149
0.0
100
AcDbLayout
  1
Layout1
 70
     1
 71
     1
 10
0.0
 20
0.0
 11
12.0
 21
9.0
 12
0.0
 22
0.0
 32
0.0
 14
1.000000000000000E+20
 24
1.000000000000000E+20
 34
1.000000000000000E+20
 15
-1.000000000000000E+20
 25
-1.000000000000000E+20
 35
-1.000000000000000E+20
146
0.0
 13
0.0
 23
0.0
 33
0.0
 16
1.0
 26
0.0
 36
0.0
 17
0.0
 27
1.0
 37
0.0
 76
     0
330
1B
  0
LAYOUT
  5
26
102
{ACAD_REACTORS
330
1A
102
}
330
1A
100
AcDbPlotSettings
  1

  2
none_device
  4

  6

 40
0.0
 41
0.0
 42
0.0
 43
0.0
 44
0.0
 45
0.0
 46
0.0
 47
0.0
 48
0.0
 49
0.0
140
0.0
141
0.0
142
1.0
143
1.0
 70
   688
 72
     0
 73
     0
 74
     5
  7

 75
    16
 76
     0
 77
     2
 78
   300
147
1.0
148
0.0
149
0.0
100
AcDbLayout
  1
Layout2
 70
     1
 71
     2
 10
0.0
 20
0.0
 11
0.0
 21
0.0
 12
0.0
 22
0.0
 32
0.0
 14
0.0
 24
0.0
 34
0.0
 15
0.0
 25
0.0
 35
0.0
146
0.0
 13
0.0
 23
0.0
 33
0.0
 16
1.0
 26
0.0
 36
0.0
 17
0.0
 27
1.0
 37
0.0
 76
     0
330
23
  0
LAYOUT
  5
22
102
{ACAD_REACTORS
330
1A
102
}
330
1A
100
AcDbPlotSettings
  1

  2
none_device
  4

  6

 40
0.0
 41
0.0
 42
0.0
 43
0.0
 44
0.0
 45
0.0
 46
0.0
 47
0.0
 48
0.0
 49
0.0
140
0.0
141
0.0
142
1.0
143
1.0
 70
  1712
 72
     0
 73
     0
 74
     0
  7

 75
     0
 76
     0
 77
     2
 78
   300
147
1.0
148
0.0
149
0.0
100
AcDbLayout
  1
Model
 70
     1
 71
     0
 10
0.0
 20
0.0
 11
12.0
 21
9.0
 12
0.0
 22
0.0
 32
0.0
 14
-12.09179098392149
 24
-0.0002651114711827
 34
0.0
 15
46.14125399589466
 25
65.84248448876818
 35
0.0
146
0.0
 13
0.0
 23
0.0
 33
0.0
 16
1.0
 26
0.0
 36
0.0
 17
0.0
 27
1.0
 37
0.0
 76
     0
330
1F
331
29
  0
MLINESTYLE
  5
18
102
{ACAD_REACTORS
330
17
102
}
330
17
100
AcDbMlineStyle
  2
Standard
 70
     0
  3

 62
   256
 51
90.0
 52
90.0
 71
     2
 49
0.5
 62
   256
  6
BYLAYER
 49
-0.5
 62
   256
  6
BYLAYER
  0
ACDBPLACEHOLDER
  5
F
102
{ACAD_REACTORS
330
E
102
}
330
E
  0
VISUALSTYLE
  5
2F
102
{ACAD_REACTORS
330
2A
102
}
330
2A
100
AcDbVisualStyle
  2
2dWireframe
 70
     4
 71
     0
 72
     2
 73
     0
 90
        0
 40
-0.6
 41
-30.0
 62
     5
 63
     7
421
 16777215
 74
     1
 91
        4
 64
     7
 65
   257
 75
     1
175
     1
 42
1.0
 92
        0
 66
   257
 43
1.0
 76
     1
 77
     6
 78
     2
 67
     7
 79
     5
170
     0
171
     0
290
     0
174
     0
 93
        1
 44
0.0
173
     0
291
     0
 45
0.0
1001
ACAD
1000
AcDbSavedByObjectVersion
1070
     0
  0
VISUALSTYLE
  5
31
102
{ACAD_REACTORS
330
2A
102
}
330
2A
100
AcDbVisualStyle
  2
3D Hidden
 70
     6
 71
     1
 72
     2
 73
     2
 90
        0
 40
-0.6
 41
-30.0
 62
     5
 63
     7
421
 16777215
 74
     2
 91
        2
 64
     7
 65
   257
 75
     2
175
     1
 42
40.0
 92
        0
 66
   257
 43
1.0
 76
     1
 77
     6
 78
     2
 67
     7
 79
     3
170
     0
171
     0
290
     0
174
     0
 93
        1
 44
0.0
173
     0
291
     0
 45
0.0
1001
ACAD
1000
AcDbSavedByObjectVersion
1070
     0
  0
VISUALSTYLE
  5
30
102
{ACAD_REACTORS
330
2A
102
}
330
2A
100
AcDbVisualStyle
  2
3dWireframe
 70
     5
 71
     0
 72
     2
 73
     0
 90
        0
 40
-0.6
 41
-30.0
 62
     5
 63
     7
421
 16777215
 74
     1
 91
        4
 64
     7
 65
   257
 75
     1
175
     1
 42
1.0
 92
        0
 66
   257
 43
1.0
 76
     1
 77
     6
 78
     2
 67
     7
 79
     5
170
     0
171
     0
290
     0
174
     0
 93
        1
 44
0.0
173
     0
291
     0
 45
0.0
1001
ACAD
1000
AcDbSavedByObjectVersion
1070
     0
  0
VISUALSTYLE
  5
32
102
{ACAD_REACTORS
330
2A
102
}
330
2A
100
AcDbVisualStyle
  2
Basic
 70
     7
 71
     1
 72
     0
 73
     1
 90
        0
 40
-0.6
 41
-30.0
 62
     5
 63
     7
421
 16777215
 74
     0
 91
        4
 64
     7
 65
   257
 75
     1
175
     1
 42
1.0
 92
        8
 66
     7
 43
1.0
 76
     1
 77
     6
 78
     2
 67
     7
 79
     5
170
     0
171
     0
290
     0
174
     0
 93
        1
 44
0.0
173
     0
291
     1
 45
0.0
1001
ACAD
1000
AcDbSavedByObjectVersion
1070
     0
  0
VISUALSTYLE
  5
36
102
{ACAD_REACTORS
330
2A
102
}
330
2A
100
AcDbVisualStyle
  2
Brighten
 70
    12
 71
     2
 72
     2
 73
     0
 90
        0
 40
-0.6
 41
-30.0
 62
     5
 63
     7
421
 16777215
 74
     1
 91
        4
 64
     7
 65
   257
 75
     1
175
     1
 42
1.0
 92
        8
 66
     7
 43
1.0
 76
     1
 77
     6
 78
     2
 67
     7
 79
     5
170
     0
171
     0
290
     0
174
     0
 93
        1
 44
50.0
173
     0
291
     1
 45
0.0
1001
ACAD
1000
AcDbSavedByObjectVersion
1070
     0
  0
VISUALSTYLE
  5
3A
102
{ACAD_REACTORS
330
2A
102
}
330
2A
100
AcDbVisualStyle
  2
ColorChange
 70
    16
 71
     2
 72
     2
 73
     3
 90
        0
 40
-0.6
 41
-30.0
 62
     5
 63
     8
421
  8421504
 74
     1
 91
        4
 64
     7
 65
   257
 75
     1
175
     1
 42
1.0
 92
        8
 66
     8
424
  8421504
 43
1.0
 76
     1
 77
     6
 78
     2
 67
     7
 79
     5
170
     0
171
     0
290
     0
174
     0
 93
        1
 44
0.0
173
     0
291
     1
 45
0.0
1001
ACAD
1000
AcDbSavedByObjectVersion
1070
     0
  0
VISUALSTYLE
  5
34
102
{ACAD_REACTORS
330
2A
102
}
330
2A
100
AcDbVisualStyle
  2
Conceptual
 70
     9
 71
     3
 72
     2
 73
     0
 90
        0
 40
-0.6
 41
-30.0
 62
     5
 63
     7
421
 16777215
 74
     2
 91
        2
 64
     7
 65
   257
 75
     1
175
     1
 42
40.0
 92
        8
 66
     7
 43
1.0
 76
     1
 77
     6
 78
     2
 67
     7
 79
     3
170
     0
171
     0
290
     0
174
     0
 93
        1
 44
0.0
173
     0
291
     0
 45
0.0
1001
ACAD
1000
AcDbSavedByObjectVersion
1070
     0
  0
VISUALSTYLE
  5
35
102
{ACAD_REACTORS
330
2A
102
}
330
2A
100
AcDbVisualStyle
  2
Dim
 70
    11
 71
     2
 72
     2
 73
     0
 90
        0
 40
-0.6
 41
-30.0
 62
     5
 63
     7
421
 16777215
 74
     1
 91
        4
 64
     7
 65
   257
 75
     1
175
     1
 42
1.0
 92
        8
 66
     7
 43
1.0
 76
     1
 77
     6
 78
     2
 67
     7
 79
     5
170
     0
171
     0
290
     0
174
     0
 93
        1
 44
-50.0
173
     0
291
     1
 45
0.0
1001
ACAD
1000
AcDbSavedByObjectVersion
1070
     0
  0
VISUALSTYLE
  5
39
102
{ACAD_REACTORS
330
2A
102
}
330
2A
100
AcDbVisualStyle
  2
Facepattern
 70
    15
 71
     2
 72
     2
 73
     0
 90
        0
 40
-0.6
 41
-30.0
 62
     5
 63
     7
421
 16777215
 74
     1
 91
        4
 64
     7
 65
   257
 75
     1
175
     1
 42
1.0
 92
        8
 66
     7
 43
1.0
 76
     1
 77
     6
 78
     2
 67
     7
 79
     5
170
     0
171
     0
290
     0
174
     0
 93
        1
 44
0.0
173
     0
291
     1
 45
0.0
1001
ACAD
1000
AcDbSavedByObjectVersion
1070
     0
  0
VISUALSTYLE
  5
2B
102
{ACAD_REACTORS
330
2A
102
}
330
2A
100
AcDbVisualStyle
  2
Flat
 70
     0
 71
     2
 72
     1
 73
     1
 90
        2
 40
-0.6
 41
30.0
 62
     5
 63
     7
421
 16777215
 74
     0
 91
        4
 64
     7
 65
   257
 75
     1
175
     1
 42
1.0
 92
        8
 66
     7
 43
1.0
 76
     1
 77
     6
 78
     2
 67
     7
 79
     5
170
     0
171
     0
290
     0
174
     0
 93
       13
 44
0.0
173
     0
291
     1
 45
0.0
1001
ACAD
1000
AcDbSavedByObjectVersion
1070
     0
  0
VISUALSTYLE
  5
2C
102
{ACAD_REACTORS
330
2A
102
}
330
2A
100
AcDbVisualStyle
  2
FlatWithEdges
 70
     1
 71
     2
 72
     1
 73
     1
 90
        2
 40
-0.6
 41
30.0
 62
     5
 63
     7
421
 16777215
 74
     1
 91
        4
 64
     7
 65
   257
 75
     1
175
     1
 42
1.0
 92
        0
 66
   257
 43
1.0
 76
     1
 77
     6
 78
     2
 67
     7
 79
     5
170
     0
171
     0
290
     0
174
     0
 93
       13
 44
0.0
173
     0
291
     1
 45
0.0
1001
ACAD
1000
AcDbSavedByObjectVersion
1070
     0
  0
VISUALSTYLE
  5
2D
102
{ACAD_REACTORS
330
2A
102
}
330
2A
100
AcDbVisualStyle
  2
Gouraud
 70
     2
 71
     2
 72
     2
 73
     1
 90
        2
 40
-0.6
 41
30.0
 62
     5
 63
     7
421
 16777215
 74
     0
 91
        4
 64
     7
 65
   257
 75
     1
175
     1
 42
1.0
 92
        0
 66
     7
 43
1.0
 76
     1
 77
     6
 78
     2
 67
     7
 79
     5
170
     0
171
     0
290
     0
174
     0
 93
       13
 44
0.0
173
     0
291
     1
 45
0.0
1001
ACAD
1000
AcDbSavedByObjectVersion
1070
     0
  0
VISUALSTYLE
  5
2E
102
{ACAD_REACTORS
330
2A
102
}
330
2A
100
AcDbVisualStyle
  2
GouraudWithEdges
 70
     3
 71
     2
 72
     2
 73
     1
 90
        2
 40
-0.6
 41
30.0
 62
     5
 63
     7
421
 16777215
 74
     1
 91
        4
 64
     7
 65
   257
 75
     1
175
     1
 42
1.0
 92
        0
 66
   257
 43
1.0
 76
     1
 77
     6
 78
     2
 67
     7
 79
     5
170
     0
171
     0
290
     0
174
     0
 93
       13
 44
0.0
173
     0
291
     1
 45
0.0
1001
ACAD
1000
AcDbSavedByObjectVersion
1070
     0
  0
VISUALSTYLE
  5
38
102
{ACAD_REACTORS
330
2A
102
}
330
2A
100
AcDbVisualStyle
  2
Linepattern
 70
    14
 71
     2
 72
     2
 73
     0
 90
        0
 40
-0.6
 41
-30.0
 62
     5
 63
     7
421
 16777215
 74
     1
 91
        4
 64
     7
 65
   257
 75
     7
175
     7
 42
1.0
 92
        8
 66
     7
 43
1.0
 76
     1
 77
     6
 78
     2
 67
     7
 79
     5
170
     0
171
     0
290
     0
174
     0
 93
        1
 44
0.0
173
     0
291
     1
 45
0.0
1001
ACAD
1000
AcDbSavedByObjectVersion
1070
     0
  0
VISUALSTYLE
  5
33
102
{ACAD_REACTORS
330
2A
102
}
330
2A
100
AcDbVisualStyle
  2
Realistic
 70
     8
 71
     2
 72
     2
 73
     0
 90
        0
 40
-0.6
 41
-30.0
 62
     5
 63
     7
421
 16777215
 74
     1
 91
        0
 64
     7
 65
   257
 75
     1
175
     1
 42
1.0
 92
        8
 66
     8
424
  7895160
 43
1.0
 76
     1
 77
     6
 78
     2
 67
     7
 79
     5
170
     0
171
     0
290
     0
174
     0
 93
       13
 44
0.0
173
     0
291
     0
 45
0.0
1001
ACAD
1000
AcDbSavedByObjectVersion
1070
     0
  0
VISUALSTYLE
  5
37
102
{ACAD_REACTORS
330
2A
102
}
330
2A
100
AcDbVisualStyle
  2
Thicken
 70
    13
 71
     2
 72
     2
 73
     0
 90
        0
 40
-0.6
 41
-30.0
 62
     5
 63
     7
421
 16777215
 74
     1
 91
        4
 64
     7
 65
   257
 75
     1
175
     1
 42
1.0
 92
       12
 66
     7
 43
1.0
 76
     1
 77
     6
 78
     2
 67
     7
 79
     5
170
     0
171
     0
290
     0
174
     0
 93
        1
 44
0.0
173
     0
291
     1
 45
0.0
1001
ACAD
1000
AcDbSavedByObjectVersion
1070
     0
  0
ENDSEC
  0
EOF
