  0
SECTION
  2
HEADER
  9
$ACADVER
  1
AC1018
  9
$ACADMAINTVER
 70
     0
  9
$DWGCODEPAGE
  3
ANSI_1252
  9
$INSBASE
 10
0.0
 20
0.0
 30
0.0
  9
$EXTMIN
 10
-14.64960402052019
 20
0.0000000000000034
 30
0.0
  9
$EXTMAX
 10
57.26436956481862
 20
68.8988821943443
 30
0.0
  9
$LIMMIN
 10
0.0
 20
0.0
  9
$LIMMAX
 10
12.0
 20
9.0
  9
$ORTHOMODE
 70
     0
  9
$REGENMODE
 70
     1
  9
$FILLMODE
 70
     1
  9
$QTEXTMODE
 70
     0
  9
$MIRRTEXT
 70
     1
  9
$LTSCALE
 40
0.0393700787401575
  9
$ATTMODE
 70
     1
  9
$TEXTSIZE
 40
0.2
  9
$TRACEWID
 40
0.05
  9
$TEXTSTYLE
  7
Standard
  9
$CLAYER
  8
Default
  9
$CELTYPE
  6
ByLayer
  9
$CECOLOR
 62
   256
  9
$CELTSCALE
 40
1.0
  9
$DISPSILH
 70
     0
  9
$DIMSCALE
 40
1.0
  9
$DIMASZ
 40
0.18
  9
$DIMEXO
 40
0.0625
  9
$DIMDLI
 40
0.38
  9
$DIMRND
 40
0.0
  9
$DIMDLE
 40
0.0
  9
$DIMEXE
 40
0.18
  9
$DIMTP
 40
0.0
  9
$DIMTM
 40
0.0
  9
$DIMTXT
 40
0.18
  9
$DIMCEN
 40
0.09
  9
$DIMTSZ
 40
0.0
  9
$DIMTOL
 70
     0
  9
$DIMLIM
 70
     0
  9
$DIMTIH
 70
     1
  9
$DIMTOH
 70
     1
  9
$DIMSE1
 70
     0
  9
$DIMSE2
 70
     0
  9
$DIMTAD
 70
     0
  9
$DIMZIN
 70
     0
  9
$DIMBLK
  1

  9
$DIMASO
 70
     1
  9
$DIMSHO
 70
     1
  9
$DIMPOST
  1

  9
$DIMAPOST
  1

  9
$DIMALT
 70
     0
  9
$DIMALTD
 70
     2
  9
$DIMALTF
 40
25.4
  9
$DIMLFAC
 40
1.0
  9
$DIMTOFL
 70
     0
  9
$DIMTVP
 40
0.0
  9
$DIMTIX
 70
     0
  9
$DIMSOXD
 70
     0
  9
$DIMSAH
 70
     0
  9
$DIMBLK1
  1

  9
$DIMBLK2
  1

  9
$DIMSTYLE
  2
Standard
  9
$DIMCLRD
 70
     0
  9
$DIMCLRE
 70
     0
  9
$DIMCLRT
 70
     0
  9
$DIMTFAC
 40
1.0
  9
$DIMGAP
 40
0.09
  9
$DIMJUST
 70
     0
  9
$DIMSD1
 70
     0
  9
$DIMSD2
 70
     0
  9
$DIMTOLJ
 70
     1
  9
$DIMTZIN
 70
     0
  9
$DIMALTZ
 70
     0
  9
$DIMALTTZ
 70
     0
  9
$DIMUPT
 70
     0
  9
$DIMDEC
 70
     4
  9
$DIMTDEC
 70
     4
  9
$DIMALTU
 70
     2
  9
$DIMALTTD
 70
     2
  9
$DIMTXSTY
  7
Standard
  9
$DIMAUNIT
 70
     0
  9
$DIMADEC
 70
     0
  9
$DIMALTRND
 40
0.0
  9
$DIMAZIN
 70
     0
  9
$DIMDSEP
 70
    46
  9
$DIMATFIT
 70
     3
  9
$DIMFRAC
 70
     0
  9
$DIMLDRBLK
  1

  9
$DIMLUNIT
 70
     2
  9
$DIMLWD
 70
    -2
  9
$DIMLWE
 70
    -2
  9
$DIMTMOVE
 70
     2
  9
$LUNITS
 70
     2
  9
$LUPREC
 70
     3
  9
$SKETCHINC
 40
0.1
  9
$FILLETRAD
 40
0.5
  9
$AUNITS
 70
     0
  9
$AUPREC
 70
     0
  9
$MENU
  1
.
  9
$ELEVATION
 40
0.0
  9
$PELEVATION
 40
0.0
  9
$THICKNESS
 40
0.0
  9
$LIMCHECK
 70
     0
  9
$CHAMFERA
 40
0.5
  9
$CHAMFERB
 40
0.5
  9
$CHAMFERC
 40
1.0
  9
$CHAMFERD
 40
0.0
  9
$SKPOLY
 70
     0
  9
$TDCREATE
 40
2456338.46450125
  9
$TDUCREATE
 40
2456338.672834584
  9
$TDUPDATE
 40
2456338.464501262
  9
$TDUUPDATE
 40
2456338.672834595
  9
$TDINDWG
 40
0.0000000116
  9
$TDUSRTIMER
 40
0.0000000116
  9
$USRTIMER
 70
     1
  9
$ANGBASE
 50
0.0
  9
$ANGDIR
 70
     0
  9
$PDMODE
 70
     0
  9
$PDSIZE
 40
0.0
  9
$PLINEWID
 40
0.0
  9
$SPLFRAME
 70
     0
  9
$SPLINETYPE
 70
     6
  9
$SPLINESEGS
 70
     8
  9
$HANDSEED
  5
F2
  9
$SURFTAB1
 70
     6
  9
$SURFTAB2
 70
     6
  9
$SURFTYPE
 70
     6
  9
$SURFU
 70
     6
  9
$SURFV
 70
     6
  9
$UCSBASE
  2

  9
$UCSNAME
  2

  9
$UCSORG
 10
0.0
 20
0.0
 30
0.0
  9
$UCSXDIR
 10
1.0
 20
0.0
 30
0.0
  9
$UCSYDIR
 10
0.0
 20
1.0
 30
0.0
  9
$UCSORTHOREF
  2

  9
$UCSORTHOVIEW
 70
     0
  9
$UCSORGTOP
 10
0.0
 20
0.0
 30
0.0
  9
$UCSORGBOTTOM
 10
0.0
 20
0.0
 30
0.0
  9
$UCSORGLEFT
 10
0.0
 20
0.0
 30
0.0
  9
$UCSORGRIGHT
 10
0.0
 20
0.0
 30
0.0
  9
$UCSORGFRONT
 10
0.0
 20
0.0
 30
0.0
  9
$UCSORGBACK
 10
0.0
 20
0.0
 30
0.0
  9
$PUCSBASE
  2

  9
$PUCSNAME
  2

  9
$PUCSORG
 10
0.0
 20
0.0
 30
0.0
  9
$PUCSXDIR
 10
1.0
 20
0.0
 30
0.0
  9
$PUCSYDIR
 10
0.0
 20
1.0
 30
0.0
  9
$PUCSORTHOREF
  2

  9
$PUCSORTHOVIEW
 70
     0
  9
$PUCSORGTOP
 10
0.0
 20
0.0
 30
0.0
  9
$PUCSORGBOTTOM
 10
0.0
 20
0.0
 30
0.0
  9
$PUCSORGLEFT
 10
0.0
 20
0.0
 30
0.0
  9
$PUCSORGRIGHT
 10
0.0
 20
0.0
 30
0.0
  9
$PUCSORGFRONT
 10
0.0
 20
0.0
 30
0.0
  9
$PUCSORGBACK
 10
0.0
 20
0.0
 30
0.0
  9
$USERI1
 70
     0
  9
$USERI2
 70
     0
  9
$USERI3
 70
     0
  9
$USERI4
 70
     0
  9
$USERI5
 70
     0
  9
$USERR1
 40
0.0
  9
$USERR2
 40
0.0
  9
$USERR3
 40
0.0
  9
$USERR4
 40
0.0
  9
$USERR5
 40
0.0
  9
$WORLDVIEW
 70
     1
  9
$SHADEDGE
 70
     3
  9
$SHADEDIF
 70
    70
  9
$TILEMODE
 70
     1
  9
$MAXACTVP
 70
    64
  9
$PINSBASE
 10
0.0
 20
0.0
 30
0.0
  9
$PLIMCHECK
 70
     0
  9
$PEXTMIN
 10
1.000000000000000E+20
 20
1.000000000000000E+20
 30
1.000000000000000E+20
  9
$PEXTMAX
 10
-1.000000000000000E+20
 20
-1.000000000000000E+20
 30
-1.000000000000000E+20
  9
$PLIMMIN
 10
0.0
 20
0.0
  9
$PLIMMAX
 10
12.0
 20
9.0
  9
$UNITMODE
 70
     0
  9
$VISRETAIN
 70
     1
  9
$PLINEGEN
 70
     0
  9
$PSLTSCALE
 70
     1
  9
$TREEDEPTH
 70
  3020
  9
$CMLSTYLE
  2
Standard
  9
$CMLJUST
 70
     0
  9
$CMLSCALE
 40
1.0
  9
$PROXYGRAPHICS
 70
     1
  9
$MEASUREMENT
 70
     0
  9
$CELWEIGHT
370
    -1
  9
$ENDCAPS
280
     0
  9
$JOINSTYLE
280
     0
  9
$LWDISPLAY
290
     0
  9
$INSUNITS
 70
     1
  9
$HYPERLINKBASE
  1

  9
$STYLESHEET
  1

  9
$XEDIT
290
     1
  9
$CEPSNTYPE
380
     0
  9
$PSTYLEMODE
290
     1
  9
$FINGERPRINTGUID
  2
{84036DD4-BF04-4FDC-A0C9-86BCEBCAC928}
  9
$VERSIONGUID
  2
{FAEB1C32-E019-11D5-929B-00C0DF256EC4}
  9
$EXTNAMES
290
     1
  9
$PSVPSCALE
 40
0.0
  9
$OLESTARTUP
290
     0
  9
$SORTENTS
280
   127
  9
$INDEXCTL
280
     0
  9
$HIDETEXT
280
     1
  9
$XCLIPFRAME
290
     0
  9
$HALOGAP
280
     0
  9
$OBSCOLOR
 70
   257
  9
$OBSLTYPE
280
     0
  9
$INTERSECTIONDISPLAY
280
     0
  9
$INTERSECTIONCOLOR
 70
   257
  9
$DIMASSOC
280
     2
  9
$PROJECTNAME
  1

  0
ENDSEC
  0
SECTION
  2
CLASSES
  0
CLASS
  1
ACDBDICTIONARYWDFLT
  2
AcDbDictionaryWithDefault
  3
ObjectDBX Classes
 90
        0
 91
        4
280
     0
281
     0
  0
CLASS
  1
VISUALSTYLE
  2
AcDbVisualStyle
  3
ObjectDBX Classes
 90
     4095
 91
        4
280
     0
281
     0
  0
ENDSEC
  0
SECTION
  2
TABLES
  0
TABLE
  2
VPORT
  5
8
330
0
100
AcDbSymbolTable
 70
     1
  0
VPORT
  5
29
330
8
100
AcDbSymbolTableRecord
100
AcDbViewportTableRecord
  2
*Active
 70
     0
 10
0.0
 20
0.0
 11
1.0
 21
1.0
 12
21.30738277214921
 22
34.44944109717215
 13
0.0
 23
0.0
 14
0.5
 24
0.5
 15
0.5
 25
0.5
 16
0.0
 26
0.0
 36
1.0
 17
0.0
 27
0.0
 37
0.0
 40
70.27685983823119
 41
1.04376110750955
 42
50.0
 43
0.0
 44
0.0
 50
0.0
 51
0.0
 71
     0
 72
   100
 73
     1
 74
     3
 75
     0
 76
     0
 77
     0
 78
     0
281
     0
 65
     1
110
0.0
120
0.0
130
0.0
111
1.0
121
0.0
131
0.0
112
0.0
122
1.0
132
0.0
 79
     0
146
0.0
  0
ENDTAB
  0
TABLE
  2
LTYPE
  5
5
330
0
100
AcDbSymbolTable
 70
     1
  0
LTYPE
  5
14
330
5
100
AcDbSymbolTableRecord
100
AcDbLinetypeTableRecord
  2
ByBlock
 70
     0
  3

 72
    65
 73
     0
 40
0.0
  0
LTYPE
  5
15
330
5
100
AcDbSymbolTableRecord
100
AcDbLinetypeTableRecord
  2
ByLayer
 70
     0
  3

 72
    65
 73
     0
 40
0.0
  0
LTYPE
  5
16
330
5
100
AcDbSymbolTableRecord
100
AcDbLinetypeTableRecord
  2
Continuous
 70
     0
  3
Solid line
 72
    65
 73
     0
 40
0.0
  0
ENDTAB
  0
TABLE
  2
LAYER
  5
2
330
0
100
AcDbSymbolTable
 70
     4
  0
LAYER
  5
10
330
2
100
AcDbSymbolTableRecord
100
AcDbLayerTableRecord
  2
0
 70
     0
 62
     7
  6
Continuous
370
    -3
390
F
  0
LAYER
  5
3B
330
2
100
AcDbSymbolTableRecord
100
AcDbLayerTableRecord
  2
Make2D visible lines
 70
     0
 62
     7
  6
Continuous
370
    -3
390
F
  0
LAYER
  5
4F
330
2
100
AcDbSymbolTableRecord
100
AcDbLayerTableRecord
  2
Make2D visible lines - Tangent
 70
     0
 62
     7
  6
Continuous
370
    -3
390
F
  0
LAYER
  5
BE
330
2
100
AcDbSymbolTableRecord
100
AcDbLayerTableRecord
  2
Default
 70
     0
 62
     7
  6
Continuous
370
    -3
390
F
  0
ENDTAB
  0
TABLE
  2
STYLE
  5
3
330
0
100
AcDbSymbolTable
 70
     1
  0
STYLE
  5
11
330
3
100
AcDbSymbolTableRecord
100
AcDbTextStyleTableRecord
  2
Standard
 70
     0
 40
0.0
 41
1.0
 50
0.0
 71
     0
 42
0.2
  3
txt
  4

  0
ENDTAB
  0
TABLE
  2
VIEW
  5
6
330
0
100
AcDbSymbolTable
 70
     0
  0
ENDTAB
  0
TABLE
  2
UCS
  5
7
330
0
100
AcDbSymbolTable
 70
     0
  0
ENDTAB
  0
TABLE
  2
APPID
  5
9
330
0
100
AcDbSymbolTable
 70
     1
  0
APPID
  5
12
330
9
100
AcDbSymbolTableRecord
100
AcDbRegAppTableRecord
  2
ACAD
 70
     0
  0
ENDTAB
  0
TABLE
  2
DIMSTYLE
  5
A
330
0
100
AcDbSymbolTable
 70
     1
100
AcDbDimStyleTable
  0
DIMSTYLE
105
27
330
A
100
AcDbSymbolTableRecord
100
AcDbDimStyleTableRecord
  2
Standard
 70
     0
340
11
  0
ENDTAB
  0
TABLE
  2
BLOCK_RECORD
  5
1
330
0
100
AcDbSymbolTable
 70
     1
  0
BLOCK_RECORD
  5
1F
330
1
100
AcDbSymbolTableRecord
100
AcDbBlockTableRecord
  2
*Model_Space
340
22
  0
BLOCK_RECORD
  5
1B
330
1
100
AcDbSymbolTableRecord
100
AcDbBlockTableRecord
  2
*Paper_Space
340
1E
  0
BLOCK_RECORD
  5
23
330
1
100
AcDbSymbolTableRecord
100
AcDbBlockTableRecord
  2
*Paper_Space0
340
26
  0
ENDTAB
  0
ENDSEC
  0
SECTION
  2
BLOCKS
  0
BLOCK
  5
20
330
1F
100
AcDbEntity
  8
0
100
AcDbBlockBegin
  2
*Model_Space
 70
     0
 10
0.0
 20
0.0
 30
0.0
  3
*Model_Space
  1

  0
ENDBLK
  5
21
330
1F
100
AcDbEntity
  8
0
100
AcDbBlockEnd
  0
BLOCK
  5
1C
330
1B
100
AcDbEntity
 67
     1
  8
0
100
AcDbBlockBegin
  2
*Paper_Space
 70
     0
 10
0.0
 20
0.0
 30
0.0
  3
*Paper_Space
  1

  0
ENDBLK
  5
1D
330
1B
100
AcDbEntity
 67
     1
  8
0
100
AcDbBlockEnd
  0
BLOCK
  5
24
330
23
100
AcDbEntity
  8
0
100
AcDbBlockBegin
  2
*Paper_Space0
 70
     0
 10
0.0
 20
0.0
 30
0.0
  3
*Paper_Space0
  1

  0
ENDBLK
  5
25
330
23
100
AcDbEntity
  8
0
100
AcDbBlockEnd
  0
ENDSEC
  0
SECTION
  2
ENTITIES
  0
SPLINE
  5
3C
330
1F
100
AcDbEntity
  8
Make2D visible lines
100
AcDbSpline
210
0.0
220
0.0
230
1.0
 70
     8
 71
     3
 72
     8
 73
     4
 74
     0
 42
0.0000000001
 43
0.0000000001
 40
0.6950384688492743
 40
0.6950384688492743
 40
0.6950384688492743
 40
0.6950384688492743
 40
1.0
 40
1.0
 40
1.0
 40
1.0
 10
43.09182545515017
 20
3.673125576136301
 30
0.0
 10
43.34032008411272
 20
3.670158211529776
 30
0.0
 10
43.58877314422623
 20
3.664870965980719
 30
0.0
 10
43.83711963857024
 20
3.65726383948913
 30
0.0
  0
SPLINE
  5
3D
330
1F
100
AcDbEntity
  8
Make2D visible lines
100
AcDbSpline
210
0.0
220
0.0
230
1.0
 70
    12
 71
     3
 72
     8
 73
     4
 74
     0
 42
0.0000000001
 43
0.0000000001
 40
-0.9983344876344831
 40
-0.9983344876344831
 40
-0.9983344876344831
 40
-0.9983344876344831
 40
0.0
 40
0.0
 40
0.0
 40
0.0
 10
43.83711963857024
 20
3.65726383948913
 30
0.0
 41
1.0
 10
44.29178237733986
 20
3.64333701932616
 30
0.0
 41
1.0
 10
44.7441651531161
 20
3.574404695741988
 30
0.0
 41
1.0
 10
45.19501644368707
 20
3.511811827671384
 30
0.0
 41
1.0
  0
SPLINE
  5
3E
330
1F
100
AcDbEntity
  8
Make2D visible lines
100
AcDbSpline
210
0.0
220
0.0
230
1.0
 70
    24
 71
     2
 72
     6
 73
     3
 74
     0
 42
0.0000000001
 43
0.0000000001
 40
0.0
 40
0.0
 40
0.0
 40
10.36850216633574
 40
10.36850216633574
 40
10.36850216633574
 10
45.19501644368707
 20
3.511811827671384
 30
0.0
 10
50.33001644368707
 20
2.798906298637399
 30
0.0
 10
55.46501644368707
 20
2.086000769603414
 30
0.0
  0
SPLINE
  5
3F
330
1F
100
AcDbEntity
  8
Make2D visible lines
100
AcDbSpline
210
0.0
220
0.0
230
1.0
 70
     8
 71
     3
 72
    13
 73
     9
 74
     0
 42
0.0000000001
 43
0.0000000001
 40
0.0
 40
0.0
 40
0.0
 40
0.0
 40
0.1163337939371243
 40
0.2443108918713642
 40
0.4828690280123605
 40
0.5672189493277444
 40
0.750510233115731
 40
1.83258135608072
 40
1.83258135608072
 40
1.83258135608072
 40
1.83258135608072
 10
55.46501644368707
 20
2.086000769603414
 30
0.0
 10
55.50269536726016
 20
2.080693221901958
 30
0.0
 10
55.58363136125955
 20
2.057218183732865
 30
0.0
 10
55.71601298950972
 20
1.966768126584214
 30
0.0
 10
55.79839677042408
 20
1.830020096093349
 30
0.0
 10
55.80945238927565
 20
1.661268225296924
 30
0.0
 10
55.81752561026681
 20
1.211528658082631
 30
0.0
 10
55.8303508440803
 20
0.7898405850234216
 30
0.0
 10
55.83830116723628
 20
0.429267031622143
 30
0.0
  0
SPLINE
  5
40
330
1F
100
AcDbEntity
  8
Make2D visible lines
100
AcDbSpline
210
0.0
220
0.0
230
1.0
 70
     8
 71
     3
 72
    13
 73
     9
 74
     0
 42
0.0000000001
 43
0.0000000001
 40
-1.83258135608072
 40
-1.83258135608072
 40
-1.83258135608072
 40
-1.83258135608072
 40
-0.750510233115731
 40
-0.5672189493277444
 40
-0.4828690280123605
 40
-0.2443108918713642
 40
-0.1163337939371243
 40
0.0
 40
0.0
 40
0.0
 40
0.0
 10
29.39173172013774
 20
0.429267031622143
 30
0.0
 10
29.39968204329372
 20
0.7898405850234216
 30
0.0
 10
29.41250727710721
 20
1.211528658082631
 30
0.0
 10
29.42058049809838
 20
1.661268225296924
 30
0.0
 10
29.43163611694994
 20
1.830020096093349
 30
0.0
 10
29.5140198978643
 20
1.966768126584214
 30
0.0
 10
29.64640152611447
 20
2.057218183732865
 30
0.0
 10
29.72733752011387
 20
2.080693221901958
 30
0.0
 10
29.76501644368695
 20
2.086000769603414
 30
0.0
  0
SPLINE
  5
41
330
1F
100
AcDbEntity
  8
Make2D visible lines
100
AcDbSpline
210
0.0
220
0.0
230
1.0
 70
    24
 71
     2
 72
     6
 73
     3
 74
     0
 42
0.0000000001
 43
0.0000000001
 40
-10.36850216633574
 40
-10.36850216633574
 40
-10.36850216633574
 40
0.0
 40
0.0
 40
0.0
 10
29.76501644368695
 20
2.086000769603414
 30
0.0
 10
34.90001644368695
 20
2.798906298637399
 30
0.0
 10
40.03501644368696
 20
3.511811827671384
 30
0.0
  0
SPLINE
  5
42
330
1F
100
AcDbEntity
  8
Make2D visible lines
100
AcDbSpline
210
0.0
220
0.0
230
1.0
 70
    12
 71
     3
 72
     8
 73
     4
 74
     0
 42
0.0000000001
 43
0.0000000001
 40
0.0
 40
0.0
 40
0.0
 40
0.0
 40
0.9983344876344831
 40
0.9983344876344831
 40
0.9983344876344831
 40
0.9983344876344831
 10
40.03501644368696
 20
3.511811827671384
 30
0.0
 41
1.0
 10
40.48586773425792
 20
3.574404695741988
 30
0.0
 41
1.0
 10
40.93825051003416
 20
3.64333701932616
 30
0.0
 41
1.0
 10
41.39291324880378
 20
3.65726383948913
 30
0.0
 41
1.0
  0
SPLINE
  5
43
330
1F
100
AcDbEntity
  8
Make2D visible lines
100
AcDbSpline
210
0.0
220
0.0
230
1.0
 70
     8
 71
     3
 72
     8
 73
     4
 74
     0
 42
0.0000000001
 43
0.0000000001
 40
0.0
 40
0.0
 40
0.0
 40
0.0
 40
0.3051876163662417
 40
0.3051876163662417
 40
0.3051876163662417
 40
0.3051876163662417
 10
41.39291324880378
 20
3.65726383948913
 30
0.0
 10
41.64144385643738
 20
3.664876605573444
 30
0.0
 10
41.89008118790549
 20
3.670166049722532
 30
0.0
 10
42.1387601016228
 20
3.673132171936395
 30
0.0
  0
SPLINE
  5
44
330
1F
100
AcDbEntity
  8
Make2D visible lines
100
AcDbSpline
210
0.0
220
0.0
230
1.0
 70
     8
 71
     3
 72
     8
 73
     4
 74
     0
 42
0.0000000001
 43
0.0000000001
 40
0.6950384688492743
 40
0.6950384688492743
 40
0.6950384688492743
 40
0.6950384688492743
 40
1.0
 40
1.0
 40
1.0
 40
1.0
 10
0.4768090114631614
 20
3.673125576136301
 30
0.0
 10
0.7253036404257046
 20
3.670158211529776
 30
0.0
 10
0.9737567005392187
 20
3.664870965980719
 30
0.0
 10
1.222103194883235
 20
3.65726383948913
 30
0.0
  0
SPLINE
  5
45
330
1F
100
AcDbEntity
  8
Make2D visible lines
100
AcDbSpline
210
0.0
220
0.0
230
1.0
 70
    12
 71
     3
 72
     8
 73
     4
 74
     0
 42
0.0000000001
 43
0.0000000001
 40
-0.9983344876344831
 40
-0.9983344876344831
 40
-0.9983344876344831
 40
-0.9983344876344831
 40
0.0
 40
0.0
 40
0.0
 40
0.0
 10
1.222103194883235
 20
3.65726383948913
 30
0.0
 41
1.0
 10
1.676765933652849
 20
3.64333701932616
 30
0.0
 41
1.0
 10
2.129148709429085
 20
3.574404695741988
 30
0.0
 41
1.0
 10
2.580000000000052
 20
3.511811827671384
 30
0.0
 41
1.0
  0
SPLINE
  5
46
330
1F
100
AcDbEntity
  8
Make2D visible lines
100
AcDbSpline
210
0.0
220
0.0
230
1.0
 70
    24
 71
     2
 72
     6
 73
     3
 74
     0
 42
0.0000000001
 43
0.0000000001
 40
0.0
 40
0.0
 40
0.0
 40
10.36850216633574
 40
10.36850216633574
 40
10.36850216633574
 10
2.580000000000052
 20
3.511811827671384
 30
0.0
 10
7.715000000000055
 20
2.798906298637399
 30
0.0
 10
12.85000000000006
 20
2.086000769603414
 30
0.0
  0
SPLINE
  5
47
330
1F
100
AcDbEntity
  8
Make2D visible lines
100
AcDbSpline
210
0.0
220
0.0
230
1.0
 70
     8
 71
     3
 72
    13
 73
     9
 74
     0
 42
0.0000000001
 43
0.0000000001
 40
0.0
 40
0.0
 40
0.0
 40
0.0
 40
0.1163337939371243
 40
0.2443108918713642
 40
0.4828690280123605
 40
0.5672189493277444
 40
0.750510233115731
 40
1.83258135608072
 40
1.83258135608072
 40
1.83258135608072
 40
1.83258135608072
 10
12.85000000000006
 20
2.086000769603414
 30
0.0
 10
12.88767892357314
 20
2.080693221901958
 30
0.0
 10
12.96861491757254
 20
2.057218183732865
 30
0.0
 10
13.10099654582271
 20
1.966768126584214
 30
0.0
 10
13.18338032673707
 20
1.830020096093349
 30
0.0
 10
13.19443594558863
 20
1.661268225296924
 30
0.0
 10
13.2025091665798
 20
1.211528658082631
 30
0.0
 10
13.21533440039329
 20
0.7898405850234216
 30
0.0
 10
13.22328472354927
 20
0.429267031622143
 30
0.0
  0
SPLINE
  5
48
330
1F
100
AcDbEntity
  8
Make2D visible lines
100
AcDbSpline
210
0.0
220
0.0
230
1.0
 70
     8
 71
     3
 72
    13
 73
     9
 74
     0
 42
0.0000000001
 43
0.0000000001
 40
-1.83258135608072
 40
-1.83258135608072
 40
-1.83258135608072
 40
-1.83258135608072
 40
-0.750510233115731
 40
-0.5672189493277444
 40
-0.4828690280123605
 40
-0.2443108918713642
 40
-0.1163337939371243
 40
0.0
 40
0.0
 40
0.0
 40
0.0
 10
-13.22328472354927
 20
0.429267031622143
 30
0.0
 10
-13.21533440039329
 20
0.7898405850234216
 30
0.0
 10
-13.2025091665798
 20
1.211528658082631
 30
0.0
 10
-13.19443594558863
 20
1.661268225296924
 30
0.0
 10
-13.18338032673707
 20
1.830020096093349
 30
0.0
 10
-13.10099654582271
 20
1.966768126584214
 30
0.0
 10
-12.96861491757254
 20
2.057218183732865
 30
0.0
 10
-12.88767892357314
 20
2.080693221901958
 30
0.0
 10
-12.85000000000006
 20
2.086000769603414
 30
0.0
  0
SPLINE
  5
49
330
1F
100
AcDbEntity
  8
Make2D visible lines
100
AcDbSpline
210
0.0
220
0.0
230
1.0
 70
    24
 71
     2
 72
     6
 73
     3
 74
     0
 42
0.0000000001
 43
0.0000000001
 40
-10.36850216633574
 40
-10.36850216633574
 40
-10.36850216633574
 40
0.0
 40
0.0
 40
0.0
 10
-12.85000000000006
 20
2.086000769603414
 30
0.0
 10
-7.715000000000055
 20
2.798906298637399
 30
0.0
 10
-2.580000000000052
 20
3.511811827671384
 30
0.0
  0
SPLINE
  5
4A
330
1F
100
AcDbEntity
  8
Make2D visible lines
100
AcDbSpline
210
0.0
220
0.0
230
1.0
 70
    12
 71
     3
 72
     8
 73
     4
 74
     0
 42
0.0000000001
 43
0.0000000001
 40
0.0
 40
0.0
 40
0.0
 40
0.0
 40
0.9983344876344831
 40
0.9983344876344831
 40
0.9983344876344831
 40
0.9983344876344831
 10
-2.580000000000052
 20
3.511811827671384
 30
0.0
 41
1.0
 10
-2.129148709429085
 20
3.574404695741988
 30
0.0
 41
1.0
 10
-1.676765933652849
 20
3.64333701932616
 30
0.0
 41
1.0
 10
-1.222103194883235
 20
3.65726383948913
 30
0.0
 41
1.0
  0
SPLINE
  5
4B
330
1F
100
AcDbEntity
  8
Make2D visible lines
100
AcDbSpline
210
0.0
220
0.0
230
1.0
 70
     8
 71
     3
 72
     8
 73
     4
 74
     0
 42
0.0000000001
 43
0.0000000001
 40
0.0
 40
0.0
 40
0.0
 40
0.0
 40
0.3051876163662417
 40
0.3051876163662417
 40
0.3051876163662417
 40
0.3051876163662417
 10
-1.222103194883235
 20
3.65726383948913
 30
0.0
 10
-0.9735725872496357
 20
3.664876605573444
 30
0.0
 10
-0.7249352557815157
 20
3.670166049722532
 30
0.0
 10
-0.4762563420642089
 20
3.673132171936395
 30
0.0
  0
SPLINE
  5
4C
330
1F
100
AcDbEntity
  8
Make2D visible lines
100
AcDbSpline
210
0.0
220
0.0
230
1.0
 70
    12
 71
     2
 72
     6
 73
     3
 74
     0
 42
0.0000000001
 43
0.0000000001
 40
-0.0352706514985427
 40
-0.0352706514985427
 40
-0.0352706514985427
 40
0.0
 40
0.0
 40
0.0
 10
-13.24240847747864
 20
0.4020374895150737
 30
0.0
 41
1.0
 10
-13.22377320145242
 20
0.4092798636229074
 30
0.0
 41
0.8321381552760684
 10
-13.22328472354927
 20
0.429267031622143
 30
0.0
 41
1.0
  0
SPLINE
  5
4D
330
1F
100
AcDbEntity
  8
Make2D visible lines
100
AcDbSpline
210
0.0
220
0.0
230
1.0
 70
    12
 71
     2
 72
     6
 73
     3
 74
     0
 42
0.0000000001
 43
0.0000000001
 40
-0.0352706514985427
 40
-0.0352706514985427
 40
-0.0352706514985427
 40
0.0
 40
0.0
 40
0.0
 10
13.24240847747864
 20
0.4020374895150737
 30
0.0
 41
1.0
 10
13.22377320145242
 20
0.4092798636229074
 30
0.0
 41
0.8321381552760684
 10
13.22328472354927
 20
0.429267031622143
 30
0.0
 41
1.0
  0
SPLINE
  5
4E
330
1F
100
AcDbEntity
  8
Make2D visible lines
100
AcDbSpline
210
0.0
220
0.0
230
1.0
 70
    12
 71
     2
 72
     6
 73
     3
 74
     0
 42
0.0000000001
 43
0.0000000001
 40
0.0
 40
0.0
 40
0.0
 40
0.0853474550214741
 40
0.0853474550214741
 40
0.0853474550214741
 10
0.4045437767722273
 20
39.59196955307462
 30
0.0
 41
1.0
 10
0.407531154734965
 20
39.54938331459489
 30
0.0
 41
0.9993970637774641
 10
0.4075558872688809
 20
39.50669243122096
 30
0.0
 41
1.0
  0
SPLINE
  5
50
330
1F
100
AcDbEntity
  8
Make2D visible lines - Tangent
100
AcDbSpline
210
0.0
220
0.0
230
1.0
 70
     8
 71
     3
 72
    12
 73
     8
 74
     0
 42
0.0000000001
 43
0.0000000001
 40
0.0
 40
0.0
 40
0.0
 40
0.0
 40
0.1510110321465192
 40
0.3037660471064116
 40
0.5900965017365678
 40
0.8249401141264362
 40
1.014583801502342
 40
1.014583801502342
 40
1.014583801502342
 40
1.014583801502342
 10
-0.402084921046864
 20
39.62701597457043
 30
0.0
 10
-0.4070011434067684
 20
39.57689573814405
 30
0.0
 10
-0.4108309218993007
 20
39.4755958838939
 30
0.0
 10
-0.3936190376958084
 20
39.27914806489328
 30
0.0
 10
-0.3331667011838846
 20
39.06100479018242
 30
0.0
 10
-0.198418873259179
 20
38.8601500257268
 30
0.0
 10
-0.064601636924948
 20
38.79540549950087
 30
0.0
 10
-0.000250893648591
 20
38.79665897918977
 30
0.0
  0
SPLINE
  5
51
330
1F
100
AcDbEntity
  8
Make2D visible lines - Tangent
100
AcDbSpline
210
0.0
220
0.0
230
1.0
 70
     8
 71
     3
 72
    12
 73
     8
 74
     0
 42
0.0000000001
 43
0.0000000001
 40
-1.014583801502342
 40
-1.014583801502342
 40
-1.014583801502342
 40
-1.014583801502342
 40
-0.8249401141264362
 40
-0.5900965017365678
 40
-0.3037660471064116
 40
-0.1510110321465192
 40
0.0
 40
0.0
 40
0.0
 40
0.0
 10
-0.000250893648591
 20
38.79665897918977
 30
0.0
 10
0.064099849627766
 20
38.79540549950087
 30
0.0
 10
0.197917085961997
 20
38.8601500257268
 30
0.0
 10
0.3326649138867026
 20
39.06100479018242
 30
0.0
 10
0.3931172503986264
 20
39.27914806489328
 30
0.0
 10
0.4103291346021187
 20
39.4755958838939
 30
0.0
 10
0.4064993561095864
 20
39.57689573814405
 30
0.0
 10
0.401583133749682
 20
39.62701597457043
 30
0.0
  0
SPLINE
  5
52
330
1F
100
AcDbEntity
  8
Make2D visible lines - Tangent
100
AcDbSpline
210
0.0
220
0.0
230
1.0
 70
    12
 71
     2
 72
     6
 73
     3
 74
     0
 42
0.0000000001
 43
0.0000000001
 40
0.0
 40
0.0
 40
0.0
 40
0.1369528492222414
 40
0.1369528492222414
 40
0.1369528492222414
 10
-0.3678616769873102
 20
40.00637268860662
 30
0.0
 41
1.0
 10
-0.3664321413690675
 20
39.93791236333593
 30
0.0
 41
0.9999966913238282
 10
-0.3671838082863803
 20
39.86941312795196
 30
0.0
 41
0.9999959461296658
  0
ARC
  5
53
330
1F
100
AcDbEntity
  8
Make2D visible lines - Tangent
100
AcDbCircle
 10
-0.8671161965538576
 20
39.86119077055422
 30
0.0
 40
0.5
100
AcDbArc
 50
348.4871521735349
 51
0.9422552251317677
  0
SPLINE
  5
54
330
1F
100
AcDbEntity
  8
Make2D visible lines - Tangent
100
AcDbSpline
210
0.0
220
0.0
230
1.0
 70
     8
 71
     3
 72
    14
 73
    10
 74
     0
 42
0.0000000001
 43
0.0000000001
 40
0.2772630823298201
 40
0.2772630823298201
 40
0.2772630823298201
 40
0.2772630823298201
 40
1.0
 40
2.0
 40
3.0
 40
4.0
 40
5.0
 40
6.0
 40
7.0
 40
7.0
 40
7.0
 40
7.0
 10
-0.3771762093825908
 20
39.76139693822667
 30
0.0
 10
-0.3852734717199438
 20
39.72164325292204
 30
0.0
 10
-0.4003397105781008
 20
39.62601747491311
 30
0.0
 10
-0.4050810797033629
 20
39.47286291816956
 30
0.0
 10
-0.3870666860453736
 20
39.30508660447894
 30
0.0
 10
-0.3455373220093247
 20
39.14134080909351
 30
0.0
 10
-0.2750489478322445
 20
38.98747327416699
 30
0.0
 10
-0.1649438399710883
 20
38.85651378510121
 30
0.0
 10
-0.0569343947226571
 20
38.81129358160641
 30
0.0
 10
-0.0002503970885233
 20
38.81180108731335
 30
0.0
  0
SPLINE
  5
55
330
1F
100
AcDbEntity
  8
Make2D visible lines - Tangent
100
AcDbSpline
210
0.0
220
0.0
230
1.0
 70
     8
 71
     3
 72
    14
 73
    10
 74
     0
 42
0.0000000001
 43
0.0000000001
 40
-7.0
 40
-7.0
 40
-7.0
 40
-7.0
 40
-6.0
 40
-5.0
 40
-4.0
 40
-3.0
 40
-2.0
 40
-1.0
 40
-0.2482205602640466
 40
-0.2482205602640466
 40
-0.2482205602640466
 40
-0.2482205602640466
 10
-0.0002503970885233
 20
38.81180108731335
 30
0.0
 10
0.0564336005456106
 20
38.81129358160641
 30
0.0
 10
0.1644430457940418
 20
38.85651378510121
 30
0.0
 10
0.274548153655198
 20
38.98747327416699
 30
0.0
 10
0.3450365278322782
 20
39.14134080909351
 30
0.0
 10
0.3865658918683271
 20
39.30508660447894
 30
0.0
 10
0.4045802855263164
 20
39.47286291816956
 30
0.0
 10
0.3997883418058561
 20
39.62765112323397
 30
0.0
 10
0.3842612640488078
 20
39.72486707745706
 30
0.0
 10
0.3756906883844119
 20
39.76618756217591
 30
0.0
  0
ARC
  5
56
330
1F
100
AcDbEntity
  8
Make2D visible lines - Tangent
100
AcDbCircle
 10
0.8652702727112507
 20
39.86773474633362
 30
0.0
 40
0.5
100
AcDbArc
 50
178.9775798079559
 51
191.7179678781667
  0
SPLINE
  5
57
330
1F
100
AcDbEntity
  8
Make2D visible lines - Tangent
100
AcDbSpline
210
0.0
220
0.0
230
1.0
 70
    12
 71
     2
 72
     6
 73
     3
 74
     0
 42
0.0000000001
 43
0.0000000001
 40
-0.1297405451143296
 40
-0.1297405451143296
 40
-0.1297405451143296
 40
0.0
 40
0.0
 40
0.0
 10
0.3653498780244278
 20
39.87665657216532
 30
0.0
 41
0.9999960316975589
 10
0.3665074009040286
 20
39.94151653533235
 30
0.0
 41
0.9999968655123173
 10
0.3678616769873102
 20
40.00637268860662
 30
0.0
 41
1.0
  0
SPLINE
  5
58
330
1F
100
AcDbEntity
  8
Make2D visible lines - Tangent
100
AcDbSpline
210
0.0
220
0.0
230
1.0
 70
    12
 71
     2
 72
     6
 73
     3
 74
     0
 42
0.0000000001
 43
0.0000000001
 40
0.0
 40
0.0
 40
0.0
 40
0.1369528492222414
 40
0.1369528492222414
 40
0.1369528492222414
 10
-13.43989031110136
 20
53.81362287791107
 30
0.0
 41
1.0
 10
-13.50835063637204
 20
53.81219334229283
 30
0.0
 41
0.9999966913238282
 10
-13.57684987175601
 20
53.81294500921014
 30
0.0
 41
0.9999959461296658
  0
ARC
  5
59
330
1F
100
AcDbEntity
  8
Make2D visible lines - Tangent
100
AcDbCircle
 10
-13.58507222915375
 20
54.31287739747762
 30
0.0
 40
0.5
100
AcDbArc
 50
258.487152173535
 51
270.9422552251324
  0
SPLINE
  5
5A
330
1F
100
AcDbEntity
  8
Make2D visible lines - Tangent
100
AcDbSpline
210
0.0
220
0.0
230
1.0
 70
     8
 71
     3
 72
    14
 73
    10
 74
     0
 42
0.0000000001
 43
0.0000000001
 40
0.2772630823298201
 40
0.2772630823298201
 40
0.2772630823298201
 40
0.2772630823298201
 40
1.0
 40
2.0
 40
3.0
 40
4.0
 40
5.0
 40
6.0
 40
7.0
 40
7.0
 40
7.0
 40
7.0
 10
-13.6848660614813
 20
53.82293741030635
 30
0.0
 10
-13.72461974678593
 20
53.8310346726437
 30
0.0
 10
-13.82024552479487
 20
53.84610091150186
 30
0.0
 10
-13.97340008153841
 20
53.85084228062713
 30
0.0
 10
-14.14117639522904
 20
53.83282788696913
 30
0.0
 10
-14.30492219061447
 20
53.79129852293309
 30
0.0
 10
-14.45878972554098
 20
53.72081014875601
 30
0.0
 10
-14.58974921460676
 20
53.61070504089485
 30
0.0
 10
-14.63496941810156
 20
53.50269559564642
 30
0.0
 10
-14.63446191239463
 20
53.44601159801228
 30
0.0
  0
SPLINE
  5
5B
330
1F
100
AcDbEntity
  8
Make2D visible lines - Tangent
100
AcDbSpline
210
0.0
220
0.0
230
1.0
 70
     8
 71
     3
 72
    14
 73
    10
 74
     0
 42
0.0000000001
 43
0.0000000001
 40
-7.0
 40
-7.0
 40
-7.0
 40
-7.0
 40
-6.0
 40
-5.0
 40
-4.0
 40
-3.0
 40
-2.0
 40
-1.0
 40
-0.2482205602640466
 40
-0.2482205602640466
 40
-0.2482205602640466
 40
-0.2482205602640466
 10
-14.63446191239463
 20
53.44601159801228
 30
0.0
 10
-14.63496941810156
 20
53.38932760037815
 30
0.0
 10
-14.58974921460676
 20
53.28131815512972
 30
0.0
 10
-14.45878972554098
 20
53.17121304726857
 30
0.0
 10
-14.30492219061447
 20
53.10072467309148
 30
0.0
 10
-14.14117639522904
 20
53.05919530905543
 30
0.0
 10
-13.97340008153841
 20
53.04118091539745
 30
0.0
 10
-13.81861187647401
 20
53.0459728591179
 30
0.0
 10
-13.72139592225092
 20
53.06149993687495
 30
0.0
 10
-13.68007543753207
 20
53.07007051253935
 30
0.0
  0
ARC
  5
5C
330
1F
100
AcDbEntity
  8
Make2D visible lines - Tangent
100
AcDbCircle
 10
-13.57852825337436
 20
52.58049092821251
 30
0.0
 40
0.5
100
AcDbArc
 50
88.9775798079559
 51
101.7179678781667
  0
SPLINE
  5
5D
330
1F
100
AcDbEntity
  8
Make2D visible lines - Tangent
100
AcDbSpline
210
0.0
220
0.0
230
1.0
 70
    12
 71
     2
 72
     6
 73
     3
 74
     0
 42
0.0000000001
 43
0.0000000001
 40
-0.1297405451143296
 40
-0.1297405451143296
 40
-0.1297405451143296
 40
0.0
 40
0.0
 40
0.0
 10
-13.56960642754265
 20
53.08041132289933
 30
0.0
 41
0.9999960316975589
 10
-13.50474646437563
 20
53.07925380001974
 30
0.0
 41
0.9999968655123173
 10
-13.43989031110136
 20
53.07789952393645
 30
0.0
 41
1.0
  0
SPLINE
  5
5E
330
1F
100
AcDbEntity
  8
Make2D visible lines - Tangent
100
AcDbSpline
210
0.0
220
0.0
230
1.0
 70
     8
 71
     3
 72
    12
 73
     8
 74
     0
 42
0.0000000001
 43
0.0000000001
 40
0.0
 40
0.0
 40
0.0
 40
0.0
 40
0.1510110321465192
 40
0.3037660471064116
 40
0.5900965017365678
 40
0.8249401141264362
 40
1.014583801502342
 40
1.014583801502342
 40
1.014583801502342
 40
1.014583801502342
 10
-13.81924702513755
 20
53.84784612197063
 30
0.0
 10
-13.86936726156393
 20
53.85276234433053
 30
0.0
 10
-13.97066711581407
 20
53.85659212282306
 30
0.0
 10
-14.16711493481469
 20
53.83938023861957
 30
0.0
 10
-14.38525820952555
 20
53.77892790210765
 30
0.0
 10
-14.58611297398117
 20
53.64418007418294
 30
0.0
 10
-14.6508575002071
 20
53.51036283784871
 30
0.0
 10
-14.6496040205182
 20
53.44601209457235
 30
0.0
  0
SPLINE
  5
5F
330
1F
100
AcDbEntity
  8
Make2D visible lines - Tangent
100
AcDbSpline
210
0.0
220
0.0
230
1.0
 70
     8
 71
     3
 72
    12
 73
     8
 74
     0
 42
0.0000000001
 43
0.0000000001
 40
-1.014583801502342
 40
-1.014583801502342
 40
-1.014583801502342
 40
-1.014583801502342
 40
-0.8249401141264362
 40
-0.5900965017365678
 40
-0.3037660471064116
 40
-0.1510110321465192
 40
0.0
 40
0.0
 40
0.0
 40
0.0
 10
-14.6496040205182
 20
53.44601209457235
 30
0.0
 10
-14.6508575002071
 20
53.381661351296
 30
0.0
 10
-14.58611297398117
 20
53.24784411496177
 30
0.0
 10
-14.38525820952555
 20
53.11309628703706
 30
0.0
 10
-14.16711493481469
 20
53.05264395052514
 30
0.0
 10
-13.97066711581407
 20
53.03543206632165
 30
0.0
 10
-13.86936726156393
 20
53.03926184481418
 30
0.0
 10
-13.81924702513755
 20
53.04417806717408
 30
0.0
  0
SPLINE
  5
60
330
1F
100
AcDbEntity
  8
Make2D visible lines
100
AcDbSpline
210
0.0
220
0.0
230
1.0
 70
    12
 71
     2
 72
     6
 73
     3
 74
     0
 42
0.0000000001
 43
0.0000000001
 40
0.0
 40
0.0
 40
0.0
 40
0.0853474550214741
 40
0.0853474550214741
 40
0.0853474550214741
 10
-13.85429344663336
 20
53.04121742415153
 30
0.0
 41
1.0
 10
-13.89687968511309
 20
53.0382300461888
 30
0.0
 41
0.9993970637774641
 10
-13.93957056848702
 20
53.03820531365488
 30
0.0
 41
1.0
  0
SPLINE
  5
61
330
1F
100
AcDbEntity
  8
Make2D visible lines - Tangent
100
AcDbSpline
210
0.0
220
0.0
230
1.0
 70
    12
 71
     2
 72
     6
 73
     3
 74
     0
 42
0.0000000001
 43
0.0000000001
 40
0.0
 40
0.0
 40
0.0
 40
0.1369528492222414
 40
0.1369528492222414
 40
0.1369528492222414
 10
13.43938851231714
 20
53.07840132272067
 30
0.0
 41
1.0
 10
13.50784883758783
 20
53.07983085833891
 30
0.0
 41
0.9999966913238282
 10
13.5763480729718
 20
53.07907919142159
 30
0.0
 41
0.9999959461296658
  0
ARC
  5
62
330
1F
100
AcDbEntity
  8
Make2D visible lines - Tangent
100
AcDbCircle
 10
13.58457043036954
 20
52.57914680315412
 30
0.0
 40
0.5
100
AcDbArc
 50
78.48715217353497
 51
90.94225522513239
  0
SPLINE
  5
63
330
1F
100
AcDbEntity
  8
Make2D visible lines - Tangent
100
AcDbSpline
210
0.0
220
0.0
230
1.0
 70
     8
 71
     3
 72
    14
 73
    10
 74
     0
 42
0.0000000001
 43
0.0000000001
 40
0.2772630823298201
 40
0.2772630823298201
 40
0.2772630823298201
 40
0.2772630823298201
 40
1.0
 40
2.0
 40
3.0
 40
4.0
 40
5.0
 40
6.0
 40
7.0
 40
7.0
 40
7.0
 40
7.0
 10
13.68436426269709
 20
53.06908679032539
 30
0.0
 10
13.72411794800172
 20
53.06098952798803
 30
0.0
 10
13.81974372601066
 20
53.04592328912987
 30
0.0
 10
13.9728982827542
 20
53.04118192000461
 30
0.0
 10
14.14067459644482
 20
53.0591963136626
 30
0.0
 10
14.30442039183026
 20
53.10072567769865
 30
0.0
 10
14.45828792675677
 20
53.17121405187573
 30
0.0
 10
14.58924741582255
 20
53.28131915973689
 30
0.0
 10
14.63446761931735
 20
53.38932860498532
 30
0.0
 10
14.63396011361041
 20
53.44601260261945
 30
0.0
  0
SPLINE
  5
64
330
1F
100
AcDbEntity
  8
Make2D visible lines - Tangent
100
AcDbSpline
210
0.0
220
0.0
230
1.0
 70
     8
 71
     3
 72
    14
 73
    10
 74
     0
 42
0.0000000001
 43
0.0000000001
 40
-7.0
 40
-7.0
 40
-7.0
 40
-7.0
 40
-6.0
 40
-5.0
 40
-4.0
 40
-3.0
 40
-2.0
 40
-1.0
 40
-0.2482205602640466
 40
-0.2482205602640466
 40
-0.2482205602640466
 40
-0.2482205602640466
 10
14.63396011361041
 20
53.44601260261945
 30
0.0
 10
14.63446761931735
 20
53.50269660025359
 30
0.0
 10
14.58924741582255
 20
53.61070604550202
 30
0.0
 10
14.45828792675677
 20
53.72081115336317
 30
0.0
 10
14.30442039183026
 20
53.79129952754025
 30
0.0
 10
14.14067459644482
 20
53.83282889157631
 30
0.0
 10
13.9728982827542
 20
53.85084328523429
 30
0.0
 10
13.81811007768979
 20
53.84605134151384
 30
0.0
 10
13.72089412346671
 20
53.83052426375679
 30
0.0
 10
13.67957363874785
 20
53.82195368809239
 30
0.0
  0
ARC
  5
65
330
1F
100
AcDbEntity
  8
Make2D visible lines - Tangent
100
AcDbCircle
 10
13.57802645459014
 20
54.31153327241923
 30
0.0
 40
0.5
100
AcDbArc
 50
268.9775798079559
 51
281.7179678781667
  0
SPLINE
  5
66
330
1F
100
AcDbEntity
  8
Make2D visible lines - Tangent
100
AcDbSpline
210
0.0
220
0.0
230
1.0
 70
    12
 71
     2
 72
     6
 73
     3
 74
     0
 42
0.0000000001
 43
0.0000000001
 40
-0.1297405451143296
 40
-0.1297405451143296
 40
-0.1297405451143296
 40
0.0
 40
0.0
 40
0.0
 10
13.56910462875844
 20
53.8116128777324
 30
0.0
 41
0.9999960316975589
 10
13.50424466559141
 20
53.812770400612
 30
0.0
 41
0.9999968655123173
 10
13.43938851231714
 20
53.81412467669529
 30
0.0
 41
1.0
  0
SPLINE
  5
67
330
1F
100
AcDbEntity
  8
Make2D visible lines - Tangent
100
AcDbSpline
210
0.0
220
0.0
230
1.0
 70
     8
 71
     3
 72
    12
 73
     8
 74
     0
 42
0.0000000001
 43
0.0000000001
 40
0.0
 40
0.0
 40
0.0
 40
0.0
 40
0.1510110321465192
 40
0.3037660471064116
 40
0.5900965017365678
 40
0.8249401141264362
 40
1.014583801502342
 40
1.014583801502342
 40
1.014583801502342
 40
1.014583801502342
 10
13.81874522635334
 20
53.04417807866111
 30
0.0
 10
13.86886546277972
 20
53.03926185630121
 30
0.0
 10
13.97016531702986
 20
53.03543207780868
 30
0.0
 10
14.16661313603048
 20
53.05264396201217
 30
0.0
 10
14.38475641074134
 20
53.11309629852409
 30
0.0
 10
14.58561117519696
 20
53.2478441264488
 30
0.0
 10
14.65035570142289
 20
53.38166136278303
 30
0.0
 10
14.64910222173399
 20
53.44601210605938
 30
0.0
  0
SPLINE
  5
68
330
1F
100
AcDbEntity
  8
Make2D visible lines - Tangent
100
AcDbSpline
210
0.0
220
0.0
230
1.0
 70
     8
 71
     3
 72
    12
 73
     8
 74
     0
 42
0.0000000001
 43
0.0000000001
 40
-1.014583801502342
 40
-1.014583801502342
 40
-1.014583801502342
 40
-1.014583801502342
 40
-0.8249401141264362
 40
-0.5900965017365678
 40
-0.3037660471064116
 40
-0.1510110321465192
 40
0.0
 40
0.0
 40
0.0
 40
0.0
 10
14.64910222173399
 20
53.44601210605938
 30
0.0
 10
14.65035570142289
 20
53.51036284933574
 30
0.0
 10
14.58561117519696
 20
53.64418008566997
 30
0.0
 10
14.38475641074134
 20
53.77892791359468
 30
0.0
 10
14.16661313603048
 20
53.8393802501066
 30
0.0
 10
13.97016531702986
 20
53.85659213431009
 30
0.0
 10
13.86886546277972
 20
53.85276235581756
 30
0.0
 10
13.81874522635334
 20
53.84784613345766
 30
0.0
  0
SPLINE
  5
69
330
1F
100
AcDbEntity
  8
Make2D visible lines
100
AcDbSpline
210
0.0
220
0.0
230
1.0
 70
    12
 71
     2
 72
     6
 73
     3
 74
     0
 42
0.0000000001
 43
0.0000000001
 40
0.0
 40
0.0
 40
0.0
 40
0.0853474550214741
 40
0.0853474550214741
 40
0.0853474550214741
 10
13.85379164784914
 20
53.8508067764802
 30
0.0
 41
1.0
 10
13.89637788632888
 20
53.85379415444294
 30
0.0
 41
0.9993970637774641
 10
13.93906876970281
 20
53.85381888697685
 30
0.0
 41
1.0
  0
SPLINE
  5
6A
330
1F
100
AcDbEntity
  8
Make2D visible lines
100
AcDbSpline
210
0.0
220
0.0
230
1.0
 70
    24
 71
     2
 72
     6
 73
     3
 74
     0
 42
0.0000000001
 43
0.0000000001
 40
0.0
 40
0.0
 40
0.0
 40
1.107594207465098
 40
1.107594207465098
 40
1.107594207465098
 10
29.22900663063301
 20
0.0000000000000036
 30
0.0
 10
28.67520952690046
 20
0.0000000000000036
 30
0.0
 10
28.12141242316791
 20
0.0000000000000036
 30
0.0
  0
SPLINE
  5
6B
330
1F
100
AcDbEntity
  8
Make2D visible lines
100
AcDbSpline
210
0.0
220
0.0
230
1.0
 70
    12
 71
     2
 72
     8
 73
     5
 74
     0
 42
0.0000000001
 43
0.0000000001
 40
0.0
 40
0.0
 40
0.0
 40
0.1269465231438366
 40
0.1269465231438366
 40
0.2538930462876731
 40
0.2538930462876731
 40
0.2538930462876731
 10
28.12141242316792
 20
0.0000000000000036
 30
0.0
 41
1.0
 10
28.05418785883256
 20
0.000000000000002
 30
0.0
 41
0.918360064844369
 10
28.00802001672429
 20
0.0488638148853193
 30
0.0
 41
1.0
 10
27.96185217461602
 20
0.0977276297706366
 30
0.0
 41
0.918360064844369
 10
27.96566332256091
 20
0.1648440748599159
 30
0.0
 41
1.0
  0
SPLINE
  5
6C
330
1F
100
AcDbEntity
  8
Make2D visible lines
100
AcDbSpline
210
0.0
220
0.0
230
1.0
 70
    12
 71
     2
 72
     6
 73
     3
 74
     0
 42
0.0000000001
 43
0.0000000001
 40
0.0
 40
0.0
 40
0.0
 40
0.2412324278936833
 40
0.2412324278936833
 40
0.2412324278936833
 10
29.38496006303888
 20
0.1521885802082181
 30
0.0
 41
1.0
 10
29.38124065425295
 20
-0.0000000000000105
 30
0.0
 41
0.7156927337036098
 10
29.22900663063302
 20
0.0000000000000034
 30
0.0
 41
1.0
  0
SPLINE
  5
6D
330
1F
100
AcDbEntity
  8
Make2D visible lines
100
AcDbSpline
210
0.0
220
0.0
230
1.0
 70
    24
 71
     2
 72
     6
 73
     3
 74
     0
 42
0.0000000001
 43
0.0000000001
 40
0.0
 40
0.0
 40
0.0
 40
0.2325105046476637
 40
0.2325105046476637
 40
0.2325105046476637
 10
29.38496015686773
 20
0.1521924194416825
 30
0.0
 10
29.38780052590369
 20
0.2684129683847045
 30
0.0
 10
29.39064089493965
 20
0.3846335173277264
 30
0.0
  0
SPLINE
  5
6E
330
1F
100
AcDbEntity
  8
Make2D visible lines
100
AcDbSpline
210
0.0
220
0.0
230
1.0
 70
    24
 71
     2
 72
     6
 73
     3
 74
     0
 42
0.0000000001
 43
0.0000000001
 40
0.0
 40
0.0
 40
0.0
 40
0.2213623405233084
 40
0.2213623405233084
 40
0.2213623405233084
 10
27.97821297070673
 20
0.3858503918134666
 30
0.0
 10
27.97193814663382
 20
0.2753472333366913
 30
0.0
 10
27.96566332256091
 20
0.164844074859916
 30
0.0
  0
SPLINE
  5
6F
330
1F
100
AcDbEntity
  8
Make2D visible lines
100
AcDbSpline
210
0.0
220
0.0
230
1.0
 70
    12
 71
     2
 72
     6
 73
     3
 74
     0
 42
0.0000000001
 43
0.0000000001
 40
0.0
 40
0.0
 40
0.0
 40
0.0224671519842366
 40
0.0224671519842366
 40
0.0224671519842366
 10
27.97822878041718
 20
0.3860938211857499
 30
0.0
 41
1.0
 10
27.97924554556131
 20
0.4000000000000348
 30
0.0
 41
0.7324347794791691
 10
27.99318884576511
 20
0.4000000000000183
 30
0.0
 41
1.0
  0
SPLINE
  5
70
330
1F
100
AcDbEntity
  8
Make2D visible lines
100
AcDbSpline
210
0.0
220
0.0
230
1.0
 70
    24
 71
     2
 72
     6
 73
     3
 74
     0
 42
0.0000000001
 43
0.0000000001
 40
0.0
 40
0.0
 40
0.0
 40
1.379419120443295
 40
1.379419120443295
 40
1.379419120443295
 10
27.99318884576511
 20
0.4000000000000163
 30
0.0
 10
28.68289840598676
 20
0.4000000000000162
 30
0.0
 10
29.37260796620841
 20
0.4000000000000161
 30
0.0
  0
SPLINE
  5
71
330
1F
100
AcDbEntity
  8
Make2D visible lines
100
AcDbSpline
210
0.0
220
0.0
230
1.0
 70
    12
 71
     2
 72
     8
 73
     5
 74
     0
 42
0.0000000001
 43
0.0000000001
 40
0.0
 40
0.0
 40
0.0
 40
0.0119642320224294
 40
0.0119642320224294
 40
0.0239284640448587
 40
0.0239284640448587
 40
0.0239284640448587
 10
29.37564537259291
 20
0.4000000000000163
 30
0.0
 41
1.0
 10
29.38196620065991
 20
0.4000000000000209
 30
0.0
 41
0.9215246294676533
 10
29.38638076359848
 20
0.3954762292814858
 30
0.0
 41
1.0
 10
29.39079532653706
 20
0.3909524585629509
 30
0.0
 41
0.9215246294676533
 10
29.39064089493965
 20
0.3846335173277264
 30
0.0
 41
1.0
  0
SPLINE
  5
72
330
1F
100
AcDbEntity
  8
Make2D visible lines
100
AcDbSpline
210
0.0
220
0.0
230
1.0
 70
    12
 71
     2
 72
     6
 73
     3
 74
     0
 42
0.0000000001
 43
0.0000000001
 40
-0.0371380794388858
 40
-0.0371380794388858
 40
-0.0371380794388858
 40
0.0
 40
0.0
 40
0.0
 10
57.23066002358576
 20
0.4022441987256987
 30
0.0
 41
1.0
 10
57.25043192870287
 20
0.4103542426935238
 30
0.0
 41
0.8144776561050845
 10
57.24922745668005
 20
0.4316908378358253
 30
0.0
 41
1.0
  0
SPLINE
  5
73
330
1F
100
AcDbEntity
  8
Make2D visible lines
100
AcDbSpline
210
0.0
220
0.0
230
1.0
 70
     8
 71
     3
 72
    12
 73
     8
 74
     0
 42
0.0000000001
 43
0.0000000001
 40
0.0
 40
0.0
 40
0.0
 40
0.0
 40
2.024931116884056
 40
2.121300252943487
 40
2.208073208949396
 40
2.641991453438839
 40
3.085460819895622
 40
3.085460819895622
 40
3.085460819895622
 40
3.085460819895622
 10
57.24922745668005
 20
0.4316908378358253
 30
0.0
 10
57.21052358467963
 20
1.105574847750693
 30
0.0
 10
57.17222092501552
 20
1.811593362411049
 30
0.0
 10
57.12939895821921
 20
2.546414843142783
 30
0.0
 10
57.08456473938336
 20
2.747953191239763
 30
0.0
 10
56.91600606378838
 20
3.034556781920432
 30
0.0
 10
56.64534071727383
 20
3.175838551528641
 30
0.0
 10
56.50101644368696
 20
3.205665827232744
 30
0.0
  0
SPLINE
  5
74
330
1F
100
AcDbEntity
  8
Make2D visible lines
100
AcDbSpline
210
0.0
220
0.0
230
1.0
 70
    24
 71
     2
 72
     6
 73
     3
 74
     0
 42
0.0000000001
 43
0.0000000001
 40
-12.2902709571203
 40
-12.2902709571203
 40
-12.2902709571203
 40
0.0
 40
0.0
 40
0.0
 10
56.50101644368696
 20
3.205665827232744
 30
0.0
 10
50.48301644368696
 20
4.449195501128249
 30
0.0
 10
44.46501644368696
 20
5.692725175023753
 30
0.0
  0
SPLINE
  5
75
330
1F
100
AcDbEntity
  8
Make2D visible lines
100
AcDbSpline
210
0.0
220
0.0
230
1.0
 70
    12
 71
     3
 72
    11
 73
     7
 74
     0
 42
0.0000000001
 43
0.0000000001
 40
0.0
 40
0.0
 40
0.0
 40
0.0
 40
0.2500000000000077
 40
0.500000000000056
 40
0.7500000000001044
 40
0.9903549301730069
 40
0.9903549301730069
 40
0.9903549301730069
 40
0.9903549301730069
 10
44.46501644368696
 20
5.692725175023753
 30
0.0
 41
1.0
 10
44.39254870271482
 20
5.707699549616471
 30
0.0
 41
1.0
 10
44.25090124203709
 20
5.771964450750453
 30
0.0
 41
1.0
 10
44.07005319011219
 20
5.941965920377697
 30
0.0
 41
1.0
 10
43.94422657511014
 20
6.15347175039408
 30
0.0
 41
1.0
 10
43.90906875830196
 20
6.303120864095799
 30
0.0
 41
1.0
 10
43.90652355600684
 20
6.378712134379271
 30
0.0
 41
1.0
  0
SPLINE
  5
76
330
1F
100
AcDbEntity
  8
Make2D visible lines
100
AcDbSpline
210
0.0
220
0.0
230
1.0
 70
    24
 71
     2
 72
     6
 73
     3
 74
     0
 42
0.0000000001
 43
0.0000000001
 40
0.0
 40
0.0
 40
0.0
 40
0.080013140622857
 40
0.080013140622857
 40
0.080013140622857
 10
43.90652355600684
 20
6.378712134379271
 30
0.0
 10
43.90576999984695
 20
6.420856067189643
 30
0.0
 10
43.90501644368706
 20
6.463000000000015
 30
0.0
  0
SPLINE
  5
77
330
1F
100
AcDbEntity
  8
Make2D visible lines
100
AcDbSpline
210
0.0
220
0.0
230
1.0
 70
    24
 71
     2
 72
     6
 73
     3
 74
     0
 42
0.0000000001
 43
0.0000000001
 40
0.0
 40
0.0
 40
0.0
 40
1.290000000000045
 40
1.290000000000045
 40
1.290000000000045
 10
43.90501644368706
 20
6.463000000000015
 30
0.0
 10
43.26001644368704
 20
6.463000000000015
 30
0.0
 10
42.61501644368701
 20
6.463000000000015
 30
0.0
  0
SPLINE
  5
78
330
1F
100
AcDbEntity
  8
Make2D visible lines
100
AcDbSpline
210
0.0
220
0.0
230
1.0
 70
    24
 71
     2
 72
     6
 73
     3
 74
     0
 42
0.0000000001
 43
0.0000000001
 40
0.0
 40
0.0
 40
0.0
 40
1.289412297652113
 40
1.289412297652113
 40
1.289412297652113
 10
42.61501644368701
 20
6.463000000000015
 30
0.0
 10
41.97016336927398
 20
6.463000000000015
 30
0.0
 10
41.32531029486093
 20
6.463000000000015
 30
0.0
  0
SPLINE
  5
79
330
1F
100
AcDbEntity
  8
Make2D visible lines
100
AcDbSpline
210
0.0
220
0.0
230
1.0
 70
    24
 71
     2
 72
     6
 73
     3
 74
     0
 42
0.0000000001
 43
0.0000000001
 40
-0.080013140622857
 40
-0.080013140622857
 40
-0.080013140622857
 40
0.0
 40
0.0
 40
0.0
 10
41.32531029486093
 20
6.463000000000015
 30
0.0
 10
41.32440981311406
 20
6.420856067189643
 30
0.0
 10
41.32350933136718
 20
6.378712134379271
 30
0.0
  0
SPLINE
  5
7A
330
1F
100
AcDbEntity
  8
Make2D visible lines
100
AcDbSpline
210
0.0
220
0.0
230
1.0
 70
    12
 71
     3
 72
    11
 73
     7
 74
     0
 42
0.0000000001
 43
0.0000000001
 40
-0.9903549301730069
 40
-0.9903549301730069
 40
-0.9903549301730069
 40
-0.9903549301730069
 40
-0.7500000000001044
 40
-0.500000000000056
 40
-0.2500000000000077
 40
0.0
 40
0.0
 40
0.0
 40
0.0
 10
41.32350933136718
 20
6.378712134379271
 30
0.0
 41
1.0
 10
41.32096412907207
 20
6.303120864095799
 30
0.0
 41
1.0
 10
41.28580631226389
 20
6.15347175039408
 30
0.0
 41
1.0
 10
41.15997969726183
 20
5.941965920377697
 30
0.0
 41
1.0
 10
40.97913164533693
 20
5.771964450750453
 30
0.0
 41
1.0
 10
40.8374841846592
 20
5.707699549616471
 30
0.0
 41
1.0
 10
40.76501644368707
 20
5.692725175023753
 30
0.0
 41
1.0
  0
SPLINE
  5
7B
330
1F
100
AcDbEntity
  8
Make2D visible lines
100
AcDbSpline
210
0.0
220
0.0
230
1.0
 70
    24
 71
     2
 72
     6
 73
     3
 74
     0
 42
0.0000000001
 43
0.0000000001
 40
0.0
 40
0.0
 40
0.0
 40
12.2902709571203
 40
12.2902709571203
 40
12.2902709571203
 10
40.76501644368707
 20
5.692725175023753
 30
0.0
 10
34.74701644368707
 20
4.449195501128249
 30
0.0
 10
28.72901644368707
 20
3.205665827232744
 30
0.0
  0
SPLINE
  5
7C
330
1F
100
AcDbEntity
  8
Make2D visible lines
100
AcDbSpline
210
0.0
220
0.0
230
1.0
 70
     8
 71
     3
 72
    12
 73
     8
 74
     0
 42
0.0000000001
 43
0.0000000001
 40
-3.085460819895622
 40
-3.085460819895622
 40
-3.085460819895622
 40
-3.085460819895622
 40
-2.641991453438839
 40
-2.208073208949396
 40
-2.121300252943487
 40
-2.024931116884056
 40
0.0
 40
0.0
 40
0.0
 40
0.0
 10
28.72901644368707
 20
3.205665827232744
 30
0.0
 10
28.5846921701002
 20
3.175838551528641
 30
0.0
 10
28.31402682358564
 20
3.034556781920432
 30
0.0
 10
28.14546814799066
 20
2.747953191239763
 30
0.0
 10
28.10063392915482
 20
2.546414843142783
 30
0.0
 10
28.0578119623585
 20
1.811593362411049
 30
0.0
 10
28.0195093026944
 20
1.105574847750693
 30
0.0
 10
27.98080543069397
 20
0.4316908378358253
 30
0.0
  0
SPLINE
  5
7D
330
1F
100
AcDbEntity
  8
Make2D visible lines
100
AcDbSpline
210
0.0
220
0.0
230
1.0
 70
    12
 71
     2
 72
     6
 73
     3
 74
     0
 42
0.0000000001
 43
0.0000000001
 40
0.0
 40
0.0
 40
0.0
 40
0.0371380794388858
 40
0.0371380794388858
 40
0.0371380794388858
 10
27.98080543069397
 20
0.4316908378358253
 30
0.0
 41
1.0
 10
27.97960095867115
 20
0.4103542426935238
 30
0.0
 41
0.8144776561050845
 10
27.99937286378827
 20
0.4022441987256987
 30
0.0
 41
1.0
  0
SPLINE
  5
7E
330
1F
100
AcDbEntity
  8
Make2D visible lines - Tangent
100
AcDbSpline
210
0.0
220
0.0
230
1.0
 70
     8
 71
     3
 72
    54
 73
    50
 74
     0
 42
0.0000000001
 43
0.0000000001
 40
0.0
 40
0.0
 40
0.0
 40
0.0
 40
1.0
 40
2.0
 40
3.0
 40
4.0
 40
5.0
 40
6.0
 40
7.0
 40
8.0
 40
9.0
 40
10.0
 40
11.0
 40
12.0
 40
13.0
 40
14.0
 40
15.0
 40
16.0
 40
17.0
 40
18.0
 40
19.0
 40
20.0
 40
21.0
 40
22.0
 40
23.0
 40
24.0
 40
25.0
 40
26.0
 40
27.0
 40
28.0
 40
29.0
 40
30.0
 40
31.0
 40
32.0
 40
33.0
 40
34.0
 40
35.0
 40
36.0
 40
37.0
 40
38.0
 40
39.0
 40
40.0
 40
41.0
 40
42.0
 40
43.0
 40
44.0
 40
45.0
 40
46.0
 40
47.0
 40
47.0
 40
47.0
 40
47.0
 10
43.00059048277018
 20
0.403329261439214
 30
0.0
 10
43.02586076211671
 20
0.471691761030031
 30
0.0
 10
43.00782364649061
 20
0.6333535261625483
 30
0.0
 10
43.00859470873916
 20
0.8657327374605353
 30
0.0
 10
43.00201707161306
 20
1.100824691898526
 30
0.0
 10
42.99722308779433
 20
1.335184942048012
 30
0.0
 10
42.99193671666011
 20
1.569741898107297
 30
0.0
 10
42.98682619228469
 20
1.804245165096962
 30
0.0
 10
42.9821911742717
 20
2.038780643129261
 30
0.0
 10
42.97686129189375
 20
2.27327054669982
 30
0.0
 10
42.97617445746255
 20
2.50795635439968
 30
0.0
 10
42.99142153070245
 20
2.742035110000107
 30
0.0
 10
43.01659103232997
 20
2.975291767990851
 30
0.0
 10
43.04121813127318
 20
3.208581524431251
 30
0.0
 10
43.06545061147957
 20
3.44180444554645
 30
0.0
 10
43.09601005834661
 20
3.674811437325082
 30
0.0
 10
43.10233314267312
 20
3.908675454710889
 30
0.0
 10
43.08778008622586
 20
4.14316108458999
 30
0.0
 10
43.07723910236287
 20
4.377402299909646
 30
0.0
 10
43.0668766105384
 20
4.611784456659724
 30
0.0
 10
43.0547705111597
 20
4.845964675118837
 30
0.0
 10
43.04302050256182
 20
5.080512320442788
 30
0.0
 10
43.00467764996926
 20
5.312100872344999
 30
0.0
 10
42.92138089225633
 20
5.534912960303022
 30
0.0
 10
42.74117151460975
 20
5.701053020982688
 30
0.0
 10
42.48596175737421
 20
5.700046595423096
 30
0.0
 10
42.30727598235828
 20
5.532266007601516
 30
0.0
 10
42.22464075739712
 20
5.309372210240867
 30
0.0
 10
42.18679935921073
 20
5.077673675160892
 30
0.0
 10
42.17509508673621
 20
4.843140061617282
 30
0.0
 10
42.16306479157247
 20
4.608952622806954
 30
0.0
 10
42.15261953623322
 20
4.374572197465292
 30
0.0
 10
42.14221087605507
 20
4.140337130437424
 30
0.0
 10
42.1272616275431
 20
3.905822607503123
 30
0.0
 10
42.13508572594923
 20
3.67206586450394
 30
0.0
 10
42.16541743624275
 20
3.439049497872843
 30
0.0
 10
42.18906286066223
 20
3.205758678338231
 30
0.0
 10
42.21305976033802
 20
2.972405099167784
 30
0.0
 10
42.23844135696391
 20
2.739167888374083
 30
0.0
 10
42.2540274179712
 20
2.505129568181835
 30
0.0
 10
42.25300358640477
 20
2.270431807711549
 30
0.0
 10
42.24785067199891
 20
2.035943620623493
 30
0.0
 10
42.243108798633
 20
1.801408320125761
 30
0.0
 10
42.23793633349188
 20
1.566909832637999
 30
0.0
 10
42.23259495414857
 20
1.332342661516703
 30
0.0
 10
42.22816908606394
 20
1.098016778736779
 30
0.0
 10
42.22117917199742
 20
0.8627750502036662
 30
0.0
 10
42.22286909087921
 20
0.6309690073439601
 30
0.0
 10
42.20255676793687
 20
0.4678802044313225
 30
0.0
 10
42.23202258852131
 20
0.4021512543515627
 30
0.0
  0
SPLINE
  5
7F
330
1F
100
AcDbEntity
  8
Make2D visible lines
100
AcDbSpline
210
0.0
220
0.0
230
1.0
 70
    24
 71
     2
 72
     6
 73
     3
 74
     0
 42
0.0000000001
 43
0.0000000001
 40
0.0
 40
0.0
 40
0.0
 40
2.579999999999997
 40
2.579999999999997
 40
2.579999999999997
 10
41.32501644368702
 20
6.503000000000016
 30
0.0
 10
42.61501644368701
 20
6.503000000000016
 30
0.0
 10
43.90501644368701
 20
6.503000000000016
 30
0.0
  0
SPLINE
  5
80
330
1F
100
AcDbEntity
  8
Make2D visible lines
100
AcDbSpline
210
0.0
220
0.0
230
1.0
 70
    24
 71
     2
 72
     6
 73
     3
 74
     0
 42
0.0000000001
 43
0.0000000001
 40
0.0
 40
0.0
 40
0.0
 40
0.0400060931217547
 40
0.0400060931217547
 40
0.0400060931217547
 10
41.41431824108963
 20
6.463000000000022
 30
0.0
 10
41.41466734238818
 20
6.483000000000022
 30
0.0
 10
41.41501644368672
 20
6.503000000000021
 30
0.0
  0
SPLINE
  5
81
330
1F
100
AcDbEntity
  8
Make2D visible lines
100
AcDbSpline
210
0.0
220
0.0
230
1.0
 70
    24
 71
     2
 72
     6
 73
     3
 74
     0
 42
0.0000000001
 43
0.0000000001
 40
0.0
 40
0.0
 40
0.0
 40
0.0400060931217547
 40
0.0400060931217547
 40
0.0400060931217547
 10
43.8150164436873
 20
6.503000000000021
 30
0.0
 10
43.81536554498584
 20
6.483000000000022
 30
0.0
 10
43.81571464628439
 20
6.463000000000022
 30
0.0
  0
SPLINE
  5
82
330
1F
100
AcDbEntity
  8
Make2D visible lines
100
AcDbSpline
210
0.0
220
0.0
230
1.0
 70
    24
 71
     2
 72
     6
 73
     3
 74
     0
 42
0.0000000001
 43
0.0000000001
 40
0.0
 40
0.0
 40
0.0
 40
1.107594207465098
 40
1.107594207465098
 40
1.107594207465098
 10
56.00102625674101
 20
0.0000000000000036
 30
0.0
 10
56.55482336047356
 20
0.0000000000000036
 30
0.0
 10
57.10862046420611
 20
0.0000000000000036
 30
0.0
  0
SPLINE
  5
83
330
1F
100
AcDbEntity
  8
Make2D visible lines
100
AcDbSpline
210
0.0
220
0.0
230
1.0
 70
    12
 71
     2
 72
     8
 73
     5
 74
     0
 42
0.0000000001
 43
0.0000000001
 40
0.0
 40
0.0
 40
0.0
 40
0.1269465231438366
 40
0.1269465231438366
 40
0.2538930462876731
 40
0.2538930462876731
 40
0.2538930462876731
 10
57.1086204642061
 20
0.0000000000000036
 30
0.0
 41
1.0
 10
57.17584502854147
 20
0.000000000000002
 30
0.0
 41
0.918360064844369
 10
57.22201287064973
 20
0.0488638148853193
 30
0.0
 41
1.0
 10
57.268180712758
 20
0.0977276297706366
 30
0.0
 41
0.918360064844369
 10
57.26436956481311
 20
0.1648440748599159
 30
0.0
 41
1.0
  0
SPLINE
  5
84
330
1F
100
AcDbEntity
  8
Make2D visible lines
100
AcDbSpline
210
0.0
220
0.0
230
1.0
 70
    12
 71
     2
 72
     6
 73
     3
 74
     0
 42
0.0000000001
 43
0.0000000001
 40
0.0
 40
0.0
 40
0.0
 40
0.2412324278936833
 40
0.2412324278936833
 40
0.2412324278936833
 10
55.84507282433514
 20
0.1521885802082181
 30
0.0
 41
1.0
 10
55.84879223312107
 20
-0.0000000000000105
 30
0.0
 41
0.7156927337036098
 10
56.00102625674101
 20
0.0000000000000034
 30
0.0
 41
1.0
  0
SPLINE
  5
85
330
1F
100
AcDbEntity
  8
Make2D visible lines
100
AcDbSpline
210
0.0
220
0.0
230
1.0
 70
    24
 71
     2
 72
     6
 73
     3
 74
     0
 42
0.0000000001
 43
0.0000000001
 40
0.0
 40
0.0
 40
0.0
 40
0.2325105046476637
 40
0.2325105046476637
 40
0.2325105046476637
 10
55.84507273050629
 20
0.1521924194416825
 30
0.0
 10
55.84223236147033
 20
0.2684129683847045
 30
0.0
 10
55.83939199243437
 20
0.3846335173277264
 30
0.0
  0
SPLINE
  5
86
330
1F
100
AcDbEntity
  8
Make2D visible lines
100
AcDbSpline
210
0.0
220
0.0
230
1.0
 70
    24
 71
     2
 72
     6
 73
     3
 74
     0
 42
0.0000000001
 43
0.0000000001
 40
0.0
 40
0.0
 40
0.0
 40
0.2213623405233084
 40
0.2213623405233084
 40
0.2213623405233084
 10
57.25181991666729
 20
0.3858503918134666
 30
0.0
 10
57.2580947407402
 20
0.2753472333366913
 30
0.0
 10
57.26436956481312
 20
0.164844074859916
 30
0.0
  0
SPLINE
  5
87
330
1F
100
AcDbEntity
  8
Make2D visible lines
100
AcDbSpline
210
0.0
220
0.0
230
1.0
 70
    12
 71
     2
 72
     6
 73
     3
 74
     0
 42
0.0000000001
 43
0.0000000001
 40
0.0
 40
0.0
 40
0.0
 40
0.0224671519842366
 40
0.0224671519842366
 40
0.0224671519842366
 10
57.25180410695684
 20
0.3860938211857499
 30
0.0
 41
1.0
 10
57.25078734181271
 20
0.4000000000000348
 30
0.0
 41
0.7324347794791691
 10
57.23684404160891
 20
0.4000000000000183
 30
0.0
 41
1.0
  0
SPLINE
  5
88
330
1F
100
AcDbEntity
  8
Make2D visible lines
100
AcDbSpline
210
0.0
220
0.0
230
1.0
 70
    24
 71
     2
 72
     6
 73
     3
 74
     0
 42
0.0000000001
 43
0.0000000001
 40
0.0
 40
0.0
 40
0.0
 40
1.379419120443295
 40
1.379419120443295
 40
1.379419120443295
 10
57.23684404160891
 20
0.4000000000000163
 30
0.0
 10
56.54713448138726
 20
0.4000000000000162
 30
0.0
 10
55.85742492116562
 20
0.4000000000000161
 30
0.0
  0
SPLINE
  5
89
330
1F
100
AcDbEntity
  8
Make2D visible lines
100
AcDbSpline
210
0.0
220
0.0
230
1.0
 70
    12
 71
     2
 72
     8
 73
     5
 74
     0
 42
0.0000000001
 43
0.0000000001
 40
0.0
 40
0.0
 40
0.0
 40
0.0119642320224294
 40
0.0119642320224294
 40
0.0239284640448587
 40
0.0239284640448587
 40
0.0239284640448587
 10
55.85438751478111
 20
0.4000000000000163
 30
0.0
 41
1.0
 10
55.84806668671413
 20
0.4000000000000209
 30
0.0
 41
0.9215246294676533
 10
55.84365212377554
 20
0.3954762292814858
 30
0.0
 41
1.0
 10
55.83923756083698
 20
0.3909524585629509
 30
0.0
 41
0.9215246294676533
 10
55.83939199243437
 20
0.3846335173277264
 30
0.0
 41
1.0
  0
SPLINE
  5
8A
330
1F
100
AcDbEntity
  8
Make2D visible lines
100
AcDbSpline
210
0.0
220
0.0
230
1.0
 70
    24
 71
     3
 72
     9
 73
     5
 74
     0
 42
0.0000000001
 43
0.0000000001
 40
0.0
 40
0.0
 40
0.0
 40
0.0
 40
0.0000682360840525
 40
0.251869451330915
 40
0.251869451330915
 40
0.251869451330915
 40
0.251869451330915
 10
42.36328346702261
 20
0.0000000000000036
 30
0.0
 10
42.36317398704254
 20
0.0000000000000036
 30
0.0
 10
42.44712013153413
 20
0.0000000000000036
 30
0.0
 10
42.53108562855708
 20
0.0000000000000036
 30
0.0
 10
42.61501644618542
 20
0.0000000000000036
 30
0.0
  0
SPLINE
  5
8B
330
1F
100
AcDbEntity
  8
Make2D visible lines
100
AcDbSpline
210
0.0
220
0.0
230
1.0
 70
    24
 71
     2
 72
     6
 73
     3
 74
     0
 42
0.0000000001
 43
0.0000000001
 40
0.0
 40
0.0
 40
0.0
 40
0.2517559204860955
 40
0.2517559204860955
 40
0.2517559204860955
 10
42.61501644618542
 20
0.0000000000000036
 30
0.0
 10
42.74089440642847
 20
0.0000000000000036
 30
0.0
 10
42.86677236667152
 20
0.0000000000000036
 30
0.0
  0
SPLINE
  5
8C
330
1F
100
AcDbEntity
  8
Make2D visible lines
100
AcDbSpline
210
0.0
220
0.0
230
1.0
 70
    24
 71
     2
 72
     6
 73
     3
 74
     0
 42
0.0000000001
 43
0.0000000001
 40
0.0
 40
0.0
 40
0.0
 40
0.3876534637036499
 40
0.3876534637036499
 40
0.3876534637036499
 10
42.61501644379415
 20
0.4000000000000163
 30
0.0
 10
42.42118971194232
 20
0.4000000000000162
 30
0.0
 10
42.2273629800905
 20
0.4000000000000161
 30
0.0
  0
SPLINE
  5
8D
330
1F
100
AcDbEntity
  8
Make2D visible lines
100
AcDbSpline
210
0.0
220
0.0
230
1.0
 70
    24
 71
     2
 72
     6
 73
     3
 74
     0
 42
0.0000000001
 43
0.0000000001
 40
0.0
 40
0.0
 40
0.0
 40
0.3863627208447955
 40
0.3863627208447955
 40
0.3863627208447955
 10
43.00137947410477
 20
0.4000000000000166
 30
0.0
 10
42.80819811368237
 20
0.4000000000000165
 30
0.0
 10
42.61501675325997
 20
0.4000000000000163
 30
0.0
  0
SPLINE
  5
8E
330
1F
100
AcDbEntity
  8
Make2D visible lines
100
AcDbSpline
210
0.0
220
0.0
230
1.0
 70
    12
 71
     2
 72
     8
 73
     5
 74
     0
 42
0.0000000001
 43
0.0000000001
 40
0.0
 40
0.0
 40
0.0
 40
0.1240063772075993
 40
0.1240063772075993
 40
0.2480127544151987
 40
0.2480127544151987
 40
0.2480127544151987
 10
42.36321470484675
 20
0.000000000001096
 30
0.0
 41
1.0
 10
42.29772477079248
 20
-0.0000119099018914
 30
0.0
 41
0.9220189045496352
 10
42.25185774604606
 20
0.0467336529376692
 30
0.0
 41
1.0
 10
42.20599072129961
 20
0.0934792157772298
 30
0.0
 41
0.9220189045496352
 10
42.20724501362697
 20
0.1589571384308644
 30
0.0
 41
1.0
  0
SPLINE
  5
8F
330
1F
100
AcDbEntity
  8
Make2D visible lines
100
AcDbSpline
210
0.0
220
0.0
230
1.0
 70
    12
 71
     2
 72
     8
 73
     5
 74
     0
 42
0.0000000001
 43
0.0000000001
 40
0.0
 40
0.0
 40
0.0
 40
0.1242318577480881
 40
0.1242318577480881
 40
0.2484637154961761
 40
0.2484637154961761
 40
0.2484637154961761
 10
43.02277802222789
 20
0.1594215907425355
 30
0.0
 41
1.0
 10
43.0242176128818
 20
0.0938162002370285
 30
0.0
 41
0.9217678869813357
 10
42.97832852070015
 20
0.0469085153295885
 30
0.0
 41
1.0
 10
42.93243942851851
 20
0.0000008304221485
 30
0.0
 41
0.9217678869813357
 10
42.86681824532329
 20
0.0000000000011417
 30
0.0
 41
1.0
  0
SPLINE
  5
90
330
1F
100
AcDbEntity
  8
Make2D visible lines
100
AcDbSpline
210
0.0
220
0.0
230
1.0
 70
    12
 71
     2
 72
     6
 73
     3
 74
     0
 42
0.0000000001
 43
0.0000000001
 40
0.0
 40
0.0
 40
0.0
 40
0.2253642768281202
 40
0.2253642768281202
 40
0.2253642768281202
 10
43.01783672021335
 20
0.385325058594006
 30
0.0
 41
1.0
 10
43.02029582951432
 20
0.2726697563467351
 30
0.0
 41
0.9999999984988344
 10
43.02276728436502
 20
0.1600147242624911
 30
0.0
 41
1.0
  0
SPLINE
  5
91
330
1F
100
AcDbEntity
  8
Make2D visible lines
100
AcDbSpline
210
0.0
220
0.0
230
1.0
 70
    12
 71
     2
 72
     6
 73
     3
 74
     0
 42
0.0000000001
 43
0.0000000001
 40
0.0
 40
0.0
 40
0.0
 40
0.2259576718196235
 40
0.2259576718196235
 40
0.2259576718196235
 10
42.20725259171238
 20
0.1594216323489093
 30
0.0
 41
1.0
 10
42.20973058622484
 20
0.2723732898507527
 30
0.0
 41
0.9999999984910576
 10
42.21219617065994
 20
0.3853252189294936
 30
0.0
 41
1.0
  0
SPLINE
  5
92
330
1F
100
AcDbEntity
  8
Make2D visible lines
100
AcDbSpline
210
0.0
220
0.0
230
1.0
 70
    12
 71
     2
 72
     6
 73
     3
 74
     0
 42
0.0000000001
 43
0.0000000001
 40
0.0
 40
0.0
 40
0.0
 40
0.0232125536774005
 40
0.0232125536774005
 40
0.0232125536774005
 10
42.21219807522409
 20
0.3853269610145591
 30
0.0
 41
1.0
 10
42.21256458756184
 20
0.3999502926109969
 30
0.0
 41
0.7170957278319929
 10
42.22719242702815
 20
0.3999999999617776
 30
0.0
 41
1.0
  0
SPLINE
  5
93
330
1F
100
AcDbEntity
  8
Make2D visible lines
100
AcDbSpline
210
0.0
220
0.0
230
1.0
 70
    12
 71
     2
 72
     6
 73
     3
 74
     0
 42
0.0000000001
 43
0.0000000001
 40
0.0
 40
0.0
 40
0.0
 40
0.0232077921390905
 40
0.0232077921390905
 40
0.0232077921390905
 10
43.00284082610177
 20
0.3999999999470365
 30
0.0
 41
1.0
 10
43.0174580003221
 20
0.3999392744149043
 30
0.0
 41
0.7176120634141828
 10
43.01783485464624
 20
0.3853268327778507
 30
0.0
 41
1.0
  0
SPLINE
  5
94
330
1F
100
AcDbEntity
  8
Make2D visible lines
100
AcDbSpline
210
0.0
220
0.0
230
1.0
 70
    24
 71
     2
 72
     6
 73
     3
 74
     0
 42
0.0000000001
 43
0.0000000001
 40
0.0
 40
0.0
 40
0.0
 40
1.107594207465098
 40
1.107594207465098
 40
1.107594207465098
 10
-13.386009813054
 20
0.0000000000000036
 30
0.0
 10
-13.93980691678655
 20
0.0000000000000036
 30
0.0
 10
-14.4936040205191
 20
0.0000000000000036
 30
0.0
  0
SPLINE
  5
95
330
1F
100
AcDbEntity
  8
Make2D visible lines
100
AcDbSpline
210
0.0
220
0.0
230
1.0
 70
    12
 71
     2
 72
     8
 73
     5
 74
     0
 42
0.0000000001
 43
0.0000000001
 40
0.0
 40
0.0
 40
0.0
 40
0.1269465231438366
 40
0.1269465231438366
 40
0.2538930462876731
 40
0.2538930462876731
 40
0.2538930462876731
 10
-14.49360402051909
 20
0.0000000000000036
 30
0.0
 41
1.0
 10
-14.56082858485446
 20
0.000000000000002
 30
0.0
 41
0.918360064844369
 10
-14.60699642696272
 20
0.0488638148853193
 30
0.0
 41
1.0
 10
-14.65316426907099
 20
0.0977276297706366
 30
0.0
 41
0.918360064844369
 10
-14.6493531211261
 20
0.1648440748599159
 30
0.0
 41
1.0
  0
SPLINE
  5
96
330
1F
100
AcDbEntity
  8
Make2D visible lines
100
AcDbSpline
210
0.0
220
0.0
230
1.0
 70
    12
 71
     2
 72
     6
 73
     3
 74
     0
 42
0.0000000001
 43
0.0000000001
 40
0.0
 40
0.0
 40
0.0
 40
0.2412324278936833
 40
0.2412324278936833
 40
0.2412324278936833
 10
-13.23005638064813
 20
0.1521885802082181
 30
0.0
 41
1.0
 10
-13.23377578943406
 20
-0.0000000000000105
 30
0.0
 41
0.7156927337036098
 10
-13.386009813054
 20
0.0000000000000034
 30
0.0
 41
1.0
  0
SPLINE
  5
97
330
1F
100
AcDbEntity
  8
Make2D visible lines
100
AcDbSpline
210
0.0
220
0.0
230
1.0
 70
    24
 71
     2
 72
     6
 73
     3
 74
     0
 42
0.0000000001
 43
0.0000000001
 40
0.0
 40
0.0
 40
0.0
 40
0.2325105046476637
 40
0.2325105046476637
 40
0.2325105046476637
 10
-13.23005628681928
 20
0.1521924194416825
 30
0.0
 10
-13.22721591778332
 20
0.2684129683847045
 30
0.0
 10
-13.22437554874736
 20
0.3846335173277264
 30
0.0
  0
SPLINE
  5
98
330
1F
100
AcDbEntity
  8
Make2D visible lines
100
AcDbSpline
210
0.0
220
0.0
230
1.0
 70
    24
 71
     2
 72
     6
 73
     3
 74
     0
 42
0.0000000001
 43
0.0000000001
 40
0.0
 40
0.0
 40
0.0
 40
0.2213623405233084
 40
0.2213623405233084
 40
0.2213623405233084
 10
-14.63680347298028
 20
0.3858503918134666
 30
0.0
 10
-14.64307829705319
 20
0.2753472333366913
 30
0.0
 10
-14.6493531211261
 20
0.164844074859916
 30
0.0
  0
SPLINE
  5
99
330
1F
100
AcDbEntity
  8
Make2D visible lines
100
AcDbSpline
210
0.0
220
0.0
230
1.0
 70
    12
 71
     2
 72
     6
 73
     3
 74
     0
 42
0.0000000001
 43
0.0000000001
 40
0.0
 40
0.0
 40
0.0
 40
0.0224671519842366
 40
0.0224671519842366
 40
0.0224671519842366
 10
-14.63678766326983
 20
0.3860938211857499
 30
0.0
 41
1.0
 10
-14.6357708981257
 20
0.4000000000000348
 30
0.0
 41
0.7324347794791691
 10
-14.6218275979219
 20
0.4000000000000183
 30
0.0
 41
1.0
  0
SPLINE
  5
9A
330
1F
100
AcDbEntity
  8
Make2D visible lines
100
AcDbSpline
210
0.0
220
0.0
230
1.0
 70
    24
 71
     2
 72
     6
 73
     3
 74
     0
 42
0.0000000001
 43
0.0000000001
 40
0.0
 40
0.0
 40
0.0
 40
1.379419120443295
 40
1.379419120443295
 40
1.379419120443295
 10
-14.6218275979219
 20
0.4000000000000163
 30
0.0
 10
-13.93211803770025
 20
0.4000000000000162
 30
0.0
 10
-13.24240847747861
 20
0.4000000000000161
 30
0.0
  0
SPLINE
  5
9B
330
1F
100
AcDbEntity
  8
Make2D visible lines
100
AcDbSpline
210
0.0
220
0.0
230
1.0
 70
    12
 71
     2
 72
     8
 73
     5
 74
     0
 42
0.0000000001
 43
0.0000000001
 40
0.0
 40
0.0
 40
0.0
 40
0.0119642320224294
 40
0.0119642320224294
 40
0.0239284640448587
 40
0.0239284640448587
 40
0.0239284640448587
 10
-13.2393710710941
 20
0.4000000000000163
 30
0.0
 41
1.0
 10
-13.23305024302711
 20
0.4000000000000209
 30
0.0
 41
0.9215246294676533
 10
-13.22863568008853
 20
0.3954762292814858
 30
0.0
 41
1.0
 10
-13.22422111714996
 20
0.3909524585629509
 30
0.0
 41
0.9215246294676533
 10
-13.22437554874736
 20
0.3846335173277264
 30
0.0
 41
1.0
  0
SPLINE
  5
9C
330
1F
100
AcDbEntity
  8
Make2D visible lines
100
AcDbSpline
210
0.0
220
0.0
230
1.0
 70
    12
 71
     2
 72
     6
 73
     3
 74
     0
 42
0.0000000001
 43
0.0000000001
 40
-0.0371380794388858
 40
-0.0371380794388858
 40
-0.0371380794388858
 40
0.0
 40
0.0
 40
0.0
 10
14.61564357989874
 20
0.4022441987256987
 30
0.0
 41
1.0
 10
14.63541548501586
 20
0.4103542426935238
 30
0.0
 41
0.8144776561050845
 10
14.63421101299304
 20
0.4316908378358253
 30
0.0
 41
1.0
  0
SPLINE
  5
9D
330
1F
100
AcDbEntity
  8
Make2D visible lines
100
AcDbSpline
210
0.0
220
0.0
230
1.0
 70
     8
 71
     3
 72
    12
 73
     8
 74
     0
 42
0.0000000001
 43
0.0000000001
 40
0.0
 40
0.0
 40
0.0
 40
0.0
 40
2.024931116884056
 40
2.121300252943487
 40
2.208073208949396
 40
2.641991453438839
 40
3.085460819895622
 40
3.085460819895622
 40
3.085460819895622
 40
3.085460819895622
 10
14.63421101299304
 20
0.4316908378358253
 30
0.0
 10
14.59550714099262
 20
1.105574847750693
 30
0.0
 10
14.55720448132851
 20
1.811593362411049
 30
0.0
 10
14.51438251453219
 20
2.546414843142783
 30
0.0
 10
14.46954829569635
 20
2.747953191239763
 30
0.0
 10
14.30098962010137
 20
3.034556781920432
 30
0.0
 10
14.03032427358681
 20
3.175838551528641
 30
0.0
 10
13.88599999999995
 20
3.205665827232744
 30
0.0
  0
SPLINE
  5
9E
330
1F
100
AcDbEntity
  8
Make2D visible lines
100
AcDbSpline
210
0.0
220
0.0
230
1.0
 70
    24
 71
     2
 72
     6
 73
     3
 74
     0
 42
0.0000000001
 43
0.0000000001
 40
-12.2902709571203
 40
-12.2902709571203
 40
-12.2902709571203
 40
0.0
 40
0.0
 40
0.0
 10
13.88599999999995
 20
3.205665827232744
 30
0.0
 10
7.867999999999946
 20
4.449195501128249
 30
0.0
 10
1.849999999999945
 20
5.692725175023753
 30
0.0
  0
SPLINE
  5
9F
330
1F
100
AcDbEntity
  8
Make2D visible lines
100
AcDbSpline
210
0.0
220
0.0
230
1.0
 70
    12
 71
     3
 72
    11
 73
     7
 74
     0
 42
0.0000000001
 43
0.0000000001
 40
0.0
 40
0.0
 40
0.0
 40
0.0
 40
0.2500000000000077
 40
0.500000000000056
 40
0.7500000000001044
 40
0.9903549301730069
 40
0.9903549301730069
 40
0.9903549301730069
 40
0.9903549301730069
 10
1.849999999999945
 20
5.692725175023753
 30
0.0
 41
1.0
 10
1.777532259027804
 20
5.707699549616471
 30
0.0
 41
1.0
 10
1.635884798350073
 20
5.771964450750453
 30
0.0
 41
1.0
 10
1.455036746425176
 20
5.941965920377697
 30
0.0
 41
1.0
 10
1.329210131423126
 20
6.15347175039408
 30
0.0
 41
1.0
 10
1.294052314614946
 20
6.303120864095799
 30
0.0
 41
1.0
 10
1.291507112319829
 20
6.378712134379271
 30
0.0
 41
1.0
  0
SPLINE
  5
A0
330
1F
100
AcDbEntity
  8
Make2D visible lines
100
AcDbSpline
210
0.0
220
0.0
230
1.0
 70
    24
 71
     2
 72
     6
 73
     3
 74
     0
 42
0.0000000001
 43
0.0000000001
 40
0.0
 40
0.0
 40
0.0
 40
0.080013140622857
 40
0.080013140622857
 40
0.080013140622857
 10
1.291507112319829
 20
6.378712134379271
 30
0.0
 10
1.290753556159937
 20
6.420856067189643
 30
0.0
 10
1.290000000000045
 20
6.463000000000015
 30
0.0
  0
SPLINE
  5
A1
330
1F
100
AcDbEntity
  8
Make2D visible lines
100
AcDbSpline
210
0.0
220
0.0
230
1.0
 70
    24
 71
     2
 72
     6
 73
     3
 74
     0
 42
0.0000000001
 43
0.0000000001
 40
0.0
 40
0.0
 40
0.0
 40
1.290000000000045
 40
1.290000000000045
 40
1.290000000000045
 10
1.290000000000045
 20
6.463000000000015
 30
0.0
 10
0.6450000000000227
 20
6.463000000000015
 30
0.0
 10
0.0
 20
6.463000000000015
 30
0.0
  0
SPLINE
  5
A2
330
1F
100
AcDbEntity
  8
Make2D visible lines
100
AcDbSpline
210
0.0
220
0.0
230
1.0
 70
    24
 71
     2
 72
     6
 73
     3
 74
     0
 42
0.0000000001
 43
0.0000000001
 40
0.0
 40
0.0
 40
0.0
 40
1.289412297652113
 40
1.289412297652113
 40
1.289412297652113
 10
0.0
 20
6.463000000000015
 30
0.0
 10
-0.6448530744130396
 20
6.463000000000015
 30
0.0
 10
-1.289706148826079
 20
6.463000000000015
 30
0.0
  0
SPLINE
  5
A3
330
1F
100
AcDbEntity
  8
Make2D visible lines
100
AcDbSpline
210
0.0
220
0.0
230
1.0
 70
    24
 71
     2
 72
     6
 73
     3
 74
     0
 42
0.0000000001
 43
0.0000000001
 40
-0.080013140622857
 40
-0.080013140622857
 40
-0.080013140622857
 40
0.0
 40
0.0
 40
0.0
 10
-1.289706148826079
 20
6.463000000000015
 30
0.0
 10
-1.290606630572954
 20
6.420856067189643
 30
0.0
 10
-1.291507112319829
 20
6.378712134379271
 30
0.0
  0
SPLINE
  5
A4
330
1F
100
AcDbEntity
  8
Make2D visible lines
100
AcDbSpline
210
0.0
220
0.0
230
1.0
 70
    12
 71
     3
 72
    11
 73
     7
 74
     0
 42
0.0000000001
 43
0.0000000001
 40
-0.9903549301730069
 40
-0.9903549301730069
 40
-0.9903549301730069
 40
-0.9903549301730069
 40
-0.7500000000001044
 40
-0.500000000000056
 40
-0.2500000000000077
 40
0.0
 40
0.0
 40
0.0
 40
0.0
 10
-1.291507112319829
 20
6.378712134379271
 30
0.0
 41
1.0
 10
-1.294052314614946
 20
6.303120864095799
 30
0.0
 41
1.0
 10
-1.329210131423126
 20
6.15347175039408
 30
0.0
 41
1.0
 10
-1.455036746425176
 20
5.941965920377697
 30
0.0
 41
1.0
 10
-1.635884798350073
 20
5.771964450750453
 30
0.0
 41
1.0
 10
-1.777532259027804
 20
5.707699549616471
 30
0.0
 41
1.0
 10
-1.849999999999945
 20
5.692725175023753
 30
0.0
 41
1.0
  0
SPLINE
  5
A5
330
1F
100
AcDbEntity
  8
Make2D visible lines
100
AcDbSpline
210
0.0
220
0.0
230
1.0
 70
    24
 71
     2
 72
     6
 73
     3
 74
     0
 42
0.0000000001
 43
0.0000000001
 40
0.0
 40
0.0
 40
0.0
 40
12.2902709571203
 40
12.2902709571203
 40
12.2902709571203
 10
-1.849999999999945
 20
5.692725175023753
 30
0.0
 10
-7.867999999999946
 20
4.449195501128249
 30
0.0
 10
-13.88599999999995
 20
3.205665827232744
 30
0.0
  0
SPLINE
  5
A6
330
1F
100
AcDbEntity
  8
Make2D visible lines
100
AcDbSpline
210
0.0
220
0.0
230
1.0
 70
     8
 71
     3
 72
    12
 73
     8
 74
     0
 42
0.0000000001
 43
0.0000000001
 40
-3.085460819895622
 40
-3.085460819895622
 40
-3.085460819895622
 40
-3.085460819895622
 40
-2.641991453438839
 40
-2.208073208949396
 40
-2.121300252943487
 40
-2.024931116884056
 40
0.0
 40
0.0
 40
0.0
 40
0.0
 10
-13.88599999999995
 20
3.205665827232744
 30
0.0
 10
-14.03032427358681
 20
3.175838551528641
 30
0.0
 10
-14.30098962010137
 20
3.034556781920432
 30
0.0
 10
-14.46954829569635
 20
2.747953191239763
 30
0.0
 10
-14.51438251453219
 20
2.546414843142783
 30
0.0
 10
-14.55720448132851
 20
1.811593362411049
 30
0.0
 10
-14.59550714099262
 20
1.105574847750693
 30
0.0
 10
-14.63421101299304
 20
0.4316908378358253
 30
0.0
  0
SPLINE
  5
A7
330
1F
100
AcDbEntity
  8
Make2D visible lines
100
AcDbSpline
210
0.0
220
0.0
230
1.0
 70
    12
 71
     2
 72
     6
 73
     3
 74
     0
 42
0.0000000001
 43
0.0000000001
 40
0.0
 40
0.0
 40
0.0
 40
0.0371380794388858
 40
0.0371380794388858
 40
0.0371380794388858
 10
-14.63421101299304
 20
0.4316908378358253
 30
0.0
 41
1.0
 10
-14.63541548501586
 20
0.4103542426935238
 30
0.0
 41
0.8144776561050845
 10
-14.61564357989874
 20
0.4022441987256987
 30
0.0
 41
1.0
  0
SPLINE
  5
A8
330
1F
100
AcDbEntity
  8
Make2D visible lines - Tangent
100
AcDbSpline
210
0.0
220
0.0
230
1.0
 70
     8
 71
     3
 72
    54
 73
    50
 74
     0
 42
0.0000000001
 43
0.0000000001
 40
0.0
 40
0.0
 40
0.0
 40
0.0
 40
1.0
 40
2.0
 40
3.0
 40
4.0
 40
5.0
 40
6.0
 40
7.0
 40
8.0
 40
9.0
 40
10.0
 40
11.0
 40
12.0
 40
13.0
 40
14.0
 40
15.0
 40
16.0
 40
17.0
 40
18.0
 40
19.0
 40
20.0
 40
21.0
 40
22.0
 40
23.0
 40
24.0
 40
25.0
 40
26.0
 40
27.0
 40
28.0
 40
29.0
 40
30.0
 40
31.0
 40
32.0
 40
33.0
 40
34.0
 40
35.0
 40
36.0
 40
37.0
 40
38.0
 40
39.0
 40
40.0
 40
41.0
 40
42.0
 40
43.0
 40
44.0
 40
45.0
 40
46.0
 40
47.0
 40
47.0
 40
47.0
 40
47.0
 10
0.3855740390831688
 20
0.403329261439214
 30
0.0
 10
0.4108443184297055
 20
0.471691761030031
 30
0.0
 10
0.3928072028035972
 20
0.6333535261625483
 30
0.0
 10
0.3935782650521504
 20
0.8657327374605353
 30
0.0
 10
0.3870006279260478
 20
1.100824691898526
 30
0.0
 10
0.3822066441073212
 20
1.335184942048012
 30
0.0
 10
0.376920272973096
 20
1.569741898107297
 30
0.0
 10
0.3718097485976801
 20
1.804245165096962
 30
0.0
 10
0.367174730584694
 20
2.038780643129261
 30
0.0
 10
0.3618448482067402
 20
2.27327054669982
 30
0.0
 10
0.3611580137755363
 20
2.50795635439968
 30
0.0
 10
0.376405087015441
 20
2.742035110000107
 30
0.0
 10
0.4015745886429593
 20
2.975291767990851
 30
0.0
 10
0.4262016875861679
 20
3.208581524431251
 30
0.0
 10
0.4504341677925552
 20
3.44180444554645
 30
0.0
 10
0.4809936146595975
 20
3.674811437325082
 30
0.0
 10
0.4873166989861086
 20
3.908675454710889
 30
0.0
 10
0.4727636425388441
 20
4.14316108458999
 30
0.0
 10
0.4622226586758619
 20
4.377402299909646
 30
0.0
 10
0.4518601668513925
 20
4.611784456659724
 30
0.0
 10
0.4397540674726934
 20
4.845964675118837
 30
0.0
 10
0.4280040588748157
 20
5.080512320442788
 30
0.0
 10
0.3896612062822467
 20
5.312100872344999
 30
0.0
 10
0.306364448569322
 20
5.534912960303022
 30
0.0
 10
0.1261550709227438
 20
5.701053020982688
 30
0.0
 10
-0.1290546863127963
 20
5.700046595423096
 30
0.0
 10
-0.3077404613287302
 20
5.532266007601516
 30
0.0
 10
-0.3903756862898934
 20
5.309372210240867
 30
0.0
 10
-0.428217084476282
 20
5.077673675160892
 30
0.0
 10
-0.4399213569507985
 20
4.843140061617282
 30
0.0
 10
-0.4519516521145414
 20
4.608952622806954
 30
0.0
 10
-0.4623969074537961
 20
4.374572197465292
 30
0.0
 10
-0.4728055676319354
 20
4.140337130437424
 30
0.0
 10
-0.4877548161439153
 20
3.905822607503123
 30
0.0
 10
-0.4799307177377822
 20
3.67206586450394
 30
0.0
 10
-0.4495990074442647
 20
3.439049497872843
 30
0.0
 10
-0.4259535830247766
 20
3.205758678338231
 30
0.0
 10
-0.4019566833489902
 20
2.972405099167784
 30
0.0
 10
-0.3765750867231028
 20
2.739167888374083
 30
0.0
 10
-0.3609890257158116
 20
2.505129568181835
 30
0.0
 10
-0.362012857282243
 20
2.270431807711549
 30
0.0
 10
-0.3671657716880983
 20
2.035943620623493
 30
0.0
 10
-0.3719076450540077
 20
1.801408320125761
 30
0.0
 10
-0.3770801101951297
 20
1.566909832637999
 30
0.0
 10
-0.3824214895384378
 20
1.332342661516703
 30
0.0
 10
-0.386847357623071
 20
1.098016778736779
 30
0.0
 10
-0.39383727168959
 20
0.8627750502036662
 30
0.0
 10
-0.3921473528078007
 20
0.6309690073439601
 30
0.0
 10
-0.412459675750142
 20
0.4678802044313225
 30
0.0
 10
-0.3829938551656991
 20
0.4021512543515627
 30
0.0
  0
SPLINE
  5
A9
330
1F
100
AcDbEntity
  8
Make2D visible lines
100
AcDbSpline
210
0.0
220
0.0
230
1.0
 70
    24
 71
     2
 72
     6
 73
     3
 74
     0
 42
0.0000000001
 43
0.0000000001
 40
0.0
 40
0.0
 40
0.0
 40
2.579999999999997
 40
2.579999999999997
 40
2.579999999999997
 10
-1.289999999999996
 20
6.503000000000016
 30
0.0
 10
0.0000000000000027
 20
6.503000000000016
 30
0.0
 10
1.290000000000001
 20
6.503000000000016
 30
0.0
  0
SPLINE
  5
AA
330
1F
100
AcDbEntity
  8
Make2D visible lines
100
AcDbSpline
210
0.0
220
0.0
230
1.0
 70
    24
 71
     2
 72
     6
 73
     3
 74
     0
 42
0.0000000001
 43
0.0000000001
 40
0.0
 40
0.0
 40
0.0
 40
0.0400060931217547
 40
0.0400060931217547
 40
0.0400060931217547
 10
-1.200698202597376
 20
6.463000000000022
 30
0.0
 10
-1.200349101298833
 20
6.483000000000022
 30
0.0
 10
-1.200000000000291
 20
6.503000000000021
 30
0.0
  0
SPLINE
  5
AB
330
1F
100
AcDbEntity
  8
Make2D visible lines
100
AcDbSpline
210
0.0
220
0.0
230
1.0
 70
    24
 71
     2
 72
     6
 73
     3
 74
     0
 42
0.0000000001
 43
0.0000000001
 40
0.0
 40
0.0
 40
0.0
 40
0.0400060931217547
 40
0.0400060931217547
 40
0.0400060931217547
 10
1.200000000000291
 20
6.503000000000021
 30
0.0
 10
1.200349101298833
 20
6.483000000000022
 30
0.0
 10
1.200698202597376
 20
6.463000000000022
 30
0.0
  0
SPLINE
  5
AC
330
1F
100
AcDbEntity
  8
Make2D visible lines
100
AcDbSpline
210
0.0
220
0.0
230
1.0
 70
    24
 71
     2
 72
     6
 73
     3
 74
     0
 42
0.0000000001
 43
0.0000000001
 40
0.0
 40
0.0
 40
0.0
 40
1.107594207465098
 40
1.107594207465098
 40
1.107594207465098
 10
13.386009813054
 20
0.0000000000000036
 30
0.0
 10
13.93980691678655
 20
0.0000000000000036
 30
0.0
 10
14.4936040205191
 20
0.0000000000000036
 30
0.0
  0
SPLINE
  5
AD
330
1F
100
AcDbEntity
  8
Make2D visible lines
100
AcDbSpline
210
0.0
220
0.0
230
1.0
 70
    12
 71
     2
 72
     8
 73
     5
 74
     0
 42
0.0000000001
 43
0.0000000001
 40
0.0
 40
0.0
 40
0.0
 40
0.1269465231438366
 40
0.1269465231438366
 40
0.2538930462876731
 40
0.2538930462876731
 40
0.2538930462876731
 10
14.49360402051909
 20
0.0000000000000036
 30
0.0
 41
1.0
 10
14.56082858485446
 20
0.000000000000002
 30
0.0
 41
0.918360064844369
 10
14.60699642696272
 20
0.0488638148853193
 30
0.0
 41
1.0
 10
14.65316426907099
 20
0.0977276297706366
 30
0.0
 41
0.918360064844369
 10
14.6493531211261
 20
0.1648440748599159
 30
0.0
 41
1.0
  0
SPLINE
  5
AE
330
1F
100
AcDbEntity
  8
Make2D visible lines
100
AcDbSpline
210
0.0
220
0.0
230
1.0
 70
    12
 71
     2
 72
     6
 73
     3
 74
     0
 42
0.0000000001
 43
0.0000000001
 40
0.0
 40
0.0
 40
0.0
 40
0.2412324278936833
 40
0.2412324278936833
 40
0.2412324278936833
 10
13.23005638064813
 20
0.1521885802082181
 30
0.0
 41
1.0
 10
13.23377578943406
 20
-0.0000000000000105
 30
0.0
 41
0.7156927337036098
 10
13.386009813054
 20
0.0000000000000034
 30
0.0
 41
1.0
  0
SPLINE
  5
AF
330
1F
100
AcDbEntity
  8
Make2D visible lines
100
AcDbSpline
210
0.0
220
0.0
230
1.0
 70
    24
 71
     2
 72
     6
 73
     3
 74
     0
 42
0.0000000001
 43
0.0000000001
 40
0.0
 40
0.0
 40
0.0
 40
0.2325105046476637
 40
0.2325105046476637
 40
0.2325105046476637
 10
13.23005628681928
 20
0.1521924194416825
 30
0.0
 10
13.22721591778332
 20
0.2684129683847045
 30
0.0
 10
13.22437554874736
 20
0.3846335173277264
 30
0.0
  0
SPLINE
  5
B0
330
1F
100
AcDbEntity
  8
Make2D visible lines
100
AcDbSpline
210
0.0
220
0.0
230
1.0
 70
    24
 71
     2
 72
     6
 73
     3
 74
     0
 42
0.0000000001
 43
0.0000000001
 40
0.0
 40
0.0
 40
0.0
 40
0.2213623405233084
 40
0.2213623405233084
 40
0.2213623405233084
 10
14.63680347298028
 20
0.3858503918134666
 30
0.0
 10
14.64307829705319
 20
0.2753472333366913
 30
0.0
 10
14.6493531211261
 20
0.164844074859916
 30
0.0
  0
SPLINE
  5
B1
330
1F
100
AcDbEntity
  8
Make2D visible lines
100
AcDbSpline
210
0.0
220
0.0
230
1.0
 70
    12
 71
     2
 72
     6
 73
     3
 74
     0
 42
0.0000000001
 43
0.0000000001
 40
0.0
 40
0.0
 40
0.0
 40
0.0224671519842366
 40
0.0224671519842366
 40
0.0224671519842366
 10
14.63678766326983
 20
0.3860938211857499
 30
0.0
 41
1.0
 10
14.6357708981257
 20
0.4000000000000348
 30
0.0
 41
0.7324347794791691
 10
14.6218275979219
 20
0.4000000000000183
 30
0.0
 41
1.0
  0
SPLINE
  5
B2
330
1F
100
AcDbEntity
  8
Make2D visible lines
100
AcDbSpline
210
0.0
220
0.0
230
1.0
 70
    24
 71
     2
 72
     6
 73
     3
 74
     0
 42
0.0000000001
 43
0.0000000001
 40
0.0
 40
0.0
 40
0.0
 40
1.379419120443295
 40
1.379419120443295
 40
1.379419120443295
 10
14.6218275979219
 20
0.4000000000000163
 30
0.0
 10
13.93211803770025
 20
0.4000000000000162
 30
0.0
 10
13.24240847747861
 20
0.4000000000000161
 30
0.0
  0
SPLINE
  5
B3
330
1F
100
AcDbEntity
  8
Make2D visible lines
100
AcDbSpline
210
0.0
220
0.0
230
1.0
 70
    12
 71
     2
 72
     8
 73
     5
 74
     0
 42
0.0000000001
 43
0.0000000001
 40
0.0
 40
0.0
 40
0.0
 40
0.0119642320224294
 40
0.0119642320224294
 40
0.0239284640448587
 40
0.0239284640448587
 40
0.0239284640448587
 10
13.2393710710941
 20
0.4000000000000163
 30
0.0
 41
1.0
 10
13.23305024302711
 20
0.4000000000000209
 30
0.0
 41
0.9215246294676533
 10
13.22863568008853
 20
0.3954762292814858
 30
0.0
 41
1.0
 10
13.22422111714996
 20
0.3909524585629509
 30
0.0
 41
0.9215246294676533
 10
13.22437554874736
 20
0.3846335173277264
 30
0.0
 41
1.0
  0
SPLINE
  5
B4
330
1F
100
AcDbEntity
  8
Make2D visible lines
100
AcDbSpline
210
0.0
220
0.0
230
1.0
 70
    24
 71
     3
 72
     9
 73
     5
 74
     0
 42
0.0000000001
 43
0.0000000001
 40
0.0
 40
0.0
 40
0.0
 40
0.0
 40
0.0000682360840525
 40
0.251869451330915
 40
0.251869451330915
 40
0.251869451330915
 40
0.251869451330915
 10
-0.2517329766643961
 20
0.0000000000000036
 30
0.0
 10
-0.2518424566444732
 20
0.0000000000000036
 30
0.0
 10
-0.1678963121528749
 20
0.0000000000000036
 30
0.0
 10
-0.0839308151299303
 20
0.0000000000000036
 30
0.0
 10
0.0000000024984139
 20
0.0000000000000036
 30
0.0
  0
SPLINE
  5
B5
330
1F
100
AcDbEntity
  8
Make2D visible lines
100
AcDbSpline
210
0.0
220
0.0
230
1.0
 70
    24
 71
     2
 72
     6
 73
     3
 74
     0
 42
0.0000000001
 43
0.0000000001
 40
0.0
 40
0.0
 40
0.0
 40
0.2517559204860955
 40
0.2517559204860955
 40
0.2517559204860955
 10
0.0000000024984139
 20
0.0000000000000036
 30
0.0
 10
0.1258779627414617
 20
0.0000000000000036
 30
0.0
 10
0.2517559229845094
 20
0.0000000000000036
 30
0.0
  0
SPLINE
  5
B6
330
1F
100
AcDbEntity
  8
Make2D visible lines
100
AcDbSpline
210
0.0
220
0.0
230
1.0
 70
    24
 71
     2
 72
     6
 73
     3
 74
     0
 42
0.0000000001
 43
0.0000000001
 40
0.0
 40
0.0
 40
0.0
 40
0.3876534637036499
 40
0.3876534637036499
 40
0.3876534637036499
 10
0.0000000001071356
 20
0.4000000000000163
 30
0.0
 10
-0.1938267317446893
 20
0.4000000000000162
 30
0.0
 10
-0.3876534635965143
 20
0.4000000000000161
 30
0.0
  0
SPLINE
  5
B7
330
1F
100
AcDbEntity
  8
Make2D visible lines
100
AcDbSpline
210
0.0
220
0.0
230
1.0
 70
    24
 71
     2
 72
     6
 73
     3
 74
     0
 42
0.0000000001
 43
0.0000000001
 40
0.0
 40
0.0
 40
0.0
 40
0.3863627208447955
 40
0.3863627208447955
 40
0.3863627208447955
 10
0.3863630304177565
 20
0.4000000000000166
 30
0.0
 10
0.1931816699953588
 20
0.4000000000000165
 30
0.0
 10
0.000000309572961
 20
0.4000000000000163
 30
0.0
  0
SPLINE
  5
B8
330
1F
100
AcDbEntity
  8
Make2D visible lines
100
AcDbSpline
210
0.0
220
0.0
230
1.0
 70
    12
 71
     2
 72
     8
 73
     5
 74
     0
 42
0.0000000001
 43
0.0000000001
 40
0.0
 40
0.0
 40
0.0
 40
0.1240063772075993
 40
0.1240063772075993
 40
0.2480127544151987
 40
0.2480127544151987
 40
0.2480127544151987
 10
-0.2518017388402534
 20
0.000000000001096
 30
0.0
 41
1.0
 10
-0.3172916728945204
 20
-0.0000119099018914
 30
0.0
 41
0.9220189045496352
 10
-0.3631586976409586
 20
0.0467336529376692
 30
0.0
 41
1.0
 10
-0.4090257223873984
 20
0.0934792157772298
 30
0.0
 41
0.9220189045496352
 10
-0.4077714300600412
 20
0.1589571384308644
 30
0.0
 41
1.0
  0
SPLINE
  5
B9
330
1F
100
AcDbEntity
  8
Make2D visible lines
100
AcDbSpline
210
0.0
220
0.0
230
1.0
 70
    12
 71
     2
 72
     8
 73
     5
 74
     0
 42
0.0000000001
 43
0.0000000001
 40
0.0
 40
0.0
 40
0.0
 40
0.1242318577480881
 40
0.1242318577480881
 40
0.2484637154961761
 40
0.2484637154961761
 40
0.2484637154961761
 10
0.4077615785408764
 20
0.1594215907425355
 30
0.0
 41
1.0
 10
0.4092011691947805
 20
0.0938162002370285
 30
0.0
 41
0.9217678869813357
 10
0.3633120770131395
 20
0.0469085153295885
 30
0.0
 41
1.0
 10
0.3174229848314968
 20
0.0000008304221485
 30
0.0
 41
0.9217678869813357
 10
0.2518018016362724
 20
0.0000000000011417
 30
0.0
 41
1.0
  0
SPLINE
  5
BA
330
1F
100
AcDbEntity
  8
Make2D visible lines
100
AcDbSpline
210
0.0
220
0.0
230
1.0
 70
    12
 71
     2
 72
     6
 73
     3
 74
     0
 42
0.0000000001
 43
0.0000000001
 40
0.0
 40
0.0
 40
0.0
 40
0.2253642768281202
 40
0.2253642768281202
 40
0.2253642768281202
 10
0.4028202765263416
 20
0.385325058594006
 30
0.0
 41
1.0
 10
0.4052793858273148
 20
0.2726697563467351
 30
0.0
 41
0.9999999984988344
 10
0.4077508406780019
 20
0.1600147242624911
 30
0.0
 41
1.0
  0
SPLINE
  5
BB
330
1F
100
AcDbEntity
  8
Make2D visible lines
100
AcDbSpline
210
0.0
220
0.0
230
1.0
 70
    12
 71
     2
 72
     6
 73
     3
 74
     0
 42
0.0000000001
 43
0.0000000001
 40
0.0
 40
0.0
 40
0.0
 40
0.2259576718196235
 40
0.2259576718196235
 40
0.2259576718196235
 10
-0.4077638519746358
 20
0.1594216323489093
 30
0.0
 41
1.0
 10
-0.4052858574621696
 20
0.2723732898507527
 30
0.0
 41
0.9999999984910576
 10
-0.4028202730270731
 20
0.3853252189294936
 30
0.0
 41
1.0
  0
SPLINE
  5
BC
330
1F
100
AcDbEntity
  8
Make2D visible lines
100
AcDbSpline
210
0.0
220
0.0
230
1.0
 70
    12
 71
     2
 72
     6
 73
     3
 74
     0
 42
0.0000000001
 43
0.0000000001
 40
0.0
 40
0.0
 40
0.0
 40
0.0232125536774005
 40
0.0232125536774005
 40
0.0232125536774005
 10
-0.4028183684629205
 20
0.3853269610145591
 30
0.0
 41
1.0
 10
-0.4024518561251791
 20
0.3999502926109969
 30
0.0
 41
0.7170957278319929
 10
-0.3878240166588611
 20
0.3999999999617776
 30
0.0
 41
1.0
  0
SPLINE
  5
BD
330
1F
100
AcDbEntity
  8
Make2D visible lines
100
AcDbSpline
210
0.0
220
0.0
230
1.0
 70
    12
 71
     2
 72
     6
 73
     3
 74
     0
 42
0.0000000001
 43
0.0000000001
 40
0.0
 40
0.0
 40
0.0
 40
0.0232077921390905
 40
0.0232077921390905
 40
0.0232077921390905
 10
0.387824382414756
 20
0.3999999999470365
 30
0.0
 41
1.0
 10
0.4024415566350914
 20
0.3999392744149043
 30
0.0
 41
0.7176120634141828
 10
0.4028184109592292
 20
0.3853268327778507
 30
0.0
 41
1.0
  0
SPLINE
  5
BF
330
1F
100
AcDbEntity
  8
Default
100
AcDbSpline
210
0.0
220
0.0
230
1.0
 70
     8
 71
     3
 72
    10
 73
     6
 74
     0
 42
0.0000000001
 43
0.0000000001
 40
0.0
 40
0.0
 40
0.0
 40
0.0
 40
1.13000657183866
 40
2.287921106073678
 40
8.404575460652145
 40
8.404575460652145
 40
8.404575460652145
 40
8.404575460652145
 10
-11.18645558336087
 20
51.23960167464307
 30
0.0
 10
-11.12347880838994
 20
50.86828312467678
 30
0.0
 10
-10.96274095877488
 20
50.12192866729052
 30
0.0
 10
-10.54460950112789
 20
48.72358923981671
 30
0.0
 10
-9.824437464307398
 20
47.11315340474767
 30
0.0
 10
-8.245808554394952
 20
45.44565319022347
 30
0.0
  0
ARC
  5
C0
330
1F
100
AcDbEntity
  8
Default
100
AcDbCircle
 10
-2.039152207831153
 20
51.32151878666233
 30
0.0
 40
8.546834473169264
100
AcDbArc
 50
223.431769392566
 51
250.7647814271077
  0
SPLINE
  5
C1
330
1F
100
AcDbEntity
  8
Default
100
AcDbSpline
210
0.0
220
0.0
230
1.0
 70
     8
 71
     3
 72
    10
 73
     6
 74
     0
 42
0.0000000001
 43
0.0000000001
 40
0.0
 40
0.0
 40
0.0
 40
0.0
 40
1.13000657183866
 40
2.287921106073678
 40
8.404575460652145
 40
8.404575460652145
 40
8.404575460652145
 40
8.404575460652145
 10
11.18595378457666
 20
51.23960167464307
 30
0.0
 10
11.12297700960573
 20
50.86828312467678
 30
0.0
 10
10.96223915999067
 20
50.12192866729052
 30
0.0
 10
10.54410770234368
 20
48.72358923981671
 30
0.0
 10
9.823935665523187
 20
47.11315340474767
 30
0.0
 10
8.245306755610741
 20
45.44565319022347
 30
0.0
  0
ARC
  5
C2
330
1F
100
AcDbEntity
  8
Default
100
AcDbCircle
 10
2.038650409046943
 20
51.32151878666233
 30
0.0
 40
8.546834473169264
100
AcDbArc
 50
289.2352185728923
 51
316.568230607434
  0
SPLINE
  5
C3
330
1F
100
AcDbEntity
  8
Default
100
AcDbSpline
210
0.0
220
0.0
230
1.0
 70
     8
 71
     3
 72
    11
 73
     7
 74
     0
 42
0.0000000001
 43
0.0000000001
 40
-4.376489242092979
 40
-4.376489242092979
 40
-4.376489242092979
 40
-4.376489242092979
 40
-2.254729024945146
 40
-1.152264979760032
 40
-0.5805792687200015
 40
0.0
 40
0.0
 40
0.0
 40
0.0
 10
4.332957318353646
 20
68.37833409367968
 30
0.0
 10
3.648570461151216
 20
68.55694597202113
 30
0.0
 10
2.589628927637939
 20
68.75414136158788
 30
0.0
 10
1.328369383534154
 20
68.86267418316994
 30
0.0
 10
0.5773734343550565
 20
68.89383501599204
 30
0.0
 10
0.1932741277853562
 20
68.89888098895878
 30
0.0
 10
-0.0002508993921051
 20
68.8988821943443
 30
0.0
  0
SPLINE
  5
C4
330
1F
100
AcDbEntity
  8
Default
100
AcDbSpline
210
0.0
220
0.0
230
1.0
 70
     8
 71
     3
 72
    11
 73
     7
 74
     0
 42
0.0000000001
 43
0.0000000001
 40
0.0
 40
0.0
 40
0.0
 40
0.0
 40
0.5805792687200015
 40
1.152264979760032
 40
2.254729024945146
 40
4.376489242092979
 40
4.376489242092979
 40
4.376489242092979
 40
4.376489242092979
 10
-0.0002508993921051
 20
68.8988821943443
 30
0.0
 10
-0.1937759265695664
 20
68.89888098895878
 30
0.0
 10
-0.5778752331392667
 20
68.89383501599204
 30
0.0
 10
-1.328871182318364
 20
68.86267418316994
 30
0.0
 10
-2.590130726422149
 20
68.75414136158788
 30
0.0
 10
-3.649072259935426
 20
68.55694597202113
 30
0.0
 10
-4.333459117137856
 20
68.37833409367968
 30
0.0
  0
SPLINE
  5
C5
330
1F
100
AcDbEntity
  8
Default
100
AcDbSpline
210
0.0
220
0.0
230
1.0
 70
     8
 71
     3
 72
    24
 73
    20
 74
     0
 42
0.0000000001
 43
0.0000000001
 40
-17.0
 40
-17.0
 40
-17.0
 40
-17.0
 40
-16.0
 40
-15.0
 40
-14.0
 40
-13.0
 40
-12.0
 40
-11.0
 40
-10.0
 40
-9.0
 40
-8.0
 40
-7.0
 40
-6.0
 40
-5.0
 40
-4.0
 40
-3.0
 40
-2.0
 40
-1.0
 40
0.0
 40
0.0
 40
0.0
 40
0.0
 10
8.869924252966058
 20
44.9441569745528
 30
0.0
 10
9.294843595212711
 20
45.39998314315757
 30
0.0
 10
10.06254933168872
 20
46.38697139781443
 30
0.0
 10
10.95854543644952
 20
48.03456672868708
 30
0.0
 10
11.58912067931166
 20
49.79864663786119
 30
0.0
 10
11.98818178530211
 20
51.62973169823353
 30
0.0
 10
12.12134712802022
 20
53.49759774081198
 30
0.0
 10
12.075410430667
 20
55.36697173760859
 30
0.0
 10
11.94547966286931
 20
57.23351190761603
 30
0.0
 10
11.58239696283284
 20
59.07014660251486
 30
0.0
 10
11.11568054766016
 20
60.88120978472401
 30
0.0
 10
10.46356403628642
 20
62.63534479377434
 30
0.0
 10
9.612778000499697
 20
64.30733831375065
 30
0.0
 10
8.500144492923486
 20
65.80928722555396
 30
0.0
 10
7.216573773950429
 20
67.1937474931129
 30
0.0
 10
5.547140573349157
 20
68.08043514442602
 30
0.0
 10
3.727517403468288
 20
68.5401166954837
 30
0.0
 10
1.869369700140243
 20
68.76056326869036
 30
0.0
 10
0.6227508943698149
 20
68.79779415545808
 30
0.0
 10
-0.0002508993921051
 20
68.79805058438623
 30
0.0
  0
SPLINE
  5
C6
330
1F
100
AcDbEntity
  8
Default
100
AcDbSpline
210
0.0
220
0.0
230
1.0
 70
     8
 71
     3
 72
    24
 73
    20
 74
     0
 42
0.0000000001
 43
0.0000000001
 40
0.0
 40
0.0
 40
0.0
 40
0.0
 40
1.0
 40
2.0
 40
3.0
 40
4.0
 40
5.0
 40
6.0
 40
7.0
 40
8.0
 40
9.0
 40
10.0
 40
11.0
 40
12.0
 40
13.0
 40
14.0
 40
15.0
 40
16.0
 40
17.0
 40
17.0
 40
17.0
 40
17.0
 10
-0.0002508993921051
 20
68.79805058438623
 30
0.0
 10
-0.6232526931540251
 20
68.79779415545808
 30
0.0
 10
-1.869871498924453
 20
68.76056326869036
 30
0.0
 10
-3.728019202252498
 20
68.5401166954837
 30
0.0
 10
-5.547642372133367
 20
68.08043514442602
 30
0.0
 10
-7.21707557273464
 20
67.1937474931129
 30
0.0
 10
-8.500646291707696
 20
65.80928722555396
 30
0.0
 10
-9.613279799283907
 20
64.30733831375065
 30
0.0
 10
-10.46406583507063
 20
62.63534479377434
 30
0.0
 10
-11.11618234644437
 20
60.88120978472401
 30
0.0
 10
-11.58289876161705
 20
59.07014660251486
 30
0.0
 10
-11.94598146165352
 20
57.23351190761603
 30
0.0
 10
-12.07591222945121
 20
55.36697173760859
 30
0.0
 10
-12.12184892680443
 20
53.49759774081198
 30
0.0
 10
-11.98868358408632
 20
51.62973169823353
 30
0.0
 10
-11.58962247809587
 20
49.79864663786119
 30
0.0
 10
-10.95904723523373
 20
48.03456672868708
 30
0.0
 10
-10.06305113047293
 20
46.38697139781443
 30
0.0
 10
-9.295345393996922
 20
45.39998314315757
 30
0.0
 10
-8.870426051750268
 20
44.9441569745528
 30
0.0
  0
SPLINE
  5
C7
330
1F
100
AcDbEntity
  8
Default
100
AcDbSpline
210
0.0
220
0.0
230
1.0
 70
     8
 71
     3
 72
    24
 73
    20
 74
     0
 42
0.0000000001
 43
0.0000000001
 40
-17.0
 40
-17.0
 40
-17.0
 40
-17.0
 40
-15.99999999439031
 40
-14.99999998878062
 40
-13.99999998317094
 40
-12.99999997756125
 40
-11.99999997195156
 40
-10.99999996634187
 40
-9.999999960732184
 40
-8.999999955122496
 40
-7.999999949512807
 40
-6.999999943903119
 40
-5.99999993829343
 40
-4.999999932683743
 40
-3.999999927074055
 40
-2.999999921464366
 40
-1.999999915854678
 40
-0.9999999102449904
 40
0.0
 40
0.0
 40
0.0
 40
0.0
 10
-7.492317327118228
 20
43.70073101807218
 30
0.0
 10
-8.009038738268071
 20
44.0926629525462
 30
0.0
 10
-8.971195130460924
 20
44.97145079302114
 30
0.0
 10
-10.13685894053996
 20
46.54014750494218
 30
0.0
 10
-10.99470787748558
 20
48.29548315562472
 30
0.0
 10
-11.5405326801624
 20
50.16870828316934
 30
0.0
 10
-11.8136331756072
 20
52.10136100197746
 30
0.0
 10
-11.80445919663005
 20
54.04841977039333
 30
0.0
 10
-11.78062497799113
 20
55.99571138486474
 30
0.0
 10
-11.5311758623099
 20
57.9271080029017
 30
0.0
 10
-11.14525203720406
 20
59.83574033489733
 30
0.0
 10
-10.5926011342233
 20
61.70325076414471
 30
0.0
 10
-9.816022739028526
 20
63.49496005806079
 30
0.0
 10
-8.75545015870239
 20
65.12786679564314
 30
0.0
 10
-7.463736114896227
 20
66.60927344341673
 30
0.0
 10
-5.769362581185691
 20
67.60582587643323
 30
0.0
 10
-3.874958527726668
 20
68.09972064788357
 30
0.0
 10
-1.947034770222653
 20
68.36567621502593
 30
0.0
 10
-0.6486199360153944
 20
68.41161548714611
 30
0.0
 10
-0.0002508993921051
 20
68.4116630754135
 30
0.0
  0
SPLINE
  5
C8
330
1F
100
AcDbEntity
  8
Default
100
AcDbSpline
210
0.0
220
0.0
230
1.0
 70
     8
 71
     3
 72
    24
 73
    20
 74
     0
 42
0.0000000001
 43
0.0000000001
 40
0.0
 40
0.0
 40
0.0
 40
0.0
 40
0.9999999102449904
 40
1.999999915854678
 40
2.999999921464366
 40
3.999999927074055
 40
4.999999932683743
 40
5.99999993829343
 40
6.999999943903119
 40
7.999999949512807
 40
8.999999955122496
 40
9.999999960732184
 40
10.99999996634187
 40
11.99999997195156
 40
12.99999997756125
 40
13.99999998317094
 40
14.99999998878062
 40
15.99999999439031
 40
17.0
 40
17.0
 40
17.0
 40
17.0
 10
-0.0002508993921051
 20
68.4116630754135
 30
0.0
 10
0.6481181372311842
 20
68.41161548714611
 30
0.0
 10
1.946532971438443
 20
68.36567621502593
 30
0.0
 10
3.874456728942458
 20
68.09972064788357
 30
0.0
 10
5.768860782401481
 20
67.60582587643323
 30
0.0
 10
7.463234316112016
 20
66.60927344341673
 30
0.0
 10
8.75494835991818
 20
65.12786679564314
 30
0.0
 10
9.815520940244316
 20
63.49496005806079
 30
0.0
 10
10.59209933543909
 20
61.70325076414471
 30
0.0
 10
11.14475023841985
 20
59.83574033489733
 30
0.0
 10
11.53067406352569
 20
57.9271080029017
 30
0.0
 10
11.78012317920692
 20
55.99571138486474
 30
0.0
 10
11.80395739784584
 20
54.04841977039333
 30
0.0
 10
11.81313137682299
 20
52.10136100197746
 30
0.0
 10
11.54003088137819
 20
50.16870828316934
 30
0.0
 10
10.99420607870137
 20
48.29548315562472
 30
0.0
 10
10.13635714175575
 20
46.54014750494218
 30
0.0
 10
8.970693331676713
 20
44.97145079302114
 30
0.0
 10
8.00853693948386
 20
44.0926629525462
 30
0.0
 10
7.491584078745086
 20
43.70053720574762
 30
0.0
  0
SPLINE
  5
C9
330
1F
100
AcDbEntity
  8
Default
100
AcDbSpline
210
0.0
220
0.0
230
1.0
 70
     8
 71
     3
 72
    12
 73
     8
 74
     0
 42
0.0000000001
 43
0.0000000001
 40
0.0
 40
0.0
 40
0.0
 40
0.0
 40
1.932841302156171
 40
3.834618248229879
 40
8.02201959796539
 40
12.14534094516417
 40
15.98237434364643
 40
15.98237434364643
 40
15.98237434364643
 40
15.98237434364643
 10
7.491584078745086
 20
43.70053720574762
 30
0.0
 10
6.976488382358323
 20
43.31088745616562
 30
0.0
 10
5.890987875446609
 20
42.63340436613151
 30
0.0
 10
3.396862884428472
 20
41.62528501429347
 30
0.0
 10
-0.0094712378684658
 20
41.16525491116368
 30
0.0
 10
-4.063476915091401
 20
41.72087436665984
 30
0.0
 10
-6.474597860201365
 20
42.9266229941029
 30
0.0
 10
-7.492317327118228
 20
43.70073101807218
 30
0.0
  0
SPLINE
  5
CA
330
1F
100
AcDbEntity
  8
Default
100
AcDbSpline
210
0.0
220
0.0
230
1.0
 70
     8
 71
     3
 72
    12
 73
     8
 74
     0
 42
0.0000000001
 43
0.0000000001
 40
0.0
 40
0.0
 40
0.0
 40
0.0
 40
1.832654236483523
 40
3.669578742657731
 40
7.371880427553499
 40
11.11625269817009
 40
14.89017125028417
 40
14.89017125028417
 40
14.89017125028417
 40
14.89017125028417
 10
-9.6252318895641
 20
51.31262444940571
 30
0.0
 10
-9.625275082181885
 20
50.69955294767585
 30
0.0
 10
-9.499697111375076
 20
49.47710480494745
 30
0.0
 10
-8.764120726534118
 20
47.11848905347845
 30
0.0
 10
-6.967430158240058
 20
44.52353752114951
 30
0.0
 10
-3.764280442547838
 20
42.45815648999861
 30
0.0
 10
-1.258225177538275
 20
41.97734143101076
 30
0.0
 10
-0.0002514808638754
 20
41.97712120324075
 30
0.0
  0
SPLINE
  5
CB
330
1F
100
AcDbEntity
  8
Default
100
AcDbSpline
210
0.0
220
0.0
230
1.0
 70
     8
 71
     3
 72
    12
 73
     8
 74
     0
 42
0.0000000001
 43
0.0000000001
 40
0.0
 40
0.0
 40
0.0
 40
0.0
 40
1.88935509858243
 40
3.77451955929682
 40
7.516682166840943
 40
11.21816918271822
 40
14.89017237659326
 40
14.89017237659326
 40
14.89017237659326
 40
14.89017237659326
 10
-0.0002514808638754
 20
41.97712120324075
 30
0.0
 10
0.6294817922371205
 20
41.97718897123344
 30
0.0
 10
1.887730010323372
 20
42.09820239603911
 30
0.0
 10
4.302796873801519
 20
42.80590273337326
 30
0.0
 10
6.96590531129986
 20
44.52277670092032
 30
0.0
 10
9.117911177434138
 20
47.62959933072371
 30
0.0
 10
9.625064172557629
 20
50.08679477408469
 30
0.0
 10
9.624736111566085
 20
51.31096106796391
 30
0.0
  0
SPLINE
  5
CC
330
1F
100
AcDbEntity
  8
Default
100
AcDbSpline
210
0.0
220
0.0
230
1.0
 70
     8
 71
     3
 72
    12
 73
     8
 74
     0
 42
0.0000000001
 43
0.0000000001
 40
-15.35241690788854
 40
-15.35241690788854
 40
-15.35241690788854
 40
-15.35241690788854
 40
-11.42846766997576
 40
-7.624449320975276
 40
-3.868777776849769
 40
-1.918305221211262
 40
0.0
 40
0.0
 40
0.0
 40
0.0
 10
9.624736111566085
 20
51.31096106796391
 30
0.0
 10
9.624757205110868
 20
52.61834409201074
 30
0.0
 10
9.159290622936535
 20
55.20015012607885
 30
0.0
 10
7.05481087970157
 20
58.4898452431156
 30
0.0
 10
4.37490304988216
 20
60.30455160468173
 30
0.0
 10
1.92897447035914
 20
61.0386366269545
 30
0.0
 10
0.639122172609067
 20
61.16344689378754
 30
0.0
 10
-0.0002509463864948
 20
61.16291620793813
 30
0.0
  0
SPLINE
  5
CD
330
1F
100
AcDbEntity
  8
Default
100
AcDbSpline
210
0.0
220
0.0
230
1.0
 70
     8
 71
     3
 72
    12
 73
     8
 74
     0
 42
0.0000000001
 43
0.0000000001
 40
-15.34910739099933
 40
-15.34910739099933
 40
-15.34910739099933
 40
-15.34910739099933
 40
-11.58400586625319
 40
-7.773657509622682
 40
-3.936637318219009
 40
-1.971105179282632
 40
0.0
 40
0.0
 40
0.0
 40
0.0
 10
-0.0002509463864948
 20
61.16291620793813
 30
0.0
 10
-1.254671247286254
 20
61.16261251686181
 30
0.0
 10
-3.783663089192128
 20
60.68753280950822
 30
0.0
 10
-7.019517566478099
 20
58.53551025563284
 30
0.0
 10
-8.791333206841756
 20
55.78654464411137
 30
0.0
 10
-9.50543811660234
 20
53.28428348235629
 30
0.0
 10
-9.625475740993076
 20
51.97146917365048
 30
0.0
 10
-9.6252318895641
 20
51.31262444940571
 30
0.0
  0
SPLINE
  5
CE
330
1F
100
AcDbEntity
  8
Default
100
AcDbSpline
210
0.0
220
0.0
230
1.0
 70
    12
 71
     2
 72
     6
 73
     3
 74
     0
 42
0.0000000001
 43
0.0000000001
 40
0.0
 40
0.0
 40
0.0
 40
0.584707951152618
 40
0.584707951152618
 40
0.584707951152618
 10
9.462853554406795
 20
45.64759610125679
 30
0.0
 41
1.0
 10
9.642773592832521
 20
45.87811718947125
 30
0.0
 41
0.9996461359736499
 10
9.810179254135232
 20
46.11788069149462
 30
0.0
 41
1.0
  0
SPLINE
  5
CF
330
1F
100
AcDbEntity
  8
Default
100
AcDbSpline
210
0.0
220
0.0
230
1.0
 70
    15
 71
     3
 72
    75
 73
    71
 74
     0
 42
0.0000000001
 43
0.0000000001
 40
4.284889557905307
 40
4.284889557905307
 40
4.284889557905307
 40
4.284889557905307
 40
4.675638648515629
 40
4.675638648515629
 40
4.675638648515629
 40
4.945696450076055
 40
4.945696450076055
 40
4.945696450076055
 40
5.945696454513373
 40
6.945696458950692
 40
7.945696463388011
 40
8.945696467825329
 40
9.945696472262647
 40
10.94569647669997
 40
11.94569648113729
 40
12.9456964855746
 40
13.94569649001192
 40
14.94569649444924
 40
15.94569649888656
 40
16.94569650332388
 40
17.94569650776119
 40
18.94569651219851
 40
19.94569651663583
 40
20.94569652107315
 40
21.94569645007606
 40
21.94569645007606
 40
21.94569645007606
 40
22.94569637907896
 40
23.94569638351628
 40
24.9456963879536
 40
25.94569639239092
 40
26.94569639682824
 40
27.94569640126555
 40
28.94569640570287
 40
29.94569641014019
 40
30.94569641457751
 40
31.94569641901483
 40
32.94569642345215
 40
33.94569642788947
 40
34.94569643232678
 40
35.9456964367641
 40
36.94569644120142
 40
37.94569644563874
 40
38.94569645007606
 40
38.94569645007606
 40
38.94569645007606
 40
39.21575425163648
 40
39.21575425163648
 40
39.21575425163648
 40
39.6065033422468
 40
39.6065033422468
 40
39.6065033422468
 40
39.83703306378663
 40
40.1166735561765
 40
40.93450556052316
 40
42.1915997428571
 40
43.89139290015211
 40
43.89139290015211
 40
43.89139290015211
 40
44.89139290015211
 40
44.89139290015211
 40
44.89139290015211
 40
45.89139290015211
 40
45.89139290015211
 40
45.89139290015211
 40
47.59118605744712
 40
48.84828023978106
 40
49.66611224412772
 40
49.94575273651759
 40
50.17628245805742
 40
50.17628245805742
 40
50.17628245805742
 40
50.17628245805742
 10
11.66587582277404
 20
15.47395158311677
 30
0.0
 41
1.0
 10
11.75433634643018
 20
15.57335166683297
 30
0.0
 41
0.9584284795972055
 10
11.80272919027854
 20
15.6973023568374
 30
0.0
 41
0.9584284795972055
 10
11.80501906203295
 20
15.83034519721469
 30
0.0
 41
1.0
 10
11.80741125667456
 20
15.9203528174306
 30
0.0
 41
0.9995527887139662
 10
11.80650557157476
 20
16.01038766638719
 30
0.0
 41
0.9995527887139662
 10
11.80230322183134
 20
16.10032895028268
 30
0.0
 41
1.0
 10
11.78828636422133
 20
16.54824788055484
 30
0.0
 41
1.0
 10
11.64287168915603
 20
17.43169654326471
 30
0.0
 41
1.0
 10
11.37378171756114
 20
18.74583784996169
 30
0.0
 41
1.0
 10
11.08680851307306
 20
20.05652687644385
 30
0.0
 41
1.0
 10
10.75308423711167
 20
21.35617953873906
 30
0.0
 41
1.0
 10
10.37725314079816
 20
22.64424404561325
 30
0.0
 41
1.0
 10
9.955080523943034
 20
23.91792477576478
 30
0.0
 41
1.0
 10
9.484666036602695
 20
25.1746498736767
 30
0.0
 41
1.0
 10
8.964962003635621
 20
26.41163474158192
 30
0.0
 41
1.0
 10
8.398604861032114
 20
27.62857658306437
 30
0.0
 41
1.0
 10
7.781755930991918
 20
28.81863039474526
 30
0.0
 41
1.0
 10
7.172272618247313
 20
30.01906606792378
 30
0.0
 41
1.0
 10
6.291031161949897
 20
31.04508279744767
 30
0.0
 41
1.0
 10
5.193302032357755
 20
31.83044956919012
 30
0.0
 41
1.0
 10
3.966856014764327
 20
32.38651077722905
 30
0.0
 41
1.0
 10
2.670846195148177
 20
32.74542560088786
 30
0.0
 41
1.0
 10
1.341704273556205
 20
32.94213799808532
 30
0.0
 41
1.0
 10
0.4471825479257645
 20
32.9824127854412
 30
0.0
 41
1.0
 10
0.0
 20
32.98245895308617
 30
0.0
 41
1.0
 10
-0.4471825479257645
 20
32.9824127854412
 30
0.0
 41
1.0
 10
-1.341704273556205
 20
32.94213799808532
 30
0.0
 41
1.0
 10
-2.670846195148177
 20
32.74542560088786
 30
0.0
 41
1.0
 10
-3.966856014764327
 20
32.38651077722905
 30
0.0
 41
1.0
 10
-5.193302032357755
 20
31.83044956919012
 30
0.0
 41
1.0
 10
-6.291031161949897
 20
31.04508279744767
 30
0.0
 41
1.0
 10
-7.172272618247313
 20
30.01906606792378
 30
0.0
 41
1.0
 10
-7.781755930991918
 20
28.81863039474526
 30
0.0
 41
1.0
 10
-8.398604861032114
 20
27.62857658306437
 30
0.0
 41
1.0
 10
-8.964962003635621
 20
26.41163474158192
 30
0.0
 41
1.0
 10
-9.484666036602695
 20
25.1746498736767
 30
0.0
 41
1.0
 10
-9.955080523943034
 20
23.91792477576478
 30
0.0
 41
1.0
 10
-10.37725314079816
 20
22.64424404561325
 30
0.0
 41
1.0
 10
-10.75308423711167
 20
21.35617953873906
 30
0.0
 41
1.0
 10
-11.08680851307306
 20
20.05652687644385
 30
0.0
 41
1.0
 10
-11.37378171756114
 20
18.74583784996169
 30
0.0
 41
1.0
 10
-11.64287168915603
 20
17.43169654326471
 30
0.0
 41
1.0
 10
-11.78828636422133
 20
16.54824788055484
 30
0.0
 41
1.0
 10
-11.80230322183134
 20
16.10032895028268
 30
0.0
 41
1.0
 10
-11.80650557157476
 20
16.01038766638719
 30
0.0
 41
0.9995527887139662
 10
-11.80741125667456
 20
15.9203528174306
 30
0.0
 41
0.9995527887139662
 10
-11.80501906203294
 20
15.83034519721469
 30
0.0
 41
1.0
 10
-11.80272919027854
 20
15.6973023568374
 30
0.0
 41
0.9584284795972055
 10
-11.75433634643018
 20
15.57335166683297
 30
0.0
 41
0.9584284795972055
 10
-11.66587582277404
 20
15.47395158311677
 30
0.0
 41
1.0
 10
-11.61479771314997
 20
15.41681085493289
 30
0.0
 41
1.0
 10
-11.48099359683521
 20
15.30838478444178
 30
0.0
 41
1.0
 10
-11.07187871696787
 20
15.13246762449964
 30
0.0
 41
1.0
 10
-10.2981356961296
 20
14.9845111197608
 30
0.0
 41
1.0
 10
-9.044345901534959
 20
14.87791960146004
 30
0.0
 41
1.0
 10
-8.058309444359741
 20
14.8507372267671
 30
0.0
 41
1.0
 10
-7.49196544933581
 20
14.84330451191684
 30
0.0
 41
1.0
 10
-4.994831242527269
 20
14.81053205089468
 30
0.0
 41
1.0
 10
-2.497349250908809
 20
14.84829505356886
 30
0.0
 41
1.0
 10
-0.0000000000000039
 20
14.84829505356886
 30
0.0
 41
1.0
 10
2.497349250908809
 20
14.84829505356886
 30
0.0
 41
1.0
 10
4.994831242527269
 20
14.81053205089468
 30
0.0
 41
1.0
 10
7.49196544933581
 20
14.84330451191684
 30
0.0
 41
1.0
 10
8.058309444359741
 20
14.8507372267671
 30
0.0
 41
1.0
 10
9.044345901534959
 20
14.87791960146004
 30
0.0
 41
1.0
 10
10.2981356961296
 20
14.9845111197608
 30
0.0
 41
1.0
 10
11.07187871696787
 20
15.13246762449964
 30
0.0
 41
1.0
 10
11.48099359683521
 20
15.30838478444178
 30
0.0
 41
1.0
 10
11.61479771314997
 20
15.41681085493289
 30
0.0
 41
1.0
 10
11.66587582277404
 20
15.47395158311677
 30
0.0
 41
1.0
  0
SPLINE
  5
D0
330
1F
100
AcDbEntity
  8
Default
100
AcDbSpline
210
0.0
220
0.0
230
1.0
 70
    24
 71
     2
 72
     6
 73
     3
 74
     0
 42
0.0000000001
 43
0.0000000001
 40
0.0
 40
0.0
 40
0.0
 40
0.4856498277096888
 40
0.4856498277096888
 40
0.4856498277096888
 10
-9.624993309876375
 20
15.2559968748741
 30
0.0
 10
-9.623210319527969
 20
15.52295272694139
 30
0.0
 10
-9.621427329179562
 20
15.78990857900868
 30
0.0
  0
SPLINE
  5
D1
330
1F
100
AcDbEntity
  8
Default
100
AcDbSpline
210
0.0
220
0.0
230
1.0
 70
     8
 71
     3
 72
    12
 73
     8
 74
     0
 42
0.0000000001
 43
0.0000000001
 40
-1.720214381111756
 40
-1.720214381111756
 40
-1.720214381111756
 40
-1.720214381111756
 40
-1.482822203410309
 40
-1.179337141630985
 40
-0.6967675392865215
 40
-0.3758833544094314
 40
0.0
 40
0.0
 40
0.0
 40
0.0
 10
-9.621427329179562
 20
15.78990857900868
 30
0.0
 10
-9.611323934152997
 20
15.86907389306145
 30
0.0
 10
-9.512790473526826
 20
16.0313832444663
 30
0.0
 10
-9.204224857354143
 20
16.19009646881032
 30
0.0
 10
-8.848528353069655
 20
16.28616755040515
 30
0.0
 10
-8.463064248171577
 20
16.36726763958981
 30
0.0
 10
-8.234295257469666
 20
16.40449571447078
 30
0.0
 10
-8.110341141780179
 20
16.424098708532
 30
0.0
  0
SPLINE
  5
D2
330
1F
100
AcDbEntity
  8
Default
100
AcDbSpline
210
0.0
220
0.0
230
1.0
 70
    12
 71
     3
 72
    12
 73
     8
 74
     0
 42
0.0000000001
 43
0.0000000001
 40
-0.6640119920747329
 40
-0.6640119920747329
 40
-0.6640119920747329
 40
-0.6640119920747329
 40
-0.5000000008353003
 40
-0.5000000008353003
 40
-0.2500000004176502
 40
-0.2500000004176502
 40
-0.000000020861917
 40
-0.000000020861917
 40
-0.000000020861917
 40
-0.000000020861917
 10
-8.110341141780179
 20
16.424098708532
 30
0.0
 41
1.0
 10
-7.696178675953282
 20
16.48812081332798
 30
0.0
 41
1.0
 10
-7.19275651018704
 20
16.54712745178637
 30
0.0
 41
1.0
 10
-5.739844429351672
 20
16.67839598360202
 30
0.0
 41
1.0
 10
-4.695881372966747
 20
16.74130345748375
 30
0.0
 41
1.0
 10
-2.434270817672484
 20
16.82604833163395
 30
0.0
 41
1.0
 10
-1.216609737867254
 20
16.84793341542663
 30
0.0
 41
1.0
 10
0.0
 20
16.84793201033067
 30
0.0
 41
1.0
  0
SPLINE
  5
D3
330
1F
100
AcDbEntity
  8
Default
100
AcDbSpline
210
0.0
220
0.0
230
1.0
 70
    12
 71
     3
 72
    12
 73
     8
 74
     0
 42
0.0000000001
 43
0.0000000001
 40
0.000000020861917
 40
0.000000020861917
 40
0.000000020861917
 40
0.000000020861917
 40
0.2500000004176502
 40
0.2500000004176502
 40
0.5000000008353003
 40
0.5000000008353003
 40
0.6640119920747329
 40
0.6640119920747329
 40
0.6640119920747329
 40
0.6640119920747329
 10
0.0
 20
16.84793201033067
 30
0.0
 41
1.0
 10
1.216609737867254
 20
16.84793341542663
 30
0.0
 41
1.0
 10
2.434270817672484
 20
16.82604833163395
 30
0.0
 41
1.0
 10
4.695881372966747
 20
16.74130345748375
 30
0.0
 41
1.0
 10
5.739844429351672
 20
16.67839598360202
 30
0.0
 41
1.0
 10
7.19275651018704
 20
16.54712745178637
 30
0.0
 41
1.0
 10
7.696178675953282
 20
16.48812081332798
 30
0.0
 41
1.0
 10
8.110341141780179
 20
16.424098708532
 30
0.0
 41
1.0
  0
SPLINE
  5
D4
330
1F
100
AcDbEntity
  8
Default
100
AcDbSpline
210
0.0
220
0.0
230
1.0
 70
     8
 71
     3
 72
    12
 73
     8
 74
     0
 42
0.0000000001
 43
0.0000000001
 40
0.0
 40
0.0
 40
0.0
 40
0.0
 40
0.3758833544094314
 40
0.6967675392865215
 40
1.179337141630985
 40
1.482822203410309
 40
1.720214381111756
 40
1.720214381111756
 40
1.720214381111756
 40
1.720214381111756
 10
8.110341141780179
 20
16.424098708532
 30
0.0
 10
8.234295257469666
 20
16.40449571447078
 30
0.0
 10
8.463064248171577
 20
16.36726763958981
 30
0.0
 10
8.848528353069655
 20
16.28616755040515
 30
0.0
 10
9.204224857354143
 20
16.19009646881032
 30
0.0
 10
9.512790473526826
 20
16.0313832444663
 30
0.0
 10
9.611323934152997
 20
15.86907389306145
 30
0.0
 10
9.621427329179562
 20
15.78990857900868
 30
0.0
  0
SPLINE
  5
D5
330
1F
100
AcDbEntity
  8
Default
100
AcDbSpline
210
0.0
220
0.0
230
1.0
 70
    24
 71
     2
 72
     6
 73
     3
 74
     0
 42
0.0000000001
 43
0.0000000001
 40
-0.4856498277096888
 40
-0.4856498277096888
 40
-0.4856498277096888
 40
0.0
 40
0.0
 40
0.0
 10
9.621427329179562
 20
15.78990857900868
 30
0.0
 10
9.623210319527969
 20
15.52295272694139
 30
0.0
 10
9.624993309876375
 20
15.2559968748741
 30
0.0
  0
SPLINE
  5
D6
330
1F
100
AcDbEntity
  8
Default
100
AcDbSpline
210
0.0
220
0.0
230
1.0
 70
     8
 71
     3
 72
    24
 73
    20
 74
     0
 42
0.0000000001
 43
0.0000000001
 40
-17.0
 40
-17.0
 40
-17.0
 40
-17.0
 40
-15.99999503831422
 40
-14.99999007662845
 40
-13.99998511494267
 40
-12.9999801532569
 40
-11.99997519157112
 40
-10.99997022988535
 40
-9.999965268199569
 40
-8.999960306513794
 40
-7.999955344828018
 40
-6.999950383142242
 40
-5.999945421456466
 40
-4.99994045977069
 40
-3.999935498084914
 40
-2.999930536399139
 40
-1.999925574713363
 40
-0.9999206130275872
 40
0.0
 40
0.0
 40
0.0
 40
0.0
 10
-10.77000079585685
 20
18.69479322967626
 30
0.0
 10
-10.79220483068231
 20
18.55255383548111
 30
0.0
 10
-10.84277508271578
 20
18.26904418845426
 30
0.0
 10
-10.93355952296308
 20
17.8467846717043
 30
0.0
 10
-11.03649984412718
 20
17.42719208703519
 30
0.0
 10
-11.14724148772615
 20
17.01020181598932
 30
0.0
 10
-11.26036030806843
 20
16.59165839486304
 30
0.0
 10
-11.34753290394163
 20
16.1744937912641
 30
0.0
 10
-11.38593389096562
 20
15.72078937391443
 30
0.0
 10
-11.08527146730168
 20
15.36958780047088
 30
0.0
 10
-10.6386233901275
 20
15.31783434085038
 30
0.0
 10
-10.21394584646875
 20
15.2717476723178
 30
0.0
 10
-9.78072814735198
 20
15.25822855487908
 30
0.0
 10
-9.349286093318248
 20
15.25173214920353
 30
0.0
 10
-8.917282704527004
 20
15.25431223749152
 30
0.0
 10
-8.485460841551111
 20
15.25951653042988
 30
0.0
 10
-8.053633505578937
 20
15.26716715118553
 30
0.0
 10
-7.621854781845875
 20
15.27605261547022
 30
0.0
 10
-7.334008185543743
 20
15.28217886255358
 30
0.0
 10
-7.190089762725695
 20
15.28516391691718
 30
0.0
  0
SPLINE
  5
D7
330
1F
100
AcDbEntity
  8
Default
100
AcDbSpline
210
0.0
220
0.0
230
1.0
 70
     8
 71
     3
 72
    11
 73
     7
 74
     0
 42
0.0000000001
 43
0.0000000001
 40
0.0
 40
0.0
 40
0.0
 40
0.0
 40
1.468805984317369
 40
3.119226025440186
 40
7.305246808252567
 40
14.38113980964615
 40
14.38113980964615
 40
14.38113980964615
 40
14.38113980964615
 10
-7.190089762725695
 20
15.28516391691718
 30
0.0
 10
-6.700629134352771
 20
15.2973677047695
 30
0.0
 10
-5.661131818580204
 20
15.31860067328063
 30
0.0
 10
-3.226141439707986
 20
15.34730456207699
 30
0.0
 10
1.077892075699229
 20
15.35075562272856
 30
0.0
 10
4.832029175664239
 20
15.3444384618149
 30
0.0
 10
7.19005528367714
 20
15.2851647175785
 30
0.0
  0
SPLINE
  5
D8
330
1F
100
AcDbEntity
  8
Default
100
AcDbSpline
210
0.0
220
0.0
230
1.0
 70
     8
 71
     3
 72
    24
 73
    20
 74
     0
 42
0.0000000001
 43
0.0000000001
 40
0.0
 40
0.0
 40
0.0
 40
0.0
 40
0.9999957712122703
 40
1.999996035511503
 40
2.999996299810737
 40
3.99999656410997
 40
4.999996828409203
 40
5.999997092708436
 40
6.999997357007669
 40
7.999997621306902
 40
8.999997885606135
 40
9.999998149905368
 40
10.9999984142046
 40
11.99999867850383
 40
12.99999894280307
 40
13.9999992071023
 40
14.99999947140153
 40
15.99999973570077
 40
17.0
 40
17.0
 40
17.0
 40
17.0
 10
7.19005528367714
 20
15.2851647175785
 30
0.0
 10
7.333985198540041
 20
15.28217935178693
 30
0.0
 10
7.621843288270576
 20
15.27605285199358
 30
0.0
 10
8.053633505578937
 20
15.26716715118553
 30
0.0
 10
8.485460841551111
 20
15.25951653042988
 30
0.0
 10
8.917282704527004
 20
15.25431223749152
 30
0.0
 10
9.349286093318248
 20
15.25173214920353
 30
0.0
 10
9.78072814735198
 20
15.25822855487908
 30
0.0
 10
10.21394584646875
 20
15.2717476723178
 30
0.0
 10
10.6386233901275
 20
15.31783434085038
 30
0.0
 10
11.08527146730168
 20
15.36958780047088
 30
0.0
 10
11.38593389096562
 20
15.72078937391443
 30
0.0
 10
11.34753290394163
 20
16.1744937912641
 30
0.0
 10
11.26036030806843
 20
16.59165839486304
 30
0.0
 10
11.14724148772615
 20
17.01020181598932
 30
0.0
 10
11.03649984412718
 20
17.42719208703519
 30
0.0
 10
10.93355952296308
 20
17.8467846717043
 30
0.0
 10
10.84277508271578
 20
18.26904418845426
 30
0.0
 10
10.79220483068231
 20
18.55255383548111
 30
0.0
 10
10.77000079585685
 20
18.69479322967626
 30
0.0
  0
SPLINE
  5
D9
330
1F
100
AcDbEntity
  8
Default
100
AcDbSpline
210
0.0
220
0.0
230
1.0
 70
     8
 71
     3
 72
    29
 73
    25
 74
     0
 42
0.0000000001
 43
0.0000000001
 40
0.0
 40
0.0
 40
0.0
 40
0.0
 40
1.0
 40
2.0
 40
3.0
 40
4.0
 40
5.0
 40
6.0
 40
7.0
 40
8.0
 40
9.0
 40
10.0
 40
11.0
 40
12.0
 40
13.0
 40
14.0
 40
15.0
 40
16.0
 40
17.0
 40
18.0
 40
19.0
 40
20.0
 40
21.0
 40
22.0
 40
22.0
 40
22.0
 40
22.0
 10
-7.100609934487617
 20
30.04107206489479
 30
0.0
 10
-7.347832354333884
 20
29.67452636293986
 30
0.0
 10
-7.762286742270459
 20
28.89281061581236
 30
0.0
 10
-8.370559793632474
 20
27.71534567278362
 30
0.0
 10
-8.942594987670693
 20
26.51908859139847
 30
0.0
 10
-9.469246518791648
 20
25.30231671952662
 30
0.0
 10
-9.950752853987835
 20
24.06696726017668
 30
0.0
 10
-10.390000060604
 20
22.81600814979829
 30
0.0
 10
-10.78962386204678
 20
21.55188801703699
 30
0.0
 10
-11.15055080946478
 20
20.27603232102767
 30
0.0
 10
-11.47731655607154
 20
18.99170203821074
 30
0.0
 10
-11.7620787988282
 20
17.69463445167399
 30
0.0
 10
-12.05580366509817
 20
16.41054539770305
 30
0.0
 10
-12.153453356043
 20
15.04475329869002
 30
0.0
 10
-11.28747956486986
 20
13.9502414172277
 30
0.0
 10
-10.25230856340619
 20
13.13860669134923
 30
0.0
 10
-9.109706646116448
 20
12.45347904314314
 30
0.0
 10
-7.882124734785685
 20
11.94523615364908
 30
0.0
 10
-6.595079790856868
 20
11.61721987771443
 30
0.0
 10
-5.288544608479168
 20
11.39058020379059
 30
0.0
 10
-3.971235528927461
 20
11.23845296072036
 30
0.0
 10
-2.649921022628651
 20
11.12980145542215
 30
0.0
 10
-1.32563511619116
 20
11.06537610466404
 30
0.0
 10
-0.4418861372484288
 20
11.05058852863701
 30
0.0
 10
0.0
 20
11.05004682557886
 30
0.0
  0
SPLINE
  5
DA
330
1F
100
AcDbEntity
  8
Default
100
AcDbSpline
210
0.0
220
0.0
230
1.0
 70
     8
 71
     3
 72
    29
 73
    25
 74
     0
 42
0.0000000001
 43
0.0000000001
 40
-22.0
 40
-22.0
 40
-22.0
 40
-22.0
 40
-21.0
 40
-20.0
 40
-19.0
 40
-18.0
 40
-17.0
 40
-16.0
 40
-15.0
 40
-14.0
 40
-13.0
 40
-12.0
 40
-11.0
 40
-10.0
 40
-9.0
 40
-8.0
 40
-7.0
 40
-6.0
 40
-5.0
 40
-4.0
 40
-3.0
 40
-2.0
 40
-1.0
 40
0.0
 40
0.0
 40
0.0
 40
0.0
 10
0.0
 20
11.05004682557886
 30
0.0
 10
0.4418861372484288
 20
11.05058852863701
 30
0.0
 10
1.32563511619116
 20
11.06537610466404
 30
0.0
 10
2.649921022628651
 20
11.12980145542215
 30
0.0
 10
3.971235528927461
 20
11.23845296072036
 30
0.0
 10
5.288544608479168
 20
11.39058020379059
 30
0.0
 10
6.595079790856868
 20
11.61721987771443
 30
0.0
 10
7.882124734785685
 20
11.94523615364908
 30
0.0
 10
9.109706646116448
 20
12.45347904314314
 30
0.0
 10
10.25230856340619
 20
13.13860669134923
 30
0.0
 10
11.28747956486986
 20
13.9502414172277
 30
0.0
 10
12.153453356043
 20
15.04475329869002
 30
0.0
 10
12.05580366509817
 20
16.41054539770305
 30
0.0
 10
11.7620787988282
 20
17.69463445167399
 30
0.0
 10
11.47731655607154
 20
18.99170203821074
 30
0.0
 10
11.15055080946478
 20
20.27603232102767
 30
0.0
 10
10.78962386204678
 20
21.55188801703699
 30
0.0
 10
10.390000060604
 20
22.81600814979829
 30
0.0
 10
9.950752853987835
 20
24.06696726017668
 30
0.0
 10
9.469246518791648
 20
25.30231671952662
 30
0.0
 10
8.942594987670693
 20
26.51908859139847
 30
0.0
 10
8.370559793632474
 20
27.71534567278362
 30
0.0
 10
7.762286742270459
 20
28.89281061581236
 30
0.0
 10
7.347832354333884
 20
29.67452636293986
 30
0.0
 10
7.100609934487617
 20
30.04107206489479
 30
0.0
  0
SPLINE
  5
DB
330
1F
100
AcDbEntity
  8
Default
100
AcDbSpline
210
0.0
220
0.0
230
1.0
 70
    24
 71
     2
 72
     6
 73
     3
 74
     0
 42
0.0000000001
 43
0.0000000001
 40
0.0
 40
0.0
 40
0.0
 40
1.279662316143878
 40
1.279662316143878
 40
1.279662316143878
 10
54.20972178977453
 20
15.34819440248531
 30
0.0
 10
54.14973071434545
 20
15.98520694687399
 30
0.0
 10
54.08973963891638
 20
16.62221949126268
 30
0.0
  0
SPLINE
  5
DC
330
1F
100
AcDbEntity
  8
Default
100
AcDbSpline
210
0.0
220
0.0
230
1.0
 70
     8
 71
     3
 72
     8
 73
     4
 74
     0
 42
0.0000000001
 43
0.0000000001
 40
0.0
 40
0.0
 40
0.0
 40
0.0
 40
1.0
 40
1.0
 40
1.0
 40
1.0
 10
54.08973963891638
 20
16.62221949126268
 30
0.0
 10
54.07565853190415
 20
16.77173909466238
 30
0.0
 10
53.97623673279677
 20
16.84604459020697
 30
0.0
 10
53.82070536193868
 20
16.85129933503609
 30
0.0
  0
SPLINE
  5
DD
330
1F
100
AcDbEntity
  8
Default
100
AcDbSpline
210
0.0
220
0.0
230
1.0
 70
     8
 71
     3
 72
    10
 73
     6
 74
     0
 42
0.0000000001
 43
0.0000000001
 40
-3.0
 40
-3.0
 40
-3.0
 40
-3.0
 40
-2.0
 40
-1.0
 40
0.0
 40
0.0
 40
0.0
 40
0.0
 10
53.82070536193868
 20
16.85129933503609
 30
0.0
 10
52.51508367720314
 20
16.89541074972242
 30
0.0
 10
49.90430024047415
 20
16.77573155623378
 30
0.0
 10
45.99294531433488
 20
16.55617565478258
 30
0.0
 10
43.39325866125267
 20
16.29087640117306
 30
0.0
 10
42.09737030063295
 20
16.13046350381057
 30
0.0
  0
SPLINE
  5
DE
330
1F
100
AcDbEntity
  8
Default
100
AcDbSpline
210
0.0
220
0.0
230
1.0
 70
    11
 71
     3
 72
    94
 73
    90
 74
     0
 42
0.0000000001
 43
0.0000000001
 40
-79.0
 40
-79.0
 40
-79.0
 40
-79.0
 40
-78.0
 40
-77.0
 40
-76.0
 40
-75.0
 40
-74.0
 40
-73.0
 40
-72.0
 40
-71.0
 40
-70.0
 40
-69.0
 40
-68.0
 40
-67.0
 40
-66.0
 40
-65.0
 40
-64.0
 40
-63.0
 40
-62.0
 40
-61.0
 40
-60.0
 40
-59.0
 40
-58.0
 40
-57.0
 40
-56.0
 40
-55.0
 40
-54.0
 40
-53.0
 40
-52.0
 40
-51.0
 40
-50.0
 40
-49.0
 40
-48.0
 40
-47.0
 40
-46.0
 40
-45.0
 40
-44.0
 40
-43.0
 40
-42.0
 40
-41.0
 40
-40.0
 40
-39.0
 40
-38.0
 40
-37.0
 40
-36.0
 40
-35.0
 40
-34.0
 40
-33.0
 40
-32.0
 40
-32.0
 40
-32.0
 40
-31.0
 40
-30.0
 40
-29.0
 40
-28.0
 40
-27.0
 40
-27.0
 40
-27.0
 40
-26.0
 40
-25.0
 40
-24.0
 40
-23.0
 40
-22.0
 40
-21.0
 40
-20.0
 40
-19.0
 40
-18.0
 40
-17.0
 40
-16.0
 40
-15.0
 40
-14.0
 40
-13.0
 40
-12.0
 40
-11.0
 40
-10.0
 40
-10.0
 40
-10.0
 40
-9.0
 40
-8.0
 40
-7.0
 40
-6.0
 40
-5.0
 40
-5.0
 40
-5.0
 40
-4.0
 40
-3.0
 40
-2.0
 40
-1.0
 40
0.0
 40
0.0
 40
0.0
 40
0.0
 10
49.82430759716839
 20
12.23280698865517
 30
0.0
 10
49.57705463875549
 20
12.16496493874988
 30
0.0
 10
49.06042158287114
 20
12.032175272046
 30
0.0
 10
48.31051254205351
 20
11.8608111394926
 30
0.0
 10
47.55643689201098
 20
11.70886510912736
 30
0.0
 10
46.79886669728486
 20
11.57546155933897
 30
0.0
 10
46.03841537597459
 20
11.45964540560032
 30
0.0
 10
45.27560239245076
 20
11.36060461187961
 30
0.0
 10
44.51084218411555
 20
11.27794492274307
 30
0.0
 10
43.7445400486628
 20
11.21111773853807
 30
0.0
 10
42.97712174589132
 20
11.15881915815769
 30
0.0
 10
42.20901496957796
 20
11.11807540310902
 30
0.0
 10
41.44048801733407
 20
11.08626972916059
 30
0.0
 10
40.67179730491502
 20
11.05935764768186
 30
0.0
 10
39.90258487151186
 20
11.04731995964065
 30
0.0
 10
39.1336722490804
 20
11.05597219962539
 30
0.0
 10
38.36383718278504
 20
11.07710565371962
 30
0.0
 10
37.6032932910163
 20
11.20459005403417
 30
0.0
 10
36.86850267885984
 20
11.43765981101071
 30
0.0
 10
36.16687593030608
 20
11.75601144283274
 30
0.0
 10
35.50941571354225
 20
12.15805221618425
 30
0.0
 10
34.90521069698472
 20
12.63625740988515
 30
0.0
 10
34.36038516636294
 20
13.18073367400949
 30
0.0
 10
33.8719150593131
 20
13.77612652156762
 30
0.0
 10
33.44376813341547
 20
14.41593517144855
 30
0.0
 10
33.05458229445254
 20
15.0794835569048
 30
0.0
 10
32.67589758597311
 20
15.74899467275726
 30
0.0
 10
32.31242683066503
 20
16.42693625279978
 30
0.0
 10
31.96408743557961
 20
17.11275133981211
 30
0.0
 10
31.62915678252068
 20
17.8052130630799
 30
0.0
 10
31.30794707972841
 20
18.50414228249492
 30
0.0
 10
30.99952149977887
 20
19.20880242816953
 30
0.0
 10
30.70405067327371
 20
19.91899172015047
 30
0.0
 10
30.42090866998691
 20
20.63418216743003
 30
0.0
 10
30.14913668269827
 20
21.35376424266451
 30
0.0
 10
29.88904313574984
 20
22.07765510817336
 30
0.0
 10
29.64077399569524
 20
22.8056811609513
 30
0.0
 10
29.40211502511956
 20
23.53689849823948
 30
0.0
 10
29.16909964754098
 20
24.26992998659057
 30
0.0
 10
28.94077315647286
 20
25.00443386679921
 30
0.0
 10
28.71702190146898
 20
25.74034697237221
 30
0.0
 10
28.4987161309778
 20
26.47789098972374
 30
0.0
 10
28.2846869626843
 20
27.21669071608687
 30
0.0
 10
28.07775065164182
 20
27.95751081797629
 30
0.0
 10
27.87726164900874
 20
28.70010297367395
 30
0.0
 10
27.68449394592265
 20
29.44473552958103
 30
0.0
 10
27.50146005482224
 20
30.19184228343002
 30
0.0
 10
27.33180081257337
 20
30.94208292541867
 30
0.0
 10
27.2343192494264
 20
31.44571724147756
 30
0.0
 10
27.20031646628579
 20
31.69993136151571
 30
0.0
 10
27.18008722387703
 20
31.8422393671086
 30
0.0
 10
27.15595161854776
 20
32.13150739442648
 30
0.0
 10
27.19473811089908
 20
32.55911639831771
 30
0.0
 10
27.40457156114762
 20
32.97744099620262
 30
0.0
 10
27.88861923412338
 20
33.00148852570295
 30
0.0
 10
28.11751771760423
 20
32.79984220812039
 30
0.0
 10
28.18758477507646
 20
32.67386569788469
 30
0.0
 10
28.50483460452036
 20
32.12837174517533
 30
0.0
 10
29.11030819539461
 20
31.02032237744637
 30
0.0
 10
29.93518864962958
 20
29.31642450146265
 30
0.0
 10
30.79797387115858
 20
27.630960751261
 30
0.0
 10
31.76064036086747
 20
25.99989323443397
 30
0.0
 10
32.79009758550409
 20
24.41077920763035
 30
0.0
 10
33.88815742360761
 20
22.86800176636113
 30
0.0
 10
35.0563384413871
 20
21.3776312195342
 30
0.0
 10
36.29916359043769
 20
19.94848092077165
 30
0.0
 10
37.62371427174302
 20
18.59530601653634
 30
0.0
 10
39.07882716598927
 20
17.37351109942025
 30
0.0
 10
40.77055103621407
 20
16.49690045808361
 30
0.0
 10
42.59327880599577
 20
15.96704457091525
 30
0.0
 10
44.44877246006911
 20
15.59014761986524
 30
0.0
 10
46.33218040845288
 20
15.38100568157644
 30
0.0
 10
48.22236705435057
 20
15.27158727054028
 30
0.0
 10
50.11569331785194
 20
15.24183773337529
 30
0.0
 10
51.37766151333585
 20
15.26698933771996
 30
0.0
 10
52.00949672926671
 20
15.28499553953873
 30
0.0
 10
52.20885254300548
 20
15.29261805115814
 30
0.0
 10
52.60454990134802
 20
15.30361839069626
 30
0.0
 10
53.20168902354949
 20
15.32865689650114
 30
0.0
 10
53.7875428825096
 20
15.31943828371295
 30
0.0
 10
54.41499543193922
 20
15.43702504200299
 30
0.0
 10
54.72310423465507
 20
15.08367179902953
 30
0.0
 10
54.71266619810018
 20
14.87842195902601
 30
0.0
 10
54.71113573919996
 20
14.47083765308814
 30
0.0
 10
54.1167927896152
 20
13.90600340505654
 30
0.0
 10
53.10942786497036
 20
13.37099067477367
 30
0.0
 10
52.03719787035984
 20
12.93892051742479
 30
0.0
 10
50.95112955867659
 20
12.55782166960217
 30
0.0
 10
50.19447262530587
 20
12.33437404157656
 30
0.0
 10
49.82430759716839
 20
12.23280698865517
 30
0.0
  0
SPLINE
  5
DF
330
1F
100
AcDbEntity
  8
Default
100
AcDbSpline
210
0.0
220
0.0
230
1.0
 70
    12
 71
     2
 72
     6
 73
     3
 74
     0
 42
0.0000000001
 43
0.0000000001
 40
0.0
 40
0.0
 40
0.0
 40
0.0278459026180733
 40
0.0278459026180733
 40
0.0278459026180733
 10
42.09028827791758
 20
16.10016413304842
 30
0.0
 41
1.0
 10
42.09376761104902
 20
16.11365965804896
 30
0.0
 41
0.9985079917047226
 10
42.0986978630369
 20
16.12669528497734
 30
0.0
 41
1.0
  0
SPLINE
  5
E0
330
1F
100
AcDbEntity
  8
Default
100
AcDbSpline
210
0.0
220
0.0
230
1.0
 70
     8
 71
     3
 72
    14
 73
    10
 74
     0
 42
0.0000000001
 43
0.0000000001
 40
0.0
 40
0.0
 40
0.0
 40
0.0
 40
1.0
 40
2.0
 40
3.0
 40
4.0
 40
5.0
 40
6.0
 40
7.0
 40
7.0
 40
7.0
 40
7.0
 10
27.65519776673033
 20
32.98069168342478
 30
0.0
 10
28.12149502986298
 20
32.19531737031868
 30
0.0
 10
29.02091359876075
 20
30.60450037267952
 30
0.0
 10
30.22612230546028
 20
28.14184386222309
 30
0.0
 10
31.64304879816025
 20
25.79363130990457
 30
0.0
 10
33.1899283652465
 20
23.53084530864356
 30
0.0
 10
34.87433838721486
 20
21.36741466949133
 30
0.0
 10
36.71854778145571
 20
19.33714475227391
 30
0.0
 10
38.07405533602537
 20
18.10884943814165
 30
0.0
 10
38.78557610291054
 20
17.53592994333116
 30
0.0
  0
SPLINE
  5
E1
330
1F
100
AcDbEntity
  8
Default
100
AcDbSpline
210
0.0
220
0.0
230
1.0
 70
     8
 71
     3
 72
    10
 73
     6
 74
     0
 42
0.0000000001
 43
0.0000000001
 40
0.0
 40
0.0
 40
0.0
 40
0.0
 40
1.0
 40
2.0
 40
3.0
 40
3.0
 40
3.0
 40
3.0
 10
38.78557610291054
 20
17.53592994333116
 30
0.0
 10
39.10157103853331
 20
17.28500910255091
 30
0.0
 10
39.80255640686173
 20
16.87982652449321
 30
0.0
 10
40.92824498644139
 20
16.43469312360294
 30
0.0
 10
41.70279401717619
 20
16.21027678424815
 30
0.0
 10
42.09028827791758
 20
16.10016413304842
 30
0.0
  0
SPLINE
  5
E2
330
1F
100
AcDbEntity
  8
Default
100
AcDbSpline
210
0.0
220
0.0
230
1.0
 70
     8
 71
     3
 72
    12
 73
     8
 74
     0
 42
0.0000000001
 43
0.0000000001
 40
0.0
 40
0.0
 40
0.0
 40
0.0
 40
1.0
 40
2.0
 40
3.0
 40
4.0
 40
5.0
 40
5.0
 40
5.0
 40
5.0
 10
42.09028827791758
 20
16.10016413304842
 30
0.0
 10
42.90193933021003
 20
15.85109118227806
 30
0.0
 10
44.56266216903853
 20
15.49130281075214
 30
0.0
 10
47.08903484932588
 20
15.1703407804289
 30
0.0
 10
49.62396169659549
 20
14.93865165687993
 30
0.0
 10
52.16764760859534
 20
14.82525767140658
 30
0.0
 10
53.8651385870328
 20
14.83645735949594
 30
0.0
 10
54.71266619810189
 20
14.8784219590261
 30
0.0
  0
SPLINE
  5
E3
330
1F
100
AcDbEntity
  8
Make2D visible lines - Tangent
100
AcDbSpline
210
0.0
220
0.0
230
1.0
 70
    12
 71
     2
 72
     6
 73
     3
 74
     0
 42
0.0000000001
 43
0.0000000001
 40
-1.274338379655795
 40
-1.274338379655795
 40
-1.274338379655795
 40
0.0
 40
0.0
 40
0.0
 10
12.09650424334853
 20
53.82936426816978
 30
0.0
 41
0.9999999993102521
 10
12.73403892009562
 20
53.82229851730612
 30
0.0
 41
0.9999999996088882
 10
13.37162794413377
 20
53.8152412090719
 30
0.0
 41
1.0
  0
SPLINE
  5
E4
330
1F
100
AcDbEntity
  8
Make2D visible lines - Tangent
100
AcDbSpline
210
0.0
220
0.0
230
1.0
 70
     8
 71
     3
 72
    14
 73
    10
 74
     0
 42
0.0000000001
 43
0.0000000001
 40
0.0
 40
0.0
 40
0.0
 40
0.0
 40
1.0
 40
2.0
 40
3.0
 40
4.0
 40
5.0
 40
6.0
 40
7.0
 40
7.0
 40
7.0
 40
7.0
 10
13.37162794413377
 20
53.8152412090719
 30
0.0
 10
13.44193355717881
 20
53.81419132034918
 30
0.0
 10
13.57456949958401
 20
53.79389425377403
 30
0.0
 10
13.75694667137441
 20
53.70810939710193
 30
0.0
 10
13.89175771414015
 20
53.54871443028028
 30
0.0
 10
13.88838039984997
 20
53.33552696533685
 30
0.0
 10
13.750409086452
 20
53.17937059549763
 30
0.0
 10
13.56701981100042
 20
53.09594996095463
 30
0.0
 10
13.43418250896663
 20
53.077041943443
 30
0.0
 10
13.36774910060788
 20
53.07701210031475
 30
0.0
  0
SPLINE
  5
E5
330
1F
100
AcDbEntity
  8
Make2D visible lines - Tangent
100
AcDbSpline
210
0.0
220
0.0
230
1.0
 70
    12
 71
     2
 72
     6
 73
     3
 74
     0
 42
0.0000000001
 43
0.0000000001
 40
0.0
 40
0.0
 40
0.0
 40
1.291529069117466
 40
1.291529069117466
 40
1.291529069117466
 10
13.36774910060788
 20
53.07701210031475
 30
0.0
 41
1.0
 10
12.72202381736901
 20
53.06989226247818
 30
0.0
 41
0.9999999996036121
 10
12.07629867303488
 20
53.06275983796593
 30
0.0
 41
0.9999999993022117
  0
SPLINE
  5
E6
330
1F
100
AcDbEntity
  8
Make2D visible lines - Tangent
100
AcDbSpline
210
0.0
220
0.0
230
1.0
 70
    12
 71
     2
 72
     6
 73
     3
 74
     0
 42
0.0000000001
 43
0.0000000001
 40
-1.283779462045758
 40
-1.283779462045758
 40
-1.283779462045758
 40
0.0
 40
0.0
 40
0.0
 10
0.3832059637803998
 20
41.35870345248876
 30
0.0
 41
0.9999999993058323
 10
0.3760878024775536
 20
40.71644593241501
 30
0.0
 41
0.9999999996059906
 10
0.368978209363922
 20
40.07413325678999
 30
0.0
 41
1.0
  0
SPLINE
  5
E7
330
1F
100
AcDbEntity
  8
Make2D visible lines - Tangent
100
AcDbSpline
210
0.0
220
0.0
230
1.0
 70
     8
 71
     3
 72
    14
 73
    10
 74
     0
 42
0.0000000001
 43
0.0000000001
 40
0.0
 40
0.0
 40
0.0
 40
0.0
 40
1.0
 40
2.0
 40
3.0
 40
4.0
 40
5.0
 40
6.0
 40
7.0
 40
7.0
 40
7.0
 40
7.0
 10
0.368978209363922
 20
40.07413325678999
 30
0.0
 10
0.3679283206412023
 20
40.00382764374495
 30
0.0
 10
0.3476312540660575
 20
39.87119170133975
 30
0.0
 10
0.2618463973939553
 20
39.68881452954935
 30
0.0
 10
0.1024514305723055
 20
39.55400348678361
 30
0.0
 10
-0.1107360343711191
 20
39.55738080107379
 30
0.0
 10
-0.266892404210345
 20
39.69535211447176
 30
0.0
 10
-0.3503130387533445
 20
39.87874138992334
 30
0.0
 10
-0.3692210562649737
 20
40.01157869195713
 30
0.0
 10
-0.3692508993932266
 20
40.07801210031588
 30
0.0
  0
SPLINE
  5
E8
330
1F
100
AcDbEntity
  8
Make2D visible lines - Tangent
100
AcDbSpline
210
0.0
220
0.0
230
1.0
 70
    12
 71
     2
 72
     6
 73
     3
 74
     0
 42
0.0000000001
 43
0.0000000001
 40
0.0
 40
0.0
 40
0.0
 40
1.280792450069229
 40
1.280792450069229
 40
1.280792450069229
 10
-0.3692508993932266
 20
40.07801210031588
 30
0.0
 41
1.0
 10
-0.3763115492576582
 20
40.71836940032894
 30
0.0
 41
0.9999999996069073
 10
-0.3833845773988536
 20
41.3587265637381
 30
0.0
 41
0.9999999993072295
  0
SPLINE
  5
E9
330
1F
100
AcDbEntity
  8
Make2D visible lines - Tangent
100
AcDbSpline
210
0.0
220
0.0
230
1.0
 70
    12
 71
     2
 72
     6
 73
     3
 74
     0
 42
0.0000000001
 43
0.0000000001
 40
-1.294547588781255
 40
-1.294547588781255
 40
-1.294547588781255
 40
0.0
 40
0.0
 40
0.0
 10
-12.07678525445528
 20
53.06243582465506
 30
0.0
 41
0.9999999993008034
 10
-12.72442945633473
 20
53.06961376437199
 30
0.0
 41
0.9999999996026857
 10
-13.37212974291798
 20
53.07678299155984
 30
0.0
 41
1.0
  0
SPLINE
  5
EA
330
1F
100
AcDbEntity
  8
Make2D visible lines - Tangent
100
AcDbSpline
210
0.0
220
0.0
230
1.0
 70
     8
 71
     3
 72
    14
 73
    10
 74
     0
 42
0.0000000001
 43
0.0000000001
 40
0.0
 40
0.0
 40
0.0
 40
0.0
 40
1.0
 40
2.0
 40
3.0
 40
4.0
 40
5.0
 40
6.0
 40
7.0
 40
7.0
 40
7.0
 40
7.0
 10
-13.37212974291798
 20
53.07678299155984
 30
0.0
 10
-13.44243535596303
 20
53.07783288028256
 30
0.0
 10
-13.57507129836822
 20
53.0981299468577
 30
0.0
 10
-13.75744847015863
 20
53.18391480352981
 30
0.0
 10
-13.89225951292436
 20
53.34330977035145
 30
0.0
 10
-13.88888219863419
 20
53.55649723529488
 30
0.0
 10
-13.75091088523622
 20
53.71265360513411
 30
0.0
 10
-13.56752160978463
 20
53.7960742396771
 30
0.0
 10
-13.43468430775084
 20
53.81498225718874
 30
0.0
 10
-13.36825089939209
 20
53.81501210031699
 30
0.0
  0
SPLINE
  5
EB
330
1F
100
AcDbEntity
  8
Make2D visible lines - Tangent
100
AcDbSpline
210
0.0
220
0.0
230
1.0
 70
    12
 71
     2
 72
     6
 73
     3
 74
     0
 42
0.0000000001
 43
0.0000000001
 40
0.0
 40
0.0
 40
0.0
 40
1.271324574552266
 40
1.271324574552266
 40
1.271324574552266
 10
-13.36825089939209
 20
53.81501210031699
 30
0.0
 41
1.0
 10
-12.73262724939777
 20
53.82202055643684
 30
0.0
 41
0.9999999996098131
 10
-12.09700373399432
 20
53.82904120850444
 30
0.0
 41
0.9999999993116652
  0
SPLINE
  5
EC
330
1F
100
AcDbEntity
  8
Make2D visible lines
100
AcDbSpline
210
0.0
220
0.0
230
1.0
 70
    24
 71
     2
 72
     6
 73
     3
 74
     0
 42
0.0000000001
 43
0.0000000001
 40
0.7117255040989579
 40
0.7117255040989579
 40
0.7117255040989579
 40
5.280000000000005
 40
5.280000000000005
 40
5.280000000000005
 10
1.289999999999999
 20
11.07127449590106
 30
0.0
 10
1.289999999999999
 20
8.787137247950541
 30
0.0
 10
1.289999999999999
 20
6.503000000000018
 30
0.0
  0
SPLINE
  5
ED
330
1F
100
AcDbEntity
  8
Make2D visible lines
100
AcDbSpline
210
0.0
220
0.0
230
1.0
 70
    24
 71
     2
 72
     6
 73
     3
 74
     0
 42
0.0000000001
 43
0.0000000001
 40
0.0
 40
0.0
 40
0.0
 40
4.568274495901046
 40
4.568274495901046
 40
4.568274495901046
 10
-1.289999999999999
 20
6.503000000000018
 30
0.0
 10
-1.289999999999999
 20
8.78713724795054
 30
0.0
 10
-1.289999999999999
 20
11.07127449590106
 30
0.0
  0
SPLINE
  5
EE
330
1F
100
AcDbEntity
  8
Make2D visible lines
100
AcDbSpline
210
0.0
220
0.0
230
1.0
 70
    24
 71
     2
 72
     6
 73
     3
 74
     0
 42
0.0000000001
 43
0.0000000001
 40
0.5566590933632192
 40
0.5566590933632192
 40
0.5566590933632192
 40
5.280000000000005
 40
5.280000000000005
 40
5.280000000000005
 10
43.90501644368701
 20
11.2263409066368
 30
0.0
 10
43.90501644368701
 20
8.86467045331841
 30
0.0
 10
43.90501644368701
 20
6.503000000000018
 30
0.0
  0
SPLINE
  5
EF
330
1F
100
AcDbEntity
  8
Make2D visible lines
100
AcDbSpline
210
0.0
220
0.0
230
1.0
 70
    24
 71
     2
 72
     6
 73
     3
 74
     0
 42
0.0000000001
 43
0.0000000001
 40
0.0
 40
0.0
 40
0.0
 40
4.579736565425076
 40
4.579736565425076
 40
4.579736565425076
 10
41.32501644368701
 20
6.503000000000018
 30
0.0
 10
41.32501644368701
 20
8.792868282712556
 30
0.0
 10
41.32501644368701
 20
11.08273656542509
 30
0.0
  0
ENDSEC
  0
SECTION
  2
OBJECTS
  0
DICTIONARY
  5
C
330
0
100
AcDbDictionary
281
     1
  3
ACAD_GROUP
350
D
  3
ACAD_LAYOUT
350
1A
  3
ACAD_MLEADERSTYLE
350
F1
  3
ACAD_MLINESTYLE
350
17
  3
ACAD_PLOTSETTINGS
350
19
  3
ACAD_PLOTSTYLENAME
350
E
  3
ACAD_TABLESTYLE
350
F0
  3
ACAD_VISUALSTYLE
350
2A
  0
DICTIONARY
  5
D
102
{ACAD_REACTORS
330
C
102
}
330
C
100
AcDbDictionary
281
     1
  0
DICTIONARY
  5
1A
102
{ACAD_REACTORS
330
C
102
}
330
C
100
AcDbDictionary
281
     1
  3
Layout1
350
1E
  3
Layout2
350
26
  3
Model
350
22
  0
DICTIONARY
  5
F1
102
{ACAD_REACTORS
330
C
102
}
330
C
100
AcDbDictionary
281
     1
  0
DICTIONARY
  5
17
102
{ACAD_REACTORS
330
C
102
}
330
C
100
AcDbDictionary
281
     1
  3
Standard
350
18
  0
DICTIONARY
  5
19
102
{ACAD_REACTORS
330
C
102
}
330
C
100
AcDbDictionary
281
     1
  0
ACDBDICTIONARYWDFLT
  5
E
102
{ACAD_REACTORS
330
C
102
}
330
C
100
AcDbDictionary
281
     1
  3
Normal
350
F
100
AcDbDictionaryWithDefault
340
F
  0
DICTIONARY
  5
F0
102
{ACAD_REACTORS
330
C
102
}
330
C
100
AcDbDictionary
281
     1
  0
DICTIONARY
  5
2A
102
{ACAD_REACTORS
330
C
102
}
330
C
100
AcDbDictionary
281
     1
  3
2dWireframe
350
2F
  3
3D Hidden
350
31
  3
3dWireframe
350
30
  3
Basic
350
32
  3
Brighten
350
36
  3
ColorChange
350
3A
  3
Conceptual
350
34
  3
Dim
350
35
  3
Facepattern
350
39
  3
Flat
350
2B
  3
FlatWithEdges
350
2C
  3
Gouraud
350
2D
  3
GouraudWithEdges
350
2E
  3
Linepattern
350
38
  3
Realistic
350
33
  3
Thicken
350
37
  0
LAYOUT
  5
1E
102
{ACAD_REACTORS
330
1A
102
}
330
1A
100
AcDbPlotSettings
  1

  2
none_device
  4

  6

 40
0.0
 41
0.0
 42
0.0
 43
0.0
 44
0.0
 45
0.0
 46
0.0
 47
0.0
 48
0.0
 49
0.0
140
0.0
141
0.0
142
1.0
143
1.0
 70
   688
 72
     0
 73
     0
 74
     5
  7

 75
    16
 76
     0
 77
     2
 78
   300
147
1.0
148
0.0
149
0.0
100
AcDbLayout
  1
Layout1
 70
     1
 71
     1
 10
0.0
 20
0.0
 11
12.0
 21
9.0
 12
0.0
 22
0.0
 32
0.0
 14
1.000000000000000E+20
 24
1.000000000000000E+20
 34
1.000000000000000E+20
 15
-1.000000000000000E+20
 25
-1.000000000000000E+20
 35
-1.000000000000000E+20
146
0.0
 13
0.0
 23
0.0
 33
0.0
 16
1.0
 26
0.0
 36
0.0
 17
0.0
 27
1.0
 37
0.0
 76
     0
330
1B
  0
LAYOUT
  5
26
102
{ACAD_REACTORS
330
1A
102
}
330
1A
100
AcDbPlotSettings
  1

  2
none_device
  4

  6

 40
0.0
 41
0.0
 42
0.0
 43
0.0
 44
0.0
 45
0.0
 46
0.0
 47
0.0
 48
0.0
 49
0.0
140
0.0
141
0.0
142
1.0
143
1.0
 70
   688
 72
     0
 73
     0
 74
     5
  7

 75
    16
 76
     0
 77
     2
 78
   300
147
1.0
148
0.0
149
0.0
100
AcDbLayout
  1
Layout2
 70
     1
 71
     2
 10
0.0
 20
0.0
 11
0.0
 21
0.0
 12
0.0
 22
0.0
 32
0.0
 14
0.0
 24
0.0
 34
0.0
 15
0.0
 25
0.0
 35
0.0
146
0.0
 13
0.0
 23
0.0
 33
0.0
 16
1.0
 26
0.0
 36
0.0
 17
0.0
 27
1.0
 37
0.0
 76
     0
330
23
  0
LAYOUT
  5
22
102
{ACAD_REACTORS
330
1A
102
}
330
1A
100
AcDbPlotSettings
  1

  2
none_device
  4

  6

 40
0.0
 41
0.0
 42
0.0
 43
0.0
 44
0.0
 45
0.0
 46
0.0
 47
0.0
 48
0.0
 49
0.0
140
0.0
141
0.0
142
1.0
143
1.0
 70
  1712
 72
     0
 73
     0
 74
     0
  7

 75
     0
 76
     0
 77
     2
 78
   300
147
1.0
148
0.0
149
0.0
100
AcDbLayout
  1
Model
 70
     1
 71
     0
 10
0.0
 20
0.0
 11
12.0
 21
9.0
 12
0.0
 22
0.0
 32
0.0
 14
-14.64960402052019
 24
0.0000000000000034
 34
0.0
 15
57.26436956481862
 25
68.8988821943443
 35
0.0
146
0.0
 13
0.0
 23
0.0
 33
0.0
 16
1.0
 26
0.0
 36
0.0
 17
0.0
 27
1.0
 37
0.0
 76
     0
330
1F
331
29
  0
MLINESTYLE
  5
18
102
{ACAD_REACTORS
330
17
102
}
330
17
100
AcDbMlineStyle
  2
Standard
 70
     0
  3

 62
   256
 51
90.0
 52
90.0
 71
     2
 49
0.5
 62
   256
  6
BYLAYER
 49
-0.5
 62
   256
  6
BYLAYER
  0
ACDBPLACEHOLDER
  5
F
102
{ACAD_REACTORS
330
E
102
}
330
E
  0
VISUALSTYLE
  5
2F
102
{ACAD_REACTORS
330
2A
102
}
330
2A
100
AcDbVisualStyle
  2
2dWireframe
 70
     4
 71
     0
 72
     2
 73
     0
 90
        0
 40
-0.6
 41
-30.0
 62
     5
 63
     7
421
 16777215
 74
     1
 91
        4
 64
     7
 65
   257
 75
     1
175
     1
 42
1.0
 92
        0
 66
   257
 43
1.0
 76
     1
 77
     6
 78
     2
 67
     7
 79
     5
170
     0
171
     0
290
     0
174
     0
 93
        1
 44
0.0
173
     0
291
     0
 45
0.0
1001
ACAD
1000
AcDbSavedByObjectVersion
1070
     0
  0
VISUALSTYLE
  5
31
102
{ACAD_REACTORS
330
2A
102
}
330
2A
100
AcDbVisualStyle
  2
3D Hidden
 70
     6
 71
     1
 72
     2
 73
     2
 90
        0
 40
-0.6
 41
-30.0
 62
     5
 63
     7
421
 16777215
 74
     2
 91
        2
 64
     7
 65
   257
 75
     2
175
     1
 42
40.0
 92
        0
 66
   257
 43
1.0
 76
     1
 77
     6
 78
     2
 67
     7
 79
     3
170
     0
171
     0
290
     0
174
     0
 93
        1
 44
0.0
173
     0
291
     0
 45
0.0
1001
ACAD
1000
AcDbSavedByObjectVersion
1070
     0
  0
VISUALSTYLE
  5
30
102
{ACAD_REACTORS
330
2A
102
}
330
2A
100
AcDbVisualStyle
  2
3dWireframe
 70
     5
 71
     0
 72
     2
 73
     0
 90
        0
 40
-0.6
 41
-30.0
 62
     5
 63
     7
421
 16777215
 74
     1
 91
        4
 64
     7
 65
   257
 75
     1
175
     1
 42
1.0
 92
        0
 66
   257
 43
1.0
 76
     1
 77
     6
 78
     2
 67
     7
 79
     5
170
     0
171
     0
290
     0
174
     0
 93
        1
 44
0.0
173
     0
291
     0
 45
0.0
1001
ACAD
1000
AcDbSavedByObjectVersion
1070
     0
  0
VISUALSTYLE
  5
32
102
{ACAD_REACTORS
330
2A
102
}
330
2A
100
AcDbVisualStyle
  2
Basic
 70
     7
 71
     1
 72
     0
 73
     1
 90
        0
 40
-0.6
 41
-30.0
 62
     5
 63
     7
421
 16777215
 74
     0
 91
        4
 64
     7
 65
   257
 75
     1
175
     1
 42
1.0
 92
        8
 66
     7
 43
1.0
 76
     1
 77
     6
 78
     2
 67
     7
 79
     5
170
     0
171
     0
290
     0
174
     0
 93
        1
 44
0.0
173
     0
291
     1
 45
0.0
1001
ACAD
1000
AcDbSavedByObjectVersion
1070
     0
  0
VISUALSTYLE
  5
36
102
{ACAD_REACTORS
330
2A
102
}
330
2A
100
AcDbVisualStyle
  2
Brighten
 70
    12
 71
     2
 72
     2
 73
     0
 90
        0
 40
-0.6
 41
-30.0
 62
     5
 63
     7
421
 16777215
 74
     1
 91
        4
 64
     7
 65
   257
 75
     1
175
     1
 42
1.0
 92
        8
 66
     7
 43
1.0
 76
     1
 77
     6
 78
     2
 67
     7
 79
     5
170
     0
171
     0
290
     0
174
     0
 93
        1
 44
50.0
173
     0
291
     1
 45
0.0
1001
ACAD
1000
AcDbSavedByObjectVersion
1070
     0
  0
VISUALSTYLE
  5
3A
102
{ACAD_REACTORS
330
2A
102
}
330
2A
100
AcDbVisualStyle
  2
ColorChange
 70
    16
 71
     2
 72
     2
 73
     3
 90
        0
 40
-0.6
 41
-30.0
 62
     5
 63
     8
421
  8421504
 74
     1
 91
        4
 64
     7
 65
   257
 75
     1
175
     1
 42
1.0
 92
        8
 66
     8
424
  8421504
 43
1.0
 76
     1
 77
     6
 78
     2
 67
     7
 79
     5
170
     0
171
     0
290
     0
174
     0
 93
        1
 44
0.0
173
     0
291
     1
 45
0.0
1001
ACAD
1000
AcDbSavedByObjectVersion
1070
     0
  0
VISUALSTYLE
  5
34
102
{ACAD_REACTORS
330
2A
102
}
330
2A
100
AcDbVisualStyle
  2
Conceptual
 70
     9
 71
     3
 72
     2
 73
     0
 90
        0
 40
-0.6
 41
-30.0
 62
     5
 63
     7
421
 16777215
 74
     2
 91
        2
 64
     7
 65
   257
 75
     1
175
     1
 42
40.0
 92
        8
 66
     7
 43
1.0
 76
     1
 77
     6
 78
     2
 67
     7
 79
     3
170
     0
171
     0
290
     0
174
     0
 93
        1
 44
0.0
173
     0
291
     0
 45
0.0
1001
ACAD
1000
AcDbSavedByObjectVersion
1070
     0
  0
VISUALSTYLE
  5
35
102
{ACAD_REACTORS
330
2A
102
}
330
2A
100
AcDbVisualStyle
  2
Dim
 70
    11
 71
     2
 72
     2
 73
     0
 90
        0
 40
-0.6
 41
-30.0
 62
     5
 63
     7
421
 16777215
 74
     1
 91
        4
 64
     7
 65
   257
 75
     1
175
     1
 42
1.0
 92
        8
 66
     7
 43
1.0
 76
     1
 77
     6
 78
     2
 67
     7
 79
     5
170
     0
171
     0
290
     0
174
     0
 93
        1
 44
-50.0
173
     0
291
     1
 45
0.0
1001
ACAD
1000
AcDbSavedByObjectVersion
1070
     0
  0
VISUALSTYLE
  5
39
102
{ACAD_REACTORS
330
2A
102
}
330
2A
100
AcDbVisualStyle
  2
Facepattern
 70
    15
 71
     2
 72
     2
 73
     0
 90
        0
 40
-0.6
 41
-30.0
 62
     5
 63
     7
421
 16777215
 74
     1
 91
        4
 64
     7
 65
   257
 75
     1
175
     1
 42
1.0
 92
        8
 66
     7
 43
1.0
 76
     1
 77
     6
 78
     2
 67
     7
 79
     5
170
     0
171
     0
290
     0
174
     0
 93
        1
 44
0.0
173
     0
291
     1
 45
0.0
1001
ACAD
1000
AcDbSavedByObjectVersion
1070
     0
  0
VISUALSTYLE
  5
2B
102
{ACAD_REACTORS
330
2A
102
}
330
2A
100
AcDbVisualStyle
  2
Flat
 70
     0
 71
     2
 72
     1
 73
     1
 90
        2
 40
-0.6
 41
30.0
 62
     5
 63
     7
421
 16777215
 74
     0
 91
        4
 64
     7
 65
   257
 75
     1
175
     1
 42
1.0
 92
        8
 66
     7
 43
1.0
 76
     1
 77
     6
 78
     2
 67
     7
 79
     5
170
     0
171
     0
290
     0
174
     0
 93
       13
 44
0.0
173
     0
291
     1
 45
0.0
1001
ACAD
1000
AcDbSavedByObjectVersion
1070
     0
  0
VISUALSTYLE
  5
2C
102
{ACAD_REACTORS
330
2A
102
}
330
2A
100
AcDbVisualStyle
  2
FlatWithEdges
 70
     1
 71
     2
 72
     1
 73
     1
 90
        2
 40
-0.6
 41
30.0
 62
     5
 63
     7
421
 16777215
 74
     1
 91
        4
 64
     7
 65
   257
 75
     1
175
     1
 42
1.0
 92
        0
 66
   257
 43
1.0
 76
     1
 77
     6
 78
     2
 67
     7
 79
     5
170
     0
171
     0
290
     0
174
     0
 93
       13
 44
0.0
173
     0
291
     1
 45
0.0
1001
ACAD
1000
AcDbSavedByObjectVersion
1070
     0
  0
VISUALSTYLE
  5
2D
102
{ACAD_REACTORS
330
2A
102
}
330
2A
100
AcDbVisualStyle
  2
Gouraud
 70
     2
 71
     2
 72
     2
 73
     1
 90
        2
 40
-0.6
 41
30.0
 62
     5
 63
     7
421
 16777215
 74
     0
 91
        4
 64
     7
 65
   257
 75
     1
175
     1
 42
1.0
 92
        0
 66
     7
 43
1.0
 76
     1
 77
     6
 78
     2
 67
     7
 79
     5
170
     0
171
     0
290
     0
174
     0
 93
       13
 44
0.0
173
     0
291
     1
 45
0.0
1001
ACAD
1000
AcDbSavedByObjectVersion
1070
     0
  0
VISUALSTYLE
  5
2E
102
{ACAD_REACTORS
330
2A
102
}
330
2A
100
AcDbVisualStyle
  2
GouraudWithEdges
 70
     3
 71
     2
 72
     2
 73
     1
 90
        2
 40
-0.6
 41
30.0
 62
     5
 63
     7
421
 16777215
 74
     1
 91
        4
 64
     7
 65
   257
 75
     1
175
     1
 42
1.0
 92
        0
 66
   257
 43
1.0
 76
     1
 77
     6
 78
     2
 67
     7
 79
     5
170
     0
171
     0
290
     0
174
     0
 93
       13
 44
0.0
173
     0
291
     1
 45
0.0
1001
ACAD
1000
AcDbSavedByObjectVersion
1070
     0
  0
VISUALSTYLE
  5
38
102
{ACAD_REACTORS
330
2A
102
}
330
2A
100
AcDbVisualStyle
  2
Linepattern
 70
    14
 71
     2
 72
     2
 73
     0
 90
        0
 40
-0.6
 41
-30.0
 62
     5
 63
     7
421
 16777215
 74
     1
 91
        4
 64
     7
 65
   257
 75
     7
175
     7
 42
1.0
 92
        8
 66
     7
 43
1.0
 76
     1
 77
     6
 78
     2
 67
     7
 79
     5
170
     0
171
     0
290
     0
174
     0
 93
        1
 44
0.0
173
     0
291
     1
 45
0.0
1001
ACAD
1000
AcDbSavedByObjectVersion
1070
     0
  0
VISUALSTYLE
  5
33
102
{ACAD_REACTORS
330
2A
102
}
330
2A
100
AcDbVisualStyle
  2
Realistic
 70
     8
 71
     2
 72
     2
 73
     0
 90
        0
 40
-0.6
 41
-30.0
 62
     5
 63
     7
421
 16777215
 74
     1
 91
        0
 64
     7
 65
   257
 75
     1
175
     1
 42
1.0
 92
        8
 66
     8
424
  7895160
 43
1.0
 76
     1
 77
     6
 78
     2
 67
     7
 79
     5
170
     0
171
     0
290
     0
174
     0
 93
       13
 44
0.0
173
     0
291
     0
 45
0.0
1001
ACAD
1000
AcDbSavedByObjectVersion
1070
     0
  0
VISUALSTYLE
  5
37
102
{ACAD_REACTORS
330
2A
102
}
330
2A
100
AcDbVisualStyle
  2
Thicken
 70
    13
 71
     2
 72
     2
 73
     0
 90
        0
 40
-0.6
 41
-30.0
 62
     5
 63
     7
421
 16777215
 74
     1
 91
        4
 64
     7
 65
   257
 75
     1
175
     1
 42
1.0
 92
       12
 66
     7
 43
1.0
 76
     1
 77
     6
 78
     2
 67
     7
 79
     5
170
     0
171
     0
290
     0
174
     0
 93
        1
 44
0.0
173
     0
291
     1
 45
0.0
1001
ACAD
1000
AcDbSavedByObjectVersion
1070
     0
  0
ENDSEC
  0
EOF
