  0
SECTION
  2
HEADER
  9
$ACADVER
  1
AC1018
  9
$ACADMAINTVER
 70
     0
  9
$DWGCODEPAGE
  3
ANSI_1252
  9
$INSBASE
 10
0.0
 20
0.0
 30
0.0
  9
$EXTMIN
 10
-24.5464521279639
 20
0.0000000000000034
 30
0.0
  9
$EXTMAX
 10
55.54624966091173
 20
70.56487409461096
 30
0.0
  9
$LIMMIN
 10
0.0
 20
0.0
  9
$LIMMAX
 10
12.0
 20
9.0
  9
$ORTHOMODE
 70
     0
  9
$REGENMODE
 70
     1
  9
$FILLMODE
 70
     1
  9
$QTEXTMODE
 70
     0
  9
$MIRRTEXT
 70
     1
  9
$LTSCALE
 40
0.0393700787401575
  9
$ATTMODE
 70
     1
  9
$TEXTSIZE
 40
0.2
  9
$TRACEWID
 40
0.05
  9
$TEXTSTYLE
  7
Standard
  9
$CLAYER
  8
Default
  9
$CELTYPE
  6
ByLayer
  9
$CECOLOR
 62
   256
  9
$CELTSCALE
 40
1.0
  9
$DISPSILH
 70
     0
  9
$DIMSCALE
 40
1.0
  9
$DIMASZ
 40
0.18
  9
$DIMEXO
 40
0.0625
  9
$DIMDLI
 40
0.38
  9
$DIMRND
 40
0.0
  9
$DIMDLE
 40
0.0
  9
$DIMEXE
 40
0.18
  9
$DIMTP
 40
0.0
  9
$DIMTM
 40
0.0
  9
$DIMTXT
 40
0.18
  9
$DIMCEN
 40
0.09
  9
$DIMTSZ
 40
0.0
  9
$DIMTOL
 70
     0
  9
$DIMLIM
 70
     0
  9
$DIMTIH
 70
     1
  9
$DIMTOH
 70
     1
  9
$DIMSE1
 70
     0
  9
$DIMSE2
 70
     0
  9
$DIMTAD
 70
     0
  9
$DIMZIN
 70
     0
  9
$DIMBLK
  1

  9
$DIMASO
 70
     1
  9
$DIMSHO
 70
     1
  9
$DIMPOST
  1

  9
$DIMAPOST
  1

  9
$DIMALT
 70
     0
  9
$DIMALTD
 70
     2
  9
$DIMALTF
 40
25.4
  9
$DIMLFAC
 40
1.0
  9
$DIMTOFL
 70
     0
  9
$DIMTVP
 40
0.0
  9
$DIMTIX
 70
     0
  9
$DIMSOXD
 70
     0
  9
$DIMSAH
 70
     0
  9
$DIMBLK1
  1

  9
$DIMBLK2
  1

  9
$DIMSTYLE
  2
Standard
  9
$DIMCLRD
 70
     0
  9
$DIMCLRE
 70
     0
  9
$DIMCLRT
 70
     0
  9
$DIMTFAC
 40
1.0
  9
$DIMGAP
 40
0.09
  9
$DIMJUST
 70
     0
  9
$DIMSD1
 70
     0
  9
$DIMSD2
 70
     0
  9
$DIMTOLJ
 70
     1
  9
$DIMTZIN
 70
     0
  9
$DIMALTZ
 70
     0
  9
$DIMALTTZ
 70
     0
  9
$DIMUPT
 70
     0
  9
$DIMDEC
 70
     4
  9
$DIMTDEC
 70
     4
  9
$DIMALTU
 70
     2
  9
$DIMALTTD
 70
     2
  9
$DIMTXSTY
  7
Standard
  9
$DIMAUNIT
 70
     0
  9
$DIMADEC
 70
     0
  9
$DIMALTRND
 40
0.0
  9
$DIMAZIN
 70
     0
  9
$DIMDSEP
 70
    46
  9
$DIMATFIT
 70
     3
  9
$DIMFRAC
 70
     0
  9
$DIMLDRBLK
  1

  9
$DIMLUNIT
 70
     2
  9
$DIMLWD
 70
    -2
  9
$DIMLWE
 70
    -2
  9
$DIMTMOVE
 70
     2
  9
$LUNITS
 70
     2
  9
$LUPREC
 70
     3
  9
$SKETCHINC
 40
0.1
  9
$FILLETRAD
 40
0.5
  9
$AUNITS
 70
     0
  9
$AUPREC
 70
     0
  9
$MENU
  1
.
  9
$ELEVATION
 40
0.0
  9
$PELEVATION
 40
0.0
  9
$THICKNESS
 40
0.0
  9
$LIMCHECK
 70
     0
  9
$CHAMFERA
 40
0.5
  9
$CHAMFERB
 40
0.5
  9
$CHAMFERC
 40
1.0
  9
$CHAMFERD
 40
0.0
  9
$SKPOLY
 70
     0
  9
$TDCREATE
 40
2456338.465010961
  9
$TDUCREATE
 40
2456338.673344294
  9
$TDUPDATE
 40
2456338.465010972
  9
$TDUUPDATE
 40
2456338.673344306
  9
$TDINDWG
 40
0.0000000116
  9
$TDUSRTIMER
 40
0.0000000116
  9
$USRTIMER
 70
     1
  9
$ANGBASE
 50
0.0
  9
$ANGDIR
 70
     0
  9
$PDMODE
 70
     0
  9
$PDSIZE
 40
0.0
  9
$PLINEWID
 40
0.0
  9
$SPLFRAME
 70
     0
  9
$SPLINETYPE
 70
     6
  9
$SPLINESEGS
 70
     8
  9
$HANDSEED
  5
130
  9
$SURFTAB1
 70
     6
  9
$SURFTAB2
 70
     6
  9
$SURFTYPE
 70
     6
  9
$SURFU
 70
     6
  9
$SURFV
 70
     6
  9
$UCSBASE
  2

  9
$UCSNAME
  2

  9
$UCSORG
 10
0.0
 20
0.0
 30
0.0
  9
$UCSXDIR
 10
1.0
 20
0.0
 30
0.0
  9
$UCSYDIR
 10
0.0
 20
1.0
 30
0.0
  9
$UCSORTHOREF
  2

  9
$UCSORTHOVIEW
 70
     0
  9
$UCSORGTOP
 10
0.0
 20
0.0
 30
0.0
  9
$UCSORGBOTTOM
 10
0.0
 20
0.0
 30
0.0
  9
$UCSORGLEFT
 10
0.0
 20
0.0
 30
0.0
  9
$UCSORGRIGHT
 10
0.0
 20
0.0
 30
0.0
  9
$UCSORGFRONT
 10
0.0
 20
0.0
 30
0.0
  9
$UCSORGBACK
 10
0.0
 20
0.0
 30
0.0
  9
$PUCSBASE
  2

  9
$PUCSNAME
  2

  9
$PUCSORG
 10
0.0
 20
0.0
 30
0.0
  9
$PUCSXDIR
 10
1.0
 20
0.0
 30
0.0
  9
$PUCSYDIR
 10
0.0
 20
1.0
 30
0.0
  9
$PUCSORTHOREF
  2

  9
$PUCSORTHOVIEW
 70
     0
  9
$PUCSORGTOP
 10
0.0
 20
0.0
 30
0.0
  9
$PUCSORGBOTTOM
 10
0.0
 20
0.0
 30
0.0
  9
$PUCSORGLEFT
 10
0.0
 20
0.0
 30
0.0
  9
$PUCSORGRIGHT
 10
0.0
 20
0.0
 30
0.0
  9
$PUCSORGFRONT
 10
0.0
 20
0.0
 30
0.0
  9
$PUCSORGBACK
 10
0.0
 20
0.0
 30
0.0
  9
$USERI1
 70
     0
  9
$USERI2
 70
     0
  9
$USERI3
 70
     0
  9
$USERI4
 70
     0
  9
$USERI5
 70
     0
  9
$USERR1
 40
0.0
  9
$USERR2
 40
0.0
  9
$USERR3
 40
0.0
  9
$USERR4
 40
0.0
  9
$USERR5
 40
0.0
  9
$WORLDVIEW
 70
     1
  9
$SHADEDGE
 70
     3
  9
$SHADEDIF
 70
    70
  9
$TILEMODE
 70
     1
  9
$MAXACTVP
 70
    64
  9
$PINSBASE
 10
0.0
 20
0.0
 30
0.0
  9
$PLIMCHECK
 70
     0
  9
$PEXTMIN
 10
1.000000000000000E+20
 20
1.000000000000000E+20
 30
1.000000000000000E+20
  9
$PEXTMAX
 10
-1.000000000000000E+20
 20
-1.000000000000000E+20
 30
-1.000000000000000E+20
  9
$PLIMMIN
 10
0.0
 20
0.0
  9
$PLIMMAX
 10
12.0
 20
9.0
  9
$UNITMODE
 70
     0
  9
$VISRETAIN
 70
     1
  9
$PLINEGEN
 70
     0
  9
$PSLTSCALE
 70
     1
  9
$TREEDEPTH
 70
  3020
  9
$CMLSTYLE
  2
Standard
  9
$CMLJUST
 70
     0
  9
$CMLSCALE
 40
1.0
  9
$PROXYGRAPHICS
 70
     1
  9
$MEASUREMENT
 70
     0
  9
$CELWEIGHT
370
    -1
  9
$ENDCAPS
280
     0
  9
$JOINSTYLE
280
     0
  9
$LWDISPLAY
290
     0
  9
$INSUNITS
 70
     1
  9
$HYPERLINKBASE
  1

  9
$STYLESHEET
  1

  9
$XEDIT
290
     1
  9
$CEPSNTYPE
380
     0
  9
$PSTYLEMODE
290
     1
  9
$FINGERPRINTGUID
  2
{C4825896-08FD-4B61-8067-6EAC484CDE0F}
  9
$VERSIONGUID
  2
{FAEB1C32-E019-11D5-929B-00C0DF256EC4}
  9
$EXTNAMES
290
     1
  9
$PSVPSCALE
 40
0.0
  9
$OLESTARTUP
290
     0
  9
$SORTENTS
280
   127
  9
$INDEXCTL
280
     0
  9
$HIDETEXT
280
     1
  9
$XCLIPFRAME
290
     0
  9
$HALOGAP
280
     0
  9
$OBSCOLOR
 70
   257
  9
$OBSLTYPE
280
     0
  9
$INTERSECTIONDISPLAY
280
     0
  9
$INTERSECTIONCOLOR
 70
   257
  9
$DIMASSOC
280
     2
  9
$PROJECTNAME
  1

  0
ENDSEC
  0
SECTION
  2
CLASSES
  0
CLASS
  1
ACDBDICTIONARYWDFLT
  2
AcDbDictionaryWithDefault
  3
ObjectDBX Classes
 90
        0
 91
        4
280
     0
281
     0
  0
CLASS
  1
VISUALSTYLE
  2
AcDbVisualStyle
  3
ObjectDBX Classes
 90
     4095
 91
        4
280
     0
281
     0
  0
ENDSEC
  0
SECTION
  2
TABLES
  0
TABLE
  2
VPORT
  5
8
330
0
100
AcDbSymbolTable
 70
     1
  0
VPORT
  5
29
330
8
100
AcDbSymbolTableRecord
100
AcDbViewportTableRecord
  2
*Active
 70
     0
 10
0.0
 20
0.0
 11
1.0
 21
1.0
 12
15.49989876647391
 22
35.28243704730548
 13
0.0
 23
0.0
 14
0.5
 24
0.5
 15
0.5
 25
0.5
 16
0.0
 26
0.0
 36
1.0
 17
0.0
 27
0.0
 37
0.0
 40
71.97617157650318
 41
1.135022244658016
 42
50.0
 43
0.0
 44
0.0
 50
0.0
 51
0.0
 71
     0
 72
   100
 73
     1
 74
     3
 75
     0
 76
     0
 77
     0
 78
     0
281
     0
 65
     1
110
0.0
120
0.0
130
0.0
111
1.0
121
0.0
131
0.0
112
0.0
122
1.0
132
0.0
 79
     0
146
0.0
  0
ENDTAB
  0
TABLE
  2
LTYPE
  5
5
330
0
100
AcDbSymbolTable
 70
     1
  0
LTYPE
  5
14
330
5
100
AcDbSymbolTableRecord
100
AcDbLinetypeTableRecord
  2
ByBlock
 70
     0
  3

 72
    65
 73
     0
 40
0.0
  0
LTYPE
  5
15
330
5
100
AcDbSymbolTableRecord
100
AcDbLinetypeTableRecord
  2
ByLayer
 70
     0
  3

 72
    65
 73
     0
 40
0.0
  0
LTYPE
  5
16
330
5
100
AcDbSymbolTableRecord
100
AcDbLinetypeTableRecord
  2
Continuous
 70
     0
  3
Solid line
 72
    65
 73
     0
 40
0.0
  0
ENDTAB
  0
TABLE
  2
LAYER
  5
2
330
0
100
AcDbSymbolTable
 70
     4
  0
LAYER
  5
10
330
2
100
AcDbSymbolTableRecord
100
AcDbLayerTableRecord
  2
0
 70
     0
 62
     7
  6
Continuous
370
    -3
390
F
  0
LAYER
  5
3B
330
2
100
AcDbSymbolTableRecord
100
AcDbLayerTableRecord
  2
Make2D visible lines
 70
     0
 62
     7
  6
Continuous
370
    -3
390
F
  0
LAYER
  5
51
330
2
100
AcDbSymbolTableRecord
100
AcDbLayerTableRecord
  2
Make2D visible lines - Tangent
 70
     0
 62
     7
  6
Continuous
370
    -3
390
F
  0
LAYER
  5
78
330
2
100
AcDbSymbolTableRecord
100
AcDbLayerTableRecord
  2
Default
 70
     0
 62
     7
  6
Continuous
370
    -3
390
F
  0
ENDTAB
  0
TABLE
  2
STYLE
  5
3
330
0
100
AcDbSymbolTable
 70
     1
  0
STYLE
  5
11
330
3
100
AcDbSymbolTableRecord
100
AcDbTextStyleTableRecord
  2
Standard
 70
     0
 40
0.0
 41
1.0
 50
0.0
 71
     0
 42
0.2
  3
txt
  4

  0
ENDTAB
  0
TABLE
  2
VIEW
  5
6
330
0
100
AcDbSymbolTable
 70
     0
  0
ENDTAB
  0
TABLE
  2
UCS
  5
7
330
0
100
AcDbSymbolTable
 70
     0
  0
ENDTAB
  0
TABLE
  2
APPID
  5
9
330
0
100
AcDbSymbolTable
 70
     1
  0
APPID
  5
12
330
9
100
AcDbSymbolTableRecord
100
AcDbRegAppTableRecord
  2
ACAD
 70
     0
  0
ENDTAB
  0
TABLE
  2
DIMSTYLE
  5
A
330
0
100
AcDbSymbolTable
 70
     1
100
AcDbDimStyleTable
  0
DIMSTYLE
105
27
330
A
100
AcDbSymbolTableRecord
100
AcDbDimStyleTableRecord
  2
Standard
 70
     0
340
11
  0
ENDTAB
  0
TABLE
  2
BLOCK_RECORD
  5
1
330
0
100
AcDbSymbolTable
 70
     1
  0
BLOCK_RECORD
  5
1F
330
1
100
AcDbSymbolTableRecord
100
AcDbBlockTableRecord
  2
*Model_Space
340
22
  0
BLOCK_RECORD
  5
1B
330
1
100
AcDbSymbolTableRecord
100
AcDbBlockTableRecord
  2
*Paper_Space
340
1E
  0
BLOCK_RECORD
  5
23
330
1
100
AcDbSymbolTableRecord
100
AcDbBlockTableRecord
  2
*Paper_Space0
340
26
  0
ENDTAB
  0
ENDSEC
  0
SECTION
  2
BLOCKS
  0
BLOCK
  5
20
330
1F
100
AcDbEntity
  8
0
100
AcDbBlockBegin
  2
*Model_Space
 70
     0
 10
0.0
 20
0.0
 30
0.0
  3
*Model_Space
  1

  0
ENDBLK
  5
21
330
1F
100
AcDbEntity
  8
0
100
AcDbBlockEnd
  0
BLOCK
  5
1C
330
1B
100
AcDbEntity
 67
     1
  8
0
100
AcDbBlockBegin
  2
*Paper_Space
 70
     0
 10
0.0
 20
0.0
 30
0.0
  3
*Paper_Space
  1

  0
ENDBLK
  5
1D
330
1B
100
AcDbEntity
 67
     1
  8
0
100
AcDbBlockEnd
  0
BLOCK
  5
24
330
23
100
AcDbEntity
  8
0
100
AcDbBlockBegin
  2
*Paper_Space0
 70
     0
 10
0.0
 20
0.0
 30
0.0
  3
*Paper_Space0
  1

  0
ENDBLK
  5
25
330
23
100
AcDbEntity
  8
0
100
AcDbBlockEnd
  0
ENDSEC
  0
SECTION
  2
ENTITIES
  0
SPLINE
  5
3C
330
1F
100
AcDbEntity
  8
Make2D visible lines
100
AcDbSpline
210
0.0
220
0.0
230
1.0
 70
    24
 71
     2
 72
     6
 73
     3
 74
     0
 42
0.0000000001
 43
0.0000000001
 40
0.0
 40
0.0
 40
0.0
 40
0.0000751500774685
 40
0.0000751500774685
 40
0.0000751500774685
 10
-13.04812838216702
 20
21.83705701892992
 30
0.0
 10
-13.04813257643813
 20
21.83701967871533
 30
0.0
 10
-13.04813677070924
 20
21.83698233850074
 30
0.0
  0
SPLINE
  5
3D
330
1F
100
AcDbEntity
  8
Make2D visible lines
100
AcDbSpline
210
0.0
220
0.0
230
1.0
 70
    24
 71
     2
 72
     6
 73
     3
 74
     0
 42
0.0000000001
 43
0.0000000001
 40
0.0
 40
0.0
 40
0.0
 40
1.28941229765211
 40
1.28941229765211
 40
1.28941229765211
 10
0.0
 20
6.463000000000015
 30
0.0
 10
-0.6447061488260548
 20
6.463000000000015
 30
0.0
 10
-1.28941229765211
 20
6.463000000000015
 30
0.0
  0
SPLINE
  5
3E
330
1F
100
AcDbEntity
  8
Make2D visible lines
100
AcDbSpline
210
0.0
220
0.0
230
1.0
 70
    24
 71
     2
 72
     6
 73
     3
 74
     0
 42
0.0000000001
 43
0.0000000001
 40
0.0
 40
0.0
 40
0.0
 40
0.0400060931217547
 40
0.0400060931217547
 40
0.0400060931217547
 10
1.200000000000291
 20
6.50300000000002
 30
0.0
 10
1.200349101298833
 20
6.48300000000002
 30
0.0
 10
1.200698202597376
 20
6.463000000000021
 30
0.0
  0
SPLINE
  5
3F
330
1F
100
AcDbEntity
  8
Make2D visible lines
100
AcDbSpline
210
0.0
220
0.0
230
1.0
 70
    24
 71
     2
 72
     6
 73
     3
 74
     0
 42
0.0000000001
 43
0.0000000001
 40
0.0
 40
0.0
 40
0.0
 40
0.0400060931217547
 40
0.0400060931217547
 40
0.0400060931217547
 10
-1.200698202597376
 20
6.463000000000021
 30
0.0
 10
-1.200349101298833
 20
6.48300000000002
 30
0.0
 10
-1.200000000000291
 20
6.50300000000002
 30
0.0
  0
SPLINE
  5
40
330
1F
100
AcDbEntity
  8
Make2D visible lines
100
AcDbSpline
210
0.0
220
0.0
230
1.0
 70
    24
 71
     2
 72
     6
 73
     3
 74
     0
 42
0.0000000001
 43
0.0000000001
 40
0.0
 40
0.0
 40
0.0
 40
0.2213623405233084
 40
0.2213623405233084
 40
0.2213623405233084
 10
14.63709732415427
 20
0.3858503918134666
 30
0.0
 10
14.64337214822717
 20
0.2753472333366913
 30
0.0
 10
14.64964697230008
 20
0.164844074859916
 30
0.0
  0
SPLINE
  5
41
330
1F
100
AcDbEntity
  8
Make2D visible lines
100
AcDbSpline
210
0.0
220
0.0
230
1.0
 70
    12
 71
     2
 72
     6
 73
     3
 74
     0
 42
0.0000000001
 43
0.0000000001
 40
0.0
 40
0.0
 40
0.0
 40
0.0232077921390905
 40
0.0232077921390905
 40
0.0232077921390905
 10
0.3881182335887274
 20
0.3999999999470365
 30
0.0
 41
1.0
 10
0.4027354078090628
 20
0.3999392744149043
 30
0.0
 41
0.7176120634141828
 10
0.4031122621332059
 20
0.3853268327778507
 30
0.0
 41
1.0
  0
SPLINE
  5
42
330
1F
100
AcDbEntity
  8
Make2D visible lines
100
AcDbSpline
210
0.0
220
0.0
230
1.0
 70
    12
 71
     2
 72
     6
 73
     3
 74
     0
 42
0.0000000001
 43
0.0000000001
 40
0.0
 40
0.0
 40
0.0
 40
0.0232125536774005
 40
0.0232125536774005
 40
0.0232125536774005
 10
-0.4025245172889385
 20
0.3853269610145591
 30
0.0
 41
1.0
 10
-0.4021580049511924
 20
0.3999502926109969
 30
0.0
 41
0.7170957278319929
 10
-0.3875301654848897
 20
0.3999999999617776
 30
0.0
 41
1.0
  0
SPLINE
  5
43
330
1F
100
AcDbEntity
  8
Make2D visible lines
100
AcDbSpline
210
0.0
220
0.0
230
1.0
 70
    12
 71
     2
 72
     6
 73
     3
 74
     0
 42
0.0000000001
 43
0.0000000001
 40
0.0
 40
0.0
 40
0.0
 40
0.2259576718196235
 40
0.2259576718196235
 40
0.2259576718196235
 10
-0.4074700008006573
 20
0.1594216323489093
 30
0.0
 41
1.0
 10
-0.4049920062881867
 20
0.2723732898507527
 30
0.0
 41
0.9999999984910576
 10
-0.4025264218530964
 20
0.3853252189294936
 30
0.0
 41
1.0
  0
SPLINE
  5
44
330
1F
100
AcDbEntity
  8
Make2D visible lines
100
AcDbSpline
210
0.0
220
0.0
230
1.0
 70
    24
 71
     3
 72
     9
 73
     5
 74
     0
 42
0.0000000001
 43
0.0000000001
 40
0.0
 40
0.0
 40
0.0
 40
0.0
 40
0.0000682360840525
 40
0.251869451330915
 40
0.251869451330915
 40
0.251869451330915
 40
0.251869451330915
 10
-0.2514391254904211
 20
0.0000000000000036
 30
0.0
 10
-0.2515486054704894
 20
0.0000000000000036
 30
0.0
 10
-0.1676024609788982
 20
0.0000000000000036
 30
0.0
 10
-0.0836369639559535
 20
0.0000000000000036
 30
0.0
 10
0.0002938536723889
 20
0.0000000000000036
 30
0.0
  0
SPLINE
  5
45
330
1F
100
AcDbEntity
  8
Make2D visible lines
100
AcDbSpline
210
0.0
220
0.0
230
1.0
 70
    24
 71
     2
 72
     6
 73
     3
 74
     0
 42
0.0000000001
 43
0.0000000001
 40
0.0
 40
0.0
 40
0.0
 40
1.107594207465098
 40
1.107594207465098
 40
1.107594207465098
 10
13.38630366422798
 20
0.0000000000000036
 30
0.0
 10
13.94010076796053
 20
0.0000000000000036
 30
0.0
 10
14.49389787169308
 20
0.0000000000000036
 30
0.0
  0
SPLINE
  5
46
330
1F
100
AcDbEntity
  8
Make2D visible lines
100
AcDbSpline
210
0.0
220
0.0
230
1.0
 70
    12
 71
     2
 72
     8
 73
     5
 74
     0
 42
0.0000000001
 43
0.0000000001
 40
0.0
 40
0.0
 40
0.0
 40
0.0119642320224294
 40
0.0119642320224294
 40
0.0239284640448587
 40
0.0239284640448587
 40
0.0239284640448587
 10
13.23966492226808
 20
0.4000000000000163
 30
0.0
 41
1.0
 10
13.23334409420109
 20
0.4000000000000209
 30
0.0
 41
0.9215246294676533
 10
13.22892953126251
 20
0.3954762292814858
 30
0.0
 41
1.0
 10
13.22451496832394
 20
0.3909524585629509
 30
0.0
 41
0.9215246294676533
 10
13.22466939992134
 20
0.3846335173277264
 30
0.0
 41
1.0
  0
SPLINE
  5
47
330
1F
100
AcDbEntity
  8
Make2D visible lines
100
AcDbSpline
210
0.0
220
0.0
230
1.0
 70
    12
 71
     2
 72
     8
 73
     5
 74
     0
 42
0.0000000001
 43
0.0000000001
 40
0.0
 40
0.0
 40
0.0
 40
0.1269465231438366
 40
0.1269465231438366
 40
0.2538930462876731
 40
0.2538930462876731
 40
0.2538930462876731
 10
14.49389787169306
 20
0.0000000000000036
 30
0.0
 41
1.0
 10
14.56112243602844
 20
0.000000000000002
 30
0.0
 41
0.918360064844369
 10
14.6072902781367
 20
0.0488638148853193
 30
0.0
 41
1.0
 10
14.65345812024497
 20
0.0977276297706366
 30
0.0
 41
0.918360064844369
 10
14.64964697230008
 20
0.1648440748599159
 30
0.0
 41
1.0
  0
SPLINE
  5
48
330
1F
100
AcDbEntity
  8
Make2D visible lines
100
AcDbSpline
210
0.0
220
0.0
230
1.0
 70
    12
 71
     2
 72
     6
 73
     3
 74
     0
 42
0.0000000001
 43
0.0000000001
 40
0.0
 40
0.0
 40
0.0
 40
0.0224671519842366
 40
0.0224671519842366
 40
0.0224671519842366
 10
14.63708151444381
 20
0.3860938211857499
 30
0.0
 41
1.0
 10
14.63606474929968
 20
0.4000000000000348
 30
0.0
 41
0.7324347794791691
 10
14.62212144909589
 20
0.4000000000000183
 30
0.0
 41
1.0
  0
SPLINE
  5
49
330
1F
100
AcDbEntity
  8
Make2D visible lines
100
AcDbSpline
210
0.0
220
0.0
230
1.0
 70
    24
 71
     2
 72
     6
 73
     3
 74
     0
 42
0.0000000001
 43
0.0000000001
 40
0.0
 40
0.0
 40
0.0
 40
0.2325105046476637
 40
0.2325105046476637
 40
0.2325105046476637
 10
13.23035013799326
 20
0.1521924194416825
 30
0.0
 10
13.2275097689573
 20
0.2684129683847045
 30
0.0
 10
13.22466939992134
 20
0.3846335173277264
 30
0.0
  0
SPLINE
  5
4A
330
1F
100
AcDbEntity
  8
Make2D visible lines
100
AcDbSpline
210
0.0
220
0.0
230
1.0
 70
    24
 71
     2
 72
     6
 73
     3
 74
     0
 42
0.0000000001
 43
0.0000000001
 40
0.0
 40
0.0
 40
0.0
 40
0.3863627208447955
 40
0.3863627208447955
 40
0.3863627208447955
 10
0.3866568815917333
 20
0.4000000000000166
 30
0.0
 10
0.1934755211693329
 20
0.4000000000000165
 30
0.0
 10
0.0002941607469324
 20
0.4000000000000163
 30
0.0
  0
SPLINE
  5
4B
330
1F
100
AcDbEntity
  8
Make2D visible lines
100
AcDbSpline
210
0.0
220
0.0
230
1.0
 70
    24
 71
     2
 72
     6
 73
     3
 74
     0
 42
0.0000000001
 43
0.0000000001
 40
0.0
 40
0.0
 40
0.0
 40
0.3876534637036499
 40
0.3876534637036499
 40
0.3876534637036499
 10
0.0002938512811141
 20
0.4000000000000163
 30
0.0
 10
-0.1935328805707073
 20
0.4000000000000162
 30
0.0
 10
-0.3873596124225287
 20
0.4000000000000161
 30
0.0
  0
SPLINE
  5
4C
330
1F
100
AcDbEntity
  8
Make2D visible lines
100
AcDbSpline
210
0.0
220
0.0
230
1.0
 70
    12
 71
     2
 72
     8
 73
     5
 74
     0
 42
0.0000000001
 43
0.0000000001
 40
0.0
 40
0.0
 40
0.0
 40
0.1242318577480881
 40
0.1242318577480881
 40
0.2484637154961761
 40
0.2484637154961761
 40
0.2484637154961761
 10
0.4080554297148495
 20
0.1594215907425355
 30
0.0
 41
1.0
 10
0.4094950203687625
 20
0.0938162002370285
 30
0.0
 41
0.9217678869813357
 10
0.3636059281871127
 20
0.0469085153295885
 30
0.0
 41
1.0
 10
0.3177168360054866
 20
0.0000008304221485
 30
0.0
 41
0.9217678869813357
 10
0.2520956528102545
 20
0.0000000000011417
 30
0.0
 41
1.0
  0
SPLINE
  5
4D
330
1F
100
AcDbEntity
  8
Make2D visible lines
100
AcDbSpline
210
0.0
220
0.0
230
1.0
 70
    12
 71
     2
 72
     8
 73
     5
 74
     0
 42
0.0000000001
 43
0.0000000001
 40
0.0
 40
0.0
 40
0.0
 40
0.1240063772075993
 40
0.1240063772075993
 40
0.2480127544151987
 40
0.2480127544151987
 40
0.2480127544151987
 10
-0.2515078876662784
 20
0.000000000001096
 30
0.0
 41
1.0
 10
-0.3169978217205393
 20
-0.0000119099018914
 30
0.0
 41
0.9220189045496352
 10
-0.3628648464669766
 20
0.0467336529376692
 30
0.0
 41
1.0
 10
-0.4087318712134269
 20
0.0934792157772298
 30
0.0
 41
0.9220189045496352
 10
-0.4074775788860592
 20
0.1589571384308644
 30
0.0
 41
1.0
  0
SPLINE
  5
4E
330
1F
100
AcDbEntity
  8
Make2D visible lines
100
AcDbSpline
210
0.0
220
0.0
230
1.0
 70
    12
 71
     2
 72
     6
 73
     3
 74
     0
 42
0.0000000001
 43
0.0000000001
 40
0.0
 40
0.0
 40
0.0
 40
0.2253642768281202
 40
0.2253642768281202
 40
0.2253642768281202
 10
0.4031141277003201
 20
0.385325058594006
 30
0.0
 41
1.0
 10
0.4055732370012987
 20
0.2726697563467351
 30
0.0
 41
0.9999999984988344
 10
0.408044691851984
 20
0.1600147242624911
 30
0.0
 41
1.0
  0
SPLINE
  5
4F
330
1F
100
AcDbEntity
  8
Make2D visible lines
100
AcDbSpline
210
0.0
220
0.0
230
1.0
 70
    12
 71
     2
 72
     6
 73
     3
 74
     0
 42
0.0000000001
 43
0.0000000001
 40
0.0
 40
0.0
 40
0.0
 40
0.2412324278936833
 40
0.2412324278936833
 40
0.2412324278936833
 10
-13.22976252947416
 20
0.1521885802082181
 30
0.0
 41
1.0
 10
-13.23348193826009
 20
-0.0000000000000105
 30
0.0
 41
0.7156927337036098
 10
-13.38571596188001
 20
0.0000000000000034
 30
0.0
 41
1.0
  0
SPLINE
  5
50
330
1F
100
AcDbEntity
  8
Make2D visible lines
100
AcDbSpline
210
0.0
220
0.0
230
1.0
 70
    24
 71
     2
 72
     6
 73
     3
 74
     0
 42
0.0000000001
 43
0.0000000001
 40
0.0
 40
0.0
 40
0.0
 40
1.379419120443295
 40
1.379419120443295
 40
1.379419120443295
 10
-14.62153374674793
 20
0.4000000000000163
 30
0.0
 10
-13.93182418652628
 20
0.4000000000000162
 30
0.0
 10
-13.24211462630463
 20
0.4000000000000161
 30
0.0
  0
SPLINE
  5
52
330
1F
100
AcDbEntity
  8
Make2D visible lines - Tangent
100
AcDbSpline
210
0.0
220
0.0
230
1.0
 70
     8
 71
     3
 72
    54
 73
    50
 74
     0
 42
0.0000000001
 43
0.0000000001
 40
0.0
 40
0.0
 40
0.0
 40
0.0
 40
1.0
 40
2.0
 40
3.0
 40
4.0
 40
5.0
 40
6.0
 40
7.0
 40
8.0
 40
9.0
 40
10.0
 40
11.0
 40
12.0
 40
13.0
 40
14.0
 40
15.0
 40
16.0
 40
17.0
 40
18.0
 40
19.0
 40
20.0
 40
21.0
 40
22.0
 40
23.0
 40
24.0
 40
25.0
 40
26.0
 40
27.0
 40
28.0
 40
29.0
 40
30.0
 40
31.0
 40
32.0
 40
33.0
 40
34.0
 40
35.0
 40
36.0
 40
37.0
 40
38.0
 40
39.0
 40
40.0
 40
41.0
 40
42.0
 40
43.0
 40
44.0
 40
45.0
 40
46.0
 40
47.0
 40
47.0
 40
47.0
 40
47.0
 10
0.3858678902571455
 20
0.403329261439214
 30
0.0
 10
0.4111381696036887
 20
0.471691761030031
 30
0.0
 10
0.3931010539775741
 20
0.6333535261625483
 30
0.0
 10
0.3938721162261345
 20
0.8657327374605353
 30
0.0
 10
0.3872944791000208
 20
1.100824691898526
 30
0.0
 10
0.382500495281306
 20
1.335184942048012
 30
0.0
 10
0.3772141241470734
 20
1.569741898107297
 30
0.0
 10
0.3721035997716626
 20
1.804245165096962
 30
0.0
 10
0.367468581758672
 20
2.038780643129261
 30
0.0
 10
0.3621386993807221
 20
2.27327054669982
 30
0.0
 10
0.3614518649495153
 20
2.50795635439968
 30
0.0
 10
0.3766989381894206
 20
2.742035110000107
 30
0.0
 10
0.401868439816937
 20
2.975291767990851
 30
0.0
 10
0.4264955387601503
 20
3.208581524431251
 30
0.0
 10
0.4507280189665295
 20
3.44180444554645
 30
0.0
 10
0.4812874658335744
 20
3.674811437325082
 30
0.0
 10
0.4876105501600847
 20
3.908675454710889
 30
0.0
 10
0.4730574937128296
 20
4.14316108458999
 30
0.0
 10
0.4625165098498343
 20
4.377402299909646
 30
0.0
 10
0.452154018025368
 20
4.611784456659724
 30
0.0
 10
0.4400479186466697
 20
4.845964675118837
 30
0.0
 10
0.4282979100487978
 20
5.080512320442788
 30
0.0
 10
0.3899550574562198
 20
5.312100872344999
 30
0.0
 10
0.3066582997433045
 20
5.534912960303022
 30
0.0
 10
0.1264489220967278
 20
5.701053020982688
 30
0.0
 10
-0.1287608351388201
 20
5.700046595423096
 30
0.0
 10
-0.3074466101547557
 20
5.532266007601516
 30
0.0
 10
-0.3900818351159216
 20
5.309372210240867
 30
0.0
 10
-0.4279232333023089
 20
5.077673675160892
 30
0.0
 10
-0.4396275057768264
 20
4.843140061617282
 30
0.0
 10
-0.4516578009405663
 20
4.608952622806954
 30
0.0
 10
-0.4621030562798154
 20
4.374572197465292
 30
0.0
 10
-0.4725117164579586
 20
4.140337130437424
 30
0.0
 10
-0.4874609649699408
 20
3.905822607503123
 30
0.0
 10
-0.4796368665638084
 20
3.67206586450394
 30
0.0
 10
-0.4493051562702846
 20
3.439049497872843
 30
0.0
 10
-0.4256597318508
 20
3.205758678338231
 30
0.0
 10
-0.4016628321750062
 20
2.972405099167784
 30
0.0
 10
-0.3762812355491292
 20
2.739167888374083
 30
0.0
 10
-0.3606951745418314
 20
2.505129568181835
 30
0.0
 10
-0.3617190061082596
 20
2.270431807711549
 30
0.0
 10
-0.3668719205141144
 20
2.035943620623493
 30
0.0
 10
-0.3716137938800301
 20
1.801408320125761
 30
0.0
 10
-0.376786259021145
 20
1.566909832637999
 30
0.0
 10
-0.3821276383644658
 20
1.332342661516703
 30
0.0
 10
-0.3865535064490899
 20
1.098016778736779
 30
0.0
 10
-0.3935434205156128
 20
0.8627750502036662
 30
0.0
 10
-0.3918535016338183
 20
0.6309690073439601
 30
0.0
 10
-0.4121658245761637
 20
0.4678802044313225
 30
0.0
 10
-0.3827000039917152
 20
0.4021512543515627
 30
0.0
  0
SPLINE
  5
53
330
1F
100
AcDbEntity
  8
Make2D visible lines
100
AcDbSpline
210
0.0
220
0.0
230
1.0
 70
    12
 71
     2
 72
     6
 73
     3
 74
     0
 42
0.0000000001
 43
0.0000000001
 40
0.0
 40
0.0
 40
0.0
 40
0.2412324278936833
 40
0.2412324278936833
 40
0.2412324278936833
 10
13.23035023182211
 20
0.1521885802082181
 30
0.0
 41
1.0
 10
13.23406964060804
 20
-0.0000000000000105
 30
0.0
 41
0.7156927337036098
 10
13.38630366422797
 20
0.0000000000000034
 30
0.0
 41
1.0
  0
SPLINE
  5
54
330
1F
100
AcDbEntity
  8
Make2D visible lines
100
AcDbSpline
210
0.0
220
0.0
230
1.0
 70
    24
 71
     2
 72
     6
 73
     3
 74
     0
 42
0.0000000001
 43
0.0000000001
 40
0.0
 40
0.0
 40
0.0
 40
0.2325105046476637
 40
0.2325105046476637
 40
0.2325105046476637
 10
-13.2297624356453
 20
0.1521924194416825
 30
0.0
 10
-13.22692206660934
 20
0.2684129683847045
 30
0.0
 10
-13.22408169757338
 20
0.3846335173277264
 30
0.0
  0
SPLINE
  5
55
330
1F
100
AcDbEntity
  8
Make2D visible lines
100
AcDbSpline
210
0.0
220
0.0
230
1.0
 70
    24
 71
     2
 72
     6
 73
     3
 74
     0
 42
0.0000000001
 43
0.0000000001
 40
0.0
 40
0.0
 40
0.0
 40
0.2213623405233084
 40
0.2213623405233084
 40
0.2213623405233084
 10
-14.63650962180631
 20
0.3858503918134666
 30
0.0
 10
-14.64278444587922
 20
0.2753472333366913
 30
0.0
 10
-14.64905926995212
 20
0.164844074859916
 30
0.0
  0
SPLINE
  5
56
330
1F
100
AcDbEntity
  8
Make2D visible lines
100
AcDbSpline
210
0.0
220
0.0
230
1.0
 70
     8
 71
     3
 72
    13
 73
     9
 74
     0
 42
0.0000000001
 43
0.0000000001
 40
-1.83258135608072
 40
-1.83258135608072
 40
-1.83258135608072
 40
-1.83258135608072
 40
-0.750510233115731
 40
-0.5672189493277444
 40
-0.4828690280123605
 40
-0.2443108918713642
 40
-0.1163337939371243
 40
0.0
 40
0.0
 40
0.0
 40
0.0
 10
-13.22299087237529
 20
0.429267031622143
 30
0.0
 10
-13.21504054921931
 20
0.7898405850234216
 30
0.0
 10
-13.20221531540582
 20
1.211528658082631
 30
0.0
 10
-13.19414209441466
 20
1.661268225296924
 30
0.0
 10
-13.18308647556309
 20
1.830020096093349
 30
0.0
 10
-13.10070269464873
 20
1.966768126584214
 30
0.0
 10
-12.96832106639856
 20
2.057218183732865
 30
0.0
 10
-12.88738507239917
 20
2.080693221901958
 30
0.0
 10
-12.84970614882607
 20
2.086000769603414
 30
0.0
  0
SPLINE
  5
57
330
1F
100
AcDbEntity
  8
Make2D visible lines
100
AcDbSpline
210
0.0
220
0.0
230
1.0
 70
    24
 71
     2
 72
     6
 73
     3
 74
     0
 42
0.0000000001
 43
0.0000000001
 40
-10.36850216633574
 40
-10.36850216633574
 40
-10.36850216633574
 40
0.0
 40
0.0
 40
0.0
 10
-12.84970614882607
 20
2.086000769603414
 30
0.0
 10
-7.714706148826075
 20
2.798906298637399
 30
0.0
 10
-2.579706148826077
 20
3.511811827671384
 30
0.0
  0
SPLINE
  5
58
330
1F
100
AcDbEntity
  8
Make2D visible lines
100
AcDbSpline
210
0.0
220
0.0
230
1.0
 70
    12
 71
     3
 72
     8
 73
     4
 74
     0
 42
0.0000000001
 43
0.0000000001
 40
0.0
 40
0.0
 40
0.0
 40
0.0
 40
0.9983344876344831
 40
0.9983344876344831
 40
0.9983344876344831
 40
0.9983344876344831
 10
-2.579706148826077
 20
3.511811827671384
 30
0.0
 41
1.0
 10
-2.12885485825511
 20
3.574404695741988
 30
0.0
 41
1.0
 10
-1.676472082478867
 20
3.64333701932616
 30
0.0
 41
1.0
 10
-1.221809343709253
 20
3.65726383948913
 30
0.0
 41
1.0
  0
SPLINE
  5
59
330
1F
100
AcDbEntity
  8
Make2D visible lines
100
AcDbSpline
210
0.0
220
0.0
230
1.0
 70
     8
 71
     3
 72
     8
 73
     4
 74
     0
 42
0.0000000001
 43
0.0000000001
 40
0.0
 40
0.0
 40
0.0
 40
0.0
 40
0.3051876163662417
 40
0.3051876163662417
 40
0.3051876163662417
 40
0.3051876163662417
 10
-1.221809343709253
 20
3.65726383948913
 30
0.0
 10
-0.9732787360756561
 20
3.664876605573444
 30
0.0
 10
-0.7246414046075387
 20
3.670166049722532
 30
0.0
 10
-0.4759624908902254
 20
3.673132171936395
 30
0.0
  0
SPLINE
  5
5A
330
1F
100
AcDbEntity
  8
Make2D visible lines
100
AcDbSpline
210
0.0
220
0.0
230
1.0
 70
    24
 71
     2
 72
     6
 73
     3
 74
     0
 42
0.0000000001
 43
0.0000000001
 40
0.0
 40
0.0
 40
0.0
 40
0.2517559204860955
 40
0.2517559204860955
 40
0.2517559204860955
 10
0.0002938536723889
 20
0.0000000000000036
 30
0.0
 10
0.1261718139154411
 20
0.0000000000000036
 30
0.0
 10
0.2520497741584933
 20
0.0000000000000036
 30
0.0
  0
SPLINE
  5
5B
330
1F
100
AcDbEntity
  8
Make2D visible lines
100
AcDbSpline
210
0.0
220
0.0
230
1.0
 70
    12
 71
     2
 72
     6
 73
     3
 74
     0
 42
0.0000000001
 43
0.0000000001
 40
0.0
 40
0.0
 40
0.0
 40
0.0224671519842366
 40
0.0224671519842366
 40
0.0224671519842366
 10
-14.63649381209585
 20
0.3860938211857499
 30
0.0
 41
1.0
 10
-14.63547704695172
 20
0.4000000000000348
 30
0.0
 41
0.7324347794791691
 10
-14.62153374674793
 20
0.4000000000000183
 30
0.0
 41
1.0
  0
SPLINE
  5
5C
330
1F
100
AcDbEntity
  8
Make2D visible lines
100
AcDbSpline
210
0.0
220
0.0
230
1.0
 70
    12
 71
     2
 72
     6
 73
     3
 74
     0
 42
0.0000000001
 43
0.0000000001
 40
-0.0352706514985427
 40
-0.0352706514985427
 40
-0.0352706514985427
 40
0.0
 40
0.0
 40
0.0
 10
-13.24211462630467
 20
0.4020374895150737
 30
0.0
 41
1.0
 10
-13.22347935027843
 20
0.4092798636229074
 30
0.0
 41
0.8321381552760684
 10
-13.22299087237529
 20
0.429267031622143
 30
0.0
 41
1.0
  0
SPLINE
  5
5D
330
1F
100
AcDbEntity
  8
Make2D visible lines
100
AcDbSpline
210
0.0
220
0.0
230
1.0
 70
    24
 71
     2
 72
     6
 73
     3
 74
     0
 42
0.0000000001
 43
0.0000000001
 40
0.0
 40
0.0
 40
0.0
 40
1.379419120443295
 40
1.379419120443295
 40
1.379419120443295
 10
14.62212144909589
 20
0.4000000000000163
 30
0.0
 10
13.93241188887423
 20
0.4000000000000162
 30
0.0
 10
13.24270232865258
 20
0.4000000000000161
 30
0.0
  0
SPLINE
  5
5E
330
1F
100
AcDbEntity
  8
Make2D visible lines
100
AcDbSpline
210
0.0
220
0.0
230
1.0
 70
    12
 71
     2
 72
     6
 73
     3
 74
     0
 42
0.0000000001
 43
0.0000000001
 40
-0.0352706514985427
 40
-0.0352706514985427
 40
-0.0352706514985427
 40
0.0
 40
0.0
 40
0.0
 10
13.24270232865263
 20
0.4020374895150737
 30
0.0
 41
1.0
 10
13.22406705262639
 20
0.4092798636229074
 30
0.0
 41
0.8321381552760684
 10
13.22357857472325
 20
0.429267031622143
 30
0.0
 41
1.0
  0
SPLINE
  5
5F
330
1F
100
AcDbEntity
  8
Make2D visible lines
100
AcDbSpline
210
0.0
220
0.0
230
1.0
 70
    12
 71
     2
 72
     8
 73
     5
 74
     0
 42
0.0000000001
 43
0.0000000001
 40
0.0
 40
0.0
 40
0.0
 40
0.0119642320224294
 40
0.0119642320224294
 40
0.0239284640448587
 40
0.0239284640448587
 40
0.0239284640448587
 10
-13.23907721992012
 20
0.4000000000000163
 30
0.0
 41
1.0
 10
-13.23275639185313
 20
0.4000000000000209
 30
0.0
 41
0.9215246294676533
 10
-13.22834182891455
 20
0.3954762292814858
 30
0.0
 41
1.0
 10
-13.22392726597599
 20
0.3909524585629509
 30
0.0
 41
0.9215246294676533
 10
-13.22408169757338
 20
0.3846335173277264
 30
0.0
 41
1.0
  0
SPLINE
  5
60
330
1F
100
AcDbEntity
  8
Make2D visible lines
100
AcDbSpline
210
0.0
220
0.0
230
1.0
 70
    12
 71
     2
 72
     6
 73
     3
 74
     0
 42
0.0000000001
 43
0.0000000001
 40
-0.0371380794388858
 40
-0.0371380794388858
 40
-0.0371380794388858
 40
0.0
 40
0.0
 40
0.0
 10
14.61593743107272
 20
0.4022441987256987
 30
0.0
 41
1.0
 10
14.63570933618983
 20
0.4103542426935238
 30
0.0
 41
0.8144776561050845
 10
14.63450486416701
 20
0.4316908378358253
 30
0.0
 41
1.0
  0
SPLINE
  5
61
330
1F
100
AcDbEntity
  8
Make2D visible lines
100
AcDbSpline
210
0.0
220
0.0
230
1.0
 70
     8
 71
     3
 72
    12
 73
     8
 74
     0
 42
0.0000000001
 43
0.0000000001
 40
0.0
 40
0.0
 40
0.0
 40
0.0
 40
2.024931116884056
 40
2.121300252943487
 40
2.208073208949396
 40
2.641991453438839
 40
3.085460819895622
 40
3.085460819895622
 40
3.085460819895622
 40
3.085460819895622
 10
14.63450486416701
 20
0.4316908378358253
 30
0.0
 10
14.5958009921666
 20
1.105574847750693
 30
0.0
 10
14.55749833250249
 20
1.811593362411049
 30
0.0
 10
14.51467636570618
 20
2.546414843142783
 30
0.0
 10
14.46984214687032
 20
2.747953191239763
 30
0.0
 10
14.30128347127535
 20
3.034556781920432
 30
0.0
 10
14.03061812476079
 20
3.175838551528641
 30
0.0
 10
13.88629385117393
 20
3.205665827232744
 30
0.0
  0
SPLINE
  5
62
330
1F
100
AcDbEntity
  8
Make2D visible lines
100
AcDbSpline
210
0.0
220
0.0
230
1.0
 70
    24
 71
     2
 72
     6
 73
     3
 74
     0
 42
0.0000000001
 43
0.0000000001
 40
-12.2902709571203
 40
-12.2902709571203
 40
-12.2902709571203
 40
0.0
 40
0.0
 40
0.0
 10
13.88629385117393
 20
3.205665827232744
 30
0.0
 10
7.868293851173924
 20
4.449195501128249
 30
0.0
 10
1.850293851173916
 20
5.692725175023753
 30
0.0
  0
SPLINE
  5
63
330
1F
100
AcDbEntity
  8
Make2D visible lines
100
AcDbSpline
210
0.0
220
0.0
230
1.0
 70
    12
 71
     3
 72
    11
 73
     7
 74
     0
 42
0.0000000001
 43
0.0000000001
 40
0.0
 40
0.0
 40
0.0
 40
0.0
 40
0.2500000000000077
 40
0.500000000000056
 40
0.7500000000001044
 40
0.9903549301730069
 40
0.9903549301730069
 40
0.9903549301730069
 40
0.9903549301730069
 10
1.850293851173916
 20
5.692725175023753
 30
0.0
 41
1.0
 10
1.777826110201786
 20
5.707699549616471
 30
0.0
 41
1.0
 10
1.636178649524055
 20
5.771964450750453
 30
0.0
 41
1.0
 10
1.455330597599158
 20
5.941965920377697
 30
0.0
 41
1.0
 10
1.329503982597103
 20
6.15347175039408
 30
0.0
 41
1.0
 10
1.294346165788923
 20
6.303120864095799
 30
0.0
 41
1.0
 10
1.291800963493813
 20
6.378712134379271
 30
0.0
 41
1.0
  0
SPLINE
  5
64
330
1F
100
AcDbEntity
  8
Make2D visible lines
100
AcDbSpline
210
0.0
220
0.0
230
1.0
 70
    24
 71
     2
 72
     6
 73
     3
 74
     0
 42
0.0000000001
 43
0.0000000001
 40
0.0
 40
0.0
 40
0.0
 40
0.080013140622857
 40
0.080013140622857
 40
0.080013140622857
 10
1.291800963493813
 20
6.378712134379271
 30
0.0
 10
1.29104740733392
 20
6.420856067189643
 30
0.0
 10
1.290293851174027
 20
6.463000000000015
 30
0.0
  0
SPLINE
  5
65
330
1F
100
AcDbEntity
  8
Make2D visible lines
100
AcDbSpline
210
0.0
220
0.0
230
1.0
 70
    24
 71
     2
 72
     6
 73
     3
 74
     0
 42
0.0000000001
 43
0.0000000001
 40
0.0
 40
0.0
 40
0.0
 40
1.290000000000045
 40
1.290000000000045
 40
1.290000000000045
 10
1.290293851174027
 20
6.463000000000015
 30
0.0
 10
0.645293851174003
 20
6.463000000000015
 30
0.0
 10
0.0002938511739785
 20
6.463000000000015
 30
0.0
  0
SPLINE
  5
66
330
1F
100
AcDbEntity
  8
Make2D visible lines
100
AcDbSpline
210
0.0
220
0.0
230
1.0
 70
    24
 71
     2
 72
     6
 73
     3
 74
     0
 42
0.0000000001
 43
0.0000000001
 40
0.0
 40
0.0
 40
0.0
 40
1.289412297652113
 40
1.289412297652113
 40
1.289412297652113
 10
0.0002938511739785
 20
6.463000000000015
 30
0.0
 10
-0.6445592232390638
 20
6.463000000000015
 30
0.0
 10
-1.289412297652106
 20
6.463000000000015
 30
0.0
  0
SPLINE
  5
67
330
1F
100
AcDbEntity
  8
Make2D visible lines
100
AcDbSpline
210
0.0
220
0.0
230
1.0
 70
    24
 71
     2
 72
     6
 73
     3
 74
     0
 42
0.0000000001
 43
0.0000000001
 40
-0.080013140622857
 40
-0.080013140622857
 40
-0.080013140622857
 40
0.0
 40
0.0
 40
0.0
 10
-1.289412297652106
 20
6.463000000000015
 30
0.0
 10
-1.290312779398981
 20
6.420856067189643
 30
0.0
 10
-1.291213261145856
 20
6.378712134379271
 30
0.0
  0
SPLINE
  5
68
330
1F
100
AcDbEntity
  8
Make2D visible lines
100
AcDbSpline
210
0.0
220
0.0
230
1.0
 70
    12
 71
     3
 72
    11
 73
     7
 74
     0
 42
0.0000000001
 43
0.0000000001
 40
-0.9903549301730069
 40
-0.9903549301730069
 40
-0.9903549301730069
 40
-0.9903549301730069
 40
-0.7500000000001044
 40
-0.500000000000056
 40
-0.2500000000000077
 40
0.0
 40
0.0
 40
0.0
 40
0.0
 10
-1.291213261145856
 20
6.378712134379271
 30
0.0
 41
1.0
 10
-1.293758463440966
 20
6.303120864095799
 30
0.0
 41
1.0
 10
-1.328916280249146
 20
6.15347175039408
 30
0.0
 41
1.0
 10
-1.454742895251201
 20
5.941965920377697
 30
0.0
 41
1.0
 10
-1.635590947176098
 20
5.771964450750453
 30
0.0
 41
1.0
 10
-1.777238407853829
 20
5.707699549616471
 30
0.0
 41
1.0
 10
-1.849706148825959
 20
5.692725175023753
 30
0.0
 41
1.0
  0
SPLINE
  5
69
330
1F
100
AcDbEntity
  8
Make2D visible lines
100
AcDbSpline
210
0.0
220
0.0
230
1.0
 70
    24
 71
     2
 72
     6
 73
     3
 74
     0
 42
0.0000000001
 43
0.0000000001
 40
0.0
 40
0.0
 40
0.0
 40
12.2902709571203
 40
12.2902709571203
 40
12.2902709571203
 10
-1.849706148825959
 20
5.692725175023753
 30
0.0
 10
-7.867706148825967
 20
4.449195501128249
 30
0.0
 10
-13.88570614882597
 20
3.205665827232744
 30
0.0
  0
SPLINE
  5
6A
330
1F
100
AcDbEntity
  8
Make2D visible lines
100
AcDbSpline
210
0.0
220
0.0
230
1.0
 70
     8
 71
     3
 72
    12
 73
     8
 74
     0
 42
0.0000000001
 43
0.0000000001
 40
-3.085460819895622
 40
-3.085460819895622
 40
-3.085460819895622
 40
-3.085460819895622
 40
-2.641991453438839
 40
-2.208073208949396
 40
-2.121300252943487
 40
-2.024931116884056
 40
0.0
 40
0.0
 40
0.0
 40
0.0
 10
-13.88570614882597
 20
3.205665827232744
 30
0.0
 10
-14.03003042241284
 20
3.175838551528641
 30
0.0
 10
-14.3006957689274
 20
3.034556781920432
 30
0.0
 10
-14.46925444452236
 20
2.747953191239763
 30
0.0
 10
-14.51408866335822
 20
2.546414843142783
 30
0.0
 10
-14.55691063015453
 20
1.811593362411049
 30
0.0
 10
-14.59521328981864
 20
1.105574847750693
 30
0.0
 10
-14.63391716181906
 20
0.4316908378358253
 30
0.0
  0
SPLINE
  5
6B
330
1F
100
AcDbEntity
  8
Make2D visible lines
100
AcDbSpline
210
0.0
220
0.0
230
1.0
 70
    12
 71
     2
 72
     6
 73
     3
 74
     0
 42
0.0000000001
 43
0.0000000001
 40
0.0
 40
0.0
 40
0.0
 40
0.0371380794388858
 40
0.0371380794388858
 40
0.0371380794388858
 10
-14.63391716181906
 20
0.4316908378358253
 30
0.0
 41
1.0
 10
-14.63512163384188
 20
0.4103542426935238
 30
0.0
 41
0.8144776561050845
 10
-14.61534972872477
 20
0.4022441987256987
 30
0.0
 41
1.0
  0
SPLINE
  5
6C
330
1F
100
AcDbEntity
  8
Make2D visible lines
100
AcDbSpline
210
0.0
220
0.0
230
1.0
 70
     8
 71
     3
 72
     8
 73
     4
 74
     0
 42
0.0000000001
 43
0.0000000001
 40
0.6950384688492743
 40
0.6950384688492743
 40
0.6950384688492743
 40
0.6950384688492743
 40
1.0
 40
1.0
 40
1.0
 40
1.0
 10
0.477102862637139
 20
3.673125576136301
 30
0.0
 10
0.7255974915996859
 20
3.670158211529776
 30
0.0
 10
0.9740505517131908
 20
3.664870965980719
 30
0.0
 10
1.22239704605721
 20
3.65726383948913
 30
0.0
  0
SPLINE
  5
6D
330
1F
100
AcDbEntity
  8
Make2D visible lines
100
AcDbSpline
210
0.0
220
0.0
230
1.0
 70
    12
 71
     3
 72
     8
 73
     4
 74
     0
 42
0.0000000001
 43
0.0000000001
 40
-0.9983344876344831
 40
-0.9983344876344831
 40
-0.9983344876344831
 40
-0.9983344876344831
 40
0.0
 40
0.0
 40
0.0
 40
0.0
 10
1.22239704605721
 20
3.65726383948913
 30
0.0
 41
1.0
 10
1.677059784826824
 20
3.64333701932616
 30
0.0
 41
1.0
 10
2.129442560603067
 20
3.574404695741988
 30
0.0
 41
1.0
 10
2.580293851174034
 20
3.511811827671384
 30
0.0
 41
1.0
  0
SPLINE
  5
6E
330
1F
100
AcDbEntity
  8
Make2D visible lines
100
AcDbSpline
210
0.0
220
0.0
230
1.0
 70
    24
 71
     2
 72
     6
 73
     3
 74
     0
 42
0.0000000001
 43
0.0000000001
 40
0.0
 40
0.0
 40
0.0
 40
10.36850216633574
 40
10.36850216633574
 40
10.36850216633574
 10
2.580293851174034
 20
3.511811827671384
 30
0.0
 10
7.715293851174032
 20
2.798906298637399
 30
0.0
 10
12.85029385117403
 20
2.086000769603414
 30
0.0
  0
SPLINE
  5
6F
330
1F
100
AcDbEntity
  8
Make2D visible lines
100
AcDbSpline
210
0.0
220
0.0
230
1.0
 70
     8
 71
     3
 72
    13
 73
     9
 74
     0
 42
0.0000000001
 43
0.0000000001
 40
0.0
 40
0.0
 40
0.0
 40
0.0
 40
0.1163337939371243
 40
0.2443108918713642
 40
0.4828690280123605
 40
0.5672189493277444
 40
0.750510233115731
 40
1.83258135608072
 40
1.83258135608072
 40
1.83258135608072
 40
1.83258135608072
 10
12.85029385117403
 20
2.086000769603414
 30
0.0
 10
12.88797277474713
 20
2.080693221901958
 30
0.0
 10
12.96890876874652
 20
2.057218183732865
 30
0.0
 10
13.10129039699669
 20
1.966768126584214
 30
0.0
 10
13.18367417791104
 20
1.830020096093349
 30
0.0
 10
13.19472979676262
 20
1.661268225296924
 30
0.0
 10
13.20280301775378
 20
1.211528658082631
 30
0.0
 10
13.21562825156727
 20
0.7898405850234216
 30
0.0
 10
13.22357857472325
 20
0.429267031622143
 30
0.0
  0
SPLINE
  5
70
330
1F
100
AcDbEntity
  8
Make2D visible lines
100
AcDbSpline
210
0.0
220
0.0
230
1.0
 70
    12
 71
     2
 72
     8
 73
     5
 74
     0
 42
0.0000000001
 43
0.0000000001
 40
0.0
 40
0.0
 40
0.0
 40
0.1269465231438366
 40
0.1269465231438366
 40
0.2538930462876731
 40
0.2538930462876731
 40
0.2538930462876731
 10
-14.49331016934511
 20
0.0000000000000036
 30
0.0
 41
1.0
 10
-14.56053473368049
 20
0.000000000000002
 30
0.0
 41
0.918360064844369
 10
-14.60670257578874
 20
0.0488638148853193
 30
0.0
 41
1.0
 10
-14.65287041789701
 20
0.0977276297706366
 30
0.0
 41
0.918360064844369
 10
-14.64905926995212
 20
0.1648440748599159
 30
0.0
 41
1.0
  0
SPLINE
  5
71
330
1F
100
AcDbEntity
  8
Make2D visible lines
100
AcDbSpline
210
0.0
220
0.0
230
1.0
 70
    24
 71
     2
 72
     6
 73
     3
 74
     0
 42
0.0000000001
 43
0.0000000001
 40
0.0
 40
0.0
 40
0.0
 40
1.107594207465098
 40
1.107594207465098
 40
1.107594207465098
 10
-13.38571596188002
 20
0.0000000000000036
 30
0.0
 10
-13.93951306561257
 20
0.0000000000000036
 30
0.0
 10
-14.49331016934512
 20
0.0000000000000036
 30
0.0
  0
LINE
  5
72
330
1F
100
AcDbEntity
  8
Make2D visible lines
100
AcDbLine
 10
-8.822490348350925
 20
24.77164434775384
 30
0.0
 11
-9.983952127963931
 21
24.61690727857422
 31
0.0
  0
POLYLINE
  5
73
330
1F
100
AcDbEntity
  8
Make2D visible lines
100
AcDb2dPolyline
 66
     1
 10
0.0
 20
0.0
 30
0.0
  0
VERTEX
  5
74
330
73
100
AcDbEntity
  8
Make2D visible lines
100
AcDbVertex
100
AcDb2dVertex
 10
-9.983952127963931
 20
24.61690727857422
 30
0.0
  0
VERTEX
  5
75
330
73
100
AcDbEntity
  8
Make2D visible lines
100
AcDbVertex
100
AcDb2dVertex
 10
-23.3589521279639
 20
24.61690727857422
 30
0.0
  0
SEQEND
  5
76
330
73
100
AcDbEntity
  8
Make2D visible lines
  0
LINE
  5
77
330
1F
100
AcDbEntity
  8
Make2D visible lines
100
AcDbLine
 10
-23.3589521279639
 20
24.61690727857422
 30
0.0
 11
-24.52041390757691
 21
24.77164434775384
 31
0.0
  0
POLYLINE
  5
79
330
1F
100
AcDbEntity
  8
Default
100
AcDb2dPolyline
 66
     1
 10
0.0
 20
0.0
 30
0.0
  0
VERTEX
  5
7A
330
79
100
AcDbEntity
  8
Default
100
AcDbVertex
100
AcDb2dVertex
 10
-8.822490348350925
 20
24.77164434775382
 30
0.0
  0
VERTEX
  5
7B
330
79
100
AcDbEntity
  8
Default
100
AcDbVertex
100
AcDb2dVertex
 10
-24.52041390757691
 20
24.77164434775381
 30
0.0
  0
SEQEND
  5
7C
330
79
100
AcDbEntity
  8
Default
  0
SPLINE
  5
7D
330
1F
100
AcDbEntity
  8
Default
100
AcDbSpline
210
0.0
220
0.0
230
1.0
 70
    12
 71
     2
 72
     6
 73
     3
 74
     0
 42
0.0000000001
 43
0.0000000001
 40
0.0
 40
0.0
 40
0.0
 40
0.0431172320695658
 40
0.0431172320695658
 40
0.0431172320695658
 10
-24.52041390757691
 20
24.77164434775381
 30
0.0
 41
1.0
 10
-24.54637059613556
 20
24.77518470937582
 30
0.0
 41
0.754396026161636
 10
-24.5464521279639
 20
24.80138160220506
 30
0.0
 41
1.0
  0
SPLINE
  5
7E
330
1F
100
AcDbEntity
  8
Default
100
AcDbSpline
210
0.0
220
0.0
230
1.0
 70
    24
 71
     2
 72
     6
 73
     3
 74
     0
 42
0.0000000001
 43
0.0000000001
 40
0.0
 40
0.0
 40
0.0
 40
0.1037317171327032
 40
0.1037317171327032
 40
0.1037317171327032
 10
-24.5464521279639
 20
24.80138160220506
 30
0.0
 10
-24.5464521279639
 20
24.85324746077141
 30
0.0
 10
-24.5464521279639
 20
24.90511331933776
 30
0.0
  0
SPLINE
  5
7F
330
1F
100
AcDbEntity
  8
Default
100
AcDbSpline
210
0.0
220
0.0
230
1.0
 70
    12
 71
     2
 72
     6
 73
     3
 74
     0
 42
0.0000000001
 43
0.0000000001
 40
0.0
 40
0.0
 40
0.0
 40
0.0470942880630165
 40
0.0470942880630165
 40
0.0470942880630165
 10
-24.5464521279639
 20
24.90511331933776
 30
0.0
 41
1.0
 10
-24.54638382905985
 20
24.93504474461771
 30
0.0
 41
0.7087216954127066
 10
-24.51645240441056
 20
24.9351133193365
 30
0.0
 41
1.0
  0
POLYLINE
  5
80
330
1F
100
AcDbEntity
  8
Default
100
AcDb2dPolyline
 66
     1
 10
0.0
 20
0.0
 30
0.0
  0
VERTEX
  5
81
330
80
100
AcDbEntity
  8
Default
100
AcDbVertex
100
AcDb2dVertex
 10
-24.51645240441056
 20
24.9351133193365
 30
0.0
  0
VERTEX
  5
82
330
80
100
AcDbEntity
  8
Default
100
AcDbVertex
100
AcDb2dVertex
 10
-8.826451851517277
 20
24.93511331933649
 30
0.0
  0
SEQEND
  5
83
330
80
100
AcDbEntity
  8
Default
  0
SPLINE
  5
84
330
1F
100
AcDbEntity
  8
Default
100
AcDbSpline
210
0.0
220
0.0
230
1.0
 70
    12
 71
     2
 72
     6
 73
     3
 74
     0
 42
0.0000000001
 43
0.0000000001
 40
0.0
 40
0.0
 40
0.0
 40
0.0470830900804005
 40
0.0470830900804005
 40
0.0470830900804005
 10
-8.826451851517277
 20
24.93511331933649
 30
0.0
 41
1.0
 10
-8.79654649345976
 20
24.93501867826612
 30
0.0
 41
0.709337752437847
 10
-8.796452127963917
 20
24.90511331933776
 30
0.0
 41
1.0
  0
SPLINE
  5
85
330
1F
100
AcDbEntity
  8
Default
100
AcDbSpline
210
0.0
220
0.0
230
1.0
 70
    24
 71
     2
 72
     6
 73
     3
 74
     0
 42
0.0000000001
 43
0.0000000001
 40
0.0
 40
0.0
 40
0.0
 40
0.1037317171327068
 40
0.1037317171327068
 40
0.1037317171327068
 10
-8.796452127963917
 20
24.90511331933777
 30
0.0
 10
-8.796452127963917
 20
24.85324746077141
 30
0.0
 10
-8.796452127963917
 20
24.80138160220506
 30
0.0
  0
SPLINE
  5
86
330
1F
100
AcDbEntity
  8
Default
100
AcDbSpline
210
0.0
220
0.0
230
1.0
 70
    12
 71
     2
 72
     6
 73
     3
 74
     0
 42
0.0000000001
 43
0.0000000001
 40
0.0
 40
0.0
 40
0.0
 40
0.0431192810070287
 40
0.0431192810070287
 40
0.0431192810070287
 10
-8.796452127963917
 20
24.80138160220506
 30
0.0
 41
1.0
 10
-8.796528638862332
 20
24.77518031300222
 30
0.0
 41
0.7542698814906877
 10
-8.822490348350925
 20
24.77164434775382
 30
0.0
 41
1.0
  0
SPLINE
  5
87
330
1F
100
AcDbEntity
  8
Default
100
AcDbSpline
210
0.0
220
0.0
230
1.0
 70
    24
 71
     2
 72
     6
 73
     3
 74
     0
 42
0.0000000001
 43
0.0000000001
 40
0.0
 40
0.0
 40
0.0
 40
0.4856498277096888
 40
0.4856498277096888
 40
0.4856498277096888
 10
-9.624993309876375
 20
15.18099687487402
 30
0.0
 10
-9.623210319527969
 20
15.44795272694132
 30
0.0
 10
-9.621427329179562
 20
15.71490857900861
 30
0.0
  0
SPLINE
  5
88
330
1F
100
AcDbEntity
  8
Default
100
AcDbSpline
210
0.0
220
0.0
230
1.0
 70
     8
 71
     3
 72
    12
 73
     8
 74
     0
 42
0.0000000001
 43
0.0000000001
 40
-1.720214381111756
 40
-1.720214381111756
 40
-1.720214381111756
 40
-1.720214381111756
 40
-1.482822203410309
 40
-1.179337141630985
 40
-0.6967675392865215
 40
-0.3758833544094314
 40
0.0
 40
0.0
 40
0.0
 40
0.0
 10
-9.621427329179562
 20
15.71490857900861
 30
0.0
 10
-9.611323934152997
 20
15.79407389306138
 30
0.0
 10
-9.512790473526826
 20
15.95638324446623
 30
0.0
 10
-9.204224857354143
 20
16.11509646881025
 30
0.0
 10
-8.848528353069655
 20
16.21116755040508
 30
0.0
 10
-8.463064248171577
 20
16.29226763958974
 30
0.0
 10
-8.234295257469666
 20
16.3294957144707
 30
0.0
 10
-8.110341141780179
 20
16.34909870853192
 30
0.0
  0
SPLINE
  5
89
330
1F
100
AcDbEntity
  8
Default
100
AcDbSpline
210
0.0
220
0.0
230
1.0
 70
    12
 71
     3
 72
    12
 73
     8
 74
     0
 42
0.0000000001
 43
0.0000000001
 40
-0.6640119920747329
 40
-0.6640119920747329
 40
-0.6640119920747329
 40
-0.6640119920747329
 40
-0.5000000008353003
 40
-0.5000000008353003
 40
-0.2500000004176502
 40
-0.2500000004176502
 40
-0.000000020861917
 40
-0.000000020861917
 40
-0.000000020861917
 40
-0.000000020861917
 10
-8.110341141780179
 20
16.34909870853192
 30
0.0
 41
1.0
 10
-7.696178675953282
 20
16.41312081332791
 30
0.0
 41
1.0
 10
-7.19275651018704
 20
16.47212745178629
 30
0.0
 41
1.0
 10
-5.739844429351672
 20
16.60339598360194
 30
0.0
 41
1.0
 10
-4.695881372966747
 20
16.66630345748367
 30
0.0
 41
1.0
 10
-2.434270817672484
 20
16.75104833163387
 30
0.0
 41
1.0
 10
-1.216609737867254
 20
16.77293341542655
 30
0.0
 41
1.0
 10
0.0
 20
16.77293201033059
 30
0.0
 41
1.0
  0
SPLINE
  5
8A
330
1F
100
AcDbEntity
  8
Default
100
AcDbSpline
210
0.0
220
0.0
230
1.0
 70
    12
 71
     3
 72
    12
 73
     8
 74
     0
 42
0.0000000001
 43
0.0000000001
 40
0.000000020861917
 40
0.000000020861917
 40
0.000000020861917
 40
0.000000020861917
 40
0.2500000004176502
 40
0.2500000004176502
 40
0.5000000008353003
 40
0.5000000008353003
 40
0.6640119920747329
 40
0.6640119920747329
 40
0.6640119920747329
 40
0.6640119920747329
 10
0.0
 20
16.77293201033059
 30
0.0
 41
1.0
 10
1.216609737867254
 20
16.77293341542655
 30
0.0
 41
1.0
 10
2.434270817672484
 20
16.75104833163387
 30
0.0
 41
1.0
 10
4.695881372966747
 20
16.66630345748367
 30
0.0
 41
1.0
 10
5.739844429351672
 20
16.60339598360194
 30
0.0
 41
1.0
 10
7.19275651018704
 20
16.47212745178629
 30
0.0
 41
1.0
 10
7.696178675953282
 20
16.41312081332791
 30
0.0
 41
1.0
 10
8.110341141780179
 20
16.34909870853192
 30
0.0
 41
1.0
  0
SPLINE
  5
8B
330
1F
100
AcDbEntity
  8
Default
100
AcDbSpline
210
0.0
220
0.0
230
1.0
 70
     8
 71
     3
 72
    12
 73
     8
 74
     0
 42
0.0000000001
 43
0.0000000001
 40
0.0
 40
0.0
 40
0.0
 40
0.0
 40
0.3758833544094314
 40
0.6967675392865215
 40
1.179337141630985
 40
1.482822203410309
 40
1.720214381111756
 40
1.720214381111756
 40
1.720214381111756
 40
1.720214381111756
 10
8.110341141780179
 20
16.34909870853192
 30
0.0
 10
8.234295257469666
 20
16.3294957144707
 30
0.0
 10
8.463064248171577
 20
16.29226763958974
 30
0.0
 10
8.848528353069655
 20
16.21116755040508
 30
0.0
 10
9.204224857354143
 20
16.11509646881025
 30
0.0
 10
9.512790473526826
 20
15.95638324446623
 30
0.0
 10
9.611323934152997
 20
15.79407389306138
 30
0.0
 10
9.621427329179562
 20
15.71490857900861
 30
0.0
  0
SPLINE
  5
8C
330
1F
100
AcDbEntity
  8
Default
100
AcDbSpline
210
0.0
220
0.0
230
1.0
 70
    24
 71
     2
 72
     6
 73
     3
 74
     0
 42
0.0000000001
 43
0.0000000001
 40
-0.4856498277096888
 40
-0.4856498277096888
 40
-0.4856498277096888
 40
0.0
 40
0.0
 40
0.0
 10
9.621427329179562
 20
15.71490857900861
 30
0.0
 10
9.623210319527969
 20
15.44795272694132
 30
0.0
 10
9.624993309876375
 20
15.18099687487402
 30
0.0
  0
SPLINE
  5
8D
330
1F
100
AcDbEntity
  8
Default
100
AcDbSpline
210
0.0
220
0.0
230
1.0
 70
     8
 71
     3
 72
    24
 73
    20
 74
     0
 42
0.0000000001
 43
0.0000000001
 40
-17.0
 40
-17.0
 40
-17.0
 40
-17.0
 40
-15.99999503831422
 40
-14.99999007662845
 40
-13.99998511494267
 40
-12.9999801532569
 40
-11.99997519157112
 40
-10.99997022988535
 40
-9.999965268199569
 40
-8.999960306513794
 40
-7.999955344828018
 40
-6.999950383142242
 40
-5.999945421456466
 40
-4.99994045977069
 40
-3.999935498084914
 40
-2.999930536399139
 40
-1.999925574713363
 40
-0.9999206130275872
 40
0.0
 40
0.0
 40
0.0
 40
0.0
 10
-10.77000079585685
 20
18.61979322967619
 30
0.0
 10
-10.79220483068231
 20
18.47755383548103
 30
0.0
 10
-10.84277508271578
 20
18.19404418845419
 30
0.0
 10
-10.93355952296308
 20
17.77178467170422
 30
0.0
 10
-11.03649984412718
 20
17.35219208703511
 30
0.0
 10
-11.14724148772615
 20
16.93520181598925
 30
0.0
 10
-11.26036030806843
 20
16.51665839486297
 30
0.0
 10
-11.34753290394163
 20
16.09949379126403
 30
0.0
 10
-11.38593389096562
 20
15.64578937391435
 30
0.0
 10
-11.08527146730168
 20
15.29458780047081
 30
0.0
 10
-10.6386233901275
 20
15.24283434085031
 30
0.0
 10
-10.21394584646875
 20
15.19674767231772
 30
0.0
 10
-9.78072814735198
 20
15.183228554879
 30
0.0
 10
-9.349286093318248
 20
15.17673214920345
 30
0.0
 10
-8.917282704527004
 20
15.17931223749144
 30
0.0
 10
-8.485460841551111
 20
15.18451653042981
 30
0.0
 10
-8.053633505578937
 20
15.19216715118546
 30
0.0
 10
-7.621854781845875
 20
15.20105261547014
 30
0.0
 10
-7.334008185543743
 20
15.2071788625535
 30
0.0
 10
-7.190089762725695
 20
15.21016391691711
 30
0.0
  0
SPLINE
  5
8E
330
1F
100
AcDbEntity
  8
Default
100
AcDbSpline
210
0.0
220
0.0
230
1.0
 70
     8
 71
     3
 72
    11
 73
     7
 74
     0
 42
0.0000000001
 43
0.0000000001
 40
0.0
 40
0.0
 40
0.0
 40
0.0
 40
1.468805984317369
 40
3.119226025440186
 40
7.305246808252567
 40
14.38113980964615
 40
14.38113980964615
 40
14.38113980964615
 40
14.38113980964615
 10
-7.190089762725695
 20
15.21016391691711
 30
0.0
 10
-6.700629134352771
 20
15.22236770476943
 30
0.0
 10
-5.661131818580204
 20
15.24360067328055
 30
0.0
 10
-3.226141439707986
 20
15.27230456207691
 30
0.0
 10
1.077892075699229
 20
15.27575562272849
 30
0.0
 10
4.832029175664239
 20
15.26943846181482
 30
0.0
 10
7.19005528367714
 20
15.21016471757842
 30
0.0
  0
SPLINE
  5
8F
330
1F
100
AcDbEntity
  8
Default
100
AcDbSpline
210
0.0
220
0.0
230
1.0
 70
     8
 71
     3
 72
    24
 73
    20
 74
     0
 42
0.0000000001
 43
0.0000000001
 40
0.0
 40
0.0
 40
0.0
 40
0.0
 40
0.9999957712122703
 40
1.999996035511503
 40
2.999996299810737
 40
3.99999656410997
 40
4.999996828409203
 40
5.999997092708436
 40
6.999997357007669
 40
7.999997621306902
 40
8.999997885606135
 40
9.999998149905368
 40
10.9999984142046
 40
11.99999867850383
 40
12.99999894280307
 40
13.9999992071023
 40
14.99999947140153
 40
15.99999973570077
 40
17.0
 40
17.0
 40
17.0
 40
17.0
 10
7.19005528367714
 20
15.21016471757842
 30
0.0
 10
7.333985198540041
 20
15.20717935178686
 30
0.0
 10
7.621843288270576
 20
15.2010528519935
 30
0.0
 10
8.053633505578937
 20
15.19216715118546
 30
0.0
 10
8.485460841551111
 20
15.18451653042981
 30
0.0
 10
8.917282704527004
 20
15.17931223749144
 30
0.0
 10
9.349286093318248
 20
15.17673214920345
 30
0.0
 10
9.78072814735198
 20
15.183228554879
 30
0.0
 10
10.21394584646875
 20
15.19674767231772
 30
0.0
 10
10.6386233901275
 20
15.24283434085031
 30
0.0
 10
11.08527146730168
 20
15.29458780047081
 30
0.0
 10
11.38593389096562
 20
15.64578937391435
 30
0.0
 10
11.34753290394163
 20
16.09949379126403
 30
0.0
 10
11.26036030806843
 20
16.51665839486297
 30
0.0
 10
11.14724148772615
 20
16.93520181598925
 30
0.0
 10
11.03649984412718
 20
17.35219208703511
 30
0.0
 10
10.93355952296308
 20
17.77178467170422
 30
0.0
 10
10.84277508271578
 20
18.19404418845419
 30
0.0
 10
10.79220483068231
 20
18.47755383548103
 30
0.0
 10
10.77000079585685
 20
18.61979322967619
 30
0.0
  0
SPLINE
  5
90
330
1F
100
AcDbEntity
  8
Make2D visible lines - Tangent
100
AcDbSpline
210
0.0
220
0.0
230
1.0
 70
    12
 71
     2
 72
     6
 73
     3
 74
     0
 42
0.0000000001
 43
0.0000000001
 40
0.0
 40
0.0
 40
0.0
 40
2.795567528105218
 40
2.795567528105218
 40
2.795567528105218
 10
-12.73570316744236
 20
24.61690727857422
 30
0.0
 41
1.0
 10
-12.89190918753301
 20
23.22787915208648
 30
0.0
 41
0.9999999977588828
 10
-13.04802881968322
 20
21.83783997159271
 30
0.0
 41
1.0
  0
SPLINE
  5
91
330
1F
100
AcDbEntity
  8
Make2D visible lines - Tangent
100
AcDbSpline
210
0.0
220
0.0
230
1.0
 70
    12
 71
     2
 72
     6
 73
     3
 74
     0
 42
0.0000000001
 43
0.0000000001
 40
0.0
 40
0.0
 40
0.0
 40
0.4901317099757928
 40
0.4901317099757928
 40
0.4901317099757928
 10
-13.04802881968322
 20
21.83783997159271
 30
0.0
 41
1.0
 10
-13.07551407044853
 20
21.59298571166266
 30
0.0
 41
0.9979772155037618
 10
-13.07173439123135
 20
21.34758358205883
 30
0.0
 41
1.0
  0
SPLINE
  5
92
330
1F
100
AcDbEntity
  8
Make2D visible lines - Tangent
100
AcDbSpline
210
0.0
220
0.0
230
1.0
 70
    12
 71
     2
 72
     6
 73
     3
 74
     0
 42
0.0000000001
 43
0.0000000001
 40
0.0
 40
0.0
 40
0.0
 40
5.531210327985943
 40
5.531210327985943
 40
5.531210327985943
 10
-13.07173439123135
 20
21.34758358205883
 30
0.0
 41
1.0
 10
-13.02886063993301
 20
18.58227650301229
 30
0.0
 41
0.9999999999928466
 10
-12.98596483109572
 20
15.81689637912803
 30
0.0
 41
1.0
  0
SPLINE
  5
93
330
1F
100
AcDbEntity
  8
Make2D visible lines - Tangent
100
AcDbSpline
210
0.0
220
0.0
230
1.0
 70
     8
 71
     3
 72
    15
 73
    11
 74
     0
 42
0.0000000001
 43
0.0000000001
 40
0.0
 40
0.0
 40
0.0
 40
0.0
 40
0.9392105016698279
 40
1.640578104294083
 40
2.192188772880628
 40
2.6617160915045
 40
3.139809665213049
 40
3.711960950485636
 40
4.450250207282398
 40
5.44410882064065
 40
5.44410882064065
 40
5.44410882064065
 40
5.44410882064065
 10
-12.98596483109572
 20
15.81689637912803
 30
0.0
 10
-12.98104631244688
 20
15.50375196999669
 30
0.0
 10
-12.96190830339481
 20
14.9569794731762
 30
0.0
 10
-12.87307005866579
 20
14.230558310918
 30
0.0
 10
-12.71549777998639
 20
13.67561782591277
 30
0.0
 10
-12.45987596735332
 20
13.23972829130878
 30
0.0
 10
-12.07908386654821
 20
12.89766136040955
 30
0.0
 10
-11.55079062984296
 20
12.61599796301261
 30
0.0
 10
-10.82729824780753
 20
12.35529647168285
 30
0.0
 10
-10.26994871798977
 20
12.20348983873842
 30
0.0
 10
-9.946877867090485
 20
12.12145117229355
 30
0.0
  0
LINE
  5
94
330
1F
100
AcDbEntity
  8
Make2D visible lines - Tangent
100
AcDbLine
 10
-9.946877867090485
 20
12.12145117229355
 30
0.0
 11
-1.745236538572806
 21
10.04283246997794
 31
0.0
  0
LINE
  5
95
330
1F
100
AcDbEntity
  8
Make2D visible lines - Tangent
100
AcDbLine
 10
-1.745236538572806
 20
10.04283246997794
 30
0.0
 11
-1.694826354793399
 21
10.04284794130329
 31
0.0
  0
ARC
  5
96
330
1F
100
AcDbEntity
  8
Make2D visible lines - Tangent
100
AcDbCircle
 10
-1.694950915874548
 20
10.44870502497804
 30
0.0
 40
0.4058571027891892
100
AcDbArc
 50
270.0175845742366
 51
353.4116189412363
  0
LINE
  5
97
330
1F
100
AcDbEntity
  8
Make2D visible lines - Tangent
100
AcDbLine
 10
-1.291774071825174
 20
10.40213872485852
 30
0.0
 11
-1.291774071825174
 21
10.54240017006401
 31
0.0
  0
SPLINE
  5
98
330
1F
100
AcDbEntity
  8
Make2D visible lines - Tangent
100
AcDbSpline
210
0.0
220
0.0
230
1.0
 70
    12
 71
     2
 72
     6
 73
     3
 74
     0
 42
0.0000000001
 43
0.0000000001
 40
0.0
 40
0.0
 40
0.0
 40
0.4995077984519552
 40
0.4995077984519552
 40
0.4995077984519552
 10
-1.291774071825174
 20
10.54240017006401
 30
0.0
 41
1.0
 10
-1.291790068612202
 20
10.80450800229457
 30
0.0
 41
0.9208115899476033
 10
-1.463958124443946
 20
11.0021764553386
 30
0.0
 41
0.9667431610876474
  0
SPLINE
  5
99
330
1F
100
AcDbEntity
  8
Make2D visible lines - Tangent
100
AcDbSpline
210
0.0
220
0.0
230
1.0
 70
    12
 71
     2
 72
     6
 73
     3
 74
     0
 42
0.0000000001
 43
0.0000000001
 40
0.132946557235613
 40
0.132946557235613
 40
0.132946557235613
 40
0.6322790145841365
 40
0.6322790145841365
 40
0.6322790145841365
 10
1.460291852752224
 20
11.00204452512134
 30
0.0
 41
0.966707222021859
 10
1.288235805973175
 20
10.8044093607147
 30
0.0
 41
0.9208316285487513
 10
1.288225928174811
 20
10.54240017006401
 30
0.0
 41
1.0
  0
SPLINE
  5
9A
330
1F
100
AcDbEntity
  8
Make2D visible lines - Tangent
100
AcDbSpline
210
0.0
220
0.0
230
1.0
 70
    24
 71
     2
 72
     6
 73
     3
 74
     0
 42
0.0000000001
 43
0.0000000001
 40
0.0
 40
0.0
 40
0.0
 40
4.033400170063998
 40
4.033400170063998
 40
4.033400170063998
 10
1.288225928174811
 20
10.54240017006401
 30
0.0
 10
1.288225928174818
 20
8.524700085032013
 30
0.0
 10
1.288225928174825
 20
6.507000000000014
 30
0.0
  0
SPLINE
  5
9B
330
1F
100
AcDbEntity
  8
Make2D visible lines - Tangent
100
AcDbSpline
210
0.0
220
0.0
230
1.0
 70
    24
 71
     2
 72
     6
 73
     3
 74
     0
 42
0.0000000001
 43
0.0000000001
 40
-2.579999999999997
 40
-2.579999999999997
 40
-2.579999999999997
 40
0.0
 40
0.0
 40
0.0
 10
1.288225928174825
 20
6.507000000000014
 30
0.0
 10
-0.0017740718251744
 20
6.507000000000014
 30
0.0
 10
-1.291774071825174
 20
6.507000000000014
 30
0.0
  0
LINE
  5
9C
330
1F
100
AcDbEntity
  8
Make2D visible lines - Tangent
100
AcDbLine
 10
-1.291774071825174
 20
6.507000000000014
 30
0.0
 11
-1.291774071825266
 21
7.390281802162503
 31
0.0
  0
SPLINE
  5
9D
330
1F
100
AcDbEntity
  8
Make2D visible lines - Tangent
100
AcDbSpline
210
0.0
220
0.0
230
1.0
 70
    12
 71
     2
 72
     6
 73
     3
 74
     0
 42
0.0000000001
 43
0.0000000001
 40
0.0549306914234452
 40
0.0549306914234452
 40
0.0549306914234452
 40
0.7438420567701863
 40
0.7438420567701863
 40
0.7438420567701863
 10
-1.291774071825266
 20
7.390281802162503
 30
0.0
 41
0.9740471357463609
 10
-1.328894668849734
 20
7.779623904334622
 30
0.0
 41
0.8242800934664299
 10
-1.701227895880791
 20
7.899345160989981
 30
0.0
 41
1.0
  0
SPLINE
  5
9E
330
1F
100
AcDbEntity
  8
Make2D visible lines - Tangent
100
AcDbSpline
210
0.0
220
0.0
230
1.0
 70
    24
 71
     2
 72
     6
 73
     3
 74
     0
 42
0.0000000001
 43
0.0000000001
 40
0.0
 40
0.0
 40
0.0
 40
9.968665520973492
 40
9.968665520973492
 40
9.968665520973492
 10
-1.701227895880791
 20
7.899345160989981
 30
0.0
 10
-6.446671747291041
 20
9.42392238775617
 30
0.0
 10
-11.19211559870129
 20
10.94849961452236
 30
0.0
  0
SPLINE
  5
9F
330
1F
100
AcDbEntity
  8
Make2D visible lines - Tangent
100
AcDbSpline
210
0.0
220
0.0
230
1.0
 70
     8
 71
     3
 72
    12
 73
     8
 74
     0
 42
0.0000000001
 43
0.0000000001
 40
0.0
 40
0.0
 40
0.0
 40
0.0
 40
0.7757360538084561
 40
1.487150030408775
 40
2.745857345585154
 40
3.939773345514475
 40
5.284535138988444
 40
5.284535138988444
 40
5.284535138988444
 40
5.284535138988444
 10
-11.19211559870129
 20
10.94849961452236
 30
0.0
 10
-11.43758094600173
 20
11.02708532071328
 30
0.0
 10
-11.90509154294326
 20
11.20015795642815
 30
0.0
 10
-12.72131452419337
 20
11.61088548264484
 30
0.0
 10
-13.55949049847191
 20
12.27978534433733
 30
0.0
 10
-14.18664065999262
 20
13.40627549820724
 30
0.0
 10
-14.30952853768269
 20
14.25558564818658
 30
0.0
 10
-14.3302430620087
 20
14.70199999999985
 30
0.0
  0
SPLINE
  5
A0
330
1F
100
AcDbEntity
  8
Make2D visible lines - Tangent
100
AcDbSpline
210
0.0
220
0.0
230
1.0
 70
    24
 71
     2
 72
     6
 73
     3
 74
     0
 42
0.0000000001
 43
0.0000000001
 40
0.0
 40
0.0
 40
0.0
 40
6.665296691024855
 40
6.665296691024855
 40
6.665296691024855
 10
-14.3302430620087
 20
14.70199999999985
 30
0.0
 10
-14.47013809847867
 20
18.03242064878079
 30
0.0
 10
-14.61003313494864
 20
21.36284129756172
 30
0.0
  0
SPLINE
  5
A1
330
1F
100
AcDbEntity
  8
Make2D visible lines - Tangent
100
AcDbSpline
210
0.0
220
0.0
230
1.0
 70
    12
 71
     2
 72
     6
 73
     3
 74
     0
 42
0.0000000001
 43
0.0000000001
 40
0.0
 40
0.0
 40
0.0
 40
0.4573449673281947
 40
0.4573449673281947
 40
0.4573449673281947
 10
-14.61003313494864
 20
21.36284129756172
 30
0.0
 41
1.0
 10
-14.61970082240084
 20
21.59299808182388
 30
0.0
 41
0.99823900942191
 10
-14.65633132116913
 20
21.81899005488938
 30
0.0
 41
1.0
  0
SPLINE
  5
A2
330
1F
100
AcDbEntity
  8
Make2D visible lines - Tangent
100
AcDbSpline
210
0.0
220
0.0
230
1.0
 70
    24
 71
     2
 72
     6
 73
     3
 74
     0
 42
0.0000000001
 43
0.0000000001
 40
0.0
 40
0.0
 40
0.0
 40
2.834527124727227
 40
2.834527124727227
 40
2.834527124727227
 10
-14.65633132116913
 20
21.81899005488938
 30
0.0
 10
-14.88309351371756
 20
23.21799502744459
 30
0.0
 10
-15.10985570626599
 20
24.61699999999981
 30
0.0
  0
SPLINE
  5
A3
330
1F
100
AcDbEntity
  8
Default
100
AcDbSpline
210
0.0
220
0.0
230
1.0
 70
     8
 71
     3
 72
    12
 73
     8
 74
     0
 42
0.0000000001
 43
0.0000000001
 40
0.0
 40
0.0
 40
0.0
 40
0.0
 40
1.0
 40
2.0
 40
3.0
 40
4.0
 40
4.235387146708145
 40
4.235387146708145
 40
4.235387146708145
 40
4.235387146708145
 10
-7.100609934487617
 20
29.96607206489472
 30
0.0
 10
-7.347832354333884
 20
29.59952636293978
 30
0.0
 10
-7.762286742270459
 20
28.81781061581228
 30
0.0
 10
-8.370559793632474
 20
27.64034567278354
 30
0.0
 10
-8.942594987670693
 20
26.44408859139839
 30
0.0
 10
-9.335018342158008
 20
25.53743652377895
 30
0.0
 10
-9.540407893201442
 20
25.03164961869882
 30
0.0
 10
-9.579131612277447
 20
24.93511331933649
 30
0.0
  0
SPLINE
  5
A4
330
1F
100
AcDbEntity
  8
Default
100
AcDbSpline
210
0.0
220
0.0
230
1.0
 70
     8
 71
     3
 72
    25
 73
    21
 74
     0
 42
0.0000000001
 43
0.0000000001
 40
4.461790893395545
 40
4.461790893395545
 40
4.461790893395545
 40
4.461790893395545
 40
5.0
 40
6.0
 40
7.0
 40
8.0
 40
9.0
 40
10.0
 40
11.0
 40
12.0
 40
13.0
 40
14.0
 40
15.0
 40
16.0
 40
17.0
 40
18.0
 40
19.0
 40
20.0
 40
21.0
 40
22.0
 40
22.0
 40
22.0
 40
22.0
 10
-9.689735123805091
 20
24.65610467424015
 30
0.0
 10
-9.776483491958963
 20
24.43466335091301
 30
0.0
 10
-10.01836630730943
 20
23.7994067517823
 30
0.0
 10
-10.390000060604
 20
22.74100814979822
 30
0.0
 10
-10.78962386204678
 20
21.47688801703692
 30
0.0
 10
-11.15055080946478
 20
20.2010323210276
 30
0.0
 10
-11.47731655607154
 20
18.91670203821067
 30
0.0
 10
-11.7620787988282
 20
17.61963445167392
 30
0.0
 10
-12.05580366509817
 20
16.33554539770297
 30
0.0
 10
-12.153453356043
 20
14.96975329868995
 30
0.0
 10
-11.28747956486986
 20
13.87524141722763
 30
0.0
 10
-10.25230856340619
 20
13.06360669134916
 30
0.0
 10
-9.109706646116448
 20
12.37847904314307
 30
0.0
 10
-7.882124734785685
 20
11.87023615364901
 30
0.0
 10
-6.595079790856868
 20
11.54221987771435
 30
0.0
 10
-5.288544608479168
 20
11.31558020379052
 30
0.0
 10
-3.971235528927461
 20
11.16345296072029
 30
0.0
 10
-2.649921022628651
 20
11.05480145542208
 30
0.0
 10
-1.32563511619116
 20
10.99037610466397
 30
0.0
 10
-0.4418861372484288
 20
10.97558852863694
 30
0.0
 10
0.0
 20
10.97504682557879
 30
0.0
  0
SPLINE
  5
A5
330
1F
100
AcDbEntity
  8
Default
100
AcDbSpline
210
0.0
220
0.0
230
1.0
 70
     8
 71
     3
 72
    29
 73
    25
 74
     0
 42
0.0000000001
 43
0.0000000001
 40
-22.0
 40
-22.0
 40
-22.0
 40
-22.0
 40
-21.0
 40
-20.0
 40
-19.0
 40
-18.0
 40
-17.0
 40
-16.0
 40
-15.0
 40
-14.0
 40
-13.0
 40
-12.0
 40
-11.0
 40
-10.0
 40
-9.0
 40
-8.0
 40
-7.0
 40
-6.0
 40
-5.0
 40
-4.0
 40
-3.0
 40
-2.0
 40
-1.0
 40
0.0
 40
0.0
 40
0.0
 40
0.0
 10
0.0
 20
10.97504682557879
 30
0.0
 10
0.4418861372484288
 20
10.97558852863694
 30
0.0
 10
1.32563511619116
 20
10.99037610466397
 30
0.0
 10
2.649921022628651
 20
11.05480145542208
 30
0.0
 10
3.971235528927461
 20
11.16345296072029
 30
0.0
 10
5.288544608479168
 20
11.31558020379052
 30
0.0
 10
6.595079790856868
 20
11.54221987771435
 30
0.0
 10
7.882124734785685
 20
11.87023615364901
 30
0.0
 10
9.109706646116448
 20
12.37847904314307
 30
0.0
 10
10.25230856340619
 20
13.06360669134916
 30
0.0
 10
11.28747956486986
 20
13.87524141722763
 30
0.0
 10
12.153453356043
 20
14.96975329868995
 30
0.0
 10
12.05580366509817
 20
16.33554539770297
 30
0.0
 10
11.7620787988282
 20
17.61963445167392
 30
0.0
 10
11.47731655607154
 20
18.91670203821067
 30
0.0
 10
11.15055080946478
 20
20.2010323210276
 30
0.0
 10
10.78962386204678
 20
21.47688801703692
 30
0.0
 10
10.390000060604
 20
22.74100814979822
 30
0.0
 10
9.950752853987835
 20
23.99196726017661
 30
0.0
 10
9.469246518791648
 20
25.22731671952655
 30
0.0
 10
8.942594987670693
 20
26.44408859139839
 30
0.0
 10
8.370559793632474
 20
27.64034567278354
 30
0.0
 10
7.762286742270459
 20
28.81781061581228
 30
0.0
 10
7.347832354333884
 20
29.59952636293978
 30
0.0
 10
7.100609934487617
 20
29.96607206489472
 30
0.0
  0
SPLINE
  5
A6
330
1F
100
AcDbEntity
  8
Default
100
AcDbSpline
210
0.0
220
0.0
230
1.0
 70
    12
 71
     3
 72
    78
 73
    74
 74
     0
 42
0.0000000001
 43
0.0000000001
 40
32.29312031486589
 40
32.29312031486589
 40
32.29312031486589
 40
32.29312031486589
 40
32.94569642345215
 40
33.94569642788947
 40
34.94569643232678
 40
35.9456964367641
 40
36.94569644120142
 40
37.94569644563874
 40
38.94569645007606
 40
38.94569645007606
 40
38.94569645007606
 40
39.21575425163648
 40
39.21575425163648
 40
39.21575425163648
 40
39.6065033422468
 40
39.6065033422468
 40
39.6065033422468
 40
39.83703306378663
 40
40.1166735561765
 40
40.93450556052316
 40
42.1915997428571
 40
43.89139290015211
 40
43.89139290015211
 40
43.89139290015211
 40
44.89139290015211
 40
44.89139290015211
 40
44.89139290015211
 40
45.89139290015211
 40
45.89139290015211
 40
45.89139290015211
 40
47.59118605744712
 40
48.84828023978106
 40
49.66611224412772
 40
49.94575273651759
 40
50.17628245805742
 40
50.17628245805742
 40
50.17628245805742
 40
50.56703154866774
 40
50.56703154866774
 40
50.56703154866774
 40
50.83708935022817
 40
50.83708935022817
 40
50.83708935022817
 40
51.83708935466549
 40
52.83708935910281
 40
53.83708936354012
 40
54.83708936797744
 40
55.83708937241476
 40
56.83708937685208
 40
57.8370893812894
 40
58.83708938572671
 40
59.83708939016404
 40
60.83708939460135
 40
61.83708939903867
 40
62.83708940347599
 40
63.83708940791331
 40
64.83708941235062
 40
65.83708941678795
 40
66.83708942122527
 40
67.83708935022817
 40
67.83708935022817
 40
67.83708935022817
 40
68.83708927923107
 40
69.83708928366839
 40
70.83708928810572
 40
71.83708929254303
 40
72.83708929698035
 40
73.83708930141766
 40
74.83708930585499
 40
75.8370893102923
 40
76.83708931472962
 40
77.83708931916694
 40
77.96628059131032
 40
77.96628059131032
 40
77.96628059131032
 40
77.96628059131032
 10
-9.64547914388223
 20
24.66200072759906
 30
0.0
 41
1.0
 10
-9.749455861808212
 20
24.3893228556737
 30
0.0
 41
1.0
 10
-10.00397147548257
 20
23.69542240263933
 30
0.0
 41
1.0
 10
-10.37725314079816
 20
22.56924404561317
 30
0.0
 41
1.0
 10
-10.75308423711167
 20
21.28117953873899
 30
0.0
 41
1.0
 10
-11.08680851307306
 20
19.98152687644377
 30
0.0
 41
1.0
 10
-11.37378171756114
 20
18.67083784996162
 30
0.0
 41
1.0
 10
-11.64287168915603
 20
17.35669654326464
 30
0.0
 41
1.0
 10
-11.78828636422133
 20
16.47324788055477
 30
0.0
 41
1.0
 10
-11.80230322183134
 20
16.0253289502826
 30
0.0
 41
1.0
 10
-11.80650557157476
 20
15.93538766638711
 30
0.0
 41
0.9995527887139662
 10
-11.80741125667456
 20
15.84535281743053
 30
0.0
 41
0.9995527887139662
 10
-11.80501906203294
 20
15.75534519721462
 30
0.0
 41
1.0
 10
-11.80272919027854
 20
15.62230235683733
 30
0.0
 41
0.9584284795972055
 10
-11.75433634643018
 20
15.49835166683289
 30
0.0
 41
0.9584284795972055
 10
-11.66587582277404
 20
15.39895158311669
 30
0.0
 41
1.0
 10
-11.61479771314997
 20
15.34181085493282
 30
0.0
 41
1.0
 10
-11.48099359683521
 20
15.2333847844417
 30
0.0
 41
1.0
 10
-11.07187871696787
 20
15.05746762449957
 30
0.0
 41
1.0
 10
-10.2981356961296
 20
14.90951111976072
 30
0.0
 41
1.0
 10
-9.044345901534959
 20
14.80291960145997
 30
0.0
 41
1.0
 10
-8.058309444359741
 20
14.77573722676703
 30
0.0
 41
1.0
 10
-7.49196544933581
 20
14.76830451191676
 30
0.0
 41
1.0
 10
-4.994831242527269
 20
14.7355320508946
 30
0.0
 41
1.0
 10
-2.497349250908809
 20
14.77329505356879
 30
0.0
 41
1.0
 10
-0.0000000000000039
 20
14.77329505356879
 30
0.0
 41
1.0
 10
2.497349250908809
 20
14.77329505356879
 30
0.0
 41
1.0
 10
4.994831242527269
 20
14.7355320508946
 30
0.0
 41
1.0
 10
7.49196544933581
 20
14.76830451191676
 30
0.0
 41
1.0
 10
8.058309444359741
 20
14.77573722676703
 30
0.0
 41
1.0
 10
9.044345901534959
 20
14.80291960145997
 30
0.0
 41
1.0
 10
10.2981356961296
 20
14.90951111976072
 30
0.0
 41
1.0
 10
11.07187871696787
 20
15.05746762449957
 30
0.0
 41
1.0
 10
11.48099359683521
 20
15.2333847844417
 30
0.0
 41
1.0
 10
11.61479771314997
 20
15.34181085493282
 30
0.0
 41
1.0
 10
11.66587582277404
 20
15.39895158311669
 30
0.0
 41
1.0
 10
11.75433634643018
 20
15.4983516668329
 30
0.0
 41
0.9584284795972055
 10
11.80272919027854
 20
15.62230235683733
 30
0.0
 41
0.9584284795972055
 10
11.80501906203295
 20
15.75534519721462
 30
0.0
 41
1.0
 10
11.80741125667456
 20
15.84535281743053
 30
0.0
 41
0.9995527887139662
 10
11.80650557157476
 20
15.93538766638711
 30
0.0
 41
0.9995527887139662
 10
11.80230322183134
 20
16.0253289502826
 30
0.0
 41
1.0
 10
11.78828636422133
 20
16.47324788055477
 30
0.0
 41
1.0
 10
11.64287168915603
 20
17.35669654326464
 30
0.0
 41
1.0
 10
11.37378171756114
 20
18.67083784996162
 30
0.0
 41
1.0
 10
11.08680851307306
 20
19.98152687644377
 30
0.0
 41
1.0
 10
10.75308423711167
 20
21.28117953873899
 30
0.0
 41
1.0
 10
10.37725314079816
 20
22.56924404561317
 30
0.0
 41
1.0
 10
9.955080523943034
 20
23.84292477576471
 30
0.0
 41
1.0
 10
9.484666036602695
 20
25.09964987367662
 30
0.0
 41
1.0
 10
8.964962003635621
 20
26.33663474158185
 30
0.0
 41
1.0
 10
8.398604861032114
 20
27.5535765830643
 30
0.0
 41
1.0
 10
7.781755930991918
 20
28.74363039474519
 30
0.0
 41
1.0
 10
7.172272618247313
 20
29.94406606792371
 30
0.0
 41
1.0
 10
6.291031161949897
 20
30.97008279744759
 30
0.0
 41
1.0
 10
5.193302032357755
 20
31.75544956919004
 30
0.0
 41
1.0
 10
3.966856014764327
 20
32.31151077722897
 30
0.0
 41
1.0
 10
2.670846195148177
 20
32.67042560088778
 30
0.0
 41
1.0
 10
1.341704273556205
 20
32.86713799808525
 30
0.0
 41
1.0
 10
0.4471825479257645
 20
32.90741278544112
 30
0.0
 41
1.0
 10
0.0
 20
32.9074589530861
 30
0.0
 41
1.0
 10
-0.4471825479257645
 20
32.90741278544112
 30
0.0
 41
1.0
 10
-1.341704273556205
 20
32.86713799808525
 30
0.0
 41
1.0
 10
-2.670846195148177
 20
32.67042560088778
 30
0.0
 41
1.0
 10
-3.966856014764327
 20
32.31151077722897
 30
0.0
 41
1.0
 10
-5.193302032357755
 20
31.75544956919004
 30
0.0
 41
1.0
 10
-6.291031161949897
 20
30.97008279744759
 30
0.0
 41
1.0
 10
-7.172272618247313
 20
29.94406606792371
 30
0.0
 41
1.0
 10
-7.781755930991918
 20
28.74363039474519
 30
0.0
 41
1.0
 10
-8.398604861032114
 20
27.5535765830643
 30
0.0
 41
1.0
 10
-8.964962003635621
 20
26.33663474158185
 30
0.0
 41
1.0
 10
-9.333811767233382
 20
25.45870894697914
 30
0.0
 41
1.0
 10
-9.518952225633496
 20
24.98891640286653
 30
0.0
 41
1.0
 10
-9.539997493424133
 20
24.93511331933649
 30
0.0
 41
1.0
  0
SPLINE
  5
A7
330
1F
100
AcDbEntity
  8
Default
100
AcDbSpline
210
0.0
220
0.0
230
1.0
 70
     8
 71
     3
 72
    16
 73
    12
 74
     0
 42
0.0000000001
 43
0.0000000001
 40
-8.620391929851419
 40
-8.620391929851419
 40
-8.620391929851419
 40
-8.620391929851419
 40
-7.999999949512807
 40
-6.999999943903119
 40
-5.99999993829343
 40
-4.999999932683743
 40
-3.999999927074055
 40
-2.999999921464366
 40
-1.999999915854678
 40
-0.9999999102449904
 40
0.0
 40
0.0
 40
0.0
 40
0.0
 10
-11.37747387586417
 20
60.31635119480007
 30
0.0
 10
-11.30061287645086
 20
60.71134448500873
 30
0.0
 10
-11.07507089888933
 20
61.73803954924497
 30
0.0
 10
-10.59235023483121
 20
63.36924266441137
 30
0.0
 10
-9.815771839636435
 20
65.16095195832744
 30
0.0
 10
-8.755199259310299
 20
66.79385869590979
 30
0.0
 10
-7.463485215504136
 20
68.27526534368337
 30
0.0
 10
-5.7691116817936
 20
69.27181777669989
 30
0.0
 10
-3.874707628334578
 20
69.76571254815022
 30
0.0
 10
-1.946783870830562
 20
70.03166811529258
 30
0.0
 10
-0.6483690366233035
 20
70.07760738741277
 30
0.0
 10
-0.0000000000000142
 20
70.07765497568016
 30
0.0
  0
SPLINE
  5
A8
330
1F
100
AcDbEntity
  8
Default
100
AcDbSpline
210
0.0
220
0.0
230
1.0
 70
     8
 71
     3
 72
    24
 73
    20
 74
     0
 42
0.0000000001
 43
0.0000000001
 40
0.0
 40
0.0
 40
0.0
 40
0.0
 40
0.9999999102449904
 40
1.999999915854678
 40
2.999999921464366
 40
3.999999927074055
 40
4.999999932683743
 40
5.99999993829343
 40
6.999999943903119
 40
7.999999949512807
 40
8.999999955122496
 40
9.999999960732184
 40
10.99999996634187
 40
11.99999997195156
 40
12.99999997756125
 40
13.99999998317094
 40
14.99999998878062
 40
15.99999999439031
 40
17.0
 40
17.0
 40
17.0
 40
17.0
 10
-0.0000000000000142
 20
70.07765497568016
 30
0.0
 10
0.648369036623275
 20
70.07760738741277
 30
0.0
 10
1.946783870830534
 20
70.03166811529258
 30
0.0
 10
3.874707628334549
 20
69.76571254815022
 30
0.0
 10
5.769111681793571
 20
69.27181777669989
 30
0.0
 10
7.463485215504107
 20
68.27526534368337
 30
0.0
 10
8.75519925931027
 20
66.79385869590979
 30
0.0
 10
9.815771839636406
 20
65.16095195832744
 30
0.0
 10
10.59235023483118
 20
63.36924266441137
 30
0.0
 10
11.14500113781195
 20
61.50173223516399
 30
0.0
 10
11.53092496291778
 20
59.59309990316836
 30
0.0
 10
11.78037407859901
 20
57.66170328513139
 30
0.0
 10
11.80420829723793
 20
55.71441167065998
 30
0.0
 10
11.81338227621508
 20
53.76735290224411
 30
0.0
 10
11.54028178077028
 20
51.834700183436
 30
0.0
 10
10.99445697809346
 20
49.96147505589137
 30
0.0
 10
10.13660804114784
 20
48.20613940520883
 30
0.0
 10
8.970944231068804
 20
46.6374426932878
 30
0.0
 10
8.008787838875952
 20
45.75865485281285
 30
0.0
 10
7.491834978137177
 20
45.36652910601428
 30
0.0
  0
SPLINE
  5
A9
330
1F
100
AcDbEntity
  8
Default
100
AcDbSpline
210
0.0
220
0.0
230
1.0
 70
     8
 71
     3
 72
    12
 73
     8
 74
     0
 42
0.0000000001
 43
0.0000000001
 40
0.0
 40
0.0
 40
0.0
 40
0.0
 40
1.932841302156171
 40
3.834618248229879
 40
8.02201959796539
 40
12.14534094516417
 40
15.98237434364643
 40
15.98237434364643
 40
15.98237434364643
 40
15.98237434364643
 10
7.491834978137177
 20
45.36652910601428
 30
0.0
 10
6.976739281750413
 20
44.97687935643227
 30
0.0
 10
5.891238774838699
 20
44.29939626639816
 30
0.0
 10
3.397113783820563
 20
43.29127691456013
 30
0.0
 10
-0.0092203384763749
 20
42.83124681143033
 30
0.0
 10
-4.063226015699311
 20
43.3868662669265
 30
0.0
 10
-6.474346960809274
 20
44.59261489436955
 30
0.0
 10
-7.492066427726137
 20
45.36672291833883
 30
0.0
  0
SPLINE
  5
AA
330
1F
100
AcDbEntity
  8
Default
100
AcDbSpline
210
0.0
220
0.0
230
1.0
 70
     8
 71
     3
 72
    10
 73
     6
 74
     0
 42
0.0000000001
 43
0.0000000001
 40
-17.0
 40
-17.0
 40
-17.0
 40
-17.0
 40
-15.99999999439031
 40
-14.99999998878062
 40
-14.34111952648732
 40
-14.34111952648732
 40
-14.34111952648732
 40
-14.34111952648732
 10
-7.492066427726137
 20
45.36672291833883
 30
0.0
 10
-8.00878783887598
 20
45.75865485281285
 30
0.0
 10
-8.970944231068833
 20
46.6374426932878
 30
0.0
 10
-10.00406447303987
 20
48.0277683708853
 30
0.0
 10
-10.50745162164284
 20
48.98079660776167
 30
0.0
 10
-10.68491657064878
 20
49.369550585514
 30
0.0
  0
SPLINE
  5
AB
330
1F
100
AcDbEntity
  8
Default
100
AcDbSpline
210
0.0
220
0.0
230
1.0
 70
     8
 71
     3
 72
     8
 73
     4
 74
     0
 42
0.0000000001
 43
0.0000000001
 40
4.524021982479882
 40
4.524021982479882
 40
4.524021982479882
 40
4.524021982479882
 40
8.404575460652145
 40
8.404575460652145
 40
8.404575460652145
 40
8.404575460652145
 10
-10.25893459402933
 20
49.91472132589745
 30
0.0
 10
-9.856935943093356
 20
49.10130751581036
 30
0.0
 10
-9.247078020873886
 20
48.16954756171302
 30
0.0
 10
-8.24555765500286
 20
47.11164509049012
 30
0.0
  0
ARC
  5
AC
330
1F
100
AcDbEntity
  8
Default
100
AcDbCircle
 10
-2.038901308439062
 20
52.98751068692899
 30
0.0
 40
8.546834473169264
100
AcDbArc
 50
223.431769392566
 51
250.7647814271077
  0
CIRCLE
  5
AD
330
1F
100
AcDbEntity
  8
Default
100
AcDbCircle
 10
-16.67125576188712
 20
54.48612835658753
 30
0.0
 40
7.874999999999993
  0
SPLINE
  5
AE
330
1F
100
AcDbEntity
  8
Make2D visible lines - Tangent
100
AcDbSpline
210
0.0
220
0.0
230
1.0
 70
    12
 71
     2
 72
     6
 73
     3
 74
     0
 42
0.0000000001
 43
0.0000000001
 40
0.0
 40
0.0
 40
0.0
 40
0.0586712320260919
 40
0.0586712320260919
 40
0.0586712320260919
 10
0.0000000000870983
 20
40.47520052760224
 30
0.0
 41
1.0
 10
-0.0294905925234824
 20
40.47524400880353
 30
0.0
 41
0.9921343149382713
 10
-0.0580461792410887
 20
40.48261119349999
 30
0.0
 41
1.0
  0
SPLINE
  5
AF
330
1F
100
AcDbEntity
  8
Make2D visible lines - Tangent
100
AcDbSpline
210
0.0
220
0.0
230
1.0
 70
    24
 71
     2
 72
     6
 73
     3
 74
     0
 42
0.0000000001
 43
0.0000000001
 40
0.0
 40
0.0
 40
0.0
 40
0.0114467396849787
 40
0.0114467396849787
 40
0.0114467396849787
 10
0.0000000000870983
 20
40.47520052760224
 30
0.0
 10
0.0000000026667522
 20
40.46947715775975
 30
0.0
 10
0.000000005246406
 20
40.46375378791726
 30
0.0
  0
SPLINE
  5
B0
330
1F
100
AcDbEntity
  8
Make2D visible lines - Tangent
100
AcDbSpline
210
0.0
220
0.0
230
1.0
 70
    12
 71
     2
 72
     6
 73
     3
 74
     0
 42
0.0000000001
 43
0.0000000001
 40
0.0
 40
0.0
 40
0.0
 40
0.0587632096241838
 40
0.0587632096241838
 40
0.0587632096241838
 10
0.0581358437700601
 20
40.48263415906987
 30
0.0
 41
1.0
 10
0.0295378737529724
 20
40.47524432503683
 30
0.0
 41
0.9921107855315546
 10
0.0000005817660735
 20
40.47520052760301
 30
0.0
 41
1.0
  0
SPLINE
  5
B1
330
1F
100
AcDbEntity
  8
Make2D visible lines
100
AcDbSpline
210
0.0
220
0.0
230
1.0
 70
    12
 71
     2
 72
     6
 73
     3
 74
     0
 42
0.0000000001
 43
0.0000000001
 40
0.0
 40
0.0
 40
0.0
 40
0.0853474550214741
 40
0.0853474550214741
 40
0.0853474550214741
 10
0.4047946761643146
 20
41.25796145334126
 30
0.0
 41
1.0
 10
0.4077820541270476
 20
41.21537521486152
 30
0.0
 41
0.9993970637774641
 10
0.40780678666097
 20
41.17268433148759
 30
0.0
 41
1.0
  0
SPLINE
  5
B2
330
1F
100
AcDbEntity
  8
Make2D visible lines - Tangent
100
AcDbSpline
210
0.0
220
0.0
230
1.0
 70
    12
 71
     2
 72
     6
 73
     3
 74
     0
 42
0.0000000001
 43
0.0000000001
 40
0.0
 40
0.0
 40
0.0
 40
0.1369528492222414
 40
0.1369528492222414
 40
0.1369528492222414
 10
-0.3676107775952175
 20
41.67236458887326
 30
0.0
 41
1.0
 10
-0.366181241976981
 20
41.60390426360257
 30
0.0
 41
0.9999966913238282
 10
-0.3669329088942999
 20
41.5354050282186
 30
0.0
 41
0.9999959461296658
  0
ARC
  5
B3
330
1F
100
AcDbEntity
  8
Make2D visible lines - Tangent
100
AcDbCircle
 10
-0.8668652971617661
 20
41.52718267082086
 30
0.0
 40
0.5
100
AcDbArc
 50
348.4871521735349
 51
0.9422552251317675
  0
SPLINE
  5
B4
330
1F
100
AcDbEntity
  8
Make2D visible lines - Tangent
100
AcDbSpline
210
0.0
220
0.0
230
1.0
 70
     8
 71
     3
 72
    14
 73
    10
 74
     0
 42
0.0000000001
 43
0.0000000001
 40
0.2772630823298201
 40
0.2772630823298201
 40
0.2772630823298201
 40
0.2772630823298201
 40
1.0
 40
2.0
 40
3.0
 40
4.0
 40
5.0
 40
6.0
 40
7.0
 40
7.0
 40
7.0
 40
7.0
 10
-0.3769253099904972
 20
41.42738883849331
 30
0.0
 10
-0.3850225723278555
 20
41.38763515318868
 30
0.0
 10
-0.4000888111860093
 20
41.29200937517975
 30
0.0
 10
-0.4048301803112793
 20
41.1388548184362
 30
0.0
 10
-0.3868157866532869
 20
40.97107850474558
 30
0.0
 10
-0.3452864226172352
 20
40.80733270936015
 30
0.0
 10
-0.2747980484401609
 20
40.65346517443363
 30
0.0
 10
-0.1646929405790019
 20
40.52250568536785
 30
0.0
 10
-0.0566834953305744
 20
40.47728548187305
 30
0.0
 10
0.0000005023035641
 20
40.47779298757999
 30
0.0
  0
SPLINE
  5
B5
330
1F
100
AcDbEntity
  8
Make2D visible lines - Tangent
100
AcDbSpline
210
0.0
220
0.0
230
1.0
 70
     8
 71
     3
 72
    14
 73
    10
 74
     0
 42
0.0000000001
 43
0.0000000001
 40
-7.0
 40
-7.0
 40
-7.0
 40
-7.0
 40
-6.0
 40
-5.0
 40
-4.0
 40
-3.0
 40
-2.0
 40
-1.0
 40
-0.2482205602640466
 40
-0.2482205602640466
 40
-0.2482205602640466
 40
-0.2482205602640466
 10
0.0000005023035641
 20
40.47779298757999
 30
0.0
 10
0.0566844999377025
 20
40.47728548187305
 30
0.0
 10
0.16469394518613
 20
40.52250568536785
 30
0.0
 10
0.274799053047289
 20
40.65346517443363
 30
0.0
 10
0.3452874272243633
 20
40.80733270936015
 30
0.0
 10
0.386816791260415
 20
40.97107850474558
 30
0.0
 10
0.4048311849184074
 20
41.1388548184362
 30
0.0
 10
0.4000392411979448
 20
41.29364302350061
 30
0.0
 10
0.3845121634408883
 20
41.3908589777237
 30
0.0
 10
0.3759415877764951
 20
41.43217946244255
 30
0.0
  0
ARC
  5
B6
330
1F
100
AcDbEntity
  8
Make2D visible lines - Tangent
100
AcDbCircle
 10
0.8655211721033425
 20
41.53372664660026
 30
0.0
 40
0.5
100
AcDbArc
 50
178.9775798079559
 51
191.7179678781667
  0
SPLINE
  5
B7
330
1F
100
AcDbEntity
  8
Make2D visible lines - Tangent
100
AcDbSpline
210
0.0
220
0.0
230
1.0
 70
    12
 71
     2
 72
     6
 73
     3
 74
     0
 42
0.0000000001
 43
0.0000000001
 40
-0.1297405451143296
 40
-0.1297405451143296
 40
-0.1297405451143296
 40
0.0
 40
0.0
 40
0.0
 10
0.3656007774165125
 20
41.54264847243196
 30
0.0
 41
0.9999960316975589
 10
0.3667583002961144
 20
41.60750843559899
 30
0.0
 41
0.9999968655123173
 10
0.3681125763794029
 20
41.67236458887326
 30
0.0
 41
1.0
  0
SPLINE
  5
B8
330
1F
100
AcDbEntity
  8
Make2D visible lines - Tangent
100
AcDbSpline
210
0.0
220
0.0
230
1.0
 70
     8
 71
     3
 72
    12
 73
     8
 74
     0
 42
0.0000000001
 43
0.0000000001
 40
0.0
 40
0.0
 40
0.0
 40
0.0
 40
0.1510110321465192
 40
0.3037660471064116
 40
0.5900965017365678
 40
0.8249401141264362
 40
1.014583801502342
 40
1.014583801502342
 40
1.014583801502342
 40
1.014583801502342
 10
-0.4018340216547784
 20
41.29300787483707
 30
0.0
 10
-0.4067502440146882
 20
41.24288763841069
 30
0.0
 10
-0.4105800225072187
 20
41.14158778416054
 30
0.0
 10
-0.3933681383037282
 20
40.94513996515992
 30
0.0
 10
-0.332915801791799
 20
40.72699669044906
 30
0.0
 10
-0.1981679738670863
 20
40.52614192599344
 30
0.0
 10
-0.0643507375328625
 20
40.46139739976751
 30
0.0
 10
0.0000000057435017
 20
40.46265087945641
 30
0.0
  0
SPLINE
  5
B9
330
1F
100
AcDbEntity
  8
Make2D visible lines - Tangent
100
AcDbSpline
210
0.0
220
0.0
230
1.0
 70
     8
 71
     3
 72
    12
 73
     8
 74
     0
 42
0.0000000001
 43
0.0000000001
 40
-1.014583801502342
 40
-1.014583801502342
 40
-1.014583801502342
 40
-1.014583801502342
 40
-0.8249401141264362
 40
-0.5900965017365678
 40
-0.3037660471064116
 40
-0.1510110321465192
 40
0.0
 40
0.0
 40
0.0
 40
0.0
 10
0.0000000057435017
 20
40.46265087945641
 30
0.0
 10
0.0643507490198516
 20
40.46139739976751
 30
0.0
 10
0.1981679853540896
 20
40.52614192599344
 30
0.0
 10
0.3329158132787882
 20
40.72699669044906
 30
0.0
 10
0.3933681497907173
 20
40.94513996515992
 30
0.0
 10
0.4105800339942078
 20
41.14158778416054
 30
0.0
 10
0.4067502555016773
 20
41.24288763841069
 30
0.0
 10
0.4018340331417676
 20
41.29300787483707
 30
0.0
  0
SPLINE
  5
BA
330
1F
100
AcDbEntity
  8
Default
100
AcDbSpline
210
0.0
220
0.0
230
1.0
 70
     8
 71
     3
 72
    12
 73
     8
 74
     0
 42
0.0000000001
 43
0.0000000001
 40
1.683631676929209
 40
1.683631676929209
 40
1.683631676929209
 40
1.683631676929209
 40
1.832654236483523
 40
3.669578742657731
 40
7.371880427553499
 40
11.11625269817009
 40
14.89017125028417
 40
14.89017125028417
 40
14.89017125028417
 40
14.89017125028417
 10
-9.468333165568124
 20
51.30280759495556
 30
0.0
 10
-9.45914913404253
 20
51.25399032498147
 30
0.0
 10
-9.331451123824683
 20
50.60442272211
 30
0.0
 10
-8.763869827142027
 20
48.7844809537451
 30
0.0
 10
-6.967179258847967
 20
46.18952942141617
 30
0.0
 10
-3.764029543155747
 20
44.12414839026527
 30
0.0
 10
-1.257974278146184
 20
43.64333333127742
 30
0.0
 10
-0.0000005814717845
 20
43.6431131035074
 30
0.0
  0
SPLINE
  5
BB
330
1F
100
AcDbEntity
  8
Default
100
AcDbSpline
210
0.0
220
0.0
230
1.0
 70
     8
 71
     3
 72
    12
 73
     8
 74
     0
 42
0.0000000001
 43
0.0000000001
 40
0.0
 40
0.0
 40
0.0
 40
0.0
 40
1.88935509858243
 40
3.77451955929682
 40
7.516682166840943
 40
11.21816918271822
 40
14.89017237659326
 40
14.89017237659326
 40
14.89017237659326
 40
14.89017237659326
 10
-0.0000005814717845
 20
43.6431131035074
 30
0.0
 10
0.6297326916292114
 20
43.64318087150009
 30
0.0
 10
1.887980909715463
 20
43.76419429630577
 30
0.0
 10
4.30304777319361
 20
44.47189463363991
 30
0.0
 10
6.966156210691951
 20
46.18876860118698
 30
0.0
 10
9.118162076826229
 20
49.29559123099036
 30
0.0
 10
9.62531507194972
 20
51.75278667435135
 30
0.0
 10
9.624987010958176
 20
52.97695296823056
 30
0.0
  0
SPLINE
  5
BC
330
1F
100
AcDbEntity
  8
Default
100
AcDbSpline
210
0.0
220
0.0
230
1.0
 70
     8
 71
     3
 72
    12
 73
     8
 74
     0
 42
0.0000000001
 43
0.0000000001
 40
-15.35241690788854
 40
-15.35241690788854
 40
-15.35241690788854
 40
-15.35241690788854
 40
-11.42846766997576
 40
-7.624449320975276
 40
-3.868777776849769
 40
-1.918305221211262
 40
0.0
 40
0.0
 40
0.0
 40
0.0
 10
9.624987010958176
 20
52.97695296823056
 30
0.0
 10
9.625008104502959
 20
54.2843359922774
 30
0.0
 10
9.159541522328626
 20
56.86614202634551
 30
0.0
 10
7.055061779093661
 20
60.15583714338225
 30
0.0
 10
4.375153949274251
 20
61.97054350494839
 30
0.0
 10
1.929225369751231
 20
62.70462852722115
 30
0.0
 10
0.6393730720011579
 20
62.82943879405419
 30
0.0
 10
-0.0000000469944039
 20
62.82890810820479
 30
0.0
  0
SPLINE
  5
BD
330
1F
100
AcDbEntity
  8
Default
100
AcDbSpline
210
0.0
220
0.0
230
1.0
 70
     8
 71
     3
 72
    11
 73
     7
 74
     0
 42
0.0000000001
 43
0.0000000001
 40
-15.34910739099933
 40
-15.34910739099933
 40
-15.34910739099933
 40
-15.34910739099933
 40
-11.58400586625319
 40
-7.773657509622682
 40
-3.936637318219009
 40
-3.52989464129601
 40
-3.52989464129601
 40
-3.52989464129601
 40
-3.52989464129601
 10
-0.0000000469944039
 20
62.82890810820479
 30
0.0
 10
-1.254420347894163
 20
62.82860441712847
 30
0.0
 10
-3.783412189800037
 20
62.35352470977487
 30
0.0
 10
-7.019266667086008
 20
60.2015021558995
 30
0.0
 10
-8.503771781858482
 20
57.89829779441204
 30
0.0
 10
-8.999014417596563
 20
56.57322794856396
 30
0.0
 10
-9.043856622225572
 20
56.44531373941633
 30
0.0
  0
SPLINE
  5
BE
330
1F
100
AcDbEntity
  8
Make2D visible lines - Tangent
100
AcDbSpline
210
0.0
220
0.0
230
1.0
 70
    12
 71
     2
 72
     6
 73
     3
 74
     0
 42
0.0000000001
 43
0.0000000001
 40
-1.283779462045772
 40
-1.283779462045772
 40
-1.283779462045772
 40
0.0
 40
0.0
 40
0.0
 10
0.3834568631724822
 20
43.02469535275541
 30
0.0
 41
0.9999999993058323
 10
0.376338701869635
 20
42.38243783268165
 30
0.0
 41
0.9999999996059906
 10
0.3692291087560022
 20
41.74012515705663
 30
0.0
 41
1.0
  0
SPLINE
  5
BF
330
1F
100
AcDbEntity
  8
Make2D visible lines - Tangent
100
AcDbSpline
210
0.0
220
0.0
230
1.0
 70
     8
 71
     3
 72
    14
 73
    10
 74
     0
 42
0.0000000001
 43
0.0000000001
 40
0.0
 40
0.0
 40
0.0
 40
0.0
 40
1.0
 40
2.0
 40
3.0
 40
4.0
 40
5.0
 40
6.0
 40
7.0
 40
7.0
 40
7.0
 40
7.0
 10
0.3692291087560022
 20
41.74012515705663
 30
0.0
 10
0.3681792200332836
 20
41.66981954401159
 30
0.0
 10
0.3478821534581442
 20
41.53718360160639
 30
0.0
 10
0.2620972967860382
 20
41.35480642981599
 30
0.0
 10
0.1027023299643872
 20
41.21999538705025
 30
0.0
 10
-0.1104851349790295
 20
41.22337270134043
 30
0.0
 10
-0.2666415048182529
 20
41.3613440147384
 30
0.0
 10
-0.3500621393612562
 20
41.54473329018998
 30
0.0
 10
-0.3689701568728907
 20
41.67757059222377
 30
0.0
 10
-0.3690000000011366
 20
41.74400400058252
 30
0.0
  0
SPLINE
  5
C0
330
1F
100
AcDbEntity
  8
Make2D visible lines - Tangent
100
AcDbSpline
210
0.0
220
0.0
230
1.0
 70
    12
 71
     2
 72
     6
 73
     3
 74
     0
 42
0.0000000001
 43
0.0000000001
 40
0.0
 40
0.0
 40
0.0
 40
1.280792450069243
 40
1.280792450069243
 40
1.280792450069243
 10
-0.3690000000011366
 20
41.74400400058252
 30
0.0
 41
1.0
 10
-0.3760606498655688
 20
42.38436130059559
 30
0.0
 41
0.9999999996069073
 10
-0.3831336780067647
 20
43.02471846400477
 30
0.0
 41
0.9999999993072295
  0
SPLINE
  5
C1
330
1F
100
AcDbEntity
  8
Default
100
AcDbSpline
210
0.0
220
0.0
230
1.0
 70
     8
 71
     3
 72
     9
 73
     5
 74
     0
 42
0.0000000001
 43
0.0000000001
 40
15.23603530352979
 40
15.23603530352979
 40
15.23603530352979
 40
15.23603530352979
 40
16.0
 40
17.0
 40
17.0
 40
17.0
 40
17.0
 10
-10.72702511460944
 20
49.32069061986427
 30
0.0
 10
-10.51676681458525
 20
48.8936514605945
 30
0.0
 10
-9.972197402815498
 20
47.93648126194695
 30
0.0
 10
-9.29509449460483
 20
47.06597504342422
 30
0.0
 10
-8.870175152358177
 20
46.61014887481945
 30
0.0
  0
SPLINE
  5
C2
330
1F
100
AcDbEntity
  8
Default
100
AcDbSpline
210
0.0
220
0.0
230
1.0
 70
     8
 71
     3
 72
    24
 73
    20
 74
     0
 42
0.0000000001
 43
0.0000000001
 40
-17.0
 40
-17.0
 40
-17.0
 40
-17.0
 40
-16.0
 40
-15.0
 40
-14.0
 40
-13.0
 40
-12.0
 40
-11.0
 40
-10.0
 40
-9.0
 40
-8.0
 40
-7.0
 40
-6.0
 40
-5.0
 40
-4.0
 40
-3.0
 40
-2.0
 40
-1.0
 40
0.0
 40
0.0
 40
0.0
 40
0.0
 10
8.870175152358149
 20
46.61014887481945
 30
0.0
 10
9.295094494604802
 20
47.06597504342422
 30
0.0
 10
10.06280023108081
 20
48.05296329808109
 30
0.0
 10
10.95879633584161
 20
49.70055862895374
 30
0.0
 10
11.58937157870375
 20
51.46463853812784
 30
0.0
 10
11.9884326846942
 20
53.29572359850018
 30
0.0
 10
12.12159802741231
 20
55.16358964107863
 30
0.0
 10
12.07566133005909
 20
57.03296363787525
 30
0.0
 10
11.9457305622614
 20
58.89950380788267
 30
0.0
 10
11.58264786222493
 20
60.73613850278151
 30
0.0
 10
11.11593144705225
 20
62.54720168499066
 30
0.0
 10
10.46381493567851
 20
64.301336694041
 30
0.0
 10
9.613028899891788
 20
65.9733302140173
 30
0.0
 10
8.500395392315577
 20
67.4752791258206
 30
0.0
 10
7.21682467334252
 20
68.85973939337956
 30
0.0
 10
5.547391472741248
 20
69.74642704469267
 30
0.0
 10
3.727768302860379
 20
70.20610859575035
 30
0.0
 10
1.869620599532334
 20
70.42655516895701
 30
0.0
 10
0.6230017937619058
 20
70.46378605572474
 30
0.0
 10
-0.0000000000000142
 20
70.46404248465288
 30
0.0
  0
SPLINE
  5
C3
330
1F
100
AcDbEntity
  8
Default
100
AcDbSpline
210
0.0
220
0.0
230
1.0
 70
     8
 71
     3
 72
    17
 73
    13
 74
     0
 42
0.0000000001
 43
0.0000000001
 40
0.0
 40
0.0
 40
0.0
 40
0.0
 40
1.0
 40
2.0
 40
3.0
 40
4.0
 40
5.0
 40
6.0
 40
7.0
 40
8.0
 40
9.0
 40
9.115306275309369
 40
9.115306275309369
 40
9.115306275309369
 40
9.115306275309369
 10
-0.0000000000000142
 20
70.46404248465288
 30
0.0
 10
-0.6230017937619342
 20
70.46378605572474
 30
0.0
 10
-1.869620599532362
 20
70.42655516895701
 30
0.0
 10
-3.727768302860408
 20
70.20610859575035
 30
0.0
 10
-5.547391472741277
 20
69.74642704469267
 30
0.0
 10
-7.216824673342549
 20
68.85973939337956
 30
0.0
 10
-8.500395392315605
 20
67.4752791258206
 30
0.0
 10
-9.613028899891816
 20
65.9733302140173
 30
0.0
 10
-10.46381493567854
 20
64.301336694041
 30
0.0
 10
-11.11593144705228
 20
62.54720168499066
 30
0.0
 10
-11.44501416765383
 20
61.27021724688773
 30
0.0
 10
-11.59703961379434
 20
60.5916191009461
 30
0.0
 10
-11.61249407285514
 20
60.5214042553002
 30
0.0
  0
SPLINE
  5
C4
330
1F
100
AcDbEntity
  8
Default
100
AcDbSpline
210
0.0
220
0.0
230
1.0
 70
     8
 71
     3
 72
    11
 73
     7
 74
     0
 42
0.0000000001
 43
0.0000000001
 40
-4.376489242092979
 40
-4.376489242092979
 40
-4.376489242092979
 40
-4.376489242092979
 40
-2.254729024945146
 40
-1.152264979760032
 40
-0.5805792687200015
 40
0.0
 40
0.0
 40
0.0
 40
0.0
 10
4.333208217745737
 20
70.04432599394633
 30
0.0
 10
3.648821360543307
 20
70.22293787228779
 30
0.0
 10
2.58987982703003
 20
70.42013326185455
 30
0.0
 10
1.328620282926245
 20
70.5286660834366
 30
0.0
 10
0.5776243337471474
 20
70.55982691625869
 30
0.0
 10
0.1935250271774471
 20
70.56487288922543
 30
0.0
 10
-0.0000000000000142
 20
70.56487409461096
 30
0.0
  0
SPLINE
  5
C5
330
1F
100
AcDbEntity
  8
Default
100
AcDbSpline
210
0.0
220
0.0
230
1.0
 70
     8
 71
     3
 72
    11
 73
     7
 74
     0
 42
0.0000000001
 43
0.0000000001
 40
0.0
 40
0.0
 40
0.0
 40
0.0
 40
0.5805792687200015
 40
1.152264979760032
 40
2.254729024945146
 40
4.376489242092979
 40
4.376489242092979
 40
4.376489242092979
 40
4.376489242092979
 10
-0.0000000000000142
 20
70.56487409461096
 30
0.0
 10
-0.1935250271774756
 20
70.56487288922543
 30
0.0
 10
-0.5776243337471758
 20
70.55982691625869
 30
0.0
 10
-1.328620282926273
 20
70.5286660834366
 30
0.0
 10
-2.589879827030058
 20
70.42013326185455
 30
0.0
 10
-3.648821360543336
 20
70.22293787228779
 30
0.0
 10
-4.333208217745765
 20
70.04432599394633
 30
0.0
  0
SPLINE
  5
C6
330
1F
100
AcDbEntity
  8
Default
100
AcDbSpline
210
0.0
220
0.0
230
1.0
 70
     8
 71
     3
 72
    10
 73
     6
 74
     0
 42
0.0000000001
 43
0.0000000001
 40
0.0
 40
0.0
 40
0.0
 40
0.0
 40
1.13000657183866
 40
2.287921106073678
 40
8.404575460652145
 40
8.404575460652145
 40
8.404575460652145
 40
8.404575460652145
 10
11.18620468396875
 20
52.90559357490972
 30
0.0
 10
11.12322790899782
 20
52.53427502494343
 30
0.0
 10
10.96249005938276
 20
51.78792056755717
 30
0.0
 10
10.54435860173577
 20
50.38958114008337
 30
0.0
 10
9.824186564915278
 20
48.77914530501432
 30
0.0
 10
8.245557655002832
 20
47.11164509049012
 30
0.0
  0
ARC
  5
C7
330
1F
100
AcDbEntity
  8
Default
100
AcDbCircle
 10
2.038901308439033
 20
52.98751068692899
 30
0.0
 40
8.546834473169264
100
AcDbArc
 50
289.2352185728923
 51
316.568230607434
  0
SPLINE
  5
C8
330
1F
100
AcDbEntity
  8
Default
100
AcDbSpline
210
0.0
220
0.0
230
1.0
 70
    12
 71
     2
 72
     6
 73
     3
 74
     0
 42
0.0000000001
 43
0.0000000001
 40
0.0
 40
0.0
 40
0.0
 40
0.584707951152618
 40
0.584707951152618
 40
0.584707951152618
 10
9.463104453798886
 20
47.31358800152344
 30
0.0
 41
1.0
 10
9.643024492224612
 20
47.54410908973791
 30
0.0
 41
0.9996461359736499
 10
9.810430153527323
 20
47.78387259176127
 30
0.0
 41
1.0
  0
SPLINE
  5
C9
330
1F
100
AcDbEntity
  8
Default
100
AcDbSpline
210
0.0
220
0.0
230
1.0
 70
     8
 71
     3
 72
     8
 73
     4
 74
     0
 42
0.0000000001
 43
0.0000000001
 40
-0.1356130981080658
 40
-0.1356130981080658
 40
-0.1356130981080658
 40
-0.1356130981080658
 40
0.0
 40
0.0
 40
0.0
 40
0.0
 10
40.9087498836325
 20
16.11918908763162
 30
0.0
 10
40.73286992592859
 20
16.09846109190998
 30
0.0
 10
40.55705775511105
 20
16.07721759379833
 30
0.0
 10
40.38131831972522
 20
16.05546350381051
 30
0.0
  0
SPLINE
  5
CA
330
1F
100
AcDbEntity
  8
Default
100
AcDbSpline
210
0.0
220
0.0
230
1.0
 70
    24
 71
     2
 72
     6
 73
     3
 74
     0
 42
0.0000000001
 43
0.0000000001
 40
0.0
 40
0.0
 40
0.0
 40
1.279662316143878
 40
1.279662316143878
 40
1.279662316143878
 10
52.4936698088668
 20
15.27319440248525
 30
0.0
 10
52.43367873343773
 20
15.91020694687393
 30
0.0
 10
52.37368765800866
 20
16.54721949126261
 30
0.0
  0
SPLINE
  5
CB
330
1F
100
AcDbEntity
  8
Default
100
AcDbSpline
210
0.0
220
0.0
230
1.0
 70
     8
 71
     3
 72
     8
 73
     4
 74
     0
 42
0.0000000001
 43
0.0000000001
 40
0.0
 40
0.0
 40
0.0
 40
0.0
 40
1.0
 40
1.0
 40
1.0
 40
1.0
 10
52.37368765800866
 20
16.54721949126261
 30
0.0
 10
52.35960655099642
 20
16.69673909466231
 30
0.0
 10
52.26018475188904
 20
16.77104459020691
 30
0.0
 10
52.10465338103095
 20
16.77629933503603
 30
0.0
  0
SPLINE
  5
CC
330
1F
100
AcDbEntity
  8
Default
100
AcDbSpline
210
0.0
220
0.0
230
1.0
 70
     8
 71
     3
 72
    10
 73
     6
 74
     0
 42
0.0000000001
 43
0.0000000001
 40
-3.0
 40
-3.0
 40
-3.0
 40
-3.0
 40
-2.0
 40
-1.0
 40
-0.3931919515975019
 40
-0.3931919515975019
 40
-0.3931919515975019
 40
-0.3931919515975019
 10
52.10465338103095
 20
16.77629933503603
 30
0.0
 10
50.79903169629542
 20
16.82041074972236
 30
0.0
 10
48.18824825956642
 20
16.70073155623372
 30
0.0
 10
44.78953109236022
 20
16.50995152590797
 30
0.0
 10
42.69968723829174
 20
16.31559334268455
 30
0.0
 10
41.9116306416711
 20
16.23168640293907
 30
0.0
  0
SPLINE
  5
CD
330
1F
100
AcDbEntity
  8
Default
100
AcDbSpline
210
0.0
220
0.0
230
1.0
 70
     8
 71
     3
 72
    37
 73
    33
 74
     0
 42
0.0000000001
 43
0.0000000001
 40
-14.44387792529481
 40
-14.44387792529481
 40
-14.44387792529481
 40
-14.44387792529481
 40
-14.0
 40
-13.0
 40
-12.0
 40
-11.0
 40
-10.0
 40
-10.0
 40
-10.0
 40
-9.0
 40
-8.0
 40
-7.0
 40
-6.0
 40
-5.0
 40
-5.0
 40
-5.0
 40
-4.0
 40
-3.0
 40
-2.0
 40
-1.0
 40
0.0
 40
0.0
 40
0.0
 40
1.0
 40
2.0
 40
3.0
 40
4.0
 40
5.0
 40
6.0
 40
7.0
 40
8.0
 40
8.35983946032269
 40
8.35983946032269
 40
8.35983946032269
 40
8.35983946032269
 10
41.91038557878227
 20
15.68948216853379
 30
0.0
 10
42.18508421394715
 20
15.63532542571597
 30
0.0
 10
43.08185539108519
 20
15.47637813698883
 30
0.0
 10
44.61612842754516
 20
15.30600568157637
 30
0.0
 10
46.50631507344284
 20
15.19658727054021
 30
0.0
 10
48.39964133694421
 20
15.16683773337523
 30
0.0
 10
49.66160953242812
 20
15.1919893377199
 30
0.0
 10
50.29344474835899
 20
15.20999553953867
 30
0.0
 10
50.49280056209776
 20
15.21761805115808
 30
0.0
 10
50.88849792044029
 20
15.2286183906962
 30
0.0
 10
51.48563704264176
 20
15.25365689650108
 30
0.0
 10
52.07149090160187
 20
15.24443828371288
 30
0.0
 10
52.69894345103149
 20
15.36202504200293
 30
0.0
 10
53.00705225374734
 20
15.00867179902946
 30
0.0
 10
52.99661421719245
 20
14.80342195902595
 30
0.0
 10
52.99508375829223
 20
14.39583765308808
 30
0.0
 10
52.40074080870748
 20
13.83100340505648
 30
0.0
 10
51.39337588406263
 20
13.2959906747736
 30
0.0
 10
50.32114588945211
 20
12.86392051742473
 30
0.0
 10
49.23507757776886
 20
12.4828216696021
 30
0.0
 10
48.47842064439814
 20
12.2593740415765
 30
0.0
 10
48.10825561626066
 20
12.15780698865511
 30
0.0
 10
47.86100265784776
 20
12.08996493874982
 30
0.0
 10
47.34436960196341
 20
11.95717527204594
 30
0.0
 10
46.59446056114578
 20
11.78581113949253
 30
0.0
 10
45.84038491110325
 20
11.63386510912729
 30
0.0
 10
45.08281471637713
 20
11.50046155933891
 30
0.0
 10
44.32236339506686
 20
11.38464540560026
 30
0.0
 10
43.55955041154304
 20
11.28560461187954
 30
0.0
 10
42.79479020320782
 20
11.20294492274301
 30
0.0
 10
42.19200686395084
 20
11.15037778063994
 30
0.0
 10
41.8443135738936
 20
11.12456399357741
 30
0.0
 10
41.75228653063133
 20
11.1180236179549
 30
0.0
  0
SPLINE
  5
CE
330
1F
100
AcDbEntity
  8
Default
100
AcDbSpline
210
0.0
220
0.0
230
1.0
 70
     8
 71
     3
 72
    67
 73
    63
 74
     0
 42
0.0000000001
 43
0.0000000001
 40
-69.28609361610681
 40
-69.28609361610681
 40
-69.28609361610681
 40
-69.28609361610681
 40
-69.0
 40
-68.0
 40
-67.0
 40
-66.0
 40
-65.0
 40
-64.0
 40
-63.0
 40
-62.0
 40
-61.0
 40
-60.0
 40
-59.0
 40
-58.0
 40
-57.0
 40
-56.0
 40
-55.0
 40
-54.0
 40
-53.0
 40
-52.0
 40
-51.0
 40
-50.0
 40
-49.0
 40
-48.0
 40
-47.0
 40
-46.0
 40
-45.0
 40
-44.0
 40
-43.0
 40
-42.0
 40
-41.0
 40
-40.0
 40
-39.0
 40
-38.0
 40
-37.0
 40
-36.0
 40
-35.0
 40
-34.0
 40
-33.0
 40
-32.0
 40
-32.0
 40
-32.0
 40
-31.0
 40
-30.0
 40
-29.0
 40
-28.0
 40
-27.0
 40
-27.0
 40
-27.0
 40
-26.0
 40
-25.0
 40
-24.0
 40
-23.0
 40
-22.0
 40
-21.0
 40
-20.0
 40
-19.0
 40
-18.0
 40
-17.0
 40
-16.0
 40
-15.0
 40
-14.98583258242324
 40
-14.98583258242324
 40
-14.98583258242324
 40
-14.98583258242324
 10
40.7126852666543
 20
11.05531904908427
 30
0.0
 10
40.63942759415772
 20
11.0516056557851
 30
0.0
 10
40.31007755620327
 20
11.03550664521702
 30
0.0
 10
39.72443603642634
 20
11.01126972916053
 30
0.0
 10
38.95574532400729
 20
10.9843576476818
 30
0.0
 10
38.18653289060413
 20
10.97231995964059
 30
0.0
 10
37.41762026817267
 20
10.98097219962533
 30
0.0
 10
36.64778520187731
 20
11.00210565371956
 30
0.0
 10
35.88724131010857
 20
11.12959005403411
 30
0.0
 10
35.15245069795211
 20
11.36265981101065
 30
0.0
 10
34.45082394939835
 20
11.68101144283268
 30
0.0
 10
33.79336373263452
 20
12.08305221618418
 30
0.0
 10
33.189158716077
 20
12.56125740988509
 30
0.0
 10
32.64433318545521
 20
13.10573367400943
 30
0.0
 10
32.15586307840537
 20
13.70112652156756
 30
0.0
 10
31.72771615250774
 20
14.34093517144849
 30
0.0
 10
31.33853031354482
 20
15.00448355690474
 30
0.0
 10
30.95984560506538
 20
15.67399467275719
 30
0.0
 10
30.5963748497573
 20
16.35193625279971
 30
0.0
 10
30.24803545467188
 20
17.03775133981205
 30
0.0
 10
29.91310480161295
 20
17.73021306307984
 30
0.0
 10
29.59189509882069
 20
18.42914228249486
 30
0.0
 10
29.28346951887114
 20
19.13380242816946
 30
0.0
 10
28.98799869236598
 20
19.84399172015041
 30
0.0
 10
28.70485668907918
 20
20.55918216742997
 30
0.0
 10
28.43308470179054
 20
21.27876424266444
 30
0.0
 10
28.17299115484211
 20
22.00265510817329
 30
0.0
 10
27.92472201478751
 20
22.73068116095124
 30
0.0
 10
27.68606304421183
 20
23.46189849823942
 30
0.0
 10
27.45304766663325
 20
24.19492998659051
 30
0.0
 10
27.22472117556513
 20
24.92943386679915
 30
0.0
 10
27.00096992056125
 20
25.66534697237215
 30
0.0
 10
26.78266415007008
 20
26.40289098972368
 30
0.0
 10
26.56863498177657
 20
27.14169071608681
 30
0.0
 10
26.36169867073409
 20
27.88251081797622
 30
0.0
 10
26.16120966810101
 20
28.62510297367389
 30
0.0
 10
25.96844196501492
 20
29.36973552958097
 30
0.0
 10
25.78540807391451
 20
30.11684228342996
 30
0.0
 10
25.61574883166564
 20
30.8670829254186
 30
0.0
 10
25.51826726851867
 20
31.3707172414775
 30
0.0
 10
25.48426448537806
 20
31.62493136151564
 30
0.0
 10
25.4640352429693
 20
31.76723936710853
 30
0.0
 10
25.43989963764003
 20
32.05650739442642
 30
0.0
 10
25.47868612999135
 20
32.48411639831765
 30
0.0
 10
25.68851958023989
 20
32.90244099620256
 30
0.0
 10
26.17256725321565
 20
32.92648852570288
 30
0.0
 10
26.40146573669651
 20
32.72484220812032
 30
0.0
 10
26.47153279416874
 20
32.59886569788463
 30
0.0
 10
26.78878262361263
 20
32.05337174517527
 30
0.0
 10
27.39425621448687
 20
30.9453223774463
 30
0.0
 10
28.21913666872186
 20
29.24142450146259
 30
0.0
 10
29.08192189025085
 20
27.55596075126093
 30
0.0
 10
30.04458837995974
 20
25.92489323443391
 30
0.0
 10
31.07404560459636
 20
24.33577920763029
 30
0.0
 10
32.17210544269988
 20
22.79300176636106
 30
0.0
 10
33.34028646047937
 20
21.30263121953414
 30
0.0
 10
34.58311160952996
 20
19.87348092077158
 30
0.0
 10
35.90766229083529
 20
18.52030601653628
 30
0.0
 10
37.36277518508155
 20
17.29851109942019
 30
0.0
 10
39.05449905530634
 20
16.42190045808355
 30
0.0
 10
40.27825868364189
 20
16.06616097010163
 30
0.0
 10
40.90005920152517
 20
15.91326072844611
 30
0.0
 10
40.90874654124378
 20
15.9111299115299
 30
0.0
  0
SPLINE
  5
CF
330
1F
100
AcDbEntity
  8
Make2D visible lines
100
AcDbSpline
210
0.0
220
0.0
230
1.0
 70
    24
 71
     2
 72
     6
 73
     3
 74
     0
 42
0.0000000001
 43
0.0000000001
 40
0.7304550385584481
 40
0.7304550385584481
 40
0.7304550385584481
 40
0.8793882784309069
 40
0.8793882784309069
 40
0.8793882784309069
 10
42.5709593527611
 20
11.18443046039371
 30
0.0
 10
42.51242326747874
 20
11.13830089482095
 30
0.0
 10
42.45388718219638
 20
11.0921713292482
 30
0.0
  0
SPLINE
  5
D0
330
1F
100
AcDbEntity
  8
Make2D visible lines
100
AcDbSpline
210
0.0
220
0.0
230
1.0
 70
    12
 71
     2
 72
     6
 73
     3
 74
     0
 42
0.0000000001
 43
0.0000000001
 40
0.0
 40
0.0
 40
0.0
 40
0.6322790145841365
 40
0.6322790145841365
 40
0.6322790145841365
 10
42.45388718219638
 20
11.0921713292482
 30
0.0
 41
1.0
 10
42.18720319172056
 20
10.88194126350768
 30
0.0
 41
0.8997531621452598
 10
42.18719039095411
 20
10.54240017006401
 30
0.0
 41
1.0
  0
SPLINE
  5
D1
330
1F
100
AcDbEntity
  8
Make2D visible lines
100
AcDbSpline
210
0.0
220
0.0
230
1.0
 70
    24
 71
     2
 72
     6
 73
     3
 74
     0
 42
0.0000000001
 43
0.0000000001
 40
0.0
 40
0.0
 40
0.0
 40
4.033400170063998
 40
4.033400170063998
 40
4.033400170063998
 10
42.18719039095411
 20
10.54240017006401
 30
0.0
 10
42.18719039095411
 20
8.524700085032013
 30
0.0
 10
42.18719039095411
 20
6.507000000000014
 30
0.0
  0
SPLINE
  5
D2
330
1F
100
AcDbEntity
  8
Make2D visible lines
100
AcDbSpline
210
0.0
220
0.0
230
1.0
 70
    24
 71
     2
 72
     6
 73
     3
 74
     0
 42
0.0000000001
 43
0.0000000001
 40
-2.579999999999997
 40
-2.579999999999997
 40
-2.579999999999997
 40
0.0
 40
0.0
 40
0.0
 10
42.18719039095411
 20
6.507000000000014
 30
0.0
 10
40.89719039095411
 20
6.507000000000014
 30
0.0
 10
39.6071903909541
 20
6.507000000000014
 30
0.0
  0
LINE
  5
D3
330
1F
100
AcDbEntity
  8
Make2D visible lines
100
AcDbLine
 10
39.6071903909541
 20
6.507000000000014
 30
0.0
 11
39.6071903909541
 21
10.54240017006401
 31
0.0
  0
SPLINE
  5
D4
330
1F
100
AcDbEntity
  8
Make2D visible lines
100
AcDbSpline
210
0.0
220
0.0
230
1.0
 70
    12
 71
     2
 72
     6
 73
     3
 74
     0
 42
0.0000000001
 43
0.0000000001
 40
0.0
 40
0.0
 40
0.0
 40
0.4985951339155696
 40
0.4985951339155696
 40
0.4985951339155696
 10
39.6071903909541
 20
10.54240017006401
 30
0.0
 41
1.0
 10
39.60717442590384
 20
10.80398799445789
 30
0.0
 41
0.9209562772853617
 10
39.43560519600517
 20
11.00148799360492
 30
0.0
 41
0.9665757330955084
  0
SPLINE
  5
D5
330
1F
100
AcDbEntity
  8
Make2D visible lines - Tangent
100
AcDbSpline
210
0.0
220
0.0
230
1.0
 70
    12
 71
     2
 72
   168
 73
   165
 74
     0
 42
0.0000000001
 43
0.0000000001
 40
0.0
 40
0.0
 40
0.0
 40
0.015021989968577
 40
0.015021989968577
 40
0.051551928722867
 40
0.051551928722867
 40
0.0894712432324911
 40
0.0894712432324911
 40
0.1296939146721004
 40
0.1296939146721004
 40
0.1719109998558032
 40
0.1719109998558032
 40
0.2154543440223546
 40
0.2154543440223546
 40
0.2609378630050392
 40
0.2609378630050392
 40
0.3092910283666909
 40
0.3092910283666909
 40
0.3601399040758894
 40
0.3601399040758894
 40
0.4132603495470507
 40
0.4132603495470507
 40
0.4710138206300436
 40
0.4710138206300436
 40
0.5303626646689842
 40
0.5303626646689842
 40
0.5861693475074784
 40
0.5861693475074784
 40
0.6391160027546067
 40
0.6391160027546067
 40
0.6890012439441937
 40
0.6890012439441937
 40
0.7354407662702335
 40
0.7354407662702335
 40
0.779389440435299
 40
0.779389440435299
 40
0.8209979786887035
 40
0.8209979786887035
 40
0.8597122247946397
 40
0.8597122247946397
 40
0.8957950001069913
 40
0.8957950001069913
 40
0.9297770759711769
 40
0.9297770759711769
 40
0.9621449825827371
 40
0.9621449825827371
 40
0.9925039414617204
 40
0.9925039414617204
 40
1.020684937616956
 40
1.020684937616956
 40
1.047149183588244
 40
1.047149183588244
 40
1.072161784715542
 40
1.072161784715542
 40
1.096046611308184
 40
1.096046611308184
 40
1.118950300472953
 40
1.118950300472953
 40
1.140510737365714
 40
1.140510737365714
 40
1.160696427867576
 40
1.160696427867576
 40
1.179755201168048
 40
1.179755201168048
 40
1.1978706834864
 40
1.1978706834864
 40
1.21518721707539
 40
1.21518721707539
 40
1.231826500449564
 40
1.231826500449564
 40
1.247902709729269
 40
1.247902709729269
 40
1.263453306408179
 40
1.263453306408179
 40
1.278401978936106
 40
1.278401978936106
 40
1.29278424942642
 40
1.29278424942642
 40
1.306694454854593
 40
1.306694454854593
 40
1.320210045380573
 40
1.320210045380573
 40
1.333400267246444
 40
1.333400267246444
 40
1.346289316265108
 40
1.346289316265108
 40
1.358907416909897
 40
1.358907416909897
 40
1.371277469388944
 40
1.371277469388944
 40
1.383280553728823
 40
1.383280553728823
 40
1.394843158585906
 40
1.394843158585906
 40
1.405992261601672
 40
1.405992261601672
 40
1.41677943021656
 40
1.41677943021656
 40
1.427290478451308
 40
1.427290478451308
 40
1.43754620540243
 40
1.43754620540243
 40
1.447550849519819
 40
1.447550849519819
 40
1.45731295670005
 40
1.45731295670005
 40
1.466841238641767
 40
1.466841238641767
 40
1.476146165782036
 40
1.476146165782036
 40
1.485234563343965
 40
1.485234563343965
 40
1.494159713944815
 40
1.494159713944815
 40
1.503025142614305
 40
1.503025142614305
 40
1.51183846886651
 40
1.51183846886651
 40
1.520590829644598
 40
1.520590829644598
 40
1.529279114102458
 40
1.529279114102458
 40
1.537898550691676
 40
1.537898550691676
 40
1.546446260276203
 40
1.546446260276203
 40
1.554919192258098
 40
1.554919192258098
 40
1.563311251212902
 40
1.563311251212902
 40
1.5716591198397
 40
1.5716591198397
 40
1.580054687456122
 40
1.580054687456122
 40
1.588517149535702
 40
1.588517149535702
 40
1.59704197902918
 40
1.59704197902918
 40
1.605631032246523
 40
1.605631032246523
 40
1.614283700942016
 40
1.614283700942016
 40
1.622999503899794
 40
1.622999503899794
 40
1.631778116469002
 40
1.631778116469002
 40
1.640614837587183
 40
1.640614837587183
 40
1.649519914514239
 40
1.649519914514239
 40
1.658558151713763
 40
1.658558151713763
 40
1.667762687906858
 40
1.667762687906858
 40
1.67714135148816
 40
1.67714135148816
 40
1.686701789450967
 40
1.686701789450967
 40
1.696453734203208
 40
1.696453734203208
 40
1.70640503812034
 40
1.70640503812034
 40
1.716564179945947
 40
1.716564179945947
 40
1.726936846652795
 40
1.726936846652795
 40
1.726936846652795
 10
40.45529891361207
 20
9.345484882224035
 30
0.0
 41
1.0
 10
40.45412871703587
 20
9.338065573314042
 30
0.0
 41
0.9999938969581084
 10
40.45301039061621
 20
9.33063826890747
 30
0.0
 41
1.0
 10
40.45029196395738
 20
9.312576316170707
 30
0.0
 41
0.9999665630309221
 10
40.44786929713779
 20
9.294472320323225
 30
0.0
 41
1.0
 10
40.44535468927609
 20
9.275679750387742
 30
0.0
 41
0.9999680077335078
 10
40.44314103596209
 20
9.25684935802636
 30
0.0
 41
1.0
 10
40.44079274171823
 20
9.236875161803681
 30
0.0
 41
0.9999681516005677
 10
40.4387635631505
 20
9.216866028015872
 30
0.0
 41
1.0
 10
40.43663362955544
 20
9.195864770803533
 30
0.0
 41
0.9999682701969723
 10
40.4348385515038
 20
9.174832245600726
 30
0.0
 41
1.0
 10
40.43298723076263
 20
9.153138985393252
 30
0.0
 41
0.9999695876220502
 10
40.43147449482687
 20
9.131419488232764
 30
0.0
 41
1.0
 10
40.42989461933776
 20
9.108732224801841
 30
0.0
 41
0.9999705575814505
 10
40.42866310513232
 20
9.086023387286303
 30
0.0
 41
1.0
 10
40.42735369602198
 20
9.061881814860993
 30
0.0
 41
0.999970590113061
 10
40.42641473032968
 20
9.037722998358246
 30
0.0
 41
1.0
 10
40.42542713083265
 20
9.012317252368632
 30
0.0
 41
0.9999707138085828
 10
40.42482850633022
 20
8.98689936632828
 30
0.0
 41
1.0
 10
40.42420369237687
 20
8.960345990048705
 30
0.0
 41
0.9999715588544529
 10
40.42397946824832
 20
8.93378621015765
 30
0.0
 41
1.0
 10
40.42373417390623
 20
8.90490993156937
 30
0.0
 41
0.9999696196146298
 10
40.42393906881345
 20
8.876033338063568
 30
0.0
 41
1.0
 10
40.42414544229722
 20
8.846358942680855
 30
0.0
 41
0.9999650732783176
 10
40.42484779282778
 20
8.816692142464513
 30
0.0
 41
1.0
 10
40.42550909149037
 20
8.788795966527111
 30
0.0
 41
0.9999638929778903
 10
40.42664439021889
 20
8.760915058280634
 30
0.0
 41
1.0
 10
40.42772113589361
 20
8.734462974624975
 30
0.0
 41
0.999962508616763
 10
40.42925580951483
 20
8.70803350456123
 30
0.0
 41
1.0
 10
40.43070138769744
 20
8.683132152182647
 30
0.0
 41
0.9999605518263267
 10
40.4325890816015
 20
8.658260408008003
 30
0.0
 41
1.0
 10
40.43434670055035
 20
8.635106635887329
 30
0.0
 41
0.9999595510601171
 10
40.43652051916738
 20
8.61198822546607
 30
0.0
 41
1.0
 10
40.43857806957121
 20
8.590109812138028
 30
0.0
 41
0.99995807622277
 10
40.44103592781206
 20
8.568272746944077
 30
0.0
 41
1.0
 10
40.44336223593457
 20
8.547598331875223
 30
0.0
 41
0.9999557563838556
 10
40.44607706959613
 20
8.526971339217297
 30
0.0
 41
1.0
 10
40.44860324919242
 20
8.507779163846587
 30
0.0
 41
0.9999540339026077
 10
40.4514969772393
 20
8.488638957034656
 30
0.0
 41
1.0
 10
40.45419424510867
 20
8.470799762555433
 30
0.0
 41
0.9999528932316478
 10
40.45723729185386
 20
8.453016287638166
 30
0.0
 41
1.0
 10
40.46010342886488
 20
8.436268174468408
 30
0.0
 41
0.9999515104976218
 10
40.46329885385114
 20
8.419579756470585
 30
0.0
 41
1.0
 10
40.46634229079675
 20
8.403683984190948
 30
0.0
 41
0.9999492048826203
 10
40.46970552232192
 20
8.387852788452278
 30
0.0
 41
1.0
 10
40.47285966849945
 20
8.373004068631912
 30
0.0
 41
0.999946223912899
 10
40.47632109984141
 20
8.358223959989624
 30
0.0
 41
1.0
 10
40.47953452374013
 20
8.34450424074339
 30
0.0
 41
0.9999446507213984
 10
40.4830359158538
 20
8.3308551732802
 30
0.0
 41
1.0
 10
40.48632419525258
 20
8.318037621451344
 30
0.0
 41
0.9999428722561221
 10
40.48988571824022
 20
8.305293290543123
 30
0.0
 41
1.0
 10
40.49325200976642
 20
8.293248046316618
 30
0.0
 41
0.9999411518753504
 10
40.49687884234682
 20
8.281278672375205
 30
0.0
 41
1.0
 10
40.50034231369229
 20
8.269849009611367
 30
0.0
 41
0.9999390602789673
 10
40.50405728630771
 20
8.25849859978957
 30
0.0
 41
1.0
 10
40.50761944881342
 20
8.247614351364303
 30
0.0
 41
0.9999364047627894
 10
40.51142618808189
 20
8.236813212459454
 30
0.0
 41
1.0
 10
40.51500947606518
 20
8.226645441761745
 30
0.0
 41
0.9999328620968048
 10
40.51882742505126
 20
8.216563439020616
 30
0.0
 41
1.0
 10
40.52240209734666
 20
8.207124335304481
 30
0.0
 41
0.9999305343582732
 10
40.52619827284855
 20
8.197772115645902
 30
0.0
 41
1.0
 10
40.52978264056338
 20
8.188942039441036
 30
0.0
 41
0.9999279234612297
 10
40.53357799025657
 20
8.180200571692122
 30
0.0
 41
1.0
 10
40.53718558467463
 20
8.171891774121903
 30
0.0
 41
0.9999252323885292
 10
40.5409952888067
 20
8.163673683773519
 30
0.0
 41
1.0
 10
40.54463704930361
 20
8.155818053724792
 30
0.0
 41
0.9999223812644737
 10
40.54847341356938
 20
8.148055602295011
 30
0.0
 41
1.0
 10
40.55215981942004
 20
8.140596763184972
 30
0.0
 41
0.999919487485778
 10
40.55603431788933
 20
8.133233874446391
 30
0.0
 41
1.0
 10
40.55977774772552
 20
8.126120149735677
 30
0.0
 41
0.9999162000687793
 10
40.5637040926044
 20
8.11910572444985
 30
0.0
 41
1.0
 10
40.56750207187758
 20
8.11232062379552
 30
0.0
 41
0.9999135013630419
 10
40.57147720455387
 20
8.10563776829395
 30
0.0
 41
1.0
 10
40.57529840093159
 20
8.099213527802858
 30
0.0
 41
0.9999099947791988
 10
40.57929058772758
 20
8.092894124964735
 30
0.0
 41
1.0
 10
40.58313159222845
 20
8.086814192340752
 30
0.0
 41
0.9999061726777286
 10
40.58713771015881
 20
8.080841762733291
 30
0.0
 41
1.0
 10
40.59101238257112
 20
8.075065373929256
 30
0.0
 41
0.9999023324648381
 10
40.59504698593057
 20
8.06939953509904
 30
0.0
 41
1.0
 10
40.59896719186577
 20
8.063894448630563
 30
0.0
 41
0.9998982768291673
 10
40.60304282599145
 20
8.058503419222985
 30
0.0
 41
1.0
 10
40.60702039268608
 20
8.053242184483164
 30
0.0
 41
0.9998941487598454
 10
40.61114935701502
 20
8.048098909129065
 30
0.0
 41
1.0
 10
40.61518405107034
 20
8.043073053881622
 30
0.0
 41
0.9998902036246563
 10
40.61936590570387
 20
8.038168966921525
 30
0.0
 41
1.0
 10
40.62345990543014
 20
8.033367994123953
 30
0.0
 41
0.999885878147773
 10
40.62769707937515
 20
8.028692897277729
 30
0.0
 41
1.0
 10
40.63185099004457
 20
8.02410971121981
 30
0.0
 41
0.9998820182623526
 10
40.63614372530525
 20
8.019656286439636
 30
0.0
 41
1.0
 10
40.64030915639425
 20
8.015335014324837
 30
0.0
 41
0.9998813203850558
 10
40.64460574151479
 20
8.011144123590245
 30
0.0
 41
1.0
 10
40.64874468886671
 20
8.007107073603148
 30
0.0
 41
0.999883332956839
 10
40.65300502094372
 20
8.003198336163278
 30
0.0
 41
1.0
 10
40.65711301350479
 20
7.999429417999521
 30
0.0
 41
0.9998860410670191
 10
40.66133291572251
 20
7.995786236384506
 30
0.0
 41
1.0
 10
40.66541598530714
 20
7.992261529173546
 30
0.0
 41
0.9998900200858785
 10
40.6696017945617
 20
7.988859468174615
 30
0.0
 41
1.0
 10
40.67368036639939
 20
7.985544404573818
 30
0.0
 41
0.9998951693522066
 10
40.67785321766714
 20
7.982348828380147
 30
0.0
 41
1.0
 10
40.68192471713242
 20
7.979230908220183
 30
0.0
 41
0.9998987526914282
 10
40.68608329292153
 20
7.976230111421662
 30
0.0
 41
1.0
 10
40.6901400532479
 20
7.973302796564666
 30
0.0
 41
0.9999025836927364
 10
40.69427694328012
 20
7.970489859046895
 30
0.0
 41
1.0
 10
40.69831354370341
 20
7.967745134213406
 30
0.0
 41
0.9999064139475179
 10
40.70242372596511
 20
7.965111874035527
 30
0.0
 41
1.0
 10
40.70643545696154
 20
7.962541704976752
 30
0.0
 41
0.9999102832948658
 10
40.71051459686969
 20
7.960079922657366
 30
0.0
 41
1.0
 10
40.7144981115822
 20
7.957675862110828
 30
0.0
 41
0.9999141032493661
 10
40.71854327095597
 20
7.955377040191415
 30
0.0
 41
1.0
 10
40.72249429734576
 20
7.953131736017722
 30
0.0
 41
0.9999180051422796
 10
40.72650152808246
 20
7.950988350334272
 30
0.0
 41
1.0
 10
40.7304369817189
 20
7.948883882496243
 30
0.0
 41
0.9999246143570089
 10
40.73442292490657
 20
7.946876686165414
 30
0.0
 41
1.0
 10
40.73838196809356
 20
7.944882512466849
 30
0.0
 41
0.9999314786849639
 10
40.74238661187525
 20
7.94298157062706
 30
0.0
 41
1.0
 10
40.74636775494726
 20
7.941091893638222
 30
0.0
 41
0.9999343713115665
 10
40.75039114854868
 20
7.939293927228649
 30
0.0
 41
1.0
 10
40.75438668355142
 20
7.937508361873125
 30
0.0
 41
0.9999377836118847
 10
40.75842105689924
 20
7.935812373875729
 30
0.0
 41
1.0
 10
40.76242588722145
 20
7.934128806915563
 30
0.0
 41
0.999940712453852
 10
40.76646643056729
 20
7.932532851687657
 30
0.0
 41
1.0
 10
40.77047494401381
 20
7.930949535080444
 30
0.0
 41
0.9999434825835466
 10
40.77451621586484
 20
7.929451805680392
 30
0.0
 41
1.0
 10
40.77852384908495
 20
7.927966536110227
 30
0.0
 41
0.999946012101723
 10
40.78256148207954
 20
7.926564869415174
 30
0.0
 41
1.0
 10
40.78656378399273
 20
7.925175459519064
 30
0.0
 41
0.9999483377231314
 10
40.79059350336915
 20
7.923867697227598
 30
0.0
 41
1.0
 10
40.79458475110737
 20
7.922572410964755
 30
0.0
 41
0.999950520409857
 10
40.79860097788673
 20
7.921356784596409
 30
0.0
 41
1.0
 10
40.80259615449975
 20
7.920147921890417
 30
0.0
 41
0.999954475118939
 10
40.80661367223242
 20
7.919015518923727
 30
0.0
 41
1.0
 10
40.81065402942843
 20
7.917876275539031
 30
0.0
 41
0.9999585954298412
 10
40.81471445053015
 20
7.916810751143446
 30
0.0
 41
1.0
 10
40.81880723883359
 20
7.915736807384932
 30
0.0
 41
0.9999599879389214
 10
40.82291858533168
 20
7.914736256903543
 30
0.0
 41
1.0
 10
40.82706021888524
 20
7.913728298771093
 30
0.0
 41
0.9999616677654989
 10
40.8312188675827
 20
7.912793018545782
 30
0.0
 41
1.0
 10
40.83540884226807
 20
7.911850691532996
 30
0.0
 41
0.9999630254486205
 10
40.83961440335666
 20
7.910980562810733
 30
0.0
 41
1.0
 10
40.8438511073963
 20
7.910103978660924
 30
0.0
 41
0.9999642589611448
 10
40.84810202761282
 20
7.909299156814628
 30
0.0
 41
1.0
 10
40.8523839602512
 20
7.90848845588995
 30
0.0
 41
0.9999653353363037
 10
40.85667879906624
 20
7.907749170652902
 30
0.0
 41
1.0
 10
40.8610045843382
 20
7.907004551282586
 30
0.0
 41
0.9999662672362309
 10
40.86534201764151
 20
7.90633109113897
 30
0.0
 41
1.0
 10
40.86970815607693
 20
7.905653151341271
 30
0.0
 41
0.9999670700847889
 10
40.87408472247736
 20
7.90504616390376
 30
0.0
 41
1.0
 10
40.87849515793526
 20
7.904434608005453
 30
0.0
 41
0.9999681184104892
 10
40.88291479734006
 20
7.903893563574256
 30
0.0
 41
1.0
 10
40.88740051032242
 20
7.903344343210499
 30
0.0
 41
0.999969481483719
 10
40.89189425709664
 20
7.902865277560146
 30
0.0
 41
1.0
 10
40.89647068378574
 20
7.90237738898271
 30
0.0
 41
0.9999700848217764
 10
40.90105411022692
 20
7.901960353536767
 30
0.0
 41
1.0
 10
40.90572424226465
 20
7.901535427384258
 30
0.0
 41
0.9999705724561045
 10
40.9104003441664
 20
7.901182204382325
 30
0.0
 41
1.0
 10
40.91516707523168
 20
7.900822131553642
 30
0.0
 41
0.9999709870484602
 10
40.91993873860876
 20
7.900534718773274
 30
0.0
 41
1.0
 10
40.92480598282116
 20
7.900241546538413
 30
0.0
 41
0.999971308145742
 10
40.92967710995993
 20
7.900022146036077
 30
0.0
 41
1.0
 10
40.93464781671311
 20
7.899798258310139
 30
0.0
 41
0.9999715568877097
 10
40.93962133507965
 20
7.89964937447068
 30
0.0
 41
1.0
 10
40.94469872719917
 20
7.89949737927124
 30
0.0
 41
0.9999717294994794
 10
40.94977783090219
 20
7.899421756192332
 30
0.0
 41
1.0
 10
40.95496368675093
 20
7.899344537385381
 30
0.0
 41
0.9999718398339108
 10
40.96015011743485
 20
7.899345160989983
 30
0.0
 41
1.0
  0
SPLINE
  5
D6
330
1F
100
AcDbEntity
  8
Make2D visible lines - Tangent
100
AcDbSpline
210
0.0
220
0.0
230
1.0
 70
    24
 71
     2
 72
     6
 73
     3
 74
     0
 42
0.0000000001
 43
0.0000000001
 40
0.0
 40
0.0
 40
0.0
 40
15.69160664433937
 40
15.69160664433937
 40
15.69160664433937
 10
33.67872153094081
 20
24.77155774033019
 30
0.0
 10
41.52452485311049
 20
24.77155774033019
 30
0.0
 10
49.37032817528018
 20
24.77155774033019
 30
0.0
  0
POLYLINE
  5
D7
330
1F
100
AcDbEntity
  8
Default
100
AcDb2dPolyline
 66
     1
 10
0.0
 20
0.0
 30
0.0
  0
VERTEX
  5
D8
330
D7
100
AcDbEntity
  8
Default
100
AcDbVertex
100
AcDb2dVertex
 10
49.37092333440704
 20
24.77155774033146
 30
0.0
  0
VERTEX
  5
D9
330
D7
100
AcDbEntity
  8
Default
100
AcDbVertex
100
AcDb2dVertex
 10
33.67299977518105
 20
24.77155774033146
 30
0.0
  0
SEQEND
  5
DA
330
D7
100
AcDbEntity
  8
Default
  0
SPLINE
  5
DB
330
1F
100
AcDbEntity
  8
Default
100
AcDbSpline
210
0.0
220
0.0
230
1.0
 70
    12
 71
     2
 72
     6
 73
     3
 74
     0
 42
0.0000000001
 43
0.0000000001
 40
0.0
 40
0.0
 40
0.0
 40
0.0431172320695658
 40
0.0431172320695658
 40
0.0431172320695658
 10
33.67299977518105
 20
24.77155774033146
 30
0.0
 41
1.0
 10
33.6470430866224
 20
24.77509810195347
 30
0.0
 41
0.754396026161636
 10
33.64696155479406
 20
24.8012949947827
 30
0.0
 41
1.0
  0
SPLINE
  5
DC
330
1F
100
AcDbEntity
  8
Default
100
AcDbSpline
210
0.0
220
0.0
230
1.0
 70
    24
 71
     2
 72
     6
 73
     3
 74
     0
 42
0.0000000001
 43
0.0000000001
 40
0.0
 40
0.0
 40
0.0
 40
0.1037317171327032
 40
0.1037317171327032
 40
0.1037317171327032
 10
33.64696155479406
 20
24.8012949947827
 30
0.0
 10
33.64696155479406
 20
24.85316085334906
 30
0.0
 10
33.64696155479406
 20
24.90502671191541
 30
0.0
  0
SPLINE
  5
DD
330
1F
100
AcDbEntity
  8
Default
100
AcDbSpline
210
0.0
220
0.0
230
1.0
 70
    12
 71
     2
 72
     6
 73
     3
 74
     0
 42
0.0000000001
 43
0.0000000001
 40
0.0
 40
0.0
 40
0.0
 40
0.0470942880630165
 40
0.0470942880630165
 40
0.0470942880630165
 10
33.64696155479406
 20
24.90502671191541
 30
0.0
 41
1.0
 10
33.64702985369811
 20
24.93495813719535
 30
0.0
 41
0.7087216954127066
 10
33.67696127834741
 20
24.93502671191414
 30
0.0
 41
1.0
  0
POLYLINE
  5
DE
330
1F
100
AcDbEntity
  8
Default
100
AcDb2dPolyline
 66
     1
 10
0.0
 20
0.0
 30
0.0
  0
VERTEX
  5
DF
330
DE
100
AcDbEntity
  8
Default
100
AcDbVertex
100
AcDb2dVertex
 10
33.67696127834741
 20
24.93502671191414
 30
0.0
  0
VERTEX
  5
E0
330
DE
100
AcDbEntity
  8
Default
100
AcDbVertex
100
AcDb2dVertex
 10
49.36696183124069
 20
24.93502671191413
 30
0.0
  0
SEQEND
  5
E1
330
DE
100
AcDbEntity
  8
Default
  0
SPLINE
  5
E2
330
1F
100
AcDbEntity
  8
Default
100
AcDbSpline
210
0.0
220
0.0
230
1.0
 70
    12
 71
     2
 72
     6
 73
     3
 74
     0
 42
0.0000000001
 43
0.0000000001
 40
0.0
 40
0.0
 40
0.0
 40
0.0470830900804005
 40
0.0470830900804005
 40
0.0470830900804005
 10
49.36696183124069
 20
24.93502671191413
 30
0.0
 41
1.0
 10
49.3968671892982
 20
24.93493207084377
 30
0.0
 41
0.709337752437847
 10
49.39696155479405
 20
24.9050267119154
 30
0.0
 41
1.0
  0
SPLINE
  5
E3
330
1F
100
AcDbEntity
  8
Default
100
AcDbSpline
210
0.0
220
0.0
230
1.0
 70
    24
 71
     2
 72
     6
 73
     3
 74
     0
 42
0.0000000001
 43
0.0000000001
 40
0.0
 40
0.0
 40
0.0
 40
0.1037317171327068
 40
0.1037317171327068
 40
0.1037317171327068
 10
49.39696155479405
 20
24.90502671191541
 30
0.0
 10
49.39696155479405
 20
24.85316085334906
 30
0.0
 10
49.39696155479405
 20
24.8012949947827
 30
0.0
  0
SPLINE
  5
E4
330
1F
100
AcDbEntity
  8
Default
100
AcDbSpline
210
0.0
220
0.0
230
1.0
 70
    12
 71
     2
 72
     6
 73
     3
 74
     0
 42
0.0000000001
 43
0.0000000001
 40
0.0
 40
0.0
 40
0.0
 40
0.0431192810070287
 40
0.0431192810070287
 40
0.0431192810070287
 10
49.39696155479405
 20
24.8012949947827
 30
0.0
 41
1.0
 10
49.39688504389563
 20
24.77509370557987
 30
0.0
 41
0.7542698814906877
 10
49.37092333440704
 20
24.77155774033146
 30
0.0
 41
1.0
  0
LINE
  5
E5
330
1F
100
AcDbEntity
  8
Make2D visible lines
100
AcDbLine
 10
49.37092333440704
 20
24.77155774033148
 30
0.0
 11
48.20946155479403
 21
24.61682067115186
 31
0.0
  0
POLYLINE
  5
E6
330
1F
100
AcDbEntity
  8
Make2D visible lines
100
AcDb2dPolyline
 66
     1
 10
0.0
 20
0.0
 30
0.0
  0
VERTEX
  5
E7
330
E6
100
AcDbEntity
  8
Make2D visible lines
100
AcDbVertex
100
AcDb2dVertex
 10
48.20946155479403
 20
24.61682067115186
 30
0.0
  0
VERTEX
  5
E8
330
E6
100
AcDbEntity
  8
Make2D visible lines
100
AcDbVertex
100
AcDb2dVertex
 10
34.83446155479406
 20
24.61682067115186
 30
0.0
  0
SEQEND
  5
E9
330
E6
100
AcDbEntity
  8
Make2D visible lines
  0
LINE
  5
EA
330
1F
100
AcDbEntity
  8
Make2D visible lines
100
AcDbLine
 10
34.83446155479406
 20
24.61682067115186
 30
0.0
 11
33.67299977518105
 21
24.77155774033149
 31
0.0
  0
SPLINE
  5
EB
330
1F
100
AcDbEntity
  8
Make2D visible lines - Tangent
100
AcDbSpline
210
0.0
220
0.0
230
1.0
 70
    24
 71
     2
 72
     6
 73
     3
 74
     0
 42
0.0000000001
 43
0.0000000001
 40
0.0
 40
0.0
 40
0.0
 40
2.676270802103183
 40
2.676270802103183
 40
2.676270802103183
 10
40.23232550234818
 20
24.61700000000017
 30
0.0
 10
40.52672791391868
 20
23.31165193469002
 30
0.0
 10
40.82113032548916
 20
22.00630386937986
 30
0.0
  0
SPLINE
  5
EC
330
1F
100
AcDbEntity
  8
Make2D visible lines - Tangent
100
AcDbSpline
210
0.0
220
0.0
230
1.0
 70
    12
 71
     2
 72
     6
 73
     3
 74
     0
 42
0.0000000001
 43
0.0000000001
 40
0.0
 40
0.0
 40
0.0
 40
0.8423651494234989
 40
0.8423651494234989
 40
0.8423651494234989
 10
40.82113032548916
 20
22.00630386937986
 30
0.0
 41
1.0
 10
40.91281809865836
 20
21.59411433111337
 30
0.0
 41
0.9940635425065365
 10
40.9107068458848
 20
21.17184804577864
 30
0.0
 41
0.9999833237124235
  0
SPLINE
  5
ED
330
1F
100
AcDbEntity
  8
Make2D visible lines - Tangent
100
AcDbSpline
210
0.0
220
0.0
230
1.0
 70
    12
 71
     2
 72
     6
 73
     3
 74
     0
 42
0.0000000001
 43
0.0000000001
 40
-5.88575116928194
 40
-5.88575116928194
 40
-5.88575116928194
 40
0.0
 40
0.0
 40
0.0
 10
40.9107068458848
 20
21.17184804577864
 30
0.0
 41
0.9999999999999543
 10
40.90851813973912
 20
18.22956148283045
 30
0.0
 41
0.9999999998857951
 10
40.90877314461701
 20
15.28727520687736
 30
0.0
 41
1.0
  0
SPLINE
  5
EE
330
1F
100
AcDbEntity
  8
Make2D visible lines
100
AcDbSpline
210
0.0
220
0.0
230
1.0
 70
    12
 71
     2
 72
     6
 73
     3
 74
     0
 42
0.0000000001
 43
0.0000000001
 40
-5.940375403408892
 40
-5.940375403408892
 40
-5.940375403408892
 40
0.0
 40
0.0
 40
0.0
 10
41.9093311968893
 20
15.23025731074658
 30
0.0
 41
1.0
 10
41.91615033827173
 20
18.20043718475646
 30
0.0
 41
0.9999999998889685
 10
41.92298199153163
 20
21.17153577156396
 30
0.0
 41
1.0
  0
SPLINE
  5
EF
330
1F
100
AcDbEntity
  8
Make2D visible lines
100
AcDbSpline
210
0.0
220
0.0
230
1.0
 70
    12
 71
     2
 72
     6
 73
     3
 74
     0
 42
0.0000000001
 43
0.0000000001
 40
0.0
 40
0.0
 40
0.0
 40
0.8407959860078048
 40
0.8407959860078048
 40
0.8407959860078048
 10
41.92298199153163
 20
21.17153577156396
 30
0.0
 41
1.0
 10
41.92414550954868
 20
21.59453150398117
 30
0.0
 41
0.9940379545576153
 10
42.01684876375185
 20
22.00630386937982
 30
0.0
 41
1.0
  0
SPLINE
  5
F0
330
1F
100
AcDbEntity
  8
Make2D visible lines
100
AcDbSpline
210
0.0
220
0.0
230
1.0
 70
    12
 71
     2
 72
     6
 73
     3
 74
     0
 42
0.0000000001
 43
0.0000000001
 40
-2.264829216482423
 40
-2.264829216482423
 40
-2.264829216482423
 40
0.0
 40
0.0
 40
0.0
 10
42.01684876375185
 20
22.00630386937982
 30
0.0
 41
1.0
 10
42.35664274422202
 20
23.51230228570529
 30
0.0
 41
0.9999999711154947
 10
42.60644672848863
 20
24.61682067115186
 30
0.0
 41
1.0
  0
SPLINE
  5
F1
330
1F
100
AcDbEntity
  8
Make2D visible lines
100
AcDbSpline
210
0.0
220
0.0
230
1.0
 70
     8
 71
     3
 72
    11
 73
     7
 74
     0
 42
0.0000000001
 43
0.0000000001
 40
-3.604533747753514
 40
-3.604533747753514
 40
-3.604533747753514
 40
-3.604533747753514
 40
-1.29720077610909
 40
-0.5068718072901084
 40
-0.2444672640635463
 40
0.0
 40
0.0
 40
0.0
 40
0.0
 10
40.90876660879018
 20
15.25949999719881
 30
0.0
 10
40.90999389998591
 20
14.49037666108042
 30
0.0
 10
40.90325602483294
 20
13.45779319357485
 30
0.0
 10
40.86270508620927
 20
12.33830625978791
 30
0.0
 10
40.83296409449854
 20
11.90693170775241
 30
0.0
 10
40.81064135983964
 20
11.73926186251412
 30
0.0
 10
40.79977357996446
 20
11.65856886647449
 30
0.0
  0
SPLINE
  5
F2
330
1F
100
AcDbEntity
  8
Make2D visible lines
100
AcDbSpline
210
0.0
220
0.0
230
1.0
 70
    12
 71
     2
 72
     6
 73
     3
 74
     0
 42
0.0000000001
 43
0.0000000001
 40
-2.272009417850031
 40
-2.272009417850031
 40
-2.272009417850031
 40
0.0
 40
0.0
 40
0.0
 10
40.79977357996446
 20
11.65856886647449
 30
0.0
 41
1.0
 10
40.62970972726846
 20
10.46804224664606
 30
0.0
 41
0.9999808792826932
 10
40.45530016822197
 20
9.34549117618978
 30
0.0
 41
1.0
  0
SPLINE
  5
F3
330
1F
100
AcDbEntity
  8
Make2D visible lines
100
AcDbSpline
210
0.0
220
0.0
230
1.0
 70
     8
 71
     3
 72
    11
 73
     7
 74
     0
 42
0.0000000001
 43
0.0000000001
 40
0.0
 40
0.0
 40
0.0
 40
0.0
 40
1.779933691844768
 40
2.456716871258557
 40
3.081424838275757
 40
3.780244987988229
 40
3.780244987988229
 40
3.780244987988229
 40
3.780244987988229
 10
41.90925852762217
 20
15.20486631671762
 30
0.0
 10
41.90782837558731
 20
14.61153312132836
 30
0.0
 10
41.90244823460775
 20
13.79272175968005
 30
0.0
 10
41.89356204785072
 20
12.765484321098
 30
0.0
 10
41.85629934350612
 20
12.09959032509296
 30
0.0
 10
41.81495614578252
 20
11.66028450768195
 30
0.0
 10
41.78866599786919
 20
11.42883335977639
 30
0.0
  0
SPLINE
  5
F4
330
1F
100
AcDbEntity
  8
Make2D visible lines
100
AcDbSpline
210
0.0
220
0.0
230
1.0
 70
    12
 71
     2
 72
     6
 73
     3
 74
     0
 42
0.0000000001
 43
0.0000000001
 40
0.0
 40
0.0
 40
0.0
 40
2.818593858935649
 40
2.818593858935649
 40
2.818593858935649
 10
41.78866599786919
 20
11.42883335977639
 30
0.0
 41
1.0
 10
41.61676205993847
 20
9.96450379509152
 30
0.0
 41
0.9999942670651581
 10
41.46184961159189
 20
8.563741448874278
 30
0.0
 41
1.0
  0
SPLINE
  5
F5
330
1F
100
AcDbEntity
  8
Make2D visible lines
100
AcDbSpline
210
0.0
220
0.0
230
1.0
 70
    24
 71
     2
 72
     6
 73
     3
 74
     0
 42
0.0000000001
 43
0.0000000001
 40
0.0
 40
0.0
 40
0.0
 40
0.0480073117461094
 40
0.0480073117461094
 40
0.0480073117461094
 10
39.69726021121338
 20
6.507000000000014
 30
0.0
 10
39.6968412896551
 20
6.483000000000013
 30
0.0
 10
39.69642236809682
 20
6.459000000000012
 30
0.0
  0
SPLINE
  5
F6
330
1F
100
AcDbEntity
  8
Make2D visible lines - Tangent
100
AcDbSpline
210
0.0
220
0.0
230
1.0
 70
    12
 71
     2
 72
   134
 73
   131
 74
     0
 42
0.0000000001
 43
0.0000000001
 40
0.0
 40
0.0
 40
0.0
 40
0.0103618007057328
 40
0.0103618007057328
 40
0.0204971898813582
 40
0.0204971898813582
 40
0.0304129655268391
 40
0.0304129655268391
 40
0.0401175645491072
 40
0.0401175645491072
 40
0.0496191879293457
 40
0.0496191879293457
 40
0.0589278886109421
 40
0.0589278886109421
 40
0.0680512565808454
 40
0.0680512565808454
 40
0.0769969964223616
 40
0.0769969964223616
 40
0.0858009152299
 40
0.0858009152299
 40
0.0945248126129193
 40
0.0945248126129193
 40
0.1031805605980915
 40
0.1031805605980915
 40
0.1117631953876731
 40
0.1117631953876731
 40
0.1202725454240848
 40
0.1202725454240848
 40
0.1287081359833104
 40
0.1287081359833104
 40
0.1370706041255511
 40
0.1370706041255511
 40
0.1453604779508667
 40
0.1453604779508667
 40
0.1535754323586221
 40
0.1535754323586221
 40
0.1617340423027064
 40
0.1617340423027064
 40
0.1699310288715412
 40
0.1699310288715412
 40
0.1781990165891735
 40
0.1781990165891735
 40
0.1865331977260289
 40
0.1865331977260289
 40
0.1949302172379227
 40
0.1949302172379227
 40
0.2033878881179739
 40
0.2033878881179739
 40
0.2119018369398998
 40
0.2119018369398998
 40
0.2204697947814767
 40
0.2204697947814767
 40
0.2290818969221475
 40
0.2290818969221475
 40
0.237751508097219
 40
0.237751508097219
 40
0.2465795045135971
 40
0.2465795045135971
 40
0.2556178142405355
 40
0.2556178142405355
 40
0.2648731571433803
 40
0.2648731571433803
 40
0.2743560983835703
 40
0.2743560983835703
 40
0.2840761778981557
 40
0.2840761778981557
 40
0.2940427368251433
 40
0.2940427368251433
 40
0.3042596265524666
 40
0.3042596265524666
 40
0.3147509161730592
 40
0.3147509161730592
 40
0.325600563816459
 40
0.325600563816459
 40
0.3368583705776335
 40
0.3368583705776335
 40
0.3485617491143247
 40
0.3485617491143247
 40
0.3606834957140744
 40
0.3606834957140744
 40
0.3731122898029783
 40
0.3731122898029783
 40
0.3858312088060758
 40
0.3858312088060758
 40
0.3988651812823669
 40
0.3988651812823669
 40
0.4122395568524631
 40
0.4122395568524631
 40
0.4260245278737769
 40
0.4260245278737769
 40
0.4402915028995758
 40
0.4402915028995758
 40
0.4551459966841598
 40
0.4551459966841598
 40
0.470618477062563
 40
0.470618477062563
 40
0.4866096481795588
 40
0.4866096481795588
 40
0.5031793207605351
 40
0.5031793207605351
 40
0.5204354462945071
 40
0.5204354462945071
 40
0.5385003925120821
 40
0.5385003925120821
 40
0.5575211780563534
 40
0.5575211780563534
 40
0.5776726652400456
 40
0.5776726652400456
 40
0.5992163574304467
 40
0.5992163574304467
 40
0.6220917583289378
 40
0.6220917583289378
 40
0.6458951581886722
 40
0.6458951581886722
 40
0.6708691062540574
 40
0.6708691062540574
 40
0.69729131039346
 40
0.69729131039346
 40
0.7254113623190559
 40
0.7254113623190559
 40
0.7557257674892728
 40
0.7557257674892728
 40
0.7879884215789752
 40
0.7879884215789752
 40
0.8217798069115194
 40
0.8217798069115194
 40
0.8576753667354315
 40
0.8576753667354315
 40
0.8961452136044132
 40
0.8961452136044132
 40
0.9320676884465922
 40
0.9320676884465922
 40
0.9320676884465922
 10
40.96015011743485
 20
7.899345160989979
 30
0.0
 41
1.0
 10
40.96533111534649
 20
7.899345456957674
 30
0.0
 41
0.9999717526200459
 10
40.97051152341895
 20
7.899423634007142
 30
0.0
 41
1.0
 10
40.97557873765034
 20
7.899500095181978
 30
0.0
 41
0.9999714413475868
 10
40.9806442173542
 20
7.899653136836116
 30
0.0
 41
1.0
 10
40.98559993961857
 20
7.899802860163328
 30
0.0
 41
0.9999710584034681
 10
40.99055281004738
 20
7.900027970695842
 30
0.0
 41
1.0
 10
40.9954002006227
 20
7.900248284673486
 30
0.0
 41
0.9999705967847077
 10
41.00024364224419
 20
7.900542914776846
 30
0.0
 41
1.0
 10
41.00498578317616
 20
7.900831380051075
 30
0.0
 41
0.9999700573339781
 10
41.00972289170192
 20
7.901193202726352
 30
0.0
 41
1.0
 10
41.01436381941446
 20
7.901547674804314
 30
0.0
 41
0.9999694170468953
 10
41.01899863505906
 20
7.901974692869143
 30
0.0
 41
1.0
 10
41.02354117559852
 20
7.902393207724946
 30
0.0
 41
0.999968700144798
 10
41.02807652510524
 20
7.902883548513639
 30
0.0
 41
1.0
 10
41.03252357673407
 20
7.903364333842449
 30
0.0
 41
0.9999678596256335
 10
41.03696234754291
 20
7.903916363215226
 30
0.0
 41
1.0
 10
41.04133076311734
 20
7.904459561631036
 30
0.0
 41
0.999966228985695
 10
41.04568966053622
 20
7.905074486375527
 30
0.0
 41
1.0
 10
41.05000892532853
 20
7.905683942969186
 30
0.0
 41
0.999964946787608
 10
41.05431737905336
 20
7.906365640986399
 30
0.0
 41
1.0
 10
41.05859218235083
 20
7.907041993206661
 30
0.0
 41
0.9999638736199127
 10
41.06285487023865
 20
7.907790917454498
 30
0.0
 41
1.0
 10
41.06708155681908
 20
7.908533508961693
 30
0.0
 41
0.9999626711304167
 10
41.07129478021955
 20
7.909349027308073
 30
0.0
 41
1.0
 10
41.07547203321826
 20
7.910157575867174
 30
0.0
 41
0.9999613102145801
 10
41.07963441554801
 20
7.911039486706445
 30
0.0
 41
1.0
 10
41.08376072467713
 20
7.911913742939857
 30
0.0
 41
0.9999597836867349
 10
41.08787068942721
 20
7.912861867796506
 30
0.0
 41
1.0
 10
41.09194503262756
 20
7.913801773291829
 30
0.0
 41
0.9999581110435471
 10
41.09600148810146
 20
7.914816102549404
 30
0.0
 41
1.0
 10
41.10002274290425
 20
7.915821595960674
 30
0.0
 41
0.9999561222715012
 10
41.1040244544829
 20
7.91690224929568
 30
0.0
 41
1.0
 10
41.1079899886704
 20
7.917973199224623
 30
0.0
 41
0.9999543856794902
 10
41.11193434242537
 20
7.919119701993171
 30
0.0
 41
1.0
 10
41.11585175251484
 20
7.920258007262983
 30
0.0
 41
0.9999499014255475
 10
41.11974559048851
 20
7.921474504912487
 30
0.0
 41
1.0
 10
41.1236576486104
 20
7.922697069586555
 30
0.0
 41
0.999945713688444
 10
41.12754338119471
 20
7.924000889134865
 30
0.0
 41
1.0
 10
41.13146278140968
 20
7.925315993805089
 30
0.0
 41
0.9999432551563318
 10
41.13535327398954
 20
7.926714302006021
 30
0.0
 41
1.0
 10
41.13927492265721
 20
7.928123801907519
 30
0.0
 41
0.999940640874441
 10
41.14316492725766
 20
7.929618419736103
 30
0.0
 41
1.0
 10
41.14708427087477
 20
7.931124305119305
 30
0.0
 41
0.9999378433340594
 10
41.15096906267204
 20
7.932717207460398
 30
0.0
 41
1.0
 10
41.15488192564693
 20
7.93432160978117
 30
0.0
 41
0.9999348199827583
 10
41.15875713484876
 20
7.936014937011548
 30
0.0
 41
1.0
 10
41.16265813703988
 20
7.937719537953504
 30
0.0
 41
0.9999316631915303
 10
41.16651822021957
 20
7.939514876448682
 30
0.0
 41
1.0
 10
41.1704028150834
 20
7.941321574709749
 30
0.0
 41
0.9999280626658086
 10
41.1742429542107
 20
7.943220934429645
 30
0.0
 41
1.0
 10
41.1781028482842
 20
7.945130161395307
 30
0.0
 41
0.9999250138942638
 10
41.1819148270439
 20
7.947133345810393
 30
0.0
 41
1.0
 10
41.18575246315218
 20
7.949149565011732
 30
0.0
 41
0.999918134306355
 10
41.18953724980864
 20
7.951263324868595
 30
0.0
 41
1.0
 10
41.19339098707113
 20
7.953416084785164
 30
0.0
 41
0.9999120133451711
 10
41.19718625952102
 20
7.955670319284437
 30
0.0
 41
1.0
 10
41.20107194969957
 20
7.957978277023835
 30
0.0
 41
0.9999083334152393
 10
41.20489372258981
 20
7.960390601435236
 30
0.0
 41
1.0
 10
41.20880726746057
 20
7.96286087019428
 30
0.0
 41
0.999904818287288
 10
41.21265116481151
 20
7.965438177772509
 30
0.0
 41
1.0
 10
41.21658958658342
 20
7.96807888501686
 30
0.0
 41
0.9999013596402458
 10
41.22045228264769
 20
7.970829172259839
 30
0.0
 41
1.0
 10
41.22441157002622
 20
7.973648257485151
 30
0.0
 41
0.9998980359736296
 10
41.2282887379498
 20
7.976579258499441
 30
0.0
 41
1.0
 10
41.23226422146236
 20
7.979584601773687
 30
0.0
 41
0.999894817681794
 10
41.23615086521061
 20
7.982703985964323
 30
0.0
 41
1.0
 10
41.24013511749484
 20
7.985901751232605
 30
0.0
 41
0.9998919520594235
 10
41.24402364503033
 20
7.989215257318474
 30
0.0
 41
1.0
 10
41.24801667267459
 20
7.992617702725375
 30
0.0
 41
0.9998878564927871
 10
41.25190601202881
 20
7.996138206084618
 30
0.0
 41
1.0
 10
41.25592805971675
 20
7.999779133842237
 30
0.0
 41
0.9998851027693852
 10
41.25983788942486
 20
8.003540311077328
 30
0.0
 41
1.0
 10
41.2638947788915
 20
8.007443018742537
 30
0.0
 41
0.9998834151926278
 10
41.26783060609828
 20
8.011467785004445
 30
0.0
 41
1.0
 10
41.27192217247543
 20
8.015651889119967
 30
0.0
 41
0.9998822824964377
 10
41.27588343038411
 20
8.019959565808056
 30
0.0
 41
1.0
 10
41.27998624831751
 20
8.02442126973542
 30
0.0
 41
0.9998829924815152
 10
41.28395065980789
 20
8.029006393339543
 30
0.0
 41
1.0
 10
41.2880154591173
 20
8.033707666172194
 30
0.0
 41
0.9998868129090466
 10
41.29193696999172
 20
8.038529109123697
 30
0.0
 41
1.0
 10
41.29594997265054
 20
8.043463110764547
 30
0.0
 41
0.9998917625173156
 10
41.2998160688144
 20
8.048513047693199
 30
0.0
 41
1.0
 10
41.30377792005155
 20
8.053688056372284
 30
0.0
 41
0.9998963477509348
 10
41.30758912775957
 20
8.058974990820543
 30
0.0
 41
1.0
 10
41.31149982777232
 20
8.064400007537364
 30
0.0
 41
0.9999010520514044
 10
41.31525636555432
 20
8.069932891492382
 30
0.0
 41
1.0
 10
41.3191281743922
 20
8.075635648305864
 30
0.0
 41
0.9999055647146026
 10
41.32284179307
 20
8.08144265917779
 30
0.0
 41
1.0
 10
41.32668522238737
 20
8.087452718585505
 30
0.0
 41
0.9999098262224931
 10
41.33036586122244
 20
8.093563828203873
 30
0.0
 41
1.0
 10
41.33419799498032
 20
8.099926617272983
 30
0.0
 41
0.9999138464247526
 10
41.33786178283319
 20
8.106387808528881
 30
0.0
 41
1.0
 10
41.34167807423166
 20
8.1131177358397
 30
0.0
 41
0.999917434343454
 10
41.34532015940707
 20
8.119943511782557
 30
0.0
 41
1.0
 10
41.34908431970041
 20
8.126998102988678
 30
0.0
 41
0.9999205684922011
 10
41.35266946836001
 20
8.134145331044927
 30
0.0
 41
1.0
 10
41.35638428125547
 20
8.141551114667521
 30
0.0
 41
0.9999240273520862
 10
41.35991540623345
 20
8.149046221224655
 30
0.0
 41
1.0
 10
41.36359274294056
 20
8.156851853881255
 30
0.0
 41
0.9999270725471932
 10
41.36708048627597
 20
8.164744024232538
 30
0.0
 41
1.0
 10
41.37073163648542
 20
8.173006123740272
 30
0.0
 41
0.9999299970544517
 10
41.37418626040117
 20
8.18135230608482
 30
0.0
 41
1.0
 10
41.37782358839403
 20
8.190140112137337
 30
0.0
 41
0.9999326785128254
 10
41.38125601415068
 20
8.19900995675656
 30
0.0
 41
1.0
 10
41.38489236297522
 20
8.208407101931568
 30
0.0
 41
0.9999352800266359
 10
41.38831396195629
 20
8.217884550460928
 30
0.0
 41
1.0
 10
41.39197180218108
 20
8.22801680358068
 30
0.0
 41
0.9999374358945413
 10
41.39540206453428
 20
8.23822834844818
 30
0.0
 41
1.0
 10
41.39904450806775
 20
8.249071037055423
 30
0.0
 41
0.9999409568900083
 10
41.40245045923617
 20
8.259990322186166
 30
0.0
 41
1.0
 10
41.40599481343008
 20
8.271352479263872
 30
0.0
 41
0.9999438859053578
 10
41.40929765257864
 20
8.282787177059133
 30
0.0
 41
1.0
 10
41.4127627759954
 20
8.294784206408984
 30
0.0
 41
0.999945780367763
 10
41.41597730470438
 20
8.306850796594027
 30
0.0
 41
1.0
 10
41.41937811606675
 20
8.319617156236886
 30
0.0
 41
0.9999474123585588
 10
41.42251637849188
 20
8.332450579996898
 30
0.0
 41
1.0
 10
41.42585612273891
 20
8.346108685634798
 30
0.0
 41
0.9999491223330617
 10
41.4289196557168
 20
8.359831386059458
 30
0.0
 41
1.0
 10
41.43222196576899
 20
8.37462499053425
 30
0.0
 41
0.9999503989314781
 10
41.43522894951718
 20
8.389481438083225
 30
0.0
 41
1.0
 10
41.43842938059323
 20
8.405292608960833
 30
0.0
 41
0.9999533940408946
 10
41.44132393076128
 20
8.42116262669611
 30
0.0
 41
1.0
 10
41.44435596333751
 20
8.437784540109849
 30
0.0
 41
0.9999558733800403
 10
41.44707517484566
 20
8.454460484336527
 30
0.0
 41
1.0
 10
41.44996347399034
 20
8.472174856415226
 30
0.0
 41
0.9999570537376784
 10
41.45252294731098
 20
8.489939719105738
 30
0.0
 41
1.0
 10
41.45526578161067
 20
8.508978622474492
 30
0.0
 41
0.9999580368680401
 10
41.45765933816934
 20
8.528064582457706
 30
0.0
 41
1.0
 10
41.45989472624706
 20
8.545886546026114
 30
0.0
 41
0.9999690914178203
 10
41.46184960235709
 20
8.56374145584628
 30
0.0
 41
1.0
  0
SPLINE
  5
F7
330
1F
100
AcDbEntity
  8
Make2D visible lines
100
AcDbSpline
210
0.0
220
0.0
230
1.0
 70
    24
 71
     2
 72
     6
 73
     3
 74
     0
 42
0.0000000001
 43
0.0000000001
 40
0.0
 40
0.0
 40
0.0
 40
1.379419120443295
 40
1.379419120443295
 40
1.379419120443295
 10
26.27506894185821
 20
0.4000000000000163
 30
0.0
 10
26.96477850207986
 20
0.4000000000000162
 30
0.0
 10
27.65448806230151
 20
0.4000000000000161
 30
0.0
  0
SPLINE
  5
F8
330
1F
100
AcDbEntity
  8
Make2D visible lines
100
AcDbSpline
210
0.0
220
0.0
230
1.0
 70
    12
 71
     2
 72
     6
 73
     3
 74
     0
 42
0.0000000001
 43
0.0000000001
 40
0.0
 40
0.0
 40
0.0
 40
0.2412324278936833
 40
0.2412324278936833
 40
0.2412324278936833
 10
27.66684015913198
 20
0.1521885802082181
 30
0.0
 41
1.0
 10
27.66312075034605
 20
-0.0000000000000105
 30
0.0
 41
0.7156927337036098
 10
27.51088672672613
 20
0.0000000000000034
 30
0.0
 41
1.0
  0
SPLINE
  5
F9
330
1F
100
AcDbEntity
  8
Make2D visible lines
100
AcDbSpline
210
0.0
220
0.0
230
1.0
 70
    12
 71
     2
 72
     6
 73
     3
 74
     0
 42
0.0000000001
 43
0.0000000001
 40
0.0
 40
0.0
 40
0.0
 40
0.2253642768281202
 40
0.2253642768281202
 40
0.2253642768281202
 10
41.29971681630646
 20
0.385325058594006
 30
0.0
 41
1.0
 10
41.30217592560743
 20
0.2726697563467351
 30
0.0
 41
0.9999999984988344
 10
41.30464738045812
 20
0.1600147242624911
 30
0.0
 41
1.0
  0
SPLINE
  5
FA
330
1F
100
AcDbEntity
  8
Make2D visible lines
100
AcDbSpline
210
0.0
220
0.0
230
1.0
 70
    12
 71
     2
 72
     8
 73
     5
 74
     0
 42
0.0000000001
 43
0.0000000001
 40
0.0
 40
0.0
 40
0.0
 40
0.1240063772075993
 40
0.1240063772075993
 40
0.2480127544151987
 40
0.2480127544151987
 40
0.2480127544151987
 10
40.64509480093986
 20
0.000000000001096
 30
0.0
 41
1.0
 10
40.57960486688559
 20
-0.0000119099018914
 30
0.0
 41
0.9220189045496352
 10
40.53373784213916
 20
0.0467336529376692
 30
0.0
 41
1.0
 10
40.4878708173927
 20
0.0934792157772298
 30
0.0
 41
0.9220189045496352
 10
40.48912510972008
 20
0.1589571384308644
 30
0.0
 41
1.0
  0
SPLINE
  5
FB
330
1F
100
AcDbEntity
  8
Make2D visible lines
100
AcDbSpline
210
0.0
220
0.0
230
1.0
 70
    12
 71
     2
 72
     8
 73
     5
 74
     0
 42
0.0000000001
 43
0.0000000001
 40
0.0
 40
0.0
 40
0.0
 40
0.1242318577480881
 40
0.1242318577480881
 40
0.2484637154961761
 40
0.2484637154961761
 40
0.2484637154961761
 10
41.30465811832099
 20
0.1594215907425355
 30
0.0
 41
1.0
 10
41.30609770897491
 20
0.0938162002370285
 30
0.0
 41
0.9217678869813357
 10
41.26020861679325
 20
0.0469085153295885
 30
0.0
 41
1.0
 10
41.21431952461163
 20
0.0000008304221485
 30
0.0
 41
0.9217678869813357
 10
41.14869834141639
 20
0.0000000000011417
 30
0.0
 41
1.0
  0
SPLINE
  5
FC
330
1F
100
AcDbEntity
  8
Make2D visible lines
100
AcDbSpline
210
0.0
220
0.0
230
1.0
 70
    24
 71
     2
 72
     6
 73
     3
 74
     0
 42
0.0000000001
 43
0.0000000001
 40
0.0
 40
0.0
 40
0.0
 40
0.3876534637036499
 40
0.3876534637036499
 40
0.3876534637036499
 10
40.89689653988725
 20
0.4000000000000163
 30
0.0
 10
40.70306980803543
 20
0.4000000000000162
 30
0.0
 10
40.50924307618361
 20
0.4000000000000161
 30
0.0
  0
SPLINE
  5
FD
330
1F
100
AcDbEntity
  8
Make2D visible lines
100
AcDbSpline
210
0.0
220
0.0
230
1.0
 70
    24
 71
     2
 72
     6
 73
     3
 74
     0
 42
0.0000000001
 43
0.0000000001
 40
0.0
 40
0.0
 40
0.0
 40
0.3863627208447955
 40
0.3863627208447955
 40
0.3863627208447955
 10
41.28325957019787
 20
0.4000000000000166
 30
0.0
 10
41.09007820977547
 20
0.4000000000000165
 30
0.0
 10
40.89689684935307
 20
0.4000000000000163
 30
0.0
  0
SPLINE
  5
FE
330
1F
100
AcDbEntity
  8
Make2D visible lines
100
AcDbSpline
210
0.0
220
0.0
230
1.0
 70
    24
 71
     2
 72
     6
 73
     3
 74
     0
 42
0.0000000001
 43
0.0000000001
 40
0.0
 40
0.0
 40
0.0
 40
0.2325105046476637
 40
0.2325105046476637
 40
0.2325105046476637
 10
54.12695282659939
 20
0.1521924194416825
 30
0.0
 10
54.12411245756343
 20
0.2684129683847045
 30
0.0
 10
54.12127208852748
 20
0.3846335173277264
 30
0.0
  0
SPLINE
  5
FF
330
1F
100
AcDbEntity
  8
Make2D visible lines
100
AcDbSpline
210
0.0
220
0.0
230
1.0
 70
    12
 71
     2
 72
     6
 73
     3
 74
     0
 42
0.0000000001
 43
0.0000000001
 40
0.0
 40
0.0
 40
0.0
 40
0.0224671519842366
 40
0.0224671519842366
 40
0.0224671519842366
 10
55.53368420304994
 20
0.3860938211857499
 30
0.0
 41
1.0
 10
55.53266743790581
 20
0.4000000000000348
 30
0.0
 41
0.7324347794791691
 10
55.51872413770202
 20
0.4000000000000183
 30
0.0
 41
1.0
  0
SPLINE
  5
100
330
1F
100
AcDbEntity
  8
Make2D visible lines
100
AcDbSpline
210
0.0
220
0.0
230
1.0
 70
    12
 71
     2
 72
     8
 73
     5
 74
     0
 42
0.0000000001
 43
0.0000000001
 40
0.0
 40
0.0
 40
0.0
 40
0.1269465231438366
 40
0.1269465231438366
 40
0.2538930462876731
 40
0.2538930462876731
 40
0.2538930462876731
 10
55.3905005602992
 20
0.0000000000000036
 30
0.0
 41
1.0
 10
55.45772512463459
 20
0.000000000000002
 30
0.0
 41
0.918360064844369
 10
55.50389296674284
 20
0.0488638148853193
 30
0.0
 41
1.0
 10
55.55006080885111
 20
0.0977276297706366
 30
0.0
 41
0.918360064844369
 10
55.54624966090621
 20
0.1648440748599159
 30
0.0
 41
1.0
  0
SPLINE
  5
101
330
1F
100
AcDbEntity
  8
Make2D visible lines
100
AcDbSpline
210
0.0
220
0.0
230
1.0
 70
    12
 71
     2
 72
     8
 73
     5
 74
     0
 42
0.0000000001
 43
0.0000000001
 40
0.0
 40
0.0
 40
0.0
 40
0.0119642320224294
 40
0.0119642320224294
 40
0.0239284640448587
 40
0.0239284640448587
 40
0.0239284640448587
 10
54.13626761087421
 20
0.4000000000000163
 30
0.0
 41
1.0
 10
54.12994678280723
 20
0.4000000000000209
 30
0.0
 41
0.9215246294676533
 10
54.12553221986865
 20
0.3954762292814858
 30
0.0
 41
1.0
 10
54.12111765693007
 20
0.3909524585629509
 30
0.0
 41
0.9215246294676533
 10
54.12127208852748
 20
0.3846335173277264
 30
0.0
 41
1.0
  0
SPLINE
  5
102
330
1F
100
AcDbEntity
  8
Make2D visible lines
100
AcDbSpline
210
0.0
220
0.0
230
1.0
 70
    24
 71
     2
 72
     6
 73
     3
 74
     0
 42
0.0000000001
 43
0.0000000001
 40
0.0
 40
0.0
 40
0.0
 40
1.107594207465098
 40
1.107594207465098
 40
1.107594207465098
 10
54.28290635283412
 20
0.0000000000000036
 30
0.0
 10
54.83670345656667
 20
0.0000000000000036
 30
0.0
 10
55.39050056029922
 20
0.0000000000000036
 30
0.0
  0
SPLINE
  5
103
330
1F
100
AcDbEntity
  8
Make2D visible lines
100
AcDbSpline
210
0.0
220
0.0
230
1.0
 70
    24
 71
     3
 72
     9
 73
     5
 74
     0
 42
0.0000000001
 43
0.0000000001
 40
0.0
 40
0.0
 40
0.0
 40
0.0
 40
0.0000682360840525
 40
0.251869451330915
 40
0.251869451330915
 40
0.251869451330915
 40
0.251869451330915
 10
40.64516356311572
 20
0.0000000000000036
 30
0.0
 10
40.64505408313565
 20
0.0000000000000036
 30
0.0
 10
40.72900022762724
 20
0.0000000000000036
 30
0.0
 10
40.81296572465018
 20
0.0000000000000036
 30
0.0
 10
40.89689654227853
 20
0.0000000000000036
 30
0.0
  0
SPLINE
  5
104
330
1F
100
AcDbEntity
  8
Make2D visible lines
100
AcDbSpline
210
0.0
220
0.0
230
1.0
 70
    12
 71
     2
 72
     6
 73
     3
 74
     0
 42
0.0000000001
 43
0.0000000001
 40
0.0
 40
0.0
 40
0.0
 40
0.2259576718196235
 40
0.2259576718196235
 40
0.2259576718196235
 10
40.48913268780548
 20
0.1594216323489093
 30
0.0
 41
1.0
 10
40.49161068231795
 20
0.2723732898507527
 30
0.0
 41
0.9999999984910576
 10
40.49407626675304
 20
0.3853252189294936
 30
0.0
 41
1.0
  0
SPLINE
  5
105
330
1F
100
AcDbEntity
  8
Make2D visible lines
100
AcDbSpline
210
0.0
220
0.0
230
1.0
 70
    12
 71
     2
 72
     6
 73
     3
 74
     0
 42
0.0000000001
 43
0.0000000001
 40
0.0
 40
0.0
 40
0.0
 40
0.0232125536774005
 40
0.0232125536774005
 40
0.0232125536774005
 10
40.4940781713172
 20
0.3853269610145591
 30
0.0
 41
1.0
 10
40.49444468365494
 20
0.3999502926109969
 30
0.0
 41
0.7170957278319929
 10
40.50907252312125
 20
0.3999999999617776
 30
0.0
 41
1.0
  0
SPLINE
  5
106
330
1F
100
AcDbEntity
  8
Make2D visible lines
100
AcDbSpline
210
0.0
220
0.0
230
1.0
 70
    12
 71
     2
 72
     6
 73
     3
 74
     0
 42
0.0000000001
 43
0.0000000001
 40
0.0
 40
0.0
 40
0.0
 40
0.0232077921390905
 40
0.0232077921390905
 40
0.0232077921390905
 10
41.28472092219486
 20
0.3999999999470365
 30
0.0
 41
1.0
 10
41.2993380964152
 20
0.3999392744149043
 30
0.0
 41
0.7176120634141828
 10
41.29971495073934
 20
0.3853268327778507
 30
0.0
 41
1.0
  0
SPLINE
  5
107
330
1F
100
AcDbEntity
  8
Make2D visible lines
100
AcDbSpline
210
0.0
220
0.0
230
1.0
 70
    24
 71
     2
 72
     6
 73
     3
 74
     0
 42
0.0000000001
 43
0.0000000001
 40
0.0
 40
0.0
 40
0.0
 40
0.2213623405233084
 40
0.2213623405233084
 40
0.2213623405233084
 10
55.53370001276041
 20
0.3858503918134666
 30
0.0
 10
55.53997483683331
 20
0.2753472333366913
 30
0.0
 10
55.54624966090621
 20
0.164844074859916
 30
0.0
  0
SPLINE
  5
108
330
1F
100
AcDbEntity
  8
Make2D visible lines
100
AcDbSpline
210
0.0
220
0.0
230
1.0
 70
    24
 71
     2
 72
     6
 73
     3
 74
     0
 42
0.0000000001
 43
0.0000000001
 40
0.0
 40
0.0
 40
0.0
 40
0.0480073117461094
 40
0.0480073117461094
 40
0.0480073117461094
 10
42.09712057069484
 20
6.507000000000014
 30
0.0
 10
42.09753949225312
 20
6.483000000000013
 30
0.0
 10
42.0979584138114
 20
6.459000000000012
 30
0.0
  0
SPLINE
  5
109
330
1F
100
AcDbEntity
  8
Make2D visible lines
100
AcDbSpline
210
0.0
220
0.0
230
1.0
 70
    24
 71
     2
 72
     6
 73
     3
 74
     0
 42
0.0000000001
 43
0.0000000001
 40
0.0
 40
0.0
 40
0.0
 40
1.107594207465098
 40
1.107594207465098
 40
1.107594207465098
 10
27.51088672672611
 20
0.0000000000000036
 30
0.0
 10
26.95708962299356
 20
0.0000000000000036
 30
0.0
 10
26.40329251926102
 20
0.0000000000000036
 30
0.0
  0
SPLINE
  5
10A
330
1F
100
AcDbEntity
  8
Make2D visible lines
100
AcDbSpline
210
0.0
220
0.0
230
1.0
 70
    12
 71
     2
 72
     8
 73
     5
 74
     0
 42
0.0000000001
 43
0.0000000001
 40
0.0
 40
0.0
 40
0.0
 40
0.1269465231438366
 40
0.1269465231438366
 40
0.2538930462876731
 40
0.2538930462876731
 40
0.2538930462876731
 10
26.40329251926103
 20
0.0000000000000036
 30
0.0
 41
1.0
 10
26.33606795492565
 20
0.000000000000002
 30
0.0
 41
0.918360064844369
 10
26.28990011281739
 20
0.0488638148853193
 30
0.0
 41
1.0
 10
26.24373227070913
 20
0.0977276297706366
 30
0.0
 41
0.918360064844369
 10
26.24754341865402
 20
0.1648440748599159
 30
0.0
 41
1.0
  0
SPLINE
  5
10B
330
1F
100
AcDbEntity
  8
Make2D visible lines
100
AcDbSpline
210
0.0
220
0.0
230
1.0
 70
     8
 71
     3
 72
     8
 73
     4
 74
     0
 42
0.0000000001
 43
0.0000000001
 40
0.6950384688492743
 40
0.6950384688492743
 40
0.6950384688492743
 40
0.6950384688492743
 40
1.0
 40
1.0
 40
1.0
 40
1.0
 10
41.37370555124328
 20
3.673125576136301
 30
0.0
 10
41.62220018020582
 20
3.670158211529776
 30
0.0
 10
41.87065324031933
 20
3.664870965980719
 30
0.0
 10
42.11899973466335
 20
3.65726383948913
 30
0.0
  0
SPLINE
  5
10C
330
1F
100
AcDbEntity
  8
Make2D visible lines
100
AcDbSpline
210
0.0
220
0.0
230
1.0
 70
    12
 71
     3
 72
     8
 73
     4
 74
     0
 42
0.0000000001
 43
0.0000000001
 40
-0.9983344876344831
 40
-0.9983344876344831
 40
-0.9983344876344831
 40
-0.9983344876344831
 40
0.0
 40
0.0
 40
0.0
 40
0.0
 10
42.11899973466335
 20
3.65726383948913
 30
0.0
 41
1.0
 10
42.57366247343296
 20
3.64333701932616
 30
0.0
 41
1.0
 10
43.0260452492092
 20
3.574404695741988
 30
0.0
 41
1.0
 10
43.47689653978017
 20
3.511811827671384
 30
0.0
 41
1.0
  0
SPLINE
  5
10D
330
1F
100
AcDbEntity
  8
Make2D visible lines
100
AcDbSpline
210
0.0
220
0.0
230
1.0
 70
    24
 71
     2
 72
     6
 73
     3
 74
     0
 42
0.0000000001
 43
0.0000000001
 40
0.0
 40
0.0
 40
0.0
 40
10.36850216633574
 40
10.36850216633574
 40
10.36850216633574
 10
43.47689653978017
 20
3.511811827671384
 30
0.0
 10
48.61189653978017
 20
2.798906298637399
 30
0.0
 10
53.74689653978017
 20
2.086000769603414
 30
0.0
  0
SPLINE
  5
10E
330
1F
100
AcDbEntity
  8
Make2D visible lines
100
AcDbSpline
210
0.0
220
0.0
230
1.0
 70
     8
 71
     3
 72
    13
 73
     9
 74
     0
 42
0.0000000001
 43
0.0000000001
 40
0.0
 40
0.0
 40
0.0
 40
0.0
 40
0.1163337939371243
 40
0.2443108918713642
 40
0.4828690280123605
 40
0.5672189493277444
 40
0.750510233115731
 40
1.83258135608072
 40
1.83258135608072
 40
1.83258135608072
 40
1.83258135608072
 10
53.74689653978017
 20
2.086000769603414
 30
0.0
 10
53.78457546335326
 20
2.080693221901958
 30
0.0
 10
53.86551145735265
 20
2.057218183732865
 30
0.0
 10
53.99789308560283
 20
1.966768126584214
 30
0.0
 10
54.08027686651718
 20
1.830020096093349
 30
0.0
 10
54.09133248536875
 20
1.661268225296924
 30
0.0
 10
54.09940570635992
 20
1.211528658082631
 30
0.0
 10
54.1122309401734
 20
0.7898405850234216
 30
0.0
 10
54.12018126332939
 20
0.429267031622143
 30
0.0
  0
SPLINE
  5
10F
330
1F
100
AcDbEntity
  8
Make2D visible lines
100
AcDbSpline
210
0.0
220
0.0
230
1.0
 70
    12
 71
     2
 72
     6
 73
     3
 74
     0
 42
0.0000000001
 43
0.0000000001
 40
-0.0371380794388858
 40
-0.0371380794388858
 40
-0.0371380794388858
 40
0.0
 40
0.0
 40
0.0
 10
55.51254011967886
 20
0.4022441987256987
 30
0.0
 41
1.0
 10
55.53231202479597
 20
0.4103542426935238
 30
0.0
 41
0.8144776561050845
 10
55.53110755277315
 20
0.4316908378358253
 30
0.0
 41
1.0
  0
SPLINE
  5
110
330
1F
100
AcDbEntity
  8
Make2D visible lines
100
AcDbSpline
210
0.0
220
0.0
230
1.0
 70
     8
 71
     3
 72
    12
 73
     8
 74
     0
 42
0.0000000001
 43
0.0000000001
 40
0.0
 40
0.0
 40
0.0
 40
0.0
 40
2.024931116884056
 40
2.121300252943487
 40
2.208073208949396
 40
2.641991453438839
 40
3.085460819895622
 40
3.085460819895622
 40
3.085460819895622
 40
3.085460819895622
 10
55.53110755277315
 20
0.4316908378358253
 30
0.0
 10
55.49240368077274
 20
1.105574847750693
 30
0.0
 10
55.45410102110863
 20
1.811593362411049
 30
0.0
 10
55.41127905431232
 20
2.546414843142783
 30
0.0
 10
55.36644483547646
 20
2.747953191239763
 30
0.0
 10
55.19788615988149
 20
3.034556781920432
 30
0.0
 10
54.92722081336693
 20
3.175838551528641
 30
0.0
 10
54.78289653978007
 20
3.205665827232744
 30
0.0
  0
SPLINE
  5
111
330
1F
100
AcDbEntity
  8
Make2D visible lines
100
AcDbSpline
210
0.0
220
0.0
230
1.0
 70
    24
 71
     2
 72
     6
 73
     3
 74
     0
 42
0.0000000001
 43
0.0000000001
 40
-12.2902709571203
 40
-12.2902709571203
 40
-12.2902709571203
 40
0.0
 40
0.0
 40
0.0
 10
54.78289653978007
 20
3.205665827232744
 30
0.0
 10
48.76489653978006
 20
4.449195501128249
 30
0.0
 10
42.74689653978005
 20
5.692725175023753
 30
0.0
  0
SPLINE
  5
112
330
1F
100
AcDbEntity
  8
Make2D visible lines
100
AcDbSpline
210
0.0
220
0.0
230
1.0
 70
    12
 71
     3
 72
    11
 73
     7
 74
     0
 42
0.0000000001
 43
0.0000000001
 40
0.0
 40
0.0
 40
0.0
 40
0.0
 40
0.2500000000000077
 40
0.500000000000056
 40
0.7500000000001044
 40
0.9903549301730069
 40
0.9903549301730069
 40
0.9903549301730069
 40
0.9903549301730069
 10
42.74689653978005
 20
5.692725175023753
 30
0.0
 41
1.0
 10
42.67442879880792
 20
5.707699549616471
 30
0.0
 41
1.0
 10
42.53278133813019
 20
5.771964450750453
 30
0.0
 41
1.0
 10
42.35193328620529
 20
5.941965920377697
 30
0.0
 41
1.0
 10
42.22610667120324
 20
6.15347175039408
 30
0.0
 41
1.0
 10
42.19094885439506
 20
6.303120864095799
 30
0.0
 41
1.0
 10
42.18840365209995
 20
6.378712134379271
 30
0.0
 41
1.0
  0
SPLINE
  5
113
330
1F
100
AcDbEntity
  8
Make2D visible lines
100
AcDbSpline
210
0.0
220
0.0
230
1.0
 70
    24
 71
     2
 72
     6
 73
     3
 74
     0
 42
0.0000000001
 43
0.0000000001
 40
0.0
 40
0.0
 40
0.0
 40
0.080013140622857
 40
0.080013140622857
 40
0.080013140622857
 10
42.18840365209995
 20
6.378712134379271
 30
0.0
 10
42.18765009594006
 20
6.420856067189643
 30
0.0
 10
42.18689653978016
 20
6.463000000000015
 30
0.0
  0
SPLINE
  5
114
330
1F
100
AcDbEntity
  8
Make2D visible lines
100
AcDbSpline
210
0.0
220
0.0
230
1.0
 70
    24
 71
     2
 72
     6
 73
     3
 74
     0
 42
0.0000000001
 43
0.0000000001
 40
0.0
 40
0.0
 40
0.0
 40
1.290000000000045
 40
1.290000000000045
 40
1.290000000000045
 10
42.18689653978016
 20
6.463000000000015
 30
0.0
 10
41.54189653978014
 20
6.463000000000015
 30
0.0
 10
40.89689653978012
 20
6.463000000000015
 30
0.0
  0
SPLINE
  5
115
330
1F
100
AcDbEntity
  8
Make2D visible lines
100
AcDbSpline
210
0.0
220
0.0
230
1.0
 70
    24
 71
     2
 72
     6
 73
     3
 74
     0
 42
0.0000000001
 43
0.0000000001
 40
0.0
 40
0.0
 40
0.0
 40
1.289412297652113
 40
1.289412297652113
 40
1.289412297652113
 10
40.89689653978012
 20
6.463000000000015
 30
0.0
 10
40.25204346536707
 20
6.463000000000015
 30
0.0
 10
39.60719039095403
 20
6.463000000000015
 30
0.0
  0
SPLINE
  5
116
330
1F
100
AcDbEntity
  8
Make2D visible lines
100
AcDbSpline
210
0.0
220
0.0
230
1.0
 70
    24
 71
     2
 72
     6
 73
     3
 74
     0
 42
0.0000000001
 43
0.0000000001
 40
-0.080013140622857
 40
-0.080013140622857
 40
-0.080013140622857
 40
0.0
 40
0.0
 40
0.0
 10
39.60719039095403
 20
6.463000000000015
 30
0.0
 10
39.60628990920716
 20
6.420856067189643
 30
0.0
 10
39.60538942746028
 20
6.378712134379271
 30
0.0
  0
SPLINE
  5
117
330
1F
100
AcDbEntity
  8
Make2D visible lines
100
AcDbSpline
210
0.0
220
0.0
230
1.0
 70
    12
 71
     3
 72
    11
 73
     7
 74
     0
 42
0.0000000001
 43
0.0000000001
 40
-0.9903549301730069
 40
-0.9903549301730069
 40
-0.9903549301730069
 40
-0.9903549301730069
 40
-0.7500000000001044
 40
-0.500000000000056
 40
-0.2500000000000077
 40
0.0
 40
0.0
 40
0.0
 40
0.0
 10
39.60538942746028
 20
6.378712134379271
 30
0.0
 41
1.0
 10
39.60284422516517
 20
6.303120864095799
 30
0.0
 41
1.0
 10
39.56768640835699
 20
6.15347175039408
 30
0.0
 41
1.0
 10
39.44185979335494
 20
5.941965920377697
 30
0.0
 41
1.0
 10
39.26101174143004
 20
5.771964450750453
 30
0.0
 41
1.0
 10
39.11936428075231
 20
5.707699549616471
 30
0.0
 41
1.0
 10
39.04689653978018
 20
5.692725175023753
 30
0.0
 41
1.0
  0
SPLINE
  5
118
330
1F
100
AcDbEntity
  8
Make2D visible lines
100
AcDbSpline
210
0.0
220
0.0
230
1.0
 70
    24
 71
     2
 72
     6
 73
     3
 74
     0
 42
0.0000000001
 43
0.0000000001
 40
0.0
 40
0.0
 40
0.0
 40
12.2902709571203
 40
12.2902709571203
 40
12.2902709571203
 10
39.04689653978018
 20
5.692725175023753
 30
0.0
 10
33.02889653978017
 20
4.449195501128249
 30
0.0
 10
27.01089653978016
 20
3.205665827232744
 30
0.0
  0
SPLINE
  5
119
330
1F
100
AcDbEntity
  8
Make2D visible lines
100
AcDbSpline
210
0.0
220
0.0
230
1.0
 70
     8
 71
     3
 72
    12
 73
     8
 74
     0
 42
0.0000000001
 43
0.0000000001
 40
-3.085460819895622
 40
-3.085460819895622
 40
-3.085460819895622
 40
-3.085460819895622
 40
-2.641991453438839
 40
-2.208073208949396
 40
-2.121300252943487
 40
-2.024931116884056
 40
0.0
 40
0.0
 40
0.0
 40
0.0
 10
27.01089653978016
 20
3.205665827232744
 30
0.0
 10
26.8665722661933
 20
3.175838551528641
 30
0.0
 10
26.59590691967874
 20
3.034556781920432
 30
0.0
 10
26.42734824408377
 20
2.747953191239763
 30
0.0
 10
26.38251402524791
 20
2.546414843142783
 30
0.0
 10
26.3396920584516
 20
1.811593362411049
 30
0.0
 10
26.30138939878749
 20
1.105574847750693
 30
0.0
 10
26.26268552678708
 20
0.4316908378358253
 30
0.0
  0
SPLINE
  5
11A
330
1F
100
AcDbEntity
  8
Make2D visible lines
100
AcDbSpline
210
0.0
220
0.0
230
1.0
 70
    12
 71
     2
 72
     6
 73
     3
 74
     0
 42
0.0000000001
 43
0.0000000001
 40
0.0
 40
0.0
 40
0.0
 40
0.0371380794388858
 40
0.0371380794388858
 40
0.0371380794388858
 10
26.26268552678708
 20
0.4316908378358253
 30
0.0
 41
1.0
 10
26.26148105476426
 20
0.4103542426935238
 30
0.0
 41
0.8144776561050845
 10
26.28125295988137
 20
0.4022441987256987
 30
0.0
 41
1.0
  0
SPLINE
  5
11B
330
1F
100
AcDbEntity
  8
Make2D visible lines
100
AcDbSpline
210
0.0
220
0.0
230
1.0
 70
    12
 71
     2
 72
     8
 73
     5
 74
     0
 42
0.0000000001
 43
0.0000000001
 40
0.0
 40
0.0
 40
0.0
 40
0.0119642320224294
 40
0.0119642320224294
 40
0.0239284640448587
 40
0.0239284640448587
 40
0.0239284640448587
 10
27.65752546868602
 20
0.4000000000000163
 30
0.0
 41
1.0
 10
27.66384629675301
 20
0.4000000000000209
 30
0.0
 41
0.9215246294676533
 10
27.66826085969159
 20
0.3954762292814858
 30
0.0
 41
1.0
 10
27.67267542263015
 20
0.3909524585629509
 30
0.0
 41
0.9215246294676533
 10
27.67252099103275
 20
0.3846335173277264
 30
0.0
 41
1.0
  0
SPLINE
  5
11C
330
1F
100
AcDbEntity
  8
Make2D visible lines
100
AcDbSpline
210
0.0
220
0.0
230
1.0
 70
    12
 71
     2
 72
     6
 73
     3
 74
     0
 42
0.0000000001
 43
0.0000000001
 40
-0.0352706514985427
 40
-0.0352706514985427
 40
-0.0352706514985427
 40
0.0
 40
0.0
 40
0.0
 10
54.13930501725876
 20
0.4020374895150737
 30
0.0
 41
1.0
 10
54.12066974123253
 20
0.4092798636229074
 30
0.0
 41
0.8321381552760684
 10
54.12018126332939
 20
0.429267031622143
 30
0.0
 41
1.0
  0
SPLINE
  5
11D
330
1F
100
AcDbEntity
  8
Make2D visible lines
100
AcDbSpline
210
0.0
220
0.0
230
1.0
 70
    24
 71
     2
 72
     6
 73
     3
 74
     0
 42
0.0000000001
 43
0.0000000001
 40
0.0
 40
0.0
 40
0.0
 40
1.379419120443295
 40
1.379419120443295
 40
1.379419120443295
 10
55.51872413770202
 20
0.4000000000000163
 30
0.0
 10
54.82901457748037
 20
0.4000000000000162
 30
0.0
 10
54.13930501725872
 20
0.4000000000000161
 30
0.0
  0
SPLINE
  5
11E
330
1F
100
AcDbEntity
  8
Make2D visible lines
100
AcDbSpline
210
0.0
220
0.0
230
1.0
 70
    12
 71
     2
 72
     6
 73
     3
 74
     0
 42
0.0000000001
 43
0.0000000001
 40
-0.0352706514985427
 40
-0.0352706514985427
 40
-0.0352706514985427
 40
0.0
 40
0.0
 40
0.0
 10
27.65448806230147
 20
0.4020374895150737
 30
0.0
 41
1.0
 10
27.67312333832771
 20
0.4092798636229074
 30
0.0
 41
0.8321381552760684
 10
27.67361181623085
 20
0.429267031622143
 30
0.0
 41
1.0
  0
SPLINE
  5
11F
330
1F
100
AcDbEntity
  8
Make2D visible lines
100
AcDbSpline
210
0.0
220
0.0
230
1.0
 70
    12
 71
     2
 72
     6
 73
     3
 74
     0
 42
0.0000000001
 43
0.0000000001
 40
0.0
 40
0.0
 40
0.0
 40
0.0224671519842366
 40
0.0224671519842366
 40
0.0224671519842366
 10
26.26010887651029
 20
0.3860938211857499
 30
0.0
 41
1.0
 10
26.26112564165442
 20
0.4000000000000348
 30
0.0
 41
0.7324347794791691
 10
26.27506894185821
 20
0.4000000000000183
 30
0.0
 41
1.0
  0
SPLINE
  5
120
330
1F
100
AcDbEntity
  8
Make2D visible lines
100
AcDbSpline
210
0.0
220
0.0
230
1.0
 70
    24
 71
     2
 72
     6
 73
     3
 74
     0
 42
0.0000000001
 43
0.0000000001
 40
0.0
 40
0.0
 40
0.0
 40
0.2517559204860955
 40
0.2517559204860955
 40
0.2517559204860955
 10
40.89689654227853
 20
0.0000000000000036
 30
0.0
 10
41.02277450252158
 20
0.0000000000000036
 30
0.0
 10
41.14865246276463
 20
0.0000000000000036
 30
0.0
  0
SPLINE
  5
121
330
1F
100
AcDbEntity
  8
Make2D visible lines
100
AcDbSpline
210
0.0
220
0.0
230
1.0
 70
     8
 71
     3
 72
    13
 73
     9
 74
     0
 42
0.0000000001
 43
0.0000000001
 40
-1.83258135608072
 40
-1.83258135608072
 40
-1.83258135608072
 40
-1.83258135608072
 40
-0.750510233115731
 40
-0.5672189493277444
 40
-0.4828690280123605
 40
-0.2443108918713642
 40
-0.1163337939371243
 40
0.0
 40
0.0
 40
0.0
 40
0.0
 10
27.67361181623085
 20
0.429267031622143
 30
0.0
 10
27.68156213938683
 20
0.7898405850234216
 30
0.0
 10
27.69438737320031
 20
1.211528658082631
 30
0.0
 10
27.70246059419148
 20
1.661268225296924
 30
0.0
 10
27.71351621304305
 20
1.830020096093349
 30
0.0
 10
27.79589999395741
 20
1.966768126584214
 30
0.0
 10
27.92828162220758
 20
2.057218183732865
 30
0.0
 10
28.00921761620697
 20
2.080693221901958
 30
0.0
 10
28.04689653978006
 20
2.086000769603414
 30
0.0
  0
SPLINE
  5
122
330
1F
100
AcDbEntity
  8
Make2D visible lines
100
AcDbSpline
210
0.0
220
0.0
230
1.0
 70
    24
 71
     2
 72
     6
 73
     3
 74
     0
 42
0.0000000001
 43
0.0000000001
 40
-10.36850216633574
 40
-10.36850216633574
 40
-10.36850216633574
 40
0.0
 40
0.0
 40
0.0
 10
28.04689653978006
 20
2.086000769603414
 30
0.0
 10
33.18189653978006
 20
2.798906298637399
 30
0.0
 10
38.31689653978006
 20
3.511811827671384
 30
0.0
  0
SPLINE
  5
123
330
1F
100
AcDbEntity
  8
Make2D visible lines
100
AcDbSpline
210
0.0
220
0.0
230
1.0
 70
    12
 71
     3
 72
     8
 73
     4
 74
     0
 42
0.0000000001
 43
0.0000000001
 40
0.0
 40
0.0
 40
0.0
 40
0.0
 40
0.9983344876344831
 40
0.9983344876344831
 40
0.9983344876344831
 40
0.9983344876344831
 10
38.31689653978006
 20
3.511811827671384
 30
0.0
 41
1.0
 10
38.76774783035103
 20
3.574404695741988
 30
0.0
 41
1.0
 10
39.22013060612727
 20
3.64333701932616
 30
0.0
 41
1.0
 10
39.67479334489688
 20
3.65726383948913
 30
0.0
 41
1.0
  0
SPLINE
  5
124
330
1F
100
AcDbEntity
  8
Make2D visible lines
100
AcDbSpline
210
0.0
220
0.0
230
1.0
 70
     8
 71
     3
 72
     8
 73
     4
 74
     0
 42
0.0000000001
 43
0.0000000001
 40
0.0
 40
0.0
 40
0.0
 40
0.0
 40
0.3051876163662417
 40
0.3051876163662417
 40
0.3051876163662417
 40
0.3051876163662417
 10
39.67479334489688
 20
3.65726383948913
 30
0.0
 10
39.92332395253048
 20
3.664876605573444
 30
0.0
 10
40.1719612839986
 20
3.670166049722532
 30
0.0
 10
40.42064019771591
 20
3.673132171936395
 30
0.0
  0
SPLINE
  5
125
330
1F
100
AcDbEntity
  8
Make2D visible lines
100
AcDbSpline
210
0.0
220
0.0
230
1.0
 70
    24
 71
     2
 72
     6
 73
     3
 74
     0
 42
0.0000000001
 43
0.0000000001
 40
0.0
 40
0.0
 40
0.0
 40
0.2213623405233084
 40
0.2213623405233084
 40
0.2213623405233084
 10
26.26009306679983
 20
0.3858503918134666
 30
0.0
 10
26.25381824272692
 20
0.2753472333366913
 30
0.0
 10
26.24754341865402
 20
0.164844074859916
 30
0.0
  0
SPLINE
  5
126
330
1F
100
AcDbEntity
  8
Make2D visible lines
100
AcDbSpline
210
0.0
220
0.0
230
1.0
 70
    24
 71
     2
 72
     6
 73
     3
 74
     0
 42
0.0000000001
 43
0.0000000001
 40
0.0
 40
0.0
 40
0.0
 40
0.2325105046476637
 40
0.2325105046476637
 40
0.2325105046476637
 10
27.66684025296084
 20
0.1521924194416825
 30
0.0
 10
27.6696806219968
 20
0.2684129683847045
 30
0.0
 10
27.67252099103275
 20
0.3846335173277264
 30
0.0
  0
SPLINE
  5
127
330
1F
100
AcDbEntity
  8
Make2D visible lines
100
AcDbSpline
210
0.0
220
0.0
230
1.0
 70
    12
 71
     2
 72
     6
 73
     3
 74
     0
 42
0.0000000001
 43
0.0000000001
 40
0.0
 40
0.0
 40
0.0
 40
0.2412324278936833
 40
0.2412324278936833
 40
0.2412324278936833
 10
54.12695292042825
 20
0.1521885802082181
 30
0.0
 41
1.0
 10
54.13067232921418
 20
-0.0000000000000105
 30
0.0
 41
0.7156927337036098
 10
54.2829063528341
 20
0.0000000000000034
 30
0.0
 41
1.0
  0
SPLINE
  5
128
330
1F
100
AcDbEntity
  8
Make2D visible lines - Tangent
100
AcDbSpline
210
0.0
220
0.0
230
1.0
 70
     8
 71
     3
 72
    54
 73
    50
 74
     0
 42
0.0000000001
 43
0.0000000001
 40
0.0
 40
0.0
 40
0.0
 40
0.0
 40
1.0
 40
2.0
 40
3.0
 40
4.0
 40
5.0
 40
6.0
 40
7.0
 40
8.0
 40
9.0
 40
10.0
 40
11.0
 40
12.0
 40
13.0
 40
14.0
 40
15.0
 40
16.0
 40
17.0
 40
18.0
 40
19.0
 40
20.0
 40
21.0
 40
22.0
 40
23.0
 40
24.0
 40
25.0
 40
26.0
 40
27.0
 40
28.0
 40
29.0
 40
30.0
 40
31.0
 40
32.0
 40
33.0
 40
34.0
 40
35.0
 40
36.0
 40
37.0
 40
38.0
 40
39.0
 40
40.0
 40
41.0
 40
42.0
 40
43.0
 40
44.0
 40
45.0
 40
46.0
 40
47.0
 40
47.0
 40
47.0
 40
47.0
 10
41.28247057886328
 20
0.403329261439214
 30
0.0
 10
41.30774085820983
 20
0.471691761030031
 30
0.0
 10
41.28970374258371
 20
0.6333535261625483
 30
0.0
 10
41.29047480483227
 20
0.8657327374605353
 30
0.0
 10
41.28389716770616
 20
1.100824691898526
 30
0.0
 10
41.27910318388744
 20
1.335184942048012
 30
0.0
 10
41.27381681275321
 20
1.569741898107297
 30
0.0
 10
41.2687062883778
 20
1.804245165096962
 30
0.0
 10
41.26407127036481
 20
2.038780643129261
 30
0.0
 10
41.25874138798686
 20
2.27327054669982
 30
0.0
 10
41.25805455355565
 20
2.50795635439968
 30
0.0
 10
41.27330162679556
 20
2.742035110000107
 30
0.0
 10
41.29847112842307
 20
2.975291767990851
 30
0.0
 10
41.32309822736629
 20
3.208581524431251
 30
0.0
 10
41.34733070757267
 20
3.44180444554645
 30
0.0
 10
41.37789015443971
 20
3.674811437325082
 30
0.0
 10
41.38421323876622
 20
3.908675454710889
 30
0.0
 10
41.36966018231897
 20
4.14316108458999
 30
0.0
 10
41.35911919845597
 20
4.377402299909646
 30
0.0
 10
41.34875670663151
 20
4.611784456659724
 30
0.0
 10
41.33665060725281
 20
4.845964675118837
 30
0.0
 10
41.32490059865493
 20
5.080512320442788
 30
0.0
 10
41.28655774606236
 20
5.312100872344999
 30
0.0
 10
41.20326098834944
 20
5.534912960303022
 30
0.0
 10
41.02305161070286
 20
5.701053020982688
 30
0.0
 10
40.76784185346732
 20
5.700046595423096
 30
0.0
 10
40.58915607845138
 20
5.532266007601516
 30
0.0
 10
40.50652085349022
 20
5.309372210240867
 30
0.0
 10
40.46867945530383
 20
5.077673675160892
 30
0.0
 10
40.45697518282931
 20
4.843140061617282
 30
0.0
 10
40.44494488766557
 20
4.608952622806954
 30
0.0
 10
40.43449963232632
 20
4.374572197465292
 30
0.0
 10
40.42409097214818
 20
4.140337130437424
 30
0.0
 10
40.4091417236362
 20
3.905822607503123
 30
0.0
 10
40.41696582204233
 20
3.67206586450394
 30
0.0
 10
40.44729753233585
 20
3.439049497872843
 30
0.0
 10
40.47094295675534
 20
3.205758678338231
 30
0.0
 10
40.49493985643113
 20
2.972405099167784
 30
0.0
 10
40.52032145305701
 20
2.739167888374083
 30
0.0
 10
40.53590751406431
 20
2.505129568181835
 30
0.0
 10
40.53488368249788
 20
2.270431807711549
 30
0.0
 10
40.52973076809202
 20
2.035943620623493
 30
0.0
 10
40.52498889472611
 20
1.801408320125761
 30
0.0
 10
40.51981642958499
 20
1.566909832637999
 30
0.0
 10
40.51447505024167
 20
1.332342661516703
 30
0.0
 10
40.51004918215705
 20
1.098016778736779
 30
0.0
 10
40.50305926809052
 20
0.8627750502036662
 30
0.0
 10
40.50474918697232
 20
0.6309690073439601
 30
0.0
 10
40.48443686402997
 20
0.4678802044313225
 30
0.0
 10
40.51390268461442
 20
0.4021512543515627
 30
0.0
  0
SPLINE
  5
129
330
1F
100
AcDbEntity
  8
Default
100
AcDbSpline
210
0.0
220
0.0
230
1.0
 70
    12
 71
     2
 72
     6
 73
     3
 74
     0
 42
0.0000000001
 43
0.0000000001
 40
0.0
 40
0.0
 40
0.0
 40
0.0278459026180733
 40
0.0278459026180733
 40
0.0278459026180733
 10
40.37423629700985
 20
16.02516413304835
 30
0.0
 41
1.0
 10
40.37771563014129
 20
16.0386596580489
 30
0.0
 41
0.9985079917047226
 10
40.38264588212918
 20
16.05169528497728
 30
0.0
 41
1.0
  0
SPLINE
  5
12A
330
1F
100
AcDbEntity
  8
Default
100
AcDbSpline
210
0.0
220
0.0
230
1.0
 70
     8
 71
     3
 72
    14
 73
    10
 74
     0
 42
0.0000000001
 43
0.0000000001
 40
0.0
 40
0.0
 40
0.0
 40
0.0
 40
1.0
 40
2.0
 40
3.0
 40
4.0
 40
5.0
 40
6.0
 40
7.0
 40
7.0
 40
7.0
 40
7.0
 10
25.9391457858226
 20
32.90569168342472
 30
0.0
 10
26.40544304895525
 20
32.12031737031862
 30
0.0
 10
27.30486161785302
 20
30.52950037267946
 30
0.0
 10
28.51007032455254
 20
28.06684386222303
 30
0.0
 10
29.92699681725252
 20
25.71863130990451
 30
0.0
 10
31.47387638433877
 20
23.4558453086435
 30
0.0
 10
33.15828640630713
 20
21.29241466949127
 30
0.0
 10
35.00249580054798
 20
19.26214475227384
 30
0.0
 10
36.35800335511764
 20
18.03384943814158
 30
0.0
 10
37.06952412200281
 20
17.4609299433311
 30
0.0
  0
SPLINE
  5
12B
330
1F
100
AcDbEntity
  8
Default
100
AcDbSpline
210
0.0
220
0.0
230
1.0
 70
     8
 71
     3
 72
    10
 73
     6
 74
     0
 42
0.0000000001
 43
0.0000000001
 40
0.0
 40
0.0
 40
0.0
 40
0.0
 40
1.0
 40
2.0
 40
3.0
 40
3.0
 40
3.0
 40
3.0
 10
37.06952412200281
 20
17.4609299433311
 30
0.0
 10
37.38551905762558
 20
17.21000910255085
 30
0.0
 10
38.086504425954
 20
16.80482652449315
 30
0.0
 10
39.21219300553366
 20
16.35969312360287
 30
0.0
 10
39.98674203626846
 20
16.13527678424809
 30
0.0
 10
40.37423629700985
 20
16.02516413304835
 30
0.0
  0
SPLINE
  5
12C
330
1F
100
AcDbEntity
  8
Default
100
AcDbSpline
210
0.0
220
0.0
230
1.0
 70
     8
 71
     3
 72
     8
 73
     4
 74
     0
 42
0.0000000001
 43
0.0000000001
 40
0.0
 40
0.0
 40
0.0
 40
0.0
 40
0.2184703122872484
 40
0.2184703122872484
 40
0.2184703122872484
 40
0.2184703122872484
 10
40.37423629700985
 20
16.02516413304835
 30
0.0
 10
40.55155795587245
 20
15.97074908771125
 30
0.0
 10
40.72977264703675
 20
15.91963589483597
 30
0.0
 10
40.90874659738278
 20
15.87148331318615
 30
0.0
  0
SPLINE
  5
12D
330
1F
100
AcDbEntity
  8
Default
100
AcDbSpline
210
0.0
220
0.0
230
1.0
 70
     8
 71
     3
 72
    12
 73
     8
 74
     0
 42
0.0000000001
 43
0.0000000001
 40
0.6231437571810794
 40
0.6231437571810794
 40
0.6231437571810794
 40
0.6231437571810794
 40
1.0
 40
2.0
 40
3.0
 40
4.0
 40
5.0
 40
5.0
 40
5.0
 40
5.0
 10
41.91025407212376
 20
15.63220879294383
 30
0.0
 10
42.22304021566003
 20
15.56604646489997
 30
0.0
 10
43.37137464280877
 20
15.34963431558938
 30
0.0
 10
45.37298286841815
 20
15.09534078042883
 30
0.0
 10
47.90790971568776
 20
14.86365165687987
 30
0.0
 10
50.45159562768761
 20
14.75025767140652
 30
0.0
 10
52.14908660612507
 20
14.76145735949588
 30
0.0
 10
52.99661421719416
 20
14.80342195902604
 30
0.0
  0
ENDSEC
  0
SECTION
  2
OBJECTS
  0
DICTIONARY
  5
C
330
0
100
AcDbDictionary
281
     1
  3
ACAD_GROUP
350
D
  3
ACAD_LAYOUT
350
1A
  3
ACAD_MLEADERSTYLE
350
12F
  3
ACAD_MLINESTYLE
350
17
  3
ACAD_PLOTSETTINGS
350
19
  3
ACAD_PLOTSTYLENAME
350
E
  3
ACAD_TABLESTYLE
350
12E
  3
ACAD_VISUALSTYLE
350
2A
  0
DICTIONARY
  5
D
102
{ACAD_REACTORS
330
C
102
}
330
C
100
AcDbDictionary
281
     1
  0
DICTIONARY
  5
1A
102
{ACAD_REACTORS
330
C
102
}
330
C
100
AcDbDictionary
281
     1
  3
Layout1
350
1E
  3
Layout2
350
26
  3
Model
350
22
  0
DICTIONARY
  5
12F
102
{ACAD_REACTORS
330
C
102
}
330
C
100
AcDbDictionary
281
     1
  0
DICTIONARY
  5
17
102
{ACAD_REACTORS
330
C
102
}
330
C
100
AcDbDictionary
281
     1
  3
Standard
350
18
  0
DICTIONARY
  5
19
102
{ACAD_REACTORS
330
C
102
}
330
C
100
AcDbDictionary
281
     1
  0
ACDBDICTIONARYWDFLT
  5
E
102
{ACAD_REACTORS
330
C
102
}
330
C
100
AcDbDictionary
281
     1
  3
Normal
350
F
100
AcDbDictionaryWithDefault
340
F
  0
DICTIONARY
  5
12E
102
{ACAD_REACTORS
330
C
102
}
330
C
100
AcDbDictionary
281
     1
  0
DICTIONARY
  5
2A
102
{ACAD_REACTORS
330
C
102
}
330
C
100
AcDbDictionary
281
     1
  3
2dWireframe
350
2F
  3
3D Hidden
350
31
  3
3dWireframe
350
30
  3
Basic
350
32
  3
Brighten
350
36
  3
ColorChange
350
3A
  3
Conceptual
350
34
  3
Dim
350
35
  3
Facepattern
350
39
  3
Flat
350
2B
  3
FlatWithEdges
350
2C
  3
Gouraud
350
2D
  3
GouraudWithEdges
350
2E
  3
Linepattern
350
38
  3
Realistic
350
33
  3
Thicken
350
37
  0
LAYOUT
  5
1E
102
{ACAD_REACTORS
330
1A
102
}
330
1A
100
AcDbPlotSettings
  1

  2
none_device
  4

  6

 40
0.0
 41
0.0
 42
0.0
 43
0.0
 44
0.0
 45
0.0
 46
0.0
 47
0.0
 48
0.0
 49
0.0
140
0.0
141
0.0
142
1.0
143
1.0
 70
   688
 72
     0
 73
     0
 74
     5
  7

 75
    16
 76
     0
 77
     2
 78
   300
147
1.0
148
0.0
149
0.0
100
AcDbLayout
  1
Layout1
 70
     1
 71
     1
 10
0.0
 20
0.0
 11
12.0
 21
9.0
 12
0.0
 22
0.0
 32
0.0
 14
1.000000000000000E+20
 24
1.000000000000000E+20
 34
1.000000000000000E+20
 15
-1.000000000000000E+20
 25
-1.000000000000000E+20
 35
-1.000000000000000E+20
146
0.0
 13
0.0
 23
0.0
 33
0.0
 16
1.0
 26
0.0
 36
0.0
 17
0.0
 27
1.0
 37
0.0
 76
     0
330
1B
  0
LAYOUT
  5
26
102
{ACAD_REACTORS
330
1A
102
}
330
1A
100
AcDbPlotSettings
  1

  2
none_device
  4

  6

 40
0.0
 41
0.0
 42
0.0
 43
0.0
 44
0.0
 45
0.0
 46
0.0
 47
0.0
 48
0.0
 49
0.0
140
0.0
141
0.0
142
1.0
143
1.0
 70
   688
 72
     0
 73
     0
 74
     5
  7

 75
    16
 76
     0
 77
     2
 78
   300
147
1.0
148
0.0
149
0.0
100
AcDbLayout
  1
Layout2
 70
     1
 71
     2
 10
0.0
 20
0.0
 11
0.0
 21
0.0
 12
0.0
 22
0.0
 32
0.0
 14
0.0
 24
0.0
 34
0.0
 15
0.0
 25
0.0
 35
0.0
146
0.0
 13
0.0
 23
0.0
 33
0.0
 16
1.0
 26
0.0
 36
0.0
 17
0.0
 27
1.0
 37
0.0
 76
     0
330
23
  0
LAYOUT
  5
22
102
{ACAD_REACTORS
330
1A
102
}
330
1A
100
AcDbPlotSettings
  1

  2
none_device
  4

  6

 40
0.0
 41
0.0
 42
0.0
 43
0.0
 44
0.0
 45
0.0
 46
0.0
 47
0.0
 48
0.0
 49
0.0
140
0.0
141
0.0
142
1.0
143
1.0
 70
  1712
 72
     0
 73
     0
 74
     0
  7

 75
     0
 76
     0
 77
     2
 78
   300
147
1.0
148
0.0
149
0.0
100
AcDbLayout
  1
Model
 70
     1
 71
     0
 10
0.0
 20
0.0
 11
12.0
 21
9.0
 12
0.0
 22
0.0
 32
0.0
 14
-24.5464521279639
 24
0.0000000000000034
 34
0.0
 15
55.54624966091173
 25
70.56487409461096
 35
0.0
146
0.0
 13
0.0
 23
0.0
 33
0.0
 16
1.0
 26
0.0
 36
0.0
 17
0.0
 27
1.0
 37
0.0
 76
     0
330
1F
331
29
  0
MLINESTYLE
  5
18
102
{ACAD_REACTORS
330
17
102
}
330
17
100
AcDbMlineStyle
  2
Standard
 70
     0
  3

 62
   256
 51
90.0
 52
90.0
 71
     2
 49
0.5
 62
   256
  6
BYLAYER
 49
-0.5
 62
   256
  6
BYLAYER
  0
ACDBPLACEHOLDER
  5
F
102
{ACAD_REACTORS
330
E
102
}
330
E
  0
VISUALSTYLE
  5
2F
102
{ACAD_REACTORS
330
2A
102
}
330
2A
100
AcDbVisualStyle
  2
2dWireframe
 70
     4
 71
     0
 72
     2
 73
     0
 90
        0
 40
-0.6
 41
-30.0
 62
     5
 63
     7
421
 16777215
 74
     1
 91
        4
 64
     7
 65
   257
 75
     1
175
     1
 42
1.0
 92
        0
 66
   257
 43
1.0
 76
     1
 77
     6
 78
     2
 67
     7
 79
     5
170
     0
171
     0
290
     0
174
     0
 93
        1
 44
0.0
173
     0
291
     0
 45
0.0
1001
ACAD
1000
AcDbSavedByObjectVersion
1070
     0
  0
VISUALSTYLE
  5
31
102
{ACAD_REACTORS
330
2A
102
}
330
2A
100
AcDbVisualStyle
  2
3D Hidden
 70
     6
 71
     1
 72
     2
 73
     2
 90
        0
 40
-0.6
 41
-30.0
 62
     5
 63
     7
421
 16777215
 74
     2
 91
        2
 64
     7
 65
   257
 75
     2
175
     1
 42
40.0
 92
        0
 66
   257
 43
1.0
 76
     1
 77
     6
 78
     2
 67
     7
 79
     3
170
     0
171
     0
290
     0
174
     0
 93
        1
 44
0.0
173
     0
291
     0
 45
0.0
1001
ACAD
1000
AcDbSavedByObjectVersion
1070
     0
  0
VISUALSTYLE
  5
30
102
{ACAD_REACTORS
330
2A
102
}
330
2A
100
AcDbVisualStyle
  2
3dWireframe
 70
     5
 71
     0
 72
     2
 73
     0
 90
        0
 40
-0.6
 41
-30.0
 62
     5
 63
     7
421
 16777215
 74
     1
 91
        4
 64
     7
 65
   257
 75
     1
175
     1
 42
1.0
 92
        0
 66
   257
 43
1.0
 76
     1
 77
     6
 78
     2
 67
     7
 79
     5
170
     0
171
     0
290
     0
174
     0
 93
        1
 44
0.0
173
     0
291
     0
 45
0.0
1001
ACAD
1000
AcDbSavedByObjectVersion
1070
     0
  0
VISUALSTYLE
  5
32
102
{ACAD_REACTORS
330
2A
102
}
330
2A
100
AcDbVisualStyle
  2
Basic
 70
     7
 71
     1
 72
     0
 73
     1
 90
        0
 40
-0.6
 41
-30.0
 62
     5
 63
     7
421
 16777215
 74
     0
 91
        4
 64
     7
 65
   257
 75
     1
175
     1
 42
1.0
 92
        8
 66
     7
 43
1.0
 76
     1
 77
     6
 78
     2
 67
     7
 79
     5
170
     0
171
     0
290
     0
174
     0
 93
        1
 44
0.0
173
     0
291
     1
 45
0.0
1001
ACAD
1000
AcDbSavedByObjectVersion
1070
     0
  0
VISUALSTYLE
  5
36
102
{ACAD_REACTORS
330
2A
102
}
330
2A
100
AcDbVisualStyle
  2
Brighten
 70
    12
 71
     2
 72
     2
 73
     0
 90
        0
 40
-0.6
 41
-30.0
 62
     5
 63
     7
421
 16777215
 74
     1
 91
        4
 64
     7
 65
   257
 75
     1
175
     1
 42
1.0
 92
        8
 66
     7
 43
1.0
 76
     1
 77
     6
 78
     2
 67
     7
 79
     5
170
     0
171
     0
290
     0
174
     0
 93
        1
 44
50.0
173
     0
291
     1
 45
0.0
1001
ACAD
1000
AcDbSavedByObjectVersion
1070
     0
  0
VISUALSTYLE
  5
3A
102
{ACAD_REACTORS
330
2A
102
}
330
2A
100
AcDbVisualStyle
  2
ColorChange
 70
    16
 71
     2
 72
     2
 73
     3
 90
        0
 40
-0.6
 41
-30.0
 62
     5
 63
     8
421
  8421504
 74
     1
 91
        4
 64
     7
 65
   257
 75
     1
175
     1
 42
1.0
 92
        8
 66
     8
424
  8421504
 43
1.0
 76
     1
 77
     6
 78
     2
 67
     7
 79
     5
170
     0
171
     0
290
     0
174
     0
 93
        1
 44
0.0
173
     0
291
     1
 45
0.0
1001
ACAD
1000
AcDbSavedByObjectVersion
1070
     0
  0
VISUALSTYLE
  5
34
102
{ACAD_REACTORS
330
2A
102
}
330
2A
100
AcDbVisualStyle
  2
Conceptual
 70
     9
 71
     3
 72
     2
 73
     0
 90
        0
 40
-0.6
 41
-30.0
 62
     5
 63
     7
421
 16777215
 74
     2
 91
        2
 64
     7
 65
   257
 75
     1
175
     1
 42
40.0
 92
        8
 66
     7
 43
1.0
 76
     1
 77
     6
 78
     2
 67
     7
 79
     3
170
     0
171
     0
290
     0
174
     0
 93
        1
 44
0.0
173
     0
291
     0
 45
0.0
1001
ACAD
1000
AcDbSavedByObjectVersion
1070
     0
  0
VISUALSTYLE
  5
35
102
{ACAD_REACTORS
330
2A
102
}
330
2A
100
AcDbVisualStyle
  2
Dim
 70
    11
 71
     2
 72
     2
 73
     0
 90
        0
 40
-0.6
 41
-30.0
 62
     5
 63
     7
421
 16777215
 74
     1
 91
        4
 64
     7
 65
   257
 75
     1
175
     1
 42
1.0
 92
        8
 66
     7
 43
1.0
 76
     1
 77
     6
 78
     2
 67
     7
 79
     5
170
     0
171
     0
290
     0
174
     0
 93
        1
 44
-50.0
173
     0
291
     1
 45
0.0
1001
ACAD
1000
AcDbSavedByObjectVersion
1070
     0
  0
VISUALSTYLE
  5
39
102
{ACAD_REACTORS
330
2A
102
}
330
2A
100
AcDbVisualStyle
  2
Facepattern
 70
    15
 71
     2
 72
     2
 73
     0
 90
        0
 40
-0.6
 41
-30.0
 62
     5
 63
     7
421
 16777215
 74
     1
 91
        4
 64
     7
 65
   257
 75
     1
175
     1
 42
1.0
 92
        8
 66
     7
 43
1.0
 76
     1
 77
     6
 78
     2
 67
     7
 79
     5
170
     0
171
     0
290
     0
174
     0
 93
        1
 44
0.0
173
     0
291
     1
 45
0.0
1001
ACAD
1000
AcDbSavedByObjectVersion
1070
     0
  0
VISUALSTYLE
  5
2B
102
{ACAD_REACTORS
330
2A
102
}
330
2A
100
AcDbVisualStyle
  2
Flat
 70
     0
 71
     2
 72
     1
 73
     1
 90
        2
 40
-0.6
 41
30.0
 62
     5
 63
     7
421
 16777215
 74
     0
 91
        4
 64
     7
 65
   257
 75
     1
175
     1
 42
1.0
 92
        8
 66
     7
 43
1.0
 76
     1
 77
     6
 78
     2
 67
     7
 79
     5
170
     0
171
     0
290
     0
174
     0
 93
       13
 44
0.0
173
     0
291
     1
 45
0.0
1001
ACAD
1000
AcDbSavedByObjectVersion
1070
     0
  0
VISUALSTYLE
  5
2C
102
{ACAD_REACTORS
330
2A
102
}
330
2A
100
AcDbVisualStyle
  2
FlatWithEdges
 70
     1
 71
     2
 72
     1
 73
     1
 90
        2
 40
-0.6
 41
30.0
 62
     5
 63
     7
421
 16777215
 74
     1
 91
        4
 64
     7
 65
   257
 75
     1
175
     1
 42
1.0
 92
        0
 66
   257
 43
1.0
 76
     1
 77
     6
 78
     2
 67
     7
 79
     5
170
     0
171
     0
290
     0
174
     0
 93
       13
 44
0.0
173
     0
291
     1
 45
0.0
1001
ACAD
1000
AcDbSavedByObjectVersion
1070
     0
  0
VISUALSTYLE
  5
2D
102
{ACAD_REACTORS
330
2A
102
}
330
2A
100
AcDbVisualStyle
  2
Gouraud
 70
     2
 71
     2
 72
     2
 73
     1
 90
        2
 40
-0.6
 41
30.0
 62
     5
 63
     7
421
 16777215
 74
     0
 91
        4
 64
     7
 65
   257
 75
     1
175
     1
 42
1.0
 92
        0
 66
     7
 43
1.0
 76
     1
 77
     6
 78
     2
 67
     7
 79
     5
170
     0
171
     0
290
     0
174
     0
 93
       13
 44
0.0
173
     0
291
     1
 45
0.0
1001
ACAD
1000
AcDbSavedByObjectVersion
1070
     0
  0
VISUALSTYLE
  5
2E
102
{ACAD_REACTORS
330
2A
102
}
330
2A
100
AcDbVisualStyle
  2
GouraudWithEdges
 70
     3
 71
     2
 72
     2
 73
     1
 90
        2
 40
-0.6
 41
30.0
 62
     5
 63
     7
421
 16777215
 74
     1
 91
        4
 64
     7
 65
   257
 75
     1
175
     1
 42
1.0
 92
        0
 66
   257
 43
1.0
 76
     1
 77
     6
 78
     2
 67
     7
 79
     5
170
     0
171
     0
290
     0
174
     0
 93
       13
 44
0.0
173
     0
291
     1
 45
0.0
1001
ACAD
1000
AcDbSavedByObjectVersion
1070
     0
  0
VISUALSTYLE
  5
38
102
{ACAD_REACTORS
330
2A
102
}
330
2A
100
AcDbVisualStyle
  2
Linepattern
 70
    14
 71
     2
 72
     2
 73
     0
 90
        0
 40
-0.6
 41
-30.0
 62
     5
 63
     7
421
 16777215
 74
     1
 91
        4
 64
     7
 65
   257
 75
     7
175
     7
 42
1.0
 92
        8
 66
     7
 43
1.0
 76
     1
 77
     6
 78
     2
 67
     7
 79
     5
170
     0
171
     0
290
     0
174
     0
 93
        1
 44
0.0
173
     0
291
     1
 45
0.0
1001
ACAD
1000
AcDbSavedByObjectVersion
1070
     0
  0
VISUALSTYLE
  5
33
102
{ACAD_REACTORS
330
2A
102
}
330
2A
100
AcDbVisualStyle
  2
Realistic
 70
     8
 71
     2
 72
     2
 73
     0
 90
        0
 40
-0.6
 41
-30.0
 62
     5
 63
     7
421
 16777215
 74
     1
 91
        0
 64
     7
 65
   257
 75
     1
175
     1
 42
1.0
 92
        8
 66
     8
424
  7895160
 43
1.0
 76
     1
 77
     6
 78
     2
 67
     7
 79
     5
170
     0
171
     0
290
     0
174
     0
 93
       13
 44
0.0
173
     0
291
     0
 45
0.0
1001
ACAD
1000
AcDbSavedByObjectVersion
1070
     0
  0
VISUALSTYLE
  5
37
102
{ACAD_REACTORS
330
2A
102
}
330
2A
100
AcDbVisualStyle
  2
Thicken
 70
    13
 71
     2
 72
     2
 73
     0
 90
        0
 40
-0.6
 41
-30.0
 62
     5
 63
     7
421
 16777215
 74
     1
 91
        4
 64
     7
 65
   257
 75
     1
175
     1
 42
1.0
 92
       12
 66
     7
 43
1.0
 76
     1
 77
     6
 78
     2
 67
     7
 79
     5
170
     0
171
     0
290
     0
174
     0
 93
        1
 44
0.0
173
     0
291
     1
 45
0.0
1001
ACAD
1000
AcDbSavedByObjectVersion
1070
     0
  0
ENDSEC
  0
EOF
