  0
SECTION
  2
HEADER
  9
$ACADVER
  1
AC1018
  9
$ACADMAINTVER
 70
     0
  9
$DWGCODEPAGE
  3
ANSI_1252
  9
$INSBASE
 10
0.0
 20
0.0
 30
0.0
  9
$EXTMIN
 10
-13.55328139573
 20
-0.0000000000000001
 30
0.0
  9
$EXTMAX
 10
56.2168833029301
 20
70.72199926779987
 30
0.0
  9
$LIMMIN
 10
0.0
 20
0.0
  9
$LIMMAX
 10
12.0
 20
9.0
  9
$ORTHOMODE
 70
     0
  9
$REGENMODE
 70
     1
  9
$FILLMODE
 70
     1
  9
$QTEXTMODE
 70
     0
  9
$MIRRTEXT
 70
     1
  9
$LTSCALE
 40
0.0393700787401575
  9
$ATTMODE
 70
     1
  9
$TEXTSIZE
 40
0.2
  9
$TRACEWID
 40
0.05
  9
$TEXTSTYLE
  7
Standard
  9
$CLAYER
  8
Default
  9
$CELTYPE
  6
ByLayer
  9
$CECOLOR
 62
   256
  9
$CELTSCALE
 40
1.0
  9
$DISPSILH
 70
     0
  9
$DIMSCALE
 40
1.0
  9
$DIMASZ
 40
0.18
  9
$DIMEXO
 40
0.0625
  9
$DIMDLI
 40
0.38
  9
$DIMRND
 40
0.0
  9
$DIMDLE
 40
0.0
  9
$DIMEXE
 40
0.18
  9
$DIMTP
 40
0.0
  9
$DIMTM
 40
0.0
  9
$DIMTXT
 40
0.18
  9
$DIMCEN
 40
0.09
  9
$DIMTSZ
 40
0.0
  9
$DIMTOL
 70
     0
  9
$DIMLIM
 70
     0
  9
$DIMTIH
 70
     1
  9
$DIMTOH
 70
     1
  9
$DIMSE1
 70
     0
  9
$DIMSE2
 70
     0
  9
$DIMTAD
 70
     0
  9
$DIMZIN
 70
     0
  9
$DIMBLK
  1

  9
$DIMASO
 70
     1
  9
$DIMSHO
 70
     1
  9
$DIMPOST
  1

  9
$DIMAPOST
  1

  9
$DIMALT
 70
     0
  9
$DIMALTD
 70
     2
  9
$DIMALTF
 40
25.4
  9
$DIMLFAC
 40
1.0
  9
$DIMTOFL
 70
     0
  9
$DIMTVP
 40
0.0
  9
$DIMTIX
 70
     0
  9
$DIMSOXD
 70
     0
  9
$DIMSAH
 70
     0
  9
$DIMBLK1
  1

  9
$DIMBLK2
  1

  9
$DIMSTYLE
  2
Standard
  9
$DIMCLRD
 70
     0
  9
$DIMCLRE
 70
     0
  9
$DIMCLRT
 70
     0
  9
$DIMTFAC
 40
1.0
  9
$DIMGAP
 40
0.09
  9
$DIMJUST
 70
     0
  9
$DIMSD1
 70
     0
  9
$DIMSD2
 70
     0
  9
$DIMTOLJ
 70
     1
  9
$DIMTZIN
 70
     0
  9
$DIMALTZ
 70
     0
  9
$DIMALTTZ
 70
     0
  9
$DIMUPT
 70
     0
  9
$DIMDEC
 70
     4
  9
$DIMTDEC
 70
     4
  9
$DIMALTU
 70
     2
  9
$DIMALTTD
 70
     2
  9
$DIMTXSTY
  7
Standard
  9
$DIMAUNIT
 70
     0
  9
$DIMADEC
 70
     0
  9
$DIMALTRND
 40
0.0
  9
$DIMAZIN
 70
     0
  9
$DIMDSEP
 70
    46
  9
$DIMATFIT
 70
     3
  9
$DIMFRAC
 70
     0
  9
$DIMLDRBLK
  1

  9
$DIMLUNIT
 70
     2
  9
$DIMLWD
 70
    -2
  9
$DIMLWE
 70
    -2
  9
$DIMTMOVE
 70
     2
  9
$LUNITS
 70
     2
  9
$LUPREC
 70
     3
  9
$SKETCHINC
 40
0.1
  9
$FILLETRAD
 40
0.5
  9
$AUNITS
 70
     0
  9
$AUPREC
 70
     0
  9
$MENU
  1
.
  9
$ELEVATION
 40
0.0
  9
$PELEVATION
 40
0.0
  9
$THICKNESS
 40
0.0
  9
$LIMCHECK
 70
     0
  9
$CHAMFERA
 40
0.5
  9
$CHAMFERB
 40
0.5
  9
$CHAMFERC
 40
1.0
  9
$CHAMFERD
 40
0.0
  9
$SKPOLY
 70
     0
  9
$TDCREATE
 40
2456338.465504954
  9
$TDUCREATE
 40
2456338.673838287
  9
$TDUPDATE
 40
2456338.465504965
  9
$TDUUPDATE
 40
2456338.673838299
  9
$TDINDWG
 40
0.0000000116
  9
$TDUSRTIMER
 40
0.0000000116
  9
$USRTIMER
 70
     1
  9
$ANGBASE
 50
0.0
  9
$ANGDIR
 70
     0
  9
$PDMODE
 70
     0
  9
$PDSIZE
 40
0.0
  9
$PLINEWID
 40
0.0
  9
$SPLFRAME
 70
     0
  9
$SPLINETYPE
 70
     6
  9
$SPLINESEGS
 70
     8
  9
$HANDSEED
  5
276
  9
$SURFTAB1
 70
     6
  9
$SURFTAB2
 70
     6
  9
$SURFTYPE
 70
     6
  9
$SURFU
 70
     6
  9
$SURFV
 70
     6
  9
$UCSBASE
  2

  9
$UCSNAME
  2

  9
$UCSORG
 10
0.0
 20
0.0
 30
0.0
  9
$UCSXDIR
 10
1.0
 20
0.0
 30
0.0
  9
$UCSYDIR
 10
0.0
 20
1.0
 30
0.0
  9
$UCSORTHOREF
  2

  9
$UCSORTHOVIEW
 70
     0
  9
$UCSORGTOP
 10
0.0
 20
0.0
 30
0.0
  9
$UCSORGBOTTOM
 10
0.0
 20
0.0
 30
0.0
  9
$UCSORGLEFT
 10
0.0
 20
0.0
 30
0.0
  9
$UCSORGRIGHT
 10
0.0
 20
0.0
 30
0.0
  9
$UCSORGFRONT
 10
0.0
 20
0.0
 30
0.0
  9
$UCSORGBACK
 10
0.0
 20
0.0
 30
0.0
  9
$PUCSBASE
  2

  9
$PUCSNAME
  2

  9
$PUCSORG
 10
0.0
 20
0.0
 30
0.0
  9
$PUCSXDIR
 10
1.0
 20
0.0
 30
0.0
  9
$PUCSYDIR
 10
0.0
 20
1.0
 30
0.0
  9
$PUCSORTHOREF
  2

  9
$PUCSORTHOVIEW
 70
     0
  9
$PUCSORGTOP
 10
0.0
 20
0.0
 30
0.0
  9
$PUCSORGBOTTOM
 10
0.0
 20
0.0
 30
0.0
  9
$PUCSORGLEFT
 10
0.0
 20
0.0
 30
0.0
  9
$PUCSORGRIGHT
 10
0.0
 20
0.0
 30
0.0
  9
$PUCSORGFRONT
 10
0.0
 20
0.0
 30
0.0
  9
$PUCSORGBACK
 10
0.0
 20
0.0
 30
0.0
  9
$USERI1
 70
     0
  9
$USERI2
 70
     0
  9
$USERI3
 70
     0
  9
$USERI4
 70
     0
  9
$USERI5
 70
     0
  9
$USERR1
 40
0.0
  9
$USERR2
 40
0.0
  9
$USERR3
 40
0.0
  9
$USERR4
 40
0.0
  9
$USERR5
 40
0.0
  9
$WORLDVIEW
 70
     1
  9
$SHADEDGE
 70
     3
  9
$SHADEDIF
 70
    70
  9
$TILEMODE
 70
     1
  9
$MAXACTVP
 70
    64
  9
$PINSBASE
 10
0.0
 20
0.0
 30
0.0
  9
$PLIMCHECK
 70
     0
  9
$PEXTMIN
 10
1.000000000000000E+20
 20
1.000000000000000E+20
 30
1.000000000000000E+20
  9
$PEXTMAX
 10
-1.000000000000000E+20
 20
-1.000000000000000E+20
 30
-1.000000000000000E+20
  9
$PLIMMIN
 10
0.0
 20
0.0
  9
$PLIMMAX
 10
12.0
 20
9.0
  9
$UNITMODE
 70
     0
  9
$VISRETAIN
 70
     1
  9
$PLINEGEN
 70
     0
  9
$PSLTSCALE
 70
     1
  9
$TREEDEPTH
 70
  3020
  9
$CMLSTYLE
  2
Standard
  9
$CMLJUST
 70
     0
  9
$CMLSCALE
 40
1.0
  9
$PROXYGRAPHICS
 70
     1
  9
$MEASUREMENT
 70
     0
  9
$CELWEIGHT
370
    -1
  9
$ENDCAPS
280
     0
  9
$JOINSTYLE
280
     0
  9
$LWDISPLAY
290
     0
  9
$INSUNITS
 70
     1
  9
$HYPERLINKBASE
  1

  9
$STYLESHEET
  1

  9
$XEDIT
290
     1
  9
$CEPSNTYPE
380
     0
  9
$PSTYLEMODE
290
     1
  9
$FINGERPRINTGUID
  2
{4757A683-0ABA-444B-9638-485F84B89FA8}
  9
$VERSIONGUID
  2
{FAEB1C32-E019-11D5-929B-00C0DF256EC4}
  9
$EXTNAMES
290
     1
  9
$PSVPSCALE
 40
0.0
  9
$OLESTARTUP
290
     0
  9
$SORTENTS
280
   127
  9
$INDEXCTL
280
     0
  9
$HIDETEXT
280
     1
  9
$XCLIPFRAME
290
     0
  9
$HALOGAP
280
     0
  9
$OBSCOLOR
 70
   257
  9
$OBSLTYPE
280
     0
  9
$INTERSECTIONDISPLAY
280
     0
  9
$INTERSECTIONCOLOR
 70
   257
  9
$DIMASSOC
280
     2
  9
$PROJECTNAME
  1

  0
ENDSEC
  0
SECTION
  2
CLASSES
  0
CLASS
  1
ACDBDICTIONARYWDFLT
  2
AcDbDictionaryWithDefault
  3
ObjectDBX Classes
 90
        0
 91
        4
280
     0
281
     0
  0
CLASS
  1
VISUALSTYLE
  2
AcDbVisualStyle
  3
ObjectDBX Classes
 90
     4095
 91
        4
280
     0
281
     0
  0
ENDSEC
  0
SECTION
  2
TABLES
  0
TABLE
  2
VPORT
  5
8
330
0
100
AcDbSymbolTable
 70
     1
  0
VPORT
  5
29
330
8
100
AcDbSymbolTableRecord
100
AcDbViewportTableRecord
  2
*Active
 70
     0
 10
0.0
 20
0.0
 11
1.0
 21
1.0
 12
21.33180095360005
 22
35.36099963389994
 13
0.0
 23
0.0
 14
0.5
 24
0.5
 15
0.5
 25
0.5
 16
0.0
 26
0.0
 36
1.0
 17
0.0
 27
0.0
 37
0.0
 40
72.13643925315587
 41
0.9865411812590944
 42
50.0
 43
0.0
 44
0.0
 50
0.0
 51
0.0
 71
     0
 72
   100
 73
     1
 74
     3
 75
     0
 76
     0
 77
     0
 78
     0
281
     0
 65
     1
110
0.0
120
0.0
130
0.0
111
1.0
121
0.0
131
0.0
112
0.0
122
1.0
132
0.0
 79
     0
146
0.0
  0
ENDTAB
  0
TABLE
  2
LTYPE
  5
5
330
0
100
AcDbSymbolTable
 70
     1
  0
LTYPE
  5
14
330
5
100
AcDbSymbolTableRecord
100
AcDbLinetypeTableRecord
  2
ByBlock
 70
     0
  3

 72
    65
 73
     0
 40
0.0
  0
LTYPE
  5
15
330
5
100
AcDbSymbolTableRecord
100
AcDbLinetypeTableRecord
  2
ByLayer
 70
     0
  3

 72
    65
 73
     0
 40
0.0
  0
LTYPE
  5
16
330
5
100
AcDbSymbolTableRecord
100
AcDbLinetypeTableRecord
  2
Continuous
 70
     0
  3
Solid line
 72
    65
 73
     0
 40
0.0
  0
ENDTAB
  0
TABLE
  2
LAYER
  5
2
330
0
100
AcDbSymbolTable
 70
     4
  0
LAYER
  5
10
330
2
100
AcDbSymbolTableRecord
100
AcDbLayerTableRecord
  2
0
 70
     0
 62
     7
  6
Continuous
370
    -3
390
F
  0
LAYER
  5
3B
330
2
100
AcDbSymbolTableRecord
100
AcDbLayerTableRecord
  2
Default
 70
     0
 62
     7
  6
Continuous
370
    -3
390
F
  0
LAYER
  5
82
330
2
100
AcDbSymbolTableRecord
100
AcDbLayerTableRecord
  2
Make2D visible lines - Tangent
 70
     0
 62
     7
  6
Continuous
370
    -3
390
F
  0
LAYER
  5
87
330
2
100
AcDbSymbolTableRecord
100
AcDbLayerTableRecord
  2
Make2D visible lines
 70
     0
 62
     7
  6
Continuous
370
    -3
390
F
  0
ENDTAB
  0
TABLE
  2
STYLE
  5
3
330
0
100
AcDbSymbolTable
 70
     1
  0
STYLE
  5
11
330
3
100
AcDbSymbolTableRecord
100
AcDbTextStyleTableRecord
  2
Standard
 70
     0
 40
0.0
 41
1.0
 50
0.0
 71
     0
 42
0.2
  3
txt
  4

  0
ENDTAB
  0
TABLE
  2
VIEW
  5
6
330
0
100
AcDbSymbolTable
 70
     0
  0
ENDTAB
  0
TABLE
  2
UCS
  5
7
330
0
100
AcDbSymbolTable
 70
     0
  0
ENDTAB
  0
TABLE
  2
APPID
  5
9
330
0
100
AcDbSymbolTable
 70
     1
  0
APPID
  5
12
330
9
100
AcDbSymbolTableRecord
100
AcDbRegAppTableRecord
  2
ACAD
 70
     0
  0
ENDTAB
  0
TABLE
  2
DIMSTYLE
  5
A
330
0
100
AcDbSymbolTable
 70
     1
100
AcDbDimStyleTable
  0
DIMSTYLE
105
27
330
A
100
AcDbSymbolTableRecord
100
AcDbDimStyleTableRecord
  2
Standard
 70
     0
340
11
  0
ENDTAB
  0
TABLE
  2
BLOCK_RECORD
  5
1
330
0
100
AcDbSymbolTable
 70
     1
  0
BLOCK_RECORD
  5
1F
330
1
100
AcDbSymbolTableRecord
100
AcDbBlockTableRecord
  2
*Model_Space
340
22
  0
BLOCK_RECORD
  5
1B
330
1
100
AcDbSymbolTableRecord
100
AcDbBlockTableRecord
  2
*Paper_Space
340
1E
  0
BLOCK_RECORD
  5
23
330
1
100
AcDbSymbolTableRecord
100
AcDbBlockTableRecord
  2
*Paper_Space0
340
26
  0
ENDTAB
  0
ENDSEC
  0
SECTION
  2
BLOCKS
  0
BLOCK
  5
20
330
1F
100
AcDbEntity
  8
0
100
AcDbBlockBegin
  2
*Model_Space
 70
     0
 10
0.0
 20
0.0
 30
0.0
  3
*Model_Space
  1

  0
ENDBLK
  5
21
330
1F
100
AcDbEntity
  8
0
100
AcDbBlockEnd
  0
BLOCK
  5
1C
330
1B
100
AcDbEntity
 67
     1
  8
0
100
AcDbBlockBegin
  2
*Paper_Space
 70
     0
 10
0.0
 20
0.0
 30
0.0
  3
*Paper_Space
  1

  0
ENDBLK
  5
1D
330
1B
100
AcDbEntity
 67
     1
  8
0
100
AcDbBlockEnd
  0
BLOCK
  5
24
330
23
100
AcDbEntity
  8
0
100
AcDbBlockBegin
  2
*Paper_Space0
 70
     0
 10
0.0
 20
0.0
 30
0.0
  3
*Paper_Space0
  1

  0
ENDBLK
  5
25
330
23
100
AcDbEntity
  8
0
100
AcDbBlockEnd
  0
ENDSEC
  0
SECTION
  2
ENTITIES
  0
POLYLINE
  5
3C
330
1F
100
AcDbEntity
  8
Default
100
AcDb2dPolyline
 66
     1
 10
0.0
 20
0.0
 30
0.0
  0
VERTEX
  5
3D
330
3C
100
AcDbEntity
  8
Default
100
AcDbVertex
100
AcDb2dVertex
 10
-11.48328139573
 20
52.22673749201282
 30
0.0
  0
VERTEX
  5
3E
330
3C
100
AcDbEntity
  8
Default
100
AcDbVertex
100
AcDb2dVertex
 10
-11.48328139573
 20
51.91453939105407
 30
0.0
  0
SEQEND
  5
3F
330
3C
100
AcDbEntity
  8
Default
  0
SPLINE
  5
40
330
1F
100
AcDbEntity
  8
Default
100
AcDbSpline
210
0.0
220
0.0
230
1.0
 70
    12
 71
     2
 72
     6
 73
     3
 74
     0
 42
0.0000000001
 43
0.0000000001
 40
0.0
 40
0.0
 40
0.0
 40
0.2355890798875016
 40
0.2355890798875016
 40
0.2355890798875016
 10
-11.48328139573
 20
51.91453939105407
 30
0.0
 41
1.0
 10
-11.48335215088778
 20
51.76461014621046
 30
0.0
 41
0.7074404097356639
 10
-11.63328139573
 20
51.76453938812207
 30
0.0
 41
1.0
  0
SPLINE
  5
41
330
1F
100
AcDbEntity
  8
Default
100
AcDbSpline
210
0.0
220
0.0
230
1.0
 70
    24
 71
     2
 72
     6
 73
     3
 74
     0
 42
0.0000000001
 43
0.0000000001
 40
0.0
 40
0.0
 40
0.0
 40
0.3520000000000003
 40
0.3520000000000003
 40
0.3520000000000003
 10
-11.63328139573
 20
51.76453938812207
 30
0.0
 10
-11.80928139573
 20
51.76453938812207
 30
0.0
 10
-11.98528139573
 20
51.76453938812207
 30
0.0
  0
SPLINE
  5
42
330
1F
100
AcDbEntity
  8
Default
100
AcDbSpline
210
0.0
220
0.0
230
1.0
 70
    12
 71
     2
 72
     6
 73
     3
 74
     0
 42
0.0000000001
 43
0.0000000001
 40
0.0
 40
0.0
 40
0.0
 40
0.1098876245644455
 40
0.1098876245644455
 40
0.1098876245644455
 10
-11.98528139573
 20
51.76453938812207
 30
0.0
 41
1.0
 10
-12.05512274393969
 20
51.76469804274595
 30
0.0
 41
0.7087112325863247
 10
-12.05528139573
 20
51.83453939096207
 30
0.0
 41
1.0
  0
POLYLINE
  5
43
330
1F
100
AcDbEntity
  8
Default
100
AcDb2dPolyline
 66
     1
 10
0.0
 20
0.0
 30
0.0
  0
VERTEX
  5
44
330
43
100
AcDbEntity
  8
Default
100
AcDbVertex
100
AcDb2dVertex
 10
-12.05528139573
 20
51.83453939096207
 30
0.0
  0
VERTEX
  5
45
330
43
100
AcDbEntity
  8
Default
100
AcDbVertex
100
AcDb2dVertex
 10
-12.05528139573
 20
52.03729788175757
 30
0.0
  0
SEQEND
  5
46
330
43
100
AcDbEntity
  8
Default
  0
LINE
  5
47
330
1F
100
AcDbEntity
  8
Default
100
AcDbLine
 10
-12.1242814853043
 20
52.80342550826996
 30
0.0
 11
-12.12428173471608
 21
54.27159888137091
 31
0.0
  0
SPLINE
  5
48
330
1F
100
AcDbEntity
  8
Default
100
AcDbSpline
210
0.0
220
0.0
230
1.0
 70
    12
 71
     2
 72
     6
 73
     3
 74
     0
 42
0.0000000001
 43
0.0000000001
 40
-0.0784456577816192
 40
-0.0784456577816192
 40
-0.0784456577816192
 40
0.0
 40
0.0
 40
0.0
 10
-12.12428176447351
 20
54.27159888137091
 30
0.0
 41
1.0
 10
-12.12434142595024
 20
54.32153885098167
 30
0.0
 41
0.707107785543906
 10
-12.17428139573029
 20
54.3214793313721
 30
0.0
 41
1.0
  0
SPLINE
  5
49
330
1F
100
AcDbEntity
  8
Default
100
AcDbSpline
210
0.0
220
0.0
230
1.0
 70
    12
 71
     2
 72
     6
 73
     3
 74
     0
 42
0.0000000001
 43
0.0000000001
 40
-0.0351460122197656
 40
-0.0351460122197656
 40
-0.0351460122197656
 40
0.0
 40
0.0
 40
0.0
 10
-12.17428139573029
 20
54.3214793313721
 30
0.0
 41
1.0
 10
-12.1916574781846
 20
54.32464673531932
 30
0.0
 41
0.9924246303389436
 10
-12.20928140119137
 20
54.32348139113176
 30
0.0
 41
1.0
  0
SPLINE
  5
4A
330
1F
100
AcDbEntity
  8
Default
100
AcDbSpline
210
0.0
220
0.0
230
1.0
 70
    24
 71
     2
 72
     6
 73
     3
 74
     0
 42
0.0000000001
 43
0.0000000001
 40
0.0
 40
0.0
 40
0.0
 40
0.6179999945348698
 40
0.6179999945348698
 40
0.6179999945348698
 10
-12.20928140119137
 20
54.32348139113176
 30
0.0
 10
-12.5182813984588
 20
54.3234813911318
 30
0.0
 10
-12.82728139572624
 20
54.32348139113184
 30
0.0
  0
SPLINE
  5
4B
330
1F
100
AcDbEntity
  8
Default
100
AcDbSpline
210
0.0
220
0.0
230
1.0
 70
    12
 71
     2
 72
     6
 73
     3
 74
     0
 42
0.0000000001
 43
0.0000000001
 40
-0.0351460068279919
 40
-0.0351460068279919
 40
-0.0351460068279919
 40
0.0
 40
0.0
 40
0.0
 10
-12.82728139572624
 20
54.32348139113184
 30
0.0
 41
1.0
 10
-12.84490531605719
 20
54.32464673567254
 30
0.0
 41
0.9924246250463485
 10
-12.86228139572967
 20
54.32147933122317
 30
0.0
 41
1.0
  0
SPLINE
  5
4C
330
1F
100
AcDbEntity
  8
Default
100
AcDbSpline
210
0.0
220
0.0
230
1.0
 70
    12
 71
     2
 72
     6
 73
     3
 74
     0
 42
0.0000000001
 43
0.0000000001
 40
-0.0784456575506041
 40
-0.0784456575506041
 40
-0.0784456575506041
 40
0.0
 40
0.0
 40
0.0
 10
-12.86228139572967
 20
54.32147933122317
 30
0.0
 41
1.0
 10
-12.91222136555117
 20
54.3215388513494
 30
0.0
 41
0.7071077818591103
 10
-12.912281041884
 20
54.27159888169658
 30
0.0
 41
1.0
  0
LINE
  5
4D
330
1F
100
AcDbEntity
  8
Default
100
AcDbLine
 10
-12.912281041884
 20
54.27159888169658
 30
0.0
 11
-12.91228138484061
 21
52.3402433270146
 31
0.0
  0
ARC
  5
4E
330
1F
100
AcDbEntity
  8
Default
100
AcDbCircle
 10
3515557.381956695
 20
51.73939992958469
 30
0.0
 40
3515570.294238132
100
AcDbArc
 50
179.9999902076227
 51
179.9999911441848
  0
ARC
  5
4F
330
1F
100
AcDbEntity
  8
Default
100
AcDbCircle
 10
3515557.381956695
 20
51.73939992958469
 30
0.0
 40
3515570.294238132
100
AcDbArc
 50
179.9999911441848
 51
179.9999987473877
  0
SPLINE
  5
50
330
1F
100
AcDbEntity
  8
Default
100
AcDbSpline
210
0.0
220
0.0
230
1.0
 70
    12
 71
     2
 72
     6
 73
     3
 74
     0
 42
0.0000000001
 43
0.0000000001
 40
0.0
 40
0.0
 40
0.0
 40
0.0784842030870699
 40
0.0784842030870699
 40
0.0784842030870699
 10
-12.91228143624419
 20
51.81625806856267
 30
0.0
 41
1.0
 10
-12.91224520993832
 20
51.76629425582779
 30
0.0
 41
0.7071217743558633
 10
-12.86228139572961
 20
51.76632795081765
 30
0.0
 41
1.0
  0
POLYLINE
  5
51
330
1F
100
AcDbEntity
  8
Default
100
AcDb2dPolyline
 66
     1
 10
0.0
 20
0.0
 30
0.0
  0
VERTEX
  5
52
330
51
100
AcDbEntity
  8
Default
100
AcDbVertex
100
AcDb2dVertex
 10
-12.86228139572961
 20
51.76632795081765
 30
0.0
  0
VERTEX
  5
53
330
51
100
AcDbEntity
  8
Default
100
AcDbVertex
100
AcDb2dVertex
 10
-12.17428139573039
 20
51.76632795081765
 30
0.0
  0
SEQEND
  5
54
330
51
100
AcDbEntity
  8
Default
  0
SPLINE
  5
55
330
1F
100
AcDbEntity
  8
Default
100
AcDbSpline
210
0.0
220
0.0
230
1.0
 70
    12
 71
     2
 72
     6
 73
     3
 74
     0
 42
0.0000000001
 43
0.0000000001
 40
-0.0784842030870699
 40
-0.0784842030870699
 40
-0.0784842030870699
 40
0.0
 40
0.0
 40
0.0
 10
-12.17428139573039
 20
51.76632795081765
 30
0.0
 41
1.0
 10
-12.12431758152168
 20
51.76629425582779
 30
0.0
 41
0.7071217743558633
 10
-12.12428135521581
 20
51.81625806856267
 30
0.0
 41
1.0
  0
ARC
  5
56
330
1F
100
AcDbEntity
  8
Default
100
AcDbCircle
 10
-3515582.418519486
 20
51.73939992958469
 30
0.0
 40
3515570.294238132
100
AcDbArc
 50
0.0000012526123369
 51
0.0000044398047254
  0
POLYLINE
  5
57
330
1F
100
AcDbEntity
  8
Default
100
AcDb2dPolyline
 66
     1
 10
0.0
 20
0.0
 30
0.0
  0
VERTEX
  5
58
330
57
100
AcDbEntity
  8
Default
100
AcDbVertex
100
AcDb2dVertex
 10
11.48328139573
 20
52.22673760753903
 30
0.0
  0
VERTEX
  5
59
330
57
100
AcDbEntity
  8
Default
100
AcDbVertex
100
AcDb2dVertex
 10
11.48328139573
 20
51.91453939105407
 30
0.0
  0
SEQEND
  5
5A
330
57
100
AcDbEntity
  8
Default
  0
SPLINE
  5
5B
330
1F
100
AcDbEntity
  8
Default
100
AcDbSpline
210
0.0
220
0.0
230
1.0
 70
    12
 71
     2
 72
     6
 73
     3
 74
     0
 42
0.0000000001
 43
0.0000000001
 40
0.0
 40
0.0
 40
0.0
 40
0.2355890798875016
 40
0.2355890798875016
 40
0.2355890798875016
 10
11.48328139573
 20
51.91453939105407
 30
0.0
 41
1.0
 10
11.48335215088778
 20
51.76461014621046
 30
0.0
 41
0.7074404097356639
 10
11.63328139573
 20
51.76453938812207
 30
0.0
 41
1.0
  0
SPLINE
  5
5C
330
1F
100
AcDbEntity
  8
Default
100
AcDbSpline
210
0.0
220
0.0
230
1.0
 70
    24
 71
     2
 72
     6
 73
     3
 74
     0
 42
0.0000000001
 43
0.0000000001
 40
0.0
 40
0.0
 40
0.0
 40
0.3520000000000003
 40
0.3520000000000003
 40
0.3520000000000003
 10
11.63328139573
 20
51.76453938812207
 30
0.0
 10
11.80928139573
 20
51.76453938812207
 30
0.0
 10
11.98528139573
 20
51.76453938812207
 30
0.0
  0
SPLINE
  5
5D
330
1F
100
AcDbEntity
  8
Default
100
AcDbSpline
210
0.0
220
0.0
230
1.0
 70
    12
 71
     2
 72
     6
 73
     3
 74
     0
 42
0.0000000001
 43
0.0000000001
 40
0.0
 40
0.0
 40
0.0
 40
0.1098876245644455
 40
0.1098876245644455
 40
0.1098876245644455
 10
11.98528139573
 20
51.76453938812207
 30
0.0
 41
1.0
 10
12.05512274393969
 20
51.76469804274595
 30
0.0
 41
0.7087112325863247
 10
12.05528139573
 20
51.83453939096207
 30
0.0
 41
1.0
  0
POLYLINE
  5
5E
330
1F
100
AcDbEntity
  8
Default
100
AcDb2dPolyline
 66
     1
 10
0.0
 20
0.0
 30
0.0
  0
VERTEX
  5
5F
330
5E
100
AcDbEntity
  8
Default
100
AcDbVertex
100
AcDb2dVertex
 10
12.05528139573
 20
51.83453939096207
 30
0.0
  0
VERTEX
  5
60
330
5E
100
AcDbEntity
  8
Default
100
AcDbVertex
100
AcDb2dVertex
 10
12.05528139573
 20
52.03729788174747
 30
0.0
  0
SEQEND
  5
61
330
5E
100
AcDbEntity
  8
Default
  0
LINE
  5
62
330
1F
100
AcDbEntity
  8
Default
100
AcDbLine
 10
12.1242814853043
 20
52.8034255082691
 30
0.0
 11
12.12428173471608
 21
54.27159888137091
 31
0.0
  0
SPLINE
  5
63
330
1F
100
AcDbEntity
  8
Default
100
AcDbSpline
210
0.0
220
0.0
230
1.0
 70
    12
 71
     2
 72
     6
 73
     3
 74
     0
 42
0.0000000001
 43
0.0000000001
 40
-0.0784456577816192
 40
-0.0784456577816192
 40
-0.0784456577816192
 40
0.0
 40
0.0
 40
0.0
 10
12.12428176447351
 20
54.27159888137091
 30
0.0
 41
1.0
 10
12.12434142595024
 20
54.32153885098167
 30
0.0
 41
0.707107785543906
 10
12.17428139573029
 20
54.3214793313721
 30
0.0
 41
1.0
  0
SPLINE
  5
64
330
1F
100
AcDbEntity
  8
Default
100
AcDbSpline
210
0.0
220
0.0
230
1.0
 70
    12
 71
     2
 72
     6
 73
     3
 74
     0
 42
0.0000000001
 43
0.0000000001
 40
-0.0351460122197656
 40
-0.0351460122197656
 40
-0.0351460122197656
 40
0.0
 40
0.0
 40
0.0
 10
12.17428139573029
 20
54.3214793313721
 30
0.0
 41
1.0
 10
12.1916574781846
 20
54.32464673531932
 30
0.0
 41
0.9924246303389436
 10
12.20928140119137
 20
54.32348139113176
 30
0.0
 41
1.0
  0
SPLINE
  5
65
330
1F
100
AcDbEntity
  8
Default
100
AcDbSpline
210
0.0
220
0.0
230
1.0
 70
    24
 71
     2
 72
     6
 73
     3
 74
     0
 42
0.0000000001
 43
0.0000000001
 40
0.0
 40
0.0
 40
0.0
 40
0.6179999945348698
 40
0.6179999945348698
 40
0.6179999945348698
 10
12.20928140119137
 20
54.32348139113176
 30
0.0
 10
12.5182813984588
 20
54.3234813911318
 30
0.0
 10
12.82728139572624
 20
54.32348139113184
 30
0.0
  0
SPLINE
  5
66
330
1F
100
AcDbEntity
  8
Default
100
AcDbSpline
210
0.0
220
0.0
230
1.0
 70
    12
 71
     2
 72
     6
 73
     3
 74
     0
 42
0.0000000001
 43
0.0000000001
 40
-0.0351460068279919
 40
-0.0351460068279919
 40
-0.0351460068279919
 40
0.0
 40
0.0
 40
0.0
 10
12.82728139572624
 20
54.32348139113184
 30
0.0
 41
1.0
 10
12.84490531605719
 20
54.32464673567254
 30
0.0
 41
0.9924246250463485
 10
12.86228139572967
 20
54.32147933122317
 30
0.0
 41
1.0
  0
SPLINE
  5
67
330
1F
100
AcDbEntity
  8
Default
100
AcDbSpline
210
0.0
220
0.0
230
1.0
 70
    12
 71
     2
 72
     6
 73
     3
 74
     0
 42
0.0000000001
 43
0.0000000001
 40
-0.0784456575506041
 40
-0.0784456575506041
 40
-0.0784456575506041
 40
0.0
 40
0.0
 40
0.0
 10
12.86228139572967
 20
54.32147933122317
 30
0.0
 41
1.0
 10
12.91222136555117
 20
54.3215388513494
 30
0.0
 41
0.7071077818591103
 10
12.912281041884
 20
54.27159888169658
 30
0.0
 41
1.0
  0
LINE
  5
68
330
1F
100
AcDbEntity
  8
Default
100
AcDbLine
 10
12.912281041884
 20
54.27159888169658
 30
0.0
 11
12.91228138484061
 21
52.3402433270146
 31
0.0
  0
ARC
  5
69
330
1F
100
AcDbEntity
  8
Default
100
AcDbCircle
 10
-3515557.381956695
 20
51.73939992958469
 30
0.0
 40
3515570.294238132
100
AcDbArc
 50
0.0000088558212607
 51
0.0000097923772466
  0
ARC
  5
6A
330
1F
100
AcDbEntity
  8
Default
100
AcDbCircle
 10
-3515557.381956695
 20
51.73939992958469
 30
0.0
 40
3515570.294238132
100
AcDbArc
 50
0.0000012526123369
 51
0.0000088558212607
  0
SPLINE
  5
6B
330
1F
100
AcDbEntity
  8
Default
100
AcDbSpline
210
0.0
220
0.0
230
1.0
 70
    12
 71
     2
 72
     6
 73
     3
 74
     0
 42
0.0000000001
 43
0.0000000001
 40
0.0
 40
0.0
 40
0.0
 40
0.0784842030870699
 40
0.0784842030870699
 40
0.0784842030870699
 10
12.91228143624419
 20
51.81625806856267
 30
0.0
 41
1.0
 10
12.91224520993832
 20
51.76629425582779
 30
0.0
 41
0.7071217743558633
 10
12.86228139572961
 20
51.76632795081765
 30
0.0
 41
1.0
  0
POLYLINE
  5
6C
330
1F
100
AcDbEntity
  8
Default
100
AcDb2dPolyline
 66
     1
 10
0.0
 20
0.0
 30
0.0
  0
VERTEX
  5
6D
330
6C
100
AcDbEntity
  8
Default
100
AcDbVertex
100
AcDb2dVertex
 10
12.86228139572961
 20
51.76632795081765
 30
0.0
  0
VERTEX
  5
6E
330
6C
100
AcDbEntity
  8
Default
100
AcDbVertex
100
AcDb2dVertex
 10
12.17428139573039
 20
51.76632795081765
 30
0.0
  0
SEQEND
  5
6F
330
6C
100
AcDbEntity
  8
Default
  0
SPLINE
  5
70
330
1F
100
AcDbEntity
  8
Default
100
AcDbSpline
210
0.0
220
0.0
230
1.0
 70
    12
 71
     2
 72
     6
 73
     3
 74
     0
 42
0.0000000001
 43
0.0000000001
 40
-0.0784842030870699
 40
-0.0784842030870699
 40
-0.0784842030870699
 40
0.0
 40
0.0
 40
0.0
 10
12.17428139573039
 20
51.76632795081765
 30
0.0
 41
1.0
 10
12.12431758152168
 20
51.76629425582779
 30
0.0
 41
0.7071217743558633
 10
12.12428135521581
 20
51.81625806856267
 30
0.0
 41
1.0
  0
ARC
  5
71
330
1F
100
AcDbEntity
  8
Default
100
AcDbCircle
 10
3515582.418519486
 20
51.73939992958469
 30
0.0
 40
3515570.294238132
100
AcDbArc
 50
179.9999955601953
 51
179.9999987473877
  0
POLYLINE
  5
72
330
1F
100
AcDbEntity
  8
Default
100
AcDb2dPolyline
 66
     1
 10
0.0
 20
0.0
 30
0.0
  0
VERTEX
  5
73
330
72
100
AcDbEntity
  8
Default
100
AcDbVertex
100
AcDb2dVertex
 10
-12.38973124877912
 20
51.91379769132975
 30
0.0
  0
VERTEX
  5
74
330
72
100
AcDbEntity
  8
Default
100
AcDbVertex
100
AcDb2dVertex
 10
-11.86682830808572
 20
52.1068867663051
 30
0.0
  0
SEQEND
  5
75
330
72
100
AcDbEntity
  8
Default
  0
POLYLINE
  5
76
330
1F
100
AcDbEntity
  8
Default
100
AcDb2dPolyline
 66
     1
 10
0.0
 20
0.0
 30
0.0
  0
VERTEX
  5
77
330
76
100
AcDbEntity
  8
Default
100
AcDbVertex
100
AcDb2dVertex
 10
-12.63229049039213
 20
52.6603182782856
 30
0.0
  0
VERTEX
  5
78
330
76
100
AcDbEntity
  8
Default
100
AcDbVertex
100
AcDb2dVertex
 10
-12.09575821497542
 20
52.81146057190657
 30
0.0
  0
SEQEND
  5
79
330
76
100
AcDbEntity
  8
Default
  0
POLYLINE
  5
7A
330
1F
100
AcDbEntity
  8
Default
100
AcDb2dPolyline
 66
     1
 10
0.0
 20
0.0
 30
0.0
  0
VERTEX
  5
7B
330
7A
100
AcDbEntity
  8
Default
100
AcDbVertex
100
AcDb2dVertex
 10
12.63229049105452
 20
52.66031827807047
 30
0.0
  0
VERTEX
  5
7C
330
7A
100
AcDbEntity
  8
Default
100
AcDbVertex
100
AcDb2dVertex
 10
12.09575821497562
 20
52.81146057190722
 30
0.0
  0
SEQEND
  5
7D
330
7A
100
AcDbEntity
  8
Default
  0
POLYLINE
  5
7E
330
1F
100
AcDbEntity
  8
Default
100
AcDb2dPolyline
 66
     1
 10
0.0
 20
0.0
 30
0.0
  0
VERTEX
  5
7F
330
7E
100
AcDbEntity
  8
Default
100
AcDbVertex
100
AcDb2dVertex
 10
12.38973124811677
 20
51.91379769154505
 30
0.0
  0
VERTEX
  5
80
330
7E
100
AcDbEntity
  8
Default
100
AcDbVertex
100
AcDb2dVertex
 10
11.86682830808593
 20
52.10688676630574
 30
0.0
  0
SEQEND
  5
81
330
7E
100
AcDbEntity
  8
Default
  0
SPLINE
  5
83
330
1F
100
AcDbEntity
  8
Make2D visible lines - Tangent
100
AcDbSpline
210
0.0
220
0.0
230
1.0
 70
    12
 71
     2
 72
     6
 73
     3
 74
     0
 42
0.0000000001
 43
0.0000000001
 40
0.0
 40
0.0
 40
0.0
 40
0.6213186892081751
 40
0.6213186892081751
 40
0.6213186892081751
 10
-12.38973124877912
 20
51.91379769132975
 30
0.0
 41
1.0
 10
-12.76476440472598
 20
51.78904921638046
 30
0.0
 41
0.7078628796196968
 10
-12.89031505730441
 20
52.16381458791147
 30
0.0
 41
1.0
  0
SPLINE
  5
84
330
1F
100
AcDbEntity
  8
Make2D visible lines - Tangent
100
AcDbSpline
210
0.0
220
0.0
230
1.0
 70
    12
 71
     2
 72
     6
 73
     3
 74
     0
 42
0.0000000001
 43
0.0000000001
 40
0.0
 40
0.0
 40
0.0
 40
0.6213184385489916
 40
0.6213184385489916
 40
0.6213184385489916
 10
-12.89031505730441
 20
52.16381458791147
 30
0.0
 41
1.0
 10
-13.00902328401817
 20
52.54080259073658
 30
0.0
 41
0.7078638982414072
 10
-12.63229049039213
 20
52.6603182782856
 30
0.0
 41
1.0
  0
SPLINE
  5
85
330
1F
100
AcDbEntity
  8
Make2D visible lines - Tangent
100
AcDbSpline
210
0.0
220
0.0
230
1.0
 70
    12
 71
     2
 72
     6
 73
     3
 74
     0
 42
0.0000000001
 43
0.0000000001
 40
0.0
 40
0.0
 40
0.0
 40
0.6213186892081751
 40
0.6213186892081751
 40
0.6213186892081751
 10
12.63229049105452
 20
52.66031827807047
 30
0.0
 41
1.0
 10
13.00902400149077
 20
52.54080295614053
 30
0.0
 41
0.7078628796196968
 10
12.89031505462575
 20
52.1638145796674
 30
0.0
 41
1.0
  0
SPLINE
  5
86
330
1F
100
AcDbEntity
  8
Make2D visible lines - Tangent
100
AcDbSpline
210
0.0
220
0.0
230
1.0
 70
    12
 71
     2
 72
     6
 73
     3
 74
     0
 42
0.0000000001
 43
0.0000000001
 40
0.0
 40
0.0
 40
0.0
 40
0.6213184385489916
 40
0.6213184385489916
 40
0.6213184385489916
 10
12.89031505462575
 20
52.1638145796674
 30
0.0
 41
1.0
 10
12.7647640390575
 20
51.78904993371827
 30
0.0
 41
0.7078638982414072
 10
12.38973124811677
 20
51.91379769154505
 30
0.0
 41
1.0
  0
SPLINE
  5
88
330
1F
100
AcDbEntity
  8
Make2D visible lines
100
AcDbSpline
210
0.0
220
0.0
230
1.0
 70
    24
 71
     2
 72
     6
 73
     3
 74
     0
 42
0.0000000001
 43
0.0000000001
 40
0.0
 40
0.0
 40
0.0
 40
0.071889705667429
 40
0.071889705667429
 40
0.071889705667429
 10
-12.12717110139743
 20
53.35953938812207
 30
0.0
 10
-12.09122624856371
 20
53.35953938812207
 30
0.0
 10
-12.05528139573
 20
53.35953938812207
 30
0.0
  0
SPLINE
  5
89
330
1F
100
AcDbEntity
  8
Make2D visible lines
100
AcDbSpline
210
0.0
220
0.0
230
1.0
 70
    24
 71
     2
 72
     6
 73
     3
 74
     0
 42
0.0000000001
 43
0.0000000001
 40
0.0
 40
0.0
 40
0.0
 40
0.0653749093108864
 40
0.0653749093108864
 40
0.0653749093108864
 10
-12.98128139573
 20
52.72953938812207
 30
0.0
 10
-12.94859394107456
 20
52.72953938812207
 30
0.0
 10
-12.91590648641911
 20
52.72953938812207
 30
0.0
  0
SPLINE
  5
8A
330
1F
100
AcDbEntity
  8
Make2D visible lines
100
AcDbSpline
210
0.0
220
0.0
230
1.0
 70
    24
 71
     2
 72
     6
 73
     3
 74
     0
 42
0.0000000001
 43
0.0000000001
 40
0.0
 40
0.0
 40
0.0
 40
0.071889705667429
 40
0.071889705667429
 40
0.071889705667429
 10
-12.90939169006257
 20
53.35953938812207
 30
0.0
 10
-12.94533654289629
 20
53.35953938812207
 30
0.0
 10
-12.98128139573
 20
53.35953938812207
 30
0.0
  0
SPLINE
  5
8B
330
1F
100
AcDbEntity
  8
Make2D visible lines
100
AcDbSpline
210
0.0
220
0.0
230
1.0
 70
    24
 71
     2
 72
     6
 73
     3
 74
     0
 42
0.0000000001
 43
0.0000000001
 40
0.0
 40
0.0
 40
0.0
 40
0.071889705667429
 40
0.071889705667429
 40
0.071889705667429
 10
12.12717110139743
 20
53.35953938812207
 30
0.0
 10
12.09122624856371
 20
53.35953938812207
 30
0.0
 10
12.05528139573
 20
53.35953938812207
 30
0.0
  0
SPLINE
  5
8C
330
1F
100
AcDbEntity
  8
Make2D visible lines
100
AcDbSpline
210
0.0
220
0.0
230
1.0
 70
    24
 71
     2
 72
     6
 73
     3
 74
     0
 42
0.0000000001
 43
0.0000000001
 40
0.0
 40
0.0
 40
0.0
 40
0.0653749093108864
 40
0.0653749093108864
 40
0.0653749093108864
 10
12.98128139573
 20
52.72953938812207
 30
0.0
 10
12.94859394107456
 20
52.72953938812207
 30
0.0
 10
12.91590648641911
 20
52.72953938812207
 30
0.0
  0
SPLINE
  5
8D
330
1F
100
AcDbEntity
  8
Make2D visible lines
100
AcDbSpline
210
0.0
220
0.0
230
1.0
 70
    24
 71
     2
 72
     6
 73
     3
 74
     0
 42
0.0000000001
 43
0.0000000001
 40
0.0
 40
0.0
 40
0.0
 40
0.071889705667429
 40
0.071889705667429
 40
0.071889705667429
 10
12.90939169006257
 20
53.35953938812207
 30
0.0
 10
12.94533654289629
 20
53.35953938812207
 30
0.0
 10
12.98128139573
 20
53.35953938812207
 30
0.0
  0
POLYLINE
  5
8E
330
1F
100
AcDbEntity
  8
Default
100
AcDb2dPolyline
 66
     1
 10
0.0
 20
0.0
 30
0.0
  0
VERTEX
  5
8F
330
8E
100
AcDbEntity
  8
Default
100
AcDbVertex
100
AcDb2dVertex
 10
13.55328139573
 20
54.17453938519007
 30
0.0
  0
VERTEX
  5
90
330
8E
100
AcDbEntity
  8
Default
100
AcDbVertex
100
AcDb2dVertex
 10
13.55328139573
 20
51.91453939105407
 30
0.0
  0
SEQEND
  5
91
330
8E
100
AcDbEntity
  8
Default
  0
SPLINE
  5
92
330
1F
100
AcDbEntity
  8
Default
100
AcDbSpline
210
0.0
220
0.0
230
1.0
 70
    12
 71
     2
 72
     6
 73
     3
 74
     0
 42
0.0000000001
 43
0.0000000001
 40
0.0
 40
0.0
 40
0.0
 40
0.2355890798875016
 40
0.2355890798875016
 40
0.2355890798875016
 10
13.55328139573
 20
51.91453939105407
 30
0.0
 41
1.0
 10
13.55321064057222
 20
51.76461014621046
 30
0.0
 41
0.7074404097356639
 10
13.40328139573
 20
51.76453938812207
 30
0.0
 41
1.0
  0
SPLINE
  5
93
330
1F
100
AcDbEntity
  8
Default
100
AcDbSpline
210
0.0
220
0.0
230
1.0
 70
    24
 71
     2
 72
     6
 73
     3
 74
     0
 42
0.0000000001
 43
0.0000000001
 40
0.0
 40
0.0
 40
0.0
 40
0.3520000000000003
 40
0.3520000000000003
 40
0.3520000000000003
 10
13.40328139573
 20
51.76453938812207
 30
0.0
 10
13.22728139573
 20
51.76453938812207
 30
0.0
 10
13.05128139573
 20
51.76453938812207
 30
0.0
  0
SPLINE
  5
94
330
1F
100
AcDbEntity
  8
Default
100
AcDbSpline
210
0.0
220
0.0
230
1.0
 70
    12
 71
     2
 72
     6
 73
     3
 74
     0
 42
0.0000000001
 43
0.0000000001
 40
0.0
 40
0.0
 40
0.0
 40
0.1098876245644455
 40
0.1098876245644455
 40
0.1098876245644455
 10
13.05128139573
 20
51.76453938812207
 30
0.0
 41
1.0
 10
12.98144004752031
 20
51.76469804274595
 30
0.0
 41
0.7087112325863247
 10
12.98128139573
 20
51.83453939096207
 30
0.0
 41
1.0
  0
POLYLINE
  5
95
330
1F
100
AcDbEntity
  8
Default
100
AcDb2dPolyline
 66
     1
 10
0.0
 20
0.0
 30
0.0
  0
VERTEX
  5
96
330
95
100
AcDbEntity
  8
Default
100
AcDbVertex
100
AcDb2dVertex
 10
12.98128139573
 20
51.83453939096207
 30
0.0
  0
VERTEX
  5
97
330
95
100
AcDbEntity
  8
Default
100
AcDbVertex
100
AcDb2dVertex
 10
12.98128139573
 20
54.25453938528207
 30
0.0
  0
SEQEND
  5
98
330
95
100
AcDbEntity
  8
Default
  0
SPLINE
  5
99
330
1F
100
AcDbEntity
  8
Default
100
AcDbSpline
210
0.0
220
0.0
230
1.0
 70
    12
 71
     2
 72
     6
 73
     3
 74
     0
 42
0.0000000001
 43
0.0000000001
 40
0.0
 40
0.0
 40
0.0
 40
0.109941564851661
 40
0.109941564851661
 40
0.109941564851661
 10
12.98128139573
 20
54.25453938528207
 30
0.0
 41
1.0
 10
12.98131443018469
 20
54.32450635082873
 30
0.0
 41
0.7074405726109262
 10
13.05128139573
 20
54.32453938812206
 30
0.0
 41
1.0
  0
SPLINE
  5
9A
330
1F
100
AcDbEntity
  8
Default
100
AcDbSpline
210
0.0
220
0.0
230
1.0
 70
    24
 71
     2
 72
     6
 73
     3
 74
     0
 42
0.0000000001
 43
0.0000000001
 40
0.0
 40
0.0
 40
0.0
 40
0.3520000000000003
 40
0.3520000000000003
 40
0.3520000000000003
 10
13.05128139573
 20
54.32453938812206
 30
0.0
 10
13.22728139573
 20
54.32453938812206
 30
0.0
 10
13.40328139573
 20
54.32453938812207
 30
0.0
  0
SPLINE
  5
9B
330
1F
100
AcDbEntity
  8
Default
100
AcDbSpline
210
0.0
220
0.0
230
1.0
 70
    12
 71
     2
 72
     6
 73
     3
 74
     0
 42
0.0000000001
 43
0.0000000001
 40
0.0
 40
0.0
 40
0.0
 40
0.2356186331260159
 40
0.2356186331260159
 40
0.2356186331260159
 10
13.40328139573
 20
54.32453938812207
 30
0.0
 41
1.0
 10
13.55327949088835
 20
54.32453748034847
 30
0.0
 41
0.7071157676638842
 10
13.55328139573
 20
54.17453938519007
 30
0.0
 41
1.0
  0
POLYLINE
  5
9C
330
1F
100
AcDbEntity
  8
Default
100
AcDb2dPolyline
 66
     1
 10
0.0
 20
0.0
 30
0.0
  0
VERTEX
  5
9D
330
9C
100
AcDbEntity
  8
Default
100
AcDbVertex
100
AcDb2dVertex
 10
-13.55328139573
 20
54.17453938519007
 30
0.0
  0
VERTEX
  5
9E
330
9C
100
AcDbEntity
  8
Default
100
AcDbVertex
100
AcDb2dVertex
 10
-13.55328139573
 20
51.91453939105407
 30
0.0
  0
SEQEND
  5
9F
330
9C
100
AcDbEntity
  8
Default
  0
SPLINE
  5
A0
330
1F
100
AcDbEntity
  8
Default
100
AcDbSpline
210
0.0
220
0.0
230
1.0
 70
    12
 71
     2
 72
     6
 73
     3
 74
     0
 42
0.0000000001
 43
0.0000000001
 40
0.0
 40
0.0
 40
0.0
 40
0.2355890798875016
 40
0.2355890798875016
 40
0.2355890798875016
 10
-13.55328139573
 20
51.91453939105407
 30
0.0
 41
1.0
 10
-13.55321064057222
 20
51.76461014621046
 30
0.0
 41
0.7074404097356639
 10
-13.40328139573
 20
51.76453938812207
 30
0.0
 41
1.0
  0
SPLINE
  5
A1
330
1F
100
AcDbEntity
  8
Default
100
AcDbSpline
210
0.0
220
0.0
230
1.0
 70
    24
 71
     2
 72
     6
 73
     3
 74
     0
 42
0.0000000001
 43
0.0000000001
 40
0.0
 40
0.0
 40
0.0
 40
0.3520000000000003
 40
0.3520000000000003
 40
0.3520000000000003
 10
-13.40328139573
 20
51.76453938812207
 30
0.0
 10
-13.22728139573
 20
51.76453938812207
 30
0.0
 10
-13.05128139573
 20
51.76453938812207
 30
0.0
  0
SPLINE
  5
A2
330
1F
100
AcDbEntity
  8
Default
100
AcDbSpline
210
0.0
220
0.0
230
1.0
 70
    12
 71
     2
 72
     6
 73
     3
 74
     0
 42
0.0000000001
 43
0.0000000001
 40
0.0
 40
0.0
 40
0.0
 40
0.1098876245644455
 40
0.1098876245644455
 40
0.1098876245644455
 10
-13.05128139573
 20
51.76453938812207
 30
0.0
 41
1.0
 10
-12.98144004752031
 20
51.76469804274595
 30
0.0
 41
0.7087112325863247
 10
-12.98128139573
 20
51.83453939096207
 30
0.0
 41
1.0
  0
POLYLINE
  5
A3
330
1F
100
AcDbEntity
  8
Default
100
AcDb2dPolyline
 66
     1
 10
0.0
 20
0.0
 30
0.0
  0
VERTEX
  5
A4
330
A3
100
AcDbEntity
  8
Default
100
AcDbVertex
100
AcDb2dVertex
 10
-12.98128139573
 20
51.83453939096207
 30
0.0
  0
VERTEX
  5
A5
330
A3
100
AcDbEntity
  8
Default
100
AcDbVertex
100
AcDb2dVertex
 10
-12.98128139573
 20
54.25453938528207
 30
0.0
  0
SEQEND
  5
A6
330
A3
100
AcDbEntity
  8
Default
  0
SPLINE
  5
A7
330
1F
100
AcDbEntity
  8
Default
100
AcDbSpline
210
0.0
220
0.0
230
1.0
 70
    12
 71
     2
 72
     6
 73
     3
 74
     0
 42
0.0000000001
 43
0.0000000001
 40
0.0
 40
0.0
 40
0.0
 40
0.109941564851661
 40
0.109941564851661
 40
0.109941564851661
 10
-12.98128139573
 20
54.25453938528207
 30
0.0
 41
1.0
 10
-12.98131443018469
 20
54.32450635082873
 30
0.0
 41
0.7074405726109262
 10
-13.05128139573
 20
54.32453938812206
 30
0.0
 41
1.0
  0
SPLINE
  5
A8
330
1F
100
AcDbEntity
  8
Default
100
AcDbSpline
210
0.0
220
0.0
230
1.0
 70
    24
 71
     2
 72
     6
 73
     3
 74
     0
 42
0.0000000001
 43
0.0000000001
 40
0.0
 40
0.0
 40
0.0
 40
0.3520000000000003
 40
0.3520000000000003
 40
0.3520000000000003
 10
-13.05128139573
 20
54.32453938812206
 30
0.0
 10
-13.22728139573
 20
54.32453938812206
 30
0.0
 10
-13.40328139573
 20
54.32453938812207
 30
0.0
  0
SPLINE
  5
A9
330
1F
100
AcDbEntity
  8
Default
100
AcDbSpline
210
0.0
220
0.0
230
1.0
 70
    12
 71
     2
 72
     6
 73
     3
 74
     0
 42
0.0000000001
 43
0.0000000001
 40
0.0
 40
0.0
 40
0.0
 40
0.2356186331260159
 40
0.2356186331260159
 40
0.2356186331260159
 10
-13.40328139573
 20
54.32453938812207
 30
0.0
 41
1.0
 10
-13.55327949088835
 20
54.32453748034847
 30
0.0
 41
0.7071157676638842
 10
-13.55328139573
 20
54.17453938519007
 30
0.0
 41
1.0
  0
SPLINE
  5
AA
330
1F
100
AcDbEntity
  8
Make2D visible lines
100
AcDbSpline
210
0.0
220
0.0
230
1.0
 70
    24
 71
     2
 72
     6
 73
     3
 74
     0
 42
0.0000000001
 43
0.0000000001
 40
0.0
 40
0.0
 40
0.0
 40
0.0653749093108864
 40
0.0653749093108864
 40
0.0653749093108864
 10
-0.463000000000001
 20
43.63447557658008
 30
0.0
 10
-0.4303125453445578
 20
43.63447557658008
 30
0.0
 10
-0.3976250906891146
 20
43.63447557658008
 30
0.0
  0
SPLINE
  5
AB
330
1F
100
AcDbEntity
  8
Make2D visible lines
100
AcDbSpline
210
0.0
220
0.0
230
1.0
 70
    24
 71
     2
 72
     6
 73
     3
 74
     0
 42
0.0000000001
 43
0.0000000001
 40
0.0
 40
0.0
 40
0.0
 40
0.0653749093108864
 40
0.0653749093108864
 40
0.0653749093108864
 10
0.463000000000001
 20
43.63447557658008
 30
0.0
 10
0.4303125453445578
 20
43.63447557658008
 30
0.0
 10
0.3976250906891146
 20
43.63447557658008
 30
0.0
  0
SPLINE
  5
AC
330
1F
100
AcDbEntity
  8
Make2D visible lines - Tangent
100
AcDbSpline
210
0.0
220
0.0
230
1.0
 70
    12
 71
     2
 72
     6
 73
     3
 74
     0
 42
0.0000000001
 43
0.0000000001
 40
0.0
 40
0.0
 40
0.0
 40
0.6213186892081751
 40
0.6213186892081751
 40
0.6213186892081751
 10
0.3924690982870231
 20
43.1972765193682
 30
0.0
 41
1.0
 10
0.3952203296437779
 20
42.8020493937965
 30
0.0
 41
0.7078628796196968
 10
-0.000000004334165
 20
42.798452496243
 30
0.0
 41
1.0
  0
SPLINE
  5
AD
330
1F
100
AcDbEntity
  8
Make2D visible lines - Tangent
100
AcDbSpline
210
0.0
220
0.0
230
1.0
 70
    12
 71
     2
 72
     6
 73
     3
 74
     0
 42
0.0000000001
 43
0.0000000001
 40
0.0
 40
0.0
 40
0.0
 40
0.6213184385489916
 40
0.6213184385489916
 40
0.6213184385489916
 10
-0.000000004334165
 20
42.798452496243
 30
0.0
 41
1.0
 10
-0.3952197604127546
 20
42.80204996323747
 30
0.0
 41
0.7078638982414072
 10
-0.3924690982869414
 20
43.19727652006465
 30
0.0
 41
1.0
  0
SPLINE
  5
AE
330
1F
100
AcDbEntity
  8
Make2D visible lines
100
AcDbSpline
210
0.0
220
0.0
230
1.0
 70
    24
 71
     2
 72
     6
 73
     3
 74
     0
 42
0.0000000001
 43
0.0000000001
 40
-0.9827469620957527
 40
-0.9827469620957527
 40
-0.9827469620957527
 40
0.0
 40
0.0
 40
0.0
 10
41.22707574398305
 20
6.297402715026605
 30
0.0
 10
41.2356513936868
 20
6.788701357513297
 30
0.0
 10
41.24422704339055
 20
7.279999999999989
 30
0.0
  0
POLYLINE
  5
AF
330
1F
100
AcDbEntity
  8
Make2D visible lines
100
AcDb2dPolyline
 66
     1
 10
0.0
 20
0.0
 30
0.0
  0
VERTEX
  5
B0
330
AF
100
AcDbEntity
  8
Make2D visible lines
100
AcDbVertex
100
AcDb2dVertex
 10
41.24422704339055
 20
7.279999999999989
 30
0.0
  0
VERTEX
  5
B1
330
AF
100
AcDbEntity
  8
Make2D visible lines
100
AcDbVertex
100
AcDb2dVertex
 10
43.82422704338968
 20
7.279999999999992
 30
0.0
  0
SEQEND
  5
B2
330
AF
100
AcDbEntity
  8
Make2D visible lines
  0
SPLINE
  5
B3
330
1F
100
AcDbEntity
  8
Make2D visible lines
100
AcDbSpline
210
0.0
220
0.0
230
1.0
 70
    24
 71
     2
 72
     6
 73
     3
 74
     0
 42
0.0000000001
 43
0.0000000001
 40
-0.4258449300514819
 40
-0.4258449300514819
 40
-0.4258449300514819
 40
0.0
 40
0.0
 40
0.0
 10
43.82422704338968
 20
7.279999999999992
 30
0.0
 10
43.82798730353385
 20
7.065134040521362
 30
0.0
 10
43.83174756367801
 20
6.850268081042731
 30
0.0
  0
SPLINE
  5
B4
330
1F
100
AcDbEntity
  8
Make2D visible lines
100
AcDbSpline
210
0.0
220
0.0
230
1.0
 70
    12
 71
     2
 72
     6
 73
     3
 74
     0
 42
0.0000000001
 43
0.0000000001
 40
0.0
 40
0.0
 40
0.0
 40
0.977584328121768
 40
0.977584328121768
 40
0.977584328121768
 10
43.83174756367801
 20
6.850268081042731
 30
0.0
 41
1.0
 10
43.83570005451622
 20
6.260934156416845
 30
0.0
 41
0.7698935221867936
 10
44.41393459345402
 20
6.155765846807277
 30
0.0
 41
1.0
  0
SPLINE
  5
B5
330
1F
100
AcDbEntity
  8
Make2D visible lines
100
AcDbSpline
210
0.0
220
0.0
230
1.0
 70
    24
 71
     2
 72
     6
 73
     3
 74
     0
 42
0.0000000001
 43
0.0000000001
 40
0.0
 40
0.0
 40
0.0
 40
11.14055117956391
 40
11.14055117956391
 40
11.14055117956391
 10
44.41393459345402
 20
6.155765846807277
 30
0.0
 10
49.90815904388703
 20
5.231414615036349
 30
0.0
 10
55.40238349432002
 20
4.307063383265421
 30
0.0
  0
SPLINE
  5
B6
330
1F
100
AcDbEntity
  8
Make2D visible lines
100
AcDbSpline
210
0.0
220
0.0
230
1.0
 70
     8
 71
     3
 72
    14
 73
    10
 74
     0
 42
0.0000000001
 43
0.0000000001
 40
0.0
 40
0.0
 40
0.0
 40
0.0
 40
0.2009292250050245
 40
0.3900776916751833
 40
0.738926480845994
 40
1.049164478402313
 40
1.137757166010446
 40
1.199819143043104
 40
1.855059888109911
 40
1.855059888109911
 40
1.855059888109911
 40
1.855059888109911
 10
55.40238349432002
 20
4.307063383265421
 30
0.0
 10
55.46910845621657
 20
4.296369501303224
 30
0.0
 10
55.59390528429078
 20
4.26335958837537
 30
0.0
 10
55.81816523025749
 20
4.152397479629055
 30
0.0
 10
55.99968407582755
 20
3.923038130909009
 30
0.0
 10
56.05247031095725
 20
3.67475121925238
 30
0.0
 10
56.06188503402196
 20
3.522097085215826
 30
0.0
 10
56.07069673014058
 20
3.25325305058155
 30
0.0
 10
56.08029836832762
 20
3.014683261766395
 30
0.0
 10
56.0879063832672
 20
2.796273513372244
 30
0.0
  0
SPLINE
  5
B7
330
1F
100
AcDbEntity
  8
Make2D visible lines
100
AcDbSpline
210
0.0
220
0.0
230
1.0
 70
    12
 71
     2
 72
     8
 73
     5
 74
     0
 42
0.0000000001
 43
0.0000000001
 40
0.0
 40
0.0
 40
0.0
 40
0.0281258329950497
 40
0.0281258329950497
 40
0.0562516659900993
 40
0.0562516659900993
 40
0.0562516659900993
 10
56.0879063832672
 20
2.796273513372244
 30
0.0
 41
1.0
 10
56.08844751664589
 20
2.781411379274648
 30
0.0
 41
0.9203594822606724
 10
56.07812452944997
 20
2.770705689636832
 30
0.0
 41
1.0
 10
56.06780154225404
 20
2.759999999999016
 30
0.0
 41
0.9203594822606724
 10
56.05292956003012
 20
2.760000000000001
 30
0.0
 41
1.0
  0
SPLINE
  5
B8
330
1F
100
AcDbEntity
  8
Make2D visible lines
100
AcDbSpline
210
0.0
220
0.0
230
1.0
 70
     8
 71
     3
 72
    11
 73
     7
 74
     0
 42
0.0000000001
 43
0.0000000001
 40
0.0
 40
0.0
 40
0.0
 40
0.0
 40
7.085634484360607
 40
7.361795627002613
 40
7.606429217984398
 40
8.018050506220703
 40
8.018050506220703
 40
8.018050506220703
 40
8.018050506220703
 10
46.8877527922233
 20
3.874115775828577
 30
0.0
 10
49.24053348203658
 20
3.667069193534316
 30
0.0
 10
51.6854725752973
 20
3.456951130207616
 30
0.0
 10
54.21091831661785
 20
3.231811002775113
 30
0.0
 10
54.5170814383803
 20
3.174001529508094
 30
0.0
 10
54.73124967992756
 20
3.13160921158711
 30
0.0
 10
54.86124645485328
 20
3.08563051079437
 30
0.0
  0
SPLINE
  5
B9
330
1F
100
AcDbEntity
  8
Make2D visible lines
100
AcDbSpline
210
0.0
220
0.0
230
1.0
 70
    12
 71
     3
 72
    12
 73
     8
 74
     0
 42
0.0000000001
 43
0.0000000001
 40
-1.0
 40
-1.0
 40
-1.0
 40
-1.0
 40
-0.5
 40
-0.5
 40
-0.25
 40
-0.25
 40
0.0
 40
0.0
 40
0.0
 40
0.0
 10
54.86124645485328
 20
3.08563051079437
 30
0.0
 41
1.0
 10
54.95360569284149
 20
3.054549965754353
 30
0.0
 41
1.0
 10
55.04043843381774
 20
3.018012276253865
 30
0.0
 41
1.0
 10
55.15450040350812
 20
2.947221946362584
 30
0.0
 41
1.0
 10
55.18978524161751
 20
2.920923717901369
 30
0.0
 41
1.0
 10
55.25150540159225
 20
2.85958884565809
 30
0.0
 41
1.0
 10
55.27821565778595
 20
2.824823681549516
 30
0.0
 41
1.0
 10
55.2962818742165
 20
2.781523030934368
 30
0.0
 41
1.0
  0
SPLINE
  5
BA
330
1F
100
AcDbEntity
  8
Make2D visible lines
100
AcDbSpline
210
0.0
220
0.0
230
1.0
 70
    12
 71
     2
 72
     6
 73
     3
 74
     0
 42
0.0000000001
 43
0.0000000001
 40
0.0
 40
0.0
 40
0.0
 40
0.0411434641823458
 40
0.0411434641823458
 40
0.0411434641823458
 10
55.2962818742165
 20
2.781523030934368
 30
0.0
 41
1.0
 10
55.30526187167848
 20
2.759999999851287
 30
0.0
 41
0.832182746877927
 10
55.32858313282408
 20
2.760000000000002
 30
0.0
 41
1.0
  0
SPLINE
  5
BB
330
1F
100
AcDbEntity
  8
Default
100
AcDbSpline
210
0.0
220
0.0
230
1.0
 70
     8
 71
     3
 72
    11
 73
     7
 74
     0
 42
0.0000000001
 43
0.0000000001
 40
-3.23693309777242
 40
-3.23693309777242
 40
-3.23693309777242
 40
-3.23693309777242
 40
-3.132310362624433
 40
-3.011080897647895
 40
-1.234264891972177
 40
0.0
 40
0.0
 40
0.0
 40
0.0
 10
46.17236864406316
 20
3.17135933350005
 30
0.0
 10
46.14562288775758
 20
3.192067525842577
 30
0.0
 10
46.08387731399355
 20
3.240432042913576
 30
0.0
 10
45.44225781908411
 20
3.425133923439871
 30
0.0
 10
44.43607326218437
 20
3.703516645529733
 30
0.0
 10
43.46828505141367
 20
3.96984400884104
 30
0.0
 10
43.07080946496255
 20
4.076000563448354
 30
0.0
  0
ARC
  5
BC
330
1F
100
AcDbEntity
  8
Default
100
AcDbCircle
 10
42.41601257174904
 20
1.624284038744178
 30
0.0
 40
2.537651057350004
100
AcDbArc
 50
75.04663993689317
 51
84.65383226446174
  0
SPLINE
  5
BD
330
1F
100
AcDbEntity
  8
Default
100
AcDbSpline
210
0.0
220
0.0
230
1.0
 70
     8
 71
     3
 72
     8
 73
     4
 74
     0
 42
0.0000000001
 43
0.0000000001
 40
0.0
 40
0.0
 40
0.0
 40
0.0
 40
1.0
 40
1.0
 40
1.0
 40
1.0
 10
42.65245285817102
 20
4.150896173565485
 30
0.0
 10
42.45571780243947
 20
4.169306634073188
 30
0.0
 10
42.25732829661943
 20
4.190528803100828
 30
0.0
 10
42.06022607298281
 20
4.176588191661652
 30
0.0
  0
ARC
  5
BE
330
1F
100
AcDbEntity
  8
Default
100
AcDbCircle
 10
44.60985828464562
 20
-31.87191517326658
 30
0.0
 40
36.13855585473762
100
AcDbArc
 50
94.04566874948716
 51
96.1443254190237
  0
SPLINE
  5
BF
330
1F
100
AcDbEntity
  8
Default
100
AcDbSpline
210
0.0
220
0.0
230
1.0
 70
     8
 71
     3
 72
    14
 73
    10
 74
     0
 42
0.0000000001
 43
0.0000000001
 40
-8.204530470148132
 40
-8.204530470148132
 40
-8.204530470148132
 40
-8.204530470148132
 40
-4.787868609135582
 40
-1.282026189816285
 40
-0.9685074939250532
 40
-0.751754173128408
 40
-0.3313090765086819
 40
-0.1541283884282293
 40
-0.0000000000000001
 40
-0.0000000000000001
 40
-0.0000000000000001
 40
-0.0000000000000001
 10
40.74182998480518
 20
4.059040510344508
 30
0.0
 10
39.60948821191114
 20
3.937141998620706
 30
0.0
 10
37.31524545755271
 20
3.690029071923173
 30
0.0
 10
34.91724439419822
 20
3.430629161754085
 30
0.0
 10
33.57963029266554
 20
3.28617039100558
 30
0.0
 10
33.26450171299744
 20
3.253040106642492
 30
0.0
 10
32.9957981720577
 20
3.212278789253769
 30
0.0
 10
32.75267149571809
 20
3.150567211404313
 30
0.0
 10
32.64801398022674
 20
3.11515039554157
 30
0.0
 10
32.60034066910423
 20
3.095924204151559
 30
0.0
  0
SPLINE
  5
C0
330
1F
100
AcDbEntity
  8
Default
100
AcDbSpline
210
0.0
220
0.0
230
1.0
 70
    12
 71
     3
 72
    14
 73
    10
 74
     0
 42
0.0000000001
 43
0.0000000001
 40
-0.4850350027423287
 40
-0.4850350027423287
 40
-0.4850350027423287
 40
-0.4850350027423287
 40
-0.2503328357454272
 40
-0.2049997550560486
 40
-0.1554078339195929
 40
-0.0419729879099941
 40
-0.0419729879099941
 40
-0.0419729879099941
 40
0.0
 40
0.0
 40
0.0
 40
0.0
 10
32.60034066910423
 20
3.095924204151559
 30
0.0
 41
1.0
 10
32.528752551715
 20
3.06705339963289
 30
0.0
 41
1.0
 10
32.42331119647116
 20
3.016166851016364
 30
0.0
 41
1.0
 10
32.35141200148576
 20
2.932110820384092
 30
0.0
 41
1.0
 10
32.31622134300277
 20
2.872078965798318
 30
0.0
 41
1.0
 10
32.29579315024961
 20
2.821506951458777
 30
0.0
 41
1.0
 10
32.28401774542542
 20
2.78237710155552
 30
0.0
 41
1.0
 10
32.27862170323721
 20
2.768493375786194
 30
0.0
 41
0.8842711137923068
 10
32.26634481685517
 20
2.760058141746936
 30
0.0
 41
0.8842711137923068
 10
32.25144945744056
 20
2.76000000015854
 30
0.0
 41
1.0
  0
SPLINE
  5
C1
330
1F
100
AcDbEntity
  8
Make2D visible lines
100
AcDbSpline
210
0.0
220
0.0
230
1.0
 70
    12
 71
     2
 72
     6
 73
     3
 74
     0
 42
0.0000000001
 43
0.0000000001
 40
0.0
 40
0.0
 40
0.0
 40
0.4169760767400937
 40
0.4169760767400937
 40
0.4169760767400937
 10
46.1680770374853
 20
3.208276559050868
 30
0.0
 41
1.0
 10
46.1923105534038
 20
3.001160442240106
 30
0.0
 41
0.9997052877389728
 10
46.20650878958405
 20
2.792587652478247
 30
0.0
 41
1.0
  0
SPLINE
  5
C2
330
1F
100
AcDbEntity
  8
Make2D visible lines
100
AcDbSpline
210
0.0
220
0.0
230
1.0
 70
    12
 71
     2
 72
     6
 73
     3
 74
     0
 42
0.0000000001
 43
0.0000000001
 40
0.0
 40
0.0
 40
0.0
 40
0.051971837302968
 40
0.051971837302968
 40
0.051971837302968
 10
46.20650878958405
 20
2.792587652478247
 30
0.0
 41
1.0
 10
46.20937244969211
 20
2.76013975595634
 30
0.0
 41
0.7390041367116041
 10
46.24141957536038
 20
2.760000000351793
 30
0.0
 41
1.0
  0
SPLINE
  5
C3
330
1F
100
AcDbEntity
  8
Make2D visible lines - Tangent
100
AcDbSpline
210
0.0
220
0.0
230
1.0
 70
    12
 71
     2
 72
     8
 73
     5
 74
     0
 42
0.0000000001
 43
0.0000000001
 40
0.0
 40
0.0
 40
0.0
 40
0.0281548017607272
 40
0.0281548017607272
 40
0.0563096035214544
 40
0.0563096035214544
 40
0.0563096035214544
 10
46.95733073402843
 20
2.760000000033036
 30
0.0
 41
1.0
 10
46.97221379424539
 20
2.760054355659916
 30
0.0
 41
0.9207353083954195
 10
46.98252601148238
 20
2.770785926449538
 30
0.0
 41
1.0
 10
46.99283822871938
 20
2.781517497239162
 30
0.0
 41
0.9207353083954195
 10
46.99229074987021
 20
2.796598376530821
 30
0.0
 41
1.0
  0
SPLINE
  5
C4
330
1F
100
AcDbEntity
  8
Make2D visible lines - Tangent
100
AcDbSpline
210
0.0
220
0.0
230
1.0
 70
     8
 71
     3
 72
    12
 73
     8
 74
     0
 42
0.0000000001
 43
0.0000000001
 40
0.0
 40
0.0
 40
0.0
 40
0.0
 40
0.7038593348424074
 40
0.8875771840295935
 40
1.044695281968214
 40
1.349887694187137
 40
1.596737400594657
 40
1.596737400594657
 40
1.596737400594657
 40
1.596737400594657
 10
46.99229074987021
 20
2.796598376530821
 30
0.0
 10
46.97807099863914
 20
3.030987480241414
 30
0.0
 10
46.97212989710464
 20
3.327017596735619
 30
0.0
 10
46.9353229179937
 20
3.673605593349178
 30
0.0
 10
46.89059098228081
 20
3.884293732777643
 30
0.0
 10
46.8081663675716
 20
4.108619079247838
 30
0.0
 10
46.67701320804596
 20
4.245611079291696
 30
0.0
 10
46.6036876377931
 20
4.283844356305368
 30
0.0
  0
SPLINE
  5
C5
330
1F
100
AcDbEntity
  8
Make2D visible lines - Tangent
100
AcDbSpline
210
0.0
220
0.0
230
1.0
 70
    12
 71
     3
 72
    15
 73
    11
 74
     0
 42
0.0000000001
 43
0.0000000001
 40
-4.541433547693557
 40
-4.541433547693557
 40
-4.541433547693557
 40
-4.541433547693557
 40
-0.7414861370963696
 40
-0.7414861370963696
 40
-0.7414861370963696
 40
-0.6324431721007214
 40
-0.4665084344538327
 40
-0.2470339465480142
 40
-0.1247233484072336
 40
0.0
 40
0.0
 40
0.0
 40
0.0
 10
46.6036876377931
 20
4.283844356305368
 30
0.0
 41
1.0
 10
45.45286137361983
 20
4.913329891125925
 30
0.0
 41
0.9999999265147085
 10
44.34160957630249
 20
5.521211126879812
 30
0.0
 41
0.9999999265147085
 10
43.23007248465569
 20
6.128570532599579
 30
0.0
 41
1.0
 10
43.19799596683734
 20
6.147219312783745
 30
0.0
 41
1.0
 10
43.14465971802119
 20
6.224084365870708
 30
0.0
 41
1.0
 10
43.09273381969665
 20
6.381173536448476
 30
0.0
 41
1.0
 10
43.06486453605228
 20
6.548509628443595
 30
0.0
 41
1.0
 10
43.05212238919944
 20
6.703489724570181
 30
0.0
 41
1.0
 10
43.04964014868564
 20
6.785854574524041
 30
0.0
 41
1.0
 10
43.04943104409698
 20
6.827417844695098
 30
0.0
 41
1.0
  0
SPLINE
  5
C6
330
1F
100
AcDbEntity
  8
Make2D visible lines - Tangent
100
AcDbSpline
210
0.0
220
0.0
230
1.0
 70
    12
 71
     2
 72
     8
 73
     5
 74
     0
 42
0.0000000001
 43
0.0000000001
 40
0.0
 40
0.0
 40
0.0
 40
0.3253370284247422
 40
0.3253370284247422
 40
9.403473663300316
 40
9.403473663300316
 40
9.403473663300316
 10
41.26036375897669
 20
6.351205542801027
 30
0.0
 41
1.0
 10
41.17967512294175
 20
6.197832513434677
 30
0.0
 41
0.9103553742893397
 10
41.0113501666971
 20
6.156574902357635
 30
0.0
 41
0.9999882185796083
 10
36.56750997750365
 20
5.231819142811508
 30
0.0
 41
0.9999882185796083
 10
32.02926671454115
 20
4.28497752956617
 30
0.0
 41
0.9999882185796083
  0
SPLINE
  5
C7
330
1F
100
AcDbEntity
  8
Make2D visible lines - Tangent
100
AcDbSpline
210
0.0
220
0.0
230
1.0
 70
     8
 71
     3
 72
    13
 73
     9
 74
     0
 42
0.0000000001
 43
0.0000000001
 40
0.0
 40
0.0
 40
0.0
 40
0.0
 40
0.1566065189818115
 40
0.3091157047045195
 40
0.6293465835033908
 40
0.9251044512314791
 40
1.003042613551681
 40
1.701534992922182
 40
1.701534992922182
 40
1.701534992922182
 40
1.701534992922182
 10
32.02926671454115
 20
4.28497752956617
 30
0.0
 10
31.97912576302207
 20
4.269366604121733
 30
0.0
 10
31.88493610553407
 20
4.228651035824123
 30
0.0
 10
31.71375900475238
 20
4.101424990536445
 30
0.0
 10
31.58277517988888
 20
3.874486075735164
 30
0.0
 10
31.53895878040768
 20
3.645405860434806
 30
0.0
 10
31.51797838106987
 20
3.288771884172197
 30
0.0
 10
31.51016063997254
 20
3.029889099970676
 30
0.0
 10
31.49526191233829
 20
2.797297258530311
 30
0.0
  0
SPLINE
  5
C8
330
1F
100
AcDbEntity
  8
Make2D visible lines - Tangent
100
AcDbSpline
210
0.0
220
0.0
230
1.0
 70
    12
 71
     2
 72
     8
 73
     5
 74
     0
 42
0.0000000001
 43
0.0000000001
 40
0.0
 40
0.0
 40
0.0
 40
0.0284675552628037
 40
0.0284675552628037
 40
0.0569351105256074
 40
0.0569351105256074
 40
0.0569351105256074
 10
31.49526191233829
 20
2.797297258530311
 30
0.0
 41
1.0
 10
31.49443780777759
 20
2.781980459771884
 30
0.0
 41
0.919080792879801
 10
31.50477862320187
 20
2.771022345236603
 30
0.0
 41
1.0
 10
31.51511943862616
 20
2.760064230701323
 30
0.0
 41
0.919080792879801
 10
31.53018624360358
 20
2.760000000023431
 30
0.0
 41
1.0
  0
SPLINE
  5
C9
330
1F
100
AcDbEntity
  8
Default
100
AcDbSpline
210
0.0
220
0.0
230
1.0
 70
    24
 71
     2
 72
     6
 73
     3
 74
     0
 42
0.0000000001
 43
0.0000000001
 40
0.0
 40
0.0
 40
0.0
 40
0.8769692108444929
 40
0.8769692108444929
 40
0.8769692108444929
 10
56.09072704339221
 20
1.843030789155513
 30
0.0
 10
56.09072704339221
 20
2.281515394577759
 30
0.0
 10
56.09072704339221
 20
2.720000000000006
 30
0.0
  0
SPLINE
  5
CA
330
1F
100
AcDbEntity
  8
Default
100
AcDbSpline
210
0.0
220
0.0
230
1.0
 70
    12
 71
     2
 72
     6
 73
     3
 74
     0
 42
0.0000000001
 43
0.0000000001
 40
0.0
 40
0.0
 40
0.0
 40
0.061047366478666
 40
0.061047366478666
 40
0.061047366478666
 10
56.09072704339221
 20
2.720000000000006
 30
0.0
 41
1.0
 10
56.09065798892391
 20
2.758209518474061
 30
0.0
 41
0.7238690675884838
 10
56.05248915062788
 20
2.759973563164377
 30
0.0
 41
1.0
  0
POLYLINE
  5
CB
330
1F
100
AcDbEntity
  8
Default
100
AcDb2dPolyline
 66
     1
 10
0.0
 20
0.0
 30
0.0
  0
VERTEX
  5
CC
330
CB
100
AcDbEntity
  8
Default
100
AcDbVertex
100
AcDb2dVertex
 10
56.05248915062788
 20
2.759973563164377
 30
0.0
  0
VERTEX
  5
CD
330
CB
100
AcDbEntity
  8
Default
100
AcDbVertex
100
AcDb2dVertex
 10
55.34272704340154
 20
2.760000000000005
 30
0.0
  0
SEQEND
  5
CE
330
CB
100
AcDbEntity
  8
Default
  0
SPLINE
  5
CF
330
1F
100
AcDbEntity
  8
Default
100
AcDbSpline
210
0.0
220
0.0
230
1.0
 70
    12
 71
     2
 72
     6
 73
     3
 74
     0
 42
0.0000000001
 43
0.0000000001
 40
0.0
 40
0.0
 40
0.0
 40
0.0627492515484099
 40
0.0627492515484099
 40
0.0627492515484099
 10
55.34272704340154
 20
2.760000000000005
 30
0.0
 41
1.0
 10
55.30291934232757
 20
2.759807701073936
 30
0.0
 41
0.7105143094883521
 10
55.3027270433922
 20
2.720000000000006
 30
0.0
 41
1.0
  0
SPLINE
  5
D0
330
1F
100
AcDbEntity
  8
Default
100
AcDbSpline
210
0.0
220
0.0
230
1.0
 70
    24
 71
     2
 72
     6
 73
     3
 74
     0
 42
0.0000000001
 43
0.0000000001
 40
0.0
 40
0.0
 40
0.0
 40
0.2133911288261197
 40
0.2133911288261197
 40
0.2133911288261197
 10
55.3027270433922
 20
2.720000000000006
 30
0.0
 10
55.3027270433922
 20
2.613304435586945
 30
0.0
 10
55.3027270433922
 20
2.506608871173886
 30
0.0
  0
SPLINE
  5
D1
330
1F
100
AcDbEntity
  8
Make2D visible lines
100
AcDbSpline
210
0.0
220
0.0
230
1.0
 70
    12
 71
     2
 72
     8
 73
     5
 74
     0
 42
0.0000000001
 43
0.0000000001
 40
0.0
 40
0.0
 40
0.0
 40
2.010619298297465
 40
2.010619298297465
 40
4.021238596594936
 40
4.021238596594936
 40
4.021238596594936
 10
54.9368833029301
 20
0.0000000000000049
 30
0.0
 41
1.0
 10
56.21688330293012
 20
0.0000000000000049
 30
0.0
 41
0.7071067811865468
 10
56.2168833029301
 20
1.280000000000004
 30
0.0
 41
1.0
 10
56.21688330293011
 20
2.560000000000008
 30
0.0
 41
0.7071067811865471
 10
54.9368833029301
 20
2.560000000000007
 30
0.0
 41
1.0
  0
SPLINE
  5
D2
330
1F
100
AcDbEntity
  8
Make2D visible lines - Tangent
100
AcDbSpline
210
0.0
220
0.0
230
1.0
 70
    12
 71
     2
 72
     8
 73
     5
 74
     0
 42
0.0000000001
 43
0.0000000001
 40
0.0
 40
0.0
 40
0.0
 40
1.520766455445226
 40
1.520766455445226
 40
3.041532910890458
 40
3.041532910890458
 40
3.041532910890458
 10
54.9368833029301
 20
2.248149994689804
 30
0.0
 41
1.0
 10
55.90503329761991
 20
2.248149994689789
 30
0.0
 41
0.7071067811865557
 10
55.90503329761989
 20
1.280000000000004
 30
0.0
 41
1.0
 10
55.90503329761988
 20
0.3118500053102227
 30
0.0
 41
0.7071067811865631
 10
54.9368833029301
 20
0.3118500053101942
 30
0.0
 41
1.0
  0
SPLINE
  5
D3
330
1F
100
AcDbEntity
  8
Make2D visible lines - Tangent
100
AcDbSpline
210
0.0
220
0.0
230
1.0
 70
    12
 71
     2
 72
     8
 73
     5
 74
     0
 42
0.0000000001
 43
0.0000000001
 40
0.0
 40
0.0
 40
0.0
 40
1.520766455445231
 40
1.520766455445231
 40
3.04153291089047
 40
3.04153291089047
 40
3.04153291089047
 10
54.9368833029301
 20
0.3118500053102049
 30
0.0
 41
1.0
 10
53.96873330824029
 20
0.3118500053102049
 30
0.0
 41
0.7071067811865446
 10
53.9687333082403
 20
1.280000000000004
 30
0.0
 41
1.0
 10
53.9687333082403
 20
2.24814999468981
 30
0.0
 41
0.707106781186544
 10
54.9368833029301
 20
2.24814999468981
 30
0.0
 41
1.0
  0
SPLINE
  5
D4
330
1F
100
AcDbEntity
  8
Make2D visible lines
100
AcDbSpline
210
0.0
220
0.0
230
1.0
 70
    12
 71
     2
 72
     8
 73
     5
 74
     0
 42
0.0000000001
 43
0.0000000001
 40
0.0
 40
0.0
 40
0.0
 40
2.010589900836999
 40
2.010589900836999
 40
4.021209199134468
 40
4.021209199134468
 40
4.021209199134468
 10
54.93685390546965
 20
2.559999999662423
 30
0.0
 41
1.0
 10
53.6568833029301
 20
2.559970602877128
 30
0.0
 41
0.7071149011179003
 10
53.65688330293013
 20
1.280000000000004
 30
0.0
 41
1.0
 10
53.65688330293008
 20
-0.0000000000000207
 30
0.0
 41
0.7071067811865291
 10
54.9368833029301
 20
0.0000000000000078
 30
0.0
 41
1.0
  0
SPLINE
  5
D5
330
1F
100
AcDbEntity
  8
Make2D visible lines
100
AcDbSpline
210
0.0
220
0.0
230
1.0
 70
    12
 71
     2
 72
     8
 73
     5
 74
     0
 42
0.0000000001
 43
0.0000000001
 40
0.0
 40
0.0
 40
0.0
 40
1.497204518884547
 40
1.497204518884547
 40
2.994409037769108
 40
2.994409037769108
 40
2.994409037769108
 10
54.9368833029301
 20
2.233150000000005
 30
0.0
 41
1.0
 10
53.9837333029301
 20
2.233150000000006
 30
0.0
 41
0.7071067811865408
 10
53.98373330293012
 20
1.280000000000004
 30
0.0
 41
1.0
 10
53.98373330293009
 20
0.3268499999999954
 30
0.0
 41
0.7071067811865419
 10
54.9368833029301
 20
0.3268499999999954
 30
0.0
 41
1.0
  0
SPLINE
  5
D6
330
1F
100
AcDbEntity
  8
Make2D visible lines
100
AcDbSpline
210
0.0
220
0.0
230
1.0
 70
    12
 71
     2
 72
     8
 73
     5
 74
     0
 42
0.0000000001
 43
0.0000000001
 40
0.0
 40
0.0
 40
0.0
 40
1.497204518884545
 40
1.497204518884545
 40
2.994409037769103
 40
2.994409037769103
 40
2.994409037769103
 10
54.9368833029301
 20
0.3268500000000052
 30
0.0
 41
1.0
 10
55.89003330293007
 20
0.3268500000000336
 30
0.0
 41
0.7071067811865704
 10
55.89003330293011
 20
1.280000000000004
 30
0.0
 41
1.0
 10
55.8900333029301
 20
2.233149999999986
 30
0.0
 41
0.7071067811865678
 10
54.9368833029301
 20
2.233150000000014
 30
0.0
 41
1.0
  0
SPLINE
  5
D7
330
1F
100
AcDbEntity
  8
Default
100
AcDbSpline
210
0.0
220
0.0
230
1.0
 70
    24
 71
     2
 72
     6
 73
     3
 74
     0
 42
0.0000000001
 43
0.0000000001
 40
0.0
 40
0.0
 40
0.0
 40
0.8769692108444929
 40
0.8769692108444929
 40
0.8769692108444929
 10
46.99566323185019
 20
1.843030789155511
 30
0.0
 10
46.99566323185019
 20
2.281515394577757
 30
0.0
 10
46.99566323185019
 20
2.720000000000004
 30
0.0
  0
SPLINE
  5
D8
330
1F
100
AcDbEntity
  8
Default
100
AcDbSpline
210
0.0
220
0.0
230
1.0
 70
    12
 71
     2
 72
     6
 73
     3
 74
     0
 42
0.0000000001
 43
0.0000000001
 40
0.0
 40
0.0
 40
0.0
 40
0.061047366478666
 40
0.061047366478666
 40
0.061047366478666
 10
46.99566323185019
 20
2.720000000000004
 30
0.0
 41
1.0
 10
46.9955941773819
 20
2.758209518474059
 30
0.0
 41
0.7238690675884838
 10
46.95742533908587
 20
2.759973563164376
 30
0.0
 41
1.0
  0
POLYLINE
  5
D9
330
1F
100
AcDbEntity
  8
Default
100
AcDb2dPolyline
 66
     1
 10
0.0
 20
0.0
 30
0.0
  0
VERTEX
  5
DA
330
D9
100
AcDbEntity
  8
Default
100
AcDbVertex
100
AcDb2dVertex
 10
46.95742533908587
 20
2.759973563164376
 30
0.0
  0
VERTEX
  5
DB
330
D9
100
AcDbEntity
  8
Default
100
AcDbVertex
100
AcDb2dVertex
 10
46.24766323185953
 20
2.760000000000003
 30
0.0
  0
SEQEND
  5
DC
330
D9
100
AcDbEntity
  8
Default
  0
SPLINE
  5
DD
330
1F
100
AcDbEntity
  8
Default
100
AcDbSpline
210
0.0
220
0.0
230
1.0
 70
    12
 71
     2
 72
     6
 73
     3
 74
     0
 42
0.0000000001
 43
0.0000000001
 40
0.0
 40
0.0
 40
0.0
 40
0.0627492515484099
 40
0.0627492515484099
 40
0.0627492515484099
 10
46.24766323185953
 20
2.760000000000003
 30
0.0
 41
1.0
 10
46.20785553078555
 20
2.759807701073934
 30
0.0
 41
0.7105143094883521
 10
46.20766323185019
 20
2.720000000000004
 30
0.0
 41
1.0
  0
SPLINE
  5
DE
330
1F
100
AcDbEntity
  8
Default
100
AcDbSpline
210
0.0
220
0.0
230
1.0
 70
    24
 71
     2
 72
     6
 73
     3
 74
     0
 42
0.0000000001
 43
0.0000000001
 40
0.0
 40
0.0
 40
0.0
 40
0.2133911288261197
 40
0.2133911288261197
 40
0.2133911288261197
 10
46.20766323185019
 20
2.720000000000004
 30
0.0
 10
46.20766323185019
 20
2.613304435586944
 30
0.0
 10
46.20766323185018
 20
2.506608871173884
 30
0.0
  0
SPLINE
  5
DF
330
1F
100
AcDbEntity
  8
Make2D visible lines
100
AcDbSpline
210
0.0
220
0.0
230
1.0
 70
    12
 71
     2
 72
     8
 73
     5
 74
     0
 42
0.0000000001
 43
0.0000000001
 40
0.0
 40
0.0
 40
0.0
 40
2.010619298297465
 40
2.010619298297465
 40
4.021238596594936
 40
4.021238596594936
 40
4.021238596594936
 10
45.84181949138809
 20
0.0000000000000031
 30
0.0
 41
1.0
 10
47.12181949138811
 20
0.0000000000000031
 30
0.0
 41
0.7071067811865468
 10
47.12181949138809
 20
1.280000000000002
 30
0.0
 41
1.0
 10
47.12181949138809
 20
2.560000000000005
 30
0.0
 41
0.7071067811865471
 10
45.84181949138809
 20
2.560000000000005
 30
0.0
 41
1.0
  0
SPLINE
  5
E0
330
1F
100
AcDbEntity
  8
Make2D visible lines - Tangent
100
AcDbSpline
210
0.0
220
0.0
230
1.0
 70
    12
 71
     2
 72
     8
 73
     5
 74
     0
 42
0.0000000001
 43
0.0000000001
 40
0.0
 40
0.0
 40
0.0
 40
1.520766455445226
 40
1.520766455445226
 40
3.041532910890458
 40
3.041532910890458
 40
3.041532910890458
 10
45.84181949138809
 20
2.248149994689802
 30
0.0
 41
1.0
 10
46.80996948607789
 20
2.248149994689788
 30
0.0
 41
0.7071067811865557
 10
46.80996948607788
 20
1.280000000000002
 30
0.0
 41
1.0
 10
46.80996948607788
 20
0.3118500053102209
 30
0.0
 41
0.7071067811865631
 10
45.84181949138809
 20
0.3118500053101925
 30
0.0
 41
1.0
  0
SPLINE
  5
E1
330
1F
100
AcDbEntity
  8
Make2D visible lines - Tangent
100
AcDbSpline
210
0.0
220
0.0
230
1.0
 70
    12
 71
     2
 72
     8
 73
     5
 74
     0
 42
0.0000000001
 43
0.0000000001
 40
0.0
 40
0.0
 40
0.0
 40
1.520766455445231
 40
1.520766455445231
 40
3.04153291089047
 40
3.04153291089047
 40
3.04153291089047
 10
45.84181949138809
 20
0.3118500053102031
 30
0.0
 41
1.0
 10
44.87366949669828
 20
0.3118500053102032
 30
0.0
 41
0.7071067811865446
 10
44.87366949669829
 20
1.280000000000002
 30
0.0
 41
1.0
 10
44.87366949669829
 20
2.248149994689808
 30
0.0
 41
0.707106781186544
 10
45.84181949138809
 20
2.248149994689808
 30
0.0
 41
1.0
  0
SPLINE
  5
E2
330
1F
100
AcDbEntity
  8
Make2D visible lines
100
AcDbSpline
210
0.0
220
0.0
230
1.0
 70
    12
 71
     2
 72
     8
 73
     5
 74
     0
 42
0.0000000001
 43
0.0000000001
 40
0.0
 40
0.0
 40
0.0
 40
2.010589900836999
 40
2.010589900836999
 40
4.021209199134468
 40
4.021209199134468
 40
4.021209199134468
 10
45.84179009392764
 20
2.559999999662421
 30
0.0
 41
1.0
 10
44.56181949138809
 20
2.559970602877126
 30
0.0
 41
0.7071149011179003
 10
44.56181949138811
 20
1.280000000000003
 30
0.0
 41
1.0
 10
44.56181949138806
 20
-0.0000000000000225
 30
0.0
 41
0.7071067811865291
 10
45.84181949138809
 20
0.000000000000006
 30
0.0
 41
1.0
  0
SPLINE
  5
E3
330
1F
100
AcDbEntity
  8
Make2D visible lines
100
AcDbSpline
210
0.0
220
0.0
230
1.0
 70
    12
 71
     2
 72
     8
 73
     5
 74
     0
 42
0.0000000001
 43
0.0000000001
 40
0.0
 40
0.0
 40
0.0
 40
1.497204518884547
 40
1.497204518884547
 40
2.994409037769108
 40
2.994409037769108
 40
2.994409037769108
 10
45.84181949138809
 20
2.233150000000003
 30
0.0
 41
1.0
 10
44.88866949138809
 20
2.233150000000003
 30
0.0
 41
0.7071067811865408
 10
44.88866949138811
 20
1.280000000000002
 30
0.0
 41
1.0
 10
44.88866949138808
 20
0.3268499999999936
 30
0.0
 41
0.7071067811865419
 10
45.84181949138809
 20
0.3268499999999936
 30
0.0
 41
1.0
  0
SPLINE
  5
E4
330
1F
100
AcDbEntity
  8
Make2D visible lines
100
AcDbSpline
210
0.0
220
0.0
230
1.0
 70
    12
 71
     2
 72
     8
 73
     5
 74
     0
 42
0.0000000001
 43
0.0000000001
 40
0.0
 40
0.0
 40
0.0
 40
1.497204518884545
 40
1.497204518884545
 40
2.994409037769103
 40
2.994409037769103
 40
2.994409037769103
 10
45.84181949138809
 20
0.3268500000000034
 30
0.0
 41
1.0
 10
46.79496949138805
 20
0.3268500000000318
 30
0.0
 41
0.7071067811865704
 10
46.79496949138809
 20
1.280000000000002
 30
0.0
 41
1.0
 10
46.79496949138809
 20
2.233149999999984
 30
0.0
 41
0.7071067811865678
 10
45.84181949138809
 20
2.233150000000013
 30
0.0
 41
1.0
  0
SPLINE
  5
E5
330
1F
100
AcDbEntity
  8
Default
100
AcDbSpline
210
0.0
220
0.0
230
1.0
 70
    24
 71
     2
 72
     6
 73
     3
 74
     0
 42
0.0000000001
 43
0.0000000001
 40
0.0
 40
0.0
 40
0.0
 40
0.8769692108444929
 40
0.8769692108444929
 40
0.8769692108444929
 10
32.27954085493222
 20
1.843030789155508
 30
0.0
 10
32.27954085493222
 20
2.281515394577754
 30
0.0
 10
32.27954085493222
 20
2.720000000000001
 30
0.0
  0
SPLINE
  5
E6
330
1F
100
AcDbEntity
  8
Default
100
AcDbSpline
210
0.0
220
0.0
230
1.0
 70
    12
 71
     2
 72
     6
 73
     3
 74
     0
 42
0.0000000001
 43
0.0000000001
 40
0.0
 40
0.0
 40
0.0
 40
0.061047366478666
 40
0.061047366478666
 40
0.061047366478666
 10
32.27954085493222
 20
2.720000000000001
 30
0.0
 41
1.0
 10
32.27947180046392
 20
2.758209518474056
 30
0.0
 41
0.7238690675884838
 10
32.24130296216789
 20
2.759973563164372
 30
0.0
 41
1.0
  0
POLYLINE
  5
E7
330
1F
100
AcDbEntity
  8
Default
100
AcDb2dPolyline
 66
     1
 10
0.0
 20
0.0
 30
0.0
  0
VERTEX
  5
E8
330
E7
100
AcDbEntity
  8
Default
100
AcDbVertex
100
AcDb2dVertex
 10
32.24130296216789
 20
2.759973563164372
 30
0.0
  0
VERTEX
  5
E9
330
E7
100
AcDbEntity
  8
Default
100
AcDbVertex
100
AcDb2dVertex
 10
31.53154085494155
 20
2.76
 30
0.0
  0
SEQEND
  5
EA
330
E7
100
AcDbEntity
  8
Default
  0
SPLINE
  5
EB
330
1F
100
AcDbEntity
  8
Default
100
AcDbSpline
210
0.0
220
0.0
230
1.0
 70
    12
 71
     2
 72
     6
 73
     3
 74
     0
 42
0.0000000001
 43
0.0000000001
 40
0.0
 40
0.0
 40
0.0
 40
0.0627492515484099
 40
0.0627492515484099
 40
0.0627492515484099
 10
31.53154085494155
 20
2.76
 30
0.0
 41
1.0
 10
31.49173315386758
 20
2.759807701073931
 30
0.0
 41
0.7105143094883521
 10
31.49154085493222
 20
2.720000000000001
 30
0.0
 41
1.0
  0
SPLINE
  5
EC
330
1F
100
AcDbEntity
  8
Default
100
AcDbSpline
210
0.0
220
0.0
230
1.0
 70
    24
 71
     2
 72
     6
 73
     3
 74
     0
 42
0.0000000001
 43
0.0000000001
 40
0.0
 40
0.0
 40
0.0
 40
0.2133911288261197
 40
0.2133911288261197
 40
0.2133911288261197
 10
31.49154085493222
 20
2.720000000000001
 30
0.0
 10
31.49154085493221
 20
2.613304435586941
 30
0.0
 10
31.49154085493221
 20
2.506608871173881
 30
0.0
  0
SPLINE
  5
ED
330
1F
100
AcDbEntity
  8
Default
100
AcDbSpline
210
0.0
220
0.0
230
1.0
 70
     8
 71
     3
 72
    11
 73
     7
 74
     0
 42
0.0000000001
 43
0.0000000001
 40
0.0
 40
0.0
 40
0.0
 40
0.0
 40
0.1253255972496818
 40
0.2513039754497304
 40
0.4987317322664389
 40
0.9688442191042036
 40
0.9688442191042036
 40
0.9688442191042036
 40
0.9688442191042036
 10
-1.233931175928038
 20
6.854219928194
 30
0.0
 10
-1.23467305222108
 20
6.812556320277297
 30
0.0
 10
-1.242264625258811
 20
6.728608986485762
 30
0.0
 10
-1.283946118584169
 20
6.567490792756628
 30
0.0
 10
-1.4188663182738
 20
6.315723651030756
 30
0.0
 10
-1.634703816377003
 20
6.181635136261791
 30
0.0
 10
-1.789888363667075
 20
6.155372616098481
 30
0.0
  0
SPLINE
  5
EE
330
1F
100
AcDbEntity
  8
Default
100
AcDbSpline
210
0.0
220
0.0
230
1.0
 70
    24
 71
     2
 72
     6
 73
     3
 74
     0
 42
0.0000000001
 43
0.0000000001
 40
0.0
 40
0.0
 40
0.0
 40
10.6106773182712
 40
10.6106773182712
 40
10.6106773182712
 10
-1.789888363667075
 20
6.155372616098481
 30
0.0
 10
-7.014116204513529
 20
5.231217999682199
 30
0.0
 10
-12.23834404535998
 20
4.307063383265918
 30
0.0
  0
SPLINE
  5
EF
330
1F
100
AcDbEntity
  8
Default
100
AcDbSpline
210
0.0
220
0.0
230
1.0
 70
     8
 71
     3
 72
     8
 73
     4
 74
     0
 42
0.0000000001
 43
0.0000000001
 40
0.0
 40
0.0
 40
0.0
 40
0.0
 40
1.0
 40
1.0
 40
1.0
 40
1.0
 10
-12.23834404535998
 20
4.307063383265918
 30
0.0
 10
-12.3870957013065
 20
4.280749536754915
 30
0.0
 10
-12.53891528303043
 20
4.219465901919556
 30
0.0
 10
-12.64957970104333
 20
4.116641487256009
 30
0.0
  0
SPLINE
  5
F0
330
1F
100
AcDbEntity
  8
Default
100
AcDbSpline
210
0.0
220
0.0
230
1.0
 70
     8
 71
     3
 72
    11
 73
     7
 74
     0
 42
0.0000000001
 43
0.0000000001
 40
-1.380178003129728
 40
-1.380178003129728
 40
-1.380178003129728
 40
-1.380178003129728
 40
-0.9139752417836994
 40
-0.8294769469874151
 40
-0.7414398127600529
 40
0.0
 40
0.0
 40
0.0
 40
0.0
 10
-12.64957970104333
 20
4.116641487256009
 30
0.0
 10
-12.76482594389031
 20
4.009559846420637
 30
0.0
 10
-12.84019467390332
 20
3.833863810798341
 30
0.0
 10
-12.87358700758287
 20
3.624145861508745
 30
0.0
 10
-12.89067083421591
 20
3.319744497831932
 30
0.0
 10
-12.89695214670612
 20
3.043448157988741
 30
0.0
 10
-12.90916395426856
 20
2.796533989153949
 30
0.0
  0
SPLINE
  5
F1
330
1F
100
AcDbEntity
  8
Default
100
AcDbSpline
210
0.0
220
0.0
230
1.0
 70
     8
 71
     3
 72
    11
 73
     7
 74
     0
 42
0.0000000001
 43
0.0000000001
 40
0.0
 40
0.0
 40
0.0
 40
0.0
 40
0.1253255972496818
 40
0.2513039754497304
 40
0.4987317322664389
 40
0.9688442191042036
 40
0.9688442191042036
 40
0.9688442191042036
 40
0.9688442191042036
 10
1.233931175928038
 20
6.854219928194
 30
0.0
 10
1.23467305222108
 20
6.812556320277297
 30
0.0
 10
1.242264625258811
 20
6.728608986485762
 30
0.0
 10
1.283946118584169
 20
6.567490792756628
 30
0.0
 10
1.4188663182738
 20
6.315723651030756
 30
0.0
 10
1.634703816377003
 20
6.181635136261791
 30
0.0
 10
1.789888363667075
 20
6.155372616098481
 30
0.0
  0
SPLINE
  5
F2
330
1F
100
AcDbEntity
  8
Default
100
AcDbSpline
210
0.0
220
0.0
230
1.0
 70
    24
 71
     2
 72
     6
 73
     3
 74
     0
 42
0.0000000001
 43
0.0000000001
 40
0.0
 40
0.0
 40
0.0
 40
10.6106773182712
 40
10.6106773182712
 40
10.6106773182712
 10
1.789888363667075
 20
6.155372616098481
 30
0.0
 10
7.014116204513529
 20
5.231217999682199
 30
0.0
 10
12.23834404535998
 20
4.307063383265918
 30
0.0
  0
SPLINE
  5
F3
330
1F
100
AcDbEntity
  8
Default
100
AcDbSpline
210
0.0
220
0.0
230
1.0
 70
     8
 71
     3
 72
     8
 73
     4
 74
     0
 42
0.0000000001
 43
0.0000000001
 40
0.0
 40
0.0
 40
0.0
 40
0.0
 40
1.0
 40
1.0
 40
1.0
 40
1.0
 10
12.23834404535998
 20
4.307063383265918
 30
0.0
 10
12.3870957013065
 20
4.280749536754915
 30
0.0
 10
12.53891528303043
 20
4.219465901919556
 30
0.0
 10
12.64957970104333
 20
4.116641487256009
 30
0.0
  0
SPLINE
  5
F4
330
1F
100
AcDbEntity
  8
Default
100
AcDbSpline
210
0.0
220
0.0
230
1.0
 70
     8
 71
     3
 72
    11
 73
     7
 74
     0
 42
0.0000000001
 43
0.0000000001
 40
-1.380178003129728
 40
-1.380178003129728
 40
-1.380178003129728
 40
-1.380178003129728
 40
-0.9139752417836994
 40
-0.8294769469874151
 40
-0.7414398127600529
 40
0.0
 40
0.0
 40
0.0
 40
0.0
 10
12.64957970104333
 20
4.116641487256009
 30
0.0
 10
12.76482594389031
 20
4.009559846420637
 30
0.0
 10
12.84019467390332
 20
3.833863810798341
 30
0.0
 10
12.87358700758287
 20
3.624145861508745
 30
0.0
 10
12.89067083421591
 20
3.319744497831932
 30
0.0
 10
12.89695214670612
 20
3.043448157988741
 30
0.0
 10
12.90916395426856
 20
2.796533989153949
 30
0.0
  0
SPLINE
  5
F5
330
1F
100
AcDbEntity
  8
Make2D visible lines
100
AcDbSpline
210
0.0
220
0.0
230
1.0
 70
    12
 71
     2
 72
     6
 73
     3
 74
     0
 42
0.0000000001
 43
0.0000000001
 40
0.0
 40
0.0
 40
0.0
 40
0.45463726350635
 40
0.45463726350635
 40
0.45463726350635
 10
-1.525639248006444
 20
6.273574874417954
 30
0.0
 41
1.0
 10
-1.331866525684014
 20
6.416079376188438
 30
0.0
 41
0.9195620123765541
 10
-1.300914760346337
 20
6.654611112365369
 30
0.0
 41
0.9999952872160333
  0
LINE
  5
F6
330
1F
100
AcDbEntity
  8
Make2D visible lines
100
AcDbLine
 10
-1.300914760346337
 20
6.65461111236537
 30
0.0
 11
-1.289999999999569
 21
7.279999999999992
 31
0.0
  0
POLYLINE
  5
F7
330
1F
100
AcDbEntity
  8
Make2D visible lines
100
AcDb2dPolyline
 66
     1
 10
0.0
 20
0.0
 30
0.0
  0
VERTEX
  5
F8
330
F7
100
AcDbEntity
  8
Make2D visible lines
100
AcDbVertex
100
AcDb2dVertex
 10
-1.289999999999569
 20
7.279999999999992
 30
0.0
  0
VERTEX
  5
F9
330
F7
100
AcDbEntity
  8
Make2D visible lines
100
AcDbVertex
100
AcDb2dVertex
 10
1.289999999999592
 20
7.279999999999992
 30
0.0
  0
SEQEND
  5
FA
330
F7
100
AcDbEntity
  8
Make2D visible lines
  0
LINE
  5
FB
330
1F
100
AcDbEntity
  8
Make2D visible lines
100
AcDbLine
 10
1.289999999999592
 20
7.279999999999992
 30
0.0
 11
1.300914760346337
 21
6.65461111236537
 31
0.0
  0
SPLINE
  5
FC
330
1F
100
AcDbEntity
  8
Make2D visible lines
100
AcDbSpline
210
0.0
220
0.0
230
1.0
 70
    12
 71
     2
 72
     6
 73
     3
 74
     0
 42
0.0000000001
 43
0.0000000001
 40
-0.45463726350635
 40
-0.45463726350635
 40
-0.45463726350635
 40
0.0
 40
0.0
 40
0.0
 10
1.300914760346337
 20
6.654611112365369
 30
0.0
 41
0.9999952872160333
 10
1.331866525684014
 20
6.416079376188438
 30
0.0
 41
0.9195620123765541
 10
1.525639248006444
 20
6.273574874417954
 30
0.0
 41
1.0
  0
SPLINE
  5
FD
330
1F
100
AcDbEntity
  8
Make2D visible lines
100
AcDbSpline
210
0.0
220
0.0
230
1.0
 70
    12
 71
     2
 72
     6
 73
     3
 74
     0
 42
0.0000000001
 43
0.0000000001
 40
0.0
 40
0.0
 40
0.0
 40
0.715017489309887
 40
0.715017489309887
 40
0.715017489309887
 10
8.126722355013005
 20
2.79730837210623
 30
0.0
 41
1.0
 10
8.104889429230154
 20
3.154150786496702
 30
0.0
 41
0.9999959930683374
 10
8.08507719706722
 20
3.511111093551959
 30
0.0
 41
1.0
  0
SPLINE
  5
FE
330
1F
100
AcDbEntity
  8
Make2D visible lines - Tangent
100
AcDbSpline
210
0.0
220
0.0
230
1.0
 70
    12
 71
     3
 72
    12
 73
     8
 74
     0
 42
0.0000000001
 43
0.0000000001
 40
-0.7166866764941487
 40
-0.7166866764941487
 40
-0.7166866764941487
 40
-0.7166866764941487
 40
0.0
 40
0.0
 40
0.0
 40
5.426935465500462
 40
6.005717626902
 40
6.005717626902
 40
6.005717626902
 40
6.005717626902
 10
0.6170939324199887
 20
4.144275746056073
 30
0.0
 41
1.0
 10
0.8549403253933607
 20
4.121609837324083
 30
0.0
 41
0.9997624307684584
 10
1.092096912421841
 20
4.092602884742096
 30
0.0
 41
0.9997624307684584
 10
1.328394670181023
 20
4.057275561788416
 30
0.0
 41
1.0
 10
3.117482356701391
 20
3.789800833743934
 30
0.0
 41
1.0
 10
4.962818904875473
 20
3.51835316869112
 30
0.0
 41
1.0
 10
6.858249519855342
 20
3.232953152428765
 30
0.0
 41
1.0
 10
7.190070262656594
 20
3.097166056710528
 30
0.0
 41
1.0
  0
SPLINE
  5
FF
330
1F
100
AcDbEntity
  8
Make2D visible lines - Tangent
100
AcDbSpline
210
0.0
220
0.0
230
1.0
 70
     8
 71
     3
 72
    11
 73
     7
 74
     0
 42
0.0000000001
 43
0.0000000001
 40
0.0
 40
0.0
 40
0.0
 40
0.0
 40
0.066894803380304
 40
0.1150772171461536
 40
0.2142351287725906
 40
0.3577299678759472
 40
0.3577299678759472
 40
0.3577299678759472
 40
0.3577299678759472
 10
7.190070262656594
 20
3.097166056710528
 30
0.0
 10
7.208121581512791
 20
3.085283282473688
 30
0.0
 10
7.24451976032389
 20
3.067447034369017
 30
0.0
 10
7.287917173120947
 20
3.010049314205599
 30
0.0
 10
7.308915743437923
 20
2.912711916718788
 30
0.0
 10
7.331854348652731
 20
2.837086405743809
 30
0.0
 10
7.338967423585012
 20
2.788958449657228
 30
0.0
  0
SPLINE
  5
100
330
1F
100
AcDbEntity
  8
Default
100
AcDbSpline
210
0.0
220
0.0
230
1.0
 70
    12
 71
     2
 72
     6
 73
     3
 74
     0
 42
0.0000000001
 43
0.0000000001
 40
-0.0405034352679367
 40
-0.0405034352679367
 40
-0.0405034352679367
 40
0.0
 40
0.0
 40
0.0
 10
12.14911371442322
 20
2.760035477590776
 30
0.0
 41
1.0
 10
12.12629078105089
 20
2.761184994890809
 30
0.0
 41
0.8377474461443447
 10
12.11806098244238
 20
2.782509390905094
 30
0.0
 41
1.0
  0
SPLINE
  5
101
330
1F
100
AcDbEntity
  8
Default
100
AcDbSpline
210
0.0
220
0.0
230
1.0
 70
     8
 71
     3
 72
    11
 73
     7
 74
     0
 42
0.0000000001
 43
0.0000000001
 40
-0.5190498716913017
 40
-0.5190498716913017
 40
-0.5190498716913017
 40
-0.5190498716913017
 40
-0.3020474028680822
 40
-0.2374224159260925
 40
-0.1669895205952948
 40
0.0
 40
0.0
 40
0.0
 40
0.0
 10
12.11806098244238
 20
2.782509390905094
 30
0.0
 10
12.09223346747857
 20
2.850638090585806
 30
0.0
 10
12.02956425645359
 20
2.924693852895348
 30
0.0
 10
11.93187101904603
 20
2.989616466604408
 30
0.0
 10
11.84364717303091
 20
3.038432671694692
 30
0.0
 10
11.77004209026178
 20
3.068032893056389
 30
0.0
 10
11.71556540523546
 20
3.087346865324408
 30
0.0
  0
SPLINE
  5
102
330
1F
100
AcDbEntity
  8
Default
100
AcDbSpline
210
0.0
220
0.0
230
1.0
 70
     8
 71
     3
 72
    11
 73
     7
 74
     0
 42
0.0000000001
 43
0.0000000001
 40
-9.62873534496378
 40
-9.62873534496378
 40
-9.62873534496378
 40
-9.62873534496378
 40
-9.235760971098028
 40
-8.993257344707228
 40
-8.729254607404698
 40
0.0
 40
0.0
 40
0.0
 40
0.0
 10
11.71556540523546
 20
3.087346865324408
 30
0.0
 10
11.58988661813639
 20
3.132737362778273
 30
0.0
 10
11.38308034450261
 20
3.177620608886414
 30
0.0
 10
11.08778954878018
 20
3.232731597892199
 30
0.0
 10
8.022689235877312
 20
3.520429176121879
 30
0.0
 10
5.036998118275312
 20
3.789332298799763
 30
0.0
 10
2.13965468369018
 20
4.057697784693569
 30
0.0
  0
ARC
  5
103
330
1F
100
AcDbEntity
  8
Default
100
AcDbCircle
 10
-3.866135974223456
 20
-60.78237684056489
 30
0.0
 40
65.11762279779389
100
AcDbArc
 50
84.70809639775777
 51
85.73558766099688
  0
SPLINE
  5
104
330
1F
100
AcDbEntity
  8
Default
100
AcDbSpline
210
0.0
220
0.0
230
1.0
 70
    12
 71
     2
 72
     6
 73
     3
 74
     0
 42
0.0000000001
 43
0.0000000001
 40
0.0
 40
0.0
 40
0.0
 40
0.1645726248110703
 40
0.1645726248110703
 40
0.1645726248110703
 10
0.975967409105224
 20
4.154968606111039
 30
0.0
 41
1.0
 10
0.893930876010418
 20
4.148116645719011
 30
0.0
 41
0.999346492540072
 10
0.8116136902486488
 20
4.147209423754928
 30
0.0
 41
1.0
  0
POLYLINE
  5
105
330
1F
100
AcDbEntity
  8
Default
100
AcDb2dPolyline
 66
     1
 10
0.0
 20
0.0
 30
0.0
  0
VERTEX
  5
106
330
105
100
AcDbEntity
  8
Default
100
AcDbVertex
100
AcDb2dVertex
 10
0.8116136902486488
 20
4.147209423754928
 30
0.0
  0
VERTEX
  5
107
330
105
100
AcDbEntity
  8
Default
100
AcDbVertex
100
AcDb2dVertex
 10
0.4595528730361971
 20
4.147209423754928
 30
0.0
  0
SEQEND
  5
108
330
105
100
AcDbEntity
  8
Default
  0
SPLINE
  5
109
330
1F
100
AcDbEntity
  8
Default
100
AcDbSpline
210
0.0
220
0.0
230
1.0
 70
    12
 71
     2
 72
     6
 73
     3
 74
     0
 42
0.0000000001
 43
0.0000000001
 40
-0.0205148466803361
 40
-0.0205148466803361
 40
-0.0205148466803361
 40
0.0
 40
0.0
 40
0.0
 10
7.34583666515714
 20
1.321916756511124
 30
0.0
 41
1.0
 10
7.343092444785353
 20
1.331850316586209
 30
0.0
 41
0.9929165310438545
 10
7.342770214288228
 20
1.342150924790038
 30
0.0
 41
0.9999992470307488
  0
SPLINE
  5
10A
330
1F
100
AcDbEntity
  8
Default
100
AcDbSpline
210
0.0
220
0.0
230
1.0
 70
    12
 71
     2
 72
     6
 73
     3
 74
     0
 42
0.0000000001
 43
0.0000000001
 40
-0.1306670865212424
 40
-0.1306670865212424
 40
-0.1306670865212424
 40
0.0
 40
0.0
 40
0.0
 10
7.342770214288228
 20
1.342150924790038
 30
0.0
 41
1.0
 10
7.345526689575028
 20
1.259999371951817
 30
0.0
 41
0.7188571908882943
 10
7.427723384606649
 20
1.260000489392885
 30
0.0
 41
1.0
  0
SPLINE
  5
10B
330
1F
100
AcDbEntity
  8
Default
100
AcDbSpline
210
0.0
220
0.0
230
1.0
 70
    24
 71
     2
 72
     6
 73
     3
 74
     0
 42
0.0000000001
 43
0.0000000001
 40
-0.6179999986728006
 40
-0.6179999986728006
 40
-0.6179999986728006
 40
0.0
 40
0.0
 40
0.0
 10
7.427723384606649
 20
1.260000489392885
 30
0.0
 10
7.736723383943049
 20
1.260000489380662
 30
0.0
 10
8.04572338327945
 20
1.260000489368439
 30
0.0
  0
SPLINE
  5
10C
330
1F
100
AcDbEntity
  8
Default
100
AcDbSpline
210
0.0
220
0.0
230
1.0
 70
    12
 71
     2
 72
     6
 73
     3
 74
     0
 42
0.0000000001
 43
0.0000000001
 40
-0.1306642149348706
 40
-0.1306642149348706
 40
-0.1306642149348706
 40
0.0
 40
0.0
 40
0.0
 10
8.04572338327945
 20
1.260000489368439
 30
0.0
 41
1.0
 10
8.127917296957516
 20
1.259999377635789
 30
0.0
 41
0.7188689686272367
 10
8.130699315015447
 20
1.343573495961616
 30
0.0
 41
1.0
  0
LINE
  5
10D
330
1F
100
AcDbEntity
  8
Default
100
AcDbLine
 10
8.130699315015447
 20
1.343573495961616
 30
0.0
 11
8.130723497231317
 21
2.719999999999945
 31
0.0
  0
SPLINE
  5
10E
330
1F
100
AcDbEntity
  8
Default
100
AcDbSpline
210
0.0
220
0.0
230
1.0
 70
    12
 71
     2
 72
     8
 73
     5
 74
     0
 42
0.0000000001
 43
0.0000000001
 40
-0.0628318931243996
 40
-0.0628318931243996
 40
-0.0628318931243996
 40
-0.0314159465621985
 40
-0.0314159465621985
 40
0.0
 40
0.0
 40
0.0
 10
8.130723497231317
 20
2.719999999999945
 30
0.0
 41
1.0
 10
8.130723383299998
 20
2.736568554226062
 30
0.0
 41
0.923879436714611
 10
8.119007640386725
 20
2.748284285408195
 30
0.0
 41
1.0
 10
8.107291897473448
 20
2.760000016590326
 30
0.0
 41
0.9238794367145934
 10
8.090723343247399
 20
2.759999999999986
 30
0.0
 41
1.0
  0
POLYLINE
  5
10F
330
1F
100
AcDbEntity
  8
Default
100
AcDb2dPolyline
 66
     1
 10
0.0
 20
0.0
 30
0.0
  0
VERTEX
  5
110
330
10F
100
AcDbEntity
  8
Default
100
AcDbVertex
100
AcDb2dVertex
 10
8.090723343247399
 20
2.759999999999986
 30
0.0
  0
VERTEX
  5
111
330
10F
100
AcDbEntity
  8
Default
100
AcDbVertex
100
AcDb2dVertex
 10
7.3827234246387
 20
2.759999999999986
 30
0.0
  0
SEQEND
  5
112
330
10F
100
AcDbEntity
  8
Default
  0
SPLINE
  5
113
330
1F
100
AcDbEntity
  8
Default
100
AcDbSpline
210
0.0
220
0.0
230
1.0
 70
    12
 71
     2
 72
     8
 73
     5
 74
     0
 42
0.0000000001
 43
0.0000000001
 40
0.0
 40
0.0
 40
0.0
 40
0.0314159465621985
 40
0.0314159465621985
 40
0.0628318931243996
 40
0.0628318931243996
 40
0.0628318931243996
 10
7.3827234246387
 20
2.759999999999986
 30
0.0
 41
1.0
 10
7.366154870412649
 20
2.760000016590326
 30
0.0
 41
0.9238794367145934
 10
7.354439127499374
 20
2.748284285408195
 30
0.0
 41
1.0
 10
7.342723384586099
 20
2.736568554226062
 30
0.0
 41
0.923879436714611
 10
7.342723270654782
 20
2.719999999999945
 30
0.0
 41
1.0
  0
LINE
  5
114
330
1F
100
AcDbEntity
  8
Default
100
AcDbLine
 10
7.342723270654782
 20
2.719999999999945
 30
0.0
 11
7.342747452870652
 21
1.343573495961616
 31
0.0
  0
SPLINE
  5
115
330
1F
100
AcDbEntity
  8
Make2D visible lines
100
AcDbSpline
210
0.0
220
0.0
230
1.0
 70
    24
 71
     2
 72
     6
 73
     3
 74
     0
 42
0.0000000001
 43
0.0000000001
 40
-2.415105423527796
 40
-2.415105423527796
 40
-2.415105423527796
 40
0.0
 40
0.0
 40
0.0
 10
8.199723383299999
 20
2.487552711763898
 30
0.0
 10
8.199723383299999
 20
1.278776359863449
 30
0.0
 10
8.199723383299999
 20
0.0700000079629994
 30
0.0
  0
SPLINE
  5
116
330
1F
100
AcDbEntity
  8
Make2D visible lines
100
AcDbSpline
210
0.0
220
0.0
230
1.0
 70
    12
 71
     2
 72
     8
 73
     5
 74
     0
 42
0.0000000001
 43
0.0000000001
 40
-0.1099557508386429
 40
-0.1099557508386429
 40
-0.1099557508386429
 40
-0.0549778754193212
 40
-0.0549778754193212
 40
0.0
 40
0.0
 40
0.0
 10
8.199723383299999
 20
0.0700000079629994
 30
0.0
 41
1.0
 10
8.199723380001615
 20
0.0410050562645741
 30
0.0
 41
0.9238795216280429
 10
8.220225905801593
 20
0.0205025281322868
 30
0.0
 41
1.0
 10
8.240728431601573
 20
0.0
 30
0.0
 41
0.923879521628049
 10
8.269723383299997
 20
0.0
 30
0.0
 41
1.0
  0
SPLINE
  5
117
330
1F
100
AcDbEntity
  8
Make2D visible lines
100
AcDbSpline
210
0.0
220
0.0
230
1.0
 70
    24
 71
     2
 72
     6
 73
     3
 74
     0
 42
0.0000000001
 43
0.0000000001
 40
0.0
 40
0.0
 40
0.0
 40
0.3520000000000003
 40
0.3520000000000003
 40
0.3520000000000003
 10
8.269723383299997
 20
0.0
 30
0.0
 10
8.445723383299995
 20
0.0
 30
0.0
 10
8.621723383299996
 20
0.0
 30
0.0
  0
SPLINE
  5
118
330
1F
100
AcDbEntity
  8
Make2D visible lines
100
AcDbSpline
210
0.0
220
0.0
230
1.0
 70
    12
 71
     2
 72
     6
 73
     3
 74
     0
 42
0.0000000001
 43
0.0000000001
 40
0.0
 40
0.0
 40
0.0
 40
0.2356194483882336
 40
0.2356194483882336
 40
0.2356194483882336
 10
8.621723383299996
 20
0.0
 30
0.0
 41
1.0
 10
8.771723382668993
 20
0.0
 30
0.0
 41
0.7071067826738353
 10
8.771723383299998
 20
0.1499999993689993
 30
0.0
 41
1.0
  0
SPLINE
  5
119
330
1F
100
AcDbEntity
  8
Make2D visible lines
100
AcDbSpline
210
0.0
220
0.0
230
1.0
 70
    24
 71
     2
 72
     6
 73
     3
 74
     0
 42
0.0000000001
 43
0.0000000001
 40
-2.260000001262
 40
-2.260000001262
 40
-2.260000001262
 40
0.0
 40
0.0
 40
0.0
 10
8.771723383299998
 20
0.1499999993689993
 30
0.0
 10
8.771723383299998
 20
1.279999999999999
 30
0.0
 10
8.771723383299998
 20
2.410000000630999
 30
0.0
  0
SPLINE
  5
11A
330
1F
100
AcDbEntity
  8
Make2D visible lines
100
AcDbSpline
210
0.0
220
0.0
230
1.0
 70
    12
 71
     2
 72
     6
 73
     3
 74
     0
 42
0.0000000001
 43
0.0000000001
 40
0.0
 40
0.0
 40
0.0
 40
0.2356194483882358
 40
0.2356194483882358
 40
0.2356194483882358
 10
8.771723383299998
 20
2.410000000630999
 30
0.0
 41
1.0
 10
8.771723382668998
 20
2.560000000000001
 30
0.0
 41
0.7071067826738272
 10
8.621723383299996
 20
2.56
 30
0.0
 41
1.0
  0
SPLINE
  5
11B
330
1F
100
AcDbEntity
  8
Make2D visible lines
100
AcDbSpline
210
0.0
220
0.0
230
1.0
 70
    24
 71
     2
 72
     6
 73
     3
 74
     0
 42
0.0000000001
 43
0.0000000001
 40
0.0
 40
0.0
 40
0.0
 40
0.3520000000000003
 40
0.3520000000000003
 40
0.3520000000000003
 10
8.621723383299996
 20
2.56
 30
0.0
 10
8.445723383299995
 20
2.56
 30
0.0
 10
8.269723383299997
 20
2.56
 30
0.0
  0
SPLINE
  5
11C
330
1F
100
AcDbEntity
  8
Make2D visible lines
100
AcDbSpline
210
0.0
220
0.0
230
1.0
 70
    12
 71
     2
 72
     8
 73
     5
 74
     0
 42
0.0000000001
 43
0.0000000001
 40
-0.1099557508386414
 40
-0.1099557508386414
 40
-0.1099557508386414
 40
-0.0549778754193184
 40
-0.0549778754193184
 40
0.0
 40
0.0
 40
0.0
 10
8.269723383299997
 20
2.56
 30
0.0
 41
1.0
 10
8.240728431601571
 20
2.56
 30
0.0
 41
0.9238795216280236
 10
8.220225905801595
 20
2.53949747186771
 30
0.0
 41
1.0
 10
8.199723380001616
 20
2.518994943735425
 30
0.0
 41
0.9238795216280324
 10
8.199723383299999
 20
2.487552711763898
 30
0.0
 41
1.0
  0
SPLINE
  5
11D
330
1F
100
AcDbEntity
  8
Make2D visible lines
100
AcDbSpline
210
0.0
220
0.0
230
1.0
 70
    24
 71
     2
 72
     6
 73
     3
 74
     0
 42
0.0000000001
 43
0.0000000001
 40
-2.415105433753071
 40
-2.415105433753071
 40
-2.415105433753071
 40
0.0
 40
0.0
 40
0.0
 10
7.273723383299997
 20
2.487552716876536
 30
0.0
 10
7.273723383299997
 20
1.278776359858268
 30
0.0
 10
7.273723383299997
 20
0.0700000028400005
 30
0.0
  0
SPLINE
  5
11E
330
1F
100
AcDbEntity
  8
Make2D visible lines
100
AcDbSpline
210
0.0
220
0.0
230
1.0
 70
    12
 71
     2
 72
     6
 73
     3
 74
     0
 42
0.0000000001
 43
0.0000000001
 40
0.0
 40
0.0
 40
0.0
 40
0.1099557457156439
 40
0.1099557457156439
 40
0.1099557457156439
 10
7.273723383299997
 20
0.0700000028400005
 30
0.0
 41
1.0
 10
7.273723386139999
 20
0.0
 30
0.0
 41
0.7071067668423728
 10
7.203723383299996
 20
-0.0000000000000001
 30
0.0
 41
1.0
  0
SPLINE
  5
11F
330
1F
100
AcDbEntity
  8
Make2D visible lines
100
AcDbSpline
210
0.0
220
0.0
230
1.0
 70
    24
 71
     2
 72
     6
 73
     3
 74
     0
 42
0.0000000001
 43
0.0000000001
 40
0.0
 40
0.0
 40
0.0
 40
0.3520000000000003
 40
0.3520000000000003
 40
0.3520000000000003
 10
7.203723383299996
 20
-0.0000000000000001
 30
0.0
 10
7.027723383299996
 20
0.0
 30
0.0
 10
6.851723383299996
 20
0.0
 30
0.0
  0
SPLINE
  5
120
330
1F
100
AcDbEntity
  8
Make2D visible lines
100
AcDbSpline
210
0.0
220
0.0
230
1.0
 70
    12
 71
     2
 72
     6
 73
     3
 74
     0
 42
0.0000000001
 43
0.0000000001
 40
0.0
 40
0.0
 40
0.0
 40
0.2356194519512337
 40
0.2356194519512337
 40
0.2356194519512337
 10
6.851723383299996
 20
0.0
 30
0.0
 41
1.0
 10
6.701723380367998
 20
0.000000000000002
 30
0.0
 41
0.7071067742757676
 10
6.701723383299997
 20
0.1500000029319999
 30
0.0
 41
1.0
  0
SPLINE
  5
121
330
1F
100
AcDbEntity
  8
Make2D visible lines
100
AcDbSpline
210
0.0
220
0.0
230
1.0
 70
    24
 71
     2
 72
     6
 73
     3
 74
     0
 42
0.0000000001
 43
0.0000000001
 40
0.0
 40
0.0
 40
0.0
 40
2.255429040880414
 40
2.255429040880414
 40
2.255429040880414
 10
6.701723383299997
 20
0.1500000029319999
 30
0.0
 10
6.701723383299997
 20
1.278857261686103
 30
0.0
 10
6.701723383299997
 20
2.407714520440207
 30
0.0
  0
SPLINE
  5
122
330
1F
100
AcDbEntity
  8
Make2D visible lines
100
AcDbSpline
210
0.0
220
0.0
230
1.0
 70
    12
 71
     2
 72
     6
 73
     3
 74
     0
 42
0.0000000001
 43
0.0000000001
 40
0.0
 40
0.0
 40
0.0
 40
0.2356194519512344
 40
0.2356194519512344
 40
0.2356194519512344
 10
6.701723383299997
 20
2.407714520440207
 30
0.0
 41
1.0
 10
6.701723380367997
 20
2.56
 30
0.0
 41
0.7071067742757604
 10
6.851723383299996
 20
2.56
 30
0.0
 41
1.0
  0
SPLINE
  5
123
330
1F
100
AcDbEntity
  8
Make2D visible lines
100
AcDbSpline
210
0.0
220
0.0
230
1.0
 70
    24
 71
     2
 72
     6
 73
     3
 74
     0
 42
0.0000000001
 43
0.0000000001
 40
0.0
 40
0.0
 40
0.0
 40
0.3520000000000003
 40
0.3520000000000003
 40
0.3520000000000003
 10
6.851723383299996
 20
2.56
 30
0.0
 10
7.027723383299996
 20
2.56
 30
0.0
 10
7.203723383299996
 20
2.56
 30
0.0
  0
SPLINE
  5
124
330
1F
100
AcDbEntity
  8
Make2D visible lines
100
AcDbSpline
210
0.0
220
0.0
230
1.0
 70
    12
 71
     2
 72
     6
 73
     3
 74
     0
 42
0.0000000001
 43
0.0000000001
 40
0.0
 40
0.0
 40
0.0
 40
0.1099557457156434
 40
0.1099557457156434
 40
0.1099557457156434
 10
7.203723383299996
 20
2.56
 30
0.0
 41
1.0
 10
7.273723386139998
 20
2.56
 30
0.0
 41
0.7071067668423767
 10
7.273723383299997
 20
2.487552716876536
 30
0.0
 41
1.0
  0
SPLINE
  5
125
330
1F
100
AcDbEntity
  8
Make2D visible lines
100
AcDbSpline
210
0.0
220
0.0
230
1.0
 70
    24
 71
     2
 72
     6
 73
     3
 74
     0
 42
0.0000000001
 43
0.0000000001
 40
0.0
 40
0.0
 40
0.0
 40
0.0689999999999991
 40
0.0689999999999991
 40
0.0689999999999991
 10
7.342723383299996
 20
1.595000000000001
 30
0.0
 10
7.308223383299996
 20
1.595000000000001
 30
0.0
 10
7.273723383299997
 20
1.595000000000001
 30
0.0
  0
SPLINE
  5
126
330
1F
100
AcDbEntity
  8
Make2D visible lines
100
AcDbSpline
210
0.0
220
0.0
230
1.0
 70
    24
 71
     2
 72
     6
 73
     3
 74
     0
 42
0.0000000001
 43
0.0000000001
 40
0.0
 40
0.0
 40
0.0
 40
0.9260000000000002
 40
0.9260000000000002
 40
0.9260000000000002
 10
7.273723383299997
 20
0.9650000000000016
 30
0.0
 10
7.736723383299998
 20
0.9650000000000016
 30
0.0
 10
8.199723383299999
 20
0.9650000000000016
 30
0.0
  0
SPLINE
  5
127
330
1F
100
AcDbEntity
  8
Make2D visible lines
100
AcDbSpline
210
0.0
220
0.0
230
1.0
 70
    24
 71
     2
 72
     6
 73
     3
 74
     0
 42
0.0000000001
 43
0.0000000001
 40
0.0
 40
0.0
 40
0.0
 40
0.0690000000000008
 40
0.0690000000000008
 40
0.0690000000000008
 10
8.199723383299999
 20
1.595000000000001
 30
0.0
 10
8.165223383299997
 20
1.595000000000001
 30
0.0
 10
8.130723383299996
 20
1.595000000000001
 30
0.0
  0
SPLINE
  5
128
330
1F
100
AcDbEntity
  8
Make2D visible lines
100
AcDbSpline
210
0.0
220
0.0
230
1.0
 70
     8
 71
     3
 72
    12
 73
     8
 74
     0
 42
0.0000000001
 43
0.0000000001
 40
0.0
 40
0.0
 40
0.0
 40
0.0
 40
0.1463411183411369
 40
0.2853842069860231
 40
0.4774826785392335
 40
0.6695434217140405
 40
0.9551044705190225
 40
0.9551044705190225
 40
0.9551044705190225
 40
0.9551044705190225
 10
7.3927233833
 20
2.135695657233184
 30
0.0
 10
7.413281236588784
 20
2.092235288994199
 30
0.0
 10
7.468515601759259
 20
2.011139443753334
 30
0.0
 10
7.567462974376896
 20
1.892867635552798
 30
0.0
 10
7.737845440740765
 20
1.800191929265525
 30
0.0
 10
7.949823775274854
 20
1.918743261260477
 30
0.0
 10
8.034011522679057
 20
2.051490853594749
 30
0.0
 10
8.080723383299995
 20
2.135695657233184
 30
0.0
  0
SPLINE
  5
129
330
1F
100
AcDbEntity
  8
Make2D visible lines
100
AcDbSpline
210
0.0
220
0.0
230
1.0
 70
    12
 71
     2
 72
     6
 73
     3
 74
     0
 42
0.0000000001
 43
0.0000000001
 40
0.0
 40
0.0
 40
0.0
 40
0.1228476419690088
 40
0.1228476419690088
 40
0.1228476419690088
 10
7.3927233833
 20
2.135695657233184
 30
0.0
 41
1.0
 10
7.35740756176717
 20
2.186799143881471
 30
0.0
 41
0.9832969456840381
 10
7.342723387830643
 20
2.247157644806792
 30
0.0
 41
1.0
  0
SPLINE
  5
12A
330
1F
100
AcDbEntity
  8
Make2D visible lines
100
AcDbSpline
210
0.0
220
0.0
230
1.0
 70
    12
 71
     2
 72
     6
 73
     3
 74
     0
 42
0.0000000001
 43
0.0000000001
 40
0.0
 40
0.0
 40
0.0
 40
0.1227840813427634
 40
0.1227840813427634
 40
0.1227840813427634
 10
8.080723383299995
 20
2.135695657233184
 30
0.0
 41
1.0
 10
8.115540250748406
 20
2.187022966392655
 30
0.0
 41
0.9848379823800321
 10
8.130723378769352
 20
2.247157644806793
 30
0.0
 41
1.0
  0
SPLINE
  5
12B
330
1F
100
AcDbEntity
  8
Default
100
AcDbSpline
210
0.0
220
0.0
230
1.0
 70
    12
 71
     2
 72
     6
 73
     3
 74
     0
 42
0.0000000001
 43
0.0000000001
 40
-0.0205148466803361
 40
-0.0205148466803361
 40
-0.0205148466803361
 40
0.0
 40
0.0
 40
0.0
 10
12.12739467758714
 20
1.321916756511124
 30
0.0
 41
1.0
 10
12.12465045721535
 20
1.331850316586209
 30
0.0
 41
0.9929165310438545
 10
12.12432822671823
 20
1.342150924790038
 30
0.0
 41
0.9999992470307488
  0
SPLINE
  5
12C
330
1F
100
AcDbEntity
  8
Default
100
AcDbSpline
210
0.0
220
0.0
230
1.0
 70
    12
 71
     2
 72
     6
 73
     3
 74
     0
 42
0.0000000001
 43
0.0000000001
 40
-0.1306670865212424
 40
-0.1306670865212424
 40
-0.1306670865212424
 40
0.0
 40
0.0
 40
0.0
 10
12.12432822671823
 20
1.342150924790038
 30
0.0
 41
1.0
 10
12.12708470200503
 20
1.259999371951817
 30
0.0
 41
0.7188571908882943
 10
12.20928139703665
 20
1.260000489392885
 30
0.0
 41
1.0
  0
SPLINE
  5
12D
330
1F
100
AcDbEntity
  8
Default
100
AcDbSpline
210
0.0
220
0.0
230
1.0
 70
    24
 71
     2
 72
     6
 73
     3
 74
     0
 42
0.0000000001
 43
0.0000000001
 40
-0.6179999986728006
 40
-0.6179999986728006
 40
-0.6179999986728006
 40
0.0
 40
0.0
 40
0.0
 10
12.20928139703665
 20
1.260000489392885
 30
0.0
 10
12.51828139637305
 20
1.260000489380662
 30
0.0
 10
12.82728139570945
 20
1.260000489368439
 30
0.0
  0
SPLINE
  5
12E
330
1F
100
AcDbEntity
  8
Default
100
AcDbSpline
210
0.0
220
0.0
230
1.0
 70
    12
 71
     2
 72
     6
 73
     3
 74
     0
 42
0.0000000001
 43
0.0000000001
 40
-0.1306642149348706
 40
-0.1306642149348706
 40
-0.1306642149348706
 40
0.0
 40
0.0
 40
0.0
 10
12.82728139570945
 20
1.260000489368439
 30
0.0
 41
1.0
 10
12.90947530938752
 20
1.259999377635789
 30
0.0
 41
0.7188689686272367
 10
12.91225732744545
 20
1.343573495961616
 30
0.0
 41
1.0
  0
LINE
  5
12F
330
1F
100
AcDbEntity
  8
Default
100
AcDbLine
 10
12.91225732744545
 20
1.343573495961616
 30
0.0
 11
12.91228150966132
 21
2.719999999999945
 31
0.0
  0
SPLINE
  5
130
330
1F
100
AcDbEntity
  8
Default
100
AcDbSpline
210
0.0
220
0.0
230
1.0
 70
    12
 71
     2
 72
     8
 73
     5
 74
     0
 42
0.0000000001
 43
0.0000000001
 40
-0.0628318931243996
 40
-0.0628318931243996
 40
-0.0628318931243996
 40
-0.0314159465621985
 40
-0.0314159465621985
 40
0.0
 40
0.0
 40
0.0
 10
12.91228150966132
 20
2.719999999999945
 30
0.0
 41
1.0
 10
12.91228139573
 20
2.736568554226062
 30
0.0
 41
0.923879436714611
 10
12.90056565281673
 20
2.748284285408195
 30
0.0
 41
1.0
 10
12.88884990990345
 20
2.760000016590326
 30
0.0
 41
0.9238794367145934
 10
12.8722813556774
 20
2.759999999999986
 30
0.0
 41
1.0
  0
POLYLINE
  5
131
330
1F
100
AcDbEntity
  8
Default
100
AcDb2dPolyline
 66
     1
 10
0.0
 20
0.0
 30
0.0
  0
VERTEX
  5
132
330
131
100
AcDbEntity
  8
Default
100
AcDbVertex
100
AcDb2dVertex
 10
12.8722813556774
 20
2.759999999999986
 30
0.0
  0
VERTEX
  5
133
330
131
100
AcDbEntity
  8
Default
100
AcDbVertex
100
AcDb2dVertex
 10
12.1642814370687
 20
2.759999999999986
 30
0.0
  0
SEQEND
  5
134
330
131
100
AcDbEntity
  8
Default
  0
SPLINE
  5
135
330
1F
100
AcDbEntity
  8
Default
100
AcDbSpline
210
0.0
220
0.0
230
1.0
 70
    12
 71
     2
 72
     8
 73
     5
 74
     0
 42
0.0000000001
 43
0.0000000001
 40
0.0
 40
0.0
 40
0.0
 40
0.0314159465621985
 40
0.0314159465621985
 40
0.0628318931243996
 40
0.0628318931243996
 40
0.0628318931243996
 10
12.1642814370687
 20
2.759999999999986
 30
0.0
 41
1.0
 10
12.14771288284265
 20
2.760000016590326
 30
0.0
 41
0.9238794367145934
 10
12.13599713992938
 20
2.748284285408195
 30
0.0
 41
1.0
 10
12.1242813970161
 20
2.736568554226062
 30
0.0
 41
0.923879436714611
 10
12.12428128308478
 20
2.719999999999945
 30
0.0
 41
1.0
  0
LINE
  5
136
330
1F
100
AcDbEntity
  8
Default
100
AcDbLine
 10
12.12428128308478
 20
2.719999999999945
 30
0.0
 11
12.12430546530065
 21
1.343573495961616
 31
0.0
  0
SPLINE
  5
137
330
1F
100
AcDbEntity
  8
Make2D visible lines
100
AcDbSpline
210
0.0
220
0.0
230
1.0
 70
    24
 71
     2
 72
     6
 73
     3
 74
     0
 42
0.0000000001
 43
0.0000000001
 40
-2.415105423527796
 40
-2.415105423527796
 40
-2.415105423527796
 40
0.0
 40
0.0
 40
0.0
 10
12.98128139573
 20
2.487552711763898
 30
0.0
 10
12.98128139573
 20
1.278776359863449
 30
0.0
 10
12.98128139573
 20
0.0700000079629994
 30
0.0
  0
SPLINE
  5
138
330
1F
100
AcDbEntity
  8
Make2D visible lines
100
AcDbSpline
210
0.0
220
0.0
230
1.0
 70
    12
 71
     2
 72
     8
 73
     5
 74
     0
 42
0.0000000001
 43
0.0000000001
 40
-0.1099557508386429
 40
-0.1099557508386429
 40
-0.1099557508386429
 40
-0.0549778754193212
 40
-0.0549778754193212
 40
0.0
 40
0.0
 40
0.0
 10
12.98128139573
 20
0.0700000079629994
 30
0.0
 41
1.0
 10
12.98128139243162
 20
0.0410050562645741
 30
0.0
 41
0.9238795216280429
 10
13.0017839182316
 20
0.0205025281322868
 30
0.0
 41
1.0
 10
13.02228644403157
 20
0.0
 30
0.0
 41
0.923879521628049
 10
13.05128139573
 20
0.0
 30
0.0
 41
1.0
  0
SPLINE
  5
139
330
1F
100
AcDbEntity
  8
Make2D visible lines
100
AcDbSpline
210
0.0
220
0.0
230
1.0
 70
    24
 71
     2
 72
     6
 73
     3
 74
     0
 42
0.0000000001
 43
0.0000000001
 40
0.0
 40
0.0
 40
0.0
 40
0.3520000000000003
 40
0.3520000000000003
 40
0.3520000000000003
 10
13.05128139573
 20
0.0
 30
0.0
 10
13.22728139573
 20
0.0
 30
0.0
 10
13.40328139573
 20
0.0
 30
0.0
  0
SPLINE
  5
13A
330
1F
100
AcDbEntity
  8
Make2D visible lines
100
AcDbSpline
210
0.0
220
0.0
230
1.0
 70
    12
 71
     2
 72
     6
 73
     3
 74
     0
 42
0.0000000001
 43
0.0000000001
 40
0.0
 40
0.0
 40
0.0
 40
0.2356194483882336
 40
0.2356194483882336
 40
0.2356194483882336
 10
13.40328139573
 20
0.0
 30
0.0
 41
1.0
 10
13.553281395099
 20
0.0
 30
0.0
 41
0.7071067826738353
 10
13.55328139573
 20
0.1499999993689993
 30
0.0
 41
1.0
  0
SPLINE
  5
13B
330
1F
100
AcDbEntity
  8
Make2D visible lines
100
AcDbSpline
210
0.0
220
0.0
230
1.0
 70
    24
 71
     2
 72
     6
 73
     3
 74
     0
 42
0.0000000001
 43
0.0000000001
 40
-2.260000001262
 40
-2.260000001262
 40
-2.260000001262
 40
0.0
 40
0.0
 40
0.0
 10
13.55328139573
 20
0.1499999993689993
 30
0.0
 10
13.55328139573
 20
1.279999999999999
 30
0.0
 10
13.55328139573
 20
2.410000000630999
 30
0.0
  0
SPLINE
  5
13C
330
1F
100
AcDbEntity
  8
Make2D visible lines
100
AcDbSpline
210
0.0
220
0.0
230
1.0
 70
    12
 71
     2
 72
     6
 73
     3
 74
     0
 42
0.0000000001
 43
0.0000000001
 40
0.0
 40
0.0
 40
0.0
 40
0.2356194483882358
 40
0.2356194483882358
 40
0.2356194483882358
 10
13.55328139573
 20
2.410000000630999
 30
0.0
 41
1.0
 10
13.553281395099
 20
2.560000000000001
 30
0.0
 41
0.7071067826738272
 10
13.40328139573
 20
2.56
 30
0.0
 41
1.0
  0
SPLINE
  5
13D
330
1F
100
AcDbEntity
  8
Make2D visible lines
100
AcDbSpline
210
0.0
220
0.0
230
1.0
 70
    24
 71
     2
 72
     6
 73
     3
 74
     0
 42
0.0000000001
 43
0.0000000001
 40
0.0
 40
0.0
 40
0.0
 40
0.3520000000000003
 40
0.3520000000000003
 40
0.3520000000000003
 10
13.40328139573
 20
2.56
 30
0.0
 10
13.22728139573
 20
2.56
 30
0.0
 10
13.05128139573
 20
2.56
 30
0.0
  0
SPLINE
  5
13E
330
1F
100
AcDbEntity
  8
Make2D visible lines
100
AcDbSpline
210
0.0
220
0.0
230
1.0
 70
    12
 71
     2
 72
     8
 73
     5
 74
     0
 42
0.0000000001
 43
0.0000000001
 40
-0.1099557508386414
 40
-0.1099557508386414
 40
-0.1099557508386414
 40
-0.0549778754193184
 40
-0.0549778754193184
 40
0.0
 40
0.0
 40
0.0
 10
13.05128139573
 20
2.56
 30
0.0
 41
1.0
 10
13.02228644403157
 20
2.56
 30
0.0
 41
0.9238795216280236
 10
13.0017839182316
 20
2.53949747186771
 30
0.0
 41
1.0
 10
12.98128139243162
 20
2.518994943735425
 30
0.0
 41
0.9238795216280324
 10
12.98128139573
 20
2.487552711763898
 30
0.0
 41
1.0
  0
SPLINE
  5
13F
330
1F
100
AcDbEntity
  8
Make2D visible lines
100
AcDbSpline
210
0.0
220
0.0
230
1.0
 70
    24
 71
     2
 72
     6
 73
     3
 74
     0
 42
0.0000000001
 43
0.0000000001
 40
-2.415105433753071
 40
-2.415105433753071
 40
-2.415105433753071
 40
0.0
 40
0.0
 40
0.0
 10
12.05528139573
 20
2.487552716876536
 30
0.0
 10
12.05528139573
 20
1.278776359858268
 30
0.0
 10
12.05528139573
 20
0.0700000028400005
 30
0.0
  0
SPLINE
  5
140
330
1F
100
AcDbEntity
  8
Make2D visible lines
100
AcDbSpline
210
0.0
220
0.0
230
1.0
 70
    12
 71
     2
 72
     6
 73
     3
 74
     0
 42
0.0000000001
 43
0.0000000001
 40
0.0
 40
0.0
 40
0.0
 40
0.1099557457156439
 40
0.1099557457156439
 40
0.1099557457156439
 10
12.05528139573
 20
0.0700000028400005
 30
0.0
 41
1.0
 10
12.05528139857
 20
0.0
 30
0.0
 41
0.7071067668423728
 10
11.98528139573
 20
-0.0000000000000001
 30
0.0
 41
1.0
  0
SPLINE
  5
141
330
1F
100
AcDbEntity
  8
Make2D visible lines
100
AcDbSpline
210
0.0
220
0.0
230
1.0
 70
    24
 71
     2
 72
     6
 73
     3
 74
     0
 42
0.0000000001
 43
0.0000000001
 40
0.0
 40
0.0
 40
0.0
 40
0.3520000000000003
 40
0.3520000000000003
 40
0.3520000000000003
 10
11.98528139573
 20
-0.0000000000000001
 30
0.0
 10
11.80928139573
 20
0.0
 30
0.0
 10
11.63328139573
 20
0.0
 30
0.0
  0
SPLINE
  5
142
330
1F
100
AcDbEntity
  8
Make2D visible lines
100
AcDbSpline
210
0.0
220
0.0
230
1.0
 70
    12
 71
     2
 72
     6
 73
     3
 74
     0
 42
0.0000000001
 43
0.0000000001
 40
0.0
 40
0.0
 40
0.0
 40
0.2356194519512337
 40
0.2356194519512337
 40
0.2356194519512337
 10
11.63328139573
 20
0.0
 30
0.0
 41
1.0
 10
11.483281392798
 20
0.000000000000002
 30
0.0
 41
0.7071067742757676
 10
11.48328139573
 20
0.1500000029319999
 30
0.0
 41
1.0
  0
SPLINE
  5
143
330
1F
100
AcDbEntity
  8
Make2D visible lines
100
AcDbSpline
210
0.0
220
0.0
230
1.0
 70
    24
 71
     2
 72
     6
 73
     3
 74
     0
 42
0.0000000001
 43
0.0000000001
 40
0.0
 40
0.0
 40
0.0
 40
2.255429040880414
 40
2.255429040880414
 40
2.255429040880414
 10
11.48328139573
 20
0.1500000029319999
 30
0.0
 10
11.48328139573
 20
1.278857261686103
 30
0.0
 10
11.48328139573
 20
2.407714520440207
 30
0.0
  0
SPLINE
  5
144
330
1F
100
AcDbEntity
  8
Make2D visible lines
100
AcDbSpline
210
0.0
220
0.0
230
1.0
 70
    12
 71
     2
 72
     6
 73
     3
 74
     0
 42
0.0000000001
 43
0.0000000001
 40
0.0
 40
0.0
 40
0.0
 40
0.2356194519512344
 40
0.2356194519512344
 40
0.2356194519512344
 10
11.48328139573
 20
2.407714520440207
 30
0.0
 41
1.0
 10
11.483281392798
 20
2.56
 30
0.0
 41
0.7071067742757604
 10
11.63328139573
 20
2.56
 30
0.0
 41
1.0
  0
SPLINE
  5
145
330
1F
100
AcDbEntity
  8
Make2D visible lines
100
AcDbSpline
210
0.0
220
0.0
230
1.0
 70
    24
 71
     2
 72
     6
 73
     3
 74
     0
 42
0.0000000001
 43
0.0000000001
 40
0.0
 40
0.0
 40
0.0
 40
0.3520000000000003
 40
0.3520000000000003
 40
0.3520000000000003
 10
11.63328139573
 20
2.56
 30
0.0
 10
11.80928139573
 20
2.56
 30
0.0
 10
11.98528139573
 20
2.56
 30
0.0
  0
SPLINE
  5
146
330
1F
100
AcDbEntity
  8
Make2D visible lines
100
AcDbSpline
210
0.0
220
0.0
230
1.0
 70
    12
 71
     2
 72
     6
 73
     3
 74
     0
 42
0.0000000001
 43
0.0000000001
 40
0.0
 40
0.0
 40
0.0
 40
0.1099557457156434
 40
0.1099557457156434
 40
0.1099557457156434
 10
11.98528139573
 20
2.56
 30
0.0
 41
1.0
 10
12.05528139857
 20
2.56
 30
0.0
 41
0.7071067668423767
 10
12.05528139573
 20
2.487552716876536
 30
0.0
 41
1.0
  0
SPLINE
  5
147
330
1F
100
AcDbEntity
  8
Make2D visible lines
100
AcDbSpline
210
0.0
220
0.0
230
1.0
 70
    24
 71
     2
 72
     6
 73
     3
 74
     0
 42
0.0000000001
 43
0.0000000001
 40
0.0
 40
0.0
 40
0.0
 40
0.0689999999999991
 40
0.0689999999999991
 40
0.0689999999999991
 10
12.12428139573
 20
1.595000000000001
 30
0.0
 10
12.08978139573
 20
1.595000000000001
 30
0.0
 10
12.05528139573
 20
1.595000000000001
 30
0.0
  0
SPLINE
  5
148
330
1F
100
AcDbEntity
  8
Make2D visible lines
100
AcDbSpline
210
0.0
220
0.0
230
1.0
 70
    24
 71
     2
 72
     6
 73
     3
 74
     0
 42
0.0000000001
 43
0.0000000001
 40
0.0
 40
0.0
 40
0.0
 40
0.9260000000000002
 40
0.9260000000000002
 40
0.9260000000000002
 10
12.05528139573
 20
0.9650000000000016
 30
0.0
 10
12.51828139573
 20
0.9650000000000016
 30
0.0
 10
12.98128139573
 20
0.9650000000000016
 30
0.0
  0
SPLINE
  5
149
330
1F
100
AcDbEntity
  8
Make2D visible lines
100
AcDbSpline
210
0.0
220
0.0
230
1.0
 70
    24
 71
     2
 72
     6
 73
     3
 74
     0
 42
0.0000000001
 43
0.0000000001
 40
0.0
 40
0.0
 40
0.0
 40
0.0690000000000008
 40
0.0690000000000008
 40
0.0690000000000008
 10
12.98128139573
 20
1.595000000000001
 30
0.0
 10
12.94678139573
 20
1.595000000000001
 30
0.0
 10
12.91228139573
 20
1.595000000000001
 30
0.0
  0
SPLINE
  5
14A
330
1F
100
AcDbEntity
  8
Make2D visible lines
100
AcDbSpline
210
0.0
220
0.0
230
1.0
 70
     8
 71
     3
 72
    12
 73
     8
 74
     0
 42
0.0000000001
 43
0.0000000001
 40
0.0
 40
0.0
 40
0.0
 40
0.0
 40
0.1463411183411369
 40
0.2853842069860231
 40
0.4774826785392335
 40
0.6695434217140405
 40
0.9551044705190225
 40
0.9551044705190225
 40
0.9551044705190225
 40
0.9551044705190225
 10
12.17428139573
 20
2.135695657233184
 30
0.0
 10
12.19483924901879
 20
2.092235288994199
 30
0.0
 10
12.25007361418926
 20
2.011139443753334
 30
0.0
 10
12.3490209868069
 20
1.892867635552798
 30
0.0
 10
12.51940345317077
 20
1.800191929265525
 30
0.0
 10
12.73138178770486
 20
1.918743261260477
 30
0.0
 10
12.81556953510906
 20
2.051490853594749
 30
0.0
 10
12.86228139573
 20
2.135695657233184
 30
0.0
  0
SPLINE
  5
14B
330
1F
100
AcDbEntity
  8
Make2D visible lines
100
AcDbSpline
210
0.0
220
0.0
230
1.0
 70
    12
 71
     2
 72
     6
 73
     3
 74
     0
 42
0.0000000001
 43
0.0000000001
 40
0.0
 40
0.0
 40
0.0
 40
0.1228476419690088
 40
0.1228476419690088
 40
0.1228476419690088
 10
12.17428139573
 20
2.135695657233184
 30
0.0
 41
1.0
 10
12.13896557419717
 20
2.186799143881471
 30
0.0
 41
0.9832969456840381
 10
12.12428140026065
 20
2.247157644806792
 30
0.0
 41
1.0
  0
SPLINE
  5
14C
330
1F
100
AcDbEntity
  8
Make2D visible lines
100
AcDbSpline
210
0.0
220
0.0
230
1.0
 70
    12
 71
     2
 72
     6
 73
     3
 74
     0
 42
0.0000000001
 43
0.0000000001
 40
0.0
 40
0.0
 40
0.0
 40
0.1227840813427634
 40
0.1227840813427634
 40
0.1227840813427634
 10
12.86228139573
 20
2.135695657233184
 30
0.0
 41
1.0
 10
12.89709826317841
 20
2.187022966392655
 30
0.0
 41
0.9848379823800321
 10
12.91228139119935
 20
2.247157644806793
 30
0.0
 41
1.0
  0
SPLINE
  5
14D
330
1F
100
AcDbEntity
  8
Make2D visible lines
100
AcDbSpline
210
0.0
220
0.0
230
1.0
 70
    12
 71
     2
 72
     6
 73
     3
 74
     0
 42
0.0000000001
 43
0.0000000001
 40
0.0
 40
0.0
 40
0.0
 40
0.0483212497416666
 40
0.0483212497416666
 40
0.0483212497416666
 10
7.339092164560495
 20
2.788441279212112
 30
0.0
 41
1.0
 10
7.344577707264786
 20
2.760100728064051
 30
0.0
 41
0.7724816427213782
 10
7.373444086878428
 20
2.760000000026418
 30
0.0
 41
1.0
  0
SPLINE
  5
14E
330
1F
100
AcDbEntity
  8
Make2D visible lines
100
AcDbSpline
210
0.0
220
0.0
230
1.0
 70
    12
 71
     2
 72
     8
 73
     5
 74
     0
 42
0.0000000001
 43
0.0000000001
 40
0.0
 40
0.0
 40
0.0
 40
0.0286061523138886
 40
0.0286061523138886
 40
0.0572123046277773
 40
0.0572123046277773
 40
0.0572123046277773
 10
8.09179832887641
 20
2.760000000000004
 30
0.0
 41
1.0
 10
8.106948194180319
 20
2.760056392118597
 30
0.0
 41
0.9182200393676768
 10
8.11730386400521
 20
2.771114497800655
 30
0.0
 41
1.0
 10
8.127659533830098
 20
2.782172603482712
 30
0.0
 41
0.9182200393676768
 10
8.12672295131464
 20
2.79729359591011
 30
0.0
 41
1.0
  0
SPLINE
  5
14F
330
1F
100
AcDbEntity
  8
Make2D visible lines
100
AcDbSpline
210
0.0
220
0.0
230
1.0
 70
    12
 71
     2
 72
     8
 73
     5
 74
     0
 42
0.0000000001
 43
0.0000000001
 40
0.0
 40
0.0
 40
0.0
 40
0.0281928929716271
 40
0.0281928929716271
 40
0.0563857859432542
 40
0.0563857859432542
 40
0.0563857859432542
 10
12.87419962211639
 20
2.760000000033125
 30
0.0
 41
1.0
 10
12.8891051433937
 20
2.760054542525548
 30
0.0
 41
0.9205244397931974
 10
12.89942123268554
 20
2.770813531379281
 30
0.0
 41
1.0
 10
12.90973732197737
 20
2.781572520233012
 30
0.0
 41
0.9205244397931974
 10
12.90916560420659
 20
2.796467172905111
 30
0.0
 41
1.0
  0
SPLINE
  5
150
330
1F
100
AcDbEntity
  8
Make2D visible lines - Tangent
100
AcDbSpline
210
0.0
220
0.0
230
1.0
 70
     8
 71
     3
 72
    11
 73
     7
 74
     0
 42
0.0000000001
 43
0.0000000001
 40
-0.7386030843065078
 40
-0.7386030843065078
 40
-0.7386030843065078
 40
-0.7386030843065078
 40
-0.3141361316168274
 40
-0.1452787980732192
 40
-0.0706522820738642
 40
0.0
 40
0.0
 40
0.0
 40
0.0
 10
0.3694721734610606
 20
3.739901380785775
 30
0.0
 10
0.3623696674723007
 20
3.880125352297963
 30
0.0
 10
0.3168498802065578
 20
4.08131084374745
 30
0.0
 10
0.1672431529643266
 20
4.252393228620664
 30
0.0
 10
0.0716772847736351
 20
4.299262188269639
 30
0.0
 10
0.0236962094207662
 20
4.307091201466158
 30
0.0
 10
0.0000032653121318
 20
4.307063383217811
 30
0.0
  0
SPLINE
  5
151
330
1F
100
AcDbEntity
  8
Make2D visible lines - Tangent
100
AcDbSpline
210
0.0
220
0.0
230
1.0
 70
     8
 71
     3
 72
    11
 73
     7
 74
     0
 42
0.0000000001
 43
0.0000000001
 40
0.0
 40
0.0
 40
0.0
 40
0.0
 40
0.0706588126847526
 40
0.1452853286841054
 40
0.3141426622277108
 40
0.7386081388400023
 40
0.7386081388400023
 40
0.7386081388400023
 40
0.7386081388400023
 10
0.0000032653121318
 20
4.307063383217811
 30
0.0
 10
-0.0236918657242597
 20
4.307091899015024
 30
0.0
 10
-0.0716753146773375
 20
4.299263167152766
 30
0.0
 10
-0.1672431439844395
 20
4.252393224364116
 30
0.0
 10
-0.3168495639057287
 20
4.081311231398825
 30
0.0
 10
-0.3623694260001908
 20
3.880126339338435
 30
0.0
 10
-0.3694721094709443
 20
3.739902855478209
 30
0.0
  0
SPLINE
  5
152
330
1F
100
AcDbEntity
  8
Make2D visible lines - Tangent
100
AcDbSpline
210
0.0
220
0.0
230
1.0
 70
     8
 71
     3
 72
    10
 73
     6
 74
     0
 42
0.0000000001
 43
0.0000000001
 40
0.0
 40
0.0
 40
0.0
 40
0.0
 40
0.9325163551893328
 40
1.201969207291272
 40
1.321746330228334
 40
1.321746330228334
 40
1.321746330228334
 40
1.321746330228334
 10
-0.4922361881355855
 20
4.312547573972912
 30
0.0
 10
-0.4781444779559614
 20
4.623074921349136
 30
0.0
 10
-0.4518634598309603
 20
5.022888491869843
 30
0.0
 10
-0.4248667814347975
 20
5.462639508991959
 30
0.0
 10
-0.4137931651459663
 20
5.591924565014583
 30
0.0
 10
-0.40734788353494
 20
5.631381523326024
 30
0.0
  0
SPLINE
  5
153
330
1F
100
AcDbEntity
  8
Make2D visible lines - Tangent
100
AcDbSpline
210
0.0
220
0.0
230
1.0
 70
     8
 71
     3
 72
    14
 73
    10
 74
     0
 42
0.0000000001
 43
0.0000000001
 40
0.0
 40
0.0
 40
0.0
 40
0.0
 40
1.0
 40
2.0
 40
3.0
 40
4.0
 40
5.0
 40
6.0
 40
7.0
 40
7.0
 40
7.0
 40
7.0
 10
-0.40734788353494
 20
5.631381523326024
 30
0.0
 10
-0.3987132793635011
 20
5.700251292020925
 30
0.0
 10
-0.366388363362373
 20
5.834900712213313
 30
0.0
 10
-0.2811332489969679
 20
6.027827083836947
 30
0.0
 10
-0.1106055230578875
 20
6.161541295642544
 30
0.0
 10
0.110605503527551
 20
6.16154130441812
 30
0.0
 10
0.2811332478089688
 20
6.027827090257112
 30
0.0
 10
0.3663883611175909
 20
5.83490071215478
 30
0.0
 10
0.3987132743976017
 20
5.700251319852618
 30
0.0
 10
0.4073478837483213
 20
5.631381523390508
 30
0.0
  0
SPLINE
  5
154
330
1F
100
AcDbEntity
  8
Make2D visible lines - Tangent
100
AcDbSpline
210
0.0
220
0.0
230
1.0
 70
     8
 71
     3
 72
    10
 73
     6
 74
     0
 42
0.0000000001
 43
0.0000000001
 40
-1.320997012290119
 40
-1.320997012290119
 40
-1.320997012290119
 40
-1.320997012290119
 40
-1.207504293467593
 40
-0.9725110545717917
 40
0.0
 40
0.0
 40
0.0
 40
0.0
 10
0.4073478837483213
 20
5.631381523390508
 30
0.0
 10
0.4133345900279615
 20
5.593988089779013
 30
0.0
 10
0.423801054350939
 20
5.478277267718975
 30
0.0
 10
0.4508886585945078
 20
5.038783424917222
 30
0.0
 10
0.4774380453713576
 20
4.637135479399406
 30
0.0
 10
0.4922052179077561
 20
4.313294790905834
 30
0.0
  0
SPLINE
  5
155
330
1F
100
AcDbEntity
  8
Make2D visible lines
100
AcDbSpline
210
0.0
220
0.0
230
1.0
 70
    12
 71
     2
 72
     6
 73
     3
 74
     0
 42
0.0000000001
 43
0.0000000001
 40
0.0
 40
0.0
 40
0.0
 40
0.715017489309887
 40
0.715017489309887
 40
0.715017489309887
 10
-8.126722355013005
 20
2.79730837210623
 30
0.0
 41
1.0
 10
-8.104889429230154
 20
3.154150786496702
 30
0.0
 41
0.9999959930683374
 10
-8.08507719706722
 20
3.511111093551959
 30
0.0
 41
1.0
  0
SPLINE
  5
156
330
1F
100
AcDbEntity
  8
Make2D visible lines - Tangent
100
AcDbSpline
210
0.0
220
0.0
230
1.0
 70
    12
 71
     3
 72
    12
 73
     8
 74
     0
 42
0.0000000001
 43
0.0000000001
 40
-0.7166866764941487
 40
-0.7166866764941487
 40
-0.7166866764941487
 40
-0.7166866764941487
 40
0.0
 40
0.0
 40
0.0
 40
5.426935465500462
 40
6.005717626902
 40
6.005717626902
 40
6.005717626902
 40
6.005717626902
 10
-0.6170939324199887
 20
4.144275746056073
 30
0.0
 41
1.0
 10
-0.8549403253933607
 20
4.121609837324083
 30
0.0
 41
0.9997624307684584
 10
-1.092096912421841
 20
4.092602884742096
 30
0.0
 41
0.9997624307684584
 10
-1.328394670181023
 20
4.057275561788416
 30
0.0
 41
1.0
 10
-3.117482356701391
 20
3.789800833743934
 30
0.0
 41
1.0
 10
-4.962818904875473
 20
3.51835316869112
 30
0.0
 41
1.0
 10
-6.858249519855342
 20
3.232953152428765
 30
0.0
 41
1.0
 10
-7.190070262656594
 20
3.097166056710528
 30
0.0
 41
1.0
  0
SPLINE
  5
157
330
1F
100
AcDbEntity
  8
Make2D visible lines - Tangent
100
AcDbSpline
210
0.0
220
0.0
230
1.0
 70
     8
 71
     3
 72
    11
 73
     7
 74
     0
 42
0.0000000001
 43
0.0000000001
 40
0.0
 40
0.0
 40
0.0
 40
0.0
 40
0.066894803380304
 40
0.1150772171461536
 40
0.2142351287725906
 40
0.3577299678759472
 40
0.3577299678759472
 40
0.3577299678759472
 40
0.3577299678759472
 10
-7.190070262656594
 20
3.097166056710528
 30
0.0
 10
-7.208121581512791
 20
3.085283282473688
 30
0.0
 10
-7.24451976032389
 20
3.067447034369017
 30
0.0
 10
-7.287917173120947
 20
3.010049314205599
 30
0.0
 10
-7.308915743437923
 20
2.912711916718788
 30
0.0
 10
-7.331854348652731
 20
2.837086405743809
 30
0.0
 10
-7.338967423585012
 20
2.788958449657228
 30
0.0
  0
SPLINE
  5
158
330
1F
100
AcDbEntity
  8
Default
100
AcDbSpline
210
0.0
220
0.0
230
1.0
 70
    12
 71
     2
 72
     6
 73
     3
 74
     0
 42
0.0000000001
 43
0.0000000001
 40
-0.0405034352679367
 40
-0.0405034352679367
 40
-0.0405034352679367
 40
0.0
 40
0.0
 40
0.0
 10
-12.14911371442322
 20
2.760035477590776
 30
0.0
 41
1.0
 10
-12.12629078105089
 20
2.761184994890809
 30
0.0
 41
0.8377474461443447
 10
-12.11806098244238
 20
2.782509390905094
 30
0.0
 41
1.0
  0
SPLINE
  5
159
330
1F
100
AcDbEntity
  8
Default
100
AcDbSpline
210
0.0
220
0.0
230
1.0
 70
     8
 71
     3
 72
    11
 73
     7
 74
     0
 42
0.0000000001
 43
0.0000000001
 40
-0.5190498716913017
 40
-0.5190498716913017
 40
-0.5190498716913017
 40
-0.5190498716913017
 40
-0.3020474028680822
 40
-0.2374224159260925
 40
-0.1669895205952948
 40
0.0
 40
0.0
 40
0.0
 40
0.0
 10
-12.11806098244238
 20
2.782509390905094
 30
0.0
 10
-12.09223346747857
 20
2.850638090585806
 30
0.0
 10
-12.02956425645359
 20
2.924693852895348
 30
0.0
 10
-11.93187101904603
 20
2.989616466604408
 30
0.0
 10
-11.84364717303091
 20
3.038432671694692
 30
0.0
 10
-11.77004209026178
 20
3.068032893056389
 30
0.0
 10
-11.71556540523546
 20
3.087346865324408
 30
0.0
  0
SPLINE
  5
15A
330
1F
100
AcDbEntity
  8
Default
100
AcDbSpline
210
0.0
220
0.0
230
1.0
 70
     8
 71
     3
 72
    11
 73
     7
 74
     0
 42
0.0000000001
 43
0.0000000001
 40
-9.62873534496378
 40
-9.62873534496378
 40
-9.62873534496378
 40
-9.62873534496378
 40
-9.235760971098028
 40
-8.993257344707228
 40
-8.729254607404698
 40
0.0
 40
0.0
 40
0.0
 40
0.0
 10
-11.71556540523546
 20
3.087346865324408
 30
0.0
 10
-11.58988661813639
 20
3.132737362778273
 30
0.0
 10
-11.38308034450261
 20
3.177620608886414
 30
0.0
 10
-11.08778954878018
 20
3.232731597892199
 30
0.0
 10
-8.022689235877312
 20
3.520429176121879
 30
0.0
 10
-5.036998118275312
 20
3.789332298799763
 30
0.0
 10
-2.13965468369018
 20
4.057697784693569
 30
0.0
  0
ARC
  5
15B
330
1F
100
AcDbEntity
  8
Default
100
AcDbCircle
 10
3.866135974223456
 20
-60.78237684056489
 30
0.0
 40
65.11762279779389
100
AcDbArc
 50
94.26441233900313
 51
95.29190360224223
  0
SPLINE
  5
15C
330
1F
100
AcDbEntity
  8
Default
100
AcDbSpline
210
0.0
220
0.0
230
1.0
 70
    12
 71
     2
 72
     6
 73
     3
 74
     0
 42
0.0000000001
 43
0.0000000001
 40
0.0
 40
0.0
 40
0.0
 40
0.1645726248110703
 40
0.1645726248110703
 40
0.1645726248110703
 10
-0.975967409105224
 20
4.154968606111039
 30
0.0
 41
1.0
 10
-0.893930876010418
 20
4.148116645719011
 30
0.0
 41
0.999346492540072
 10
-0.8116136902486488
 20
4.147209423754928
 30
0.0
 41
1.0
  0
POLYLINE
  5
15D
330
1F
100
AcDbEntity
  8
Default
100
AcDb2dPolyline
 66
     1
 10
0.0
 20
0.0
 30
0.0
  0
VERTEX
  5
15E
330
15D
100
AcDbEntity
  8
Default
100
AcDbVertex
100
AcDb2dVertex
 10
-0.8116136902486488
 20
4.147209423754928
 30
0.0
  0
VERTEX
  5
15F
330
15D
100
AcDbEntity
  8
Default
100
AcDbVertex
100
AcDb2dVertex
 10
-0.4595528730361971
 20
4.147209423754928
 30
0.0
  0
SEQEND
  5
160
330
15D
100
AcDbEntity
  8
Default
  0
SPLINE
  5
161
330
1F
100
AcDbEntity
  8
Default
100
AcDbSpline
210
0.0
220
0.0
230
1.0
 70
    12
 71
     2
 72
     6
 73
     3
 74
     0
 42
0.0000000001
 43
0.0000000001
 40
-0.0205148466803361
 40
-0.0205148466803361
 40
-0.0205148466803361
 40
0.0
 40
0.0
 40
0.0
 10
0.3908867181428572
 20
1.321916756511124
 30
0.0
 41
1.0
 10
0.3936309385146441
 20
1.331850316586209
 30
0.0
 41
0.9929165310438545
 10
0.3939531690117691
 20
1.342150924790038
 30
0.0
 41
0.9999992470307488
  0
SPLINE
  5
162
330
1F
100
AcDbEntity
  8
Default
100
AcDbSpline
210
0.0
220
0.0
230
1.0
 70
    12
 71
     2
 72
     6
 73
     3
 74
     0
 42
0.0000000001
 43
0.0000000001
 40
-0.1306670865212424
 40
-0.1306670865212424
 40
-0.1306670865212424
 40
0.0
 40
0.0
 40
0.0
 10
0.3939531690117697
 20
1.342150924790038
 30
0.0
 41
1.0
 10
0.3911966937249701
 20
1.259999371951817
 30
0.0
 41
0.7188571908882943
 10
0.3089999986933485
 20
1.260000489392885
 30
0.0
 41
1.0
  0
SPLINE
  5
163
330
1F
100
AcDbEntity
  8
Default
100
AcDbSpline
210
0.0
220
0.0
230
1.0
 70
    24
 71
     2
 72
     6
 73
     3
 74
     0
 42
0.0000000001
 43
0.0000000001
 40
-0.6179999986728006
 40
-0.6179999986728006
 40
-0.6179999986728006
 40
0.0
 40
0.0
 40
0.0
 10
0.3089999986933485
 20
1.260000489392885
 30
0.0
 10
-0.0000000006430518
 20
1.260000489380662
 30
0.0
 10
-0.3089999999794522
 20
1.260000489368439
 30
0.0
  0
SPLINE
  5
164
330
1F
100
AcDbEntity
  8
Default
100
AcDbSpline
210
0.0
220
0.0
230
1.0
 70
    12
 71
     2
 72
     6
 73
     3
 74
     0
 42
0.0000000001
 43
0.0000000001
 40
-0.1306642149348706
 40
-0.1306642149348706
 40
-0.1306642149348706
 40
0.0
 40
0.0
 40
0.0
 10
-0.3089999999794522
 20
1.260000489368439
 30
0.0
 41
1.0
 10
-0.3911939136575184
 20
1.259999377635789
 30
0.0
 41
0.7188689686272367
 10
-0.393975931715449
 20
1.343573495961616
 30
0.0
 41
1.0
  0
LINE
  5
165
330
1F
100
AcDbEntity
  8
Default
100
AcDbLine
 10
-0.393975931715449
 20
1.343573495961616
 30
0.0
 11
-0.3940001139313196
 21
2.719999999999945
 31
0.0
  0
SPLINE
  5
166
330
1F
100
AcDbEntity
  8
Default
100
AcDbSpline
210
0.0
220
0.0
230
1.0
 70
    12
 71
     2
 72
     8
 73
     5
 74
     0
 42
0.0000000001
 43
0.0000000001
 40
-0.0628318931243996
 40
-0.0628318931243996
 40
-0.0628318931243996
 40
-0.0314159465621985
 40
-0.0314159465621985
 40
0.0
 40
0.0
 40
0.0
 10
-0.3940001139313196
 20
2.719999999999945
 30
0.0
 41
1.0
 10
-0.3940000000000003
 20
2.736568554226062
 30
0.0
 41
0.923879436714611
 10
-0.3822842570867273
 20
2.748284285408195
 30
0.0
 41
1.0
 10
-0.3705685141734518
 20
2.760000016590326
 30
0.0
 41
0.9238794367145934
 10
-0.3539999599474015
 20
2.759999999999986
 30
0.0
 41
1.0
  0
POLYLINE
  5
167
330
1F
100
AcDbEntity
  8
Default
100
AcDb2dPolyline
 66
     1
 10
0.0
 20
0.0
 30
0.0
  0
VERTEX
  5
168
330
167
100
AcDbEntity
  8
Default
100
AcDbVertex
100
AcDb2dVertex
 10
-0.3539999599474015
 20
2.759999999999986
 30
0.0
  0
VERTEX
  5
169
330
167
100
AcDbEntity
  8
Default
100
AcDbVertex
100
AcDb2dVertex
 10
0.3539999586612979
 20
2.759999999999986
 30
0.0
  0
SEQEND
  5
16A
330
167
100
AcDbEntity
  8
Default
  0
SPLINE
  5
16B
330
1F
100
AcDbEntity
  8
Default
100
AcDbSpline
210
0.0
220
0.0
230
1.0
 70
    12
 71
     2
 72
     8
 73
     5
 74
     0
 42
0.0000000001
 43
0.0000000001
 40
0.0
 40
0.0
 40
0.0
 40
0.0314159465621985
 40
0.0314159465621985
 40
0.0628318931243996
 40
0.0628318931243996
 40
0.0628318931243996
 10
0.3539999586612979
 20
2.759999999999986
 30
0.0
 41
1.0
 10
0.3705685128873479
 20
2.760000016590326
 30
0.0
 41
0.9238794367145934
 10
0.3822842558006236
 20
2.748284285408195
 30
0.0
 41
1.0
 10
0.3939999987138978
 20
2.736568554226062
 30
0.0
 41
0.923879436714611
 10
0.3940001126452159
 20
2.719999999999945
 30
0.0
 41
1.0
  0
LINE
  5
16C
330
1F
100
AcDbEntity
  8
Default
100
AcDbLine
 10
0.3940001126452159
 20
2.719999999999945
 30
0.0
 11
0.3939759304293453
 21
1.343573495961616
 31
0.0
  0
SPLINE
  5
16D
330
1F
100
AcDbEntity
  8
Make2D visible lines
100
AcDbSpline
210
0.0
220
0.0
230
1.0
 70
    24
 71
     2
 72
     6
 73
     3
 74
     0
 42
0.0000000001
 43
0.0000000001
 40
-2.415105423527796
 40
-2.415105423527796
 40
-2.415105423527796
 40
0.0
 40
0.0
 40
0.0
 10
-0.463000000000001
 20
2.487552711763898
 30
0.0
 10
-0.463000000000001
 20
1.278776359863449
 30
0.0
 10
-0.463000000000001
 20
0.0700000079629994
 30
0.0
  0
SPLINE
  5
16E
330
1F
100
AcDbEntity
  8
Make2D visible lines
100
AcDbSpline
210
0.0
220
0.0
230
1.0
 70
    12
 71
     2
 72
     8
 73
     5
 74
     0
 42
0.0000000001
 43
0.0000000001
 40
-0.1099557508386429
 40
-0.1099557508386429
 40
-0.1099557508386429
 40
-0.0549778754193212
 40
-0.0549778754193212
 40
0.0
 40
0.0
 40
0.0
 10
-0.463000000000001
 20
0.0700000079629994
 30
0.0
 41
1.0
 10
-0.4629999967016183
 20
0.0410050562645741
 30
0.0
 41
0.9238795216280429
 10
-0.4835025225015954
 20
0.0205025281322868
 30
0.0
 41
1.0
 10
-0.5040050483015753
 20
0.0
 30
0.0
 41
0.923879521628049
 10
-0.5329999999999995
 20
0.0
 30
0.0
 41
1.0
  0
SPLINE
  5
16F
330
1F
100
AcDbEntity
  8
Make2D visible lines
100
AcDbSpline
210
0.0
220
0.0
230
1.0
 70
    24
 71
     2
 72
     6
 73
     3
 74
     0
 42
0.0000000001
 43
0.0000000001
 40
0.0
 40
0.0
 40
0.0
 40
0.3520000000000003
 40
0.3520000000000003
 40
0.3520000000000003
 10
-0.5329999999999995
 20
0.0
 30
0.0
 10
-0.7089999999999987
 20
0.0
 30
0.0
 10
-0.884999999999998
 20
0.0
 30
0.0
  0
SPLINE
  5
170
330
1F
100
AcDbEntity
  8
Make2D visible lines
100
AcDbSpline
210
0.0
220
0.0
230
1.0
 70
    12
 71
     2
 72
     6
 73
     3
 74
     0
 42
0.0000000001
 43
0.0000000001
 40
0.0
 40
0.0
 40
0.0
 40
0.2356194483882336
 40
0.2356194483882336
 40
0.2356194483882336
 10
-0.884999999999998
 20
0.0
 30
0.0
 41
1.0
 10
-1.034999999368996
 20
0.0
 30
0.0
 41
0.7071067826738353
 10
-1.035
 20
0.1499999993689993
 30
0.0
 41
1.0
  0
SPLINE
  5
171
330
1F
100
AcDbEntity
  8
Make2D visible lines
100
AcDbSpline
210
0.0
220
0.0
230
1.0
 70
    24
 71
     2
 72
     6
 73
     3
 74
     0
 42
0.0000000001
 43
0.0000000001
 40
-2.260000001262
 40
-2.260000001262
 40
-2.260000001262
 40
0.0
 40
0.0
 40
0.0
 10
-1.035
 20
0.1499999993689993
 30
0.0
 10
-1.035
 20
1.279999999999999
 30
0.0
 10
-1.035
 20
2.410000000630999
 30
0.0
  0
SPLINE
  5
172
330
1F
100
AcDbEntity
  8
Make2D visible lines
100
AcDbSpline
210
0.0
220
0.0
230
1.0
 70
    12
 71
     2
 72
     6
 73
     3
 74
     0
 42
0.0000000001
 43
0.0000000001
 40
0.0
 40
0.0
 40
0.0
 40
0.2356194483882358
 40
0.2356194483882358
 40
0.2356194483882358
 10
-1.035
 20
2.410000000630999
 30
0.0
 41
1.0
 10
-1.034999999369002
 20
2.560000000000001
 30
0.0
 41
0.7071067826738272
 10
-0.884999999999998
 20
2.56
 30
0.0
 41
1.0
  0
SPLINE
  5
173
330
1F
100
AcDbEntity
  8
Make2D visible lines
100
AcDbSpline
210
0.0
220
0.0
230
1.0
 70
    24
 71
     2
 72
     6
 73
     3
 74
     0
 42
0.0000000001
 43
0.0000000001
 40
0.0
 40
0.0
 40
0.0
 40
0.3520000000000003
 40
0.3520000000000003
 40
0.3520000000000003
 10
-0.884999999999998
 20
2.56
 30
0.0
 10
-0.7089999999999987
 20
2.56
 30
0.0
 10
-0.5329999999999995
 20
2.56
 30
0.0
  0
SPLINE
  5
174
330
1F
100
AcDbEntity
  8
Make2D visible lines
100
AcDbSpline
210
0.0
220
0.0
230
1.0
 70
    12
 71
     2
 72
     8
 73
     5
 74
     0
 42
0.0000000001
 43
0.0000000001
 40
-0.1099557508386414
 40
-0.1099557508386414
 40
-0.1099557508386414
 40
-0.0549778754193184
 40
-0.0549778754193184
 40
0.0
 40
0.0
 40
0.0
 10
-0.5329999999999995
 20
2.56
 30
0.0
 41
1.0
 10
-0.5040050483015742
 20
2.56
 30
0.0
 41
0.9238795216280236
 10
-0.4835025225015972
 20
2.53949747186771
 30
0.0
 41
1.0
 10
-0.4629999967016187
 20
2.518994943735425
 30
0.0
 41
0.9238795216280324
 10
-0.463000000000001
 20
2.487552711763898
 30
0.0
 41
1.0
  0
SPLINE
  5
175
330
1F
100
AcDbEntity
  8
Make2D visible lines
100
AcDbSpline
210
0.0
220
0.0
230
1.0
 70
    24
 71
     2
 72
     6
 73
     3
 74
     0
 42
0.0000000001
 43
0.0000000001
 40
-2.415105433753071
 40
-2.415105433753071
 40
-2.415105433753071
 40
0.0
 40
0.0
 40
0.0
 10
0.463000000000001
 20
2.487552716876536
 30
0.0
 10
0.463000000000001
 20
1.278776359858268
 30
0.0
 10
0.463000000000001
 20
0.0700000028400005
 30
0.0
  0
SPLINE
  5
176
330
1F
100
AcDbEntity
  8
Make2D visible lines
100
AcDbSpline
210
0.0
220
0.0
230
1.0
 70
    12
 71
     2
 72
     6
 73
     3
 74
     0
 42
0.0000000001
 43
0.0000000001
 40
0.0
 40
0.0
 40
0.0
 40
0.1099557457156439
 40
0.1099557457156439
 40
0.1099557457156439
 10
0.463000000000001
 20
0.0700000028400005
 30
0.0
 41
1.0
 10
0.4629999971599989
 20
0.0
 30
0.0
 41
0.7071067668423728
 10
0.5330000000000013
 20
-0.0000000000000001
 30
0.0
 41
1.0
  0
SPLINE
  5
177
330
1F
100
AcDbEntity
  8
Make2D visible lines
100
AcDbSpline
210
0.0
220
0.0
230
1.0
 70
    24
 71
     2
 72
     6
 73
     3
 74
     0
 42
0.0000000001
 43
0.0000000001
 40
0.0
 40
0.0
 40
0.0
 40
0.3520000000000003
 40
0.3520000000000003
 40
0.3520000000000003
 10
0.5330000000000013
 20
-0.0000000000000001
 30
0.0
 10
0.7090000000000014
 20
0.0
 30
0.0
 10
0.8850000000000016
 20
0.0
 30
0.0
  0
SPLINE
  5
178
330
1F
100
AcDbEntity
  8
Make2D visible lines
100
AcDbSpline
210
0.0
220
0.0
230
1.0
 70
    12
 71
     2
 72
     6
 73
     3
 74
     0
 42
0.0000000001
 43
0.0000000001
 40
0.0
 40
0.0
 40
0.0
 40
0.2356194519512337
 40
0.2356194519512337
 40
0.2356194519512337
 10
0.8850000000000016
 20
0.0
 30
0.0
 41
1.0
 10
1.035000002932
 20
0.000000000000002
 30
0.0
 41
0.7071067742757676
 10
1.035
 20
0.1500000029319999
 30
0.0
 41
1.0
  0
SPLINE
  5
179
330
1F
100
AcDbEntity
  8
Make2D visible lines
100
AcDbSpline
210
0.0
220
0.0
230
1.0
 70
    24
 71
     2
 72
     6
 73
     3
 74
     0
 42
0.0000000001
 43
0.0000000001
 40
0.0
 40
0.0
 40
0.0
 40
2.255429040880414
 40
2.255429040880414
 40
2.255429040880414
 10
1.035
 20
0.1500000029319999
 30
0.0
 10
1.035
 20
1.278857261686103
 30
0.0
 10
1.035
 20
2.407714520440207
 30
0.0
  0
SPLINE
  5
17A
330
1F
100
AcDbEntity
  8
Make2D visible lines
100
AcDbSpline
210
0.0
220
0.0
230
1.0
 70
    12
 71
     2
 72
     6
 73
     3
 74
     0
 42
0.0000000001
 43
0.0000000001
 40
0.0
 40
0.0
 40
0.0
 40
0.2356194519512344
 40
0.2356194519512344
 40
0.2356194519512344
 10
1.035
 20
2.407714520440207
 30
0.0
 41
1.0
 10
1.035000002932001
 20
2.56
 30
0.0
 41
0.7071067742757604
 10
0.8850000000000016
 20
2.56
 30
0.0
 41
1.0
  0
SPLINE
  5
17B
330
1F
100
AcDbEntity
  8
Make2D visible lines
100
AcDbSpline
210
0.0
220
0.0
230
1.0
 70
    24
 71
     2
 72
     6
 73
     3
 74
     0
 42
0.0000000001
 43
0.0000000001
 40
0.0
 40
0.0
 40
0.0
 40
0.3520000000000003
 40
0.3520000000000003
 40
0.3520000000000003
 10
0.8850000000000016
 20
2.56
 30
0.0
 10
0.7090000000000014
 20
2.56
 30
0.0
 10
0.5330000000000013
 20
2.56
 30
0.0
  0
SPLINE
  5
17C
330
1F
100
AcDbEntity
  8
Make2D visible lines
100
AcDbSpline
210
0.0
220
0.0
230
1.0
 70
    12
 71
     2
 72
     6
 73
     3
 74
     0
 42
0.0000000001
 43
0.0000000001
 40
0.0
 40
0.0
 40
0.0
 40
0.1099557457156434
 40
0.1099557457156434
 40
0.1099557457156434
 10
0.5330000000000013
 20
2.56
 30
0.0
 41
1.0
 10
0.46299999716
 20
2.56
 30
0.0
 41
0.7071067668423767
 10
0.463000000000001
 20
2.487552716876536
 30
0.0
 41
1.0
  0
SPLINE
  5
17D
330
1F
100
AcDbEntity
  8
Make2D visible lines
100
AcDbSpline
210
0.0
220
0.0
230
1.0
 70
    24
 71
     2
 72
     6
 73
     3
 74
     0
 42
0.0000000001
 43
0.0000000001
 40
0.0
 40
0.0
 40
0.0
 40
0.0689999999999991
 40
0.0689999999999991
 40
0.0689999999999991
 10
0.3940000000000019
 20
1.595000000000001
 30
0.0
 10
0.4285000000000014
 20
1.595000000000001
 30
0.0
 10
0.463000000000001
 20
1.595000000000001
 30
0.0
  0
SPLINE
  5
17E
330
1F
100
AcDbEntity
  8
Make2D visible lines
100
AcDbSpline
210
0.0
220
0.0
230
1.0
 70
    24
 71
     2
 72
     6
 73
     3
 74
     0
 42
0.0000000001
 43
0.0000000001
 40
0.0
 40
0.0
 40
0.0
 40
0.9260000000000002
 40
0.9260000000000002
 40
0.9260000000000002
 10
0.463000000000001
 20
0.9650000000000016
 30
0.0
 10
0.0
 20
0.9650000000000016
 30
0.0
 10
-0.463000000000001
 20
0.9650000000000016
 30
0.0
  0
SPLINE
  5
17F
330
1F
100
AcDbEntity
  8
Make2D visible lines
100
AcDbSpline
210
0.0
220
0.0
230
1.0
 70
    24
 71
     2
 72
     6
 73
     3
 74
     0
 42
0.0000000001
 43
0.0000000001
 40
0.0
 40
0.0
 40
0.0
 40
0.0690000000000008
 40
0.0690000000000008
 40
0.0690000000000008
 10
-0.463000000000001
 20
1.595000000000001
 30
0.0
 10
-0.4284999999999997
 20
1.595000000000001
 30
0.0
 10
-0.3939999999999984
 20
1.595000000000001
 30
0.0
  0
SPLINE
  5
180
330
1F
100
AcDbEntity
  8
Make2D visible lines
100
AcDbSpline
210
0.0
220
0.0
230
1.0
 70
     8
 71
     3
 72
    12
 73
     8
 74
     0
 42
0.0000000001
 43
0.0000000001
 40
0.0
 40
0.0
 40
0.0
 40
0.0
 40
0.1463411183411369
 40
0.2853842069860231
 40
0.4774826785392335
 40
0.6695434217140405
 40
0.9551044705190225
 40
0.9551044705190225
 40
0.9551044705190225
 40
0.9551044705190225
 10
0.3439999999999976
 20
2.135695657233184
 30
0.0
 10
0.3234421467112139
 20
2.092235288994199
 30
0.0
 10
0.2682077815407382
 20
2.011139443753334
 30
0.0
 10
0.1692604089231011
 20
1.892867635552798
 30
0.0
 10
-0.0011220574407673
 20
1.800191929265525
 30
0.0
 10
-0.2131003919748569
 20
1.918743261260477
 30
0.0
 10
-0.2972881393790594
 20
2.051490853594749
 30
0.0
 10
-0.3439999999999976
 20
2.135695657233184
 30
0.0
  0
SPLINE
  5
181
330
1F
100
AcDbEntity
  8
Make2D visible lines
100
AcDbSpline
210
0.0
220
0.0
230
1.0
 70
    12
 71
     2
 72
     6
 73
     3
 74
     0
 42
0.0000000001
 43
0.0000000001
 40
0.0
 40
0.0
 40
0.0
 40
0.1228476419690088
 40
0.1228476419690088
 40
0.1228476419690088
 10
0.3439999999999976
 20
2.135695657233184
 30
0.0
 41
1.0
 10
0.3793158215328276
 20
2.186799143881471
 30
0.0
 41
0.9832969456840381
 10
0.393999995469354
 20
2.247157644806792
 30
0.0
 41
1.0
  0
SPLINE
  5
182
330
1F
100
AcDbEntity
  8
Make2D visible lines
100
AcDbSpline
210
0.0
220
0.0
230
1.0
 70
    12
 71
     2
 72
     6
 73
     3
 74
     0
 42
0.0000000001
 43
0.0000000001
 40
0.0
 40
0.0
 40
0.0
 40
0.1227840813427634
 40
0.1227840813427634
 40
0.1227840813427634
 10
-0.3439999999999976
 20
2.135695657233184
 30
0.0
 41
1.0
 10
-0.3788168674484081
 20
2.187022966392655
 30
0.0
 41
0.9848379823800321
 10
-0.393999995469354
 20
2.247157644806793
 30
0.0
 41
1.0
  0
SPLINE
  5
183
330
1F
100
AcDbEntity
  8
Default
100
AcDbSpline
210
0.0
220
0.0
230
1.0
 70
    12
 71
     2
 72
     6
 73
     3
 74
     0
 42
0.0000000001
 43
0.0000000001
 40
-0.0205148466803361
 40
-0.0205148466803361
 40
-0.0205148466803361
 40
0.0
 40
0.0
 40
0.0
 10
-7.34583666515714
 20
1.321916756511124
 30
0.0
 41
1.0
 10
-7.343092444785353
 20
1.331850316586209
 30
0.0
 41
0.9929165310438545
 10
-7.342770214288228
 20
1.342150924790038
 30
0.0
 41
0.9999992470307488
  0
SPLINE
  5
184
330
1F
100
AcDbEntity
  8
Default
100
AcDbSpline
210
0.0
220
0.0
230
1.0
 70
    12
 71
     2
 72
     6
 73
     3
 74
     0
 42
0.0000000001
 43
0.0000000001
 40
-0.1306670865212424
 40
-0.1306670865212424
 40
-0.1306670865212424
 40
0.0
 40
0.0
 40
0.0
 10
-7.342770214288228
 20
1.342150924790038
 30
0.0
 41
1.0
 10
-7.345526689575028
 20
1.259999371951817
 30
0.0
 41
0.7188571908882943
 10
-7.427723384606649
 20
1.260000489392885
 30
0.0
 41
1.0
  0
SPLINE
  5
185
330
1F
100
AcDbEntity
  8
Default
100
AcDbSpline
210
0.0
220
0.0
230
1.0
 70
    24
 71
     2
 72
     6
 73
     3
 74
     0
 42
0.0000000001
 43
0.0000000001
 40
-0.6179999986728006
 40
-0.6179999986728006
 40
-0.6179999986728006
 40
0.0
 40
0.0
 40
0.0
 10
-7.427723384606649
 20
1.260000489392885
 30
0.0
 10
-7.736723383943049
 20
1.260000489380662
 30
0.0
 10
-8.04572338327945
 20
1.260000489368439
 30
0.0
  0
SPLINE
  5
186
330
1F
100
AcDbEntity
  8
Default
100
AcDbSpline
210
0.0
220
0.0
230
1.0
 70
    12
 71
     2
 72
     6
 73
     3
 74
     0
 42
0.0000000001
 43
0.0000000001
 40
-0.1306642149348706
 40
-0.1306642149348706
 40
-0.1306642149348706
 40
0.0
 40
0.0
 40
0.0
 10
-8.04572338327945
 20
1.260000489368439
 30
0.0
 41
1.0
 10
-8.127917296957516
 20
1.259999377635789
 30
0.0
 41
0.7188689686272367
 10
-8.130699315015447
 20
1.343573495961616
 30
0.0
 41
1.0
  0
LINE
  5
187
330
1F
100
AcDbEntity
  8
Default
100
AcDbLine
 10
-8.130699315015447
 20
1.343573495961616
 30
0.0
 11
-8.130723497231317
 21
2.719999999999945
 31
0.0
  0
SPLINE
  5
188
330
1F
100
AcDbEntity
  8
Default
100
AcDbSpline
210
0.0
220
0.0
230
1.0
 70
    12
 71
     2
 72
     8
 73
     5
 74
     0
 42
0.0000000001
 43
0.0000000001
 40
-0.0628318931243996
 40
-0.0628318931243996
 40
-0.0628318931243996
 40
-0.0314159465621985
 40
-0.0314159465621985
 40
0.0
 40
0.0
 40
0.0
 10
-8.130723497231317
 20
2.719999999999945
 30
0.0
 41
1.0
 10
-8.130723383299998
 20
2.736568554226062
 30
0.0
 41
0.923879436714611
 10
-8.119007640386725
 20
2.748284285408195
 30
0.0
 41
1.0
 10
-8.107291897473448
 20
2.760000016590326
 30
0.0
 41
0.9238794367145934
 10
-8.090723343247399
 20
2.759999999999986
 30
0.0
 41
1.0
  0
POLYLINE
  5
189
330
1F
100
AcDbEntity
  8
Default
100
AcDb2dPolyline
 66
     1
 10
0.0
 20
0.0
 30
0.0
  0
VERTEX
  5
18A
330
189
100
AcDbEntity
  8
Default
100
AcDbVertex
100
AcDb2dVertex
 10
-8.090723343247399
 20
2.759999999999986
 30
0.0
  0
VERTEX
  5
18B
330
189
100
AcDbEntity
  8
Default
100
AcDbVertex
100
AcDb2dVertex
 10
-7.3827234246387
 20
2.759999999999986
 30
0.0
  0
SEQEND
  5
18C
330
189
100
AcDbEntity
  8
Default
  0
SPLINE
  5
18D
330
1F
100
AcDbEntity
  8
Default
100
AcDbSpline
210
0.0
220
0.0
230
1.0
 70
    12
 71
     2
 72
     8
 73
     5
 74
     0
 42
0.0000000001
 43
0.0000000001
 40
0.0
 40
0.0
 40
0.0
 40
0.0314159465621985
 40
0.0314159465621985
 40
0.0628318931243996
 40
0.0628318931243996
 40
0.0628318931243996
 10
-7.3827234246387
 20
2.759999999999986
 30
0.0
 41
1.0
 10
-7.366154870412649
 20
2.760000016590326
 30
0.0
 41
0.9238794367145934
 10
-7.354439127499374
 20
2.748284285408195
 30
0.0
 41
1.0
 10
-7.342723384586099
 20
2.736568554226062
 30
0.0
 41
0.923879436714611
 10
-7.342723270654782
 20
2.719999999999945
 30
0.0
 41
1.0
  0
LINE
  5
18E
330
1F
100
AcDbEntity
  8
Default
100
AcDbLine
 10
-7.342723270654782
 20
2.719999999999945
 30
0.0
 11
-7.342747452870652
 21
1.343573495961616
 31
0.0
  0
SPLINE
  5
18F
330
1F
100
AcDbEntity
  8
Make2D visible lines
100
AcDbSpline
210
0.0
220
0.0
230
1.0
 70
    24
 71
     2
 72
     6
 73
     3
 74
     0
 42
0.0000000001
 43
0.0000000001
 40
-2.415105423527796
 40
-2.415105423527796
 40
-2.415105423527796
 40
0.0
 40
0.0
 40
0.0
 10
-8.199723383299999
 20
2.487552711763898
 30
0.0
 10
-8.199723383299999
 20
1.278776359863449
 30
0.0
 10
-8.199723383299999
 20
0.0700000079629994
 30
0.0
  0
SPLINE
  5
190
330
1F
100
AcDbEntity
  8
Make2D visible lines
100
AcDbSpline
210
0.0
220
0.0
230
1.0
 70
    12
 71
     2
 72
     8
 73
     5
 74
     0
 42
0.0000000001
 43
0.0000000001
 40
-0.1099557508386429
 40
-0.1099557508386429
 40
-0.1099557508386429
 40
-0.0549778754193212
 40
-0.0549778754193212
 40
0.0
 40
0.0
 40
0.0
 10
-8.199723383299999
 20
0.0700000079629994
 30
0.0
 41
1.0
 10
-8.199723380001615
 20
0.0410050562645741
 30
0.0
 41
0.9238795216280429
 10
-8.220225905801593
 20
0.0205025281322868
 30
0.0
 41
1.0
 10
-8.240728431601573
 20
0.0
 30
0.0
 41
0.923879521628049
 10
-8.269723383299997
 20
0.0
 30
0.0
 41
1.0
  0
SPLINE
  5
191
330
1F
100
AcDbEntity
  8
Make2D visible lines
100
AcDbSpline
210
0.0
220
0.0
230
1.0
 70
    24
 71
     2
 72
     6
 73
     3
 74
     0
 42
0.0000000001
 43
0.0000000001
 40
0.0
 40
0.0
 40
0.0
 40
0.3520000000000003
 40
0.3520000000000003
 40
0.3520000000000003
 10
-8.269723383299997
 20
0.0
 30
0.0
 10
-8.445723383299995
 20
0.0
 30
0.0
 10
-8.621723383299996
 20
0.0
 30
0.0
  0
SPLINE
  5
192
330
1F
100
AcDbEntity
  8
Make2D visible lines
100
AcDbSpline
210
0.0
220
0.0
230
1.0
 70
    12
 71
     2
 72
     6
 73
     3
 74
     0
 42
0.0000000001
 43
0.0000000001
 40
0.0
 40
0.0
 40
0.0
 40
0.2356194483882336
 40
0.2356194483882336
 40
0.2356194483882336
 10
-8.621723383299996
 20
0.0
 30
0.0
 41
1.0
 10
-8.771723382668993
 20
0.0
 30
0.0
 41
0.7071067826738353
 10
-8.771723383299998
 20
0.1499999993689993
 30
0.0
 41
1.0
  0
SPLINE
  5
193
330
1F
100
AcDbEntity
  8
Make2D visible lines
100
AcDbSpline
210
0.0
220
0.0
230
1.0
 70
    24
 71
     2
 72
     6
 73
     3
 74
     0
 42
0.0000000001
 43
0.0000000001
 40
-2.260000001262
 40
-2.260000001262
 40
-2.260000001262
 40
0.0
 40
0.0
 40
0.0
 10
-8.771723383299998
 20
0.1499999993689993
 30
0.0
 10
-8.771723383299998
 20
1.279999999999999
 30
0.0
 10
-8.771723383299998
 20
2.410000000630999
 30
0.0
  0
SPLINE
  5
194
330
1F
100
AcDbEntity
  8
Make2D visible lines
100
AcDbSpline
210
0.0
220
0.0
230
1.0
 70
    12
 71
     2
 72
     6
 73
     3
 74
     0
 42
0.0000000001
 43
0.0000000001
 40
0.0
 40
0.0
 40
0.0
 40
0.2356194483882358
 40
0.2356194483882358
 40
0.2356194483882358
 10
-8.771723383299998
 20
2.410000000630999
 30
0.0
 41
1.0
 10
-8.771723382668998
 20
2.560000000000001
 30
0.0
 41
0.7071067826738272
 10
-8.621723383299996
 20
2.56
 30
0.0
 41
1.0
  0
SPLINE
  5
195
330
1F
100
AcDbEntity
  8
Make2D visible lines
100
AcDbSpline
210
0.0
220
0.0
230
1.0
 70
    24
 71
     2
 72
     6
 73
     3
 74
     0
 42
0.0000000001
 43
0.0000000001
 40
0.0
 40
0.0
 40
0.0
 40
0.3520000000000003
 40
0.3520000000000003
 40
0.3520000000000003
 10
-8.621723383299996
 20
2.56
 30
0.0
 10
-8.445723383299995
 20
2.56
 30
0.0
 10
-8.269723383299997
 20
2.56
 30
0.0
  0
SPLINE
  5
196
330
1F
100
AcDbEntity
  8
Make2D visible lines
100
AcDbSpline
210
0.0
220
0.0
230
1.0
 70
    12
 71
     2
 72
     8
 73
     5
 74
     0
 42
0.0000000001
 43
0.0000000001
 40
-0.1099557508386414
 40
-0.1099557508386414
 40
-0.1099557508386414
 40
-0.0549778754193184
 40
-0.0549778754193184
 40
0.0
 40
0.0
 40
0.0
 10
-8.269723383299997
 20
2.56
 30
0.0
 41
1.0
 10
-8.240728431601571
 20
2.56
 30
0.0
 41
0.9238795216280236
 10
-8.220225905801595
 20
2.53949747186771
 30
0.0
 41
1.0
 10
-8.199723380001616
 20
2.518994943735425
 30
0.0
 41
0.9238795216280324
 10
-8.199723383299999
 20
2.487552711763898
 30
0.0
 41
1.0
  0
SPLINE
  5
197
330
1F
100
AcDbEntity
  8
Make2D visible lines
100
AcDbSpline
210
0.0
220
0.0
230
1.0
 70
    24
 71
     2
 72
     6
 73
     3
 74
     0
 42
0.0000000001
 43
0.0000000001
 40
-2.415105433753071
 40
-2.415105433753071
 40
-2.415105433753071
 40
0.0
 40
0.0
 40
0.0
 10
-7.273723383299997
 20
2.487552716876536
 30
0.0
 10
-7.273723383299997
 20
1.278776359858268
 30
0.0
 10
-7.273723383299997
 20
0.0700000028400005
 30
0.0
  0
SPLINE
  5
198
330
1F
100
AcDbEntity
  8
Make2D visible lines
100
AcDbSpline
210
0.0
220
0.0
230
1.0
 70
    12
 71
     2
 72
     6
 73
     3
 74
     0
 42
0.0000000001
 43
0.0000000001
 40
0.0
 40
0.0
 40
0.0
 40
0.1099557457156439
 40
0.1099557457156439
 40
0.1099557457156439
 10
-7.273723383299997
 20
0.0700000028400005
 30
0.0
 41
1.0
 10
-7.273723386139999
 20
0.0
 30
0.0
 41
0.7071067668423728
 10
-7.203723383299996
 20
-0.0000000000000001
 30
0.0
 41
1.0
  0
SPLINE
  5
199
330
1F
100
AcDbEntity
  8
Make2D visible lines
100
AcDbSpline
210
0.0
220
0.0
230
1.0
 70
    24
 71
     2
 72
     6
 73
     3
 74
     0
 42
0.0000000001
 43
0.0000000001
 40
0.0
 40
0.0
 40
0.0
 40
0.3520000000000003
 40
0.3520000000000003
 40
0.3520000000000003
 10
-7.203723383299996
 20
-0.0000000000000001
 30
0.0
 10
-7.027723383299996
 20
0.0
 30
0.0
 10
-6.851723383299996
 20
0.0
 30
0.0
  0
SPLINE
  5
19A
330
1F
100
AcDbEntity
  8
Make2D visible lines
100
AcDbSpline
210
0.0
220
0.0
230
1.0
 70
    12
 71
     2
 72
     6
 73
     3
 74
     0
 42
0.0000000001
 43
0.0000000001
 40
0.0
 40
0.0
 40
0.0
 40
0.2356194519512337
 40
0.2356194519512337
 40
0.2356194519512337
 10
-6.851723383299996
 20
0.0
 30
0.0
 41
1.0
 10
-6.701723380367998
 20
0.000000000000002
 30
0.0
 41
0.7071067742757676
 10
-6.701723383299997
 20
0.1500000029319999
 30
0.0
 41
1.0
  0
SPLINE
  5
19B
330
1F
100
AcDbEntity
  8
Make2D visible lines
100
AcDbSpline
210
0.0
220
0.0
230
1.0
 70
    24
 71
     2
 72
     6
 73
     3
 74
     0
 42
0.0000000001
 43
0.0000000001
 40
0.0
 40
0.0
 40
0.0
 40
2.255429040880414
 40
2.255429040880414
 40
2.255429040880414
 10
-6.701723383299997
 20
0.1500000029319999
 30
0.0
 10
-6.701723383299997
 20
1.278857261686103
 30
0.0
 10
-6.701723383299997
 20
2.407714520440207
 30
0.0
  0
SPLINE
  5
19C
330
1F
100
AcDbEntity
  8
Make2D visible lines
100
AcDbSpline
210
0.0
220
0.0
230
1.0
 70
    12
 71
     2
 72
     6
 73
     3
 74
     0
 42
0.0000000001
 43
0.0000000001
 40
0.0
 40
0.0
 40
0.0
 40
0.2356194519512344
 40
0.2356194519512344
 40
0.2356194519512344
 10
-6.701723383299997
 20
2.407714520440207
 30
0.0
 41
1.0
 10
-6.701723380367997
 20
2.56
 30
0.0
 41
0.7071067742757604
 10
-6.851723383299996
 20
2.56
 30
0.0
 41
1.0
  0
SPLINE
  5
19D
330
1F
100
AcDbEntity
  8
Make2D visible lines
100
AcDbSpline
210
0.0
220
0.0
230
1.0
 70
    24
 71
     2
 72
     6
 73
     3
 74
     0
 42
0.0000000001
 43
0.0000000001
 40
0.0
 40
0.0
 40
0.0
 40
0.3520000000000003
 40
0.3520000000000003
 40
0.3520000000000003
 10
-6.851723383299996
 20
2.56
 30
0.0
 10
-7.027723383299996
 20
2.56
 30
0.0
 10
-7.203723383299996
 20
2.56
 30
0.0
  0
SPLINE
  5
19E
330
1F
100
AcDbEntity
  8
Make2D visible lines
100
AcDbSpline
210
0.0
220
0.0
230
1.0
 70
    12
 71
     2
 72
     6
 73
     3
 74
     0
 42
0.0000000001
 43
0.0000000001
 40
0.0
 40
0.0
 40
0.0
 40
0.1099557457156434
 40
0.1099557457156434
 40
0.1099557457156434
 10
-7.203723383299996
 20
2.56
 30
0.0
 41
1.0
 10
-7.273723386139998
 20
2.56
 30
0.0
 41
0.7071067668423767
 10
-7.273723383299997
 20
2.487552716876536
 30
0.0
 41
1.0
  0
SPLINE
  5
19F
330
1F
100
AcDbEntity
  8
Make2D visible lines
100
AcDbSpline
210
0.0
220
0.0
230
1.0
 70
    24
 71
     2
 72
     6
 73
     3
 74
     0
 42
0.0000000001
 43
0.0000000001
 40
0.0
 40
0.0
 40
0.0
 40
0.0689999999999991
 40
0.0689999999999991
 40
0.0689999999999991
 10
-7.342723383299996
 20
1.595000000000001
 30
0.0
 10
-7.308223383299996
 20
1.595000000000001
 30
0.0
 10
-7.273723383299997
 20
1.595000000000001
 30
0.0
  0
SPLINE
  5
1A0
330
1F
100
AcDbEntity
  8
Make2D visible lines
100
AcDbSpline
210
0.0
220
0.0
230
1.0
 70
    24
 71
     2
 72
     6
 73
     3
 74
     0
 42
0.0000000001
 43
0.0000000001
 40
0.0
 40
0.0
 40
0.0
 40
0.9260000000000002
 40
0.9260000000000002
 40
0.9260000000000002
 10
-7.273723383299997
 20
0.9650000000000016
 30
0.0
 10
-7.736723383299998
 20
0.9650000000000016
 30
0.0
 10
-8.199723383299999
 20
0.9650000000000016
 30
0.0
  0
SPLINE
  5
1A1
330
1F
100
AcDbEntity
  8
Make2D visible lines
100
AcDbSpline
210
0.0
220
0.0
230
1.0
 70
    24
 71
     2
 72
     6
 73
     3
 74
     0
 42
0.0000000001
 43
0.0000000001
 40
0.0
 40
0.0
 40
0.0
 40
0.0690000000000008
 40
0.0690000000000008
 40
0.0690000000000008
 10
-8.199723383299999
 20
1.595000000000001
 30
0.0
 10
-8.165223383299997
 20
1.595000000000001
 30
0.0
 10
-8.130723383299996
 20
1.595000000000001
 30
0.0
  0
SPLINE
  5
1A2
330
1F
100
AcDbEntity
  8
Make2D visible lines
100
AcDbSpline
210
0.0
220
0.0
230
1.0
 70
     8
 71
     3
 72
    12
 73
     8
 74
     0
 42
0.0000000001
 43
0.0000000001
 40
0.0
 40
0.0
 40
0.0
 40
0.0
 40
0.1463411183411369
 40
0.2853842069860231
 40
0.4774826785392335
 40
0.6695434217140405
 40
0.9551044705190225
 40
0.9551044705190225
 40
0.9551044705190225
 40
0.9551044705190225
 10
-7.3927233833
 20
2.135695657233184
 30
0.0
 10
-7.413281236588784
 20
2.092235288994199
 30
0.0
 10
-7.468515601759259
 20
2.011139443753334
 30
0.0
 10
-7.567462974376896
 20
1.892867635552798
 30
0.0
 10
-7.737845440740765
 20
1.800191929265525
 30
0.0
 10
-7.949823775274854
 20
1.918743261260477
 30
0.0
 10
-8.034011522679057
 20
2.051490853594749
 30
0.0
 10
-8.080723383299995
 20
2.135695657233184
 30
0.0
  0
SPLINE
  5
1A3
330
1F
100
AcDbEntity
  8
Make2D visible lines
100
AcDbSpline
210
0.0
220
0.0
230
1.0
 70
    12
 71
     2
 72
     6
 73
     3
 74
     0
 42
0.0000000001
 43
0.0000000001
 40
0.0
 40
0.0
 40
0.0
 40
0.1228476419690088
 40
0.1228476419690088
 40
0.1228476419690088
 10
-7.3927233833
 20
2.135695657233184
 30
0.0
 41
1.0
 10
-7.35740756176717
 20
2.186799143881471
 30
0.0
 41
0.9832969456840381
 10
-7.342723387830643
 20
2.247157644806792
 30
0.0
 41
1.0
  0
SPLINE
  5
1A4
330
1F
100
AcDbEntity
  8
Make2D visible lines
100
AcDbSpline
210
0.0
220
0.0
230
1.0
 70
    12
 71
     2
 72
     6
 73
     3
 74
     0
 42
0.0000000001
 43
0.0000000001
 40
0.0
 40
0.0
 40
0.0
 40
0.1227840813427634
 40
0.1227840813427634
 40
0.1227840813427634
 10
-8.080723383299995
 20
2.135695657233184
 30
0.0
 41
1.0
 10
-8.115540250748406
 20
2.187022966392655
 30
0.0
 41
0.9848379823800321
 10
-8.130723378769352
 20
2.247157644806793
 30
0.0
 41
1.0
  0
SPLINE
  5
1A5
330
1F
100
AcDbEntity
  8
Make2D visible lines
100
AcDbSpline
210
0.0
220
0.0
230
1.0
 70
    12
 71
     2
 72
     6
 73
     3
 74
     0
 42
0.0000000001
 43
0.0000000001
 40
0.0
 40
0.0
 40
0.0
 40
0.1227840813427634
 40
0.1227840813427634
 40
0.1227840813427634
 10
-12.86228139573
 20
2.135695657233184
 30
0.0
 41
1.0
 10
-12.89709826317841
 20
2.187022966392655
 30
0.0
 41
0.9848379823800321
 10
-12.91228139119935
 20
2.247157644806793
 30
0.0
 41
1.0
  0
SPLINE
  5
1A6
330
1F
100
AcDbEntity
  8
Make2D visible lines
100
AcDbSpline
210
0.0
220
0.0
230
1.0
 70
    12
 71
     2
 72
     6
 73
     3
 74
     0
 42
0.0000000001
 43
0.0000000001
 40
0.0
 40
0.0
 40
0.0
 40
0.1228476419690088
 40
0.1228476419690088
 40
0.1228476419690088
 10
-12.17428139573
 20
2.135695657233184
 30
0.0
 41
1.0
 10
-12.13896557419717
 20
2.186799143881471
 30
0.0
 41
0.9832969456840381
 10
-12.12428140026065
 20
2.247157644806792
 30
0.0
 41
1.0
  0
SPLINE
  5
1A7
330
1F
100
AcDbEntity
  8
Make2D visible lines
100
AcDbSpline
210
0.0
220
0.0
230
1.0
 70
     8
 71
     3
 72
    12
 73
     8
 74
     0
 42
0.0000000001
 43
0.0000000001
 40
0.0
 40
0.0
 40
0.0
 40
0.0
 40
0.1463411183411369
 40
0.2853842069860231
 40
0.4774826785392335
 40
0.6695434217140405
 40
0.9551044705190225
 40
0.9551044705190225
 40
0.9551044705190225
 40
0.9551044705190225
 10
-12.17428139573
 20
2.135695657233184
 30
0.0
 10
-12.19483924901879
 20
2.092235288994199
 30
0.0
 10
-12.25007361418926
 20
2.011139443753334
 30
0.0
 10
-12.3490209868069
 20
1.892867635552798
 30
0.0
 10
-12.51940345317077
 20
1.800191929265525
 30
0.0
 10
-12.73138178770486
 20
1.918743261260477
 30
0.0
 10
-12.81556953510906
 20
2.051490853594749
 30
0.0
 10
-12.86228139573
 20
2.135695657233184
 30
0.0
  0
SPLINE
  5
1A8
330
1F
100
AcDbEntity
  8
Make2D visible lines
100
AcDbSpline
210
0.0
220
0.0
230
1.0
 70
    24
 71
     2
 72
     6
 73
     3
 74
     0
 42
0.0000000001
 43
0.0000000001
 40
0.0
 40
0.0
 40
0.0
 40
0.0690000000000008
 40
0.0690000000000008
 40
0.0690000000000008
 10
-12.98128139573
 20
1.595000000000001
 30
0.0
 10
-12.94678139573
 20
1.595000000000001
 30
0.0
 10
-12.91228139573
 20
1.595000000000001
 30
0.0
  0
SPLINE
  5
1A9
330
1F
100
AcDbEntity
  8
Make2D visible lines
100
AcDbSpline
210
0.0
220
0.0
230
1.0
 70
    24
 71
     2
 72
     6
 73
     3
 74
     0
 42
0.0000000001
 43
0.0000000001
 40
0.0
 40
0.0
 40
0.0
 40
0.9260000000000002
 40
0.9260000000000002
 40
0.9260000000000002
 10
-12.05528139573
 20
0.9650000000000016
 30
0.0
 10
-12.51828139573
 20
0.9650000000000016
 30
0.0
 10
-12.98128139573
 20
0.9650000000000016
 30
0.0
  0
SPLINE
  5
1AA
330
1F
100
AcDbEntity
  8
Make2D visible lines
100
AcDbSpline
210
0.0
220
0.0
230
1.0
 70
    24
 71
     2
 72
     6
 73
     3
 74
     0
 42
0.0000000001
 43
0.0000000001
 40
0.0
 40
0.0
 40
0.0
 40
0.0689999999999991
 40
0.0689999999999991
 40
0.0689999999999991
 10
-12.12428139573
 20
1.595000000000001
 30
0.0
 10
-12.08978139573
 20
1.595000000000001
 30
0.0
 10
-12.05528139573
 20
1.595000000000001
 30
0.0
  0
SPLINE
  5
1AB
330
1F
100
AcDbEntity
  8
Make2D visible lines
100
AcDbSpline
210
0.0
220
0.0
230
1.0
 70
    24
 71
     2
 72
     6
 73
     3
 74
     0
 42
0.0000000001
 43
0.0000000001
 40
-2.415105433753071
 40
-2.415105433753071
 40
-2.415105433753071
 40
0.0
 40
0.0
 40
0.0
 10
-12.05528139573
 20
2.487552716876536
 30
0.0
 10
-12.05528139573
 20
1.278776359858268
 30
0.0
 10
-12.05528139573
 20
0.0700000028400005
 30
0.0
  0
SPLINE
  5
1AC
330
1F
100
AcDbEntity
  8
Make2D visible lines
100
AcDbSpline
210
0.0
220
0.0
230
1.0
 70
    12
 71
     2
 72
     6
 73
     3
 74
     0
 42
0.0000000001
 43
0.0000000001
 40
0.0
 40
0.0
 40
0.0
 40
0.1099557457156439
 40
0.1099557457156439
 40
0.1099557457156439
 10
-12.05528139573
 20
0.0700000028400005
 30
0.0
 41
1.0
 10
-12.05528139857
 20
0.0
 30
0.0
 41
0.7071067668423728
 10
-11.98528139573
 20
-0.0000000000000001
 30
0.0
 41
1.0
  0
SPLINE
  5
1AD
330
1F
100
AcDbEntity
  8
Make2D visible lines
100
AcDbSpline
210
0.0
220
0.0
230
1.0
 70
    24
 71
     2
 72
     6
 73
     3
 74
     0
 42
0.0000000001
 43
0.0000000001
 40
0.0
 40
0.0
 40
0.0
 40
0.3520000000000003
 40
0.3520000000000003
 40
0.3520000000000003
 10
-11.98528139573
 20
-0.0000000000000001
 30
0.0
 10
-11.80928139573
 20
0.0
 30
0.0
 10
-11.63328139573
 20
0.0
 30
0.0
  0
SPLINE
  5
1AE
330
1F
100
AcDbEntity
  8
Make2D visible lines
100
AcDbSpline
210
0.0
220
0.0
230
1.0
 70
    12
 71
     2
 72
     6
 73
     3
 74
     0
 42
0.0000000001
 43
0.0000000001
 40
0.0
 40
0.0
 40
0.0
 40
0.2356194519512337
 40
0.2356194519512337
 40
0.2356194519512337
 10
-11.63328139573
 20
0.0
 30
0.0
 41
1.0
 10
-11.483281392798
 20
0.000000000000002
 30
0.0
 41
0.7071067742757676
 10
-11.48328139573
 20
0.1500000029319999
 30
0.0
 41
1.0
  0
SPLINE
  5
1AF
330
1F
100
AcDbEntity
  8
Make2D visible lines
100
AcDbSpline
210
0.0
220
0.0
230
1.0
 70
    24
 71
     2
 72
     6
 73
     3
 74
     0
 42
0.0000000001
 43
0.0000000001
 40
0.0
 40
0.0
 40
0.0
 40
2.255429040880414
 40
2.255429040880414
 40
2.255429040880414
 10
-11.48328139573
 20
0.1500000029319999
 30
0.0
 10
-11.48328139573
 20
1.278857261686103
 30
0.0
 10
-11.48328139573
 20
2.407714520440207
 30
0.0
  0
SPLINE
  5
1B0
330
1F
100
AcDbEntity
  8
Make2D visible lines
100
AcDbSpline
210
0.0
220
0.0
230
1.0
 70
    12
 71
     2
 72
     6
 73
     3
 74
     0
 42
0.0000000001
 43
0.0000000001
 40
0.0
 40
0.0
 40
0.0
 40
0.2356194519512344
 40
0.2356194519512344
 40
0.2356194519512344
 10
-11.48328139573
 20
2.407714520440207
 30
0.0
 41
1.0
 10
-11.483281392798
 20
2.56
 30
0.0
 41
0.7071067742757604
 10
-11.63328139573
 20
2.56
 30
0.0
 41
1.0
  0
SPLINE
  5
1B1
330
1F
100
AcDbEntity
  8
Make2D visible lines
100
AcDbSpline
210
0.0
220
0.0
230
1.0
 70
    24
 71
     2
 72
     6
 73
     3
 74
     0
 42
0.0000000001
 43
0.0000000001
 40
0.0
 40
0.0
 40
0.0
 40
0.3520000000000003
 40
0.3520000000000003
 40
0.3520000000000003
 10
-11.63328139573
 20
2.56
 30
0.0
 10
-11.80928139573
 20
2.56
 30
0.0
 10
-11.98528139573
 20
2.56
 30
0.0
  0
SPLINE
  5
1B2
330
1F
100
AcDbEntity
  8
Make2D visible lines
100
AcDbSpline
210
0.0
220
0.0
230
1.0
 70
    12
 71
     2
 72
     6
 73
     3
 74
     0
 42
0.0000000001
 43
0.0000000001
 40
0.0
 40
0.0
 40
0.0
 40
0.1099557457156434
 40
0.1099557457156434
 40
0.1099557457156434
 10
-11.98528139573
 20
2.56
 30
0.0
 41
1.0
 10
-12.05528139857
 20
2.56
 30
0.0
 41
0.7071067668423767
 10
-12.05528139573
 20
2.487552716876536
 30
0.0
 41
1.0
  0
SPLINE
  5
1B3
330
1F
100
AcDbEntity
  8
Make2D visible lines
100
AcDbSpline
210
0.0
220
0.0
230
1.0
 70
    24
 71
     2
 72
     6
 73
     3
 74
     0
 42
0.0000000001
 43
0.0000000001
 40
-2.415105423527796
 40
-2.415105423527796
 40
-2.415105423527796
 40
0.0
 40
0.0
 40
0.0
 10
-12.98128139573
 20
2.487552711763898
 30
0.0
 10
-12.98128139573
 20
1.278776359863449
 30
0.0
 10
-12.98128139573
 20
0.0700000079629994
 30
0.0
  0
SPLINE
  5
1B4
330
1F
100
AcDbEntity
  8
Make2D visible lines
100
AcDbSpline
210
0.0
220
0.0
230
1.0
 70
    12
 71
     2
 72
     8
 73
     5
 74
     0
 42
0.0000000001
 43
0.0000000001
 40
-0.1099557508386429
 40
-0.1099557508386429
 40
-0.1099557508386429
 40
-0.0549778754193212
 40
-0.0549778754193212
 40
0.0
 40
0.0
 40
0.0
 10
-12.98128139573
 20
0.0700000079629994
 30
0.0
 41
1.0
 10
-12.98128139243162
 20
0.0410050562645741
 30
0.0
 41
0.9238795216280429
 10
-13.0017839182316
 20
0.0205025281322868
 30
0.0
 41
1.0
 10
-13.02228644403157
 20
0.0
 30
0.0
 41
0.923879521628049
 10
-13.05128139573
 20
0.0
 30
0.0
 41
1.0
  0
SPLINE
  5
1B5
330
1F
100
AcDbEntity
  8
Make2D visible lines
100
AcDbSpline
210
0.0
220
0.0
230
1.0
 70
    24
 71
     2
 72
     6
 73
     3
 74
     0
 42
0.0000000001
 43
0.0000000001
 40
0.0
 40
0.0
 40
0.0
 40
0.3520000000000003
 40
0.3520000000000003
 40
0.3520000000000003
 10
-13.05128139573
 20
0.0
 30
0.0
 10
-13.22728139573
 20
0.0
 30
0.0
 10
-13.40328139573
 20
0.0
 30
0.0
  0
SPLINE
  5
1B6
330
1F
100
AcDbEntity
  8
Make2D visible lines
100
AcDbSpline
210
0.0
220
0.0
230
1.0
 70
    12
 71
     2
 72
     6
 73
     3
 74
     0
 42
0.0000000001
 43
0.0000000001
 40
0.0
 40
0.0
 40
0.0
 40
0.2356194483882336
 40
0.2356194483882336
 40
0.2356194483882336
 10
-13.40328139573
 20
0.0
 30
0.0
 41
1.0
 10
-13.553281395099
 20
0.0
 30
0.0
 41
0.7071067826738353
 10
-13.55328139573
 20
0.1499999993689993
 30
0.0
 41
1.0
  0
SPLINE
  5
1B7
330
1F
100
AcDbEntity
  8
Make2D visible lines
100
AcDbSpline
210
0.0
220
0.0
230
1.0
 70
    24
 71
     2
 72
     6
 73
     3
 74
     0
 42
0.0000000001
 43
0.0000000001
 40
-2.260000001262
 40
-2.260000001262
 40
-2.260000001262
 40
0.0
 40
0.0
 40
0.0
 10
-13.55328139573
 20
0.1499999993689993
 30
0.0
 10
-13.55328139573
 20
1.279999999999999
 30
0.0
 10
-13.55328139573
 20
2.410000000630999
 30
0.0
  0
SPLINE
  5
1B8
330
1F
100
AcDbEntity
  8
Make2D visible lines
100
AcDbSpline
210
0.0
220
0.0
230
1.0
 70
    12
 71
     2
 72
     6
 73
     3
 74
     0
 42
0.0000000001
 43
0.0000000001
 40
0.0
 40
0.0
 40
0.0
 40
0.2356194483882358
 40
0.2356194483882358
 40
0.2356194483882358
 10
-13.55328139573
 20
2.410000000630999
 30
0.0
 41
1.0
 10
-13.553281395099
 20
2.560000000000001
 30
0.0
 41
0.7071067826738272
 10
-13.40328139573
 20
2.56
 30
0.0
 41
1.0
  0
SPLINE
  5
1B9
330
1F
100
AcDbEntity
  8
Make2D visible lines
100
AcDbSpline
210
0.0
220
0.0
230
1.0
 70
    24
 71
     2
 72
     6
 73
     3
 74
     0
 42
0.0000000001
 43
0.0000000001
 40
0.0
 40
0.0
 40
0.0
 40
0.3520000000000003
 40
0.3520000000000003
 40
0.3520000000000003
 10
-13.40328139573
 20
2.56
 30
0.0
 10
-13.22728139573
 20
2.56
 30
0.0
 10
-13.05128139573
 20
2.56
 30
0.0
  0
SPLINE
  5
1BA
330
1F
100
AcDbEntity
  8
Make2D visible lines
100
AcDbSpline
210
0.0
220
0.0
230
1.0
 70
    12
 71
     2
 72
     8
 73
     5
 74
     0
 42
0.0000000001
 43
0.0000000001
 40
-0.1099557508386414
 40
-0.1099557508386414
 40
-0.1099557508386414
 40
-0.0549778754193184
 40
-0.0549778754193184
 40
0.0
 40
0.0
 40
0.0
 10
-13.05128139573
 20
2.56
 30
0.0
 41
1.0
 10
-13.02228644403157
 20
2.56
 30
0.0
 41
0.9238795216280236
 10
-13.0017839182316
 20
2.53949747186771
 30
0.0
 41
1.0
 10
-12.98128139243162
 20
2.518994943735425
 30
0.0
 41
0.9238795216280324
 10
-12.98128139573
 20
2.487552711763898
 30
0.0
 41
1.0
  0
SPLINE
  5
1BB
330
1F
100
AcDbEntity
  8
Default
100
AcDbSpline
210
0.0
220
0.0
230
1.0
 70
    12
 71
     2
 72
     6
 73
     3
 74
     0
 42
0.0000000001
 43
0.0000000001
 40
-0.0205148466803361
 40
-0.0205148466803361
 40
-0.0205148466803361
 40
0.0
 40
0.0
 40
0.0
 10
-12.12739467758714
 20
1.321916756511124
 30
0.0
 41
1.0
 10
-12.12465045721535
 20
1.331850316586209
 30
0.0
 41
0.9929165310438545
 10
-12.12432822671823
 20
1.342150924790038
 30
0.0
 41
0.9999992470307488
  0
SPLINE
  5
1BC
330
1F
100
AcDbEntity
  8
Default
100
AcDbSpline
210
0.0
220
0.0
230
1.0
 70
    12
 71
     2
 72
     6
 73
     3
 74
     0
 42
0.0000000001
 43
0.0000000001
 40
-0.1306670865212424
 40
-0.1306670865212424
 40
-0.1306670865212424
 40
0.0
 40
0.0
 40
0.0
 10
-12.12432822671823
 20
1.342150924790038
 30
0.0
 41
1.0
 10
-12.12708470200503
 20
1.259999371951817
 30
0.0
 41
0.7188571908882943
 10
-12.20928139703665
 20
1.260000489392885
 30
0.0
 41
1.0
  0
SPLINE
  5
1BD
330
1F
100
AcDbEntity
  8
Default
100
AcDbSpline
210
0.0
220
0.0
230
1.0
 70
    24
 71
     2
 72
     6
 73
     3
 74
     0
 42
0.0000000001
 43
0.0000000001
 40
-0.6179999986728006
 40
-0.6179999986728006
 40
-0.6179999986728006
 40
0.0
 40
0.0
 40
0.0
 10
-12.20928139703665
 20
1.260000489392885
 30
0.0
 10
-12.51828139637305
 20
1.260000489380662
 30
0.0
 10
-12.82728139570945
 20
1.260000489368439
 30
0.0
  0
SPLINE
  5
1BE
330
1F
100
AcDbEntity
  8
Default
100
AcDbSpline
210
0.0
220
0.0
230
1.0
 70
    12
 71
     2
 72
     6
 73
     3
 74
     0
 42
0.0000000001
 43
0.0000000001
 40
-0.1306642149348706
 40
-0.1306642149348706
 40
-0.1306642149348706
 40
0.0
 40
0.0
 40
0.0
 10
-12.82728139570945
 20
1.260000489368439
 30
0.0
 41
1.0
 10
-12.90947530938752
 20
1.259999377635789
 30
0.0
 41
0.7188689686272367
 10
-12.91225732744545
 20
1.343573495961616
 30
0.0
 41
1.0
  0
LINE
  5
1BF
330
1F
100
AcDbEntity
  8
Default
100
AcDbLine
 10
-12.91225732744545
 20
1.343573495961616
 30
0.0
 11
-12.91228150966132
 21
2.719999999999945
 31
0.0
  0
SPLINE
  5
1C0
330
1F
100
AcDbEntity
  8
Default
100
AcDbSpline
210
0.0
220
0.0
230
1.0
 70
    12
 71
     2
 72
     8
 73
     5
 74
     0
 42
0.0000000001
 43
0.0000000001
 40
-0.0628318931243996
 40
-0.0628318931243996
 40
-0.0628318931243996
 40
-0.0314159465621985
 40
-0.0314159465621985
 40
0.0
 40
0.0
 40
0.0
 10
-12.91228150966132
 20
2.719999999999945
 30
0.0
 41
1.0
 10
-12.91228139573
 20
2.736568554226062
 30
0.0
 41
0.923879436714611
 10
-12.90056565281673
 20
2.748284285408195
 30
0.0
 41
1.0
 10
-12.88884990990345
 20
2.760000016590326
 30
0.0
 41
0.9238794367145934
 10
-12.8722813556774
 20
2.759999999999986
 30
0.0
 41
1.0
  0
POLYLINE
  5
1C1
330
1F
100
AcDbEntity
  8
Default
100
AcDb2dPolyline
 66
     1
 10
0.0
 20
0.0
 30
0.0
  0
VERTEX
  5
1C2
330
1C1
100
AcDbEntity
  8
Default
100
AcDbVertex
100
AcDb2dVertex
 10
-12.8722813556774
 20
2.759999999999986
 30
0.0
  0
VERTEX
  5
1C3
330
1C1
100
AcDbEntity
  8
Default
100
AcDbVertex
100
AcDb2dVertex
 10
-12.1642814370687
 20
2.759999999999986
 30
0.0
  0
SEQEND
  5
1C4
330
1C1
100
AcDbEntity
  8
Default
  0
SPLINE
  5
1C5
330
1F
100
AcDbEntity
  8
Default
100
AcDbSpline
210
0.0
220
0.0
230
1.0
 70
    12
 71
     2
 72
     8
 73
     5
 74
     0
 42
0.0000000001
 43
0.0000000001
 40
0.0
 40
0.0
 40
0.0
 40
0.0314159465621985
 40
0.0314159465621985
 40
0.0628318931243996
 40
0.0628318931243996
 40
0.0628318931243996
 10
-12.1642814370687
 20
2.759999999999986
 30
0.0
 41
1.0
 10
-12.14771288284265
 20
2.760000016590326
 30
0.0
 41
0.9238794367145934
 10
-12.13599713992938
 20
2.748284285408195
 30
0.0
 41
1.0
 10
-12.1242813970161
 20
2.736568554226062
 30
0.0
 41
0.923879436714611
 10
-12.12428128308478
 20
2.719999999999945
 30
0.0
 41
1.0
  0
LINE
  5
1C6
330
1F
100
AcDbEntity
  8
Default
100
AcDbLine
 10
-12.12428128308478
 20
2.719999999999945
 30
0.0
 11
-12.12430546530065
 21
1.343573495961616
 31
0.0
  0
SPLINE
  5
1C7
330
1F
100
AcDbEntity
  8
Make2D visible lines
100
AcDbSpline
210
0.0
220
0.0
230
1.0
 70
    24
 71
     2
 72
     6
 73
     3
 74
     0
 42
0.0000000001
 43
0.0000000001
 40
0.0
 40
0.0
 40
0.0
 40
2.58
 40
2.58
 40
2.58
 10
-1.289999999999999
 20
7.319999999999993
 30
0.0
 10
0.0000000000000009
 20
7.319999999999993
 30
0.0
 10
1.290000000000001
 20
7.319999999999993
 30
0.0
  0
SPLINE
  5
1C8
330
1F
100
AcDbEntity
  8
Make2D visible lines
100
AcDbSpline
210
0.0
220
0.0
230
1.0
 70
    24
 71
     2
 72
     6
 73
     3
 74
     0
 42
0.0000000001
 43
0.0000000001
 40
0.0
 40
0.0
 40
0.0
 40
0.0400060931217512
 40
0.0400060931217512
 40
0.0400060931217512
 10
1.199301797402622
 20
7.319999999999991
 30
0.0
 10
1.199650898701165
 20
7.299999999999994
 30
0.0
 10
1.199999999999708
 20
7.279999999999996
 30
0.0
  0
SPLINE
  5
1C9
330
1F
100
AcDbEntity
  8
Make2D visible lines
100
AcDbSpline
210
0.0
220
0.0
230
1.0
 70
    24
 71
     2
 72
     6
 73
     3
 74
     0
 42
0.0000000001
 43
0.0000000001
 40
0.0
 40
0.0
 40
0.0
 40
0.0399213772270035
 40
0.0399213772270035
 40
0.0399213772270035
 10
-1.199998521503481
 20
7.280084702992102
 30
0.0
 10
-1.199650159453052
 20
7.300042351496047
 30
0.0
 10
-1.199301797402622
 20
7.319999999999991
 30
0.0
  0
SPLINE
  5
1CA
330
1F
100
AcDbEntity
  8
Make2D visible lines
100
AcDbSpline
210
0.0
220
0.0
230
1.0
 70
     8
 71
     3
 72
    10
 73
     6
 74
     0
 42
0.0000000001
 43
0.0000000001
 40
0.0
 40
0.0
 40
0.0
 40
0.0
 40
0.1391330979403417
 40
0.4324509644282648
 40
0.6069566116810106
 40
0.6069566116810106
 40
0.6069566116810106
 40
0.6069566116810106
 10
-0.372341809286814
 20
3.71621560366935
 30
0.0
 10
-0.375778393328865
 20
3.762523541766038
 30
0.0
 10
-0.3995594495262029
 20
3.904844969657872
 30
0.0
 10
-0.4521358506302917
 20
4.10043907930714
 30
0.0
 10
-0.4811972892511474
 20
4.25370276395725
 30
0.0
 10
-0.4919398215763238
 20
4.310860686608981
 30
0.0
  0
SPLINE
  5
1CB
330
1F
100
AcDbEntity
  8
Make2D visible lines
100
AcDbSpline
210
0.0
220
0.0
230
1.0
 70
     8
 71
     3
 72
    10
 73
     6
 74
     0
 42
0.0000000001
 43
0.0000000001
 40
0.0
 40
0.0
 40
0.0
 40
0.0
 40
0.1433698128057911
 40
0.4430225636810531
 40
0.6174910235575549
 40
0.6174910235575549
 40
0.6174910235575549
 40
0.6174910235575549
 10
0.3713722818984841
 20
3.706431423623549
 30
0.0
 10
0.3747594189904628
 20
3.754160023142436
 30
0.0
 10
0.3980913625064755
 20
3.900127902315828
 30
0.0
 10
0.4518920455993438
 20
4.09909627514287
 30
0.0
 10
0.4810290329776841
 20
4.254465881479404
 30
0.0
 10
0.4919039992344878
 20
4.311590862398229
 30
0.0
  0
SPLINE
  5
1CC
330
1F
100
AcDbEntity
  8
Make2D visible lines
100
AcDbSpline
210
0.0
220
0.0
230
1.0
 70
    12
 71
     2
 72
     8
 73
     5
 74
     0
 42
0.0000000001
 43
0.0000000001
 40
0.0
 40
0.0
 40
0.0
 40
0.0275193652394809
 40
0.0275193652394809
 40
0.0550387304789617
 40
0.0550387304789617
 40
0.0550387304789617
 10
-0.392469098286945
 20
2.795060859175598
 30
0.0
 41
1.0
 10
-0.3924943380273489
 20
2.780545578019801
 30
0.0
 41
0.9237130894356401
 10
-0.3822393962683055
 20
2.770272789031655
 30
0.0
 41
1.0
 10
-0.3719844545092662
 20
2.760000000043509
 30
0.0
 41
0.9237130894356401
 10
-0.3574691514095605
 20
2.759999999999999
 30
0.0
 41
1.0
  0
SPLINE
  5
1CD
330
1F
100
AcDbEntity
  8
Make2D visible lines
100
AcDbSpline
210
0.0
220
0.0
230
1.0
 70
    12
 71
     2
 72
     8
 73
     5
 74
     0
 42
0.0000000001
 43
0.0000000001
 40
0.0
 40
0.0
 40
0.0
 40
0.027519365239457
 40
0.027519365239457
 40
0.055038730478914
 40
0.055038730478914
 40
0.055038730478914
 10
0.3924690982870231
 20
2.795060859175598
 30
0.0
 41
1.0
 10
0.3924943380273974
 20
2.780545578019819
 30
0.0
 41
0.9237130894360682
 10
0.3822393962683694
 20
2.770272789031682
 30
0.0
 41
1.0
 10
0.3719844545093454
 20
2.760000000043546
 30
0.0
 41
0.9237130894360682
 10
0.3574691514096564
 20
2.76
 30
0.0
 41
1.0
  0
SPLINE
  5
1CE
330
1F
100
AcDbEntity
  8
Make2D visible lines
100
AcDbSpline
210
0.0
220
0.0
230
1.0
 70
    12
 71
     2
 72
     6
 73
     3
 74
     0
 42
0.0000000001
 43
0.0000000001
 40
0.0
 40
0.0
 40
0.0
 40
0.0483212497416666
 40
0.0483212497416666
 40
0.0483212497416666
 10
-7.339092164560495
 20
2.788441279212112
 30
0.0
 41
1.0
 10
-7.344577707264786
 20
2.760100728064051
 30
0.0
 41
0.7724816427213782
 10
-7.373444086878428
 20
2.760000000026418
 30
0.0
 41
1.0
  0
SPLINE
  5
1CF
330
1F
100
AcDbEntity
  8
Make2D visible lines
100
AcDbSpline
210
0.0
220
0.0
230
1.0
 70
    12
 71
     2
 72
     8
 73
     5
 74
     0
 42
0.0000000001
 43
0.0000000001
 40
0.0
 40
0.0
 40
0.0
 40
0.0286061523138886
 40
0.0286061523138886
 40
0.0572123046277773
 40
0.0572123046277773
 40
0.0572123046277773
 10
-8.09179832887641
 20
2.760000000000004
 30
0.0
 41
1.0
 10
-8.106948194180319
 20
2.760056392118597
 30
0.0
 41
0.9182200393676768
 10
-8.11730386400521
 20
2.771114497800655
 30
0.0
 41
1.0
 10
-8.127659533830098
 20
2.782172603482712
 30
0.0
 41
0.9182200393676768
 10
-8.12672295131464
 20
2.79729359591011
 30
0.0
 41
1.0
  0
SPLINE
  5
1D0
330
1F
100
AcDbEntity
  8
Make2D visible lines
100
AcDbSpline
210
0.0
220
0.0
230
1.0
 70
    12
 71
     2
 72
     8
 73
     5
 74
     0
 42
0.0000000001
 43
0.0000000001
 40
0.0
 40
0.0
 40
0.0
 40
0.0281928929716271
 40
0.0281928929716271
 40
0.0563857859432542
 40
0.0563857859432542
 40
0.0563857859432542
 10
-12.87419962211639
 20
2.760000000033125
 30
0.0
 41
1.0
 10
-12.8891051433937
 20
2.760054542525548
 30
0.0
 41
0.9205244397931974
 10
-12.89942123268554
 20
2.770813531379281
 30
0.0
 41
1.0
 10
-12.90973732197737
 20
2.781572520233012
 30
0.0
 41
0.9205244397931974
 10
-12.90916560420659
 20
2.796467172905111
 30
0.0
 41
1.0
  0
SPLINE
  5
1D1
330
1F
100
AcDbEntity
  8
Make2D visible lines
100
AcDbSpline
210
0.0
220
0.0
230
1.0
 70
    12
 71
     2
 72
     6
 73
     3
 74
     0
 42
0.0000000001
 43
0.0000000001
 40
0.0
 40
0.0
 40
0.0
 40
0.9451955936296548
 40
0.9451955936296548
 40
0.9451955936296548
 10
-0.3924691019662347
 20
2.795061688830217
 30
0.0
 41
1.0
 10
-0.3912492713989337
 20
3.267732525302891
 30
0.0
 41
0.9997632344084707
 10
-0.3694653196555304
 20
3.739902692811206
 30
0.0
 41
1.0
  0
SPLINE
  5
1D2
330
1F
100
AcDbEntity
  8
Make2D visible lines
100
AcDbSpline
210
0.0
220
0.0
230
1.0
 70
    12
 71
     2
 72
     6
 73
     3
 74
     0
 42
0.0000000001
 43
0.0000000001
 40
0.0
 40
0.0
 40
0.0
 40
0.9451941989567216
 40
0.9451941989567216
 40
0.9451941989567216
 10
0.3694653799216745
 20
3.739901312996954
 30
0.0
 41
1.0
 10
0.3912483426810571
 20
3.267731811760904
 30
0.0
 41
0.9997632778586072
 10
0.3924691019662365
 20
2.79506168883071
 30
0.0
 41
1.0
  0
SPLINE
  5
1D3
330
1F
100
AcDbEntity
  8
Make2D visible lines
100
AcDbSpline
210
0.0
220
0.0
230
1.0
 70
    24
 71
     2
 72
     6
 73
     3
 74
     0
 42
0.0000000001
 43
0.0000000001
 40
0.0
 40
0.0
 40
0.0
 40
2.580000000000013
 40
2.580000000000013
 40
2.580000000000013
 10
43.82422704339012
 20
7.319999999999992
 30
0.0
 10
42.53422704339012
 20
7.319999999999993
 30
0.0
 10
41.24422704339011
 20
7.319999999999993
 30
0.0
  0
SPLINE
  5
1D4
330
1F
100
AcDbEntity
  8
Make2D visible lines - Tangent
100
AcDbSpline
210
0.0
220
0.0
230
1.0
 70
     8
 71
     3
 72
    11
 73
     7
 74
     0
 42
0.0000000001
 43
0.0000000001
 40
0.0
 40
0.0
 40
0.0
 40
0.0
 40
0.1251400008539807
 40
0.249997976020166
 40
0.4891881354632792
 40
0.9100604574811362
 40
0.9100604574811362
 40
0.9100604574811362
 40
0.9100604574811362
 10
41.48458249113612
 20
6.854219928193997
 30
0.0
 10
41.48380982890389
 20
6.812537349420499
 30
0.0
 10
41.47779267886848
 20
6.729205092758733
 30
0.0
 10
41.44225416075601
 20
6.569608694327405
 30
0.0
 10
41.33489031283297
 20
6.32836481042481
 30
0.0
 10
41.15099887299256
 20
6.183549263645575
 30
0.0
 10
41.01165705997607
 20
6.155372616098385
 30
0.0
  0
SPLINE
  5
1D5
330
1F
100
AcDbEntity
  8
Make2D visible lines
100
AcDbSpline
210
0.0
220
0.0
230
1.0
 70
    12
 71
     2
 72
     8
 73
     5
 74
     0
 42
0.0000000001
 43
0.0000000001
 40
0.0
 40
0.0
 40
0.0
 40
2.010619298297465
 40
2.010619298297465
 40
4.021238596594936
 40
4.021238596594936
 40
4.021238596594936
 10
31.12569711447011
 20
0.0
 30
0.0
 41
1.0
 10
32.40569711447013
 20
0.0
 30
0.0
 41
0.7071067811865468
 10
32.40569711447012
 20
1.279999999999999
 30
0.0
 41
1.0
 10
32.40569711447012
 20
2.560000000000002
 30
0.0
 41
0.7071067811865471
 10
31.12569711447011
 20
2.560000000000002
 30
0.0
 41
1.0
  0
SPLINE
  5
1D6
330
1F
100
AcDbEntity
  8
Make2D visible lines - Tangent
100
AcDbSpline
210
0.0
220
0.0
230
1.0
 70
    12
 71
     2
 72
     8
 73
     5
 74
     0
 42
0.0000000001
 43
0.0000000001
 40
0.0
 40
0.0
 40
0.0
 40
1.520766455445226
 40
1.520766455445226
 40
3.041532910890458
 40
3.041532910890458
 40
3.041532910890458
 10
31.12569711447011
 20
2.248149994689799
 30
0.0
 41
1.0
 10
32.09384710915992
 20
2.248149994689784
 30
0.0
 41
0.7071067811865557
 10
32.09384710915991
 20
1.279999999999999
 30
0.0
 41
1.0
 10
32.0938471091599
 20
0.3118500053102179
 30
0.0
 41
0.7071067811865631
 10
31.12569711447011
 20
0.3118500053101894
 30
0.0
 41
1.0
  0
SPLINE
  5
1D7
330
1F
100
AcDbEntity
  8
Make2D visible lines - Tangent
100
AcDbSpline
210
0.0
220
0.0
230
1.0
 70
    12
 71
     2
 72
     8
 73
     5
 74
     0
 42
0.0000000001
 43
0.0000000001
 40
0.0
 40
0.0
 40
0.0
 40
1.520766455445231
 40
1.520766455445231
 40
3.04153291089047
 40
3.04153291089047
 40
3.04153291089047
 10
31.12569711447011
 20
0.3118500053102
 30
0.0
 41
1.0
 10
30.1575471197803
 20
0.3118500053102001
 30
0.0
 41
0.7071067811865446
 10
30.15754711978032
 20
1.279999999999999
 30
0.0
 41
1.0
 10
30.15754711978032
 20
2.248149994689805
 30
0.0
 41
0.707106781186544
 10
31.12569711447011
 20
2.248149994689805
 30
0.0
 41
1.0
  0
SPLINE
  5
1D8
330
1F
100
AcDbEntity
  8
Make2D visible lines
100
AcDbSpline
210
0.0
220
0.0
230
1.0
 70
    12
 71
     2
 72
     8
 73
     5
 74
     0
 42
0.0000000001
 43
0.0000000001
 40
0.0
 40
0.0
 40
0.0
 40
2.010589900836999
 40
2.010589900836999
 40
4.021209199134468
 40
4.021209199134468
 40
4.021209199134468
 10
31.12566771700966
 20
2.559999999662418
 30
0.0
 41
1.0
 10
29.84569711447011
 20
2.559970602877123
 30
0.0
 41
0.7071149011179003
 10
29.84569711447014
 20
1.28
 30
0.0
 41
1.0
 10
29.84569711447009
 20
-0.0000000000000256
 30
0.0
 41
0.7071067811865291
 10
31.12569711447011
 20
0.0000000000000029
 30
0.0
 41
1.0
  0
SPLINE
  5
1D9
330
1F
100
AcDbEntity
  8
Make2D visible lines
100
AcDbSpline
210
0.0
220
0.0
230
1.0
 70
    12
 71
     2
 72
     8
 73
     5
 74
     0
 42
0.0000000001
 43
0.0000000001
 40
0.0
 40
0.0
 40
0.0
 40
1.497204518884547
 40
1.497204518884547
 40
2.994409037769108
 40
2.994409037769108
 40
2.994409037769108
 10
31.12569711447011
 20
2.23315
 30
0.0
 41
1.0
 10
30.17254711447012
 20
2.23315
 30
0.0
 41
0.7071067811865408
 10
30.17254711447013
 20
1.279999999999999
 30
0.0
 41
1.0
 10
30.1725471144701
 20
0.3268499999999905
 30
0.0
 41
0.7071067811865419
 10
31.12569711447011
 20
0.3268499999999905
 30
0.0
 41
1.0
  0
SPLINE
  5
1DA
330
1F
100
AcDbEntity
  8
Make2D visible lines
100
AcDbSpline
210
0.0
220
0.0
230
1.0
 70
    12
 71
     2
 72
     8
 73
     5
 74
     0
 42
0.0000000001
 43
0.0000000001
 40
0.0
 40
0.0
 40
0.0
 40
1.497204518884545
 40
1.497204518884545
 40
2.994409037769103
 40
2.994409037769103
 40
2.994409037769103
 10
31.12569711447011
 20
0.3268500000000003
 30
0.0
 41
1.0
 10
32.07884711447009
 20
0.3268500000000287
 30
0.0
 41
0.7071067811865704
 10
32.07884711447012
 20
1.279999999999999
 30
0.0
 41
1.0
 10
32.07884711447011
 20
2.233149999999981
 30
0.0
 41
0.7071067811865678
 10
31.12569711447011
 20
2.23315000000001
 30
0.0
 41
1.0
  0
SPLINE
  5
1DB
330
1F
100
AcDbEntity
  8
Make2D visible lines
100
AcDbSpline
210
0.0
220
0.0
230
1.0
 70
    24
 71
     2
 72
     6
 73
     3
 74
     0
 42
0.0000000001
 43
0.0000000001
 40
0.0
 40
0.0
 40
0.0
 40
0.0399213772270059
 40
0.0399213772270059
 40
0.0399213772270059
 10
41.33492524598769
 20
7.319999999999991
 30
0.0
 10
41.33457688393725
 20
7.300042351496046
 30
0.0
 10
41.3342285218868
 20
7.280084702992101
 30
0.0
  0
SPLINE
  5
1DC
330
1F
100
AcDbEntity
  8
Make2D visible lines
100
AcDbSpline
210
0.0
220
0.0
230
1.0
 70
    24
 71
     2
 72
     6
 73
     3
 74
     0
 42
0.0000000001
 43
0.0000000001
 40
0.0
 40
0.0
 40
0.0
 40
0.0399213772270059
 40
0.0399213772270059
 40
0.0399213772270059
 10
43.73422556489345
 20
7.280084702992101
 30
0.0
 10
43.733877202843
 20
7.300042351496046
 30
0.0
 10
43.73352884079256
 20
7.319999999999991
 30
0.0
  0
SPLINE
  5
1DD
330
1F
100
AcDbEntity
  8
Default
100
AcDbSpline
210
0.0
220
0.0
230
1.0
 70
    12
 71
     2
 72
     6
 73
     3
 74
     0
 42
0.0000000001
 43
0.0000000001
 40
0.0
 40
0.0
 40
0.0
 40
0.0278459026180733
 40
0.0278459026180733
 40
0.0278459026180733
 10
42.23225709376486
 20
17.17921987238976
 30
0.0
 41
1.0
 10
42.23643795979708
 20
17.1925148080158
 30
0.0
 41
0.9985079917047226
 10
42.24204368704648
 20
17.20527454061822
 30
0.0
 41
1.0
  0
SPLINE
  5
1DE
330
1F
100
AcDbEntity
  8
Default
100
AcDbSpline
210
0.0
220
0.0
230
1.0
 70
    11
 71
     3
 72
    94
 73
    90
 74
     0
 42
0.0000000001
 43
0.0000000001
 40
-79.0
 40
-79.0
 40
-79.0
 40
-79.0
 40
-78.0
 40
-77.0
 40
-76.0
 40
-75.0
 40
-74.0
 40
-73.0
 40
-72.0
 40
-71.0
 40
-70.0
 40
-69.0
 40
-68.0
 40
-67.0
 40
-66.0
 40
-65.0
 40
-64.0
 40
-63.0
 40
-62.0
 40
-61.0
 40
-60.0
 40
-59.0
 40
-58.0
 40
-57.0
 40
-56.0
 40
-55.0
 40
-54.0
 40
-53.0
 40
-52.0
 40
-51.0
 40
-50.0
 40
-49.0
 40
-48.0
 40
-47.0
 40
-46.0
 40
-45.0
 40
-44.0
 40
-43.0
 40
-42.0
 40
-41.0
 40
-40.0
 40
-39.0
 40
-38.0
 40
-37.0
 40
-36.0
 40
-35.0
 40
-34.0
 40
-33.0
 40
-32.0
 40
-32.0
 40
-32.0
 40
-31.0
 40
-30.0
 40
-29.0
 40
-28.0
 40
-27.0
 40
-27.0
 40
-27.0
 40
-26.0
 40
-25.0
 40
-24.0
 40
-23.0
 40
-22.0
 40
-21.0
 40
-20.0
 40
-19.0
 40
-18.0
 40
-17.0
 40
-16.0
 40
-15.0
 40
-14.0
 40
-13.0
 40
-12.0
 40
-11.0
 40
-10.0
 40
-10.0
 40
-10.0
 40
-9.0
 40
-8.0
 40
-7.0
 40
-6.0
 40
-5.0
 40
-5.0
 40
-5.0
 40
-4.0
 40
-3.0
 40
-2.0
 40
-1.0
 40
0.0
 40
0.0
 40
0.0
 40
0.0
 10
49.75327537404638
 20
12.91239550988016
 30
0.0
 10
49.50281068866454
 20
12.85758665515889
 30
0.0
 10
48.97993598624178
 20
12.75201745708459
 30
0.0
 10
48.2220861639589
 20
12.62013537986559
 30
0.0
 10
47.46109170759069
 20
12.50786285647864
 30
0.0
 10
46.69757793414303
 20
12.414290292181
 30
0.0
 10
45.93210743578516
 20
12.33843180753289
 30
0.0
 10
45.16515646629759
 20
12.2794492927051
 30
0.0
 10
44.39711826137528
 20
12.2369273425995
 30
0.0
 10
43.62836885177827
 20
12.21029689775784
 30
0.0
 10
42.85926517290508
 20
12.19823356147813
 30
0.0
 10
42.09007869685205
 20
12.19774524696477
 30
0.0
 10
41.32094040372633
 20
12.20620475453125
 30
0.0
 10
40.55189468569445
 20
12.21955971861439
 30
0.0
 10
39.78310642728303
 20
12.24779599606239
 30
0.0
 10
39.01570039613063
 20
12.29667815581516
 30
0.0
 10
38.24802640156707
 20
12.35807270158896
 30
0.0
 10
37.49519682676615
 20
12.52518618080399
 30
0.0
 10
36.77361114820899
 20
12.79639249310438
 30
0.0
 10
36.08960719180229
 20
13.15102814189036
 30
0.0
 10
35.45408918973779
 20
13.58692674147077
 30
0.0
 10
34.87573954124925
 20
14.09609821888185
 30
0.0
 10
34.36015636101654
 20
14.66834226233991
 30
0.0
 10
33.903516139289
 20
15.28848369484163
 30
0.0
 10
33.50944097137727
 20
15.9498229879835
 30
0.0
 10
33.15551593734697
 20
16.63283041647717
 30
0.0
 10
32.8123897075629
 20
17.32124281694677
 30
0.0
 10
32.48489779716108
 20
18.0172778911608
 30
0.0
 10
32.17292857749486
 20
18.72038376777049
 30
0.0
 10
31.87469758170444
 20
19.42942541231566
 30
0.0
 10
31.59050721469056
 20
20.1442075904766
 30
0.0
 10
31.3193833838293
 20
20.86404377156817
 30
0.0
 10
31.06148592553224
 20
21.58872352205382
 30
0.0
 10
30.81616213447465
 20
22.31775233317608
 30
0.0
 10
30.58242261725195
 20
23.05057169302001
 30
0.0
 10
30.36057104013211
 20
23.78708273574836
 30
0.0
 10
30.15074408394737
 20
24.52710445697358
 30
0.0
 10
29.95068114576478
 20
25.26981013175519
 30
0.0
 10
29.75634901156187
 20
26.01403210853258
 30
0.0
 10
29.56677639694923
 20
26.75947906194641
 30
0.0
 10
29.38184650135584
 20
27.50609386007575
 30
0.0
 10
29.20243998275534
 20
28.25405234023654
 30
0.0
 10
29.02736992414974
 20
29.00304098843788
 30
0.0
 10
28.85948874056593
 20
29.75367603184434
 30
0.0
 10
28.69813877171
 20
30.50574327447009
 30
0.0
 10
28.54460630692445
 20
31.25944401941246
 30
0.0
 10
28.40092380378878
 20
32.01510614313628
 30
0.0
 10
28.27076163504577
 20
32.77319788507792
 30
0.0
 10
28.19977185052087
 20
33.28124377863361
 30
0.0
 10
28.17912020607545
 20
33.53688907522593
 30
0.0
 10
28.16636651269409
 20
33.68006076938854
 30
0.0
 10
28.15740310319329
 20
33.97019552491278
 30
0.0
 10
28.21851576612159
 20
34.39518857735904
 30
0.0
 10
28.4499550647695
 20
34.80195804165072
 30
0.0
 10
28.93459791768399
 20
34.80063951701527
 30
0.0
 10
29.15262935089495
 20
34.58728992768729
 30
0.0
 10
29.21600728277273
 20
34.45781903742668
 30
0.0
 10
29.50427338471147
 20
33.89646909202924
 30
0.0
 10
30.05092637184791
 20
32.75825022809071
 30
0.0
 10
30.7855012314088
 20
31.01351657756928
 30
0.0
 10
31.5588936786978
 20
29.2852080072587
 30
0.0
 10
32.43487738924966
 20
27.60599374049448
 30
0.0
 10
33.37975597636643
 20
25.96517991097305
 30
0.0
 10
34.39556822896556
 20
24.36704878092939
 30
0.0
 10
35.48414832753531
 20
22.81758286450936
 30
0.0
 10
36.65047428041235
 20
21.32534672394341
 30
0.0
 10
37.90239000846604
 20
19.90470467238698
 30
0.0
 10
39.29156491574252
 20
18.60842945798002
 30
0.0
 10
40.93509208103122
 20
17.64448219461388
 30
0.0
 10
42.72759135122665
 20
17.01995825572186
 30
0.0
 10
44.56081685339573
 20
16.54646879415574
 30
0.0
 10
46.43069801331244
 20
16.23904352165049
 30
0.0
 10
48.31256770693239
 20
16.03085033915317
 30
0.0
 10
50.20174226211606
 20
15.90205253221471
 30
0.0
 10
51.46329730731166
 20
15.86112335490093
 30
0.0
 10
52.09520898682874
 20
15.8460371796322
 30
0.0
 10
52.29469052178788
 20
15.84321576771974
 30
0.0
 10
52.69042130394183
 20
15.83349183204317
 30
0.0
 10
53.28805248187383
 20
15.82724417647556
 30
0.0
 10
53.87262098356582
 20
15.78737697554851
 30
0.0
 10
54.50536764651991
 20
15.87196425610152
 30
0.0
 10
54.79456111696727
 20
15.50297010264991
 30
0.0
 10
54.77339543873342
 20
15.29854783504315
 30
0.0
 10
54.75053576287306
 20
14.89160220726118
 30
0.0
 10
54.12744619915507
 20
14.3586475515387
 30
0.0
 10
53.09346143028741
 20
13.87708944422543
 30
0.0
 10
52.00008808477072
 20
13.5017276060911
 30
0.0
 10
50.89556301933891
 20
13.17799146463159
 30
0.0
 10
50.12824871271514
 20
12.99445042797018
 30
0.0
 10
49.75327537404638
 20
12.91239550988016
 30
0.0
  0
SPLINE
  5
1DF
330
1F
100
AcDbEntity
  8
Default
100
AcDbSpline
210
0.0
220
0.0
230
1.0
 70
    24
 71
     2
 72
     6
 73
     3
 74
     0
 42
0.0000000001
 43
0.0000000001
 40
0.0
 40
0.0
 40
0.0
 40
1.279662316143878
 40
1.279662316143878
 40
1.279662316143878
 10
54.29572628828478
 20
15.79399854824219
 30
0.0
 10
54.26915608918895
 20
16.43327777937651
 30
0.0
 10
54.24258589009312
 20
17.07255701051083
 30
0.0
  0
SPLINE
  5
1E0
330
1F
100
AcDbEntity
  8
Default
100
AcDbSpline
210
0.0
220
0.0
230
1.0
 70
     8
 71
     3
 72
     8
 73
     4
 74
     0
 42
0.0000000001
 43
0.0000000001
 40
0.0
 40
0.0
 40
0.0
 40
0.0
 40
1.0
 40
1.0
 40
1.0
 40
1.0
 10
54.24258589009312
 20
17.07255701051083
 30
0.0
 10
54.23634933216965
 20
17.22260865069101
 30
0.0
 10
54.14095263634603
 20
17.30201564806409
 30
0.0
 10
53.98590942792171
 20
17.31540307446769
 30
0.0
  0
SPLINE
  5
1E1
330
1F
100
AcDbEntity
  8
Default
100
AcDbSpline
210
0.0
220
0.0
230
1.0
 70
     8
 71
     3
 72
    10
 73
     6
 74
     0
 42
0.0000000001
 43
0.0000000001
 40
-3.0
 40
-3.0
 40
-3.0
 40
-3.0
 40
-2.0
 40
-1.0
 40
0.0
 40
0.0
 40
0.0
 40
0.0
 10
53.98590942792171
 20
17.31540307446769
 30
0.0
 10
52.68438566539762
 20
17.42778499535542
 30
0.0
 10
50.07091669159838
 20
17.44490766574651
 30
0.0
 10
46.15343147339669
 20
17.43035715829272
 30
0.0
 10
43.54342291039332
 20
17.30147857501099
 30
0.0
 10
42.24091515735662
 20
17.20910707448639
 30
0.0
  0
SPLINE
  5
1E2
330
1F
100
AcDbEntity
  8
Default
100
AcDbSpline
210
0.0
220
0.0
230
1.0
 70
     8
 71
     3
 72
    14
 73
    10
 74
     0
 42
0.0000000001
 43
0.0000000001
 40
0.0
 40
0.0
 40
0.0
 40
0.0
 40
1.0
 40
2.0
 40
3.0
 40
4.0
 40
5.0
 40
6.0
 40
7.0
 40
7.0
 40
7.0
 40
7.0
 10
28.70040792367207
 20
34.79208751179031
 30
0.0
 10
29.12496282692651
 20
33.98338541372546
 30
0.0
 10
29.93989184515554
 20
32.34767664462747
 30
0.0
 10
31.0145633718364
 20
29.8253193691926
 30
0.0
 10
32.30665206663554
 20
27.40616875764449
 30
0.0
 10
33.73298661988709
 20
25.06552640461992
 30
0.0
 10
35.30186300519598
 20
22.81690546276462
 30
0.0
 10
37.03728885700788
 20
20.69289949774776
 30
0.0
 10
38.32665472577025
 20
19.3953457355917
 30
0.0
 10
39.00721608856187
 20
18.78597328731563
 30
0.0
  0
SPLINE
  5
1E3
330
1F
100
AcDbEntity
  8
Default
100
AcDbSpline
210
0.0
220
0.0
230
1.0
 70
     8
 71
     3
 72
    10
 73
     6
 74
     0
 42
0.0000000001
 43
0.0000000001
 40
0.0
 40
0.0
 40
0.0
 40
0.0
 40
1.0
 40
2.0
 40
3.0
 40
3.0
 40
3.0
 40
3.0
 10
39.00721608856187
 20
18.78597328731563
 30
0.0
 10
39.30964578196412
 20
18.51885842770328
 30
0.0
 10
39.98846485653207
 20
18.07754439872308
 30
0.0
 10
41.08931423684498
 20
17.57410704944424
 30
0.0
 10
41.8510567313356
 20
17.3094615007025
 30
0.0
 10
42.23225709376486
 20
17.17921987238976
 30
0.0
  0
SPLINE
  5
1E4
330
1F
100
AcDbEntity
  8
Default
100
AcDbSpline
210
0.0
220
0.0
230
1.0
 70
     8
 71
     3
 72
    12
 73
     8
 74
     0
 42
0.0000000001
 43
0.0000000001
 40
0.0
 40
0.0
 40
0.0
 40
0.0
 40
1.0
 40
2.0
 40
3.0
 40
4.0
 40
5.0
 40
5.0
 40
5.0
 40
5.0
 10
42.23225709376486
 20
17.17921987238976
 30
0.0
 10
43.02976033544591
 20
16.8880097334847
 30
0.0
 10
44.66937734287261
 20
16.44179892159307
 30
0.0
 10
47.17548986242998
 20
15.9890566285286
 30
0.0
 10
49.69481700872369
 20
15.62501720631344
 30
0.0
 10
52.22908230492391
 20
15.37865238877001
 30
0.0
 10
53.92483307735679
 20
15.30099691450578
 30
0.0
 10
54.77339543873512
 20
15.29854783504315
 30
0.0
  0
SPLINE
  5
1E5
330
1F
100
AcDbEntity
  8
Default
100
AcDbSpline
210
0.0
220
0.0
230
1.0
 70
    24
 71
     2
 72
     6
 73
     3
 74
     0
 42
0.0000000001
 43
0.0000000001
 40
0.0
 40
0.0
 40
0.0
 40
0.7281275669556535
 40
0.7281275669556535
 40
0.7281275669556535
 10
9.624995438598646
 20
15.95138696330021
 30
0.0
 10
9.624993878877746
 20
16.31545154476908
 30
0.0
 10
9.624992319156846
 20
16.67951612623795
 30
0.0
  0
SPLINE
  5
1E6
330
1F
100
AcDbEntity
  8
Default
100
AcDbSpline
210
0.0
220
0.0
230
1.0
 70
     8
 71
     3
 72
    11
 73
     7
 74
     0
 42
0.0000000001
 43
0.0000000001
 40
-0.6113177200169732
 40
-0.6113177200169732
 40
-0.6113177200169732
 40
-0.6113177200169732
 40
-0.352432745350774
 40
-0.2125373536175288
 40
-0.1177049740415777
 40
0.0
 40
0.0
 40
0.0
 40
0.0
 10
9.624992319156846
 20
16.67951612623795
 30
0.0
 10
9.626553838067636
 20
16.76716643800066
 30
0.0
 10
9.553612474397958
 20
16.89403132813204
 30
0.0
 10
9.399533157632604
 20
16.96042357102421
 30
0.0
 10
9.287084856903093
 20
16.99072785205982
 30
0.0
 10
9.2167594413215
 20
17.00405648496813
 30
0.0
 10
9.175049984248965
 20
17.01143872165819
 30
0.0
  0
SPLINE
  5
1E7
330
1F
100
AcDbEntity
  8
Default
100
AcDbSpline
210
0.0
220
0.0
230
1.0
 70
     8
 71
     3
 72
    10
 73
     6
 74
     0
 42
0.0000000001
 43
0.0000000001
 40
-3.0
 40
-3.0
 40
-3.0
 40
-3.0
 40
-2.0
 40
-1.0
 40
0.0
 40
0.0
 40
0.0
 40
0.0
 10
9.175049984248965
 20
17.01143872165819
 30
0.0
 10
8.159722397552969
 20
17.14324676814317
 30
0.0
 10
6.119356579778398
 20
17.22359606647749
 30
0.0
 10
3.060525639550008
 20
17.29609331098285
 30
0.0
 10
1.020061887795876
 20
17.30724446143179
 30
0.0
 10
0.0000021257546052
 20
17.30765458461395
 30
0.0
  0
SPLINE
  5
1E8
330
1F
100
AcDbEntity
  8
Default
100
AcDbSpline
210
0.0
220
0.0
230
1.0
 70
     8
 71
     3
 72
    10
 73
     6
 74
     0
 42
0.0000000001
 43
0.0000000001
 40
0.0
 40
0.0
 40
0.0
 40
0.0
 40
1.0
 40
2.0
 40
3.0
 40
3.0
 40
3.0
 40
3.0
 10
0.0000021257546052
 20
17.30765458461395
 30
0.0
 10
-1.020057636286666
 20
17.30724446143179
 30
0.0
 10
-3.060521388040797
 20
17.29609331098285
 30
0.0
 10
-6.119352328269187
 20
17.22359606647749
 30
0.0
 10
-8.159718146043758
 20
17.14324676814317
 30
0.0
 10
-9.175045732739761
 20
17.01143872165819
 30
0.0
  0
SPLINE
  5
1E9
330
1F
100
AcDbEntity
  8
Default
100
AcDbSpline
210
0.0
220
0.0
230
1.0
 70
     8
 71
     3
 72
    11
 73
     7
 74
     0
 42
0.0000000001
 43
0.0000000001
 40
0.0
 40
0.0
 40
0.0
 40
0.0
 40
0.1177049740415777
 40
0.2125373536175288
 40
0.352432745350774
 40
0.6113177200169732
 40
0.6113177200169732
 40
0.6113177200169732
 40
0.6113177200169732
 10
-9.175045732739761
 20
17.01143872165819
 30
0.0
 10
-9.21675518981229
 20
17.00405648496813
 30
0.0
 10
-9.287080605393882
 20
16.99072785205982
 30
0.0
 10
-9.399528906123393
 20
16.96042357102421
 30
0.0
 10
-9.553608222888741
 20
16.89403132813204
 30
0.0
 10
-9.626549586558426
 20
16.76716643800066
 30
0.0
 10
-9.624988067647635
 20
16.67951612623795
 30
0.0
  0
SPLINE
  5
1EA
330
1F
100
AcDbEntity
  8
Default
100
AcDbSpline
210
0.0
220
0.0
230
1.0
 70
    24
 71
     2
 72
     6
 73
     3
 74
     0
 42
0.0000000001
 43
0.0000000001
 40
-0.7281275669556535
 40
-0.7281275669556535
 40
-0.7281275669556535
 40
0.0
 40
0.0
 40
0.0
 10
-9.624988067647635
 20
16.67951612623795
 30
0.0
 10
-9.624989627368535
 20
16.31545154476908
 30
0.0
 10
-9.624991187089435
 20
15.95138696330021
 30
0.0
  0
SPLINE
  5
1EB
330
1F
100
AcDbEntity
  8
Default
100
AcDbSpline
210
0.0
220
0.0
230
1.0
 70
    12
 71
     2
 72
     6
 73
     3
 74
     0
 42
0.0000000001
 43
0.0000000001
 40
-0.4793690696379371
 40
-0.4793690696379371
 40
-0.4793690696379371
 40
0.0
 40
0.0
 40
0.0
 10
-11.80501906621588
 20
16.85620821407966
 30
0.0
 41
1.0
 10
-11.80096470842066
 20
16.60998989425097
 30
0.0
 41
0.960473138466295
 10
-11.66587617575173
 20
16.40409917766141
 30
0.0
 41
1.0
  0
SPLINE
  5
1EC
330
1F
100
AcDbEntity
  8
Default
100
AcDbSpline
210
0.0
220
0.0
230
1.0
 70
     8
 71
     3
 72
    12
 73
     8
 74
     0
 42
0.0000000001
 43
0.0000000001
 40
0.0
 40
0.0
 40
0.0
 40
0.0
 40
1.0
 40
2.0
 40
3.0
 40
4.0
 40
5.0
 40
5.0
 40
5.0
 40
5.0
 10
-11.66587617575173
 20
16.40409917766141
 30
0.0
 10
-11.49915390930512
 20
16.15504097021
 30
0.0
 10
-10.96632319035204
 20
15.87155919949441
 30
0.0
 10
-10.11432283192002
 20
15.65975060863736
 30
0.0
 10
-9.244420874661245
 20
15.52472492552169
 30
0.0
 10
-8.369589577461326
 20
15.43746101213936
 30
0.0
 10
-7.784605829860993
 20
15.39950582900969
 30
0.0
 10
-7.491967236022106
 20
15.38414211545404
 30
0.0
  0
SPLINE
  5
1ED
330
1F
100
AcDbEntity
  8
Default
100
AcDbSpline
210
0.0
220
0.0
230
1.0
 70
     8
 71
     3
 72
     8
 73
     4
 74
     0
 42
0.0000000001
 43
0.0000000001
 40
0.0
 40
0.0
 40
0.0
 40
0.0
 40
1.0
 40
1.0
 40
1.0
 40
1.0
 10
-7.491967236022106
 20
15.38414211545404
 30
0.0
 10
-4.997916678332047
 20
15.25320286421249
 30
0.0
 10
-2.497485389712963
 20
15.29854783504315
 30
0.0
 10
0.0
 20
15.29854783504315
 30
0.0
  0
SPLINE
  5
1EE
330
1F
100
AcDbEntity
  8
Default
100
AcDbSpline
210
0.0
220
0.0
230
1.0
 70
     8
 71
     3
 72
     8
 73
     4
 74
     0
 42
0.0000000001
 43
0.0000000001
 40
-1.0
 40
-1.0
 40
-1.0
 40
-1.0
 40
0.0
 40
0.0
 40
0.0
 40
0.0
 10
0.0
 20
15.29854783504315
 30
0.0
 10
2.497485389712963
 20
15.29854783504315
 30
0.0
 10
4.997916678332054
 20
15.25320286421249
 30
0.0
 10
7.491967236022106
 20
15.38414211545404
 30
0.0
  0
SPLINE
  5
1EF
330
1F
100
AcDbEntity
  8
Default
100
AcDbSpline
210
0.0
220
0.0
230
1.0
 70
     8
 71
     3
 72
    12
 73
     8
 74
     0
 42
0.0000000001
 43
0.0000000001
 40
-5.0
 40
-5.0
 40
-5.0
 40
-5.0
 40
-4.0
 40
-3.0
 40
-2.0
 40
-1.0
 40
0.0
 40
0.0
 40
0.0
 40
0.0
 10
7.491967236022106
 20
15.38414211545404
 30
0.0
 10
7.784605829860986
 20
15.39950582900969
 30
0.0
 10
8.369589577461326
 20
15.43746101213936
 30
0.0
 10
9.244420874661245
 20
15.52472492552169
 30
0.0
 10
10.11432283192003
 20
15.65975060863736
 30
0.0
 10
10.96632319035204
 20
15.87155919949441
 30
0.0
 10
11.49915390930512
 20
16.15504097021
 30
0.0
 10
11.66587617575173
 20
16.40409917766141
 30
0.0
  0
SPLINE
  5
1F0
330
1F
100
AcDbEntity
  8
Default
100
AcDbSpline
210
0.0
220
0.0
230
1.0
 70
    12
 71
     2
 72
     6
 73
     3
 74
     0
 42
0.0000000001
 43
0.0000000001
 40
0.0
 40
0.0
 40
0.0
 40
0.4793690696379371
 40
0.4793690696379371
 40
0.4793690696379371
 10
11.66587617575173
 20
16.40409917766141
 30
0.0
 41
1.0
 10
11.80096470842066
 20
16.60998989425097
 30
0.0
 41
0.960473138466295
 10
11.80501906621588
 20
16.85620821407966
 30
0.0
 41
1.0
  0
SPLINE
  5
1F1
330
1F
100
AcDbEntity
  8
Default
100
AcDbSpline
210
0.0
220
0.0
230
1.0
 70
     8
 71
     3
 72
    24
 73
    20
 74
     0
 42
0.0000000001
 43
0.0000000001
 40
-17.0
 40
-17.0
 40
-17.0
 40
-17.0
 40
-15.9999998855957
 40
-14.99999977119141
 40
-13.99999965678711
 40
-12.99999954238281
 40
-11.99999942797852
 40
-10.99999931357422
 40
-9.999999199169924
 40
-8.999999084765628
 40
-7.999998970361333
 40
-6.999998855957037
 40
-5.99999874155274
 40
-4.999998627148444
 40
-3.999998512744147
 40
-2.999998398339851
 40
-1.999998283935554
 40
-0.9999981695312579
 40
0.0
 40
0.0
 40
0.0
 40
0.0
 10
11.80501906621588
 20
16.85620821407966
 30
0.0
 10
11.81064255425623
 20
17.32292570957218
 30
0.0
 10
11.73228517169517
 20
18.25520286783162
 30
0.0
 10
11.45447239644754
 20
19.62801218113965
 30
0.0
 10
11.18595601072431
 20
21.00156513431181
 30
0.0
 10
10.86506138625315
 20
22.36434854820874
 30
0.0
 10
10.50233183786904
 20
23.71639681314947
 30
0.0
 10
10.09149373198047
 20
25.05471803136404
 30
0.0
 10
9.630941300020567
 20
26.37680269690517
 30
0.0
 10
9.11789991489411
 20
27.67929444512991
 30
0.0
 10
8.55582772186063
 20
28.96184058132328
 30
0.0
 10
7.933886658391636
 20
30.21522926047123
 30
0.0
 10
7.322408182722413
 20
31.4769194420441
 30
0.0
 10
6.491641541182304
 20
32.61453829466348
 30
0.0
 10
5.386175329973895
 20
33.49241097645642
 30
0.0
 10
4.129005968154857
 20
34.12008472976099
 30
0.0
 10
2.784449160261474
 20
34.52422272517212
 30
0.0
 10
1.399887743706813
 20
34.74534972141919
 30
0.0
 10
0.4665455761356441
 20
34.79029266534475
 30
0.0
 10
0.0
 20
34.79035446420193
 30
0.0
  0
SPLINE
  5
1F2
330
1F
100
AcDbEntity
  8
Default
100
AcDbSpline
210
0.0
220
0.0
230
1.0
 70
     8
 71
     3
 72
    24
 73
    20
 74
     0
 42
0.0000000001
 43
0.0000000001
 40
0.0
 40
0.0
 40
0.0
 40
0.0
 40
0.9999981695312579
 40
1.999998283935554
 40
2.999998398339851
 40
3.999998512744147
 40
4.999998627148444
 40
5.99999874155274
 40
6.999998855957037
 40
7.999998970361333
 40
8.999999084765628
 40
9.999999199169924
 40
10.99999931357422
 40
11.99999942797852
 40
12.99999954238281
 40
13.99999965678711
 40
14.99999977119141
 40
15.9999998855957
 40
17.0
 40
17.0
 40
17.0
 40
17.0
 10
0.0
 20
34.79035446420193
 30
0.0
 10
-0.4665455761356441
 20
34.79029266534475
 30
0.0
 10
-1.399887743706813
 20
34.74534972141919
 30
0.0
 10
-2.784449160261474
 20
34.52422272517212
 30
0.0
 10
-4.129005968154857
 20
34.12008472976099
 30
0.0
 10
-5.386175329973895
 20
33.49241097645642
 30
0.0
 10
-6.491641541182304
 20
32.61453829466348
 30
0.0
 10
-7.322408182722413
 20
31.4769194420441
 30
0.0
 10
-7.933886658391629
 20
30.21522926047123
 30
0.0
 10
-8.555827721860624
 20
28.96184058132328
 30
0.0
 10
-9.11789991489411
 20
27.67929444512991
 30
0.0
 10
-9.630941300020567
 20
26.37680269690517
 30
0.0
 10
-10.09149373198046
 20
25.05471803136404
 30
0.0
 10
-10.50233183786904
 20
23.71639681314947
 30
0.0
 10
-10.86506138625315
 20
22.36434854820874
 30
0.0
 10
-11.18595601072431
 20
21.00156513431181
 30
0.0
 10
-11.45447239644753
 20
19.62801218113965
 30
0.0
 10
-11.73228517169518
 20
18.25520286783162
 30
0.0
 10
-11.81064255425623
 20
17.32292570957218
 30
0.0
 10
-11.80501906621588
 20
16.85620821407966
 30
0.0
  0
SPLINE
  5
1F3
330
1F
100
AcDbEntity
  8
Default
100
AcDbSpline
210
0.0
220
0.0
230
1.0
 70
     8
 71
     3
 72
    24
 73
    20
 74
     0
 42
0.0000000001
 43
0.0000000001
 40
-17.0
 40
-17.0
 40
-17.0
 40
-17.0
 40
-16.0
 40
-15.0
 40
-14.0
 40
-13.0
 40
-12.0
 40
-11.0
 40
-10.0
 40
-9.0
 40
-8.0
 40
-7.0
 40
-6.0
 40
-5.0
 40
-4.0
 40
-3.0
 40
-2.0
 40
-1.0
 40
0.0
 40
0.0
 40
0.0
 40
0.0
 10
-10.93987572011322
 20
20.03231627857932
 30
0.0
 10
-10.96182774334646
 20
19.8811576645668
 30
0.0
 10
-11.01107199056054
 20
19.5796248074757
 30
0.0
 10
-11.09947485937832
 20
19.13005486444748
 30
0.0
 10
-11.17798656180673
 20
18.67858580723819
 30
0.0
 10
-11.26127558410163
 20
18.2279508216715
 30
0.0
 10
-11.34471627338154
 20
17.77752793874356
 30
0.0
 10
-11.41006655694567
 20
17.32315082257093
 30
0.0
 10
-11.36681206241164
 20
16.86450746773874
 30
0.0
 10
-11.23884230962861
 20
16.40387933483634
 30
0.0
 10
-10.82088858846923
 20
16.16029735656635
 30
0.0
 10
-10.37804427544559
 20
16.05325189581065
 30
0.0
 10
-9.92457942901035
 20
15.98031747239469
 30
0.0
 10
-9.468694100216354
 20
15.93486531128042
 30
0.0
 10
-9.011495381708428
 20
15.90301408224509
 30
0.0
 10
-8.553773107644048
 20
15.88131591942064
 30
0.0
 10
-8.095832324749821
 20
15.86483262809444
 30
0.0
 10
-7.637750192223621
 20
15.85301941946832
 30
0.0
 10
-7.332320801555852
 20
15.84706672157734
 30
0.0
 10
-7.175046008486134
 20
15.84419296148944
 30
0.0
  0
SPLINE
  5
1F4
330
1F
100
AcDbEntity
  8
Default
100
AcDbSpline
210
0.0
220
0.0
230
1.0
 70
    12
 71
     2
 72
     6
 73
     3
 74
     0
 42
0.0000000001
 43
0.0000000001
 40
0.0
 40
0.0
 40
0.0
 40
14.34150593911497
 40
14.34150593911497
 40
14.34150593911497
 10
-7.175046008486134
 20
15.84419296148944
 30
0.0
 41
1.0
 10
0.0000017613845002
 20
15.73790879909635
 30
0.0
 41
0.999890346454104
 10
7.175047772776431
 20
15.84419276528727
 30
0.0
 41
1.0
  0
SPLINE
  5
1F5
330
1F
100
AcDbEntity
  8
Default
100
AcDbSpline
210
0.0
220
0.0
230
1.0
 70
     8
 71
     3
 72
    24
 73
    20
 74
     0
 42
0.0000000001
 43
0.0000000001
 40
0.0
 40
0.0
 40
0.0
 40
0.0
 40
1.0
 40
2.0
 40
3.0
 40
4.0
 40
5.0
 40
6.0
 40
7.0
 40
8.0
 40
9.0
 40
10.0
 40
11.0
 40
12.0
 40
13.0
 40
14.0
 40
15.0
 40
16.0
 40
17.0
 40
17.0
 40
17.0
 40
17.0
 10
7.175047772776431
 20
15.84419276528727
 30
0.0
 10
7.332320801555845
 20
15.84706672157734
 30
0.0
 10
7.637750192223628
 20
15.85301941946832
 30
0.0
 10
8.095832324749829
 20
15.86483262809444
 30
0.0
 10
8.553773107644048
 20
15.88131591942064
 30
0.0
 10
9.011495381708421
 20
15.90301408224509
 30
0.0
 10
9.46869410021636
 20
15.93486531128042
 30
0.0
 10
9.92457942901035
 20
15.98031747239469
 30
0.0
 10
10.3780442754456
 20
16.05325189581065
 30
0.0
 10
10.82088858846922
 20
16.16029735656635
 30
0.0
 10
11.23884230962861
 20
16.40387933483634
 30
0.0
 10
11.36681206241164
 20
16.86450746773874
 30
0.0
 10
11.41006655694567
 20
17.32315082257093
 30
0.0
 10
11.34471627338154
 20
17.77752793874356
 30
0.0
 10
11.26127558410163
 20
18.2279508216715
 30
0.0
 10
11.17798656180673
 20
18.67858580723819
 30
0.0
 10
11.09947485937832
 20
19.13005486444748
 30
0.0
 10
11.01107199056054
 20
19.5796248074757
 30
0.0
 10
10.96182774334647
 20
19.8811576645668
 30
0.0
 10
10.93987572011322
 20
20.03231627857932
 30
0.0
  0
SPLINE
  5
1F6
330
1F
100
AcDbEntity
  8
Default
100
AcDbSpline
210
0.0
220
0.0
230
1.0
 70
    12
 71
     2
 72
     6
 73
     3
 74
     0
 42
0.0000000001
 43
0.0000000001
 40
0.0
 40
0.0
 40
0.0
 40
0.006276711119537
 40
0.006276711119537
 40
0.006276711119537
 10
9.17176364434971
 20
17.01206101406711
 30
0.0
 41
1.0
 10
9.174855450594269
 20
17.01152248645005
 30
0.0
 41
0.999999830288867
 10
9.177946627248183
 20
17.01098035662932
 30
0.0
 41
1.0
  0
SPLINE
  5
1F7
330
1F
100
AcDbEntity
  8
Default
100
AcDbSpline
210
0.0
220
0.0
230
1.0
 70
     8
 71
     3
 72
    14
 73
    10
 74
     0
 42
0.0000000001
 43
0.0000000001
 40
0.0
 40
0.0
 40
0.0
 40
0.0
 40
1.0
 40
2.0
 40
3.0
 40
4.0
 40
5.0
 40
6.0
 40
7.0
 40
7.0
 40
7.0
 40
7.0
 10
-6.800147170550289
 20
32.17925268884353
 30
0.0
 10
-7.315066175906836
 20
31.54078299726746
 30
0.0
 10
-8.03130565160366
 20
30.06566705682891
 30
0.0
 10
-9.097327171165205
 20
27.86371151231625
 30
0.0
 10
-9.986275688763229
 20
25.5784829090524
 30
0.0
 10
-10.73906372169968
 20
23.24897366743838
 30
0.0
 10
-11.37055999360074
 20
20.87751057349589
 30
0.0
 10
-11.85560519269444
 20
18.49145158399163
 30
0.0
 10
-12.20882393883772
 20
16.86128357101441
 30
0.0
 10
-11.98244688214538
 20
16.06325197701708
 30
0.0
  0
SPLINE
  5
1F8
330
1F
100
AcDbEntity
  8
Default
100
AcDbSpline
210
0.0
220
0.0
230
1.0
 70
     8
 71
     3
 72
    14
 73
    10
 74
     0
 42
0.0000000001
 43
0.0000000001
 40
0.0
 40
0.0
 40
0.0
 40
0.0
 40
1.0
 40
2.0
 40
3.0
 40
4.0
 40
5.0
 40
6.0
 40
7.0
 40
7.0
 40
7.0
 40
7.0
 10
-11.98244688214538
 20
16.06325197701708
 30
0.0
 10
-11.7566894835215
 20
15.46640964573984
 30
0.0
 10
-10.89472667436388
 20
14.51463948248439
 30
0.0
 10
-9.240644720240752
 20
13.59158240877876
 30
0.0
 10
-7.488130919043201
 20
12.89471785548843
 30
0.0
 10
-5.633013057635139
 20
12.53820831322255
 30
0.0
 10
-3.762833064638968
 20
12.32660930336222
 30
0.0
 10
-1.882077775391579
 20
12.22905988245186
 30
0.0
 10
-0.627491100132076
 20
12.20227372535696
 30
0.0
 10
0.0
 20
12.19984330322279
 30
0.0
  0
SPLINE
  5
1F9
330
1F
100
AcDbEntity
  8
Default
100
AcDbSpline
210
0.0
220
0.0
230
1.0
 70
     8
 71
     3
 72
    14
 73
    10
 74
     0
 42
0.0000000001
 43
0.0000000001
 40
-7.0
 40
-7.0
 40
-7.0
 40
-7.0
 40
-6.0
 40
-5.0
 40
-4.0
 40
-3.0
 40
-2.0
 40
-1.0
 40
0.0
 40
0.0
 40
0.0
 40
0.0
 10
0.0
 20
12.19984330322279
 30
0.0
 10
0.627491100132076
 20
12.20227372535696
 30
0.0
 10
1.882077775391579
 20
12.22905988245186
 30
0.0
 10
3.762833064638968
 20
12.32660930336222
 30
0.0
 10
5.633013057635139
 20
12.53820831322255
 30
0.0
 10
7.488130919043208
 20
12.89471785548843
 30
0.0
 10
9.240644720240745
 20
13.59158240877876
 30
0.0
 10
10.89472667436388
 20
14.51463948248439
 30
0.0
 10
11.75668948352151
 20
15.46640964573984
 30
0.0
 10
11.98244688214538
 20
16.06325197701708
 30
0.0
  0
SPLINE
  5
1FA
330
1F
100
AcDbEntity
  8
Default
100
AcDbSpline
210
0.0
220
0.0
230
1.0
 70
     8
 71
     3
 72
    14
 73
    10
 74
     0
 42
0.0000000001
 43
0.0000000001
 40
-7.0
 40
-7.0
 40
-7.0
 40
-7.0
 40
-6.0
 40
-5.0
 40
-4.0
 40
-3.0
 40
-2.0
 40
-1.0
 40
0.0
 40
0.0
 40
0.0
 40
0.0
 10
11.98244688214538
 20
16.06325197701708
 30
0.0
 10
12.20882393883773
 20
16.86128357101441
 30
0.0
 10
11.85560519269443
 20
18.49145158399163
 30
0.0
 10
11.37055999360074
 20
20.87751057349589
 30
0.0
 10
10.73906372169967
 20
23.24897366743838
 30
0.0
 10
9.986275688763236
 20
25.5784829090524
 30
0.0
 10
9.097327171165205
 20
27.86371151231625
 30
0.0
 10
8.03130565160366
 20
30.06566705682891
 30
0.0
 10
7.315066175906836
 20
31.54078299726746
 30
0.0
 10
6.800147170550289
 20
32.17925268884353
 30
0.0
  0
SPLINE
  5
1FB
330
1F
100
AcDbEntity
  8
Make2D visible lines
100
AcDbSpline
210
0.0
220
0.0
230
1.0
 70
    24
 71
     2
 72
     6
 73
     3
 74
     0
 42
0.0000000001
 43
0.0000000001
 40
0.3801597067256904
 40
0.3801597067256904
 40
0.3801597067256904
 40
5.280000000000008
 40
5.280000000000008
 40
5.280000000000008
 10
1.289999999999999
 20
12.21984029327431
 30
0.0
 10
1.289999999999999
 20
9.769920146637151
 30
0.0
 10
1.289999999999999
 20
7.319999999999991
 30
0.0
  0
SPLINE
  5
1FC
330
1F
100
AcDbEntity
  8
Make2D visible lines
100
AcDbSpline
210
0.0
220
0.0
230
1.0
 70
    24
 71
     2
 72
     6
 73
     3
 74
     0
 42
0.0000000001
 43
0.0000000001
 40
0.0
 40
0.0
 40
0.0
 40
4.899840293274314
 40
4.899840293274314
 40
4.899840293274314
 10
-1.289999999999999
 20
7.319999999999995
 30
0.0
 10
-1.289999999999999
 20
9.769920146637151
 30
0.0
 10
-1.289999999999999
 20
12.21984029327431
 30
0.0
  0
SPLINE
  5
1FD
330
1F
100
AcDbEntity
  8
Make2D visible lines
100
AcDbSpline
210
0.0
220
0.0
230
1.0
 70
    24
 71
     2
 72
     6
 73
     3
 74
     0
 42
0.0000000001
 43
0.0000000001
 40
0.3918651485816467
 40
0.3918651485816467
 40
0.3918651485816467
 40
5.280000000000008
 40
5.280000000000008
 40
5.280000000000008
 10
41.24422704339013
 20
12.20813485141835
 30
0.0
 10
41.24422704339013
 20
9.764067425709172
 30
0.0
 10
41.24422704339013
 20
7.319999999999991
 30
0.0
  0
SPLINE
  5
1FE
330
1F
100
AcDbEntity
  8
Make2D visible lines
100
AcDbSpline
210
0.0
220
0.0
230
1.0
 70
    24
 71
     2
 72
     6
 73
     3
 74
     0
 42
0.0000000001
 43
0.0000000001
 40
0.0
 40
0.0
 40
0.0
 40
4.89813107629801
 40
4.89813107629801
 40
4.89813107629801
 10
43.82422704339012
 20
7.319999999999995
 30
0.0
 10
43.82422704339012
 20
9.769065538149
 30
0.0
 10
43.82422704339012
 20
12.218131076298
 30
0.0
  0
POLYLINE
  5
1FF
330
1F
100
AcDbEntity
  8
Default
100
AcDb2dPolyline
 66
     1
 10
0.0
 20
0.0
 30
0.0
  0
VERTEX
  5
200
330
1FF
100
AcDbEntity
  8
Default
100
AcDbVertex
100
AcDb2dVertex
 10
1.035000000000001
 20
44.148840651001
 30
0.0
  0
VERTEX
  5
201
330
1FF
100
AcDbEntity
  8
Default
100
AcDbVertex
100
AcDb2dVertex
 10
1.035
 20
42.81947557951208
 30
0.0
  0
SEQEND
  5
202
330
1FF
100
AcDbEntity
  8
Default
  0
SPLINE
  5
203
330
1F
100
AcDbEntity
  8
Default
100
AcDbSpline
210
0.0
220
0.0
230
1.0
 70
    12
 71
     2
 72
     6
 73
     3
 74
     0
 42
0.0000000001
 43
0.0000000001
 40
0.0
 40
0.0
 40
0.0
 40
0.2355890798875016
 40
0.2355890798875016
 40
0.2355890798875016
 10
1.035
 20
42.81947557951208
 30
0.0
 41
1.0
 10
1.034929244842217
 20
42.66954633466847
 30
0.0
 41
0.7074404097356639
 10
0.8850000000000016
 20
42.66947557658008
 30
0.0
 41
1.0
  0
SPLINE
  5
204
330
1F
100
AcDbEntity
  8
Default
100
AcDbSpline
210
0.0
220
0.0
230
1.0
 70
    24
 71
     2
 72
     6
 73
     3
 74
     0
 42
0.0000000001
 43
0.0000000001
 40
0.0
 40
0.0
 40
0.0
 40
0.3520000000000003
 40
0.3520000000000003
 40
0.3520000000000003
 10
0.8850000000000016
 20
42.66947557658008
 30
0.0
 10
0.7090000000000014
 20
42.66947557658008
 30
0.0
 10
0.5330000000000013
 20
42.66947557658008
 30
0.0
  0
SPLINE
  5
205
330
1F
100
AcDbEntity
  8
Default
100
AcDbSpline
210
0.0
220
0.0
230
1.0
 70
    12
 71
     2
 72
     6
 73
     3
 74
     0
 42
0.0000000001
 43
0.0000000001
 40
0.0
 40
0.0
 40
0.0
 40
0.1098876245644455
 40
0.1098876245644455
 40
0.1098876245644455
 10
0.5330000000000013
 20
42.66947557658008
 30
0.0
 41
1.0
 10
0.4631586517903132
 20
42.66963423120396
 30
0.0
 41
0.7087112325863247
 10
0.4630000000000027
 20
42.73947557942008
 30
0.0
 41
1.0
  0
POLYLINE
  5
206
330
1F
100
AcDbEntity
  8
Default
100
AcDb2dPolyline
 66
     1
 10
0.0
 20
0.0
 30
0.0
  0
VERTEX
  5
207
330
206
100
AcDbEntity
  8
Default
100
AcDbVertex
100
AcDb2dVertex
 10
0.4630000000000027
 20
42.73947557942008
 30
0.0
  0
VERTEX
  5
208
330
206
100
AcDbEntity
  8
Default
100
AcDbVertex
100
AcDb2dVertex
 10
0.4630000000000017
 20
44.1201918422374
 30
0.0
  0
SEQEND
  5
209
330
206
100
AcDbEntity
  8
Default
  0
SPLINE
  5
20A
330
1F
100
AcDbEntity
  8
Make2D visible lines - Tangent
100
AcDbSpline
210
0.0
220
0.0
230
1.0
 70
    12
 71
     2
 72
     6
 73
     3
 74
     0
 42
0.0000000001
 43
0.0000000001
 40
-0.3635088340862697
 40
-0.3635088340862697
 40
-0.3635088340862697
 40
0.0
 40
0.0
 40
0.0
 10
0.3745206092909395
 20
44.11774022504077
 30
0.0
 41
0.9999999920709884
 10
0.3724653996764576
 20
43.9359974344625
 30
0.0
 41
0.9999999958909441
 10
0.3704163703892096
 20
43.75425457410007
 30
0.0
 41
1.0
  0
SPLINE
  5
20B
330
1F
100
AcDbEntity
  8
Make2D visible lines - Tangent
100
AcDbSpline
210
0.0
220
0.0
230
1.0
 70
     8
 71
     3
 72
    11
 73
     7
 74
     0
 42
0.0000000001
 43
0.0000000001
 40
-0.5061957594563898
 40
-0.5061957594563898
 40
-0.5061957594563898
 40
-0.5061957594563898
 40
-0.2779307972340258
 40
-0.1436576036068027
 40
-0.0724650654421722
 40
0.0
 40
0.0
 40
0.0
 40
0.0
 10
0.3704163703892096
 20
43.75425457410007
 30
0.0
 10
0.3707053948673433
 20
43.67591645015375
 30
0.0
 10
0.2953412875025805
 20
43.56821084656175
 30
0.0
 10
0.1627527847708343
 20
43.50781191824778
 30
0.0
 10
0.0720514342512679
 20
43.48707196683247
 30
0.0
 10
0.0241517138070542
 20
43.4841411392383
 30
0.0
 10
0.0
 20
43.48397538519018
 30
0.0
  0
SPLINE
  5
20C
330
1F
100
AcDbEntity
  8
Make2D visible lines - Tangent
100
AcDbSpline
210
0.0
220
0.0
230
1.0
 70
     8
 71
     3
 72
    11
 73
     7
 74
     0
 42
0.0000000001
 43
0.0000000001
 40
0.0
 40
0.0
 40
0.0
 40
0.0
 40
0.0724650654421701
 40
0.143657603606799
 40
0.2779307972340275
 40
0.5061957594563471
 40
0.5061957594563471
 40
0.5061957594563471
 40
0.5061957594563471
 10
0.0
 20
43.48397538519018
 30
0.0
 10
-0.0241517138070435
 20
43.48414113923836
 30
0.0
 10
-0.0720514342512857
 20
43.4870719668326
 30
0.0
 10
-0.1627527847708432
 20
43.50781191824779
 30
0.0
 10
-0.2953412875025379
 20
43.56821084656183
 30
0.0
 10
-0.3707053948672936
 20
43.67591645015382
 30
0.0
 10
-0.3704163703885346
 20
43.75425457410007
 30
0.0
  0
SPLINE
  5
20D
330
1F
100
AcDbEntity
  8
Make2D visible lines - Tangent
100
AcDbSpline
210
0.0
220
0.0
230
1.0
 70
    12
 71
     2
 72
     6
 73
     3
 74
     0
 42
0.0000000001
 43
0.0000000001
 40
0.0
 40
0.0
 40
0.0
 40
0.3634789164614372
 40
0.3634789164614372
 40
0.3634789164614372
 10
-0.3704163703885346
 20
43.75425457410007
 30
0.0
 41
1.0
 10
-0.3724651544270506
 20
43.93598247736525
 30
0.0
 41
0.9999999958266649
 10
-0.3745201661500404
 20
44.11771031031335
 30
0.0
 41
0.9999999919469258
  0
POLYLINE
  5
20E
330
1F
100
AcDbEntity
  8
Default
100
AcDb2dPolyline
 66
     1
 10
0.0
 20
0.0
 30
0.0
  0
VERTEX
  5
20F
330
20E
100
AcDbEntity
  8
Default
100
AcDbVertex
100
AcDb2dVertex
 10
-1.035000000000001
 20
44.14875231644308
 30
0.0
  0
VERTEX
  5
210
330
20E
100
AcDbEntity
  8
Default
100
AcDbVertex
100
AcDb2dVertex
 10
-1.035
 20
42.81947557951208
 30
0.0
  0
SEQEND
  5
211
330
20E
100
AcDbEntity
  8
Default
  0
SPLINE
  5
212
330
1F
100
AcDbEntity
  8
Default
100
AcDbSpline
210
0.0
220
0.0
230
1.0
 70
    12
 71
     2
 72
     6
 73
     3
 74
     0
 42
0.0000000001
 43
0.0000000001
 40
0.0
 40
0.0
 40
0.0
 40
0.2355890798875016
 40
0.2355890798875016
 40
0.2355890798875016
 10
-1.035
 20
42.81947557951208
 30
0.0
 41
1.0
 10
-1.034929244842217
 20
42.66954633466847
 30
0.0
 41
0.7074404097356639
 10
-0.8850000000000016
 20
42.66947557658008
 30
0.0
 41
1.0
  0
SPLINE
  5
213
330
1F
100
AcDbEntity
  8
Default
100
AcDbSpline
210
0.0
220
0.0
230
1.0
 70
    24
 71
     2
 72
     6
 73
     3
 74
     0
 42
0.0000000001
 43
0.0000000001
 40
0.0
 40
0.0
 40
0.0
 40
0.3520000000000003
 40
0.3520000000000003
 40
0.3520000000000003
 10
-0.8850000000000016
 20
42.66947557658008
 30
0.0
 10
-0.7090000000000014
 20
42.66947557658008
 30
0.0
 10
-0.5330000000000013
 20
42.66947557658008
 30
0.0
  0
SPLINE
  5
214
330
1F
100
AcDbEntity
  8
Default
100
AcDbSpline
210
0.0
220
0.0
230
1.0
 70
    12
 71
     2
 72
     6
 73
     3
 74
     0
 42
0.0000000001
 43
0.0000000001
 40
0.0
 40
0.0
 40
0.0
 40
0.1098876245644455
 40
0.1098876245644455
 40
0.1098876245644455
 10
-0.5330000000000013
 20
42.66947557658008
 30
0.0
 41
1.0
 10
-0.4631586517903132
 20
42.66963423120396
 30
0.0
 41
0.7087112325863247
 10
-0.4630000000000027
 20
42.73947557942008
 30
0.0
 41
1.0
  0
POLYLINE
  5
215
330
1F
100
AcDbEntity
  8
Default
100
AcDb2dPolyline
 66
     1
 10
0.0
 20
0.0
 30
0.0
  0
VERTEX
  5
216
330
215
100
AcDbEntity
  8
Default
100
AcDbVertex
100
AcDb2dVertex
 10
-0.4630000000000027
 20
42.73947557942008
 30
0.0
  0
VERTEX
  5
217
330
215
100
AcDbEntity
  8
Default
100
AcDbVertex
100
AcDb2dVertex
 10
-0.4630000000000017
 20
44.12015468834129
 30
0.0
  0
SEQEND
  5
218
330
215
100
AcDbEntity
  8
Default
  0
LINE
  5
219
330
1F
100
AcDbEntity
  8
Default
100
AcDbLine
 10
-0.3939998408021839
 20
44.11820355147269
 30
0.0
 11
-0.3939999891106076
 21
43.24517951547261
 31
0.0
  0
ARC
  5
21A
330
1F
100
AcDbEntity
  8
Default
100
AcDbCircle
 10
3515569.900238091
 20
42.6443361180427
 30
0.0
 40
3515570.294238132
100
AcDbArc
 50
179.9999902076227
 51
179.9999987473877
  0
SPLINE
  5
21B
330
1F
100
AcDbEntity
  8
Default
100
AcDbSpline
210
0.0
220
0.0
230
1.0
 70
    12
 71
     2
 72
     6
 73
     3
 74
     0
 42
0.0000000001
 43
0.0000000001
 40
0.0
 40
0.0
 40
0.0
 40
0.0784842030870699
 40
0.0784842030870699
 40
0.0784842030870699
 10
-0.3940000405141934
 20
42.72119425702068
 30
0.0
 41
1.0
 10
-0.3939638142083186
 20
42.6712304442858
 30
0.0
 41
0.7071217743558633
 10
-0.3439999999996068
 20
42.67126413927566
 30
0.0
 41
1.0
  0
POLYLINE
  5
21C
330
1F
100
AcDbEntity
  8
Default
100
AcDb2dPolyline
 66
     1
 10
0.0
 20
0.0
 30
0.0
  0
VERTEX
  5
21D
330
21C
100
AcDbEntity
  8
Default
100
AcDbVertex
100
AcDb2dVertex
 10
-0.3439999999996068
 20
42.67126413927566
 30
0.0
  0
VERTEX
  5
21E
330
21C
100
AcDbEntity
  8
Default
100
AcDbVertex
100
AcDb2dVertex
 10
0.3439999999996068
 20
42.67126413927566
 30
0.0
  0
SEQEND
  5
21F
330
21C
100
AcDbEntity
  8
Default
  0
SPLINE
  5
220
330
1F
100
AcDbEntity
  8
Default
100
AcDbSpline
210
0.0
220
0.0
230
1.0
 70
    12
 71
     2
 72
     6
 73
     3
 74
     0
 42
0.0000000001
 43
0.0000000001
 40
-0.0784842030870699
 40
-0.0784842030870699
 40
-0.0784842030870699
 40
0.0
 40
0.0
 40
0.0
 10
0.3439999999996068
 20
42.67126413927566
 30
0.0
 41
1.0
 10
0.3939638142083186
 20
42.6712304442858
 30
0.0
 41
0.7071217743558633
 10
0.3940000405141934
 20
42.72119425702068
 30
0.0
 41
1.0
  0
ARC
  5
221
330
1F
100
AcDbEntity
  8
Default
100
AcDbCircle
 10
-3515569.900238091
 20
42.6443361180427
 30
0.0
 40
3515570.294238132
100
AcDbArc
 50
0.0000012526124117
 51
0.0000097923773214
  0
LINE
  5
222
330
1F
100
AcDbEntity
  8
Default
100
AcDbLine
 10
0.3939999891106076
 20
43.24517951547261
 30
0.0
 11
0.3939998407968346
 21
44.11823504077925
 31
0.0
  0
POLYLINE
  5
223
330
1F
100
AcDbEntity
  8
Default
100
AcDb2dPolyline
 66
     1
 10
0.0
 20
0.0
 30
0.0
  0
VERTEX
  5
224
330
223
100
AcDbEntity
  8
Default
100
AcDbVertex
100
AcDb2dVertex
 10
8.1997233833
 20
68.15629315146764
 30
0.0
  0
VERTEX
  5
225
330
223
100
AcDbEntity
  8
Default
100
AcDbVertex
100
AcDb2dVertex
 10
8.1997233833
 20
68.97066176220008
 30
0.0
  0
SEQEND
  5
226
330
223
100
AcDbEntity
  8
Default
  0
SPLINE
  5
227
330
1F
100
AcDbEntity
  8
Default
100
AcDbSpline
210
0.0
220
0.0
230
1.0
 70
    12
 71
     2
 72
     6
 73
     3
 74
     0
 42
0.0000000001
 43
0.0000000001
 40
0.0
 40
0.0
 40
0.0
 40
0.109941564851661
 40
0.109941564851661
 40
0.109941564851661
 10
8.1997233833
 20
68.97066176220008
 30
0.0
 41
1.0
 10
8.19975641775469
 20
69.04062872774674
 30
0.0
 41
0.7074405726109262
 10
8.2697233833
 20
69.04066176504007
 30
0.0
 41
1.0
  0
SPLINE
  5
228
330
1F
100
AcDbEntity
  8
Default
100
AcDbSpline
210
0.0
220
0.0
230
1.0
 70
    24
 71
     2
 72
     6
 73
     3
 74
     0
 42
0.0000000001
 43
0.0000000001
 40
0.0
 40
0.0
 40
0.0
 40
0.3520000000000003
 40
0.3520000000000003
 40
0.3520000000000003
 10
8.2697233833
 20
69.04066176504007
 30
0.0
 10
8.4457233833
 20
69.04066176504008
 30
0.0
 10
8.6217233833
 20
69.04066176504008
 30
0.0
  0
SPLINE
  5
229
330
1F
100
AcDbEntity
  8
Default
100
AcDbSpline
210
0.0
220
0.0
230
1.0
 70
    12
 71
     2
 72
     6
 73
     3
 74
     0
 42
0.0000000001
 43
0.0000000001
 40
0.0
 40
0.0
 40
0.0
 40
0.2356186331260159
 40
0.2356186331260159
 40
0.2356186331260159
 10
8.6217233833
 20
69.04066176504008
 30
0.0
 41
1.0
 10
8.771721478458353
 20
69.04065985726648
 30
0.0
 41
0.7071157676638842
 10
8.7717233833
 20
68.89066176210808
 30
0.0
 41
1.0
  0
POLYLINE
  5
22A
330
1F
100
AcDbEntity
  8
Default
100
AcDb2dPolyline
 66
     1
 10
0.0
 20
0.0
 30
0.0
  0
VERTEX
  5
22B
330
22A
100
AcDbEntity
  8
Default
100
AcDbVertex
100
AcDb2dVertex
 10
8.7717233833
 20
68.89066176210808
 30
0.0
  0
VERTEX
  5
22C
330
22A
100
AcDbEntity
  8
Default
100
AcDbVertex
100
AcDb2dVertex
 10
8.7717233833
 20
67.5409295748335
 30
0.0
  0
SEQEND
  5
22D
330
22A
100
AcDbEntity
  8
Default
  0
POLYLINE
  5
22E
330
1F
100
AcDbEntity
  8
Default
100
AcDb2dPolyline
 66
     1
 10
0.0
 20
0.0
 30
0.0
  0
VERTEX
  5
22F
330
22E
100
AcDbEntity
  8
Default
100
AcDbVertex
100
AcDb2dVertex
 10
-8.7717233833
 20
67.5420089216457
 30
0.0
  0
VERTEX
  5
230
330
22E
100
AcDbEntity
  8
Default
100
AcDbVertex
100
AcDb2dVertex
 10
-8.7717233833
 20
67.13387181100859
 30
0.0
  0
SEQEND
  5
231
330
22E
100
AcDbEntity
  8
Default
  0
POLYLINE
  5
232
330
1F
100
AcDbEntity
  8
Default
100
AcDb2dPolyline
 66
     1
 10
0.0
 20
0.0
 30
0.0
  0
VERTEX
  5
233
330
232
100
AcDbEntity
  8
Default
100
AcDbVertex
100
AcDb2dVertex
 10
-8.1997233833
 20
68.15714662630873
 30
0.0
  0
VERTEX
  5
234
330
232
100
AcDbEntity
  8
Default
100
AcDbVertex
100
AcDb2dVertex
 10
-8.1997233833
 20
68.97066176220008
 30
0.0
  0
SEQEND
  5
235
330
232
100
AcDbEntity
  8
Default
  0
SPLINE
  5
236
330
1F
100
AcDbEntity
  8
Default
100
AcDbSpline
210
0.0
220
0.0
230
1.0
 70
    12
 71
     2
 72
     6
 73
     3
 74
     0
 42
0.0000000001
 43
0.0000000001
 40
0.0
 40
0.0
 40
0.0
 40
0.109941564851661
 40
0.109941564851661
 40
0.109941564851661
 10
-8.1997233833
 20
68.97066176220008
 30
0.0
 41
1.0
 10
-8.19975641775469
 20
69.04062872774674
 30
0.0
 41
0.7074405726109262
 10
-8.2697233833
 20
69.04066176504007
 30
0.0
 41
1.0
  0
SPLINE
  5
237
330
1F
100
AcDbEntity
  8
Default
100
AcDbSpline
210
0.0
220
0.0
230
1.0
 70
    24
 71
     2
 72
     6
 73
     3
 74
     0
 42
0.0000000001
 43
0.0000000001
 40
0.0
 40
0.0
 40
0.0
 40
0.3520000000000003
 40
0.3520000000000003
 40
0.3520000000000003
 10
-8.2697233833
 20
69.04066176504007
 30
0.0
 10
-8.4457233833
 20
69.04066176504008
 30
0.0
 10
-8.6217233833
 20
69.04066176504008
 30
0.0
  0
SPLINE
  5
238
330
1F
100
AcDbEntity
  8
Default
100
AcDbSpline
210
0.0
220
0.0
230
1.0
 70
    12
 71
     2
 72
     6
 73
     3
 74
     0
 42
0.0000000001
 43
0.0000000001
 40
0.0
 40
0.0
 40
0.0
 40
0.2356186331260159
 40
0.2356186331260159
 40
0.2356186331260159
 10
-8.6217233833
 20
69.04066176504008
 30
0.0
 41
1.0
 10
-8.771721478458353
 20
69.04065985726648
 30
0.0
 41
0.7071157676638842
 10
-8.7717233833
 20
68.89066176210808
 30
0.0
 41
1.0
  0
POLYLINE
  5
239
330
1F
100
AcDbEntity
  8
Default
100
AcDb2dPolyline
 66
     1
 10
0.0
 20
0.0
 30
0.0
  0
VERTEX
  5
23A
330
239
100
AcDbEntity
  8
Default
100
AcDbVertex
100
AcDb2dVertex
 10
-8.7717233833
 20
68.89066176210808
 30
0.0
  0
VERTEX
  5
23B
330
239
100
AcDbEntity
  8
Default
100
AcDbVertex
100
AcDb2dVertex
 10
-8.7717233833
 20
67.5420089216457
 30
0.0
  0
SEQEND
  5
23C
330
239
100
AcDbEntity
  8
Default
  0
SPLINE
  5
23D
330
1F
100
AcDbEntity
  8
Make2D visible lines - Tangent
100
AcDbSpline
210
0.0
220
0.0
230
1.0
 70
    12
 71
     2
 72
     6
 73
     3
 74
     0
 42
0.0000000001
 43
0.0000000001
 40
-0.4596092964052544
 40
-0.4596092964052544
 40
-0.4596092964052544
 40
0.0
 40
0.0
 40
0.0
 10
11.66027590958276
 20
52.95841584632665
 30
0.0
 41
0.9999999900714384
 10
11.87801548265703
 20
52.88493352811789
 30
0.0
 41
0.9999999948046372
 10
12.09575821497562
 20
52.81146057190722
 30
0.0
 41
1.0
  0
SPLINE
  5
23E
330
1F
100
AcDbEntity
  8
Make2D visible lines - Tangent
100
AcDbSpline
210
0.0
220
0.0
230
1.0
 70
     8
 71
     3
 72
    11
 73
     7
 74
     0
 42
0.0000000001
 43
0.0000000001
 40
-0.5061957594563898
 40
-0.5061957594563898
 40
-0.5061957594563898
 40
-0.5061957594563898
 40
-0.2779307972340258
 40
-0.1436576036068027
 40
-0.0724650654421722
 40
0.0
 40
0.0
 40
0.0
 40
0.0
 10
12.09575821497562
 20
52.81146057190722
 30
0.0
 10
12.17035151170464
 20
52.78752763891365
 30
0.0
 10
12.2494968379007
 20
52.68256925161029
 30
0.0
 10
12.26596753164811
 20
52.53780579681039
 30
0.0
 10
12.25766413886598
 20
52.44513468891215
 30
0.0
 10
12.24564969390448
 20
52.39867367212078
 30
0.0
 10
12.23834404536239
 20
52.37565280650713
 30
0.0
  0
SPLINE
  5
23F
330
1F
100
AcDbEntity
  8
Make2D visible lines - Tangent
100
AcDbSpline
210
0.0
220
0.0
230
1.0
 70
     8
 71
     3
 72
    11
 73
     7
 74
     0
 42
0.0000000001
 43
0.0000000001
 40
0.0
 40
0.0
 40
0.0
 40
0.0
 40
0.0724650654421701
 40
0.143657603606799
 40
0.2779307972340275
 40
0.5061957594563471
 40
0.5061957594563471
 40
0.5061957594563471
 40
0.5061957594563471
 10
12.23834404536239
 20
52.37565280650713
 30
0.0
 10
12.23072311388511
 20
52.35273438252901
 30
0.0
 10
12.21313390356039
 20
52.30808471680601
 30
0.0
 10
12.16538077889603
 20
52.22823160380742
 30
0.0
 10
12.06696588394289
 20
52.12079673958969
 30
0.0
 10
11.94124297786362
 20
52.08240407608501
 30
0.0
 10
11.86682830808593
 20
52.10688676630574
 30
0.0
  0
SPLINE
  5
240
330
1F
100
AcDbEntity
  8
Make2D visible lines - Tangent
100
AcDbSpline
210
0.0
220
0.0
230
1.0
 70
    12
 71
     2
 72
     6
 73
     3
 74
     0
 42
0.0000000001
 43
0.0000000001
 40
0.0
 40
0.0
 40
0.0
 40
0.4304911634537305
 40
0.4304911634537305
 40
0.4304911634537305
 10
11.86682830808593
 20
52.10688676630574
 30
0.0
 41
1.0
 10
11.66138077900129
 20
52.17108933665442
 30
0.0
 41
0.9999999950572542
 10
11.45593064427733
 20
52.23528356839117
 30
0.0
 41
0.9999999905263406
  0
SPLINE
  5
241
330
1F
100
AcDbEntity
  8
Make2D visible lines - Tangent
100
AcDbSpline
210
0.0
220
0.0
230
1.0
 70
    12
 71
     2
 72
     6
 73
     3
 74
     0
 42
0.0000000001
 43
0.0000000001
 40
-0.430648380111135
 40
-0.430648380111135
 40
-0.430648380111135
 40
0.0
 40
0.0
 40
0.0
 10
-11.4557805481588
 20
52.23533034784971
 30
0.0
 41
0.9999999906697703
 10
-11.66130572176531
 20
52.17111269702018
 30
0.0
 41
0.9999999951320075
 10
-11.86682830808572
 20
52.1068867663051
 30
0.0
 41
1.0
  0
SPLINE
  5
242
330
1F
100
AcDbEntity
  8
Make2D visible lines - Tangent
100
AcDbSpline
210
0.0
220
0.0
230
1.0
 70
     8
 71
     3
 72
    11
 73
     7
 74
     0
 42
0.0000000001
 43
0.0000000001
 40
-0.5061957594563898
 40
-0.5061957594563898
 40
-0.5061957594563898
 40
-0.5061957594563898
 40
-0.2779307972340258
 40
-0.1436576036068027
 40
-0.0724650654421722
 40
0.0
 40
0.0
 40
0.0
 40
0.0
 10
-11.86682830808572
 20
52.1068867663051
 30
0.0
 10
-11.94124297786367
 20
52.08240407608494
 30
0.0
 10
-12.06696588394295
 20
52.12079673958963
 30
0.0
 10
-12.16538077889604
 20
52.22823160380742
 30
0.0
 10
-12.21313390356052
 20
52.30808471680598
 30
0.0
 10
-12.23072311388516
 20
52.35273438252899
 30
0.0
 10
-12.23834404536239
 20
52.37565280650713
 30
0.0
  0
SPLINE
  5
243
330
1F
100
AcDbEntity
  8
Make2D visible lines - Tangent
100
AcDbSpline
210
0.0
220
0.0
230
1.0
 70
     8
 71
     3
 72
    11
 73
     7
 74
     0
 42
0.0000000001
 43
0.0000000001
 40
0.0
 40
0.0
 40
0.0
 40
0.0
 40
0.0724650654421701
 40
0.143657603606799
 40
0.2779307972340275
 40
0.5061957594563471
 40
0.5061957594563471
 40
0.5061957594563471
 40
0.5061957594563471
 10
-12.23834404536239
 20
52.37565280650713
 30
0.0
 10
-12.24564969390442
 20
52.39867367212079
 30
0.0
 10
-12.25766413886586
 20
52.4451346889122
 30
0.0
 10
-12.2659675316481
 20
52.5378057968104
 30
0.0
 10
-12.24949683790061
 20
52.68256925161027
 30
0.0
 10
-12.17035151170456
 20
52.78752763891362
 30
0.0
 10
-12.09575821497542
 20
52.81146057190657
 30
0.0
  0
SPLINE
  5
244
330
1F
100
AcDbEntity
  8
Make2D visible lines - Tangent
100
AcDbSpline
210
0.0
220
0.0
230
1.0
 70
    12
 71
     2
 72
     6
 73
     3
 74
     0
 42
0.0000000001
 43
0.0000000001
 40
0.0
 40
0.0
 40
0.0
 40
0.4591621064246727
 40
0.4591621064246727
 40
0.4591621064246727
 10
-12.09575821497542
 20
52.81146057190657
 30
0.0
 41
1.0
 10
-11.87822731083597
 20
52.88486194876796
 30
0.0
 41
0.9999999947280647
 10
-11.66069958447742
 20
52.95827274256661
 30
0.0
 41
0.9999999899246447
  0
LINE
  5
245
330
1F
100
AcDbEntity
  8
Default
100
AcDbLine
 10
-8.1307231648643
 20
68.22515996088237
 30
0.0
 11
-8.130723029454002
 21
68.98772125861458
 31
0.0
  0
SPLINE
  5
246
330
1F
100
AcDbEntity
  8
Default
100
AcDbSpline
210
0.0
220
0.0
230
1.0
 70
    12
 71
     2
 72
     6
 73
     3
 74
     0
 42
0.0000000001
 43
0.0000000001
 40
0.0
 40
0.0
 40
0.0
 40
0.0784456575506041
 40
0.0784456575506041
 40
0.0784456575506041
 10
-8.130723029454002
 20
68.98772125861458
 30
0.0
 41
1.0
 10
-8.130663353121165
 20
69.03766122826742
 30
0.0
 41
0.7071077818591103
 10
-8.080723383299668
 20
69.03760170814118
 30
0.0
 41
1.0
  0
SPLINE
  5
247
330
1F
100
AcDbEntity
  8
Default
100
AcDbSpline
210
0.0
220
0.0
230
1.0
 70
    12
 71
     2
 72
     6
 73
     3
 74
     0
 42
0.0000000001
 43
0.0000000001
 40
0.0
 40
0.0
 40
0.0
 40
0.0351460068279919
 40
0.0351460068279919
 40
0.0351460068279919
 10
-8.080723383299668
 20
69.03760170814118
 30
0.0
 41
1.0
 10
-8.063347303627186
 20
69.04076911259055
 30
0.0
 41
0.9924246250463485
 10
-8.045723383296234
 20
69.03960376804986
 30
0.0
 41
1.0
  0
SPLINE
  5
248
330
1F
100
AcDbEntity
  8
Default
100
AcDbSpline
210
0.0
220
0.0
230
1.0
 70
    24
 71
     2
 72
     6
 73
     3
 74
     0
 42
0.0000000001
 43
0.0000000001
 40
-0.6179999945348698
 40
-0.6179999945348698
 40
-0.6179999945348698
 40
0.0
 40
0.0
 40
0.0
 10
-8.045723383296234
 20
69.03960376804986
 30
0.0
 10
-7.7367233860288
 20
69.03960376804982
 30
0.0
 10
-7.427723388761365
 20
69.03960376804977
 30
0.0
  0
SPLINE
  5
249
330
1F
100
AcDbEntity
  8
Default
100
AcDbSpline
210
0.0
220
0.0
230
1.0
 70
    12
 71
     2
 72
     6
 73
     3
 74
     0
 42
0.0000000001
 43
0.0000000001
 40
0.0
 40
0.0
 40
0.0
 40
0.0351460122197656
 40
0.0351460122197656
 40
0.0351460122197656
 10
-7.427723388761365
 20
69.03960376804977
 30
0.0
 41
1.0
 10
-7.410099465754602
 20
69.04076911223733
 30
0.0
 41
0.9924246303389436
 10
-7.392723383300293
 20
69.03760170829011
 30
0.0
 41
1.0
  0
SPLINE
  5
24A
330
1F
100
AcDbEntity
  8
Default
100
AcDbSpline
210
0.0
220
0.0
230
1.0
 70
    12
 71
     2
 72
     6
 73
     3
 74
     0
 42
0.0000000001
 43
0.0000000001
 40
0.0
 40
0.0
 40
0.0
 40
0.0784456577816192
 40
0.0784456577816192
 40
0.0784456577816192
 10
-7.392723383300293
 20
69.03760170829011
 30
0.0
 41
1.0
 10
-7.342783413520244
 20
69.03766122789969
 30
0.0
 41
0.707107785543906
 10
-7.342723722286082
 20
68.98772125828893
 30
0.0
 41
1.0
  0
LINE
  5
24B
330
1F
100
AcDbEntity
  8
Default
100
AcDbLine
 10
-7.342723722286082
 20
68.98772125828893
 30
0.0
 11
-7.342723710910191
 21
68.9207565738619
 31
0.0
  0
SPLINE
  5
24C
330
1F
100
AcDbEntity
  8
Default
100
AcDbSpline
210
0.0
220
0.0
230
1.0
 70
    12
 71
     2
 72
     6
 73
     3
 74
     0
 42
0.0000000001
 43
0.0000000001
 40
0.0049649901999427
 40
0.0049649901999427
 40
0.0049649901999427
 40
0.109941564851661
 40
0.109941564851661
 40
0.109941564851661
 10
-7.273574858985699
 20
68.97518745303486
 30
0.0
 41
0.9747691978537896
 10
-7.269305813835403
 20
69.04063079805475
 30
0.0
 41
0.7206526338713553
 10
-7.203723383299997
 20
69.04066176504007
 30
0.0
 41
1.0
  0
SPLINE
  5
24D
330
1F
100
AcDbEntity
  8
Default
100
AcDbSpline
210
0.0
220
0.0
230
1.0
 70
    24
 71
     2
 72
     6
 73
     3
 74
     0
 42
0.0000000001
 43
0.0000000001
 40
0.0
 40
0.0
 40
0.0
 40
0.0154895835742739
 40
0.0154895835742739
 40
0.0154895835742739
 10
-7.203723383299997
 20
69.04066176504007
 30
0.0
 10
-7.19597859151286
 20
69.04066176504007
 30
0.0
 10
-7.188233799725723
 20
69.04066176504007
 30
0.0
  0
LINE
  5
24E
330
1F
100
AcDbEntity
  8
Make2D visible lines - Tangent
100
AcDbLine
 10
8.13072316500292
 20
68.22437932562516
 30
0.0
 11
8.130723029454002
 21
68.98772125861458
 31
0.0
  0
SPLINE
  5
24F
330
1F
100
AcDbEntity
  8
Make2D visible lines - Tangent
100
AcDbSpline
210
0.0
220
0.0
230
1.0
 70
    12
 71
     2
 72
     6
 73
     3
 74
     0
 42
0.0000000001
 43
0.0000000001
 40
0.0
 40
0.0
 40
0.0
 40
0.0784456575506041
 40
0.0784456575506041
 40
0.0784456575506041
 10
8.130723029454002
 20
68.98772125861458
 30
0.0
 41
1.0
 10
8.130663353121165
 20
69.03766122826742
 30
0.0
 41
0.7071077818591103
 10
8.080723383299668
 20
69.03760170814118
 30
0.0
 41
1.0
  0
SPLINE
  5
250
330
1F
100
AcDbEntity
  8
Make2D visible lines - Tangent
100
AcDbSpline
210
0.0
220
0.0
230
1.0
 70
    12
 71
     2
 72
     6
 73
     3
 74
     0
 42
0.0000000001
 43
0.0000000001
 40
0.0
 40
0.0
 40
0.0
 40
0.0351460068279919
 40
0.0351460068279919
 40
0.0351460068279919
 10
8.080723383299668
 20
69.03760170814118
 30
0.0
 41
1.0
 10
8.063347303627186
 20
69.04076911259055
 30
0.0
 41
0.9924246250463485
 10
8.045723383296234
 20
69.03960376804986
 30
0.0
 41
1.0
  0
SPLINE
  5
251
330
1F
100
AcDbEntity
  8
Make2D visible lines - Tangent
100
AcDbSpline
210
0.0
220
0.0
230
1.0
 70
    24
 71
     2
 72
     6
 73
     3
 74
     0
 42
0.0000000001
 43
0.0000000001
 40
-0.6179999945348698
 40
-0.6179999945348698
 40
-0.6179999945348698
 40
0.0
 40
0.0
 40
0.0
 10
8.045723383296234
 20
69.03960376804986
 30
0.0
 10
7.7367233860288
 20
69.03960376804982
 30
0.0
 10
7.427723388761365
 20
69.03960376804977
 30
0.0
  0
SPLINE
  5
252
330
1F
100
AcDbEntity
  8
Make2D visible lines - Tangent
100
AcDbSpline
210
0.0
220
0.0
230
1.0
 70
    12
 71
     2
 72
     6
 73
     3
 74
     0
 42
0.0000000001
 43
0.0000000001
 40
0.0
 40
0.0
 40
0.0
 40
0.0351460122197656
 40
0.0351460122197656
 40
0.0351460122197656
 10
7.427723388761365
 20
69.03960376804977
 30
0.0
 41
1.0
 10
7.410099465754602
 20
69.04076911223733
 30
0.0
 41
0.9924246303389436
 10
7.392723383300293
 20
69.03760170829011
 30
0.0
 41
1.0
  0
SPLINE
  5
253
330
1F
100
AcDbEntity
  8
Make2D visible lines - Tangent
100
AcDbSpline
210
0.0
220
0.0
230
1.0
 70
    12
 71
     2
 72
     6
 73
     3
 74
     0
 42
0.0000000001
 43
0.0000000001
 40
0.0
 40
0.0
 40
0.0
 40
0.0784456577816192
 40
0.0784456577816192
 40
0.0784456577816192
 10
7.392723383300293
 20
69.03760170829011
 30
0.0
 41
1.0
 10
7.342783413520244
 20
69.03766122789969
 30
0.0
 41
0.707107785543906
 10
7.342723752043508
 20
68.98772125828893
 30
0.0
 41
1.0
  0
LINE
  5
254
330
1F
100
AcDbEntity
  8
Make2D visible lines - Tangent
100
AcDbLine
 10
7.342723722286082
 20
68.98772125828893
 30
0.0
 11
7.342723710979164
 21
68.92133301951733
 31
0.0
  0
SPLINE
  5
255
330
1F
100
AcDbEntity
  8
Default
100
AcDbSpline
210
0.0
220
0.0
230
1.0
 70
    12
 71
     2
 72
     6
 73
     3
 74
     0
 42
0.0000000001
 43
0.0000000001
 40
0.005670727019945
 40
0.005670727019945
 40
0.005670727019945
 40
0.109941564851661
 40
0.109941564851661
 40
0.109941564851661
 10
7.273529310934393
 20
68.97583891685754
 30
0.0
 41
0.9713765571874493
 10
7.268695600600321
 20
69.04063108618776
 30
0.0
 41
0.7225306311531462
 10
7.203723383299997
 20
69.04066176504007
 30
0.0
 41
1.0
  0
SPLINE
  5
256
330
1F
100
AcDbEntity
  8
Default
100
AcDbSpline
210
0.0
220
0.0
230
1.0
 70
    24
 71
     2
 72
     6
 73
     3
 74
     0
 42
0.0000000001
 43
0.0000000001
 40
0.0
 40
0.0
 40
0.0
 40
0.014978287328832
 40
0.014978287328832
 40
0.014978287328832
 10
7.203723383299997
 20
69.04066176504007
 30
0.0
 10
7.196234239635581
 20
69.04066176504007
 30
0.0
 10
7.188745095971165
 20
69.04066176504007
 30
0.0
  0
POLYLINE
  5
257
330
1F
100
AcDbEntity
  8
Default
100
AcDb2dPolyline
 66
     1
 10
0.0
 20
0.0
 30
0.0
  0
VERTEX
  5
258
330
257
100
AcDbEntity
  8
Default
100
AcDbVertex
100
AcDb2dVertex
 10
12.05528139573
 20
52.82511875995495
 30
0.0
  0
VERTEX
  5
259
330
257
100
AcDbEntity
  8
Default
100
AcDbVertex
100
AcDb2dVertex
 10
12.05528139573
 20
54.25453938528207
 30
0.0
  0
SEQEND
  5
25A
330
257
100
AcDbEntity
  8
Default
  0
SPLINE
  5
25B
330
1F
100
AcDbEntity
  8
Default
100
AcDbSpline
210
0.0
220
0.0
230
1.0
 70
    12
 71
     2
 72
     6
 73
     3
 74
     0
 42
0.0000000001
 43
0.0000000001
 40
0.0
 40
0.0
 40
0.0
 40
0.109941564851661
 40
0.109941564851661
 40
0.109941564851661
 10
12.05528139573
 20
54.25453938528207
 30
0.0
 41
1.0
 10
12.05524836127531
 20
54.32450635082873
 30
0.0
 41
0.7074405726109262
 10
11.98528139573
 20
54.32453938812206
 30
0.0
 41
1.0
  0
SPLINE
  5
25C
330
1F
100
AcDbEntity
  8
Default
100
AcDbSpline
210
0.0
220
0.0
230
1.0
 70
    24
 71
     2
 72
     6
 73
     3
 74
     0
 42
0.0000000001
 43
0.0000000001
 40
0.0
 40
0.0
 40
0.0
 40
0.0480292414616699
 40
0.0480292414616699
 40
0.0480292414616699
 10
11.98528139573
 20
54.32453938812206
 30
0.0
 10
11.96126677499916
 20
54.32453938812206
 30
0.0
 10
11.93725215426833
 20
54.32453938812206
 30
0.0
  0
POLYLINE
  5
25D
330
1F
100
AcDbEntity
  8
Default
100
AcDb2dPolyline
 66
     1
 10
0.0
 20
0.0
 30
0.0
  0
VERTEX
  5
25E
330
25D
100
AcDbEntity
  8
Default
100
AcDbVertex
100
AcDb2dVertex
 10
-12.05528139573
 20
52.8251187416536
 30
0.0
  0
VERTEX
  5
25F
330
25D
100
AcDbEntity
  8
Default
100
AcDbVertex
100
AcDb2dVertex
 10
-12.05528139573
 20
54.25453938528207
 30
0.0
  0
SEQEND
  5
260
330
25D
100
AcDbEntity
  8
Default
  0
SPLINE
  5
261
330
1F
100
AcDbEntity
  8
Default
100
AcDbSpline
210
0.0
220
0.0
230
1.0
 70
    12
 71
     2
 72
     6
 73
     3
 74
     0
 42
0.0000000001
 43
0.0000000001
 40
0.0
 40
0.0
 40
0.0
 40
0.109941564851661
 40
0.109941564851661
 40
0.109941564851661
 10
-12.05528139573
 20
54.25453938528207
 30
0.0
 41
1.0
 10
-12.05524836127531
 20
54.32450635082873
 30
0.0
 41
0.7074405726109262
 10
-11.98528139573
 20
54.32453938812206
 30
0.0
 41
1.0
  0
SPLINE
  5
262
330
1F
100
AcDbEntity
  8
Default
100
AcDbSpline
210
0.0
220
0.0
230
1.0
 70
    24
 71
     2
 72
     6
 73
     3
 74
     0
 42
0.0000000001
 43
0.0000000001
 40
0.0
 40
0.0
 40
0.0
 40
0.0481133978343138
 40
0.0481133978343138
 40
0.0481133978343138
 10
-11.98528139573
 20
54.32453938812206
 30
0.0
 10
-11.96122469681284
 20
54.32453938812206
 30
0.0
 10
-11.93716799789568
 20
54.32453938812206
 30
0.0
  0
SPLINE
  5
263
330
1F
100
AcDbEntity
  8
Default
100
AcDbSpline
210
0.0
220
0.0
230
1.0
 70
     8
 71
     3
 72
    27
 73
    23
 74
     0
 42
0.0000000001
 43
0.0000000001
 40
0.0
 40
0.0
 40
0.0
 40
0.0
 40
1.077634478549111
 40
2.940330870901355
 40
4.824021849476623
 40
6.028944164403999
 40
7.931071619601484
 40
8.960880137555591
 40
10.48715325067344
 40
11.27214800177732
 40
12.33653255881819
 40
12.90846384200237
 40
14.83906257842312
 40
16.47243461500653
 40
18.03704612856769
 40
19.54584639782556
 40
21.57070720307527
 40
22.75883326498337
 40
23.14250973245781
 40
23.80837455901097
 40
24.46538027797283
 40
25.01111499873733
 40
25.01111499873733
 40
25.01111499873733
 40
25.01111499873733
 10
-9.283152644749123
 20
48.17240336530078
 30
0.0
 10
-9.512440439025966
 20
48.44888301401426
 30
0.0
 10
-10.10078439124533
 20
49.23437091748917
 30
0.0
 10
-10.89142029631164
 20
50.64041887138283
 30
0.0
 10
-11.47251896259841
 20
52.18992864883953
 30
0.0
 10
-11.87757663623007
 20
53.8048420623852
 30
0.0
 10
-12.06664070784522
 20
55.17417410186967
 30
0.0
 10
-12.10854721483619
 20
56.66048736871127
 30
0.0
 10
-12.07646408478718
 20
57.77409862235152
 30
0.0
 10
-12.01897822166916
 20
58.89773241504602
 30
0.0
 10
-11.93895600509107
 20
59.70154420857765
 30
0.0
 10
-11.73622315201941
 20
60.87339197018771
 30
0.0
 10
-11.44132846164939
 20
62.22107098246267
 30
0.0
 10
-10.92532092384297
 20
63.85309086999337
 30
0.0
 10
-10.2991442191778
 20
65.29415636093533
 30
0.0
 10
-9.440276050271635
 20
66.76480168404078
 30
0.0
 10
-8.429558680964817
 20
67.98081910249824
 30
0.0
 10
-7.53341625884245
 20
68.78006787402502
 30
0.0
 10
-6.938891914068194
 20
69.2309778918519
 30
0.0
 10
-6.44173996066317
 20
69.51135477096375
 30
0.0
 10
-5.871757837913691
 20
69.76315950292808
 30
0.0
 10
-5.492960245613617
 20
69.89504877553084
 30
0.0
 10
-5.319301078223631
 20
69.95033587897245
 30
0.0
  0
SPLINE
  5
264
330
1F
100
AcDbEntity
  8
Default
100
AcDbSpline
210
0.0
220
0.0
230
1.0
 70
    12
 71
     3
 72
    11
 73
     7
 74
     0
 42
0.0000000001
 43
0.0000000001
 40
1.380924640814628
 40
1.380924640814628
 40
1.380924640814628
 40
1.380924640814628
 40
1.5
 40
1.75
 40
1.875
 40
2.0
 40
2.0
 40
2.0
 40
2.0
 10
-5.319301078223631
 20
69.95033587897245
 30
0.0
 41
1.0
 10
-5.080759704770699
 20
70.02613631578271
 30
0.0
 41
1.0
 10
-4.291013015513542
 20
70.24295356593146
 30
0.0
 41
1.0
 10
-2.981059158436878
 20
70.455440759128
 30
0.0
 41
1.0
 10
-1.383830834928247
 20
70.56807279946004
 30
0.0
 41
1.0
 10
-0.4780719941722111
 20
70.58821500313218
 30
0.0
 41
1.0
 10
0.0000034107429059
 20
70.58821490976356
 30
0.0
 41
1.0
  0
SPLINE
  5
265
330
1F
100
AcDbEntity
  8
Default
100
AcDbSpline
210
0.0
220
0.0
230
1.0
 70
    12
 71
     3
 72
    11
 73
     7
 74
     0
 42
0.0000000001
 43
0.0000000001
 40
-2.0
 40
-2.0
 40
-2.0
 40
-2.0
 40
-1.875
 40
-1.75
 40
-1.5
 40
-1.380924529508031
 40
-1.380924529508031
 40
-1.380924529508031
 40
-1.380924529508031
 10
0.0000034107429059
 20
70.58821490976356
 30
0.0
 41
1.0
 10
0.4780789313148546
 20
70.58821500313218
 30
0.0
 41
1.0
 10
1.383837998820695
 20
70.56807279946004
 30
0.0
 41
1.0
 10
2.981066748882213
 20
70.455440759128
 30
0.0
 41
1.0
 10
4.291021289519065
 20
70.24295351806178
 30
0.0
 41
1.0
 10
5.080768420718222
 20
70.02613618500621
 30
0.0
 41
1.0
 10
5.31930697450894
 20
69.95033650285546
 30
0.0
 41
1.0
  0
SPLINE
  5
266
330
1F
100
AcDbEntity
  8
Default
100
AcDbSpline
210
0.0
220
0.0
230
1.0
 70
     8
 71
     3
 72
    27
 73
    23
 74
     0
 42
0.0000000001
 43
0.0000000001
 40
0.0
 40
0.0
 40
0.0
 40
0.0
 40
0.5563779301748657
 40
1.252809903458407
 40
1.923976863065907
 40
2.338447907766363
 40
4.024208682733747
 40
5.576225432896053
 40
7.120579185713177
 40
8.727777100183538
 40
10.38391480079919
 40
12.39306789409612
 40
12.9879524389278
 40
14.08210176163478
 40
15.47567627724159
 40
16.37721723424434
 40
17.15238290601983
 40
19.27602318663107
 40
20.61670691874266
 40
22.3675765283301
 40
24.15645589935474
 40
25.3170516709122
 40
25.3170516709122
 40
25.3170516709122
 40
25.3170516709122
 10
5.31930697450894
 20
69.95033650285546
 30
0.0
 10
5.496345863957629
 20
69.89397471425144
 30
0.0
 10
5.890840908513226
 20
69.7563811187286
 30
0.0
 10
6.477746117307888
 20
69.49586392218444
 30
0.0
 10
6.991728050142854
 20
69.19516205007707
 30
0.0
 10
7.723003162228665
 20
68.62952276503232
 30
0.0
 10
8.60699165623511
 20
67.78714232218236
 30
0.0
 10
9.590327434779752
 20
66.52766212473924
 30
0.0
 10
10.3661342026784
 20
65.16044054139657
 30
0.0
 10
10.98912073927168
 20
63.681931432338
 30
0.0
 10
11.49918602059526
 20
61.997651719436
 30
0.0
 10
11.79173656776008
 20
60.60697062722872
 30
0.0
 10
11.97979935234487
 20
59.38841087273141
 30
0.0
 10
12.05112137086759
 20
58.36209224582368
 30
0.0
 10
12.0959168218065
 20
57.23402625539821
 30
0.0
 10
12.09857360191221
 20
56.20984581504647
 30
0.0
 10
12.04592861526585
 20
54.94405683917324
 30
0.0
 10
11.83099999705327
 20
53.54250174084036
 30
0.0
 10
11.3669133439443
 20
51.86598315711806
 30
0.0
 10
10.74928778210968
 20
50.35615949747374
 30
0.0
 10
9.948788789669742
 20
49.00411172674175
 30
0.0
 10
9.339866948874956
 20
48.23034997081226
 30
0.0
 10
9.084574366734735
 20
47.93970183900279
 30
0.0
  0
SPLINE
  5
267
330
1F
100
AcDbEntity
  8
Default
100
AcDbSpline
210
0.0
220
0.0
230
1.0
 70
     8
 71
     3
 72
    12
 73
     8
 74
     0
 42
0.0000000001
 43
0.0000000001
 40
0.0
 40
0.0
 40
0.0
 40
0.0
 40
1.839088205257151
 40
3.681958122248518
 40
7.393161344914187
 40
11.14156523886651
 40
14.91612102967629
 40
14.91612102967629
 40
14.91612102967629
 40
14.91612102967629
 10
-9.624981332590622
 20
54.01292207300717
 30
0.0
 10
-9.62501590635101
 20
53.39881743584362
 30
0.0
 10
-9.49948417372778
 20
52.17219356432454
 30
0.0
 10
-8.764285392002606
 20
49.80615699683575
 30
0.0
 10
-6.969075615425822
 20
47.20257032250954
 30
0.0
 10
-3.765760095016347
 20
45.12852957388126
 30
0.0
 10
-1.258169372502024
 20
44.64540734495492
 30
0.0
 10
0.0000066969453201
 20
44.6452127196177
 30
0.0
  0
SPLINE
  5
268
330
1F
100
AcDbEntity
  8
Default
100
AcDbSpline
210
0.0
220
0.0
230
1.0
 70
     8
 71
     3
 72
    12
 73
     8
 74
     0
 42
0.0000000001
 43
0.0000000001
 40
0.0
 40
0.0
 40
0.0
 40
0.0
 40
1.889436739208306
 40
3.775156018868659
 40
7.521347154661371
 40
11.23173116836975
 40
14.91612104830391
 40
14.91612104830391
 40
14.91612104830391
 40
14.91612104830391
 10
0.0000066969453201
 20
44.6452127196177
 30
0.0
 10
0.629781140860004
 20
44.64527246983759
 30
0.0
 10
1.888197819030751
 20
44.76677677093637
 30
0.0
 10
4.304197824807375
 20
45.47732772555217
 30
0.0
 10
6.968062456123377
 20
47.20181301421015
 30
0.0
 10
9.118814976932441
 20
50.31971756162934
 30
0.0
 10
9.625282531752205
 20
52.784056605688
 30
0.0
 10
9.624991881283634
 20
54.01275661504154
 30
0.0
  0
SPLINE
  5
269
330
1F
100
AcDbEntity
  8
Default
100
AcDbSpline
210
0.0
220
0.0
230
1.0
 70
     8
 71
     3
 72
    12
 73
     8
 74
     0
 42
0.0000000001
 43
0.0000000001
 40
-15.37823054169761
 40
-15.37823054169761
 40
-15.37823054169761
 40
-15.37823054169761
 40
-11.46360448765836
 40
-7.628973434916611
 40
-3.787697327406723
 40
-1.918385852904538
 40
0.0
 40
0.0
 40
0.0
 40
0.0
 10
9.624991881283634
 20
54.01275661504154
 30
0.0
 10
9.624592685077545
 20
55.31749761086634
 30
0.0
 10
9.162689951061523
 20
57.90625324908966
 30
0.0
 10
7.048017872735528
 20
61.23336653731536
 30
0.0
 10
4.351146740867591
 20
63.04973300466663
 30
0.0
 10
1.902154146811725
 20
63.7756825049622
 30
0.0
 10
0.6394408305906296
 20
63.89847157367468
 30
0.0
 10
0.0000029683030647
 20
63.89790117184484
 30
0.0
  0
SPLINE
  5
26A
330
1F
100
AcDbEntity
  8
Default
100
AcDbSpline
210
0.0
220
0.0
230
1.0
 70
     8
 71
     3
 72
    12
 73
     8
 74
     0
 42
0.0000000001
 43
0.0000000001
 40
-15.37794659634142
 40
-15.37794659634142
 40
-15.37794659634142
 40
-15.37794659634142
 40
-11.50259787367827
 40
-7.748286961365539
 40
-3.918858638804654
 40
-1.968953222664893
 40
0.0
 40
0.0
 40
0.0
 40
0.0
 10
0.0000029683030647
 20
63.89790117184484
 30
0.0
 10
-1.291003739916491
 20
63.89798841312061
 30
0.0
 10
-3.838554587331657
 20
63.40223233468373
 30
0.0
 10
-7.06266838693422
 20
61.2089379819048
 30
0.0
 10
-8.803436724450165
 20
58.47276692850113
 30
0.0
 10
-9.506742711317614
 20
55.97680622011251
 30
0.0
 10
-9.625313733992172
 20
54.6699824348339
 30
0.0
 10
-9.624981332590622
 20
54.01292207300717
 30
0.0
  0
SPLINE
  5
26B
330
1F
100
AcDbEntity
  8
Default
100
AcDbSpline
210
0.0
220
0.0
230
1.0
 70
     8
 71
     3
 72
    14
 73
    10
 74
     0
 42
0.0000000001
 43
0.0000000001
 40
0.0
 40
0.0
 40
0.0
 40
0.0
 40
1.0
 40
2.0
 40
3.0
 40
4.0
 40
5.0
 40
6.0
 40
7.0
 40
7.0
 40
7.0
 40
7.0
 10
-10.77000430113276
 20
61.16221618485923
 30
0.0
 10
-10.86306637499317
 20
60.61764138146442
 30
0.0
 10
-11.07627234911874
 20
59.53417521153919
 30
0.0
 10
-11.32599700070084
 20
57.89331490658178
 30
0.0
 10
-11.36091581004935
 20
56.23525112832571
 30
0.0
 10
-11.30615088801048
 20
54.57690247182126
 30
0.0
 10
-11.00773844621028
 20
52.94233876922669
 30
0.0
 10
-10.46899574593651
 20
51.37190781706048
 30
0.0
 10
-10.05007868046805
 20
50.34997000276108
 30
0.0
 10
-9.660031318905752
 20
49.84617280582434
 30
0.0
  0
ARC
  5
26C
330
1F
100
AcDbEntity
  8
Default
100
AcDbCircle
 10
0.8776922888207963
 20
58.0046367970057
 30
0.0
 40
13.32682083350116
100
AcDbArc
 50
217.7475749062871
 51
242.2888434923139
  0
SPLINE
  5
26D
330
1F
100
AcDbEntity
  8
Default
100
AcDbSpline
210
0.0
220
0.0
230
1.0
 70
     8
 71
     3
 72
    34
 73
    30
 74
     0
 42
0.0000000001
 43
0.0000000001
 40
-27.0
 40
-27.0
 40
-27.0
 40
-27.0
 40
-26.0
 40
-25.0
 40
-24.0
 40
-23.0
 40
-22.0
 40
-21.0
 40
-20.0
 40
-19.0
 40
-18.0
 40
-17.0
 40
-16.0
 40
-15.0
 40
-14.0
 40
-13.0
 40
-12.0
 40
-11.0
 40
-10.0
 40
-9.0
 40
-8.0
 40
-7.0
 40
-6.0
 40
-5.0
 40
-4.0
 40
-3.0
 40
-2.0
 40
-1.0
 40
0.0
 40
0.0
 40
0.0
 40
0.0
 10
7.49272092934887
 20
46.46037142230196
 30
0.0
 10
7.811907115182024
 20
46.70001723053127
 30
0.0
 10
8.420690735700376
 20
47.21710591022575
 30
0.0
 10
9.237078393644495
 20
48.09389772562398
 30
0.0
 10
9.947828772676885
 20
49.05829074743259
 30
0.0
 10
10.54321057350228
 20
50.09785816952991
 30
0.0
 10
11.01880887964322
 20
51.19708918103455
 30
0.0
 10
11.38048388059801
 20
52.33877545784752
 30
0.0
 10
11.62718182468764
 20
53.51023009651892
 30
0.0
 10
11.77602146583257
 20
54.69831196258639
 30
0.0
 10
11.81519387305963
 20
55.89432534174531
 30
0.0
 10
11.79999342895638
 20
57.09042405899043
 30
0.0
 10
11.76941675799405
 20
58.28591675534016
 30
0.0
 10
11.68945906373991
 20
59.48044048843374
 30
0.0
 10
11.48324464273985
 20
60.65967641581976
 30
0.0
 10
11.24637332666605
 20
61.83201347714786
 30
0.0
 10
10.9376063911926
 20
62.98832932647097
 30
0.0
 10
10.54605070020613
 20
64.1193880572594
 30
0.0
 10
10.05665178343357
 20
65.21228088496383
 30
0.0
 10
9.456874668654734
 20
66.24894313626476
 30
0.0
 10
8.740858131469253
 20
67.2104671825375
 30
0.0
 10
7.908445577549244
 20
68.07018273573848
 30
0.0
 10
6.988171046402393
 20
68.84439023179361
 30
0.0
 10
5.895111579284595
 20
69.35038696244996
 30
0.0
 10
4.750041029105354
 20
69.69805772066059
 30
0.0
 10
3.576319918733944
 20
69.93479536798728
 30
0.0
 10
2.389667947663114
 20
70.08815679886595
 30
0.0
 10
1.196057557578754
 20
70.17121021914569
 30
0.0
 10
0.3986773173135134
 20
70.18755799608019
 30
0.0
 10
0.0
 20
70.18739068603874
 30
0.0
  0
SPLINE
  5
26E
330
1F
100
AcDbEntity
  8
Default
100
AcDbSpline
210
0.0
220
0.0
230
1.0
 70
     8
 71
     3
 72
    34
 73
    30
 74
     0
 42
0.0000000001
 43
0.0000000001
 40
0.0
 40
0.0
 40
0.0
 40
0.0
 40
1.0
 40
2.0
 40
3.0
 40
4.0
 40
5.0
 40
6.0
 40
7.0
 40
8.0
 40
9.0
 40
10.0
 40
11.0
 40
12.0
 40
13.0
 40
14.0
 40
15.0
 40
16.0
 40
17.0
 40
18.0
 40
19.0
 40
20.0
 40
21.0
 40
22.0
 40
23.0
 40
24.0
 40
25.0
 40
26.0
 40
27.0
 40
27.0
 40
27.0
 40
27.0
 10
0.0
 20
70.18739068603874
 30
0.0
 10
-0.3986773173135134
 20
70.18755799608019
 30
0.0
 10
-1.196057557578754
 20
70.17121021914569
 30
0.0
 10
-2.389667947663114
 20
70.08815679886595
 30
0.0
 10
-3.576319918733944
 20
69.93479536798728
 30
0.0
 10
-4.750041029105347
 20
69.69805772066059
 30
0.0
 10
-5.895111579284602
 20
69.35038696244996
 30
0.0
 10
-6.9881710464024
 20
68.84439023179361
 30
0.0
 10
-7.908445577549244
 20
68.07018273573848
 30
0.0
 10
-8.740858131469253
 20
67.2104671825375
 30
0.0
 10
-9.456874668654734
 20
66.24894313626476
 30
0.0
 10
-10.05665178343357
 20
65.21228088496383
 30
0.0
 10
-10.54605070020612
 20
64.1193880572594
 30
0.0
 10
-10.9376063911926
 20
62.98832932647097
 30
0.0
 10
-11.24637332666605
 20
61.83201347714786
 30
0.0
 10
-11.48324464273985
 20
60.65967641581976
 30
0.0
 10
-11.6894590637399
 20
59.48044048843374
 30
0.0
 10
-11.76941675799405
 20
58.28591675534016
 30
0.0
 10
-11.79999342895638
 20
57.09042405899043
 30
0.0
 10
-11.81519387305963
 20
55.89432534174531
 30
0.0
 10
-11.77602146583257
 20
54.69831196258639
 30
0.0
 10
-11.62718182468764
 20
53.51023009651892
 30
0.0
 10
-11.38048388059801
 20
52.33877545784752
 30
0.0
 10
-11.01880887964322
 20
51.19708918103455
 30
0.0
 10
-10.54321057350228
 20
50.09785816952991
 30
0.0
 10
-9.947828772676885
 20
49.05829074743259
 30
0.0
 10
-9.237078393644495
 20
48.09389772562398
 30
0.0
 10
-8.420690735700376
 20
47.21710591022575
 30
0.0
 10
-7.811907115182024
 20
46.70001723053127
 30
0.0
 10
-7.492506306451148
 20
46.46023040628049
 30
0.0
  0
SPLINE
  5
26F
330
1F
100
AcDbEntity
  8
Default
100
AcDbSpline
210
0.0
220
0.0
230
1.0
 70
     8
 71
     3
 72
    12
 73
     8
 74
     0
 42
0.0000000001
 43
0.0000000001
 40
-15.98328859988131
 40
-15.98328859988131
 40
-15.98328859988131
 40
-15.98328859988131
 40
-12.14615098630416
 40
-7.990864800483054
 40
-3.835434903358474
 40
-1.933616654245513
 40
0.0
 40
0.0
 40
0.0
 40
0.0
 10
-7.492506306451148
 20
46.46023040628049
 30
0.0
 10
-6.474819008824966
 20
45.68570683409889
 30
0.0
 10
-4.053153011381099
 20
44.47476837944972
 30
0.0
 10
0.0020335638131854
 20
43.92482947624396
 30
0.0
 10
3.407439005601972
 20
44.38798921763414
 30
0.0
 10
5.891606255436457
 20
45.39287771560991
 30
0.0
 10
6.977319340540944
 20
46.07050668795993
 30
0.0
 10
7.49272092934887
 20
46.46037142230196
 30
0.0
  0
SPLINE
  5
270
330
1F
100
AcDbEntity
  8
Default
100
AcDbSpline
210
0.0
220
0.0
230
1.0
 70
     8
 71
     3
 72
    14
 73
    10
 74
     0
 42
0.0000000001
 43
0.0000000001
 40
0.0
 40
0.0
 40
0.0
 40
0.0
 40
1.0
 40
2.0
 40
3.0
 40
4.0
 40
5.0
 40
6.0
 40
7.0
 40
7.0
 40
7.0
 40
7.0
 10
10.77000430113276
 20
61.16221618485923
 30
0.0
 10
10.86306637499317
 20
60.61764138146442
 30
0.0
 10
11.07627234911874
 20
59.53417521153919
 30
0.0
 10
11.32599700070084
 20
57.89331490658178
 30
0.0
 10
11.36091581004935
 20
56.23525112832571
 30
0.0
 10
11.30615088801048
 20
54.57690247182126
 30
0.0
 10
11.00773844621028
 20
52.94233876922669
 30
0.0
 10
10.46899574593652
 20
51.37190781706048
 30
0.0
 10
10.05007868046805
 20
50.34997000276108
 30
0.0
 10
9.660031318905759
 20
49.84617280582434
 30
0.0
  0
ARC
  5
271
330
1F
100
AcDbEntity
  8
Default
100
AcDbCircle
 10
-0.8776922888207963
 20
58.0046367970057
 30
0.0
 40
13.32682083350116
100
AcDbArc
 50
297.711156507686
 51
322.2524250937129
  0
SPLINE
  5
272
330
1F
100
AcDbEntity
  8
Default
100
AcDbSpline
210
0.0
220
0.0
230
1.0
 70
     8
 71
     3
 72
    11
 73
     7
 74
     0
 42
0.0000000001
 43
0.0000000001
 40
0.0
 40
0.0
 40
0.0
 40
0.0
 40
0.5861565954657237
 40
1.163409459496301
 40
2.334808815369268
 40
4.818997376988517
 40
4.818997376988517
 40
4.818997376988517
 40
4.818997376988517
 10
-4.765377709007055
 20
70.11546948043296
 30
0.0
 10
-4.577174353396927
 20
70.16786382719728
 30
0.0
 10
-4.201590617487142
 20
70.26500623711243
 30
0.0
 10
-3.441305104283558
 20
70.43143487607149
 30
0.0
 10
-2.047333923523126
 20
70.65705563685572
 30
0.0
 10
-0.8279084740178035
 20
70.7221168935701
 30
0.0
 10
0.0000036513870612
 20
70.72199926779987
 30
0.0
  0
SPLINE
  5
273
330
1F
100
AcDbEntity
  8
Default
100
AcDbSpline
210
0.0
220
0.0
230
1.0
 70
     8
 71
     3
 72
    11
 73
     7
 74
     0
 42
0.0000000001
 43
0.0000000001
 40
0.0
 40
0.0
 40
0.0
 40
0.0
 40
0.6519377653901303
 40
1.287586817363997
 40
2.508363764361541
 40
4.819260708309364
 40
4.819260708309364
 40
4.819260708309364
 40
4.819260708309364
 10
0.0000036513870612
 20
70.72199926779987
 30
0.0
 10
0.217312128364199
 20
70.72199372327894
 30
0.0
 10
0.6465228576186206
 20
70.71605366543359
 30
0.0
 10
1.481912275419546
 20
70.67909934062303
 30
0.0
 10
2.865961135299287
 20
70.55200758268126
 30
0.0
 10
4.023630198747952
 20
70.32256376906085
 30
0.0
 10
4.765638791105573
 20
70.11540145149267
 30
0.0
  0
ENDSEC
  0
SECTION
  2
OBJECTS
  0
DICTIONARY
  5
C
330
0
100
AcDbDictionary
281
     1
  3
ACAD_GROUP
350
D
  3
ACAD_LAYOUT
350
1A
  3
ACAD_MLEADERSTYLE
350
275
  3
ACAD_MLINESTYLE
350
17
  3
ACAD_PLOTSETTINGS
350
19
  3
ACAD_PLOTSTYLENAME
350
E
  3
ACAD_TABLESTYLE
350
274
  3
ACAD_VISUALSTYLE
350
2A
  0
DICTIONARY
  5
D
102
{ACAD_REACTORS
330
C
102
}
330
C
100
AcDbDictionary
281
     1
  0
DICTIONARY
  5
1A
102
{ACAD_REACTORS
330
C
102
}
330
C
100
AcDbDictionary
281
     1
  3
Layout1
350
1E
  3
Layout2
350
26
  3
Model
350
22
  0
DICTIONARY
  5
275
102
{ACAD_REACTORS
330
C
102
}
330
C
100
AcDbDictionary
281
     1
  0
DICTIONARY
  5
17
102
{ACAD_REACTORS
330
C
102
}
330
C
100
AcDbDictionary
281
     1
  3
Standard
350
18
  0
DICTIONARY
  5
19
102
{ACAD_REACTORS
330
C
102
}
330
C
100
AcDbDictionary
281
     1
  0
ACDBDICTIONARYWDFLT
  5
E
102
{ACAD_REACTORS
330
C
102
}
330
C
100
AcDbDictionary
281
     1
  3
Normal
350
F
100
AcDbDictionaryWithDefault
340
F
  0
DICTIONARY
  5
274
102
{ACAD_REACTORS
330
C
102
}
330
C
100
AcDbDictionary
281
     1
  0
DICTIONARY
  5
2A
102
{ACAD_REACTORS
330
C
102
}
330
C
100
AcDbDictionary
281
     1
  3
2dWireframe
350
2F
  3
3D Hidden
350
31
  3
3dWireframe
350
30
  3
Basic
350
32
  3
Brighten
350
36
  3
ColorChange
350
3A
  3
Conceptual
350
34
  3
Dim
350
35
  3
Facepattern
350
39
  3
Flat
350
2B
  3
FlatWithEdges
350
2C
  3
Gouraud
350
2D
  3
GouraudWithEdges
350
2E
  3
Linepattern
350
38
  3
Realistic
350
33
  3
Thicken
350
37
  0
LAYOUT
  5
1E
102
{ACAD_REACTORS
330
1A
102
}
330
1A
100
AcDbPlotSettings
  1

  2
none_device
  4

  6

 40
0.0
 41
0.0
 42
0.0
 43
0.0
 44
0.0
 45
0.0
 46
0.0
 47
0.0
 48
0.0
 49
0.0
140
0.0
141
0.0
142
1.0
143
1.0
 70
   688
 72
     0
 73
     0
 74
     5
  7

 75
    16
 76
     0
 77
     2
 78
   300
147
1.0
148
0.0
149
0.0
100
AcDbLayout
  1
Layout1
 70
     1
 71
     1
 10
0.0
 20
0.0
 11
12.0
 21
9.0
 12
0.0
 22
0.0
 32
0.0
 14
1.000000000000000E+20
 24
1.000000000000000E+20
 34
1.000000000000000E+20
 15
-1.000000000000000E+20
 25
-1.000000000000000E+20
 35
-1.000000000000000E+20
146
0.0
 13
0.0
 23
0.0
 33
0.0
 16
1.0
 26
0.0
 36
0.0
 17
0.0
 27
1.0
 37
0.0
 76
     0
330
1B
  0
LAYOUT
  5
26
102
{ACAD_REACTORS
330
1A
102
}
330
1A
100
AcDbPlotSettings
  1

  2
none_device
  4

  6

 40
0.0
 41
0.0
 42
0.0
 43
0.0
 44
0.0
 45
0.0
 46
0.0
 47
0.0
 48
0.0
 49
0.0
140
0.0
141
0.0
142
1.0
143
1.0
 70
   688
 72
     0
 73
     0
 74
     5
  7

 75
    16
 76
     0
 77
     2
 78
   300
147
1.0
148
0.0
149
0.0
100
AcDbLayout
  1
Layout2
 70
     1
 71
     2
 10
0.0
 20
0.0
 11
0.0
 21
0.0
 12
0.0
 22
0.0
 32
0.0
 14
0.0
 24
0.0
 34
0.0
 15
0.0
 25
0.0
 35
0.0
146
0.0
 13
0.0
 23
0.0
 33
0.0
 16
1.0
 26
0.0
 36
0.0
 17
0.0
 27
1.0
 37
0.0
 76
     0
330
23
  0
LAYOUT
  5
22
102
{ACAD_REACTORS
330
1A
102
}
330
1A
100
AcDbPlotSettings
  1

  2
none_device
  4

  6

 40
0.0
 41
0.0
 42
0.0
 43
0.0
 44
0.0
 45
0.0
 46
0.0
 47
0.0
 48
0.0
 49
0.0
140
0.0
141
0.0
142
1.0
143
1.0
 70
  1712
 72
     0
 73
     0
 74
     0
  7

 75
     0
 76
     0
 77
     2
 78
   300
147
1.0
148
0.0
149
0.0
100
AcDbLayout
  1
Model
 70
     1
 71
     0
 10
0.0
 20
0.0
 11
12.0
 21
9.0
 12
0.0
 22
0.0
 32
0.0
 14
-13.55328139573
 24
-0.0000000000000001
 34
0.0
 15
56.2168833029301
 25
70.72199926779987
 35
0.0
146
0.0
 13
0.0
 23
0.0
 33
0.0
 16
1.0
 26
0.0
 36
0.0
 17
0.0
 27
1.0
 37
0.0
 76
     0
330
1F
331
29
  0
MLINESTYLE
  5
18
102
{ACAD_REACTORS
330
17
102
}
330
17
100
AcDbMlineStyle
  2
Standard
 70
     0
  3

 62
   256
 51
90.0
 52
90.0
 71
     2
 49
0.5
 62
   256
  6
BYLAYER
 49
-0.5
 62
   256
  6
BYLAYER
  0
ACDBPLACEHOLDER
  5
F
102
{ACAD_REACTORS
330
E
102
}
330
E
  0
VISUALSTYLE
  5
2F
102
{ACAD_REACTORS
330
2A
102
}
330
2A
100
AcDbVisualStyle
  2
2dWireframe
 70
     4
 71
     0
 72
     2
 73
     0
 90
        0
 40
-0.6
 41
-30.0
 62
     5
 63
     7
421
 16777215
 74
     1
 91
        4
 64
     7
 65
   257
 75
     1
175
     1
 42
1.0
 92
        0
 66
   257
 43
1.0
 76
     1
 77
     6
 78
     2
 67
     7
 79
     5
170
     0
171
     0
290
     0
174
     0
 93
        1
 44
0.0
173
     0
291
     0
 45
0.0
1001
ACAD
1000
AcDbSavedByObjectVersion
1070
     0
  0
VISUALSTYLE
  5
31
102
{ACAD_REACTORS
330
2A
102
}
330
2A
100
AcDbVisualStyle
  2
3D Hidden
 70
     6
 71
     1
 72
     2
 73
     2
 90
        0
 40
-0.6
 41
-30.0
 62
     5
 63
     7
421
 16777215
 74
     2
 91
        2
 64
     7
 65
   257
 75
     2
175
     1
 42
40.0
 92
        0
 66
   257
 43
1.0
 76
     1
 77
     6
 78
     2
 67
     7
 79
     3
170
     0
171
     0
290
     0
174
     0
 93
        1
 44
0.0
173
     0
291
     0
 45
0.0
1001
ACAD
1000
AcDbSavedByObjectVersion
1070
     0
  0
VISUALSTYLE
  5
30
102
{ACAD_REACTORS
330
2A
102
}
330
2A
100
AcDbVisualStyle
  2
3dWireframe
 70
     5
 71
     0
 72
     2
 73
     0
 90
        0
 40
-0.6
 41
-30.0
 62
     5
 63
     7
421
 16777215
 74
     1
 91
        4
 64
     7
 65
   257
 75
     1
175
     1
 42
1.0
 92
        0
 66
   257
 43
1.0
 76
     1
 77
     6
 78
     2
 67
     7
 79
     5
170
     0
171
     0
290
     0
174
     0
 93
        1
 44
0.0
173
     0
291
     0
 45
0.0
1001
ACAD
1000
AcDbSavedByObjectVersion
1070
     0
  0
VISUALSTYLE
  5
32
102
{ACAD_REACTORS
330
2A
102
}
330
2A
100
AcDbVisualStyle
  2
Basic
 70
     7
 71
     1
 72
     0
 73
     1
 90
        0
 40
-0.6
 41
-30.0
 62
     5
 63
     7
421
 16777215
 74
     0
 91
        4
 64
     7
 65
   257
 75
     1
175
     1
 42
1.0
 92
        8
 66
     7
 43
1.0
 76
     1
 77
     6
 78
     2
 67
     7
 79
     5
170
     0
171
     0
290
     0
174
     0
 93
        1
 44
0.0
173
     0
291
     1
 45
0.0
1001
ACAD
1000
AcDbSavedByObjectVersion
1070
     0
  0
VISUALSTYLE
  5
36
102
{ACAD_REACTORS
330
2A
102
}
330
2A
100
AcDbVisualStyle
  2
Brighten
 70
    12
 71
     2
 72
     2
 73
     0
 90
        0
 40
-0.6
 41
-30.0
 62
     5
 63
     7
421
 16777215
 74
     1
 91
        4
 64
     7
 65
   257
 75
     1
175
     1
 42
1.0
 92
        8
 66
     7
 43
1.0
 76
     1
 77
     6
 78
     2
 67
     7
 79
     5
170
     0
171
     0
290
     0
174
     0
 93
        1
 44
50.0
173
     0
291
     1
 45
0.0
1001
ACAD
1000
AcDbSavedByObjectVersion
1070
     0
  0
VISUALSTYLE
  5
3A
102
{ACAD_REACTORS
330
2A
102
}
330
2A
100
AcDbVisualStyle
  2
ColorChange
 70
    16
 71
     2
 72
     2
 73
     3
 90
        0
 40
-0.6
 41
-30.0
 62
     5
 63
     8
421
  8421504
 74
     1
 91
        4
 64
     7
 65
   257
 75
     1
175
     1
 42
1.0
 92
        8
 66
     8
424
  8421504
 43
1.0
 76
     1
 77
     6
 78
     2
 67
     7
 79
     5
170
     0
171
     0
290
     0
174
     0
 93
        1
 44
0.0
173
     0
291
     1
 45
0.0
1001
ACAD
1000
AcDbSavedByObjectVersion
1070
     0
  0
VISUALSTYLE
  5
34
102
{ACAD_REACTORS
330
2A
102
}
330
2A
100
AcDbVisualStyle
  2
Conceptual
 70
     9
 71
     3
 72
     2
 73
     0
 90
        0
 40
-0.6
 41
-30.0
 62
     5
 63
     7
421
 16777215
 74
     2
 91
        2
 64
     7
 65
   257
 75
     1
175
     1
 42
40.0
 92
        8
 66
     7
 43
1.0
 76
     1
 77
     6
 78
     2
 67
     7
 79
     3
170
     0
171
     0
290
     0
174
     0
 93
        1
 44
0.0
173
     0
291
     0
 45
0.0
1001
ACAD
1000
AcDbSavedByObjectVersion
1070
     0
  0
VISUALSTYLE
  5
35
102
{ACAD_REACTORS
330
2A
102
}
330
2A
100
AcDbVisualStyle
  2
Dim
 70
    11
 71
     2
 72
     2
 73
     0
 90
        0
 40
-0.6
 41
-30.0
 62
     5
 63
     7
421
 16777215
 74
     1
 91
        4
 64
     7
 65
   257
 75
     1
175
     1
 42
1.0
 92
        8
 66
     7
 43
1.0
 76
     1
 77
     6
 78
     2
 67
     7
 79
     5
170
     0
171
     0
290
     0
174
     0
 93
        1
 44
-50.0
173
     0
291
     1
 45
0.0
1001
ACAD
1000
AcDbSavedByObjectVersion
1070
     0
  0
VISUALSTYLE
  5
39
102
{ACAD_REACTORS
330
2A
102
}
330
2A
100
AcDbVisualStyle
  2
Facepattern
 70
    15
 71
     2
 72
     2
 73
     0
 90
        0
 40
-0.6
 41
-30.0
 62
     5
 63
     7
421
 16777215
 74
     1
 91
        4
 64
     7
 65
   257
 75
     1
175
     1
 42
1.0
 92
        8
 66
     7
 43
1.0
 76
     1
 77
     6
 78
     2
 67
     7
 79
     5
170
     0
171
     0
290
     0
174
     0
 93
        1
 44
0.0
173
     0
291
     1
 45
0.0
1001
ACAD
1000
AcDbSavedByObjectVersion
1070
     0
  0
VISUALSTYLE
  5
2B
102
{ACAD_REACTORS
330
2A
102
}
330
2A
100
AcDbVisualStyle
  2
Flat
 70
     0
 71
     2
 72
     1
 73
     1
 90
        2
 40
-0.6
 41
30.0
 62
     5
 63
     7
421
 16777215
 74
     0
 91
        4
 64
     7
 65
   257
 75
     1
175
     1
 42
1.0
 92
        8
 66
     7
 43
1.0
 76
     1
 77
     6
 78
     2
 67
     7
 79
     5
170
     0
171
     0
290
     0
174
     0
 93
       13
 44
0.0
173
     0
291
     1
 45
0.0
1001
ACAD
1000
AcDbSavedByObjectVersion
1070
     0
  0
VISUALSTYLE
  5
2C
102
{ACAD_REACTORS
330
2A
102
}
330
2A
100
AcDbVisualStyle
  2
FlatWithEdges
 70
     1
 71
     2
 72
     1
 73
     1
 90
        2
 40
-0.6
 41
30.0
 62
     5
 63
     7
421
 16777215
 74
     1
 91
        4
 64
     7
 65
   257
 75
     1
175
     1
 42
1.0
 92
        0
 66
   257
 43
1.0
 76
     1
 77
     6
 78
     2
 67
     7
 79
     5
170
     0
171
     0
290
     0
174
     0
 93
       13
 44
0.0
173
     0
291
     1
 45
0.0
1001
ACAD
1000
AcDbSavedByObjectVersion
1070
     0
  0
VISUALSTYLE
  5
2D
102
{ACAD_REACTORS
330
2A
102
}
330
2A
100
AcDbVisualStyle
  2
Gouraud
 70
     2
 71
     2
 72
     2
 73
     1
 90
        2
 40
-0.6
 41
30.0
 62
     5
 63
     7
421
 16777215
 74
     0
 91
        4
 64
     7
 65
   257
 75
     1
175
     1
 42
1.0
 92
        0
 66
     7
 43
1.0
 76
     1
 77
     6
 78
     2
 67
     7
 79
     5
170
     0
171
     0
290
     0
174
     0
 93
       13
 44
0.0
173
     0
291
     1
 45
0.0
1001
ACAD
1000
AcDbSavedByObjectVersion
1070
     0
  0
VISUALSTYLE
  5
2E
102
{ACAD_REACTORS
330
2A
102
}
330
2A
100
AcDbVisualStyle
  2
GouraudWithEdges
 70
     3
 71
     2
 72
     2
 73
     1
 90
        2
 40
-0.6
 41
30.0
 62
     5
 63
     7
421
 16777215
 74
     1
 91
        4
 64
     7
 65
   257
 75
     1
175
     1
 42
1.0
 92
        0
 66
   257
 43
1.0
 76
     1
 77
     6
 78
     2
 67
     7
 79
     5
170
     0
171
     0
290
     0
174
     0
 93
       13
 44
0.0
173
     0
291
     1
 45
0.0
1001
ACAD
1000
AcDbSavedByObjectVersion
1070
     0
  0
VISUALSTYLE
  5
38
102
{ACAD_REACTORS
330
2A
102
}
330
2A
100
AcDbVisualStyle
  2
Linepattern
 70
    14
 71
     2
 72
     2
 73
     0
 90
        0
 40
-0.6
 41
-30.0
 62
     5
 63
     7
421
 16777215
 74
     1
 91
        4
 64
     7
 65
   257
 75
     7
175
     7
 42
1.0
 92
        8
 66
     7
 43
1.0
 76
     1
 77
     6
 78
     2
 67
     7
 79
     5
170
     0
171
     0
290
     0
174
     0
 93
        1
 44
0.0
173
     0
291
     1
 45
0.0
1001
ACAD
1000
AcDbSavedByObjectVersion
1070
     0
  0
VISUALSTYLE
  5
33
102
{ACAD_REACTORS
330
2A
102
}
330
2A
100
AcDbVisualStyle
  2
Realistic
 70
     8
 71
     2
 72
     2
 73
     0
 90
        0
 40
-0.6
 41
-30.0
 62
     5
 63
     7
421
 16777215
 74
     1
 91
        0
 64
     7
 65
   257
 75
     1
175
     1
 42
1.0
 92
        8
 66
     8
424
  7895160
 43
1.0
 76
     1
 77
     6
 78
     2
 67
     7
 79
     5
170
     0
171
     0
290
     0
174
     0
 93
       13
 44
0.0
173
     0
291
     0
 45
0.0
1001
ACAD
1000
AcDbSavedByObjectVersion
1070
     0
  0
VISUALSTYLE
  5
37
102
{ACAD_REACTORS
330
2A
102
}
330
2A
100
AcDbVisualStyle
  2
Thicken
 70
    13
 71
     2
 72
     2
 73
     0
 90
        0
 40
-0.6
 41
-30.0
 62
     5
 63
     7
421
 16777215
 74
     1
 91
        4
 64
     7
 65
   257
 75
     1
175
     1
 42
1.0
 92
       12
 66
     7
 43
1.0
 76
     1
 77
     6
 78
     2
 67
     7
 79
     5
170
     0
171
     0
290
     0
174
     0
 93
        1
 44
0.0
173
     0
291
     1
 45
0.0
1001
ACAD
1000
AcDbSavedByObjectVersion
1070
     0
  0
ENDSEC
  0
EOF
