  0
SECTION
  2
HEADER
  9
$ACADVER
  1
AC1018
  9
$ACADMAINTVER
 70
     0
  9
$DWGCODEPAGE
  3
ANSI_1252
  9
$INSBASE
 10
0.0
 20
0.0
 30
0.0
  9
$EXTMIN
 10
-15.63220927787822
 20
-0.0017796313076643
 30
0.0
  9
$EXTMAX
 10
46.73990599301559
 20
60.22231200786416
 30
0.0
  9
$LIMMIN
 10
0.0
 20
0.0
  9
$LIMMAX
 10
12.0
 20
9.0
  9
$ORTHOMODE
 70
     0
  9
$REGENMODE
 70
     1
  9
$FILLMODE
 70
     1
  9
$QTEXTMODE
 70
     0
  9
$MIRRTEXT
 70
     1
  9
$LTSCALE
 40
0.0393700787401575
  9
$ATTMODE
 70
     1
  9
$TEXTSIZE
 40
0.2
  9
$TRACEWID
 40
0.05
  9
$TEXTSTYLE
  7
Standard
  9
$CLAYER
  8
Default
  9
$CELTYPE
  6
ByLayer
  9
$CECOLOR
 62
   256
  9
$CELTSCALE
 40
1.0
  9
$DISPSILH
 70
     0
  9
$DIMSCALE
 40
1.0
  9
$DIMASZ
 40
0.18
  9
$DIMEXO
 40
0.0625
  9
$DIMDLI
 40
0.38
  9
$DIMRND
 40
0.0
  9
$DIMDLE
 40
0.0
  9
$DIMEXE
 40
0.18
  9
$DIMTP
 40
0.0
  9
$DIMTM
 40
0.0
  9
$DIMTXT
 40
0.18
  9
$DIMCEN
 40
0.09
  9
$DIMTSZ
 40
0.0
  9
$DIMTOL
 70
     0
  9
$DIMLIM
 70
     0
  9
$DIMTIH
 70
     1
  9
$DIMTOH
 70
     1
  9
$DIMSE1
 70
     0
  9
$DIMSE2
 70
     0
  9
$DIMTAD
 70
     0
  9
$DIMZIN
 70
     0
  9
$DIMBLK
  1

  9
$DIMASO
 70
     1
  9
$DIMSHO
 70
     1
  9
$DIMPOST
  1

  9
$DIMAPOST
  1

  9
$DIMALT
 70
     0
  9
$DIMALTD
 70
     2
  9
$DIMALTF
 40
25.4
  9
$DIMLFAC
 40
1.0
  9
$DIMTOFL
 70
     0
  9
$DIMTVP
 40
0.0
  9
$DIMTIX
 70
     0
  9
$DIMSOXD
 70
     0
  9
$DIMSAH
 70
     0
  9
$DIMBLK1
  1

  9
$DIMBLK2
  1

  9
$DIMSTYLE
  2
Standard
  9
$DIMCLRD
 70
     0
  9
$DIMCLRE
 70
     0
  9
$DIMCLRT
 70
     0
  9
$DIMTFAC
 40
1.0
  9
$DIMGAP
 40
0.09
  9
$DIMJUST
 70
     0
  9
$DIMSD1
 70
     0
  9
$DIMSD2
 70
     0
  9
$DIMTOLJ
 70
     1
  9
$DIMTZIN
 70
     0
  9
$DIMALTZ
 70
     0
  9
$DIMALTTZ
 70
     0
  9
$DIMUPT
 70
     0
  9
$DIMDEC
 70
     4
  9
$DIMTDEC
 70
     4
  9
$DIMALTU
 70
     2
  9
$DIMALTTD
 70
     2
  9
$DIMTXSTY
  7
Standard
  9
$DIMAUNIT
 70
     0
  9
$DIMADEC
 70
     0
  9
$DIMALTRND
 40
0.0
  9
$DIMAZIN
 70
     0
  9
$DIMDSEP
 70
    46
  9
$DIMATFIT
 70
     3
  9
$DIMFRAC
 70
     0
  9
$DIMLDRBLK
  1

  9
$DIMLUNIT
 70
     2
  9
$DIMLWD
 70
    -2
  9
$DIMLWE
 70
    -2
  9
$DIMTMOVE
 70
     2
  9
$LUNITS
 70
     2
  9
$LUPREC
 70
     3
  9
$SKETCHINC
 40
0.1
  9
$FILLETRAD
 40
0.5
  9
$AUNITS
 70
     0
  9
$AUPREC
 70
     0
  9
$MENU
  1
.
  9
$ELEVATION
 40
0.0
  9
$PELEVATION
 40
0.0
  9
$THICKNESS
 40
0.0
  9
$LIMCHECK
 70
     0
  9
$CHAMFERA
 40
0.5
  9
$CHAMFERB
 40
0.5
  9
$CHAMFERC
 40
1.0
  9
$CHAMFERD
 40
0.0
  9
$SKPOLY
 70
     0
  9
$TDCREATE
 40
2456338.471160718
  9
$TDUCREATE
 40
2456338.679494051
  9
$TDUPDATE
 40
2456338.471160729
  9
$TDUUPDATE
 40
2456338.679494062
  9
$TDINDWG
 40
0.0000000116
  9
$TDUSRTIMER
 40
0.0000000116
  9
$USRTIMER
 70
     1
  9
$ANGBASE
 50
0.0
  9
$ANGDIR
 70
     0
  9
$PDMODE
 70
     0
  9
$PDSIZE
 40
0.0
  9
$PLINEWID
 40
0.0
  9
$SPLFRAME
 70
     0
  9
$SPLINETYPE
 70
     6
  9
$SPLINESEGS
 70
     8
  9
$HANDSEED
  5
E2
  9
$SURFTAB1
 70
     6
  9
$SURFTAB2
 70
     6
  9
$SURFTYPE
 70
     6
  9
$SURFU
 70
     6
  9
$SURFV
 70
     6
  9
$UCSBASE
  2

  9
$UCSNAME
  2

  9
$UCSORG
 10
0.0
 20
0.0
 30
0.0
  9
$UCSXDIR
 10
1.0
 20
0.0
 30
0.0
  9
$UCSYDIR
 10
0.0
 20
1.0
 30
0.0
  9
$UCSORTHOREF
  2

  9
$UCSORTHOVIEW
 70
     0
  9
$UCSORGTOP
 10
0.0
 20
0.0
 30
0.0
  9
$UCSORGBOTTOM
 10
0.0
 20
0.0
 30
0.0
  9
$UCSORGLEFT
 10
0.0
 20
0.0
 30
0.0
  9
$UCSORGRIGHT
 10
0.0
 20
0.0
 30
0.0
  9
$UCSORGFRONT
 10
0.0
 20
0.0
 30
0.0
  9
$UCSORGBACK
 10
0.0
 20
0.0
 30
0.0
  9
$PUCSBASE
  2

  9
$PUCSNAME
  2

  9
$PUCSORG
 10
0.0
 20
0.0
 30
0.0
  9
$PUCSXDIR
 10
1.0
 20
0.0
 30
0.0
  9
$PUCSYDIR
 10
0.0
 20
1.0
 30
0.0
  9
$PUCSORTHOREF
  2

  9
$PUCSORTHOVIEW
 70
     0
  9
$PUCSORGTOP
 10
0.0
 20
0.0
 30
0.0
  9
$PUCSORGBOTTOM
 10
0.0
 20
0.0
 30
0.0
  9
$PUCSORGLEFT
 10
0.0
 20
0.0
 30
0.0
  9
$PUCSORGRIGHT
 10
0.0
 20
0.0
 30
0.0
  9
$PUCSORGFRONT
 10
0.0
 20
0.0
 30
0.0
  9
$PUCSORGBACK
 10
0.0
 20
0.0
 30
0.0
  9
$USERI1
 70
     0
  9
$USERI2
 70
     0
  9
$USERI3
 70
     0
  9
$USERI4
 70
     0
  9
$USERI5
 70
     0
  9
$USERR1
 40
0.0
  9
$USERR2
 40
0.0
  9
$USERR3
 40
0.0
  9
$USERR4
 40
0.0
  9
$USERR5
 40
0.0
  9
$WORLDVIEW
 70
     1
  9
$SHADEDGE
 70
     3
  9
$SHADEDIF
 70
    70
  9
$TILEMODE
 70
     1
  9
$MAXACTVP
 70
    64
  9
$PINSBASE
 10
0.0
 20
0.0
 30
0.0
  9
$PLIMCHECK
 70
     0
  9
$PEXTMIN
 10
1.000000000000000E+20
 20
1.000000000000000E+20
 30
1.000000000000000E+20
  9
$PEXTMAX
 10
-1.000000000000000E+20
 20
-1.000000000000000E+20
 30
-1.000000000000000E+20
  9
$PLIMMIN
 10
0.0
 20
0.0
  9
$PLIMMAX
 10
12.0
 20
9.0
  9
$UNITMODE
 70
     0
  9
$VISRETAIN
 70
     1
  9
$PLINEGEN
 70
     0
  9
$PSLTSCALE
 70
     1
  9
$TREEDEPTH
 70
  3020
  9
$CMLSTYLE
  2
Standard
  9
$CMLJUST
 70
     0
  9
$CMLSCALE
 40
1.0
  9
$PROXYGRAPHICS
 70
     1
  9
$MEASUREMENT
 70
     0
  9
$CELWEIGHT
370
    -1
  9
$ENDCAPS
280
     0
  9
$JOINSTYLE
280
     0
  9
$LWDISPLAY
290
     0
  9
$INSUNITS
 70
     1
  9
$HYPERLINKBASE
  1

  9
$STYLESHEET
  1

  9
$XEDIT
290
     1
  9
$CEPSNTYPE
380
     0
  9
$PSTYLEMODE
290
     1
  9
$FINGERPRINTGUID
  2
{19D54D2D-024B-4EF4-9232-0F7903AA15CA}
  9
$VERSIONGUID
  2
{FAEB1C32-E019-11D5-929B-00C0DF256EC4}
  9
$EXTNAMES
290
     1
  9
$PSVPSCALE
 40
0.0
  9
$OLESTARTUP
290
     0
  9
$SORTENTS
280
   127
  9
$INDEXCTL
280
     0
  9
$HIDETEXT
280
     1
  9
$XCLIPFRAME
290
     0
  9
$HALOGAP
280
     0
  9
$OBSCOLOR
 70
   257
  9
$OBSLTYPE
280
     0
  9
$INTERSECTIONDISPLAY
280
     0
  9
$INTERSECTIONCOLOR
 70
   257
  9
$DIMASSOC
280
     2
  9
$PROJECTNAME
  1

  0
ENDSEC
  0
SECTION
  2
CLASSES
  0
CLASS
  1
ACDBDICTIONARYWDFLT
  2
AcDbDictionaryWithDefault
  3
ObjectDBX Classes
 90
        0
 91
        4
280
     0
281
     0
  0
CLASS
  1
VISUALSTYLE
  2
AcDbVisualStyle
  3
ObjectDBX Classes
 90
     4095
 91
        4
280
     0
281
     0
  0
ENDSEC
  0
SECTION
  2
TABLES
  0
TABLE
  2
VPORT
  5
8
330
0
100
AcDbSymbolTable
 70
     1
  0
VPORT
  5
29
330
8
100
AcDbSymbolTableRecord
100
AcDbViewportTableRecord
  2
*Active
 70
     0
 10
0.0
 20
0.0
 11
1.0
 21
1.0
 12
15.55384835756868
 22
30.11026618827825
 13
0.0
 23
0.0
 14
0.5
 24
0.5
 15
0.5
 25
0.5
 16
0.0
 26
0.0
 36
1.0
 17
0.0
 27
0.0
 37
0.0
 40
61.42857347195526
 41
1.035667181907727
 42
50.0
 43
0.0
 44
0.0
 50
0.0
 51
0.0
 71
     0
 72
   100
 73
     1
 74
     3
 75
     0
 76
     0
 77
     0
 78
     0
281
     0
 65
     1
110
0.0
120
0.0
130
0.0
111
1.0
121
0.0
131
0.0
112
0.0
122
1.0
132
0.0
 79
     0
146
0.0
  0
ENDTAB
  0
TABLE
  2
LTYPE
  5
5
330
0
100
AcDbSymbolTable
 70
     1
  0
LTYPE
  5
14
330
5
100
AcDbSymbolTableRecord
100
AcDbLinetypeTableRecord
  2
ByBlock
 70
     0
  3

 72
    65
 73
     0
 40
0.0
  0
LTYPE
  5
15
330
5
100
AcDbSymbolTableRecord
100
AcDbLinetypeTableRecord
  2
ByLayer
 70
     0
  3

 72
    65
 73
     0
 40
0.0
  0
LTYPE
  5
16
330
5
100
AcDbSymbolTableRecord
100
AcDbLinetypeTableRecord
  2
Continuous
 70
     0
  3
Solid line
 72
    65
 73
     0
 40
0.0
  0
ENDTAB
  0
TABLE
  2
LAYER
  5
2
330
0
100
AcDbSymbolTable
 70
     3
  0
LAYER
  5
10
330
2
100
AcDbSymbolTableRecord
100
AcDbLayerTableRecord
  2
0
 70
     0
 62
     7
  6
Continuous
370
    -3
390
F
  0
LAYER
  5
3B
330
2
100
AcDbSymbolTableRecord
100
AcDbLayerTableRecord
  2
Make2D visible lines
 70
     0
 62
     7
  6
Continuous
370
    -3
390
F
  0
LAYER
  5
3D
330
2
100
AcDbSymbolTableRecord
100
AcDbLayerTableRecord
  2
Default
 70
     0
 62
     7
  6
Continuous
370
    -3
390
F
  0
ENDTAB
  0
TABLE
  2
STYLE
  5
3
330
0
100
AcDbSymbolTable
 70
     1
  0
STYLE
  5
11
330
3
100
AcDbSymbolTableRecord
100
AcDbTextStyleTableRecord
  2
Standard
 70
     0
 40
0.0
 41
1.0
 50
0.0
 71
     0
 42
0.2
  3
txt
  4

  0
ENDTAB
  0
TABLE
  2
VIEW
  5
6
330
0
100
AcDbSymbolTable
 70
     0
  0
ENDTAB
  0
TABLE
  2
UCS
  5
7
330
0
100
AcDbSymbolTable
 70
     0
  0
ENDTAB
  0
TABLE
  2
APPID
  5
9
330
0
100
AcDbSymbolTable
 70
     1
  0
APPID
  5
12
330
9
100
AcDbSymbolTableRecord
100
AcDbRegAppTableRecord
  2
ACAD
 70
     0
  0
ENDTAB
  0
TABLE
  2
DIMSTYLE
  5
A
330
0
100
AcDbSymbolTable
 70
     1
100
AcDbDimStyleTable
  0
DIMSTYLE
105
27
330
A
100
AcDbSymbolTableRecord
100
AcDbDimStyleTableRecord
  2
Standard
 70
     0
340
11
  0
ENDTAB
  0
TABLE
  2
BLOCK_RECORD
  5
1
330
0
100
AcDbSymbolTable
 70
     1
  0
BLOCK_RECORD
  5
1F
330
1
100
AcDbSymbolTableRecord
100
AcDbBlockTableRecord
  2
*Model_Space
340
22
  0
BLOCK_RECORD
  5
1B
330
1
100
AcDbSymbolTableRecord
100
AcDbBlockTableRecord
  2
*Paper_Space
340
1E
  0
BLOCK_RECORD
  5
23
330
1
100
AcDbSymbolTableRecord
100
AcDbBlockTableRecord
  2
*Paper_Space0
340
26
  0
ENDTAB
  0
ENDSEC
  0
SECTION
  2
BLOCKS
  0
BLOCK
  5
20
330
1F
100
AcDbEntity
  8
0
100
AcDbBlockBegin
  2
*Model_Space
 70
     0
 10
0.0
 20
0.0
 30
0.0
  3
*Model_Space
  1

  0
ENDBLK
  5
21
330
1F
100
AcDbEntity
  8
0
100
AcDbBlockEnd
  0
BLOCK
  5
1C
330
1B
100
AcDbEntity
 67
     1
  8
0
100
AcDbBlockBegin
  2
*Paper_Space
 70
     0
 10
0.0
 20
0.0
 30
0.0
  3
*Paper_Space
  1

  0
ENDBLK
  5
1D
330
1B
100
AcDbEntity
 67
     1
  8
0
100
AcDbBlockEnd
  0
BLOCK
  5
24
330
23
100
AcDbEntity
  8
0
100
AcDbBlockBegin
  2
*Paper_Space0
 70
     0
 10
0.0
 20
0.0
 30
0.0
  3
*Paper_Space0
  1

  0
ENDBLK
  5
25
330
23
100
AcDbEntity
  8
0
100
AcDbBlockEnd
  0
ENDSEC
  0
SECTION
  2
ENTITIES
  0
SPLINE
  5
3C
330
1F
100
AcDbEntity
  8
Make2D visible lines
100
AcDbSpline
210
0.0
220
0.0
230
1.0
 70
    12
 71
     2
 72
     6
 73
     3
 74
     0
 42
0.0000000001
 43
0.0000000001
 40
0.0
 40
0.0
 40
0.0
 40
0.0208053500132229
 40
0.0208053500132229
 40
0.0208053500132229
 10
43.27645098490225
 20
0.3863938877440814
 30
0.0
 41
1.0
 10
43.2889377985348
 20
0.3886763263770563
 30
0.0
 41
0.7500142205744408
 10
43.29276370755996
 20
0.3765729193799095
 30
0.0
 41
1.0
  0
ARC
  5
3E
330
1F
100
AcDbEntity
  8
Default
100
AcDbCircle
 10
39.40883555626839
 20
10.35738375342237
 30
0.0
 40
1.034448667275178
100
AcDbArc
 50
95.95967767913591
 51
118.7379243994009
  0
ARC
  5
3F
330
1F
100
AcDbEntity
  8
Default
100
AcDbCircle
 10
41.52932322540654
 20
-4.988971024112234
 30
0.0
 40
16.52607304946735
100
AcDbArc
 50
96.24380826290141
 51
97.74767892271223
  0
SPLINE
  5
40
330
1F
100
AcDbEntity
  8
Default
100
AcDbSpline
210
0.0
220
0.0
230
1.0
 70
     8
 71
     3
 72
     8
 73
     4
 74
     0
 42
0.0000000001
 43
0.0000000001
 40
-1.0
 40
-1.0
 40
-1.0
 40
-1.0
 40
0.0
 40
0.0
 40
0.0
 40
0.0
 10
39.7319566044887
 20
11.43907096713984
 30
0.0
 10
39.82302334945072
 20
11.44903443860878
 30
0.0
 10
39.91871716552887
 20
11.42046537509887
 30
0.0
 10
39.99993536728563
 20
11.37808582218609
 30
0.0
  0
SPLINE
  5
41
330
1F
100
AcDbEntity
  8
Default
100
AcDbSpline
210
0.0
220
0.0
230
1.0
 70
    12
 71
     2
 72
     6
 73
     3
 74
     0
 42
0.0000000001
 43
0.0000000001
 40
0.0
 40
0.0
 40
0.0
 40
0.8224495834174671
 40
0.8224495834174671
 40
0.8224495834174671
 10
39.99993536728563
 20
11.37808582218609
 30
0.0
 41
1.0
 10
40.39217829934145
 20
11.17341396619612
 30
0.0
 41
0.8974817562644566
 10
40.47017183477874
 20
10.73602372921157
 30
0.0
 41
1.0
  0
SPLINE
  5
42
330
1F
100
AcDbEntity
  8
Default
100
AcDbSpline
210
0.0
220
0.0
230
1.0
 70
    24
 71
     2
 72
     6
 73
     3
 74
     0
 42
0.0000000001
 43
0.0000000001
 40
0.0
 40
0.0
 40
0.0
 40
10.71255698384767
 40
10.71255698384767
 40
10.71255698384767
 10
40.47017183477874
 20
10.73602372921157
 30
0.0
 10
41.57538549719587
 20
5.494059981641152
 30
0.0
 10
42.68059915961299
 20
0.2520962340707317
 30
0.0
  0
SPLINE
  5
43
330
1F
100
AcDbEntity
  8
Default
100
AcDbSpline
210
0.0
220
0.0
230
1.0
 70
    24
 71
     2
 72
     6
 73
     3
 74
     0
 42
0.0000000001
 43
0.0000000001
 40
0.0
 40
0.0
 40
0.0
 40
10.70899345845929
 40
10.70899345845929
 40
10.70899345845929
 10
43.29179363349857
 20
0.3827460294363292
 30
0.0
 10
42.18683999665822
 20
5.623478572108619
 30
0.0
 10
41.08188635981787
 20
10.86421111478091
 30
0.0
  0
SPLINE
  5
44
330
1F
100
AcDbEntity
  8
Default
100
AcDbSpline
210
0.0
220
0.0
230
1.0
 70
    12
 71
     2
 72
     6
 73
     3
 74
     0
 42
0.0000000001
 43
0.0000000001
 40
0.0
 40
0.0
 40
0.0
 40
0.7441357564216832
 40
0.7441357564216832
 40
0.7441357564216832
 10
41.08188635981787
 20
10.86421111478091
 30
0.0
 41
1.0
 10
41.00400970887483
 20
11.23769618604829
 30
0.0
 41
0.9742761547969873
 10
40.77182747775763
 20
11.53675802696186
 30
0.0
 41
1.0
  0
SPLINE
  5
45
330
1F
100
AcDbEntity
  8
Default
100
AcDbSpline
210
0.0
220
0.0
230
1.0
 70
     8
 71
     3
 72
     8
 73
     4
 74
     0
 42
0.0000000001
 43
0.0000000001
 40
0.0
 40
0.0
 40
0.0
 40
0.0
 40
1.0
 40
1.0
 40
1.0
 40
1.0
 10
40.77182747775763
 20
11.53675802696186
 30
0.0
 10
40.63876442006396
 20
11.70814962226171
 30
0.0
 10
40.46063105574426
 20
11.85195149850079
 30
0.0
 10
40.26433268412374
 20
11.94440584161862
 30
0.0
  0
SPLINE
  5
46
330
1F
100
AcDbEntity
  8
Default
100
AcDbSpline
210
0.0
220
0.0
230
1.0
 70
    12
 71
     2
 72
     6
 73
     3
 74
     0
 42
0.0000000001
 43
0.0000000001
 40
0.0
 40
0.0
 40
0.0
 40
0.7311920014828095
 40
0.7311920014828095
 40
0.7311920014828095
 10
40.26433268412374
 20
11.94440584161862
 30
0.0
 41
1.0
 10
39.92388276255018
 20
12.10475395660173
 30
0.0
 41
0.9577928888427971
 10
39.55140136315063
 20
12.05113237345241
 30
0.0
 41
1.0
  0
SPLINE
  5
47
330
1F
100
AcDbEntity
  8
Default
100
AcDbSpline
210
0.0
220
0.0
230
1.0
 70
     8
 71
     3
 72
     8
 73
     4
 74
     0
 42
0.0000000001
 43
0.0000000001
 40
0.0
 40
0.0
 40
0.0
 40
0.0
 40
1.0
 40
1.0
 40
1.0
 40
1.0
 10
39.55140136315063
 20
12.05113237345241
 30
0.0
 10
39.43978833921643
 20
12.03506481396331
 30
0.0
 10
39.32782947758539
 20
12.02146449791587
 30
0.0
 10
39.21621505752057
 20
12.00540663961323
 30
0.0
  0
SPLINE
  5
48
330
1F
100
AcDbEntity
  8
Default
100
AcDbSpline
210
0.0
220
0.0
230
1.0
 70
     8
 71
     3
 72
    12
 73
     8
 74
     0
 42
0.0000000001
 43
0.0000000001
 40
0.0
 40
0.0
 40
0.0
 40
0.0
 40
0.1921023075555342
 40
0.372816422853232
 40
0.6893916895242499
 40
0.9282225167547821
 40
1.14192952017723
 40
1.14192952017723
 40
1.14192952017723
 40
1.14192952017723
 10
39.21621505752057
 20
12.00540663961323
 30
0.0
 10
39.15292962137189
 20
11.99630182532752
 30
0.0
 10
39.03005652298918
 20
11.97542820619877
 30
0.0
 10
38.80912667653349
 20
11.91212027468575
 30
0.0
 10
38.58191560201108
 20
11.81532478321378
 30
0.0
 10
38.38806641983195
 20
11.63866947703025
 30
0.0
 10
38.34140140264611
 20
11.4878599081092
 30
0.0
 10
38.34194931955988
 20
11.41693134160572
 30
0.0
  0
SPLINE
  5
49
330
1F
100
AcDbEntity
  8
Default
100
AcDbSpline
210
0.0
220
0.0
230
1.0
 70
    12
 71
     2
 72
     6
 73
     3
 74
     0
 42
0.0000000001
 43
0.0000000001
 40
0.0
 40
0.0
 40
0.0
 40
0.1562640355086327
 40
0.1562640355086327
 40
0.1562640355086327
 10
38.34194931955988
 20
11.41693134160572
 30
0.0
 41
1.0
 10
38.34194968248358
 20
11.28732918211752
 30
0.0
 41
0.9999999999998554
 10
38.34194945396511
 20
11.20902361384044
 30
0.0
 41
1.0
  0
SPLINE
  5
4A
330
1F
100
AcDbEntity
  8
Default
100
AcDbSpline
210
0.0
220
0.0
230
1.0
 70
    12
 71
     2
 72
     6
 73
     3
 74
     0
 42
0.0000000001
 43
0.0000000001
 40
0.0
 40
0.0
 40
0.0
 40
0.4908738521233666
 40
0.4908738521233666
 40
0.4908738521233666
 10
38.34194945396511
 20
11.20902361384044
 30
0.0
 41
1.0
 10
38.34194931817582
 20
10.89635006331767
 30
0.0
 41
0.7071067811866039
 10
38.65444931817578
 20
10.89635006331767
 30
0.0
 41
1.0
  0
SPLINE
  5
4B
330
1F
100
AcDbEntity
  8
Default
100
AcDbSpline
210
0.0
220
0.0
230
1.0
 70
    12
 71
     2
 72
     6
 73
     3
 74
     0
 42
0.0000000001
 43
0.0000000001
 40
0.0
 40
0.0
 40
0.0
 40
0.4908738521234364
 40
0.4908738521234364
 40
0.4908738521234364
 10
38.65444931817578
 20
10.89635006331767
 30
0.0
 41
1.0
 10
38.96694931817579
 20
10.89635006331768
 30
0.0
 41
0.7071067811865375
 10
38.96694918239133
 20
11.20902361383926
 30
0.0
 41
1.0
  0
SPLINE
  5
4C
330
1F
100
AcDbEntity
  8
Default
100
AcDbSpline
210
0.0
220
0.0
230
1.0
 70
    12
 71
     2
 72
     6
 73
     3
 74
     0
 42
0.0000000001
 43
0.0000000001
 40
0.0
 40
0.0
 40
0.0
 40
0.0869328280030571
 40
0.0869328280030571
 40
0.0869328280030571
 10
38.96694918239133
 20
11.20902361383926
 30
0.0
 41
1.0
 10
38.96694821801805
 20
11.25266357835978
 30
0.0
 41
0.999999999815881
 10
38.96694905762886
 20
11.29612999235853
 30
0.0
 41
1.0
  0
SPLINE
  5
4D
330
1F
100
AcDbEntity
  8
Make2D visible lines
100
AcDbSpline
210
0.0
220
0.0
230
1.0
 70
    24
 71
     2
 72
     6
 73
     3
 74
     0
 42
0.0000000001
 43
0.0000000001
 40
-11.72227739926365
 40
-11.72227739926365
 40
-11.72227739926365
 40
0.0
 40
0.0
 40
0.0
 10
22.66389531007122
 20
0.4252814432592197
 30
0.0
 10
24.6221227450205
 20
5.952290186917056
 30
0.0
 10
26.58035017996978
 20
11.47929893057489
 30
0.0
  0
SPLINE
  5
4E
330
1F
100
AcDbEntity
  8
Make2D visible lines
100
AcDbSpline
210
0.0
220
0.0
230
1.0
 70
     8
 71
     3
 72
    12
 73
     8
 74
     0
 42
0.0000000001
 43
0.0000000001
 40
-2.573929048860964
 40
-2.573929048860964
 40
-2.573929048860964
 40
-2.573929048860964
 40
-1.893248078869892
 40
-1.257960203361009
 40
-0.6264657551691639
 40
-0.3106905553538196
 40
0.0
 40
0.0
 40
0.0
 40
0.0
 10
26.58035017996978
 20
11.47929893057489
 30
0.0
 10
26.65909195810828
 20
11.69733736869101
 30
0.0
 10
26.89200160023858
 20
12.08102904617056
 30
0.0
 10
27.45263650760276
 20
12.44376771746394
 30
0.0
 10
27.99561422508559
 20
12.48662716058788
 30
0.0
 10
28.39900934468339
 20
12.3599667451507
 30
0.0
 10
28.57937991484181
 20
12.25248654071315
 30
0.0
 10
28.6616780202242
 20
12.18944234052404
 30
0.0
  0
ARC
  5
4F
330
1F
100
AcDbEntity
  8
Make2D visible lines
100
AcDbCircle
 10
31.85822282942988
 20
16.42255866018239
 30
0.0
 40
5.30444836839964
100
AcDbArc
 50
232.9425232885743
 51
260.0502390062414
  0
ARC
  5
50
330
1F
100
AcDbEntity
  8
Make2D visible lines
100
AcDbCircle
 10
32.33796046140415
 20
19.15730593422045
 30
0.0
 40
8.080955319298717
100
AcDbArc
 50
260.0502390062414
 51
263.6976946864867
  0
SPLINE
  5
51
330
1F
100
AcDbEntity
  8
Make2D visible lines
100
AcDbSpline
210
0.0
220
0.0
230
1.0
 70
    12
 71
     2
 72
     6
 73
     3
 74
     0
 42
0.0000000001
 43
0.0000000001
 40
-0.4908738521268115
 40
-0.4908738521268115
 40
-0.4908738521268115
 40
0.0
 40
0.0
 40
0.0
 10
31.45087922098348
 20
11.12518754954782
 30
0.0
 41
1.0
 10
31.76221670722792
 20
11.09825764674997
 30
0.0
 41
0.7071067811648746
 10
31.73528680441098
 20
10.78692016050718
 30
0.0
 41
1.0
  0
SPLINE
  5
52
330
1F
100
AcDbEntity
  8
Make2D visible lines
100
AcDbSpline
210
0.0
220
0.0
230
1.0
 70
    12
 71
     2
 72
     8
 73
     5
 74
     0
 42
0.0000000001
 43
0.0000000001
 40
0.0
 40
0.0
 40
0.0
 40
0.4908738521241969
 40
0.4908738521241969
 40
0.4983571956953172
 40
0.4983571956953172
 40
0.4983571956953172
 10
31.73528680441098
 20
10.78692016050718
 30
0.0
 41
1.0
 10
31.70835690159321
 20
10.4755826742783
 30
0.0
 41
0.7071067812025927
 10
31.3970194153631
 20
10.50251257708193
 30
0.0
 41
1.0
 10
31.39329148461295
 20
10.50283503363547
 30
0.0
 41
0.9999283203046679
 10
31.38956078895674
 20
10.50328355254479
 30
0.0
 41
1.0
  0
ARC
  5
53
330
1F
100
AcDbEntity
  8
Make2D visible lines
100
AcDbCircle
 10
32.36572950763129
 20
19.36592595631515
 30
0.0
 40
8.91624000038285
100
AcDbArc
 50
260.1139939458539
 51
263.7145379715565
  0
ARC
  5
54
330
1F
100
AcDbEntity
  8
Make2D visible lines
100
AcDbCircle
 10
31.84911821010108
 20
16.40160213501587
 30
0.0
 40
5.907236352950992
100
AcDbArc
 50
232.8608844136646
 51
260.1139939458539
  0
SPLINE
  5
55
330
1F
100
AcDbEntity
  8
Make2D visible lines
100
AcDbSpline
210
0.0
220
0.0
230
1.0
 70
     8
 71
     3
 72
    12
 73
     8
 74
     0
 42
0.0000000001
 43
0.0000000001
 40
-1.404091065260296
 40
-1.404091065260296
 40
-1.404091065260296
 40
-1.404091065260296
 40
-1.062417909018669
 40
-0.729580448501684
 40
-0.3751817481579005
 40
-0.188401197218608
 40
0.0
 40
0.0
 40
0.0
 40
0.0
 10
28.28261035455249
 20
11.69251909837955
 30
0.0
 10
28.19257142372722
 20
11.76128861832037
 30
0.0
 10
27.98045451583531
 20
11.8586636278592
 30
0.0
 10
27.62742980528707
 20
11.81786988234269
 30
0.0
 10
27.38549404203532
 20
11.64015945184879
 30
0.0
 10
27.24298155738706
 20
11.44285105996107
 30
0.0
 10
27.19001674589126
 20
11.32828778219324
 30
0.0
 10
27.16858696367592
 20
11.26812040910749
 30
0.0
  0
SPLINE
  5
56
330
1F
100
AcDbEntity
  8
Make2D visible lines
100
AcDbSpline
210
0.0
220
0.0
230
1.0
 70
    24
 71
     2
 72
     6
 73
     3
 74
     0
 42
0.0000000001
 43
0.0000000001
 40
-11.7264901888389
 40
-11.7264901888389
 40
-11.7264901888389
 40
0.0
 40
0.0
 40
0.0
 10
27.16858696367592
 20
11.26812040910749
 30
0.0
 10
25.21028733309427
 20
5.740892425624266
 30
0.0
 10
23.25198770251262
 20
0.2136644421410432
 30
0.0
  0
SPLINE
  5
57
330
1F
100
AcDbEntity
  8
Make2D visible lines
100
AcDbSpline
210
0.0
220
0.0
230
1.0
 70
    12
 71
     2
 72
     8
 73
     5
 74
     0
 42
0.0000000001
 43
0.0000000001
 40
0.0
 40
0.0
 40
0.0
 40
0.4890995006559049
 40
0.4890995006559049
 40
0.9781990013118097
 40
0.9781990013118097
 40
0.9781990013118097
 10
42.68177845640321
 20
0.2425475599930521
 30
0.0
 41
1.0
 10
42.74956139900247
 20
-0.0607025654509406
 30
0.0
 41
0.7091031950961089
 10
43.05318996715582
 20
0.0053645102400404
 30
0.0
 41
1.0
 10
43.35681853530917
 20
0.0714315859310213
 30
0.0
 41
0.7091031950961089
 10
43.29246943906685
 20
0.3754288880605129
 30
0.0
 41
1.0
  0
SPLINE
  5
58
330
1F
100
AcDbEntity
  8
Make2D visible lines
100
AcDbSpline
210
0.0
220
0.0
230
1.0
 70
    12
 71
     2
 72
     6
 73
     3
 74
     0
 42
0.0000000001
 43
0.0000000001
 40
0.0
 40
0.0
 40
0.0
 40
0.3842394126997106
 40
0.3842394126997106
 40
0.3842394126997106
 10
22.95574642333142
 20
-0.0017796313076643
 30
0.0
 41
1.0
 10
23.1763226105886
 20
-0.0016118035881994
 30
0.0
 41
0.8172584746271535
 10
23.25023904858378
 20
0.2062108196874292
 30
0.0
 41
1.0
  0
SPLINE
  5
59
330
1F
100
AcDbEntity
  8
Make2D visible lines
100
AcDbSpline
210
0.0
220
0.0
230
1.0
 70
    12
 71
     2
 72
     8
 73
     5
 74
     0
 42
0.0000000001
 43
0.0000000001
 40
0.0
 40
0.0
 40
0.0
 40
0.2959495117544358
 40
0.2959495117544358
 40
0.5918990235088717
 40
0.5918990235088717
 40
0.5918990235088717
 10
22.65947585485023
 20
0.4100944723012909
 30
0.0
 41
1.0
 10
22.60863325846411
 20
0.2582650721525375
 30
0.0
 41
0.8900445242472584
 10
22.70213184687002
 20
0.1282837260950554
 30
0.0
 41
1.0
 10
22.79563043527592
 20
-0.0016976199624266
 30
0.0
 41
0.8900445242472584
 10
22.95574642333131
 20
-0.0017796313076667
 30
0.0
 41
1.0
  0
SPLINE
  5
5A
330
1F
100
AcDbEntity
  8
Make2D visible lines
100
AcDbSpline
210
0.0
220
0.0
230
1.0
 70
    12
 71
     3
 72
    11
 73
     7
 74
     0
 42
0.0000000001
 43
0.0000000001
 40
0.0
 40
0.0
 40
0.0
 40
0.0
 40
0.3934469952921459
 40
0.3934469952921459
 40
0.3934469952921459
 40
0.7718077406171964
 40
0.7718077406171964
 40
0.7718077406171964
 40
0.7718077406171964
 10
43.27645098490225
 20
0.3863938877440814
 30
0.0
 41
1.0
 10
43.14494675561851
 20
0.3844333084350905
 30
0.0
 41
0.9943884200698394
 10
43.01480329292976
 20
0.365462665058106
 30
0.0
 41
0.9943884200698386
 10
42.88821152816594
 20
0.3298013234580369
 30
0.0
 41
1.0
 10
42.76877560505131
 20
0.2998728649363879
 30
0.0
 41
0.8106778878943465
 10
42.68657795255186
 20
0.2699827157487586
 30
0.0
 41
0.7347248930850707
 10
42.68130592531193
 20
0.2518902867095984
 30
0.0
 41
0.7625027761254605
  0
SPLINE
  5
5B
330
1F
100
AcDbEntity
  8
Make2D visible lines
100
AcDbSpline
210
0.0
220
0.0
230
1.0
 70
    12
 71
     2
 72
     6
 73
     3
 74
     0
 42
0.0000000001
 43
0.0000000001
 40
-0.4803814146146277
 40
-0.4803814146146277
 40
-0.4803814146146277
 40
-0.4711376355475253
 40
-0.4711376355475253
 40
-0.4711376355475253
 10
22.66081002204282
 20
0.4156874799685248
 30
0.0
 41
1.0
 10
22.66333227099961
 20
0.4193785458399466
 30
0.0
 41
0.9662898631946522
 10
22.66657600309023
 20
0.4224548925680525
 30
0.0
 41
0.9443287023156676
  0
SPLINE
  5
5C
330
1F
100
AcDbEntity
  8
Make2D visible lines
100
AcDbSpline
210
0.0
220
0.0
230
1.0
 70
    12
 71
     2
 72
     8
 73
     5
 74
     0
 42
0.0000000001
 43
0.0000000001
 40
-0.4711376355475253
 40
-0.4711376355475253
 40
-0.4711376355475253
 40
-0.4273369520327914
 40
-0.4273369520327914
 40
0.0
 40
0.0
 40
0.0
 10
22.66657600309023
 20
0.4224548925680525
 30
0.0
 41
0.9443287023156676
 10
22.68425126636118
 20
0.4392180643753931
 30
0.0
 41
0.8402680307771294
 10
22.70756875592718
 20
0.4321672813636136
 30
0.0
 41
1.0
 10
22.92203492070412
 20
0.4079199946575095
 30
0.0
 41
0.9850280476532692
 10
23.11551831301513
 20
0.3122756344130875
 30
0.0
 41
1.0
  0
SPLINE
  5
5D
330
1F
100
AcDbEntity
  8
Make2D visible lines
100
AcDbSpline
210
0.0
220
0.0
230
1.0
 70
    12
 71
     2
 72
     6
 73
     3
 74
     0
 42
0.0000000001
 43
0.0000000001
 40
0.0
 40
0.0
 40
0.0
 40
0.3082430371142515
 40
0.3082430371142515
 40
0.3082430371142515
 10
23.11551831301513
 20
0.3122756344130875
 30
0.0
 41
1.0
 10
23.25066147985249
 20
0.2478995681321218
 30
0.0
 41
0.8160784182602362
 10
23.25116838910477
 20
0.2136523156983464
 30
0.0
 41
0.8631430530446698
  0
SPLINE
  5
5E
330
1F
100
AcDbEntity
  8
Make2D visible lines
100
AcDbSpline
210
0.0
220
0.0
230
1.0
 70
    24
 71
     2
 72
     6
 73
     3
 74
     0
 42
0.0000000001
 43
0.0000000001
 40
0.0
 40
0.0
 40
0.0
 40
6.364943275724004
 40
6.364943275724004
 40
6.364943275724004
 10
7.983667222298562
 20
5.140433629333178
 30
0.0
 10
7.345882118572954
 20
8.258342525895387
 30
0.0
 10
6.708097014847345
 20
11.37625142245759
 30
0.0
  0
SPLINE
  5
5F
330
1F
100
AcDbEntity
  8
Make2D visible lines
100
AcDbSpline
210
0.0
220
0.0
230
1.0
 70
    24
 71
     2
 72
     6
 73
     3
 74
     0
 42
0.0000000001
 43
0.0000000001
 40
0.0
 40
0.0
 40
0.0
 40
11.19019005670523
 40
11.19019005670523
 40
11.19019005670523
 10
6.103263048612298
 20
11.21439820764473
 30
0.0
 10
7.224551364447894
 20
5.732810765209217
 30
0.0
 10
8.34583968028349
 20
0.2512233227737047
 30
0.0
  0
SPLINE
  5
60
330
1F
100
AcDbEntity
  8
Make2D visible lines
100
AcDbSpline
210
0.0
220
0.0
230
1.0
 70
    24
 71
     2
 72
     6
 73
     3
 74
     0
 42
0.0000000001
 43
0.0000000001
 40
-10.5545367849474
 40
-10.5545367849474
 40
-10.5545367849474
 40
0.0
 40
0.0
 40
0.0
 10
8.586737261788242
 20
0.2845566867776547
 30
0.0
 10
7.935598493011805
 20
5.527373087566202
 30
0.0
 10
7.284459724235369
 20
10.77018948835475
 30
0.0
  0
SPLINE
  5
61
330
1F
100
AcDbEntity
  8
Make2D visible lines
100
AcDbSpline
210
0.0
220
0.0
230
1.0
 70
     8
 71
     3
 72
    12
 73
     8
 74
     0
 42
0.0000000001
 43
0.0000000001
 40
-0.761295221738784
 40
-0.761295221738784
 40
-0.761295221738784
 40
-0.761295221738784
 40
-0.3025165941887742
 40
-0.1208941401645658
 40
-0.0477218467254063
 40
-0.0185914585234393
 40
0.0
 40
0.0
 40
0.0
 40
0.0
 10
7.284459724235369
 20
10.77018948835475
 30
0.0
 10
7.264271378432435
 20
10.92141260151411
 30
0.0
 10
7.215199285230393
 20
11.13211737762841
 30
0.0
 10
7.098007292164214
 20
11.34099243587946
 30
0.0
 10
7.032574069105944
 20
11.41041260789298
 30
0.0
 10
6.999053591767813
 20
11.43288030341617
 30
0.0
 10
6.984122661268853
 20
11.43913590989802
 30
0.0
 10
6.977865535270835
 20
11.43891987089935
 30
0.0
  0
ARC
  5
62
330
1F
100
AcDbEntity
  8
Make2D visible lines
100
AcDbCircle
 10
8.141164936491956
 20
5.781445141642664
 30
0.0
 40
5.775836373120296
100
AcDbArc
 50
101.619304580716
 51
104.8564605299103
  0
LINE
  5
63
330
1F
100
AcDbEntity
  8
Make2D visible lines
100
AcDbLine
 10
6.660249945859372
 20
11.36420222032512
 30
0.0
 11
5.855644247783827
 21
11.150767778698
 31
0.0
  0
SPLINE
  5
64
330
1F
100
AcDbEntity
  8
Make2D visible lines
100
AcDbSpline
210
0.0
220
0.0
230
1.0
 70
     8
 71
     3
 72
    10
 73
     6
 74
     0
 42
0.0000000001
 43
0.0000000001
 40
0.0
 40
0.0
 40
0.0
 40
0.0
 40
0.9999999970617786
 40
1.999999998530889
 40
3.0
 40
3.0
 40
3.0
 40
3.0
 10
5.855644247783827
 20
11.150767778698
 30
0.0
 10
5.609948440573057
 20
11.08911442616838
 30
0.0
 10
5.112428804771087
 20
10.99042672373339
 30
0.0
 10
4.355851162888508
 20
10.91241094137218
 30
0.0
 10
3.849287833836864
 20
10.89510613732732
 30
0.0
 10
3.595962466357999
 20
10.89635006331766
 30
0.0
  0
SPLINE
  5
65
330
1F
100
AcDbEntity
  8
Make2D visible lines
100
AcDbSpline
210
0.0
220
0.0
230
1.0
 70
    24
 71
     2
 72
     6
 73
     3
 74
     0
 42
0.0000000001
 43
0.0000000001
 40
0.0
 40
0.0
 40
0.0
 40
3.595962466357999
 40
3.595962466357999
 40
3.595962466357999
 10
3.595962466357999
 20
10.89635006331766
 30
0.0
 10
1.797981233179
 20
10.89635006331696
 30
0.0
 10
0.0
 20
10.89635006331626
 30
0.0
  0
SPLINE
  5
66
330
1F
100
AcDbEntity
  8
Make2D visible lines
100
AcDbSpline
210
0.0
220
0.0
230
1.0
 70
    24
 71
     2
 72
     6
 73
     3
 74
     0
 42
0.0000000001
 43
0.0000000001
 40
-3.595962466357999
 40
-3.595962466357999
 40
-3.595962466357999
 40
0.0
 40
0.0
 40
0.0
 10
0.0
 20
10.89635006331626
 30
0.0
 10
-1.797981233179
 20
10.89635006331696
 30
0.0
 10
-3.595962466357999
 20
10.89635006331766
 30
0.0
  0
SPLINE
  5
67
330
1F
100
AcDbEntity
  8
Make2D visible lines
100
AcDbSpline
210
0.0
220
0.0
230
1.0
 70
     8
 71
     3
 72
    10
 73
     6
 74
     0
 42
0.0000000001
 43
0.0000000001
 40
-3.0
 40
-3.0
 40
-3.0
 40
-3.0
 40
-1.999999998530889
 40
-0.9999999970617786
 40
0.0
 40
0.0
 40
0.0
 40
0.0
 10
-3.595962466357999
 20
10.89635006331766
 30
0.0
 10
-3.849287833836864
 20
10.89510613732732
 30
0.0
 10
-4.355851162888508
 20
10.91241094137218
 30
0.0
 10
-5.112428804771087
 20
10.99042672373339
 30
0.0
 10
-5.609948440573057
 20
11.08911442616838
 30
0.0
 10
-5.855644247783827
 20
11.150767778698
 30
0.0
  0
LINE
  5
68
330
1F
100
AcDbEntity
  8
Make2D visible lines
100
AcDbLine
 10
-5.855644247783827
 20
11.150767778698
 30
0.0
 11
-6.660249945859372
 21
11.36420222032512
 31
0.0
  0
ARC
  5
69
330
1F
100
AcDbEntity
  8
Make2D visible lines
100
AcDbCircle
 10
-8.141164936491956
 20
5.781445141642664
 30
0.0
 40
5.775836373120296
100
AcDbArc
 50
75.1435394700897
 51
78.38069541928402
  0
SPLINE
  5
6A
330
1F
100
AcDbEntity
  8
Make2D visible lines
100
AcDbSpline
210
0.0
220
0.0
230
1.0
 70
     8
 71
     3
 72
    12
 73
     8
 74
     0
 42
0.0000000001
 43
0.0000000001
 40
0.0
 40
0.0
 40
0.0
 40
0.0
 40
0.0185914585234393
 40
0.0477218467254063
 40
0.1208941401645658
 40
0.3025165941887742
 40
0.761295221738784
 40
0.761295221738784
 40
0.761295221738784
 40
0.761295221738784
 10
-6.977865535270835
 20
11.43891987089935
 30
0.0
 10
-6.984122661268853
 20
11.43913590989802
 30
0.0
 10
-6.999053591767813
 20
11.43288030341617
 30
0.0
 10
-7.032574069105944
 20
11.41041260789298
 30
0.0
 10
-7.098007292164214
 20
11.34099243587946
 30
0.0
 10
-7.215199285230393
 20
11.13211737762841
 30
0.0
 10
-7.264271378432435
 20
10.92141260151411
 30
0.0
 10
-7.284459724235369
 20
10.77018948835475
 30
0.0
  0
SPLINE
  5
6B
330
1F
100
AcDbEntity
  8
Make2D visible lines
100
AcDbSpline
210
0.0
220
0.0
230
1.0
 70
    24
 71
     2
 72
     6
 73
     3
 74
     0
 42
0.0000000001
 43
0.0000000001
 40
0.0
 40
0.0
 40
0.0
 40
10.5545367849474
 40
10.5545367849474
 40
10.5545367849474
 10
-7.284459724235369
 20
10.77018948835475
 30
0.0
 10
-7.935598493011805
 20
5.527373087566202
 30
0.0
 10
-8.586737261788242
 20
0.2845566867776547
 30
0.0
  0
SPLINE
  5
6C
330
1F
100
AcDbEntity
  8
Default
100
AcDbSpline
210
0.0
220
0.0
230
1.0
 70
    24
 71
     2
 72
     6
 73
     3
 74
     0
 42
0.0000000001
 43
0.0000000001
 40
0.0
 40
0.0
 40
0.0
 40
10.56228668149916
 40
10.56228668149916
 40
10.56228668149916
 10
9.207736920367005
 20
0.3554292163143787
 30
0.0
 10
8.556804130775093
 20
5.59669275156776
 30
0.0
 10
7.905871341183182
 20
10.83795628682114
 30
0.0
  0
SPLINE
  5
6D
330
1F
100
AcDbEntity
  8
Default
100
AcDbSpline
210
0.0
220
0.0
230
1.0
 70
     8
 71
     3
 72
    12
 73
     8
 74
     0
 42
0.0000000001
 43
0.0000000001
 40
0.0
 40
0.0
 40
0.0
 40
0.0
 40
0.2779373345813006
 40
0.5311831987203071
 40
0.9932833818794501
 40
1.381057475511472
 40
1.7316709966046
 40
1.7316709966046
 40
1.7316709966046
 40
1.7316709966046
 10
7.905871341183182
 20
10.83795628682114
 30
0.0
 10
7.893961758777585
 20
10.9304387067347
 30
0.0
 10
7.863705422584454
 20
11.10562631385517
 30
0.0
 10
7.766877012680658
 20
11.42223814247077
 30
0.0
 10
7.597499359099467
 20
11.75338468678861
 30
0.0
 10
7.288207148077664
 20
12.02303319009918
 30
0.0
 10
7.036619739278535
 20
12.07298377448418
 30
0.0
 10
6.92064638851565
 20
12.06126555793396
 30
0.0
  0
SPLINE
  5
6E
330
1F
100
AcDbEntity
  8
Default
100
AcDbSpline
210
0.0
220
0.0
230
1.0
 70
     8
 71
     3
 72
     8
 73
     4
 74
     0
 42
0.0000000001
 43
0.0000000001
 40
0.0
 40
0.0
 40
0.0
 40
0.0
 40
1.0
 40
1.0
 40
1.0
 40
1.0
 10
6.92064638851565
 20
12.06126555793396
 30
0.0
 10
6.888030306970419
 20
12.05796995334849
 30
0.0
 10
6.855528817929383
 20
12.052576051504
 30
0.0
 10
6.823701236233191
 20
12.04472271919719
 30
0.0
  0
SPLINE
  5
6F
330
1F
100
AcDbEntity
  8
Default
100
AcDbSpline
210
0.0
220
0.0
230
1.0
 70
    12
 71
     2
 72
    10
 73
     7
 74
     0
 42
0.0000000001
 43
0.0000000001
 40
-0.192093564250425
 40
-0.192093564250425
 40
-0.192093564250425
 40
-0.1279604400037003
 40
-0.1279604400037003
 40
-0.0639305869732642
 40
-0.0639305869732642
 40
0.0
 40
0.0
 40
0.0
 10
6.823701236233191
 20
12.04472271919719
 30
0.0
 41
1.0
 10
6.792568188280995
 20
12.03704076039724
 30
0.0
 41
0.9999892348847124
 10
6.761365192262653
 20
12.02964804741234
 30
0.0
 41
1.0
 10
6.730212439662554
 20
12.02226723907107
 30
0.0
 41
0.9999891656151457
 10
6.698992323148515
 20
12.01517677708448
 30
0.0
 41
1.0
 10
6.667820604850812
 20
12.00809731254347
 30
0.0
 41
0.9999890984933278
 10
6.636584133447034
 20
12.00130925729474
 30
0.0
 41
1.0
  0
SPLINE
  5
70
330
1F
100
AcDbEntity
  8
Default
100
AcDbSpline
210
0.0
220
0.0
230
1.0
 70
    12
 71
     2
 72
     6
 73
     3
 74
     0
 42
0.0000000001
 43
0.0000000001
 40
-0.1645939861043443
 40
-0.1645939861043443
 40
-0.1645939861043443
 40
0.0
 40
0.0
 40
0.0
 10
6.636584133447034
 20
12.00130925729474
 30
0.0
 41
1.0
 10
6.556257987290905
 20
11.98335902151252
 30
0.0
 41
0.999811166942512
 10
6.476690014504333
 20
11.96230102046507
 30
0.0
 41
1.0
  0
SPLINE
  5
71
330
1F
100
AcDbEntity
  8
Default
100
AcDbSpline
210
0.0
220
0.0
230
1.0
 70
    12
 71
     2
 72
     6
 73
     3
 74
     0
 42
0.0000000001
 43
0.0000000001
 40
0.0
 40
0.0
 40
0.0
 40
0.2034365546988051
 40
0.2034365546988051
 40
0.2034365546988051
 10
6.476690014504333
 20
11.96230102046507
 30
0.0
 41
1.0
 10
6.378293482813755
 20
11.93651478014979
 30
0.0
 41
0.999985612974861
 10
6.280180580476579
 20
11.9096695517467
 30
0.0
 41
1.0
  0
SPLINE
  5
72
330
1F
100
AcDbEntity
  8
Default
100
AcDbSpline
210
0.0
220
0.0
230
1.0
 70
    12
 71
     2
 72
     6
 73
     3
 74
     0
 42
0.0000000001
 43
0.0000000001
 40
-0.0715383633173021
 40
-0.0715383633173021
 40
-0.0715383633173021
 40
0.0
 40
0.0
 40
0.0
 10
6.280180580476579
 20
11.9096695517467
 30
0.0
 41
1.0
 10
6.245668150623342
 20
11.90027132734854
 30
0.0
 41
0.9999999759228646
 10
6.211157306934158
 20
11.89086728230372
 30
0.0
 41
0.9999999999999996
  0
SPLINE
  5
73
330
1F
100
AcDbEntity
  8
Default
100
AcDbSpline
210
0.0
220
0.0
230
1.0
 70
    12
 71
     2
 72
     6
 73
     3
 74
     0
 42
0.0000000001
 43
0.0000000001
 40
0.0
 40
0.0
 40
0.0
 40
0.2577599672274734
 40
0.2577599672274734
 40
0.2577599672274734
 10
6.211157306934158
 20
11.89086728230372
 30
0.0
 41
0.9999999999998186
 10
6.086842884948049
 20
11.85686600590125
 30
0.0
 41
0.9999949110065189
 10
5.962315237846548
 20
11.82365414963374
 30
0.0
 41
1.0
  0
ARC
  5
74
330
1F
100
AcDbEntity
  8
Default
100
AcDbCircle
 10
3.356575869301819
 20
21.34668683503122
 30
0.0
 40
9.8730962308656
100
AcDbArc
 50
282.8651821148426
 51
285.3029802967349
  0
ARC
  5
75
330
1F
100
AcDbEntity
  8
Default
100
AcDbCircle
 10
3.764515028239754
 20
19.56054386087505
 30
0.0
 40
8.040960569534152
100
AcDbArc
 50
268.7988925315835
 51
282.8651821148426
  0
SPLINE
  5
76
330
1F
100
AcDbEntity
  8
Default
100
AcDbSpline
210
0.0
220
0.0
230
1.0
 70
    24
 71
     2
 72
     6
 73
     3
 74
     0
 42
0.0000000001
 43
0.0000000001
 40
-3.595962466357996
 40
-3.595962466357996
 40
-3.595962466357996
 40
0.0
 40
0.0
 40
0.0
 10
3.595962466358
 20
11.52135006331761
 30
0.0
 10
1.797981233179
 20
11.52135006331831
 30
0.0
 10
0.0
 20
11.52135006331901
 30
0.0
  0
SPLINE
  5
77
330
1F
100
AcDbEntity
  8
Default
100
AcDbSpline
210
0.0
220
0.0
230
1.0
 70
    24
 71
     2
 72
     6
 73
     3
 74
     0
 42
0.0000000001
 43
0.0000000001
 40
0.0
 40
0.0
 40
0.0
 40
3.595962466357996
 40
3.595962466357996
 40
3.595962466357996
 10
0.0
 20
11.52135006331901
 30
0.0
 10
-1.797981233179
 20
11.52135006331831
 30
0.0
 10
-3.595962466358
 20
11.52135006331761
 30
0.0
  0
ARC
  5
78
330
1F
100
AcDbEntity
  8
Default
100
AcDbCircle
 10
-3.764515028239754
 20
19.56054386087505
 30
0.0
 40
8.040960569534152
100
AcDbArc
 50
257.1348178851574
 51
271.2011074684164
  0
ARC
  5
79
330
1F
100
AcDbEntity
  8
Default
100
AcDbCircle
 10
-3.356575869301819
 20
21.34668683503122
 30
0.0
 40
9.8730962308656
100
AcDbArc
 50
254.6970197032651
 51
257.1348178851573
  0
SPLINE
  5
7A
330
1F
100
AcDbEntity
  8
Default
100
AcDbSpline
210
0.0
220
0.0
230
1.0
 70
    12
 71
     2
 72
     6
 73
     3
 74
     0
 42
0.0000000001
 43
0.0000000001
 40
-0.2577599672274734
 40
-0.2577599672274734
 40
-0.2577599672274734
 40
0.0
 40
0.0
 40
0.0
 10
-5.962315237846548
 20
11.82365414963374
 30
0.0
 41
1.0
 10
-6.086842884948049
 20
11.85686600590125
 30
0.0
 41
0.9999949110065189
 10
-6.211157306934158
 20
11.89086728230372
 30
0.0
 41
0.9999999999998186
  0
SPLINE
  5
7B
330
1F
100
AcDbEntity
  8
Default
100
AcDbSpline
210
0.0
220
0.0
230
1.0
 70
    12
 71
     2
 72
     6
 73
     3
 74
     0
 42
0.0000000001
 43
0.0000000001
 40
0.0
 40
0.0
 40
0.0
 40
0.0715383633173021
 40
0.0715383633173021
 40
0.0715383633173021
 10
-6.211157306934158
 20
11.89086728230372
 30
0.0
 41
0.9999999999999996
 10
-6.245668150623342
 20
11.90027132734854
 30
0.0
 41
0.9999999759228646
 10
-6.280180580476579
 20
11.9096695517467
 30
0.0
 41
1.0
  0
SPLINE
  5
7C
330
1F
100
AcDbEntity
  8
Default
100
AcDbSpline
210
0.0
220
0.0
230
1.0
 70
    12
 71
     2
 72
     6
 73
     3
 74
     0
 42
0.0000000001
 43
0.0000000001
 40
-0.2034365546988051
 40
-0.2034365546988051
 40
-0.2034365546988051
 40
0.0
 40
0.0
 40
0.0
 10
-6.280180580476579
 20
11.9096695517467
 30
0.0
 41
1.0
 10
-6.378293482813755
 20
11.93651478014979
 30
0.0
 41
0.999985612974861
 10
-6.476690014504333
 20
11.96230102046507
 30
0.0
 41
1.0
  0
SPLINE
  5
7D
330
1F
100
AcDbEntity
  8
Default
100
AcDbSpline
210
0.0
220
0.0
230
1.0
 70
    12
 71
     2
 72
     6
 73
     3
 74
     0
 42
0.0000000001
 43
0.0000000001
 40
0.0
 40
0.0
 40
0.0
 40
0.1645939861043443
 40
0.1645939861043443
 40
0.1645939861043443
 10
-6.476690014504333
 20
11.96230102046507
 30
0.0
 41
1.0
 10
-6.556257987290905
 20
11.98335902151252
 30
0.0
 41
0.999811166942512
 10
-6.636584133447034
 20
12.00130925729474
 30
0.0
 41
1.0
  0
SPLINE
  5
7E
330
1F
100
AcDbEntity
  8
Default
100
AcDbSpline
210
0.0
220
0.0
230
1.0
 70
    12
 71
     2
 72
    10
 73
     7
 74
     0
 42
0.0000000001
 43
0.0000000001
 40
0.0
 40
0.0
 40
0.0
 40
0.0639305869732642
 40
0.0639305869732642
 40
0.1279604400037003
 40
0.1279604400037003
 40
0.192093564250425
 40
0.192093564250425
 40
0.192093564250425
 10
-6.636584133447034
 20
12.00130925729474
 30
0.0
 41
1.0
 10
-6.667820604850812
 20
12.00809731254347
 30
0.0
 41
0.9999890984933278
 10
-6.698992323148515
 20
12.01517677708448
 30
0.0
 41
1.0
 10
-6.730212439662554
 20
12.02226723907107
 30
0.0
 41
0.9999891656151457
 10
-6.761365192262653
 20
12.02964804741234
 30
0.0
 41
1.0
 10
-6.792568188280995
 20
12.03704076039724
 30
0.0
 41
0.9999892348847124
 10
-6.823701236233191
 20
12.04472271919719
 30
0.0
 41
1.0
  0
SPLINE
  5
7F
330
1F
100
AcDbEntity
  8
Default
100
AcDbSpline
210
0.0
220
0.0
230
1.0
 70
     8
 71
     3
 72
     8
 73
     4
 74
     0
 42
0.0000000001
 43
0.0000000001
 40
-1.0
 40
-1.0
 40
-1.0
 40
-1.0
 40
0.0
 40
0.0
 40
0.0
 40
0.0
 10
-6.823701236233191
 20
12.04472271919719
 30
0.0
 10
-6.855528817929383
 20
12.052576051504
 30
0.0
 10
-6.888030306970419
 20
12.05796995334849
 30
0.0
 10
-6.92064638851565
 20
12.06126555793396
 30
0.0
  0
SPLINE
  5
80
330
1F
100
AcDbEntity
  8
Default
100
AcDbSpline
210
0.0
220
0.0
230
1.0
 70
     8
 71
     3
 72
    12
 73
     8
 74
     0
 42
0.0000000001
 43
0.0000000001
 40
-1.7316709966046
 40
-1.7316709966046
 40
-1.7316709966046
 40
-1.7316709966046
 40
-1.381057475511472
 40
-0.9932833818794501
 40
-0.5311831987203071
 40
-0.2779373345813006
 40
0.0
 40
0.0
 40
0.0
 40
0.0
 10
-6.92064638851565
 20
12.06126555793396
 30
0.0
 10
-7.036619739278535
 20
12.07298377448418
 30
0.0
 10
-7.288207148077664
 20
12.02303319009918
 30
0.0
 10
-7.597499359099467
 20
11.75338468678861
 30
0.0
 10
-7.766877012680658
 20
11.42223814247077
 30
0.0
 10
-7.863705422584454
 20
11.10562631385517
 30
0.0
 10
-7.893961758777585
 20
10.9304387067347
 30
0.0
 10
-7.905871341183182
 20
10.83795628682114
 30
0.0
  0
SPLINE
  5
81
330
1F
100
AcDbEntity
  8
Default
100
AcDbSpline
210
0.0
220
0.0
230
1.0
 70
    24
 71
     2
 72
     6
 73
     3
 74
     0
 42
0.0000000001
 43
0.0000000001
 40
-10.56228668149916
 40
-10.56228668149916
 40
-10.56228668149916
 40
0.0
 40
0.0
 40
0.0
 10
-7.905871341183182
 20
10.83795628682114
 30
0.0
 10
-8.556804130775093
 20
5.59669275156776
 30
0.0
 10
-9.207736920367005
 20
0.3554292163143787
 30
0.0
  0
SPLINE
  5
82
330
1F
100
AcDbEntity
  8
Make2D visible lines
100
AcDbSpline
210
0.0
220
0.0
230
1.0
 70
    12
 71
     2
 72
     6
 73
     3
 74
     0
 42
0.0000000001
 43
0.0000000001
 40
-0.8436208550946255
 40
-0.8436208550946255
 40
-0.8436208550946255
 40
0.0
 40
0.0
 40
0.0
 10
-4.9338143594778
 20
10.97749903747302
 30
0.0
 41
1.0
 10
-4.589722410570922
 20
10.72734120170837
 30
0.0
 41
0.9873375337234498
 10
-4.162044317750794
 20
10.59066387092882
 30
0.0
 41
1.0
  0
SPLINE
  5
83
330
1F
100
AcDbEntity
  8
Make2D visible lines
100
AcDbSpline
210
0.0
220
0.0
230
1.0
 70
     8
 71
     3
 72
    11
 73
     7
 74
     0
 42
0.0000000001
 43
0.0000000001
 40
-1.168375855721459
 40
-1.168375855721459
 40
-1.168375855721459
 40
-1.168375855721459
 40
-0.9807542986841283
 40
-0.7324560601477451
 40
-0.398990183726646
 40
0.0
 40
0.0
 40
0.0
 40
0.0
 10
-4.162044317750794
 20
10.59066387092882
 30
0.0
 10
-4.102059846114321
 20
10.57279296043826
 30
0.0
 10
-3.959102880551977
 20
10.54537302104643
 30
0.0
 10
-3.703785814877286
 20
10.51993893394864
 30
0.0
 10
-3.377152142550382
 20
10.50458123486796
 30
0.0
 10
-3.132998527109332
 20
10.50153050107272
 30
0.0
 10
-3.000000719711506
 20
10.50135006421026
 30
0.0
  0
SPLINE
  5
84
330
1F
100
AcDbEntity
  8
Make2D visible lines
100
AcDbSpline
210
0.0
220
0.0
230
1.0
 70
    24
 71
     2
 72
     6
 73
     3
 74
     0
 42
0.0000000001
 43
0.0000000001
 40
-3.000000000000007
 40
-3.000000000000007
 40
-3.000000000000007
 40
0.0
 40
0.0
 40
0.0
 10
-3.000000719711506
 20
10.50135006421026
 30
0.0
 10
-1.500000359855753
 20
10.50135006376591
 30
0.0
 10
0.0
 20
10.50135006332155
 30
0.0
  0
SPLINE
  5
85
330
1F
100
AcDbEntity
  8
Make2D visible lines
100
AcDbSpline
210
0.0
220
0.0
230
1.0
 70
    24
 71
     2
 72
     6
 73
     3
 74
     0
 42
0.0000000001
 43
0.0000000001
 40
0.0
 40
0.0
 40
0.0
 40
3.000000000000007
 40
3.000000000000007
 40
3.000000000000007
 10
0.0
 20
10.50135006332155
 30
0.0
 10
1.500000359855753
 20
10.50135006376591
 30
0.0
 10
3.000000719711506
 20
10.50135006421026
 30
0.0
  0
SPLINE
  5
86
330
1F
100
AcDbEntity
  8
Make2D visible lines
100
AcDbSpline
210
0.0
220
0.0
230
1.0
 70
     8
 71
     3
 72
    11
 73
     7
 74
     0
 42
0.0000000001
 43
0.0000000001
 40
0.0
 40
0.0
 40
0.0
 40
0.0
 40
0.398990183726646
 40
0.7324560601477451
 40
0.9807542986841283
 40
1.168375855721459
 40
1.168375855721459
 40
1.168375855721459
 40
1.168375855721459
 10
3.000000719711506
 20
10.50135006421026
 30
0.0
 10
3.132998527109332
 20
10.50153050107272
 30
0.0
 10
3.377152142550382
 20
10.50458123486796
 30
0.0
 10
3.703785814877286
 20
10.51993893394864
 30
0.0
 10
3.959102880551977
 20
10.54537302104643
 30
0.0
 10
4.102059846114321
 20
10.57279296043826
 30
0.0
 10
4.162044317750794
 20
10.59066387092882
 30
0.0
  0
SPLINE
  5
87
330
1F
100
AcDbEntity
  8
Make2D visible lines
100
AcDbSpline
210
0.0
220
0.0
230
1.0
 70
    12
 71
     2
 72
     6
 73
     3
 74
     0
 42
0.0000000001
 43
0.0000000001
 40
0.0
 40
0.0
 40
0.0
 40
0.8436208550946255
 40
0.8436208550946255
 40
0.8436208550946255
 10
4.162044317750794
 20
10.59066387092882
 30
0.0
 41
1.0
 10
4.589722410570922
 20
10.72734120170837
 30
0.0
 41
0.9873375337234498
 10
4.9338143594778
 20
10.97749903747302
 30
0.0
 41
1.0
  0
SPLINE
  5
88
330
1F
100
AcDbEntity
  8
Make2D visible lines
100
AcDbSpline
210
0.0
220
0.0
230
1.0
 70
    24
 71
     2
 72
     6
 73
     3
 74
     0
 42
0.0000000001
 43
0.0000000001
 40
0.0
 40
0.0
 40
0.0
 40
6.364943275724004
 40
6.364943275724004
 40
6.364943275724004
 10
-7.983667222298562
 20
5.140433629333178
 30
0.0
 10
-7.345882118572954
 20
8.258342525895387
 30
0.0
 10
-6.708097014847345
 20
11.37625142245759
 30
0.0
  0
SPLINE
  5
89
330
1F
100
AcDbEntity
  8
Make2D visible lines
100
AcDbSpline
210
0.0
220
0.0
230
1.0
 70
    12
 71
     2
 72
     8
 73
     5
 74
     0
 42
0.0000000001
 43
0.0000000001
 40
0.0
 40
0.0
 40
0.0
 40
0.4899288290525353
 40
0.4899288290525353
 40
0.9798576581050706
 40
0.9798576581050706
 40
0.9798576581050706
 10
9.207736920367005
 20
0.3554292163143787
 30
0.0
 41
1.0
 10
9.245817935948274
 20
0.0462031591105043
 30
0.0
 41
0.7081574404104211
 10
8.93670649610173
 20
0.0072026981189982
 30
0.0
 41
1.0
 10
8.627595056255183
 20
-0.0317977628725079
 30
0.0
 41
0.7081574404104211
 10
8.587675494782276
 20
0.2771963257657144
 30
0.0
 41
1.0
  0
SPLINE
  5
8A
330
1F
100
AcDbEntity
  8
Make2D visible lines
100
AcDbSpline
210
0.0
220
0.0
230
1.0
 70
    12
 71
     2
 72
     6
 73
     3
 74
     0
 42
0.0000000001
 43
0.0000000001
 40
0.0
 40
0.0
 40
0.0
 40
0.4054849752577168
 40
0.4054849752577168
 40
0.4054849752577168
 10
8.65158158825496
 20
0.004742647422339
 30
0.0
 41
1.0
 10
8.41467826400711
 20
0.0048887412593003
 30
0.0
 41
0.7970977390766091
 10
8.350682157147546
 20
0.2329845647412546
 30
0.0
 41
1.0
  0
SPLINE
  5
8B
330
1F
100
AcDbEntity
  8
Make2D visible lines
100
AcDbSpline
210
0.0
220
0.0
230
1.0
 70
    12
 71
     2
 72
     6
 73
     3
 74
     0
 42
0.0000000001
 43
0.0000000001
 40
0.0
 40
0.0
 40
0.0
 40
0.1264146628890321
 40
0.1264146628890321
 40
0.1264146628890321
 10
8.774574541058236
 20
0.0299690987098233
 30
0.0
 41
1.0
 10
8.715666392999573
 20
0.0047363356567515
 30
0.0
 41
0.9795874100105771
 10
8.65158158825496
 20
0.004742647422339
 30
0.0
 41
1.0
  0
SPLINE
  5
8C
330
1F
100
AcDbEntity
  8
Make2D visible lines
100
AcDbSpline
210
0.0
220
0.0
230
1.0
 70
    12
 71
     3
 72
    10
 73
     6
 74
     0
 42
0.0000000001
 43
0.0000000001
 40
0.8078408789122629
 40
0.8078408789122629
 40
0.8078408789122629
 40
0.8078408789122629
 40
0.9999985439659037
 40
0.9999985439659037
 40
1.557289640677526
 40
1.557289640677526
 40
1.557289640677526
 40
1.557289640677526
 10
8.605685630742828
 20
0.2056748809510123
 30
0.0
 41
1.0
 10
8.570754026573685
 20
0.2011262291482048
 30
0.0
 41
1.0
 10
8.536140860250939
 20
0.1987334452330106
 30
0.0
 41
1.0
 10
8.408358896028098
 20
0.199482217170023
 30
0.0
 41
1.0
 10
8.352073569440362
 20
0.2216435234511657
 30
0.0
 41
1.0
 10
8.345318831729223
 20
0.2546650798978219
 30
0.0
 41
1.0
  0
SPLINE
  5
8D
330
1F
100
AcDbEntity
  8
Make2D visible lines
100
AcDbSpline
210
0.0
220
0.0
230
1.0
 70
    12
 71
     2
 72
     8
 73
     5
 74
     0
 42
0.0000000001
 43
0.0000000001
 40
0.0
 40
0.0
 40
0.0
 40
0.4899288290525353
 40
0.4899288290525353
 40
0.9798576581050706
 40
0.9798576581050706
 40
0.9798576581050706
 10
-9.207736920367005
 20
0.3554292163143787
 30
0.0
 41
1.0
 10
-9.245817935948274
 20
0.0462031591105043
 30
0.0
 41
0.7081574404104211
 10
-8.93670649610173
 20
0.0072026981189982
 30
0.0
 41
1.0
 10
-8.627595056255183
 20
-0.0317977628725079
 30
0.0
 41
0.7081574404104211
 10
-8.587675494782276
 20
0.2771963257657144
 30
0.0
 41
1.0
  0
SPLINE
  5
8E
330
1F
100
AcDbEntity
  8
Make2D visible lines
100
AcDbSpline
210
0.0
220
0.0
230
1.0
 70
    12
 71
     2
 72
     6
 73
     3
 74
     0
 42
0.0000000001
 43
0.0000000001
 40
0.0
 40
0.0
 40
0.0
 40
0.4054849752577168
 40
0.4054849752577168
 40
0.4054849752577168
 10
-8.65158158825496
 20
0.004742647422339
 30
0.0
 41
1.0
 10
-8.41467826400711
 20
0.0048887412593003
 30
0.0
 41
0.7970977390766091
 10
-8.350682157147546
 20
0.2329845647412546
 30
0.0
 41
1.0
  0
SPLINE
  5
8F
330
1F
100
AcDbEntity
  8
Make2D visible lines
100
AcDbSpline
210
0.0
220
0.0
230
1.0
 70
    12
 71
     2
 72
     6
 73
     3
 74
     0
 42
0.0000000001
 43
0.0000000001
 40
0.0
 40
0.0
 40
0.0
 40
0.1264146628890321
 40
0.1264146628890321
 40
0.1264146628890321
 10
-8.774574541058236
 20
0.0299690987098233
 30
0.0
 41
1.0
 10
-8.715666392999573
 20
0.0047363356567515
 30
0.0
 41
0.9795874100105771
 10
-8.65158158825496
 20
0.004742647422339
 30
0.0
 41
1.0
  0
SPLINE
  5
90
330
1F
100
AcDbEntity
  8
Make2D visible lines
100
AcDbSpline
210
0.0
220
0.0
230
1.0
 70
    24
 71
     2
 72
     6
 73
     3
 74
     0
 42
0.0000000001
 43
0.0000000001
 40
0.0
 40
0.0
 40
0.0
 40
11.19019005670523
 40
11.19019005670523
 40
11.19019005670523
 10
-6.103263048612298
 20
11.21439820764473
 30
0.0
 10
-7.224594808674299
 20
5.732610813899691
 30
0.0
 10
-8.3459265687363
 20
0.2508234201546527
 30
0.0
  0
SPLINE
  5
91
330
1F
100
AcDbEntity
  8
Make2D visible lines
100
AcDbSpline
210
0.0
220
0.0
230
1.0
 70
    12
 71
     2
 72
     8
 73
     5
 74
     0
 42
0.0000000001
 43
0.0000000001
 40
-0.58087817316153
 40
-0.58087817316153
 40
-0.58087817316153
 40
-0.2740820155844018
 40
-0.2740820155844018
 40
-0.1706093440027808
 40
-0.1706093440027808
 40
-0.1706093440027808
 10
-8.345926568736298
 20
0.2508234201546527
 30
0.0
 41
0.8627063036811942
 10
-8.358445493001197
 20
0.196384565553119
 30
0.0
 41
0.8169417382415922
 10
-8.50379614643217
 20
0.1955328452721709
 30
0.0
 41
1.0
 10
-8.555556928718213
 20
0.1960401402044483
 30
0.0
 41
0.9955460879863995
 10
-8.60691097264942
 20
0.2025361468949102
 30
0.0
 41
0.9944550976446503
  0
SPLINE
  5
92
330
1F
100
AcDbEntity
  8
Make2D visible lines
100
AcDbSpline
210
0.0
220
0.0
230
1.0
 70
    12
 71
     2
 72
     8
 73
     5
 74
     0
 42
0.0000000001
 43
0.0000000001
 40
-0.5202994329098187
 40
-0.5202994329098187
 40
-0.5202994329098187
 40
-0.4908660760738508
 40
-0.4908660760738508
 40
0.0
 40
0.0
 40
0.0
 10
8.588197715348175
 20
0.2736763833125623
 30
0.0
 41
1.0
 10
8.587274544253164
 20
0.2902084399416757
 30
0.0
 41
0.84093902136173
 10
8.601938086204987
 20
0.297898802656532
 30
0.0
 41
1.0
 10
8.694542781672634
 20
0.3704138886380521
 30
0.0
 41
0.7071888352815602
 10
8.990432191461906
 20
0.3880901797958438
 30
0.0
 41
0.999835932519513
  0
SPLINE
  5
93
330
1F
100
AcDbEntity
  8
Make2D visible lines
100
AcDbSpline
210
0.0
220
0.0
230
1.0
 70
    12
 71
     3
 72
     8
 73
     4
 74
     0
 42
0.0000000001
 43
0.0000000001
 40
-1.963087469356249
 40
-1.963087469356249
 40
-1.963087469356249
 40
-1.963087469356249
 40
-1.582998516805881
 40
-1.582998516805881
 40
-1.582998516805881
 40
-1.582998516805881
 10
8.990432191461906
 20
0.3880901797958438
 30
0.0
 41
1.0
 10
9.116908792850431
 20
0.3966008300486344
 30
0.0
 41
1.0
 10
9.20005216628825
 20
0.3829426317818387
 30
0.0
 41
1.0
 10
9.207357859619933
 20
0.3578284635590593
 30
0.0
 41
1.0
  0
SPLINE
  5
94
330
1F
100
AcDbEntity
  8
Make2D visible lines
100
AcDbSpline
210
0.0
220
0.0
230
1.0
 70
    12
 71
     2
 72
     8
 73
     5
 74
     0
 42
0.0000000001
 43
0.0000000001
 40
-0.5202994329098187
 40
-0.5202994329098187
 40
-0.5202994329098187
 40
-0.4908660760738508
 40
-0.4908660760738508
 40
0.0
 40
0.0
 40
0.0
 10
-8.588197715348175
 20
0.2736763833125623
 30
0.0
 41
1.0
 10
-8.587274544253164
 20
0.2902084399416757
 30
0.0
 41
0.84093902136173
 10
-8.601938086204987
 20
0.297898802656532
 30
0.0
 41
1.0
 10
-8.694542781672634
 20
0.3704138886380521
 30
0.0
 41
0.7071888352815602
 10
-8.990432191461906
 20
0.3880901797958438
 30
0.0
 41
0.999835932519513
  0
SPLINE
  5
95
330
1F
100
AcDbEntity
  8
Make2D visible lines
100
AcDbSpline
210
0.0
220
0.0
230
1.0
 70
    12
 71
     3
 72
     8
 73
     4
 74
     0
 42
0.0000000001
 43
0.0000000001
 40
-1.963087469356249
 40
-1.963087469356249
 40
-1.963087469356249
 40
-1.963087469356249
 40
-1.582998516805881
 40
-1.582998516805881
 40
-1.582998516805881
 40
-1.582998516805881
 10
-8.990432191461906
 20
0.3880901797958438
 30
0.0
 41
1.0
 10
-9.116908792850431
 20
0.3966008300486344
 30
0.0
 41
1.0
 10
-9.20005216628825
 20
0.3829426317818387
 30
0.0
 41
1.0
 10
-9.207357859619933
 20
0.3578284635590593
 30
0.0
 41
1.0
  0
SPLINE
  5
96
330
1F
100
AcDbEntity
  8
Default
100
AcDbSpline
210
0.0
220
0.0
230
1.0
 70
     8
 71
     3
 72
    24
 73
    20
 74
     0
 42
0.0000000001
 43
0.0000000001
 40
0.0
 40
0.0
 40
0.0
 40
0.0
 40
1.0
 40
2.0
 40
3.0
 40
4.0
 40
5.0
 40
6.0
 40
7.0
 40
8.0
 40
9.0
 40
10.0
 40
11.0
 40
12.0
 40
13.0
 40
14.0
 40
15.0
 40
16.0
 40
17.0
 40
17.0
 40
17.0
 40
17.0
 10
7.005755374596284
 20
15.21020293729279
 30
0.0
 10
7.245202413423705
 20
15.21266289160281
 30
0.0
 10
7.726774715044014
 20
15.23613693254553
 30
0.0
 10
8.426018377429292
 20
15.41862976813341
 30
0.0
 10
9.081582838574812
 20
15.72250533170441
 30
0.0
 10
9.673111602282562
 20
16.13534590311427
 30
0.0
 10
10.20892581625067
 20
16.61686514795539
 30
0.0
 10
10.70919529172992
 20
17.13443549314057
 30
0.0
 10
11.16965268536916
 20
17.68793591210067
 30
0.0
 10
11.59418385149988
 20
18.26915894848283
 30
0.0
 10
11.98917289678878
 20
18.87074622523244
 30
0.0
 10
12.36160688552658
 20
19.48641619270173
 30
0.0
 10
12.72153576203588
 20
20.10944591565192
 30
0.0
 10
13.06828013665765
 20
20.73993260811843
 30
0.0
 10
13.39625250396084
 20
21.38042207742419
 30
0.0
 10
13.70421307816741
 20
22.03078041156465
 30
0.0
 10
13.98807285649457
 20
22.692063621613
 30
0.0
 10
14.2430447169298
 20
23.36508816114506
 30
0.0
 10
14.38788815293486
 20
23.82259638101522
 30
0.0
 10
14.45179601745139
 20
24.05376760435387
 30
0.0
  0
SPLINE
  5
97
330
1F
100
AcDbEntity
  8
Default
100
AcDbSpline
210
0.0
220
0.0
230
1.0
 70
     8
 71
     3
 72
    19
 73
    15
 74
     0
 42
0.0000000001
 43
0.0000000001
 40
-12.0
 40
-12.0
 40
-12.0
 40
-12.0
 40
-11.0
 40
-10.0
 40
-9.0
 40
-8.0
 40
-7.0
 40
-6.0
 40
-5.0
 40
-4.0
 40
-3.0
 40
-2.0
 40
-1.0
 40
0.0
 40
0.0
 40
0.0
 40
0.0
 10
9.510957813972844
 20
16.0266399430372
 30
0.0
 10
9.303812582672101
 20
16.20134487005349
 30
0.0
 10
8.777476892911062
 20
16.33886890466979
 30
0.0
 10
7.992536832560622
 20
16.47774291119187
 30
0.0
 10
7.196422692906073
 20
16.57370889361873
 30
0.0
 10
6.399612544291518
 20
16.64932035280231
 30
0.0
 10
5.601087948561932
 20
16.70911950740853
 30
0.0
 10
4.801900669715047
 20
16.75737376427418
 30
0.0
 10
4.002165018056139
 20
16.7959854848227
 30
0.0
 10
3.202079379295916
 20
16.82622475119507
 30
0.0
 10
2.401745385658407
 20
16.84896879878418
 30
0.0
 10
1.601248018339321
 20
16.86488136265208
 30
0.0
 10
0.8006487750207737
 20
16.87432851893992
 30
0.0
 10
0.2668828846553568
 20
16.87642861882788
 30
0.0
 10
0.0000000036788812
 20
16.87642899251018
 30
0.0
  0
SPLINE
  5
98
330
1F
100
AcDbEntity
  8
Default
100
AcDbSpline
210
0.0
220
0.0
230
1.0
 70
     8
 71
     3
 72
    19
 73
    15
 74
     0
 42
0.0000000001
 43
0.0000000001
 40
0.0
 40
0.0
 40
0.0
 40
0.0
 40
1.0
 40
2.0
 40
3.0
 40
4.0
 40
5.0
 40
6.0
 40
7.0
 40
8.0
 40
9.0
 40
10.0
 40
11.0
 40
12.0
 40
12.0
 40
12.0
 40
12.0
 10
0.0000000036788812
 20
16.87642899251018
 30
0.0
 10
-0.2668828772975944
 20
16.87642861882788
 30
0.0
 10
-0.8006487676630113
 20
16.87432851893992
 30
0.0
 10
-1.601248010981558
 20
16.86488136265208
 30
0.0
 10
-2.401745378300644
 20
16.84896879878418
 30
0.0
 10
-3.202079371938154
 20
16.82622475119507
 30
0.0
 10
-4.002165010698376
 20
16.7959854848227
 30
0.0
 10
-4.801900662357284
 20
16.75737376427418
 30
0.0
 10
-5.601087941204169
 20
16.70911950740853
 30
0.0
 10
-6.399612536933756
 20
16.64932035280231
 30
0.0
 10
-7.196422685548311
 20
16.57370889361873
 30
0.0
 10
-7.992536825202859
 20
16.47774291119187
 30
0.0
 10
-8.7774768855533
 20
16.33886890466979
 30
0.0
 10
-9.303812575314339
 20
16.20134487005349
 30
0.0
 10
-9.510957806615082
 20
16.0266399430372
 30
0.0
  0
SPLINE
  5
99
330
1F
100
AcDbEntity
  8
Default
100
AcDbSpline
210
0.0
220
0.0
230
1.0
 70
     8
 71
     3
 72
    11
 73
     7
 74
     0
 42
0.0000000001
 43
0.0000000001
 40
0.0
 40
0.0
 40
0.0
 40
0.0
 40
0.9999786995718987
 40
0.9999786995718987
 40
0.9999786995718987
 40
2.0
 40
2.0
 40
2.0
 40
2.0
 10
-7.264218543382768
 20
14.78908543363262
 30
0.0
 10
-4.844020590337633
 20
14.70305647344556
 30
0.0
 10
-2.421726892406174
 20
14.81429626668039
 30
0.0
 10
-0.0000000000000035
 20
14.81429626668043
 30
0.0
 10
2.421830062242834
 20
14.81429626668043
 30
0.0
 10
4.844226978305823
 20
14.703046995221
 30
0.0
 10
7.264528248292439
 20
14.78908543363268
 30
0.0
  0
SPLINE
  5
9A
330
1F
100
AcDbEntity
  8
Default
100
AcDbSpline
210
0.0
220
0.0
230
1.0
 70
     8
 71
     3
 72
    24
 73
    20
 74
     0
 42
0.0000000001
 43
0.0000000001
 40
-17.0
 40
-17.0
 40
-17.0
 40
-17.0
 40
-16.0
 40
-15.0
 40
-14.0
 40
-13.0
 40
-12.0
 40
-11.0
 40
-10.0
 40
-9.0
 40
-8.0
 40
-7.0
 40
-6.0
 40
-5.0
 40
-4.0
 40
-3.0
 40
-2.0
 40
-1.0
 40
0.0
 40
0.0
 40
0.0
 40
0.0
 10
7.264528248292439
 20
14.78908543363268
 30
0.0
 10
7.512672878414032
 20
14.79790663979435
 30
0.0
 10
8.009496138860273
 20
14.83920893215491
 30
0.0
 10
8.73159994476946
 20
15.03957834504671
 30
0.0
 10
9.396716773906059
 20
15.38230164168345
 30
0.0
 10
10.00230463625161
 20
15.82074765504517
 30
0.0
 10
10.52728316645268
 20
16.35229065777966
 30
0.0
 10
11.016206507692
 20
16.91488031912733
 30
0.0
 10
11.46655508036914
 20
17.50932419859011
 30
0.0
 10
11.88898979055112
 20
18.12351332728174
 30
0.0
 10
12.28856670999296
 20
18.75283223200801
 30
0.0
 10
12.66950873958517
 20
19.39351235226739
 30
0.0
 10
13.04036164519382
 20
20.04005498425438
 30
0.0
 10
13.40262085620008
 20
20.69146971047574
 30
0.0
 10
13.74786251076711
 20
21.35210776574088
 30
0.0
 10
14.0756727309052
 20
22.02156228750005
 30
0.0
 10
14.38315468045526
 20
22.70062620454799
 30
0.0
 10
14.66628231966859
 20
23.39025563034625
 30
0.0
 10
14.83420887572213
 20
23.85807001847969
 30
0.0
 10
14.91142503832697
 20
24.09421879067301
 30
0.0
  0
SPLINE
  5
9B
330
1F
100
AcDbEntity
  8
Default
100
AcDbSpline
210
0.0
220
0.0
230
1.0
 70
     8
 71
     3
 72
    12
 73
     8
 74
     0
 42
0.0000000001
 43
0.0000000001
 40
0.0
 40
0.0
 40
0.0
 40
0.0
 40
1.0
 40
2.0
 40
3.0
 40
4.0
 40
5.0
 40
5.0
 40
5.0
 40
5.0
 10
14.91142503832697
 20
24.09421879067301
 30
0.0
 10
14.97333240093583
 20
24.28576013732229
 30
0.0
 10
15.09510200282482
 20
24.66937438711722
 30
0.0
 10
15.23557538118716
 20
25.25808003359206
 30
0.0
 10
15.29157206406009
 20
25.85964676488729
 30
0.0
 10
15.16814641026623
 20
26.47179638572748
 30
0.0
 10
14.83418489439116
 20
26.74762489765857
 30
0.0
 10
14.63765481135745
 20
26.79647915865704
 30
0.0
  0
SPLINE
  5
9C
330
1F
100
AcDbEntity
  8
Default
100
AcDbSpline
210
0.0
220
0.0
230
1.0
 70
     8
 71
     3
 72
    19
 73
    15
 74
     0
 42
0.0000000001
 43
0.0000000001
 40
-12.0
 40
-12.0
 40
-12.0
 40
-12.0
 40
-11.0
 40
-10.0
 40
-9.0
 40
-8.0
 40
-7.0
 40
-6.0
 40
-5.0
 40
-4.0
 40
-3.0
 40
-2.0
 40
-1.0
 40
0.0
 40
0.0
 40
0.0
 40
0.0
 10
14.63765481135745
 20
26.79647915865704
 30
0.0
 10
14.24352968175928
 20
26.90480994370368
 30
0.0
 10
13.4429880902595
 20
27.07190003945634
 30
0.0
 10
12.23194428816031
 20
27.26325768688358
 30
0.0
 10
11.01532953641159
 20
27.4147990426599
 30
0.0
 10
9.795990734746864
 20
27.541880104273
 30
0.0
 10
8.574447794877996
 20
27.64575793484908
 30
0.0
 10
7.351419985560202
 20
27.73006231336941
 30
0.0
 10
6.12737977338357
 20
27.79798414721783
 30
0.0
 10
4.902644960399331
 20
27.85180582305729
 30
0.0
 10
3.677430426611185
 20
27.89318513892469
 30
0.0
 10
2.451903443028373
 20
27.92379572480733
 30
0.0
 10
1.226172758338198
 20
27.94469130437695
 30
0.0
 10
0.4089361394371271
 20
27.95227931437575
 30
0.0
 10
0.0003097049096734
 20
27.95463132187469
 30
0.0
  0
SPLINE
  5
9D
330
1F
100
AcDbEntity
  8
Default
100
AcDbSpline
210
0.0
220
0.0
230
1.0
 70
     8
 71
     3
 72
    19
 73
    15
 74
     0
 42
0.0000000001
 43
0.0000000001
 40
0.0
 40
0.0
 40
0.0
 40
0.0
 40
1.0
 40
2.0
 40
3.0
 40
4.0
 40
5.0
 40
6.0
 40
7.0
 40
8.0
 40
9.0
 40
10.0
 40
11.0
 40
12.0
 40
12.0
 40
12.0
 40
12.0
 10
0.0003097049096734
 20
27.95463132187469
 30
0.0
 10
-0.4083167296177803
 20
27.95227931437575
 30
0.0
 10
-1.225553348518851
 20
27.94469130437695
 30
0.0
 10
-2.451284033209026
 20
27.92379572480733
 30
0.0
 10
-3.676811016791838
 20
27.89318513892469
 30
0.0
 10
-4.902025550579984
 20
27.85180582305729
 30
0.0
 10
-6.126760363564223
 20
27.79798414721783
 30
0.0
 10
-7.350800575740855
 20
27.73006231336941
 30
0.0
 10
-8.573828385058649
 20
27.64575793484908
 30
0.0
 10
-9.795371324927517
 20
27.541880104273
 30
0.0
 10
-11.01471012659224
 20
27.4147990426599
 30
0.0
 10
-12.23132487834096
 20
27.26325768688358
 30
0.0
 10
-13.44236868044015
 20
27.07190003945634
 30
0.0
 10
-14.24291027193993
 20
26.90480994370368
 30
0.0
 10
-14.63703540153811
 20
26.79647915865704
 30
0.0
  0
SPLINE
  5
9E
330
1F
100
AcDbEntity
  8
Default
100
AcDbSpline
210
0.0
220
0.0
230
1.0
 70
     8
 71
     3
 72
    12
 73
     8
 74
     0
 42
0.0000000001
 43
0.0000000001
 40
-5.0
 40
-5.0
 40
-5.0
 40
-5.0
 40
-4.0
 40
-3.0
 40
-2.0
 40
-1.0
 40
0.0
 40
0.0
 40
0.0
 40
0.0
 10
-14.63703540153811
 20
26.79647915865704
 30
0.0
 10
-14.83356548457181
 20
26.74762489765857
 30
0.0
 10
-15.16752700044688
 20
26.47179638572748
 30
0.0
 10
-15.29095265424075
 20
25.85964676488729
 30
0.0
 10
-15.23495597136781
 20
25.25808003359206
 30
0.0
 10
-15.09448259300547
 20
24.66937438711722
 30
0.0
 10
-14.97271299111648
 20
24.28576013732229
 30
0.0
 10
-14.91080562850762
 20
24.09421879067301
 30
0.0
  0
SPLINE
  5
9F
330
1F
100
AcDbEntity
  8
Default
100
AcDbSpline
210
0.0
220
0.0
230
1.0
 70
     8
 71
     3
 72
    24
 73
    20
 74
     0
 42
0.0000000001
 43
0.0000000001
 40
0.0
 40
0.0
 40
0.0
 40
0.0
 40
1.000024441849377
 40
2.000048883698754
 40
3.000073325548131
 40
4.000097767397508
 40
5.000122209246884
 40
6.000146651096261
 40
7.000171092945639
 40
8.000195534795015
 40
9.000219976644392
 40
10.00024441849377
 40
11.00026886034314
 40
12.00029330219252
 40
13.0003177440419
 40
14.00034218589128
 40
15.00036662774065
 40
16.00039106959003
 40
17.0
 40
17.0
 40
17.0
 40
17.0
 10
-14.91080562850762
 20
24.09421879067301
 30
0.0
 10
-14.83358946590278
 20
23.85807001847969
 30
0.0
 10
-14.66566290984924
 20
23.39025563034625
 30
0.0
 10
-14.38253527063592
 20
22.70062620454799
 30
0.0
 10
-14.07505332108585
 20
22.02156228750005
 30
0.0
 10
-13.74724310094777
 20
21.35210776574088
 30
0.0
 10
-13.40200144638074
 20
20.69146971047574
 30
0.0
 10
-13.03974223537448
 20
20.04005498425438
 30
0.0
 10
-12.66888932976582
 20
19.39351235226739
 30
0.0
 10
-12.28794730017361
 20
18.75283223200801
 30
0.0
 10
-11.88837038073178
 20
18.12351332728174
 30
0.0
 10
-11.46593567054979
 20
17.50932419859011
 30
0.0
 10
-11.01558709787265
 20
16.91488031912733
 30
0.0
 10
-10.52666375663334
 20
16.35229065777966
 30
0.0
 10
-10.00168522643226
 20
15.82074765504517
 30
0.0
 10
-9.396097364086712
 20
15.38230164168345
 30
0.0
 10
-8.730980534950113
 20
15.03957834504671
 30
0.0
 10
-8.008976740727054
 20
14.83923668340434
 30
0.0
 10
-7.512259898631652
 20
14.79792380493257
 30
0.0
 10
-7.264218543382768
 20
14.78908543363262
 30
0.0
  0
SPLINE
  5
A0
330
1F
100
AcDbEntity
  8
Default
100
AcDbSpline
210
0.0
220
0.0
230
1.0
 70
     8
 71
     3
 72
    24
 73
    20
 74
     0
 42
0.0000000001
 43
0.0000000001
 40
0.0
 40
0.0
 40
0.0
 40
0.0
 40
1.0
 40
2.0
 40
3.0
 40
4.0
 40
5.0
 40
6.0
 40
7.0
 40
8.0
 40
9.0
 40
10.0
 40
11.0
 40
12.0
 40
13.0
 40
14.0
 40
15.0
 40
16.0
 40
17.0
 40
17.0
 40
17.0
 40
17.0
 10
-7.005755367238521
 20
15.21020293729279
 30
0.0
 10
-7.245202406065943
 20
15.21266289160281
 30
0.0
 10
-7.726774707686252
 20
15.23613693254553
 30
0.0
 10
-8.42601837007153
 20
15.41862976813341
 30
0.0
 10
-9.08158283121705
 20
15.72250533170441
 30
0.0
 10
-9.6731115949248
 20
16.13534590311427
 30
0.0
 10
-10.2089258088929
 20
16.61686514795539
 30
0.0
 10
-10.70919528437216
 20
17.13443549314057
 30
0.0
 10
-11.1696526780114
 20
17.68793591210067
 30
0.0
 10
-11.59418384414212
 20
18.26915894848283
 30
0.0
 10
-11.98917288943102
 20
18.87074622523244
 30
0.0
 10
-12.36160687816882
 20
19.48641619270173
 30
0.0
 10
-12.72153575467812
 20
20.10944591565192
 30
0.0
 10
-13.06828012929989
 20
20.73993260811843
 30
0.0
 10
-13.39625249660307
 20
21.38042207742419
 30
0.0
 10
-13.70421307080964
 20
22.03078041156465
 30
0.0
 10
-13.98807284913681
 20
22.692063621613
 30
0.0
 10
-14.24304470957204
 20
23.36508816114506
 30
0.0
 10
-14.3878881455771
 20
23.82259638101522
 30
0.0
 10
-14.45179601009363
 20
24.05376760435387
 30
0.0
  0
SPLINE
  5
A1
330
1F
100
AcDbEntity
  8
Default
100
AcDbSpline
210
0.0
220
0.0
230
1.0
 70
     8
 71
     3
 72
    15
 73
    11
 74
     0
 42
0.0000000001
 43
0.0000000001
 40
0.0
 40
0.0
 40
0.0
 40
0.0
 40
0.2851889473013802
 40
1.587701404265863
 40
2.854872156616546
 40
6.708488880923252
 40
10.97639679747228
 40
12.29790800810541
 40
13.64242482470756
 40
13.92248948227173
 40
13.92248948227173
 40
13.92248948227173
 40
13.92248948227173
 10
-6.958932411343229
 20
15.2102955460479
 30
0.0
 10
-6.863810470360878
 20
15.21027245528253
 30
0.0
 10
-6.335222780579436
 20
15.23649296344462
 30
0.0
 10
-5.384927403271845
 20
15.28694967974343
 30
0.0
 10
-3.244259440540471
 20
15.34140139553592
 30
0.0
 10
-0.1146624444627165
 20
15.34231115317644
 30
0.0
 10
3.033066996438471
 20
15.34368542067889
 30
0.0
 10
5.343962394725395
 20
15.28916722261569
 30
0.0
 10
6.324658008553229
 20
15.23674034156406
 30
0.0
 10
6.865514516603678
 20
15.21022218235573
 30
0.0
 10
6.958934971682464
 20
15.21029558819736
 30
0.0
  0
SPLINE
  5
A2
330
1F
100
AcDbEntity
  8
Default
100
AcDbSpline
210
0.0
220
0.0
230
1.0
 70
    12
 71
     2
 72
     6
 73
     3
 74
     0
 42
0.0000000001
 43
0.0000000001
 40
0.0
 40
0.0
 40
0.0
 40
0.7038513494140428
 40
0.7038513494140428
 40
0.7038513494140428
 10
46.73990599301559
 20
14.90730972559294
 30
0.0
 41
1.0
 10
46.71411259901798
 20
15.34699669522409
 30
0.0
 41
0.7240920788525397
 10
46.27369157460786
 20
15.3425909751541
 30
0.0
 41
1.0
  0
SPLINE
  5
A3
330
1F
100
AcDbEntity
  8
Default
100
AcDbSpline
210
0.0
220
0.0
230
1.0
 70
     8
 71
     3
 72
    19
 73
    15
 74
     0
 42
0.0000000001
 43
0.0000000001
 40
0.0
 40
0.0
 40
0.0
 40
0.0
 40
1.0
 40
2.0
 40
3.0
 40
4.0
 40
5.0
 40
6.0
 40
7.0
 40
8.0
 40
9.0
 40
10.0
 40
11.0
 40
12.0
 40
12.0
 40
12.0
 40
12.0
 10
46.27369157460786
 20
15.3425909751541
 30
0.0
 10
46.07793258627718
 20
15.3407701775885
 30
0.0
 10
45.68660800505362
 20
15.32770442948765
 30
0.0
 10
45.10002152044283
 20
15.29847123966251
 30
0.0
 10
44.51411470497107
 20
15.26050953511028
 30
0.0
 10
43.92914912481567
 20
15.19802364335498
 30
0.0
 10
43.34089497151401
 20
15.22644593170394
 30
0.0
 10
42.76380708494799
 20
15.34549904624203
 30
0.0
 10
42.21488956936896
 20
15.55910552697153
 30
0.0
 10
41.7024480885188
 20
15.84984011905245
 30
0.0
 10
41.24224755538432
 20
16.21612694240567
 30
0.0
 10
40.80842293858218
 20
16.61213364844553
 30
0.0
 10
40.39229581961359
 20
17.02676306437849
 30
0.0
 10
40.12919768335176
 20
17.3168771724277
 30
0.0
 10
40.00120142218031
 20
17.46498799374469
 30
0.0
  0
SPLINE
  5
A4
330
1F
100
AcDbEntity
  8
Default
100
AcDbSpline
210
0.0
220
0.0
230
1.0
 70
    24
 71
     2
 72
     6
 73
     3
 74
     0
 42
0.0000000001
 43
0.0000000001
 40
0.0
 40
0.0
 40
0.0
 40
1.314622470337779
 40
1.314622470337779
 40
1.314622470337779
 10
46.24023947639811
 20
15.34227602293951
 30
0.0
 10
46.17860945511521
 20
15.99669164038451
 30
0.0
 10
46.11697943383231
 20
16.65110725782951
 30
0.0
  0
SPLINE
  5
A5
330
1F
100
AcDbEntity
  8
Default
100
AcDbSpline
210
0.0
220
0.0
230
1.0
 70
     8
 71
     3
 72
     8
 73
     4
 74
     0
 42
0.0000000001
 43
0.0000000001
 40
0.0
 40
0.0
 40
0.0
 40
0.0
 40
1.0
 40
1.0
 40
1.0
 40
1.0
 10
46.11697943383231
 20
16.65110725782951
 30
0.0
 10
46.10310594014383
 20
16.7984223284603
 30
0.0
 10
46.00229898252935
 20
16.87173233448103
 30
0.0
 10
45.84794515685459
 20
16.88018710160292
 30
0.0
  0
SPLINE
  5
A6
330
1F
100
AcDbEntity
  8
Default
100
AcDbSpline
210
0.0
220
0.0
230
1.0
 70
     8
 71
     3
 72
    10
 73
     6
 74
     0
 42
0.0000000001
 43
0.0000000001
 40
-3.0
 40
-3.0
 40
-3.0
 40
-3.0
 40
-2.0
 40
-1.0
 40
0.0
 40
0.0
 40
0.0
 40
0.0
 10
45.84794515685459
 20
16.88018710160292
 30
0.0
 10
45.27505560804011
 20
16.91156726144424
 30
0.0
 10
44.12755187876999
 20
16.88933627320183
 30
0.0
 10
42.40838841711746
 20
16.82489091133217
 30
0.0
 10
41.26283103701386
 20
16.76435588587064
 30
0.0
 10
40.69024960063539
 20
16.73171372060357
 30
0.0
  0
ARC
  5
A7
330
1F
100
AcDbEntity
  8
Default
100
AcDbCircle
 10
2.691038760554168
 20
53.53416280635405
 30
0.0
 40
17.94432680120315
100
AcDbArc
 50
226.6258777618027
 51
235.4652013669121
  0
SPLINE
  5
A8
330
1F
100
AcDbEntity
  8
Default
100
AcDbSpline
210
0.0
220
0.0
230
1.0
 70
     8
 71
     3
 72
    14
 73
    10
 74
     0
 42
0.0000000001
 43
0.0000000001
 40
0.0000000000000002
 40
0.0000000000000002
 40
0.0000000000000002
 40
0.0000000000000002
 40
1.0
 40
2.0
 40
3.0
 40
4.0
 40
5.0
 40
6.0
 40
7.0
 40
7.0
 40
7.0
 40
7.0
 10
-9.632394224505074
 20
40.49070222983789
 30
0.0
 10
-10.03916626521119
 20
40.87501956298971
 30
0.0
 10
-10.84284557266793
 20
41.65563359528755
 30
0.0
 10
-11.95786450709764
 20
42.91143519968037
 30
0.0
 10
-13.04231627401311
 20
44.19519587369248
 30
0.0
 10
-14.03489607301373
 20
45.54747094198942
 30
0.0
 10
-14.78961872118304
 20
47.07900935694769
 30
0.0
 10
-14.74325549198956
 20
48.79927561129158
 30
0.0
 10
-14.43135721196507
 20
49.87487808716094
 30
0.0
 10
-14.22301755008739
 20
50.39539250852784
 30
0.0
  0
ARC
  5
A9
330
1F
100
AcDbEntity
  8
Default
100
AcDbCircle
 10
-2.691038760554168
 20
53.53416280635405
 30
0.0
 40
17.94432680120315
100
AcDbArc
 50
304.5347986330879
 51
313.3741222381972
  0
SPLINE
  5
AA
330
1F
100
AcDbEntity
  8
Default
100
AcDbSpline
210
0.0
220
0.0
230
1.0
 70
     8
 71
     3
 72
    14
 73
    10
 74
     0
 42
0.0000000001
 43
0.0000000001
 40
0.0000000000000002
 40
0.0000000000000002
 40
0.0000000000000002
 40
0.0000000000000002
 40
1.0
 40
2.0
 40
3.0
 40
4.0
 40
5.0
 40
6.0
 40
7.0
 40
7.0
 40
7.0
 40
7.0
 10
9.632394224505074
 20
40.49070222983789
 30
0.0
 10
10.03916626521119
 20
40.87501956298971
 30
0.0
 10
10.84284557266793
 20
41.65563359528755
 30
0.0
 10
11.95786450709764
 20
42.91143519968037
 30
0.0
 10
13.04231627401311
 20
44.19519587369248
 30
0.0
 10
14.03489607301373
 20
45.54747094198942
 30
0.0
 10
14.78961872118304
 20
47.07900935694769
 30
0.0
 10
14.74325549198956
 20
48.79927561129158
 30
0.0
 10
14.43135721196507
 20
49.87487808716094
 30
0.0
 10
14.22301755008739
 20
50.39539250852784
 30
0.0
  0
SPLINE
  5
AB
330
1F
100
AcDbEntity
  8
Default
100
AcDbSpline
210
0.0
220
0.0
230
1.0
 70
     8
 71
     3
 72
    19
 73
    15
 74
     0
 42
0.0000000001
 43
0.0000000001
 40
-12.0
 40
-12.0
 40
-12.0
 40
-12.0
 40
-11.0
 40
-10.0
 40
-9.0
 40
-8.0
 40
-7.0
 40
-6.0
 40
-5.0
 40
-4.0
 40
-3.0
 40
-2.0
 40
-1.0
 40
0.0
 40
0.0
 40
0.0
 40
0.0
 10
8.263647002088181
 20
38.07802013382305
 30
0.0
 10
8.94867880364574
 20
38.73775108715433
 30
0.0
 10
10.30711521496657
 20
40.06187836297747
 30
0.0
 10
12.35033035111232
 20
42.07070391997836
 30
0.0
 10
14.05408734034481
 20
44.32336710496414
 30
0.0
 10
15.7788937561117
 20
46.7313047639955
 30
0.0
 10
15.56625734805681
 20
49.69719280161233
 30
0.0
 10
14.3718641443336
 20
52.30178954152325
 30
0.0
 10
12.70506191407278
 20
54.63076077985431
 30
0.0
 10
10.62236428568592
 20
56.59655276221219
 30
0.0
 10
8.235424505668272
 20
58.17432136482616
 30
0.0
 10
5.619849521109289
 20
59.33399120023549
 30
0.0
 10
2.850983787068605
 20
60.05407644226177
 30
0.0
 10
0.9506117815189551
 20
60.2218654312618
 30
0.0
 10
0.0
 20
60.22231200786416
 30
0.0
  0
SPLINE
  5
AC
330
1F
100
AcDbEntity
  8
Default
100
AcDbSpline
210
0.0
220
0.0
230
1.0
 70
     8
 71
     3
 72
    19
 73
    15
 74
     0
 42
0.0000000001
 43
0.0000000001
 40
0.0
 40
0.0
 40
0.0
 40
0.0
 40
1.0
 40
2.0
 40
3.0
 40
4.0
 40
5.0
 40
6.0
 40
7.0
 40
8.0
 40
9.0
 40
10.0
 40
11.0
 40
12.0
 40
12.0
 40
12.0
 40
12.0
 10
0.0
 20
60.22231200786416
 30
0.0
 10
-0.9506117815189551
 20
60.2218654312618
 30
0.0
 10
-2.850983787068605
 20
60.05407644226177
 30
0.0
 10
-5.619849521109289
 20
59.33399120023549
 30
0.0
 10
-8.235424505668272
 20
58.17432136482616
 30
0.0
 10
-10.62236428568592
 20
56.59655276221219
 30
0.0
 10
-12.70506191407278
 20
54.63076077985431
 30
0.0
 10
-14.3718641443336
 20
52.30178954152325
 30
0.0
 10
-15.56625734805681
 20
49.69719280161233
 30
0.0
 10
-15.7788937561117
 20
46.7313047639955
 30
0.0
 10
-14.05408734034481
 20
44.32336710496414
 30
0.0
 10
-12.35033035111232
 20
42.07070391997836
 30
0.0
 10
-10.30711521496657
 20
40.06187836297747
 30
0.0
 10
-8.94867880364574
 20
38.73775108715433
 30
0.0
 10
-8.263647002088181
 20
38.07802013382305
 30
0.0
  0
SPLINE
  5
AD
330
1F
100
AcDbEntity
  8
Default
100
AcDbSpline
210
0.0
220
0.0
230
1.0
 70
     8
 71
     3
 72
    10
 73
     6
 74
     0
 42
0.0000000001
 43
0.0000000001
 40
0.0
 40
0.0
 40
0.0
 40
0.0
 40
1.0
 40
2.0
 40
3.0
 40
3.0
 40
3.0
 40
3.0
 10
14.91142398297175
 20
46.15704185579739
 30
0.0
 10
15.13653364910567
 20
46.61499699894086
 30
0.0
 10
15.34885163602357
 20
47.62992092993711
 30
0.0
 10
15.14735189040227
 20
49.15567027482521
 30
0.0
 10
14.83152556871934
 20
50.1248683531843
 30
0.0
 10
14.63765375600224
 20
50.59526444516137
 30
0.0
  0
SPLINE
  5
AE
330
1F
100
AcDbEntity
  8
Default
100
AcDbSpline
210
0.0
220
0.0
230
1.0
 70
     8
 71
     3
 72
    10
 73
     6
 74
     0
 42
0.0000000001
 43
0.0000000001
 40
-3.0
 40
-3.0
 40
-3.0
 40
-3.0
 40
-2.0
 40
-1.0
 40
0.0
 40
0.0
 40
0.0
 40
0.0
 10
14.63765375600224
 20
50.59526444516137
 30
0.0
 10
13.85926262296647
 20
52.47560662950924
 30
0.0
 10
11.39652154395148
 20
55.81742439911838
 30
0.0
 10
6.09634690043502
 20
59.0337422324422
 30
0.0
 10
2.03176217348726
 20
59.770177542977
 30
0.0
 10
0.0
 20
59.7536637466678
 30
0.0
  0
SPLINE
  5
AF
330
1F
100
AcDbEntity
  8
Default
100
AcDbSpline
210
0.0
220
0.0
230
1.0
 70
     8
 71
     3
 72
    10
 73
     6
 74
     0
 42
0.0000000001
 43
0.0000000001
 40
0.0
 40
0.0
 40
0.0
 40
0.0
 40
1.0
 40
2.0
 40
3.0
 40
3.0
 40
3.0
 40
3.0
 10
0.0
 20
59.7536637466678
 30
0.0
 10
-2.03176217348726
 20
59.770177542977
 30
0.0
 10
-6.09634690043502
 20
59.0337422324422
 30
0.0
 10
-11.39652154395148
 20
55.81742439911838
 30
0.0
 10
-13.85926262296647
 20
52.47560662950924
 30
0.0
 10
-14.63765375600224
 20
50.59526444516137
 30
0.0
  0
SPLINE
  5
B0
330
1F
100
AcDbEntity
  8
Default
100
AcDbSpline
210
0.0
220
0.0
230
1.0
 70
     8
 71
     3
 72
    10
 73
     6
 74
     0
 42
0.0000000001
 43
0.0000000001
 40
-3.0
 40
-3.0
 40
-3.0
 40
-3.0
 40
-2.0
 40
-1.0
 40
0.0
 40
0.0
 40
0.0
 40
0.0
 10
-14.63765375600224
 20
50.59526444516137
 30
0.0
 10
-14.83152556871934
 20
50.1248683531843
 30
0.0
 10
-15.14735189040227
 20
49.15567027482521
 30
0.0
 10
-15.34885163602357
 20
47.62992092993711
 30
0.0
 10
-15.13653364910567
 20
46.61499699894086
 30
0.0
 10
-14.91142398297175
 20
46.15704185579739
 30
0.0
  0
SPLINE
  5
B1
330
1F
100
AcDbEntity
  8
Default
100
AcDbSpline
210
0.0
220
0.0
230
1.0
 70
     8
 71
     3
 72
    24
 73
    20
 74
     0
 42
0.0000000001
 43
0.0000000001
 40
0.0
 40
0.0
 40
0.0
 40
0.0
 40
1.0
 40
2.0
 40
3.0
 40
4.0
 40
5.0
 40
6.0
 40
7.0
 40
8.0
 40
9.0
 40
10.0
 40
11.0
 40
12.0
 40
13.0
 40
14.0
 40
15.0
 40
16.0
 40
17.0
 40
17.0
 40
17.0
 40
17.0
 10
-14.91142609330182
 20
46.15704185579739
 30
0.0
 10
-14.74399810938194
 20
45.80965185501827
 30
0.0
 10
-14.35051563932085
 20
45.14569305262517
 30
0.0
 10
-13.69034307816711
 20
44.19569107231271
 30
0.0
 10
-12.96930648643374
 20
43.29147165640399
 30
0.0
 10
-12.24150778789706
 20
42.39311845338584
 30
0.0
 10
-11.50720488967926
 20
41.49988342418104
 30
0.0
 10
-10.74678377398699
 20
40.62868536888033
 30
0.0
 10
-9.956927171044391
 20
39.78398643946608
 30
0.0
 10
-9.14128102807842
 20
38.96453868472543
 30
0.0
 10
-8.335182600072985
 20
38.13502891551065
 30
0.0
 10
-7.465346066476957
 20
37.37162524770766
 30
0.0
 10
-6.5343198116872
 20
36.68433185678581
 30
0.0
 10
-5.546012979399074
 20
36.08186688386309
 30
0.0
 10
-4.506397871112153
 20
35.57290896420858
 30
0.0
 10
-3.421682739898073
 20
35.16819772818501
 30
0.0
 10
-2.300938724359317
 20
34.87772807899277
 30
0.0
 10
-1.156285124999239
 20
34.70402090294854
 30
0.0
 10
-0.3854179865822991
 20
34.6659439300374
 30
0.0
 10
-0.0000010551650309
 20
34.66658553131379
 30
0.0
  0
SPLINE
  5
B2
330
1F
100
AcDbEntity
  8
Default
100
AcDbSpline
210
0.0
220
0.0
230
1.0
 70
     8
 71
     3
 72
    24
 73
    20
 74
     0
 42
0.0000000001
 43
0.0000000001
 40
-17.0
 40
-17.0
 40
-17.0
 40
-17.0
 40
-16.0
 40
-15.0
 40
-14.0
 40
-13.0
 40
-12.0
 40
-11.0
 40
-10.0
 40
-9.0
 40
-8.0
 40
-7.0
 40
-6.0
 40
-5.0
 40
-4.0
 40
-3.0
 40
-2.0
 40
-1.0
 40
0.0
 40
0.0
 40
0.0
 40
0.0
 10
-0.0000010551650309
 20
34.66658553131379
 30
0.0
 10
0.3854158762522373
 20
34.6659439300374
 30
0.0
 10
1.156283014669178
 20
34.70402090294854
 30
0.0
 10
2.300936614029256
 20
34.87772807899277
 30
0.0
 10
3.421680629568011
 20
35.16819772818501
 30
0.0
 10
4.506395760782091
 20
35.57290896420858
 30
0.0
 10
5.546010869069012
 20
36.08186688386309
 30
0.0
 10
6.534317701357138
 20
36.68433185678581
 30
0.0
 10
7.465343956146895
 20
37.37162524770766
 30
0.0
 10
8.335180489742923
 20
38.13502891551065
 30
0.0
 10
9.141278917748359
 20
38.96453868472543
 30
0.0
 10
9.95692506071433
 20
39.78398643946608
 30
0.0
 10
10.74678166365693
 20
40.62868536888033
 30
0.0
 10
11.5072027793492
 20
41.49988342418104
 30
0.0
 10
12.241505677567
 20
42.39311845338584
 30
0.0
 10
12.96930437610368
 20
43.29147165640399
 30
0.0
 10
13.69034096783705
 20
44.19569107231271
 30
0.0
 10
14.35051352899079
 20
45.14569305262517
 30
0.0
 10
14.74399599905187
 20
45.80965185501827
 30
0.0
 10
14.91142398297175
 20
46.15704185579739
 30
0.0
  0
SPLINE
  5
B3
330
1F
100
AcDbEntity
  8
Default
100
AcDbSpline
210
0.0
220
0.0
230
1.0
 70
     8
 71
     3
 72
    12
 73
     8
 74
     0
 42
0.0000000001
 43
0.0000000001
 40
-15.35241690788854
 40
-15.35241690788854
 40
-15.35241690788854
 40
-15.35241690788854
 40
-11.42846741267097
 40
-7.624448814229928
 40
-3.868777023834104
 40
-1.918304340297428
 40
0.0
 40
0.0
 40
0.0
 40
0.0
 10
9.624986009364651
 20
44.62335195521786
 30
0.0
 10
9.625007102909457
 20
45.93073497926472
 30
0.0
 10
9.159540520735131
 20
48.51254101333287
 30
0.0
 10
7.055060777500138
 20
51.80223613036949
 30
0.0
 10
4.375152947680732
 20
53.61694249193569
 30
0.0
 10
1.929224691108591
 20
54.35102741728267
 30
0.0
 10
0.6393727416778614
 20
54.47583771608712
 30
0.0
 10
0.0
 20
54.47530709519179
 30
0.0
  0
SPLINE
  5
B4
330
1F
100
AcDbEntity
  8
Default
100
AcDbSpline
210
0.0
220
0.0
230
1.0
 70
     8
 71
     3
 72
    12
 73
     8
 74
     0
 42
0.0000000001
 43
0.0000000001
 40
0.0
 40
0.0
 40
0.0
 40
0.0
 40
1.918304340297428
 40
3.868777023834104
 40
7.624448814229928
 40
11.42846741267097
 40
15.35241690788854
 40
15.35241690788854
 40
15.35241690788854
 40
15.35241690788854
 10
0.0
 20
54.47530709519179
 30
0.0
 10
-0.6393727416778614
 20
54.47583771608712
 30
0.0
 10
-1.929224691108591
 20
54.35102741728267
 30
0.0
 10
-4.375152947680732
 20
53.61694249193569
 30
0.0
 10
-7.055060777500138
 20
51.80223613036949
 30
0.0
 10
-9.159540520735131
 20
48.51254101333287
 30
0.0
 10
-9.625007102909457
 20
45.93073497926472
 30
0.0
 10
-9.624986009364651
 20
44.62335195521786
 30
0.0
  0
SPLINE
  5
B5
330
1F
100
AcDbEntity
  8
Default
100
AcDbSpline
210
0.0
220
0.0
230
1.0
 70
     8
 71
     3
 72
    12
 73
     8
 74
     0
 42
0.0000000001
 43
0.0000000001
 40
-14.89017237659325
 40
-14.89017237659325
 40
-14.89017237659325
 40
-14.89017237659325
 40
-11.21816892444778
 40
-7.516681648226319
 40
-3.774518777477097
 40
-1.88935418416962
 40
0.0
 40
0.0
 40
0.0
 40
0.0
 10
-9.624986009364651
 20
44.62335195521786
 30
0.0
 10
-9.625314070356197
 20
43.39918566133865
 30
0.0
 10
-9.118161075232706
 20
40.94199021797767
 30
0.0
 10
-6.966155209098439
 20
37.83516758817424
 30
0.0
 10
-4.303046771600094
 20
36.11829362062726
 30
0.0
 10
-1.887980244613613
 20
35.41059338189707
 30
0.0
 10
-0.6297323882776974
 20
35.28957992564159
 30
0.0
 10
0.0
 20
35.28951209049444
 30
0.0
  0
SPLINE
  5
B6
330
1F
100
AcDbEntity
  8
Default
100
AcDbSpline
210
0.0
220
0.0
230
1.0
 70
     8
 71
     3
 72
    12
 73
     8
 74
     0
 42
0.0000000001
 43
0.0000000001
 40
0.0
 40
0.0
 40
0.0
 40
0.0
 40
1.88935418416962
 40
3.774518777477097
 40
7.516681648226319
 40
11.21816892444778
 40
14.89017237659325
 40
14.89017237659325
 40
14.89017237659325
 40
14.89017237659325
 10
0.0
 20
35.28951209049444
 30
0.0
 10
0.6297323882776974
 20
35.28957992564159
 30
0.0
 10
1.887980244613613
 20
35.41059338189707
 30
0.0
 10
4.303046771600094
 20
36.11829362062726
 30
0.0
 10
6.966155209098439
 20
37.83516758817424
 30
0.0
 10
9.118161075232706
 20
40.94199021797767
 30
0.0
 10
9.625314070356197
 20
43.39918566133865
 30
0.0
 10
9.624986009364651
 20
44.62335195521786
 30
0.0
  0
POLYLINE
  5
B7
330
1F
100
AcDbEntity
  8
Make2D visible lines
100
AcDb2dPolyline
 66
     1
 10
0.0
 20
0.0
 30
0.0
  0
VERTEX
  5
B8
330
B7
100
AcDbEntity
  8
Make2D visible lines
100
AcDbVertex
100
AcDb2dVertex
 10
-9.024260637222815
 20
38.81356030564149
 30
0.0
  0
VERTEX
  5
B9
330
B7
100
AcDbEntity
  8
Make2D visible lines
100
AcDbVertex
100
AcDb2dVertex
 10
-9.167266071652886
 20
38.57078525185564
 30
0.0
  0
SEQEND
  5
BA
330
B7
100
AcDbEntity
  8
Make2D visible lines
  0
SPLINE
  5
BB
330
1F
100
AcDbEntity
  8
Make2D visible lines
100
AcDbSpline
210
0.0
220
0.0
230
1.0
 70
    12
 71
     2
 72
     8
 73
     5
 74
     0
 42
0.0000000001
 43
0.0000000001
 40
0.0
 40
0.0
 40
0.0
 40
0.0657021758075414
 40
0.0657021758075414
 40
0.5513779496561004
 40
0.5513779496561004
 40
0.5513779496561004
 10
-9.167266071652886
 20
38.57078525185564
 30
0.0
 41
1.0
 10
-9.184011046407068
 20
38.54234800491141
 30
0.0
 41
0.9938146782922428
 10
-9.194061912369504
 20
38.5109291188456
 30
0.0
 41
1.0
 10
-9.283099963474898
 20
38.21686560971509
 30
0.0
 41
0.713273625154114
 10
-8.990641397334992
 20
38.12268966247701
 30
0.0
 41
1.0
  0
SPLINE
  5
BC
330
1F
100
AcDbEntity
  8
Make2D visible lines
100
AcDbSpline
210
0.0
220
0.0
230
1.0
 70
    12
 71
     2
 72
     6
 73
     3
 74
     0
 42
0.0000000001
 43
0.0000000001
 40
0.0
 40
0.0
 40
0.0
 40
0.4162774601092228
 40
0.4162774601092228
 40
0.4162774601092228
 10
-8.990641397334992
 20
38.12268966247701
 30
0.0
 41
1.0
 10
-8.75667275563418
 20
38.04160445421326
 30
0.0
 41
0.7771276355120614
 10
-8.62872697814024
 20
38.25360920491467
 30
0.0
 41
0.9999999774845856
  0
POLYLINE
  5
BD
330
1F
100
AcDbEntity
  8
Make2D visible lines
100
AcDb2dPolyline
 66
     1
 10
0.0
 20
0.0
 30
0.0
  0
VERTEX
  5
BE
330
BD
100
AcDbEntity
  8
Make2D visible lines
100
AcDbVertex
100
AcDb2dVertex
 10
-8.62872697814024
 20
38.25360920491468
 30
0.0
  0
VERTEX
  5
BF
330
BD
100
AcDbEntity
  8
Make2D visible lines
100
AcDbVertex
100
AcDb2dVertex
 10
-8.562393458420134
 20
38.36622117125111
 30
0.0
  0
SEQEND
  5
C0
330
BD
100
AcDbEntity
  8
Make2D visible lines
  0
POLYLINE
  5
C1
330
1F
100
AcDbEntity
  8
Make2D visible lines
100
AcDb2dPolyline
 66
     1
 10
0.0
 20
0.0
 30
0.0
  0
VERTEX
  5
C2
330
C1
100
AcDbEntity
  8
Make2D visible lines
100
AcDbVertex
100
AcDb2dVertex
 10
9.024260637222813
 20
38.81356030564149
 30
0.0
  0
VERTEX
  5
C3
330
C1
100
AcDbEntity
  8
Make2D visible lines
100
AcDbVertex
100
AcDb2dVertex
 10
9.167266071652886
 20
38.57078525185564
 30
0.0
  0
SEQEND
  5
C4
330
C1
100
AcDbEntity
  8
Make2D visible lines
  0
SPLINE
  5
C5
330
1F
100
AcDbEntity
  8
Make2D visible lines
100
AcDbSpline
210
0.0
220
0.0
230
1.0
 70
    12
 71
     2
 72
     8
 73
     5
 74
     0
 42
0.0000000001
 43
0.0000000001
 40
0.0
 40
0.0
 40
0.0
 40
0.0657021758075414
 40
0.0657021758075414
 40
0.5513779496561004
 40
0.5513779496561004
 40
0.5513779496561004
 10
9.167266071652886
 20
38.57078525185564
 30
0.0
 41
1.0
 10
9.184011046407068
 20
38.54234800491141
 30
0.0
 41
0.9938146782922428
 10
9.194061912369504
 20
38.5109291188456
 30
0.0
 41
1.0
 10
9.283099963474898
 20
38.21686560971509
 30
0.0
 41
0.713273625154114
 10
8.990641397334992
 20
38.12268966247701
 30
0.0
 41
1.0
  0
SPLINE
  5
C6
330
1F
100
AcDbEntity
  8
Make2D visible lines
100
AcDbSpline
210
0.0
220
0.0
230
1.0
 70
    12
 71
     2
 72
     6
 73
     3
 74
     0
 42
0.0000000001
 43
0.0000000001
 40
0.0
 40
0.0
 40
0.0
 40
0.4162774601092228
 40
0.4162774601092228
 40
0.4162774601092228
 10
8.990641397334992
 20
38.12268966247701
 30
0.0
 41
1.0
 10
8.75667275563418
 20
38.04160445421326
 30
0.0
 41
0.7771276355120614
 10
8.62872697814024
 20
38.25360920491467
 30
0.0
 41
0.9999999774845856
  0
POLYLINE
  5
C7
330
1F
100
AcDbEntity
  8
Make2D visible lines
100
AcDb2dPolyline
 66
     1
 10
0.0
 20
0.0
 30
0.0
  0
VERTEX
  5
C8
330
C7
100
AcDbEntity
  8
Make2D visible lines
100
AcDbVertex
100
AcDb2dVertex
 10
8.62872697814024
 20
38.25360920491468
 30
0.0
  0
VERTEX
  5
C9
330
C7
100
AcDbEntity
  8
Make2D visible lines
100
AcDbVertex
100
AcDb2dVertex
 10
8.562393458420134
 20
38.36622117125111
 30
0.0
  0
SEQEND
  5
CA
330
C7
100
AcDbEntity
  8
Make2D visible lines
  0
SPLINE
  5
CB
330
1F
100
AcDbEntity
  8
Make2D visible lines
100
AcDbSpline
210
0.0
220
0.0
230
1.0
 70
    24
 71
     2
 72
     6
 73
     3
 74
     0
 42
0.0000000001
 43
0.0000000001
 40
3.997083449540205
 40
3.997083449540205
 40
3.997083449540205
 40
4.523710136401242
 40
4.523710136401242
 40
4.523710136401242
 10
-8.120001883909328
 20
58.14668823491039
 30
0.0
 10
-8.251658555624612
 20
58.37472427947662
 30
0.0
 10
-8.383315227339896
 20
58.60276032404285
 30
0.0
  0
SPLINE
  5
CC
330
1F
100
AcDbEntity
  8
Make2D visible lines
100
AcDbSpline
210
0.0
220
0.0
230
1.0
 70
    12
 71
     2
 72
     8
 73
     5
 74
     0
 42
0.0000000001
 43
0.0000000001
 40
0.0
 40
0.0
 40
0.0
 40
0.4730574302815958
 40
0.4730574302815958
 40
0.9455180233888372
 40
0.9455180233888372
 40
0.9455180233888372
 10
-8.383315227339896
 20
58.60276032404285
 30
0.0
 41
1.0
 10
-8.547614644315502
 20
58.85438579368904
 30
0.0
 41
0.7091869777201398
 10
-8.800203853567828
 20
58.69157189144947
 30
0.0
 41
1.0
 10
-9.06440268401518
 20
58.54783272673688
 30
0.0
 41
0.7071352214376396
 10
-8.920696751456523
 20
58.28361541840287
 30
0.0
 41
1.0
  0
SPLINE
  5
CD
330
1F
100
AcDbEntity
  8
Make2D visible lines
100
AcDbSpline
210
0.0
220
0.0
230
1.0
 70
    24
 71
     2
 72
     6
 73
     3
 74
     0
 42
0.0000000001
 43
0.0000000001
 40
-4.466989253625452
 40
-4.466989253625452
 40
-4.466989253625452
 40
-3.954134239084437
 40
-3.954134239084437
 40
-3.954134239084437
 10
-8.920696751456523
 20
58.28361541840287
 30
0.0
 10
-8.792483685464111
 20
58.06154228586671
 30
0.0
 10
-8.664270619471699
 20
57.83946915333056
 30
0.0
  0
SPLINE
  5
CE
330
1F
100
AcDbEntity
  8
Make2D visible lines
100
AcDbSpline
210
0.0
220
0.0
230
1.0
 70
    24
 71
     2
 72
     6
 73
     3
 74
     0
 42
0.0000000001
 43
0.0000000001
 40
3.997083449540205
 40
3.997083449540205
 40
3.997083449540205
 40
4.523710136401242
 40
4.523710136401242
 40
4.523710136401242
 10
8.120001883909328
 20
58.14668823491039
 30
0.0
 10
8.251658555624612
 20
58.37472427947662
 30
0.0
 10
8.383315227339896
 20
58.60276032404285
 30
0.0
  0
SPLINE
  5
CF
330
1F
100
AcDbEntity
  8
Make2D visible lines
100
AcDbSpline
210
0.0
220
0.0
230
1.0
 70
    12
 71
     2
 72
     8
 73
     5
 74
     0
 42
0.0000000001
 43
0.0000000001
 40
0.0
 40
0.0
 40
0.0
 40
0.4730574302815958
 40
0.4730574302815958
 40
0.9455180233888372
 40
0.9455180233888372
 40
0.9455180233888372
 10
8.383315227339896
 20
58.60276032404285
 30
0.0
 41
1.0
 10
8.547614644315502
 20
58.85438579368904
 30
0.0
 41
0.7091869777201398
 10
8.800203853567828
 20
58.69157189144947
 30
0.0
 41
1.0
 10
9.06440268401518
 20
58.54783272673688
 30
0.0
 41
0.7071352214376396
 10
8.920696751456523
 20
58.28361541840287
 30
0.0
 41
1.0
  0
SPLINE
  5
D0
330
1F
100
AcDbEntity
  8
Make2D visible lines
100
AcDbSpline
210
0.0
220
0.0
230
1.0
 70
    24
 71
     2
 72
     6
 73
     3
 74
     0
 42
0.0000000001
 43
0.0000000001
 40
-4.466989253625452
 40
-4.466989253625452
 40
-4.466989253625452
 40
-3.954134239084437
 40
-3.954134239084437
 40
-3.954134239084437
 10
8.920696751456523
 20
58.28361541840287
 30
0.0
 10
8.792483685464111
 20
58.06154228586671
 30
0.0
 10
8.664270619471699
 20
57.83946915333056
 30
0.0
  0
SPLINE
  5
D1
330
1F
100
AcDbEntity
  8
Default
100
AcDbSpline
210
0.0
220
0.0
230
1.0
 70
     8
 71
     3
 72
     8
 73
     4
 74
     0
 42
0.0000000001
 43
0.0000000001
 40
9.347329368948238
 40
9.347329368948238
 40
9.347329368948238
 40
9.347329368948238
 40
13.0444822786923
 40
13.0444822786923
 40
13.0444822786923
 40
13.0444822786923
 10
38.36081819995393
 20
11.53407715577323
 30
0.0
 10
37.14205100128257
 20
11.35168619077478
 30
0.0
 10
35.91330032983512
 20
11.23611062261852
 30
0.0
 10
34.6829176181479
 20
11.17117170338897
 30
0.0
  0
SPLINE
  5
D2
330
1F
100
AcDbEntity
  8
Default
100
AcDbSpline
210
0.0
220
0.0
230
1.0
 70
     8
 71
     3
 72
    12
 73
     8
 74
     0
 42
0.0000000001
 43
0.0000000001
 40
0.0
 40
0.0
 40
0.0
 40
0.0
 40
1.0
 40
2.0
 40
3.0
 40
4.0
 40
4.710923272047442
 40
4.710923272047442
 40
4.710923272047442
 40
4.710923272047442
 10
34.6829176181479
 20
11.17117170338897
 30
0.0
 10
34.46422138036716
 20
11.15936397583575
 30
0.0
 10
34.02670559470753
 20
11.13806445872277
 30
0.0
 10
33.37020859178352
 20
11.11122361937182
 30
0.0
 10
32.71347966751404
 20
11.09019715026762
 30
0.0
 10
32.11985470869985
 20
11.07976229231562
 30
0.0
 10
31.74507420956115
 20
11.07812748429323
 30
0.0
 10
31.58938111296049
 20
11.07896998198549
 30
0.0
  0
SPLINE
  5
D3
330
1F
100
AcDbEntity
  8
Default
100
AcDbSpline
210
0.0
220
0.0
230
1.0
 70
     8
 71
     3
 72
     8
 73
     4
 74
     0
 42
0.0000000001
 43
0.0000000001
 40
11.58059033398525
 40
11.58059033398525
 40
11.58059033398525
 40
11.58059033398525
 40
12.0
 40
12.0
 40
12.0
 40
12.0
 10
27.35641043894626
 20
12.34866430722151
 30
0.0
 10
27.28339731709892
 20
12.40440356149278
 30
0.0
 10
27.21160861914449
 20
12.46174661544761
 30
0.0
 10
27.14111572439154
 20
12.52063903474404
 30
0.0
  0
SPLINE
  5
D4
330
1F
100
AcDbEntity
  8
Default
100
AcDbSpline
210
0.0
220
0.0
230
1.0
 70
     8
 71
     3
 72
    14
 73
    10
 74
     0
 42
0.0000000001
 43
0.0000000001
 40
-16.37408178933761
 40
-16.37408178933761
 40
-16.37408178933761
 40
-16.37408178933761
 40
-14.95710752747041
 40
-13.59285564749454
 40
-11.67916133593988
 40
-9.20366561872866
 40
-4.5321021812345
 40
-1.64651626198485
 40
0.0
 40
0.0
 40
0.0
 40
0.0
 10
27.14111572439154
 20
12.52063903474404
 30
0.0
 10
26.78056595067649
 20
12.82407775959731
 30
0.0
 10
26.11936194600445
 20
13.4834923639525
 30
0.0
 10
25.24319886586348
 20
14.78356934292135
 30
0.0
 10
24.31640671848617
 20
16.46368131393322
 30
0.0
 10
23.08020275135234
 20
19.22397062894313
 30
0.0
 10
22.09984204432088
 20
22.42897001987767
 30
0.0
 10
21.447497163352
 20
25.42698424735874
 30
0.0
 10
21.20751632452488
 20
26.9197615371677
 30
0.0
 10
21.18486249138963
 20
27.46937512514906
 30
0.0
  0
SPLINE
  5
D5
330
1F
100
AcDbEntity
  8
Default
100
AcDbSpline
210
0.0
220
0.0
230
1.0
 70
     8
 71
     3
 72
     8
 73
     4
 74
     0
 42
0.0000000001
 43
0.0000000001
 40
0.0
 40
0.0
 40
0.0
 40
0.0
 40
1.0
 40
1.0
 40
1.0
 40
1.0
 10
21.18486249138963
 20
27.46937512514906
 30
0.0
 10
21.17490313050067
 20
27.71100311099602
 30
0.0
 10
21.35715044453434
 20
27.99674980872275
 30
0.0
 10
21.71494087360884
 20
27.93846999560537
 30
0.0
  0
SPLINE
  5
D6
330
1F
100
AcDbEntity
  8
Default
100
AcDbSpline
210
0.0
220
0.0
230
1.0
 70
    12
 71
     3
 72
    22
 73
    18
 74
     0
 42
0.0000000001
 43
0.0000000001
 40
0.0
 40
0.0
 40
0.0
 40
0.0
 40
0.5733453317215156
 40
4.879117115964801
 40
9.234147877084636
 40
9.234147877084636
 40
9.234147877084636
 40
14.59274354194941
 40
14.59274354194941
 40
14.59274354194941
 40
15.59274354194941
 40
16.59274354194941
 40
17.59274354194941
 40
18.59274354194941
 40
19.59274354194941
 40
20.59274354194941
 40
21.59274354194941
 40
21.59274354194941
 40
21.59274354194941
 40
21.59274354194941
 10
21.71494087360884
 20
27.93846999560537
 30
0.0
 41
1.0
 10
21.89913445900603
 20
27.9084670473372
 30
0.0
 41
1.0
 10
23.49866994493472
 20
27.70411922365645
 30
0.0
 41
1.0
 10
26.50384365985517
 20
27.31635856270033
 30
0.0
 41
1.0
 10
29.36902946298695
 20
26.9624353007648
 30
0.0
 41
1.0
 10
30.81122700233569
 20
26.79670474137914
 30
0.0
 41
1.0
 10
32.64142501577221
 20
26.57887461751552
 30
0.0
 41
0.9397413184370592
 10
34.21569524925543
 20
25.6203622919521
 30
0.0
 41
0.9397413184370592
 10
35.24944735670484
 20
24.09444383168973
 30
0.0
 41
1.0
 10
35.51466679812784
 20
23.69915234921963
 30
0.0
 41
1.0
 10
36.04737040497142
 20
22.91009152729289
 30
0.0
 41
1.0
 10
36.85312785555048
 20
21.73105049185968
 30
0.0
 41
1.0
 10
37.66572115217618
 20
20.55671740171261
 30
0.0
 41
1.0
 10
38.48401007614863
 20
19.3863279863337
 30
0.0
 41
1.0
 10
39.33801050521149
 20
18.24135657357596
 30
0.0
 41
1.0
 10
40.25189294896797
 20
17.14322935191835
 30
0.0
 41
1.0
 10
40.90747779348629
 20
16.45183635285796
 30
0.0
 41
1.0
 10
41.25517777455541
 20
16.12654364508845
 30
0.0
 41
1.0
  0
SPLINE
  5
D7
330
1F
100
AcDbEntity
  8
Default
100
AcDbSpline
210
0.0
220
0.0
230
1.0
 70
     8
 71
     3
 72
     9
 73
     5
 74
     0
 42
0.0000000001
 43
0.0000000001
 40
0.0
 40
0.0
 40
0.0
 40
0.0
 40
1.0
 40
2.0
 40
2.0
 40
2.0
 40
2.0
 10
41.25517777455541
 20
16.12654364508845
 30
0.0
 10
41.64962240559588
 20
15.74897747424742
 30
0.0
 10
42.54400236304786
 20
15.08817250505295
 30
0.0
 10
43.62539694502212
 20
14.81044367645146
 30
0.0
 10
44.17249544415804
 20
14.78931150716924
 30
0.0
  0
SPLINE
  5
D8
330
1F
100
AcDbEntity
  8
Default
100
AcDbSpline
210
0.0
220
0.0
230
1.0
 70
     8
 71
     3
 72
     8
 73
     4
 74
     0
 42
0.0000000001
 43
0.0000000001
 40
0.0
 40
0.0
 40
0.0
 40
0.0
 40
1.0
 40
1.0
 40
1.0
 40
1.0
 10
44.17249544415804
 20
14.78931150716924
 30
0.0
 10
45.02850412878023
 20
14.75473037456067
 30
0.0
 10
45.88437317400037
 20
14.86247315044452
 30
0.0
 10
46.7399059930144
 20
14.9073097255928
 30
0.0
  0
SPLINE
  5
D9
330
1F
100
AcDbEntity
  8
Default
100
AcDbSpline
210
0.0
220
0.0
230
1.0
 70
     8
 71
     3
 72
    13
 73
     9
 74
     0
 42
0.0000000001
 43
0.0000000001
 40
0.0
 40
0.0
 40
0.0
 40
0.0
 40
0.286105356394717
 40
0.6323793272272145
 40
1.570242750951684
 40
2.93508711673459
 40
4.89069209457038
 40
7.319479570939107
 40
7.319479570939107
 40
7.319479570939107
 40
7.319479570939107
 10
46.7399059930144
 20
14.9073097255928
 30
0.0
 10
46.74390530789336
 20
14.81288440531386
 30
0.0
 10
46.70565681498132
 20
14.59858569905919
 30
0.0
 10
46.39953095376607
 20
14.16464452599085
 30
0.0
 10
45.66792562807124
 20
13.65294965674466
 30
0.0
 10
44.37313757846443
 20
13.07055178108115
 30
0.0
 10
42.56259972122457
 20
12.4347633051564
 30
0.0
 10
41.14689768079941
 20
12.06794857376885
 30
0.0
 10
40.35557657799147
 20
11.8970212962435
 30
0.0
  0
SPLINE
  5
DA
330
1F
100
AcDbEntity
  8
Default
100
AcDbSpline
210
0.0
220
0.0
230
1.0
 70
     8
 71
     3
 72
    10
 73
     6
 74
     0
 42
0.0000000001
 43
0.0000000001
 40
0.0
 40
0.0
 40
0.0
 40
0.0
 40
1.0
 40
2.0
 40
3.0
 40
3.0
 40
3.0
 40
3.0
 10
-14.63916897310133
 20
26.80205684127803
 30
0.0
 10
-14.99214924856702
 20
26.72925911627743
 30
0.0
 10
-15.59533036381109
 20
26.22638544853902
 30
0.0
 10
-15.68032349394995
 20
25.1054161138694
 30
0.0
 10
-15.50249817489478
 20
24.41585662632993
 30
0.0
 10
-15.40237779650903
 20
24.07195747938648
 30
0.0
  0
SPLINE
  5
DB
330
1F
100
AcDbEntity
  8
Default
100
AcDbSpline
210
0.0
220
0.0
230
1.0
 70
     8
 71
     3
 72
    14
 73
    10
 74
     0
 42
0.0000000001
 43
0.0000000001
 40
0.0
 40
0.0
 40
0.0
 40
0.0
 40
1.0
 40
2.0
 40
3.0
 40
4.0
 40
5.0
 40
6.0
 40
7.0
 40
7.0
 40
7.0
 40
7.0
 10
-15.40237779650903
 20
24.07195747938648
 30
0.0
 10
-15.21146690011158
 20
23.41620591839724
 30
0.0
 10
-14.70292527573749
 20
21.75736214140106
 30
0.0
 10
-13.9973091515473
 20
19.83259615838429
 30
0.0
 10
-13.17125694606299
 20
17.95642986824962
 30
0.0
 10
-12.21874317323631
 20
16.14043004941395
 30
0.0
 10
-11.09166182824705
 20
14.42468531750237
 30
0.0
 10
-9.663171306721122
 20
12.93288807603703
 30
0.0
 10
-8.451871737747728
 20
12.26391817074434
 30
0.0
 10
-7.809836138928095
 20
12.03134248011907
 30
0.0
  0
SPLINE
  5
DC
330
1F
100
AcDbEntity
  8
Default
100
AcDbSpline
210
0.0
220
0.0
230
1.0
 70
     8
 71
     3
 72
     8
 73
     4
 74
     0
 42
0.0000000001
 43
0.0000000001
 40
0.0
 40
0.0
 40
0.0
 40
0.0
 40
0.1836749685964119
 40
0.1836749685964119
 40
0.1836749685964119
 40
0.1836749685964119
 10
-7.809836138928095
 20
12.03134248011907
 30
0.0
 10
-7.679470507556205
 20
11.98511827273397
 30
0.0
 10
-7.548174175248705
 20
11.94198395711495
 30
0.0
 10
-7.416086721384279
 20
11.90159994787299
 30
0.0
  0
SPLINE
  5
DD
330
1F
100
AcDbEntity
  8
Default
100
AcDbSpline
210
0.0
220
0.0
230
1.0
 70
     8
 71
     3
 72
     8
 73
     4
 74
     0
 42
0.0000000001
 43
0.0000000001
 40
6.816325125966298
 40
6.816325125966298
 40
6.816325125966298
 40
6.816325125966298
 40
7.0
 40
7.0
 40
7.0
 40
7.0
 10
7.416086713236788
 20
11.90159995446027
 30
0.0
 10
7.548174141657666
 20
11.94198395726954
 30
0.0
 10
7.679470473981485
 20
11.985118270209
 30
0.0
 10
7.809836138928095
 20
12.03134248011907
 30
0.0
  0
SPLINE
  5
DE
330
1F
100
AcDbEntity
  8
Default
100
AcDbSpline
210
0.0
220
0.0
230
1.0
 70
     8
 71
     3
 72
    14
 73
    10
 74
     0
 42
0.0000000001
 43
0.0000000001
 40
-7.0
 40
-7.0
 40
-7.0
 40
-7.0
 40
-6.0
 40
-5.0
 40
-4.0
 40
-3.0
 40
-2.0
 40
-1.0
 40
0.0
 40
0.0
 40
0.0
 40
0.0
 10
7.809836138928095
 20
12.03134248011907
 30
0.0
 10
8.451871737747728
 20
12.26391817074434
 30
0.0
 10
9.663171306721122
 20
12.93288807603703
 30
0.0
 10
11.09166182824705
 20
14.42468531750237
 30
0.0
 10
12.21874317323631
 20
16.14043004941395
 30
0.0
 10
13.17125694606299
 20
17.95642986824962
 30
0.0
 10
13.9973091515473
 20
19.83259615838429
 30
0.0
 10
14.70292527573749
 20
21.75736214140106
 30
0.0
 10
15.21146690011158
 20
23.41620591839724
 30
0.0
 10
15.40237779650903
 20
24.07195747938648
 30
0.0
  0
SPLINE
  5
DF
330
1F
100
AcDbEntity
  8
Default
100
AcDbSpline
210
0.0
220
0.0
230
1.0
 70
     8
 71
     3
 72
    10
 73
     6
 74
     0
 42
0.0000000001
 43
0.0000000001
 40
-3.0
 40
-3.0
 40
-3.0
 40
-3.0
 40
-2.0
 40
-1.0
 40
0.0
 40
0.0
 40
0.0
 40
0.0
 10
15.40237779650903
 20
24.07195747938648
 30
0.0
 10
15.50249817489478
 20
24.41585662632993
 30
0.0
 10
15.68032349394995
 20
25.1054161138694
 30
0.0
 10
15.59533036381109
 20
26.22638544853902
 30
0.0
 10
14.99214924856702
 20
26.72925911627743
 30
0.0
 10
14.63916897310133
 20
26.80205684127803
 30
0.0
  0
ENDSEC
  0
SECTION
  2
OBJECTS
  0
DICTIONARY
  5
C
330
0
100
AcDbDictionary
281
     1
  3
ACAD_GROUP
350
D
  3
ACAD_LAYOUT
350
1A
  3
ACAD_MLEADERSTYLE
350
E1
  3
ACAD_MLINESTYLE
350
17
  3
ACAD_PLOTSETTINGS
350
19
  3
ACAD_PLOTSTYLENAME
350
E
  3
ACAD_TABLESTYLE
350
E0
  3
ACAD_VISUALSTYLE
350
2A
  0
DICTIONARY
  5
D
102
{ACAD_REACTORS
330
C
102
}
330
C
100
AcDbDictionary
281
     1
  0
DICTIONARY
  5
1A
102
{ACAD_REACTORS
330
C
102
}
330
C
100
AcDbDictionary
281
     1
  3
Layout1
350
1E
  3
Layout2
350
26
  3
Model
350
22
  0
DICTIONARY
  5
E1
102
{ACAD_REACTORS
330
C
102
}
330
C
100
AcDbDictionary
281
     1
  0
DICTIONARY
  5
17
102
{ACAD_REACTORS
330
C
102
}
330
C
100
AcDbDictionary
281
     1
  3
Standard
350
18
  0
DICTIONARY
  5
19
102
{ACAD_REACTORS
330
C
102
}
330
C
100
AcDbDictionary
281
     1
  0
ACDBDICTIONARYWDFLT
  5
E
102
{ACAD_REACTORS
330
C
102
}
330
C
100
AcDbDictionary
281
     1
  3
Normal
350
F
100
AcDbDictionaryWithDefault
340
F
  0
DICTIONARY
  5
E0
102
{ACAD_REACTORS
330
C
102
}
330
C
100
AcDbDictionary
281
     1
  0
DICTIONARY
  5
2A
102
{ACAD_REACTORS
330
C
102
}
330
C
100
AcDbDictionary
281
     1
  3
2dWireframe
350
2F
  3
3D Hidden
350
31
  3
3dWireframe
350
30
  3
Basic
350
32
  3
Brighten
350
36
  3
ColorChange
350
3A
  3
Conceptual
350
34
  3
Dim
350
35
  3
Facepattern
350
39
  3
Flat
350
2B
  3
FlatWithEdges
350
2C
  3
Gouraud
350
2D
  3
GouraudWithEdges
350
2E
  3
Linepattern
350
38
  3
Realistic
350
33
  3
Thicken
350
37
  0
LAYOUT
  5
1E
102
{ACAD_REACTORS
330
1A
102
}
330
1A
100
AcDbPlotSettings
  1

  2
none_device
  4

  6

 40
0.0
 41
0.0
 42
0.0
 43
0.0
 44
0.0
 45
0.0
 46
0.0
 47
0.0
 48
0.0
 49
0.0
140
0.0
141
0.0
142
1.0
143
1.0
 70
   688
 72
     0
 73
     0
 74
     5
  7

 75
    16
 76
     0
 77
     2
 78
   300
147
1.0
148
0.0
149
0.0
100
AcDbLayout
  1
Layout1
 70
     1
 71
     1
 10
0.0
 20
0.0
 11
12.0
 21
9.0
 12
0.0
 22
0.0
 32
0.0
 14
1.000000000000000E+20
 24
1.000000000000000E+20
 34
1.000000000000000E+20
 15
-1.000000000000000E+20
 25
-1.000000000000000E+20
 35
-1.000000000000000E+20
146
0.0
 13
0.0
 23
0.0
 33
0.0
 16
1.0
 26
0.0
 36
0.0
 17
0.0
 27
1.0
 37
0.0
 76
     0
330
1B
  0
LAYOUT
  5
26
102
{ACAD_REACTORS
330
1A
102
}
330
1A
100
AcDbPlotSettings
  1

  2
none_device
  4

  6

 40
0.0
 41
0.0
 42
0.0
 43
0.0
 44
0.0
 45
0.0
 46
0.0
 47
0.0
 48
0.0
 49
0.0
140
0.0
141
0.0
142
1.0
143
1.0
 70
   688
 72
     0
 73
     0
 74
     5
  7

 75
    16
 76
     0
 77
     2
 78
   300
147
1.0
148
0.0
149
0.0
100
AcDbLayout
  1
Layout2
 70
     1
 71
     2
 10
0.0
 20
0.0
 11
0.0
 21
0.0
 12
0.0
 22
0.0
 32
0.0
 14
0.0
 24
0.0
 34
0.0
 15
0.0
 25
0.0
 35
0.0
146
0.0
 13
0.0
 23
0.0
 33
0.0
 16
1.0
 26
0.0
 36
0.0
 17
0.0
 27
1.0
 37
0.0
 76
     0
330
23
  0
LAYOUT
  5
22
102
{ACAD_REACTORS
330
1A
102
}
330
1A
100
AcDbPlotSettings
  1

  2
none_device
  4

  6

 40
0.0
 41
0.0
 42
0.0
 43
0.0
 44
0.0
 45
0.0
 46
0.0
 47
0.0
 48
0.0
 49
0.0
140
0.0
141
0.0
142
1.0
143
1.0
 70
  1712
 72
     0
 73
     0
 74
     0
  7

 75
     0
 76
     0
 77
     2
 78
   300
147
1.0
148
0.0
149
0.0
100
AcDbLayout
  1
Model
 70
     1
 71
     0
 10
0.0
 20
0.0
 11
12.0
 21
9.0
 12
0.0
 22
0.0
 32
0.0
 14
-15.63220927787822
 24
-0.0017796313076643
 34
0.0
 15
46.73990599301559
 25
60.22231200786416
 35
0.0
146
0.0
 13
0.0
 23
0.0
 33
0.0
 16
1.0
 26
0.0
 36
0.0
 17
0.0
 27
1.0
 37
0.0
 76
     0
330
1F
331
29
  0
MLINESTYLE
  5
18
102
{ACAD_REACTORS
330
17
102
}
330
17
100
AcDbMlineStyle
  2
Standard
 70
     0
  3

 62
   256
 51
90.0
 52
90.0
 71
     2
 49
0.5
 62
   256
  6
BYLAYER
 49
-0.5
 62
   256
  6
BYLAYER
  0
ACDBPLACEHOLDER
  5
F
102
{ACAD_REACTORS
330
E
102
}
330
E
  0
VISUALSTYLE
  5
2F
102
{ACAD_REACTORS
330
2A
102
}
330
2A
100
AcDbVisualStyle
  2
2dWireframe
 70
     4
 71
     0
 72
     2
 73
     0
 90
        0
 40
-0.6
 41
-30.0
 62
     5
 63
     7
421
 16777215
 74
     1
 91
        4
 64
     7
 65
   257
 75
     1
175
     1
 42
1.0
 92
        0
 66
   257
 43
1.0
 76
     1
 77
     6
 78
     2
 67
     7
 79
     5
170
     0
171
     0
290
     0
174
     0
 93
        1
 44
0.0
173
     0
291
     0
 45
0.0
1001
ACAD
1000
AcDbSavedByObjectVersion
1070
     0
  0
VISUALSTYLE
  5
31
102
{ACAD_REACTORS
330
2A
102
}
330
2A
100
AcDbVisualStyle
  2
3D Hidden
 70
     6
 71
     1
 72
     2
 73
     2
 90
        0
 40
-0.6
 41
-30.0
 62
     5
 63
     7
421
 16777215
 74
     2
 91
        2
 64
     7
 65
   257
 75
     2
175
     1
 42
40.0
 92
        0
 66
   257
 43
1.0
 76
     1
 77
     6
 78
     2
 67
     7
 79
     3
170
     0
171
     0
290
     0
174
     0
 93
        1
 44
0.0
173
     0
291
     0
 45
0.0
1001
ACAD
1000
AcDbSavedByObjectVersion
1070
     0
  0
VISUALSTYLE
  5
30
102
{ACAD_REACTORS
330
2A
102
}
330
2A
100
AcDbVisualStyle
  2
3dWireframe
 70
     5
 71
     0
 72
     2
 73
     0
 90
        0
 40
-0.6
 41
-30.0
 62
     5
 63
     7
421
 16777215
 74
     1
 91
        4
 64
     7
 65
   257
 75
     1
175
     1
 42
1.0
 92
        0
 66
   257
 43
1.0
 76
     1
 77
     6
 78
     2
 67
     7
 79
     5
170
     0
171
     0
290
     0
174
     0
 93
        1
 44
0.0
173
     0
291
     0
 45
0.0
1001
ACAD
1000
AcDbSavedByObjectVersion
1070
     0
  0
VISUALSTYLE
  5
32
102
{ACAD_REACTORS
330
2A
102
}
330
2A
100
AcDbVisualStyle
  2
Basic
 70
     7
 71
     1
 72
     0
 73
     1
 90
        0
 40
-0.6
 41
-30.0
 62
     5
 63
     7
421
 16777215
 74
     0
 91
        4
 64
     7
 65
   257
 75
     1
175
     1
 42
1.0
 92
        8
 66
     7
 43
1.0
 76
     1
 77
     6
 78
     2
 67
     7
 79
     5
170
     0
171
     0
290
     0
174
     0
 93
        1
 44
0.0
173
     0
291
     1
 45
0.0
1001
ACAD
1000
AcDbSavedByObjectVersion
1070
     0
  0
VISUALSTYLE
  5
36
102
{ACAD_REACTORS
330
2A
102
}
330
2A
100
AcDbVisualStyle
  2
Brighten
 70
    12
 71
     2
 72
     2
 73
     0
 90
        0
 40
-0.6
 41
-30.0
 62
     5
 63
     7
421
 16777215
 74
     1
 91
        4
 64
     7
 65
   257
 75
     1
175
     1
 42
1.0
 92
        8
 66
     7
 43
1.0
 76
     1
 77
     6
 78
     2
 67
     7
 79
     5
170
     0
171
     0
290
     0
174
     0
 93
        1
 44
50.0
173
     0
291
     1
 45
0.0
1001
ACAD
1000
AcDbSavedByObjectVersion
1070
     0
  0
VISUALSTYLE
  5
3A
102
{ACAD_REACTORS
330
2A
102
}
330
2A
100
AcDbVisualStyle
  2
ColorChange
 70
    16
 71
     2
 72
     2
 73
     3
 90
        0
 40
-0.6
 41
-30.0
 62
     5
 63
     8
421
  8421504
 74
     1
 91
        4
 64
     7
 65
   257
 75
     1
175
     1
 42
1.0
 92
        8
 66
     8
424
  8421504
 43
1.0
 76
     1
 77
     6
 78
     2
 67
     7
 79
     5
170
     0
171
     0
290
     0
174
     0
 93
        1
 44
0.0
173
     0
291
     1
 45
0.0
1001
ACAD
1000
AcDbSavedByObjectVersion
1070
     0
  0
VISUALSTYLE
  5
34
102
{ACAD_REACTORS
330
2A
102
}
330
2A
100
AcDbVisualStyle
  2
Conceptual
 70
     9
 71
     3
 72
     2
 73
     0
 90
        0
 40
-0.6
 41
-30.0
 62
     5
 63
     7
421
 16777215
 74
     2
 91
        2
 64
     7
 65
   257
 75
     1
175
     1
 42
40.0
 92
        8
 66
     7
 43
1.0
 76
     1
 77
     6
 78
     2
 67
     7
 79
     3
170
     0
171
     0
290
     0
174
     0
 93
        1
 44
0.0
173
     0
291
     0
 45
0.0
1001
ACAD
1000
AcDbSavedByObjectVersion
1070
     0
  0
VISUALSTYLE
  5
35
102
{ACAD_REACTORS
330
2A
102
}
330
2A
100
AcDbVisualStyle
  2
Dim
 70
    11
 71
     2
 72
     2
 73
     0
 90
        0
 40
-0.6
 41
-30.0
 62
     5
 63
     7
421
 16777215
 74
     1
 91
        4
 64
     7
 65
   257
 75
     1
175
     1
 42
1.0
 92
        8
 66
     7
 43
1.0
 76
     1
 77
     6
 78
     2
 67
     7
 79
     5
170
     0
171
     0
290
     0
174
     0
 93
        1
 44
-50.0
173
     0
291
     1
 45
0.0
1001
ACAD
1000
AcDbSavedByObjectVersion
1070
     0
  0
VISUALSTYLE
  5
39
102
{ACAD_REACTORS
330
2A
102
}
330
2A
100
AcDbVisualStyle
  2
Facepattern
 70
    15
 71
     2
 72
     2
 73
     0
 90
        0
 40
-0.6
 41
-30.0
 62
     5
 63
     7
421
 16777215
 74
     1
 91
        4
 64
     7
 65
   257
 75
     1
175
     1
 42
1.0
 92
        8
 66
     7
 43
1.0
 76
     1
 77
     6
 78
     2
 67
     7
 79
     5
170
     0
171
     0
290
     0
174
     0
 93
        1
 44
0.0
173
     0
291
     1
 45
0.0
1001
ACAD
1000
AcDbSavedByObjectVersion
1070
     0
  0
VISUALSTYLE
  5
2B
102
{ACAD_REACTORS
330
2A
102
}
330
2A
100
AcDbVisualStyle
  2
Flat
 70
     0
 71
     2
 72
     1
 73
     1
 90
        2
 40
-0.6
 41
30.0
 62
     5
 63
     7
421
 16777215
 74
     0
 91
        4
 64
     7
 65
   257
 75
     1
175
     1
 42
1.0
 92
        8
 66
     7
 43
1.0
 76
     1
 77
     6
 78
     2
 67
     7
 79
     5
170
     0
171
     0
290
     0
174
     0
 93
       13
 44
0.0
173
     0
291
     1
 45
0.0
1001
ACAD
1000
AcDbSavedByObjectVersion
1070
     0
  0
VISUALSTYLE
  5
2C
102
{ACAD_REACTORS
330
2A
102
}
330
2A
100
AcDbVisualStyle
  2
FlatWithEdges
 70
     1
 71
     2
 72
     1
 73
     1
 90
        2
 40
-0.6
 41
30.0
 62
     5
 63
     7
421
 16777215
 74
     1
 91
        4
 64
     7
 65
   257
 75
     1
175
     1
 42
1.0
 92
        0
 66
   257
 43
1.0
 76
     1
 77
     6
 78
     2
 67
     7
 79
     5
170
     0
171
     0
290
     0
174
     0
 93
       13
 44
0.0
173
     0
291
     1
 45
0.0
1001
ACAD
1000
AcDbSavedByObjectVersion
1070
     0
  0
VISUALSTYLE
  5
2D
102
{ACAD_REACTORS
330
2A
102
}
330
2A
100
AcDbVisualStyle
  2
Gouraud
 70
     2
 71
     2
 72
     2
 73
     1
 90
        2
 40
-0.6
 41
30.0
 62
     5
 63
     7
421
 16777215
 74
     0
 91
        4
 64
     7
 65
   257
 75
     1
175
     1
 42
1.0
 92
        0
 66
     7
 43
1.0
 76
     1
 77
     6
 78
     2
 67
     7
 79
     5
170
     0
171
     0
290
     0
174
     0
 93
       13
 44
0.0
173
     0
291
     1
 45
0.0
1001
ACAD
1000
AcDbSavedByObjectVersion
1070
     0
  0
VISUALSTYLE
  5
2E
102
{ACAD_REACTORS
330
2A
102
}
330
2A
100
AcDbVisualStyle
  2
GouraudWithEdges
 70
     3
 71
     2
 72
     2
 73
     1
 90
        2
 40
-0.6
 41
30.0
 62
     5
 63
     7
421
 16777215
 74
     1
 91
        4
 64
     7
 65
   257
 75
     1
175
     1
 42
1.0
 92
        0
 66
   257
 43
1.0
 76
     1
 77
     6
 78
     2
 67
     7
 79
     5
170
     0
171
     0
290
     0
174
     0
 93
       13
 44
0.0
173
     0
291
     1
 45
0.0
1001
ACAD
1000
AcDbSavedByObjectVersion
1070
     0
  0
VISUALSTYLE
  5
38
102
{ACAD_REACTORS
330
2A
102
}
330
2A
100
AcDbVisualStyle
  2
Linepattern
 70
    14
 71
     2
 72
     2
 73
     0
 90
        0
 40
-0.6
 41
-30.0
 62
     5
 63
     7
421
 16777215
 74
     1
 91
        4
 64
     7
 65
   257
 75
     7
175
     7
 42
1.0
 92
        8
 66
     7
 43
1.0
 76
     1
 77
     6
 78
     2
 67
     7
 79
     5
170
     0
171
     0
290
     0
174
     0
 93
        1
 44
0.0
173
     0
291
     1
 45
0.0
1001
ACAD
1000
AcDbSavedByObjectVersion
1070
     0
  0
VISUALSTYLE
  5
33
102
{ACAD_REACTORS
330
2A
102
}
330
2A
100
AcDbVisualStyle
  2
Realistic
 70
     8
 71
     2
 72
     2
 73
     0
 90
        0
 40
-0.6
 41
-30.0
 62
     5
 63
     7
421
 16777215
 74
     1
 91
        0
 64
     7
 65
   257
 75
     1
175
     1
 42
1.0
 92
        8
 66
     8
424
  7895160
 43
1.0
 76
     1
 77
     6
 78
     2
 67
     7
 79
     5
170
     0
171
     0
290
     0
174
     0
 93
       13
 44
0.0
173
     0
291
     0
 45
0.0
1001
ACAD
1000
AcDbSavedByObjectVersion
1070
     0
  0
VISUALSTYLE
  5
37
102
{ACAD_REACTORS
330
2A
102
}
330
2A
100
AcDbVisualStyle
  2
Thicken
 70
    13
 71
     2
 72
     2
 73
     0
 90
        0
 40
-0.6
 41
-30.0
 62
     5
 63
     7
421
 16777215
 74
     1
 91
        4
 64
     7
 65
   257
 75
     1
175
     1
 42
1.0
 92
       12
 66
     7
 43
1.0
 76
     1
 77
     6
 78
     2
 67
     7
 79
     5
170
     0
171
     0
290
     0
174
     0
 93
        1
 44
0.0
173
     0
291
     1
 45
0.0
1001
ACAD
1000
AcDbSavedByObjectVersion
1070
     0
  0
ENDSEC
  0
EOF
