  0
SECTION
  2
HEADER
  9
$ACADVER
  1
AC1018
  9
$ACADMAINTVER
 70
     0
  9
$DWGCODEPAGE
  3
ANSI_1252
  9
$INSBASE
 10
0.0
 20
0.0
 30
0.0
  9
$EXTMIN
 10
-15.63220927787822
 20
-0.0002651114711827
 30
0.0
  9
$EXTMAX
 10
46.13768916201531
 20
63.85860682770644
 30
0.0
  9
$LIMMIN
 10
0.0
 20
0.0
  9
$LIMMAX
 10
12.0
 20
9.0
  9
$ORTHOMODE
 70
     0
  9
$REGENMODE
 70
     1
  9
$FILLMODE
 70
     1
  9
$QTEXTMODE
 70
     0
  9
$MIRRTEXT
 70
     1
  9
$LTSCALE
 40
0.0393700787401575
  9
$ATTMODE
 70
     1
  9
$TEXTSIZE
 40
0.2
  9
$TRACEWID
 40
0.05
  9
$TEXTSTYLE
  7
Standard
  9
$CLAYER
  8
Default
  9
$CELTYPE
  6
ByLayer
  9
$CECOLOR
 62
   256
  9
$CELTSCALE
 40
1.0
  9
$DISPSILH
 70
     0
  9
$DIMSCALE
 40
1.0
  9
$DIMASZ
 40
0.18
  9
$DIMEXO
 40
0.0625
  9
$DIMDLI
 40
0.38
  9
$DIMRND
 40
0.0
  9
$DIMDLE
 40
0.0
  9
$DIMEXE
 40
0.18
  9
$DIMTP
 40
0.0
  9
$DIMTM
 40
0.0
  9
$DIMTXT
 40
0.18
  9
$DIMCEN
 40
0.09
  9
$DIMTSZ
 40
0.0
  9
$DIMTOL
 70
     0
  9
$DIMLIM
 70
     0
  9
$DIMTIH
 70
     1
  9
$DIMTOH
 70
     1
  9
$DIMSE1
 70
     0
  9
$DIMSE2
 70
     0
  9
$DIMTAD
 70
     0
  9
$DIMZIN
 70
     0
  9
$DIMBLK
  1

  9
$DIMASO
 70
     1
  9
$DIMSHO
 70
     1
  9
$DIMPOST
  1

  9
$DIMAPOST
  1

  9
$DIMALT
 70
     0
  9
$DIMALTD
 70
     2
  9
$DIMALTF
 40
25.4
  9
$DIMLFAC
 40
1.0
  9
$DIMTOFL
 70
     0
  9
$DIMTVP
 40
0.0
  9
$DIMTIX
 70
     0
  9
$DIMSOXD
 70
     0
  9
$DIMSAH
 70
     0
  9
$DIMBLK1
  1

  9
$DIMBLK2
  1

  9
$DIMSTYLE
  2
Standard
  9
$DIMCLRD
 70
     0
  9
$DIMCLRE
 70
     0
  9
$DIMCLRT
 70
     0
  9
$DIMTFAC
 40
1.0
  9
$DIMGAP
 40
0.09
  9
$DIMJUST
 70
     0
  9
$DIMSD1
 70
     0
  9
$DIMSD2
 70
     0
  9
$DIMTOLJ
 70
     1
  9
$DIMTZIN
 70
     0
  9
$DIMALTZ
 70
     0
  9
$DIMALTTZ
 70
     0
  9
$DIMUPT
 70
     0
  9
$DIMDEC
 70
     4
  9
$DIMTDEC
 70
     4
  9
$DIMALTU
 70
     2
  9
$DIMALTTD
 70
     2
  9
$DIMTXSTY
  7
Standard
  9
$DIMAUNIT
 70
     0
  9
$DIMADEC
 70
     0
  9
$DIMALTRND
 40
0.0
  9
$DIMAZIN
 70
     0
  9
$DIMDSEP
 70
    46
  9
$DIMATFIT
 70
     3
  9
$DIMFRAC
 70
     0
  9
$DIMLDRBLK
  1

  9
$DIMLUNIT
 70
     2
  9
$DIMLWD
 70
    -2
  9
$DIMLWE
 70
    -2
  9
$DIMTMOVE
 70
     2
  9
$LUNITS
 70
     2
  9
$LUPREC
 70
     3
  9
$SKETCHINC
 40
0.1
  9
$FILLETRAD
 40
0.5
  9
$AUNITS
 70
     0
  9
$AUPREC
 70
     0
  9
$MENU
  1
.
  9
$ELEVATION
 40
0.0
  9
$PELEVATION
 40
0.0
  9
$THICKNESS
 40
0.0
  9
$LIMCHECK
 70
     0
  9
$CHAMFERA
 40
0.5
  9
$CHAMFERB
 40
0.5
  9
$CHAMFERC
 40
1.0
  9
$CHAMFERD
 40
0.0
  9
$SKPOLY
 70
     0
  9
$TDCREATE
 40
2456338.472066192
  9
$TDUCREATE
 40
2456338.680399525
  9
$TDUPDATE
 40
2456338.472066204
  9
$TDUUPDATE
 40
2456338.680399537
  9
$TDINDWG
 40
0.0000000116
  9
$TDUSRTIMER
 40
0.0000000116
  9
$USRTIMER
 70
     1
  9
$ANGBASE
 50
0.0
  9
$ANGDIR
 70
     0
  9
$PDMODE
 70
     0
  9
$PDSIZE
 40
0.0
  9
$PLINEWID
 40
0.0
  9
$SPLFRAME
 70
     0
  9
$SPLINETYPE
 70
     6
  9
$SPLINESEGS
 70
     8
  9
$HANDSEED
  5
FD
  9
$SURFTAB1
 70
     6
  9
$SURFTAB2
 70
     6
  9
$SURFTYPE
 70
     6
  9
$SURFU
 70
     6
  9
$SURFV
 70
     6
  9
$UCSBASE
  2

  9
$UCSNAME
  2

  9
$UCSORG
 10
0.0
 20
0.0
 30
0.0
  9
$UCSXDIR
 10
1.0
 20
0.0
 30
0.0
  9
$UCSYDIR
 10
0.0
 20
1.0
 30
0.0
  9
$UCSORTHOREF
  2

  9
$UCSORTHOVIEW
 70
     0
  9
$UCSORGTOP
 10
0.0
 20
0.0
 30
0.0
  9
$UCSORGBOTTOM
 10
0.0
 20
0.0
 30
0.0
  9
$UCSORGLEFT
 10
0.0
 20
0.0
 30
0.0
  9
$UCSORGRIGHT
 10
0.0
 20
0.0
 30
0.0
  9
$UCSORGFRONT
 10
0.0
 20
0.0
 30
0.0
  9
$UCSORGBACK
 10
0.0
 20
0.0
 30
0.0
  9
$PUCSBASE
  2

  9
$PUCSNAME
  2

  9
$PUCSORG
 10
0.0
 20
0.0
 30
0.0
  9
$PUCSXDIR
 10
1.0
 20
0.0
 30
0.0
  9
$PUCSYDIR
 10
0.0
 20
1.0
 30
0.0
  9
$PUCSORTHOREF
  2

  9
$PUCSORTHOVIEW
 70
     0
  9
$PUCSORGTOP
 10
0.0
 20
0.0
 30
0.0
  9
$PUCSORGBOTTOM
 10
0.0
 20
0.0
 30
0.0
  9
$PUCSORGLEFT
 10
0.0
 20
0.0
 30
0.0
  9
$PUCSORGRIGHT
 10
0.0
 20
0.0
 30
0.0
  9
$PUCSORGFRONT
 10
0.0
 20
0.0
 30
0.0
  9
$PUCSORGBACK
 10
0.0
 20
0.0
 30
0.0
  9
$USERI1
 70
     0
  9
$USERI2
 70
     0
  9
$USERI3
 70
     0
  9
$USERI4
 70
     0
  9
$USERI5
 70
     0
  9
$USERR1
 40
0.0
  9
$USERR2
 40
0.0
  9
$USERR3
 40
0.0
  9
$USERR4
 40
0.0
  9
$USERR5
 40
0.0
  9
$WORLDVIEW
 70
     1
  9
$SHADEDGE
 70
     3
  9
$SHADEDIF
 70
    70
  9
$TILEMODE
 70
     1
  9
$MAXACTVP
 70
    64
  9
$PINSBASE
 10
0.0
 20
0.0
 30
0.0
  9
$PLIMCHECK
 70
     0
  9
$PEXTMIN
 10
1.000000000000000E+20
 20
1.000000000000000E+20
 30
1.000000000000000E+20
  9
$PEXTMAX
 10
-1.000000000000000E+20
 20
-1.000000000000000E+20
 30
-1.000000000000000E+20
  9
$PLIMMIN
 10
0.0
 20
0.0
  9
$PLIMMAX
 10
12.0
 20
9.0
  9
$UNITMODE
 70
     0
  9
$VISRETAIN
 70
     1
  9
$PLINEGEN
 70
     0
  9
$PSLTSCALE
 70
     1
  9
$TREEDEPTH
 70
  3020
  9
$CMLSTYLE
  2
Standard
  9
$CMLJUST
 70
     0
  9
$CMLSCALE
 40
1.0
  9
$PROXYGRAPHICS
 70
     1
  9
$MEASUREMENT
 70
     0
  9
$CELWEIGHT
370
    -1
  9
$ENDCAPS
280
     0
  9
$JOINSTYLE
280
     0
  9
$LWDISPLAY
290
     0
  9
$INSUNITS
 70
     1
  9
$HYPERLINKBASE
  1

  9
$STYLESHEET
  1

  9
$XEDIT
290
     1
  9
$CEPSNTYPE
380
     0
  9
$PSTYLEMODE
290
     1
  9
$FINGERPRINTGUID
  2
{1ECFC175-D792-4505-A157-D7C870C5F739}
  9
$VERSIONGUID
  2
{FAEB1C32-E019-11D5-929B-00C0DF256EC4}
  9
$EXTNAMES
290
     1
  9
$PSVPSCALE
 40
0.0
  9
$OLESTARTUP
290
     0
  9
$SORTENTS
280
   127
  9
$INDEXCTL
280
     0
  9
$HIDETEXT
280
     1
  9
$XCLIPFRAME
290
     0
  9
$HALOGAP
280
     0
  9
$OBSCOLOR
 70
   257
  9
$OBSLTYPE
280
     0
  9
$INTERSECTIONDISPLAY
280
     0
  9
$INTERSECTIONCOLOR
 70
   257
  9
$DIMASSOC
280
     2
  9
$PROJECTNAME
  1

  0
ENDSEC
  0
SECTION
  2
CLASSES
  0
CLASS
  1
ACDBDICTIONARYWDFLT
  2
AcDbDictionaryWithDefault
  3
ObjectDBX Classes
 90
        0
 91
        4
280
     0
281
     0
  0
CLASS
  1
VISUALSTYLE
  2
AcDbVisualStyle
  3
ObjectDBX Classes
 90
     4095
 91
        4
280
     0
281
     0
  0
ENDSEC
  0
SECTION
  2
TABLES
  0
TABLE
  2
VPORT
  5
8
330
0
100
AcDbSymbolTable
 70
     1
  0
VPORT
  5
29
330
8
100
AcDbSymbolTableRecord
100
AcDbViewportTableRecord
  2
*Active
 70
     0
 10
0.0
 20
0.0
 11
1.0
 21
1.0
 12
15.25273994206854
 22
31.92917085811763
 13
0.0
 23
0.0
 14
0.5
 24
0.5
 15
0.5
 25
0.5
 16
0.0
 26
0.0
 36
1.0
 17
0.0
 27
0.0
 37
0.0
 40
65.13604937796117
 41
0.9672876542311344
 42
50.0
 43
0.0
 44
0.0
 50
0.0
 51
0.0
 71
     0
 72
   100
 73
     1
 74
     3
 75
     0
 76
     0
 77
     0
 78
     0
281
     0
 65
     1
110
0.0
120
0.0
130
0.0
111
1.0
121
0.0
131
0.0
112
0.0
122
1.0
132
0.0
 79
     0
146
0.0
  0
ENDTAB
  0
TABLE
  2
LTYPE
  5
5
330
0
100
AcDbSymbolTable
 70
     1
  0
LTYPE
  5
14
330
5
100
AcDbSymbolTableRecord
100
AcDbLinetypeTableRecord
  2
ByBlock
 70
     0
  3

 72
    65
 73
     0
 40
0.0
  0
LTYPE
  5
15
330
5
100
AcDbSymbolTableRecord
100
AcDbLinetypeTableRecord
  2
ByLayer
 70
     0
  3

 72
    65
 73
     0
 40
0.0
  0
LTYPE
  5
16
330
5
100
AcDbSymbolTableRecord
100
AcDbLinetypeTableRecord
  2
Continuous
 70
     0
  3
Solid line
 72
    65
 73
     0
 40
0.0
  0
ENDTAB
  0
TABLE
  2
LAYER
  5
2
330
0
100
AcDbSymbolTable
 70
     3
  0
LAYER
  5
10
330
2
100
AcDbSymbolTableRecord
100
AcDbLayerTableRecord
  2
0
 70
     0
 62
     7
  6
Continuous
370
    -3
390
F
  0
LAYER
  5
3B
330
2
100
AcDbSymbolTableRecord
100
AcDbLayerTableRecord
  2
Make2D visible lines
 70
     0
 62
     7
  6
Continuous
370
    -3
390
F
  0
LAYER
  5
4A
330
2
100
AcDbSymbolTableRecord
100
AcDbLayerTableRecord
  2
Default
 70
     0
 62
     7
  6
Continuous
370
    -3
390
F
  0
ENDTAB
  0
TABLE
  2
STYLE
  5
3
330
0
100
AcDbSymbolTable
 70
     1
  0
STYLE
  5
11
330
3
100
AcDbSymbolTableRecord
100
AcDbTextStyleTableRecord
  2
Standard
 70
     0
 40
0.0
 41
1.0
 50
0.0
 71
     0
 42
0.2
  3
txt
  4

  0
ENDTAB
  0
TABLE
  2
VIEW
  5
6
330
0
100
AcDbSymbolTable
 70
     0
  0
ENDTAB
  0
TABLE
  2
UCS
  5
7
330
0
100
AcDbSymbolTable
 70
     0
  0
ENDTAB
  0
TABLE
  2
APPID
  5
9
330
0
100
AcDbSymbolTable
 70
     1
  0
APPID
  5
12
330
9
100
AcDbSymbolTableRecord
100
AcDbRegAppTableRecord
  2
ACAD
 70
     0
  0
ENDTAB
  0
TABLE
  2
DIMSTYLE
  5
A
330
0
100
AcDbSymbolTable
 70
     1
100
AcDbDimStyleTable
  0
DIMSTYLE
105
27
330
A
100
AcDbSymbolTableRecord
100
AcDbDimStyleTableRecord
  2
Standard
 70
     0
340
11
  0
ENDTAB
  0
TABLE
  2
BLOCK_RECORD
  5
1
330
0
100
AcDbSymbolTable
 70
     1
  0
BLOCK_RECORD
  5
1F
330
1
100
AcDbSymbolTableRecord
100
AcDbBlockTableRecord
  2
*Model_Space
340
22
  0
BLOCK_RECORD
  5
1B
330
1
100
AcDbSymbolTableRecord
100
AcDbBlockTableRecord
  2
*Paper_Space
340
1E
  0
BLOCK_RECORD
  5
23
330
1
100
AcDbSymbolTableRecord
100
AcDbBlockTableRecord
  2
*Paper_Space0
340
26
  0
ENDTAB
  0
ENDSEC
  0
SECTION
  2
BLOCKS
  0
BLOCK
  5
20
330
1F
100
AcDbEntity
  8
0
100
AcDbBlockBegin
  2
*Model_Space
 70
     0
 10
0.0
 20
0.0
 30
0.0
  3
*Model_Space
  1

  0
ENDBLK
  5
21
330
1F
100
AcDbEntity
  8
0
100
AcDbBlockEnd
  0
BLOCK
  5
1C
330
1B
100
AcDbEntity
 67
     1
  8
0
100
AcDbBlockBegin
  2
*Paper_Space
 70
     0
 10
0.0
 20
0.0
 30
0.0
  3
*Paper_Space
  1

  0
ENDBLK
  5
1D
330
1B
100
AcDbEntity
 67
     1
  8
0
100
AcDbBlockEnd
  0
BLOCK
  5
24
330
23
100
AcDbEntity
  8
0
100
AcDbBlockBegin
  2
*Paper_Space0
 70
     0
 10
0.0
 20
0.0
 30
0.0
  3
*Paper_Space0
  1

  0
ENDBLK
  5
25
330
23
100
AcDbEntity
  8
0
100
AcDbBlockEnd
  0
ENDSEC
  0
SECTION
  2
ENTITIES
  0
SPLINE
  5
3C
330
1F
100
AcDbEntity
  8
Make2D visible lines
100
AcDbSpline
210
0.0
220
0.0
230
1.0
 70
    12
 71
     2
 72
     6
 73
     3
 74
     0
 42
0.0000000001
 43
0.0000000001
 40
0.0
 40
0.0
 40
0.0
 40
1.946494377530773
 40
1.946494377530773
 40
1.946494377530773
 10
28.35358922280542
 20
11.85866470256931
 30
0.0
 41
1.0
 10
29.12352559925922
 20
11.23950279041793
 30
0.0
 41
0.9777372131974623
 10
30.08289646411841
 20
10.98997997939098
 30
0.0
 41
1.0
  0
SPLINE
  5
3D
330
1F
100
AcDbEntity
  8
Make2D visible lines
100
AcDbSpline
210
0.0
220
0.0
230
1.0
 70
     8
 71
     3
 72
    11
 73
     7
 74
     0
 42
0.0000000001
 43
0.0000000001
 40
0.0
 40
0.0
 40
0.0
 40
0.0
 40
0.4196919291784062
 40
0.6976150775001599
 40
0.7467532413215971
 40
1.039467887128562
 40
1.039467887128562
 40
1.039467887128562
 40
1.039467887128562
 10
30.08289646411841
 20
10.98997997939098
 30
0.0
 10
30.22121535733476
 20
10.95343768147915
 30
0.0
 10
30.45013709958683
 20
10.90875905493618
 30
0.0
 10
30.69273234406143
 20
10.8566789603242
 30
0.0
 10
30.89863401919823
 20
10.82857634371156
 30
0.0
 10
31.00851654040603
 20
10.92239357313235
 30
0.0
 10
31.02574089910702
 20
11.02086743248052
 30
0.0
  0
SPLINE
  5
3E
330
1F
100
AcDbEntity
  8
Make2D visible lines
100
AcDbSpline
210
0.0
220
0.0
230
1.0
 70
     8
 71
     3
 72
    12
 73
     8
 74
     0
 42
0.0000000001
 43
0.0000000001
 40
0.0
 40
0.0
 40
0.0
 40
0.0
 40
0.0705042199092246
 40
0.1431282627150424
 40
0.2852659170048956
 40
0.3344757646873034
 40
1.017718419022621
 40
1.017718419022621
 40
1.017718419022621
 40
1.017718419022621
 10
31.02574089910702
 20
11.02086743248052
 30
0.0
 10
31.02984261672133
 20
11.04495042244621
 30
0.0
 10
31.03130831507702
 20
11.10018216559762
 30
0.0
 10
30.99935793217686
 20
11.18139982255883
 30
0.0
 10
30.93472355086843
 20
11.25818641318619
 30
0.0
 10
30.64911299779771
 20
11.31596622329378
 30
0.0
 10
30.40804955386503
 20
11.35652108466264
 30
0.0
 10
30.18452453983445
 20
11.41556346743971
 30
0.0
  0
SPLINE
  5
3F
330
1F
100
AcDbEntity
  8
Make2D visible lines
100
AcDbSpline
210
0.0
220
0.0
230
1.0
 70
    12
 71
     2
 72
     6
 73
     3
 74
     0
 42
0.0000000001
 43
0.0000000001
 40
0.0
 40
0.0
 40
0.0
 40
1.772140572908841
 40
1.772140572908841
 40
1.772140572908841
 10
30.18452453983445
 20
11.41556346743971
 30
0.0
 41
1.0
 10
29.31114600965506
 20
11.64473868553964
 30
0.0
 41
0.9774902787265793
 10
28.60967265203003
 20
12.21405154153193
 30
0.0
 41
1.0
  0
SPLINE
  5
40
330
1F
100
AcDbEntity
  8
Make2D visible lines
100
AcDbSpline
210
0.0
220
0.0
230
1.0
 70
     8
 71
     3
 72
    12
 73
     8
 74
     0
 42
0.0000000001
 43
0.0000000001
 40
0.0
 40
0.0
 40
0.0
 40
0.0
 40
0.2156803412029633
 40
0.4368707080375416
 40
0.8635677051415032
 40
1.293573178904501
 40
1.758188522809053
 40
1.758188522809053
 40
1.758188522809053
 40
1.758188522809053
 10
28.60967265203003
 20
12.21405154153193
 30
0.0
 10
28.55074838134057
 20
12.26162128860347
 30
0.0
 10
28.42700010338601
 20
12.33987208957403
 30
0.0
 10
28.15237097604061
 20
12.43389784776257
 30
0.0
 10
27.78195214722444
 20
12.41392740928093
 30
0.0
 10
27.39527250366473
 20
12.17848143615861
 30
0.0
 10
27.22768747333417
 20
11.92399001174881
 30
0.0
 10
27.16647421645179
 20
11.7761097914318
 30
0.0
  0
SPLINE
  5
41
330
1F
100
AcDbEntity
  8
Make2D visible lines
100
AcDbSpline
210
0.0
220
0.0
230
1.0
 70
    24
 71
     2
 72
     6
 73
     3
 74
     0
 42
0.0000000001
 43
0.0000000001
 40
0.0
 40
0.0
 40
0.0
 40
10.66170904135123
 40
10.66170904135123
 40
10.66170904135123
 10
27.16647421645179
 20
11.7761097914318
 30
0.0
 10
25.17257402825248
 20
6.82838917488401
 30
0.0
 10
23.17867384005316
 20
1.880668558336224
 30
0.0
  0
SPLINE
  5
42
330
1F
100
AcDbEntity
  8
Make2D visible lines
100
AcDbSpline
210
0.0
220
0.0
230
1.0
 70
     8
 71
     3
 72
    12
 73
     8
 74
     0
 42
0.0000000001
 43
0.0000000001
 40
0.0
 40
0.0
 40
0.0
 40
0.0
 40
0.3467521753746221
 40
0.6716705991412102
 40
1.245376892639522
 40
1.774064081213415
 40
2.318726595427466
 40
2.318726595427466
 40
2.318726595427466
 40
2.318726595427466
 10
23.17867384005316
 20
1.880668558336224
 30
0.0
 10
23.13480062593128
 20
1.772263020368184
 30
0.0
 10
23.06621824537299
 20
1.556958937189357
 30
0.0
 10
23.01092369696179
 20
1.146194563389029
 30
0.0
 10
23.08673410377297
 20
0.6605528456990877
 30
0.0
 10
23.47121074612046
 20
0.2328403624388516
 30
0.0
 10
23.83662414142578
 20
0.1509524442178886
 30
0.0
 10
24.0172344009443
 20
0.1512501707452093
 30
0.0
  0
SPLINE
  5
43
330
1F
100
AcDbEntity
  8
Make2D visible lines
100
AcDbSpline
210
0.0
220
0.0
230
1.0
 70
    24
 71
     2
 72
     6
 73
     3
 74
     0
 42
0.0000000001
 43
0.0000000001
 40
0.0
 40
0.0
 40
0.0
 40
0.4220655206783377
 40
0.4220655206783377
 40
0.4220655206783377
 10
24.0172344009443
 20
0.1512501707452093
 30
0.0
 10
24.228508617324
 20
0.1512500853726069
 30
0.0
 10
24.43978283370371
 20
0.1512500000000045
 30
0.0
  0
SPLINE
  5
44
330
1F
100
AcDbEntity
  8
Make2D visible lines
100
AcDbSpline
210
0.0
220
0.0
230
1.0
 70
     8
 71
     3
 72
    13
 73
     9
 74
     0
 42
0.0000000001
 43
0.0000000001
 40
0.0
 40
0.0
 40
0.0
 40
0.0
 40
0.0669909275443719
 40
0.1332575209594614
 40
0.2649155669711206
 40
0.332668664327405
 40
0.3376075390522567
 40
0.7481878552349414
 40
0.7481878552349414
 40
0.7481878552349414
 40
0.7481878552349414
 10
33.1794203401633
 20
0.3752139673553216
 30
0.0
 10
33.1789052405889
 20
0.3976565949571415
 30
0.0
 10
33.17078809839137
 20
0.4415435685432696
 30
0.0
 10
33.12973916199058
 20
0.5213084423103875
 30
0.0
 10
33.05521558382394
 20
0.5757883745338983
 30
0.0
 10
32.98734828015553
 20
0.5886361654697606
 30
0.0
 10
32.82627176027417
 20
0.5890248407860289
 30
0.0
 10
32.68774586911727
 20
0.5885352940958735
 30
0.0
 10
32.55041175445899
 20
0.5887500186223245
 30
0.0
  0
SPLINE
  5
45
330
1F
100
AcDbEntity
  8
Make2D visible lines
100
AcDbSpline
210
0.0
220
0.0
230
1.0
 70
    24
 71
     2
 72
     6
 73
     3
 74
     0
 42
0.0000000001
 43
0.0000000001
 40
0.0
 40
0.0
 40
0.0
 40
8.531245711461779
 40
8.531245711461779
 40
8.531245711461779
 10
32.55041175445899
 20
0.5887500186223245
 30
0.0
 10
28.28430598875202
 20
0.5887500093111787
 30
0.0
 10
24.01820022304506
 20
0.588750000000033
 30
0.0
  0
SPLINE
  5
46
330
1F
100
AcDbEntity
  8
Make2D visible lines
100
AcDbSpline
210
0.0
220
0.0
230
1.0
 70
     8
 71
     3
 72
    12
 73
     8
 74
     0
 42
0.0000000001
 43
0.0000000001
 40
0.0
 40
0.0
 40
0.0
 40
0.0
 40
0.1693085055607524
 40
0.3260743370091164
 40
0.6324790294380792
 40
1.006716325339112
 40
1.461314524040565
 40
1.461314524040565
 40
1.461314524040565
 40
1.461314524040565
 10
24.01820022304506
 20
0.588750000000033
 30
0.0
 10
23.96051596321968
 20
0.5881722851479865
 30
0.0
 10
23.85389314588895
 20
0.6006958467837804
 30
0.0
 10
23.65148077141981
 20
0.6784579728153245
 30
0.0
 10
23.47858290580406
 20
0.915523100227029
 30
0.0
 10
23.45409327072694
 20
1.303334086639778
 30
0.0
 10
23.52561508263959
 20
1.571017573668503
 30
0.0
 10
23.58440402860816
 20
1.716989753589089
 30
0.0
  0
SPLINE
  5
47
330
1F
100
AcDbEntity
  8
Make2D visible lines
100
AcDbSpline
210
0.0
220
0.0
230
1.0
 70
    24
 71
     2
 72
     6
 73
     3
 74
     0
 42
0.0000000001
 43
0.0000000001
 40
0.0
 40
0.0
 40
0.0
 40
10.6548645082842
 40
10.6548645082842
 40
10.6548645082842
 10
23.58440402860816
 20
1.716989753589089
 30
0.0
 10
25.57765120310633
 20
6.663102504123819
 30
0.0
 10
27.57089837760452
 20
11.60921525465855
 30
0.0
  0
SPLINE
  5
48
330
1F
100
AcDbEntity
  8
Make2D visible lines
100
AcDbSpline
210
0.0
220
0.0
230
1.0
 70
     8
 71
     3
 72
    12
 73
     8
 74
     0
 42
0.0000000001
 43
0.0000000001
 40
0.0
 40
0.0
 40
0.0
 40
0.0
 40
0.1320490318873899
 40
0.2557655710982562
 40
0.4930712698847956
 40
0.7139044511273421
 40
0.9457968106286055
 40
0.9457968106286055
 40
0.9457968106286055
 40
0.9457968106286055
 10
27.57089837760452
 20
11.60921525465855
 30
0.0
 10
27.58959322447066
 20
11.65452546615029
 30
0.0
 10
27.62924205375858
 20
11.73104089310783
 30
0.0
 10
27.73065886320771
 20
11.86016550873743
 30
0.0
 10
27.89493635014199
 20
11.97414392652546
 30
0.0
 10
28.13248064387356
 20
11.99403633134802
 30
0.0
 10
28.27253214418768
 20
11.92360786310596
 30
0.0
 10
28.33243869976675
 20
11.87557508212785
 30
0.0
  0
LINE
  5
49
330
1F
100
AcDbEntity
  8
Make2D visible lines
100
AcDbLine
 10
26.15365552279232
 20
0.1512499999999968
 30
0.0
 11
32.54896302448273
 21
0.1512500000000099
 31
0.0
  0
LINE
  5
4B
330
1F
100
AcDbEntity
  8
Default
100
AcDbLine
 10
24.43978283370371
 20
0.1512500000000045
 30
0.0
 11
24.46441166211811
 21
0.188123512817642
 31
0.0
  0
ARC
  5
4C
330
1F
100
AcDbEntity
  8
Default
100
AcDbCircle
 10
24.21273433282577
 20
0.3562256892923373
 30
0.0
 40
0.3026546213347083
100
AcDbArc
 50
326.2599541458921
 51
358.8735934699181
  0
SPLINE
  5
4D
330
1F
100
AcDbEntity
  8
Default
100
AcDbSpline
210
0.0
220
0.0
230
1.0
 70
    12
 71
     2
 72
     6
 73
     3
 74
     0
 42
0.0000000001
 43
0.0000000001
 40
-0.1396938593169805
 40
-0.1396938593169805
 40
-0.1396938593169805
 40
0.0
 40
0.0
 40
0.0
 10
24.51533046863713
 20
0.3502760332277354
 30
0.0
 41
1.0
 10
24.51658912879536
 20
0.4214375658324525
 30
0.0
 41
0.977942097569061
 10
24.54668520822148
 20
0.4856289278781711
 30
0.0
 41
1.0
  0
SPLINE
  5
4E
330
1F
100
AcDbEntity
  8
Default
100
AcDbSpline
210
0.0
220
0.0
230
1.0
 70
    12
 71
     2
 72
     6
 73
     3
 74
     0
 42
0.0000000001
 43
0.0000000001
 40
-0.1043707694466919
 40
-0.1043707694466919
 40
-0.1043707694466919
 40
0.0
 40
0.0
 40
0.0
 10
24.54668520822148
 20
0.4856289278781711
 30
0.0
 41
1.0
 10
24.57993476906117
 20
0.5296435445783652
 30
0.0
 41
0.9209949828452051
 10
24.63467642089603
 20
0.5364384937091395
 30
0.0
 41
1.0
  0
SPLINE
  5
4F
330
1F
100
AcDbEntity
  8
Default
100
AcDbSpline
210
0.0
220
0.0
230
1.0
 70
     8
 71
     3
 72
     8
 73
     4
 74
     0
 42
0.0000000001
 43
0.0000000001
 40
0.0
 40
0.0
 40
0.0
 40
0.0
 40
1.0
 40
1.0
 40
1.0
 40
1.0
 10
24.63467642089603
 20
0.5364384937091395
 30
0.0
 10
24.64747948978857
 20
0.5380277077523163
 30
0.0
 10
24.66031485820851
 20
0.5400000000000158
 30
0.0
 10
24.67321618272742
 20
0.5400000000000158
 30
0.0
  0
SPLINE
  5
50
330
1F
100
AcDbEntity
  8
Default
100
AcDbSpline
210
0.0
220
0.0
230
1.0
 70
    24
 71
     2
 72
     6
 73
     3
 74
     0
 42
0.0000000001
 43
0.0000000001
 40
0.0
 40
0.0
 40
0.0
 40
1.324002867092183
 40
1.324002867092183
 40
1.324002867092183
 10
24.67321618272742
 20
0.5400000000000158
 30
0.0
 10
25.33521761627351
 20
0.5400000000000167
 30
0.0
 10
25.99721904981961
 20
0.5400000000000176
 30
0.0
  0
SPLINE
  5
51
330
1F
100
AcDbEntity
  8
Default
100
AcDbSpline
210
0.0
220
0.0
230
1.0
 70
     8
 71
     3
 72
     8
 73
     4
 74
     0
 42
0.0000000001
 43
0.0000000001
 40
-1.0
 40
-1.0
 40
-1.0
 40
-1.0
 40
0.0
 40
0.0
 40
0.0
 40
0.0
 10
25.99721904981961
 20
0.5400000000000176
 30
0.0
 10
26.08461268821428
 20
0.5400000000000176
 30
0.0
 10
26.17562560534302
 20
0.4319284955974853
 30
0.0
 10
26.17203619184987
 20
0.3446086001404169
 30
0.0
  0
SPLINE
  5
52
330
1F
100
AcDbEntity
  8
Default
100
AcDbSpline
210
0.0
220
0.0
230
1.0
 70
    12
 71
     2
 72
     6
 73
     3
 74
     0
 42
0.0000000001
 43
0.0000000001
 40
0.0
 40
0.0
 40
0.0
 40
0.1715427106131254
 40
0.1715427106131254
 40
0.1715427106131254
 10
26.17203619184987
 20
0.3446086001404169
 30
0.0
 41
1.0
 10
26.16851165547135
 20
0.258866974469895
 30
0.0
 41
0.9992541276325925
 10
26.15838058815415
 20
0.1736530659553708
 30
0.0
 41
1.0
  0
SPLINE
  5
53
330
1F
100
AcDbEntity
  8
Default
100
AcDbSpline
210
0.0
220
0.0
230
1.0
 70
     8
 71
     3
 72
     8
 73
     4
 74
     0
 42
0.0000000001
 43
0.0000000001
 40
0.0
 40
0.0
 40
0.0
 40
0.0
 40
1.0
 40
1.0
 40
1.0
 40
1.0
 10
26.15838058815415
 20
0.1736530659553708
 30
0.0
 10
26.14723086187222
 20
0.0798710659348325
 30
0.0
 10
26.02895025383948
 20
0.0000000000000241
 30
0.0
 10
25.93450778498137
 20
0.0000000000000237
 30
0.0
  0
LINE
  5
54
330
1F
100
AcDbEntity
  8
Default
100
AcDbLine
 10
25.93450778498137
 20
0.0000000000000237
 30
0.0
 11
24.46663500854736
 21
0.0000000000000122
 31
0.0
  0
SPLINE
  5
55
330
1F
100
AcDbEntity
  8
Default
100
AcDbSpline
210
0.0
220
0.0
230
1.0
 70
    12
 71
     2
 72
     6
 73
     3
 74
     0
 42
0.0000000001
 43
0.0000000001
 40
-0.2660416618951972
 40
-0.2660416618951972
 40
-0.2660416618951972
 40
0.0
 40
0.0
 40
0.0
 10
24.46663500854736
 20
0.0000000000000122
 30
0.0
 41
1.0
 10
24.31500744482154
 20
0.0071679241737854
 30
0.0
 41
0.8243825005637507
 10
24.26723035593614
 20
0.151250008403655
 30
0.0
 41
1.0
  0
LINE
  5
56
330
1F
100
AcDbEntity
  8
Default
100
AcDbLine
 10
43.18652998651714
 20
0.1512499999999969
 30
0.0
 11
43.16190115810274
 21
0.1881235128176343
 31
0.0
  0
ARC
  5
57
330
1F
100
AcDbEntity
  8
Default
100
AcDbCircle
 10
43.41357848739509
 20
0.3562256892923296
 30
0.0
 40
0.3026546213347083
100
AcDbArc
 50
181.1264065300817
 51
213.7400458541078
  0
SPLINE
  5
58
330
1F
100
AcDbEntity
  8
Default
100
AcDbSpline
210
0.0
220
0.0
230
1.0
 70
    12
 71
     2
 72
     6
 73
     3
 74
     0
 42
0.0000000001
 43
0.0000000001
 40
-0.1396938593169805
 40
-0.1396938593169805
 40
-0.1396938593169805
 40
0.0
 40
0.0
 40
0.0
 10
43.11098235158372
 20
0.3502760332277277
 30
0.0
 41
1.0
 10
43.10972369142549
 20
0.4214375658324448
 30
0.0
 41
0.977942097569061
 10
43.07962761199938
 20
0.4856289278781634
 30
0.0
 41
1.0
  0
SPLINE
  5
59
330
1F
100
AcDbEntity
  8
Default
100
AcDbSpline
210
0.0
220
0.0
230
1.0
 70
    12
 71
     2
 72
     6
 73
     3
 74
     0
 42
0.0000000001
 43
0.0000000001
 40
-0.1043707694466919
 40
-0.1043707694466919
 40
-0.1043707694466919
 40
0.0
 40
0.0
 40
0.0
 10
43.07962761199938
 20
0.4856289278781634
 30
0.0
 41
1.0
 10
43.04637805115967
 20
0.5296435445783575
 30
0.0
 41
0.9209949828452051
 10
42.99163639932483
 20
0.5364384937091319
 30
0.0
 41
1.0
  0
SPLINE
  5
5A
330
1F
100
AcDbEntity
  8
Default
100
AcDbSpline
210
0.0
220
0.0
230
1.0
 70
     8
 71
     3
 72
     8
 73
     4
 74
     0
 42
0.0000000001
 43
0.0000000001
 40
0.0
 40
0.0
 40
0.0
 40
0.0
 40
1.0
 40
1.0
 40
1.0
 40
1.0
 10
42.99163639932483
 20
0.5364384937091319
 30
0.0
 10
42.97883333043228
 20
0.5380277077523087
 30
0.0
 10
42.96599796201235
 20
0.540000000000008
 30
0.0
 10
42.95309663749343
 20
0.540000000000008
 30
0.0
  0
SPLINE
  5
5B
330
1F
100
AcDbEntity
  8
Default
100
AcDbSpline
210
0.0
220
0.0
230
1.0
 70
    24
 71
     2
 72
     6
 73
     3
 74
     0
 42
0.0000000001
 43
0.0000000001
 40
0.0
 40
0.0
 40
0.0
 40
1.324002867092183
 40
1.324002867092183
 40
1.324002867092183
 10
42.95309663749343
 20
0.540000000000008
 30
0.0
 10
42.29109520394734
 20
0.5400000000000089
 30
0.0
 10
41.62909377040125
 20
0.5400000000000098
 30
0.0
  0
SPLINE
  5
5C
330
1F
100
AcDbEntity
  8
Default
100
AcDbSpline
210
0.0
220
0.0
230
1.0
 70
     8
 71
     3
 72
     8
 73
     4
 74
     0
 42
0.0000000001
 43
0.0000000001
 40
-1.0
 40
-1.0
 40
-1.0
 40
-1.0
 40
0.0
 40
0.0
 40
0.0
 40
0.0
 10
41.62909377040125
 20
0.5400000000000098
 30
0.0
 10
41.54170013200658
 20
0.5400000000000099
 30
0.0
 10
41.45068721487783
 20
0.4319284955974776
 30
0.0
 10
41.45427662837098
 20
0.3446086001404092
 30
0.0
  0
SPLINE
  5
5D
330
1F
100
AcDbEntity
  8
Default
100
AcDbSpline
210
0.0
220
0.0
230
1.0
 70
    12
 71
     2
 72
     6
 73
     3
 74
     0
 42
0.0000000001
 43
0.0000000001
 40
0.0
 40
0.0
 40
0.0
 40
0.1715427106131254
 40
0.1715427106131254
 40
0.1715427106131254
 10
41.45427662837098
 20
0.3446086001404092
 30
0.0
 41
1.0
 10
41.4578011647495
 20
0.2588669744698873
 30
0.0
 41
0.9992541276325925
 10
41.46793223206671
 20
0.1736530659553631
 30
0.0
 41
1.0
  0
SPLINE
  5
5E
330
1F
100
AcDbEntity
  8
Default
100
AcDbSpline
210
0.0
220
0.0
230
1.0
 70
     8
 71
     3
 72
     8
 73
     4
 74
     0
 42
0.0000000001
 43
0.0000000001
 40
0.0
 40
0.0
 40
0.0
 40
0.0
 40
1.0
 40
1.0
 40
1.0
 40
1.0
 10
41.46793223206671
 20
0.1736530659553631
 30
0.0
 10
41.47908195834864
 20
0.0798710659348248
 30
0.0
 10
41.59736256638138
 20
0.0000000000000164
 30
0.0
 10
41.69180503523948
 20
0.000000000000016
 30
0.0
  0
LINE
  5
5F
330
1F
100
AcDbEntity
  8
Default
100
AcDbLine
 10
41.69180503523948
 20
0.000000000000016
 30
0.0
 11
43.1596778116735
 21
0.0000000000000045
 31
0.0
  0
SPLINE
  5
60
330
1F
100
AcDbEntity
  8
Default
100
AcDbSpline
210
0.0
220
0.0
230
1.0
 70
    12
 71
     2
 72
     6
 73
     3
 74
     0
 42
0.0000000001
 43
0.0000000001
 40
-0.2660416618951972
 40
-0.2660416618951972
 40
-0.2660416618951972
 40
0.0
 40
0.0
 40
0.0
 10
43.1596778116735
 20
0.0000000000000045
 30
0.0
 41
1.0
 10
43.31130537539932
 20
0.0071679241737777
 30
0.0
 41
0.8243825005637507
 10
43.35908246428471
 20
0.1512500084036474
 30
0.0
 41
1.0
  0
SPLINE
  5
61
330
1F
100
AcDbEntity
  8
Default
100
AcDbSpline
210
0.0
220
0.0
230
1.0
 70
    12
 71
     2
 72
     6
 73
     3
 74
     0
 42
0.0000000001
 43
0.0000000001
 40
0.0
 40
0.0
 40
0.0
 40
0.3211240945390638
 40
0.3211240945390638
 40
0.3211240945390638
 10
33.17998860083163
 20
0.3683646126931484
 30
0.0
 41
1.0
 10
33.17851324765715
 20
0.5657029229883656
 30
0.0
 41
0.7425023569909016
 10
33.37465834654735
 20
0.5874212460938948
 30
0.0
 41
1.0
  0
SPLINE
  5
62
330
1F
100
AcDbEntity
  8
Default
100
AcDbSpline
210
0.0
220
0.0
230
1.0
 70
    24
 71
     2
 72
     6
 73
     3
 74
     0
 42
0.0000000001
 43
0.0000000001
 40
0.0
 40
0.0
 40
0.0
 40
0.4188446961876835
 40
0.4188446961876835
 40
0.4188446961876835
 10
33.37465834654735
 20
0.5874212460938948
 30
0.0
 10
33.58408069464119
 20
0.5874212460490408
 30
0.0
 10
33.79350304273503
 20
0.5874212460041868
 30
0.0
  0
SPLINE
  5
63
330
1F
100
AcDbEntity
  8
Default
100
AcDbSpline
210
0.0
220
0.0
230
1.0
 70
    24
 71
     2
 72
     6
 73
     3
 74
     0
 42
0.0000000001
 43
0.0000000001
 40
0.0
 40
0.0
 40
0.0
 40
9.878551154483567
 40
9.878551154483567
 40
9.878551154483567
 10
33.79350304273503
 20
0.5874212460041868
 30
0.0
 10
38.73277861997681
 20
0.5874212460041415
 30
0.0
 10
43.6720541972186
 20
0.5874212460040962
 30
0.0
  0
SPLINE
  5
64
330
1F
100
AcDbEntity
  8
Default
100
AcDbSpline
210
0.0
220
0.0
230
1.0
 70
     8
 71
     3
 72
     8
 73
     4
 74
     0
 42
0.0000000001
 43
0.0000000001
 40
-1.0
 40
-1.0
 40
-1.0
 40
-1.0
 40
0.0
 40
0.0
 40
0.0
 40
0.0
 10
43.6720541972186
 20
0.5874212460040962
 30
0.0
 10
43.70569949483879
 20
0.5874212460040958
 30
0.0
 10
43.73946699539535
 20
0.5908637538263873
 30
0.0
 10
43.77252047441872
 20
0.5971465538712157
 30
0.0
  0
SPLINE
  5
65
330
1F
100
AcDbEntity
  8
Default
100
AcDbSpline
210
0.0
220
0.0
230
1.0
 70
     8
 71
     3
 72
    12
 73
     8
 74
     0
 42
0.0000000001
 43
0.0000000001
 40
-1.256367916518869
 40
-1.256367916518869
 40
-1.256367916518869
 40
-1.256367916518869
 40
-0.9823984631797978
 40
-0.6757000851809867
 40
-0.3400530620765876
 40
-0.1710042736780821
 40
0.0
 40
0.0
 40
0.0
 40
0.0
 10
43.77252047441872
 20
0.5971465538712157
 30
0.0
 10
43.86256192958238
 20
0.6142616193727569
 30
0.0
 10
44.0382011811454
 20
0.7095271891638906
 30
0.0
 10
44.21814511196626
 20
0.9643176976111016
 30
0.0
 10
44.28566802119072
 20
1.230088982482319
 30
0.0
 10
44.28560043449956
 20
1.456238959567053
 30
0.0
 10
44.26625328707544
 20
1.568271903875915
 30
0.0
 10
44.25057058893833
 20
1.627411950362194
 30
0.0
  0
SPLINE
  5
66
330
1F
100
AcDbEntity
  8
Default
100
AcDbSpline
210
0.0
220
0.0
230
1.0
 70
    24
 71
     2
 72
     6
 73
     3
 74
     0
 42
0.0000000001
 43
0.0000000001
 40
-10.41363611845926
 40
-10.41363611845926
 40
-10.41363611845926
 40
0.0
 40
0.0
 40
0.0
 10
44.25057058893833
 20
1.627411950362194
 30
0.0
 10
42.89554589415707
 20
6.659117063976371
 30
0.0
 10
41.5405211993758
 20
11.69082217759055
 30
0.0
  0
SPLINE
  5
67
330
1F
100
AcDbEntity
  8
Default
100
AcDbSpline
210
0.0
220
0.0
230
1.0
 70
    12
 71
     3
 72
    10
 73
     6
 74
     0
 42
0.0000000001
 43
0.0000000001
 40
-0.7432422403753207
 40
-0.7432422403753207
 40
-0.7432422403753207
 40
-0.7432422403753207
 40
-0.4087616417526939
 40
-0.2886660316447319
 40
-0.0000142522616549
 40
-0.0000142522616549
 40
-0.0000142522616549
 40
-0.0000142522616549
 10
41.5405211993758
 20
11.69082217759055
 30
0.0
 41
1.0
 10
41.51049517765259
 20
11.79928719277445
 30
0.0
 41
1.0
 10
41.4430166832617
 20
11.92649302819422
 30
0.0
 41
1.0
 10
41.29758389829827
 20
12.06741682048352
 30
0.0
 41
1.0
 10
41.20725522745563
 20
12.10953404820672
 30
0.0
 41
1.0
 10
41.14353723887558
 20
12.12193617116669
 30
0.0
 41
1.0
  0
SPLINE
  5
68
330
1F
100
AcDbEntity
  8
Default
100
AcDbSpline
210
0.0
220
0.0
230
1.0
 70
    12
 71
     2
 72
     6
 73
     3
 74
     0
 42
0.0000000001
 43
0.0000000001
 40
-0.0190705034318554
 40
-0.0190705034318554
 40
-0.0190705034318554
 40
0.0
 40
0.0
 40
0.0
 10
41.14353723887558
 20
12.12193617116669
 30
0.0
 41
1.0
 10
41.13417296236354
 20
12.12375946719421
 30
0.0
 41
0.999683517008335
 10
41.12473860489474
 20
12.12514386983682
 30
0.0
 41
0.999999871234565
  0
SPLINE
  5
69
330
1F
100
AcDbEntity
  8
Default
100
AcDbSpline
210
0.0
220
0.0
230
1.0
 70
    12
 71
     2
 72
     8
 73
     5
 74
     0
 42
0.0000000001
 43
0.0000000001
 40
0.0
 40
0.0
 40
0.0
 40
0.0924484761156222
 40
0.0924484761156222
 40
0.2336560678843569
 40
0.2336560678843569
 40
0.2336560678843569
 10
41.12473860489474
 20
12.12514386983682
 30
0.0
 41
0.9999995706939798
 10
41.07886958011058
 20
12.13210265331877
 30
0.0
 41
0.9945014947976099
 10
41.03255927374724
 20
12.12931942295961
 30
0.0
 41
1.0
 10
40.9615109453424
 20
12.12491311002677
 30
0.0
 41
0.9877784638459917
 10
40.8952714587092
 20
12.09884376071856
 30
0.0
 41
1.0
  0
ARC
  5
6A
330
1F
100
AcDbEntity
  8
Default
100
AcDbCircle
 10
35.4044347418718
 20
26.07033683217787
 30
0.0
 40
15.01172563354411
100
AcDbArc
 50
281.4277668771628
 51
291.4549686071013
  0
ARC
  5
6B
330
1F
100
AcDbEntity
  8
Default
100
AcDbCircle
 10
38.75738691568976
 20
9.483038932934294
 30
0.0
 40
1.911061958284869
100
AcDbArc
 50
101.4277668771631
 51
111.0178002976082
  0
SPLINE
  5
6C
330
1F
100
AcDbEntity
  8
Default
100
AcDbSpline
210
0.0
220
0.0
230
1.0
 70
    12
 71
     2
 72
     6
 73
     3
 74
     0
 42
0.0000000001
 43
0.0000000001
 40
-0.1178533984600588
 40
-0.1178533984600588
 40
-0.1178533984600588
 40
0.0
 40
0.0
 40
0.0
 10
38.07196931084442
 20
11.26695611581349
 30
0.0
 41
1.0
 10
38.02012650316907
 20
11.2359761148388
 30
0.0
 41
0.9639516831847292
 10
37.95973248717549
 20
11.23597658348235
 30
0.0
 41
1.0
  0
SPLINE
  5
6D
330
1F
100
AcDbEntity
  8
Default
100
AcDbSpline
210
0.0
220
0.0
230
1.0
 70
    12
 71
     2
 72
     8
 73
     5
 74
     0
 42
0.0000000001
 43
0.0000000001
 40
0.0
 40
0.0
 40
0.0
 40
0.1717819738134855
 40
0.1717819738134855
 40
0.343563947626971
 40
0.343563947626971
 40
0.343563947626971
 10
37.95973248717549
 20
11.23597658348235
 30
0.0
 41
1.0
 10
37.86913574983345
 20
11.23596297250521
 30
0.0
 41
0.9238778425203193
 10
37.80506512381794
 20
11.30001548131055
 30
0.0
 41
1.0
 10
37.74099449780243
 20
11.36406799011588
 30
0.0
 41
0.9238778425203193
 10
37.74098249552122
 20
11.45470744358629
 30
0.0
 41
1.0
  0
SPLINE
  5
6E
330
1F
100
AcDbEntity
  8
Default
100
AcDbSpline
210
0.0
220
0.0
230
1.0
 70
     8
 71
     3
 72
    11
 73
     7
 74
     0
 42
0.0000000001
 43
0.0000000001
 40
-0.6923244433759334
 40
-0.6923244433759334
 40
-0.6923244433759334
 40
-0.6923244433759334
 40
-0.4552812475966863
 40
-0.384497341986419
 40
-0.2824629699385423
 40
0.0
 40
0.0
 40
0.0
 40
0.0
 10
37.74098249552122
 20
11.45470744358629
 30
0.0
 10
37.73910580844365
 20
11.53584121994334
 30
0.0
 10
37.80277598080038
 20
11.63113167107209
 30
0.0
 10
37.92963516543102
 20
11.68428107348924
 30
0.0
 10
38.07329231350668
 20
11.73198281140984
 30
0.0
 10
38.19915900631919
 20
11.75950213171444
 30
0.0
 10
38.2910287500121
 20
11.77914463824212
 30
0.0
  0
SPLINE
  5
6F
330
1F
100
AcDbEntity
  8
Default
100
AcDbSpline
210
0.0
220
0.0
230
1.0
 70
    12
 71
     2
 72
     6
 73
     3
 74
     0
 42
0.0000000001
 43
0.0000000001
 40
-2.549388596132513
 40
-2.549388596132513
 40
-2.549388596132513
 40
0.0
 40
0.0
 40
0.0
 10
38.2910287500121
 20
11.77914463824212
 30
0.0
 41
1.0
 10
39.57549706711364
 20
12.03994323602687
 30
0.0
 41
0.9962671304741558
 10
40.76543980359667
 20
12.50578481718578
 30
0.0
 41
1.0
  0
SPLINE
  5
70
330
1F
100
AcDbEntity
  8
Default
100
AcDbSpline
210
0.0
220
0.0
230
1.0
 70
     8
 71
     3
 72
     8
 73
     4
 74
     0
 42
0.0000000001
 43
0.0000000001
 40
0.0
 40
0.0
 40
0.0
 40
0.0
 40
1.0
 40
1.0
 40
1.0
 40
1.0
 10
40.76543980359667
 20
12.50578481718578
 30
0.0
 10
41.02629125841867
 20
12.60790355822792
 30
0.0
 10
41.37938040314893
 20
12.55670018904231
 30
0.0
 10
41.59626771310887
 20
12.37941055727236
 30
0.0
  0
SPLINE
  5
71
330
1F
100
AcDbEntity
  8
Default
100
AcDbSpline
210
0.0
220
0.0
230
1.0
 70
    12
 71
     2
 72
     6
 73
     3
 74
     0
 42
0.0000000001
 43
0.0000000001
 40
-0.6920571584047958
 40
-0.6920571584047958
 40
-0.6920571584047958
 40
0.0
 40
0.0
 40
0.0
 10
41.59626771310887
 20
12.37941055727236
 30
0.0
 41
1.0
 10
41.87353129342193
 20
12.15276770727804
 30
0.0
 41
0.9501587101388346
 10
41.96298022630035
 20
11.80458501807744
 30
0.0
 41
1.0
  0
SPLINE
  5
72
330
1F
100
AcDbEntity
  8
Default
100
AcDbSpline
210
0.0
220
0.0
230
1.0
 70
    24
 71
     2
 72
     6
 73
     3
 74
     0
 42
0.0000000001
 43
0.0000000001
 40
-10.4191782813946
 40
-10.4191782813946
 40
-10.4191782813946
 40
0.0
 40
0.0
 40
0.0
 10
41.96298022630035
 20
11.80458501807744
 30
0.0
 10
43.31800305035672
 20
6.77287462359081
 30
0.0
 10
44.67302587441309
 20
1.741164229104183
 30
0.0
  0
SPLINE
  5
73
330
1F
100
AcDbEntity
  8
Default
100
AcDbSpline
210
0.0
220
0.0
230
1.0
 70
     8
 71
     3
 72
    11
 73
     7
 74
     0
 42
0.0000000001
 43
0.0000000001
 40
-1.726404297546127
 40
-1.726404297546127
 40
-1.726404297546127
 40
-1.726404297546127
 40
-0.838716792329123
 40
-0.4044932505427863
 40
-0.1969251035520202
 40
0.0
 40
0.0
 40
0.0
 40
0.0
 10
44.67302587441309
 20
1.741164229104183
 30
0.0
 10
44.75007625534623
 20
1.454201412764787
 30
0.0
 10
44.7293352381817
 20
0.9921833407259197
 30
0.0
 10
44.46936479935962
 20
0.5445698325663991
 30
0.0
 10
44.2657245966715
 20
0.3506491829157447
 30
0.0
 10
44.15158129724674
 20
0.2779617928821737
 30
0.0
 10
44.09280869150779
 20
0.2486095729242301
 30
0.0
  0
SPLINE
  5
74
330
1F
100
AcDbEntity
  8
Default
100
AcDbSpline
210
0.0
220
0.0
230
1.0
 70
     8
 71
     3
 72
     8
 73
     4
 74
     0
 42
0.0000000001
 43
0.0000000001
 40
-1.0
 40
-1.0
 40
-1.0
 40
-1.0
 40
0.0
 40
0.0
 40
0.0
 40
0.0
 10
44.09280869150779
 20
0.2486095729242301
 30
0.0
 10
43.96471572768859
 20
0.1846373736008588
 30
0.0
 10
43.81762984046973
 20
0.1512500000000062
 30
0.0
 10
43.67445075796724
 20
0.1512500000000063
 30
0.0
  0
LINE
  5
75
330
1F
100
AcDbEntity
  8
Default
100
AcDbLine
 10
43.67445075796724
 20
0.1512500000000063
 30
0.0
 11
43.18652998651714
 21
0.1512499999999969
 31
0.0
  0
SPLINE
  5
76
330
1F
100
AcDbEntity
  8
Make2D visible lines
100
AcDbSpline
210
0.0
220
0.0
230
1.0
 70
     8
 71
     3
 72
    13
 73
     9
 74
     0
 42
0.0000000001
 43
0.0000000001
 40
0.0
 40
0.0
 40
0.0
 40
0.0
 40
0.0645918922571933
 40
0.127569144864081
 40
0.2513808316523651
 40
0.3175277900059248
 40
0.3207867867362607
 40
0.7170587281926446
 40
0.7170587281926446
 40
0.7170587281926446
 40
0.7170587281926446
 10
33.18128655285277
 20
0.346385892231618
 30
0.0
 10
33.18365885360276
 20
0.3249450831641772
 30
0.0
 10
33.19458878339043
 20
0.2834954290521402
 30
0.0
 10
33.23845690141292
 20
0.210892073592651
 30
0.0
 10
33.31105246087122
 20
0.1618325785058019
 30
0.0
 10
33.37540902038351
 20
0.1512648036215163
 30
0.0
 10
33.53062396627021
 20
0.1512126780757154
 30
0.0
 10
33.66381553373562
 20
0.1512801696995873
 30
0.0
 10
33.8016374762534
 20
0.1512499974492805
 30
0.0
  0
SPLINE
  5
77
330
1F
100
AcDbEntity
  8
Make2D visible lines
100
AcDbSpline
210
0.0
220
0.0
230
1.0
 70
    24
 71
     2
 72
     6
 73
     3
 74
     0
 42
0.0000000001
 43
0.0000000001
 40
0.0
 40
0.0
 40
0.0
 40
7.66562781082844
 40
7.66562781082844
 40
7.66562781082844
 10
33.8016374762534
 20
0.1512499974492805
 30
0.0
 10
37.63732031785993
 20
0.1512499987246438
 30
0.0
 10
41.47300315946647
 20
0.151250000000007
 30
0.0
  0
SPLINE
  5
78
330
1F
100
AcDbEntity
  8
Make2D visible lines
100
AcDbSpline
210
0.0
220
0.0
230
1.0
 70
     8
 71
     3
 72
    11
 73
     7
 74
     0
 42
0.0000000001
 43
0.0000000001
 40
0.0
 40
0.0
 40
0.0
 40
0.0
 40
0.4159378345350481
 40
0.4818392722098486
 40
0.61768497100472
 40
0.752773533095209
 40
0.752773533095209
 40
0.752773533095209
 40
0.752773533095209
 10
32.5499259367829
 20
0.1512500000556773
 30
0.0
 10
32.6884717204269
 20
0.1583451110739899
 30
0.0
 10
32.84932489694478
 20
0.1414917295164001
 30
0.0
 10
33.05496984067634
 20
0.1588010538891932
 30
0.0
 10
33.14960087711021
 20
0.237433514730164
 30
0.0
 10
33.17927625463201
 20
0.3215601154978443
 30
0.0
 10
33.17947634530914
 20
0.3683607840883141
 30
0.0
  0
SPLINE
  5
79
330
1F
100
AcDbEntity
  8
Make2D visible lines
100
AcDbSpline
210
0.0
220
0.0
230
1.0
 70
    12
 71
     2
 72
     6
 73
     3
 74
     0
 42
0.0000000001
 43
0.0000000001
 40
0.0
 40
0.0
 40
0.0
 40
0.0069107903204605
 40
0.0069107903204605
 40
0.0069107903204605
 10
31.02510084461779
 20
11.01743659990862
 30
0.0
 41
1.0
 10
31.02578903333955
 20
11.02082306390346
 30
0.0
 41
0.9998752443302995
 10
31.02636991066183
 20
11.02422957584995
 30
0.0
 41
1.0
  0
POLYLINE
  5
7A
330
1F
100
AcDbEntity
  8
Default
100
AcDb2dPolyline
 66
     1
 10
0.0
 20
0.0
 30
0.0
  0
VERTEX
  5
7B
330
7A
100
AcDbEntity
  8
Default
100
AcDbVertex
100
AcDb2dVertex
 10
1.923810503571637
 20
0.1525787539957797
 30
0.0
  0
VERTEX
  5
7C
330
7A
100
AcDbEntity
  8
Default
100
AcDbVertex
100
AcDb2dVertex
 10
-1.923810503566337
 20
0.1525787539957797
 30
0.0
  0
SEQEND
  5
7D
330
7A
100
AcDbEntity
  8
Default
  0
POLYLINE
  5
7E
330
1F
100
AcDbEntity
  8
Default
100
AcDb2dPolyline
 66
     1
 10
0.0
 20
0.0
 30
0.0
  0
VERTEX
  5
7F
330
7E
100
AcDbEntity
  8
Default
100
AcDbVertex
100
AcDb2dVertex
 10
-1.943490577741672
 20
0.588749999963412
 30
0.0
  0
VERTEX
  5
80
330
7E
100
AcDbEntity
  8
Default
100
AcDbVertex
100
AcDb2dVertex
 10
1.943490577746973
 20
0.588749999963412
 30
0.0
  0
SEQEND
  5
81
330
7E
100
AcDbEntity
  8
Default
  0
SPLINE
  5
82
330
1F
100
AcDbEntity
  8
Make2D visible lines
100
AcDbSpline
210
0.0
220
0.0
230
1.0
 70
     8
 71
     3
 72
    12
 73
     8
 74
     0
 42
0.0000000001
 43
0.0000000001
 40
0.0
 40
0.0
 40
0.0
 40
0.0
 40
0.1045449495724591
 40
0.2148937681762403
 40
0.5007879948566512
 40
0.8561420073208538
 40
1.264081239529036
 40
1.264081239529036
 40
1.264081239529036
 40
1.264081239529036
 10
8.246604095512172
 20
0.5946423465464109
 30
0.0
 10
8.280550316408924
 20
0.6020719707281382
 30
0.0
 10
8.34784910936541
 20
0.6310631011182968
 30
0.0
 10
8.463624316938333
 20
0.7555571056216934
 30
0.0
 10
8.547639076535454
 20
0.9968449928249623
 30
0.0
 10
8.563302174806221
 20
1.348128394503139
 30
0.0
 10
8.521299246645253
 20
1.600551821673184
 30
0.0
 10
8.487381968543758
 20
1.732138477176544
 30
0.0
  0
SPLINE
  5
83
330
1F
100
AcDbEntity
  8
Make2D visible lines
100
AcDbSpline
210
0.0
220
0.0
230
1.0
 70
    24
 71
     2
 72
     6
 73
     3
 74
     0
 42
0.0000000001
 43
0.0000000001
 40
0.0
 40
0.0
 40
0.0
 40
10.18306939563208
 40
10.18306939563208
 40
10.18306939563208
 10
8.487381968543758
 20
1.732138477176544
 30
0.0
 10
7.196624356160446
 20
6.664279276977405
 30
0.0
 10
5.905866743777134
 20
11.59642007677827
 30
0.0
  0
LINE
  5
84
330
1F
100
AcDbEntity
  8
Make2D visible lines
100
AcDbLine
 10
6.313222426886018
 20
11.76790423380818
 30
0.0
 11
8.908927380989105
 21
1.849471051043777
 31
0.0
  0
SPLINE
  5
85
330
1F
100
AcDbEntity
  8
Make2D visible lines
100
AcDbSpline
210
0.0
220
0.0
230
1.0
 70
     8
 71
     3
 72
    11
 73
     7
 74
     0
 42
0.0000000001
 43
0.0000000001
 40
0.0
 40
0.0
 40
0.0
 40
0.0
 40
0.1808079666173053
 40
0.3573749741682617
 40
0.6971779454963127
 40
1.284847912810405
 40
1.284847912810405
 40
1.284847912810405
 40
1.284847912810405
 10
8.908927380989105
 20
1.849471051043777
 30
0.0
 10
8.924896261509293
 20
1.787942529339398
 30
0.0
 10
8.951101138419556
 20
1.671789227455212
 30
0.0
 10
8.98617775955389
 20
1.441694512673601
 30
0.0
 10
9.002700310660767
 20
1.073539047268699
 30
0.0
 10
8.941866848536339
 20
0.7646989773466698
 30
0.0
 10
8.85377659937533
 20
0.5887500000162448
 30
0.0
  0
SPLINE
  5
86
330
1F
100
AcDbEntity
  8
Default
100
AcDbSpline
210
0.0
220
0.0
230
1.0
 70
    12
 71
     2
 72
     6
 73
     3
 74
     0
 42
0.0000000001
 43
0.0000000001
 40
-0.211553587540477
 40
-0.211553587540477
 40
-0.211553587540477
 40
0.0
 40
0.0
 40
0.0
 10
6.502477518359122
 20
0.1525787539958214
 30
0.0
 41
1.0
 10
6.539067175211725
 20
0.0438962250914205
 30
0.0
 41
0.8875534162529749
 10
6.649005203126084
 20
0.0112722293835135
 30
0.0
 41
1.0
  0
SPLINE
  5
87
330
1F
100
AcDbEntity
  8
Default
100
AcDbSpline
210
0.0
220
0.0
230
1.0
 70
     8
 71
     3
 72
     8
 73
     4
 74
     0
 42
0.0000000001
 43
0.0000000001
 40
0.0
 40
0.0
 40
0.0
 40
0.0
 40
1.0
 40
1.0
 40
1.0
 40
1.0
 10
6.649005203126084
 20
0.0112722293835135
 30
0.0
 10
6.672607570326388
 20
0.0042682514074945
 30
0.0
 10
6.697379272188556
 20
0.0000000000000027
 30
0.0
 10
6.721998927851185
 20
0.0000000000000036
 30
0.0
  0
LINE
  5
88
330
1F
100
AcDbEntity
  8
Default
100
AcDbLine
 10
6.721998927851185
 20
0.0000000000000036
 30
0.0
 11
7.452311446704272
 21
0.0000000000000299
 31
0.0
  0
ARC
  5
89
330
1F
100
AcDbEntity
  8
Default
100
AcDbCircle
 10
-8.59618659594
 20
0.2238598264421936
 30
0.0
 40
0.2224166428770481
100
AcDbArc
 50
198.6922236255341
 51
258.2725353600697
  0
ARC
  5
8A
330
1F
100
AcDbEntity
  8
Default
100
AcDbCircle
 10
-8.575820583580455
 20
0.3219667312215891
 30
0.0
 40
0.3226151419916679
100
AcDbArc
 50
258.2725353600695
 51
267.206766273397
  0
SPLINE
  5
8B
330
1F
100
AcDbEntity
  8
Default
100
AcDbSpline
210
0.0
220
0.0
230
1.0
 70
    12
 71
     3
 72
    35
 73
    31
 74
     0
 42
0.0000000001
 43
0.0000000001
 40
0.0
 40
0.0
 40
0.0
 40
0.0
 40
0.9122513769519713
 40
0.9122513769519713
 40
0.9122513769519713
 40
1.912251376951971
 40
1.912251376951971
 40
1.912251376951971
 40
2.082430706518049
 40
2.082430706518049
 40
2.082430706518049
 40
2.245705597085521
 40
2.245705597085521
 40
2.245705597085521
 40
3.245705597085521
 40
3.245705597085521
 40
3.245705597085521
 40
4.168715527706236
 40
4.168715527706236
 40
4.168715527706236
 40
5.168715527706236
 40
5.168715527706236
 40
5.168715527706236
 40
5.304502684826552
 40
5.304502684826552
 40
5.304502684826552
 40
5.485477739033714
 40
5.485477739033714
 40
5.485477739033714
 40
5.546420283634844
 40
5.546420283634844
 40
5.546420283634844
 40
5.546420283634844
 10
-8.591542205542737
 20
-0.0002651114711826
 30
0.0
 41
1.0
 10
-8.060479031333617
 20
0.0000000000000023
 30
0.0
 41
1.0
 10
-7.756395239016296
 20
0.0000000000000012
 30
0.0
 41
1.0
 10
-7.452311446698971
 20
0.0
 30
0.0
 41
1.0
 10
-7.35746656496072
 20
-0.0000000000000004
 30
0.0
 41
1.0
 10
-7.238438515071365
 20
0.0810182739360133
 30
0.0
 41
1.0
 10
-7.228198027044499
 20
0.1753086976115603
 30
0.0
 41
1.0
 10
-7.222072356984127
 20
0.2317114807381092
 30
0.0
 41
0.9997177881689924
 10
-7.217160811103144
 20
0.2964983093396986
 30
0.0
 41
0.9997177881689924
 10
-7.213467547690616
 20
0.3696143325877538
 30
0.0
 41
1.0
 10
-7.213431922112052
 20
0.4260478234631951
 30
0.0
 41
0.9308066682344033
 10
-7.238435587153829
 20
0.4766398870310019
 30
0.0
 41
0.9308066682344033
 10
-7.28328828214417
 20
0.5108886229737142
 30
0.0
 41
1.0
 10
-7.305571695375434
 20
0.5279038488330348
 30
0.0
 41
1.0
 10
-7.334163622205661
 20
0.5400000000000098
 30
0.0
 41
1.0
 10
-7.362200533880788
 20
0.5400000000000098
 30
0.0
 41
1.0
 10
-7.669870510754361
 20
0.5400000000000102
 30
0.0
 41
1.0
 10
-7.977540487627934
 20
0.5400000000000108
 30
0.0
 41
1.0
 10
-8.285210464501503
 20
0.5400000000000112
 30
0.0
 41
1.0
 10
-8.326839319245622
 20
0.5400000000000114
 30
0.0
 41
1.0
 10
-8.392541108511754
 20
0.526877196620711
 30
0.0
 41
1.0
 10
-8.397605637993095
 20
0.4855575634127614
 30
0.0
 41
1.0
 10
-8.40311360714462
 20
0.4406200690413195
 30
0.0
 41
0.9994962782114493
 10
-8.406873931081783
 20
0.3954569479266211
 30
0.0
 41
0.9994962782114493
 10
-8.408880927333279
 20
0.3501364490130996
 30
0.0
 41
1.0
 10
-8.41217014042476
 20
0.2884254997444136
 30
0.0
 41
0.955925473531078
 10
-8.437334393463482
 20
0.2319459535361545
 30
0.0
 41
0.955925473531078
 10
-8.481046378839565
 20
0.188165738151248
 30
0.0
 41
1.0
 10
-8.494124661709257
 20
0.1733188843989754
 30
0.0
 41
0.9572798549558303
 10
-8.51005888699122
 20
0.1610610832498368
 30
0.0
 41
0.9278642387305256
 10
-8.528524440888326
 20
0.1523791424077525
 30
0.0
 41
0.9117531513240855
  0
SPLINE
  5
8C
330
1F
100
AcDbEntity
  8
Default
100
AcDbSpline
210
0.0
220
0.0
230
1.0
 70
    24
 71
     2
 72
     6
 73
     3
 74
     0
 42
0.0000000001
 43
0.0000000001
 40
-0.3601265109904084
 40
-0.3601265109904084
 40
-0.3601265109904084
 40
0.0
 40
0.0
 40
0.0
 10
-8.528524440888326
 20
0.1523791424077525
 30
0.0
 10
-8.708635953144636
 20
0.1524789482018744
 30
0.0
 10
-8.888747465400947
 20
0.1525787539959964
 30
0.0
  0
SPLINE
  5
8D
330
1F
100
AcDbEntity
  8
Default
100
AcDbSpline
210
0.0
220
0.0
230
1.0
 70
     8
 71
     3
 72
     8
 73
     4
 74
     0
 42
0.0000000001
 43
0.0000000001
 40
-1.0
 40
-1.0
 40
-1.0
 40
-1.0
 40
0.0
 40
0.0
 40
0.0
 40
0.0
 10
-8.888747465400947
 20
0.1525787539959964
 30
0.0
 10
-8.920978778481324
 20
0.1525787539960002
 30
0.0
 10
-8.953390982860348
 20
0.1525183932655625
 30
0.0
 10
-8.985355302735641
 20
0.1566584171538156
 30
0.0
  0
SPLINE
  5
8E
330
1F
100
AcDbEntity
  8
Default
100
AcDbSpline
210
0.0
220
0.0
230
1.0
 70
     8
 71
     3
 72
    12
 73
     8
 74
     0
 42
0.0000000001
 43
0.0000000001
 40
-1.882643585528527
 40
-1.882643585528527
 40
-1.882643585528527
 40
-1.882643585528527
 40
-1.503763677712677
 40
-1.061032220590192
 40
-0.5456832805761264
 40
-0.2765128888932682
 40
0.0
 40
0.0
 40
0.0
 40
0.0
 10
-8.985355302735641
 20
0.1566584171538156
 30
0.0
 10
-9.111465104168264
 20
0.1729921790643102
 30
0.0
 10
-9.361862337321163
 20
0.3099004743505681
 30
0.0
 10
-9.604676447760212
 20
0.6956934905061424
 30
0.0
 10
-9.697526439842513
 20
1.09725276203288
 30
0.0
 10
-9.708375353893171
 20
1.452224519479913
 30
0.0
 10
-9.687618172947843
 20
1.633030989492872
 30
0.0
 10
-9.670621564679742
 20
1.72375537629401
 30
0.0
  0
SPLINE
  5
8F
330
1F
100
AcDbEntity
  8
Default
100
AcDbSpline
210
0.0
220
0.0
230
1.0
 70
    12
 71
     3
 72
    26
 73
    22
 74
     0
 42
0.0000000001
 43
0.0000000001
 40
-23.82068071894498
 40
-23.82068071894498
 40
-23.82068071894498
 40
-23.82068071894498
 40
-13.58928802782913
 40
-13.58928802782913
 40
-13.58928802782913
 40
-12.58928802782913
 40
-11.58928802782913
 40
-10.58928802782913
 40
-9.589288027829125
 40
-8.589288027829125
 40
-8.589288027829125
 40
-8.589288027829125
 40
-6.749838568985957
 40
-6.749838568985957
 40
-6.749838568985957
 40
-5.749838568985957
 40
-4.749838568985957
 40
-3.749838568985957
 40
-3.749838568985957
 40
-3.749838568985957
 40
0.0
 40
0.0
 40
0.0
 40
0.0
 10
-9.670621564679742
 20
1.72375537629401
 30
0.0
 41
1.0
 10
-9.031489312747638
 20
5.089847101776663
 30
0.0
 41
1.0
 10
-8.394561247918322
 20
8.444329854237838
 30
0.0
 41
1.0
 10
-7.757633183089009
 20
11.79881260669901
 30
0.0
 41
1.0
 10
-7.739396228434174
 20
11.89090412116827
 30
0.0
 41
1.0
 10
-7.686826324959398
 20
12.07212813714344
 30
0.0
 41
1.0
 10
-7.549800235371851
 20
12.32091656899396
 30
0.0
 41
1.0
 10
-7.338972542431033
 20
12.51593629715272
 30
0.0
 41
1.0
 10
-7.056989612822196
 20
12.59432727921582
 30
0.0
 41
1.0
 10
-6.871231658240543
 20
12.53303486293809
 30
0.0
 41
1.0
 10
-6.789607031626787
 20
12.48794463682504
 30
0.0
 41
1.0
 10
-6.252824357134526
 20
12.18891135282014
 30
0.0
 41
0.9957547492158003
 10
-5.677372023588524
 20
11.95000960403209
 30
0.0
 41
0.9957547492158003
 10
-5.070578849399547
 20
11.77428198397008
 30
0.0
 41
1.0
 10
-4.926042872780684
 20
11.74510412946222
 30
0.0
 41
1.0
 10
-4.634383387331349
 20
11.69846325933713
 30
0.0
 41
1.0
 10
-4.192447621785901
 20
11.67189710402615
 30
0.0
 41
1.0
 10
-3.89747405444658
 20
11.66911360858841
 30
0.0
 41
1.0
 10
-3.749919284490332
 20
11.66874999999746
 30
0.0
 41
1.0
 10
-2.499946189659338
 20
11.66874999999737
 30
0.0
 41
1.0
 10
-1.249973094828343
 20
11.66874999999728
 30
0.0
 41
1.0
 10
0.0000000000026503
 20
11.66874999999719
 30
0.0
 41
1.0
  0
SPLINE
  5
90
330
1F
100
AcDbEntity
  8
Default
100
AcDbSpline
210
0.0
220
0.0
230
1.0
 70
    12
 71
     3
 72
    26
 73
    22
 74
     0
 42
0.0000000001
 43
0.0000000001
 40
0.0
 40
0.0
 40
0.0
 40
0.0
 40
3.749838568985957
 40
3.749838568985957
 40
3.749838568985957
 40
4.749838568985957
 40
5.749838568985957
 40
6.749838568985957
 40
6.749838568985957
 40
6.749838568985957
 40
8.589288027829125
 40
8.589288027829125
 40
8.589288027829125
 40
9.589288027829125
 40
10.58928802782913
 40
11.58928802782913
 40
12.58928802782913
 40
13.58928802782913
 40
13.58928802782913
 40
13.58928802782913
 40
23.82068071894498
 40
23.82068071894498
 40
23.82068071894498
 40
23.82068071894498
 10
0.0000000000026503
 20
11.66874999999719
 30
0.0
 41
1.0
 10
1.249973094833644
 20
11.66874999999728
 30
0.0
 41
1.0
 10
2.499946189664639
 20
11.66874999999737
 30
0.0
 41
1.0
 10
3.749919284495633
 20
11.66874999999746
 30
0.0
 41
1.0
 10
3.89747405445188
 20
11.66911360858841
 30
0.0
 41
1.0
 10
4.192447621791201
 20
11.67189710402615
 30
0.0
 41
1.0
 10
4.63438338733665
 20
11.69846325933713
 30
0.0
 41
1.0
 10
4.926042872785985
 20
11.74510412946222
 30
0.0
 41
1.0
 10
5.070578849404848
 20
11.77428198397008
 30
0.0
 41
1.0
 10
5.677372023593824
 20
11.95000960403209
 30
0.0
 41
0.9957547492158003
 10
6.252824357139827
 20
12.18891135282014
 30
0.0
 41
0.9957547492158003
 10
6.789607031632087
 20
12.48794463682504
 30
0.0
 41
1.0
 10
6.871231658245843
 20
12.53303486293809
 30
0.0
 41
1.0
 10
7.056989612827497
 20
12.59432727921582
 30
0.0
 41
1.0
 10
7.338972542436334
 20
12.51593629715272
 30
0.0
 41
1.0
 10
7.549800235377152
 20
12.32091656899396
 30
0.0
 41
1.0
 10
7.686826324964699
 20
12.07212813714344
 30
0.0
 41
1.0
 10
7.739396228439475
 20
11.89090412116827
 30
0.0
 41
1.0
 10
7.75763318309431
 20
11.79881260669901
 30
0.0
 41
1.0
 10
8.394561247923622
 20
8.444329854237838
 30
0.0
 41
1.0
 10
9.031489312752939
 20
5.089847101776663
 30
0.0
 41
1.0
 10
9.670621564685042
 20
1.72375537629401
 30
0.0
 41
1.0
  0
SPLINE
  5
91
330
1F
100
AcDbEntity
  8
Default
100
AcDbSpline
210
0.0
220
0.0
230
1.0
 70
     8
 71
     3
 72
    12
 73
     8
 74
     0
 42
0.0000000001
 43
0.0000000001
 40
0.0
 40
0.0
 40
0.0
 40
0.0
 40
0.2765128888932682
 40
0.5456832805761264
 40
1.061032220590192
 40
1.503763677712677
 40
1.882643585528527
 40
1.882643585528527
 40
1.882643585528527
 40
1.882643585528527
 10
9.670621564685042
 20
1.72375537629401
 30
0.0
 10
9.687618172953144
 20
1.633030989492872
 30
0.0
 10
9.708375353898472
 20
1.452224519479913
 30
0.0
 10
9.697526439847813
 20
1.09725276203288
 30
0.0
 10
9.604676447765513
 20
0.6956934905061424
 30
0.0
 10
9.361862337326464
 20
0.3099004743505681
 30
0.0
 10
9.111465104173565
 20
0.1729921790643102
 30
0.0
 10
8.985355302740942
 20
0.1566584171538156
 30
0.0
  0
SPLINE
  5
92
330
1F
100
AcDbEntity
  8
Default
100
AcDbSpline
210
0.0
220
0.0
230
1.0
 70
     8
 71
     3
 72
     8
 73
     4
 74
     0
 42
0.0000000001
 43
0.0000000001
 40
0.0
 40
0.0
 40
0.0
 40
0.0
 40
1.0
 40
1.0
 40
1.0
 40
1.0
 10
8.985355302740942
 20
0.1566584171538156
 30
0.0
 10
8.953390982865649
 20
0.1525183932655625
 30
0.0
 10
8.920978778486624
 20
0.1525787539960002
 30
0.0
 10
8.888747465406247
 20
0.1525787539959964
 30
0.0
  0
SPLINE
  5
93
330
1F
100
AcDbEntity
  8
Default
100
AcDbSpline
210
0.0
220
0.0
230
1.0
 70
    24
 71
     2
 72
     6
 73
     3
 74
     0
 42
0.0000000001
 43
0.0000000001
 40
0.0
 40
0.0
 40
0.0
 40
0.3601265109904084
 40
0.3601265109904084
 40
0.3601265109904084
 10
8.888747465406247
 20
0.1525787539959964
 30
0.0
 10
8.708635953149937
 20
0.1524789482018744
 30
0.0
 10
8.528524440893626
 20
0.1523791424077525
 30
0.0
  0
SPLINE
  5
94
330
1F
100
AcDbEntity
  8
Default
100
AcDbSpline
210
0.0
220
0.0
230
1.0
 70
    12
 71
     3
 72
    35
 73
    31
 74
     0
 42
0.0000000001
 43
0.0000000001
 40
-5.546420283634844
 40
-5.546420283634844
 40
-5.546420283634844
 40
-5.546420283634844
 40
-5.485477739033714
 40
-5.485477739033714
 40
-5.485477739033714
 40
-5.304502684826552
 40
-5.304502684826552
 40
-5.304502684826552
 40
-5.168715527706236
 40
-5.168715527706236
 40
-5.168715527706236
 40
-4.168715527706236
 40
-4.168715527706236
 40
-4.168715527706236
 40
-3.245705597085521
 40
-3.245705597085521
 40
-3.245705597085521
 40
-2.245705597085521
 40
-2.245705597085521
 40
-2.245705597085521
 40
-2.082430706518049
 40
-2.082430706518049
 40
-2.082430706518049
 40
-1.912251376951971
 40
-1.912251376951971
 40
-1.912251376951971
 40
-0.9122513769519713
 40
-0.9122513769519713
 40
-0.9122513769519713
 40
0.0
 40
0.0
 40
0.0
 40
0.0
 10
8.528524440893626
 20
0.1523791424077525
 30
0.0
 41
0.9117531513240855
 10
8.510058886996521
 20
0.1610610832498368
 30
0.0
 41
0.9278642387305256
 10
8.49412466171456
 20
0.1733188843989754
 30
0.0
 41
0.9572798549558303
 10
8.481046378844866
 20
0.188165738151248
 30
0.0
 41
1.0
 10
8.437334393468781
 20
0.2319459535361545
 30
0.0
 41
0.955925473531078
 10
8.412170140430058
 20
0.2884254997444136
 30
0.0
 41
0.955925473531078
 10
8.40888092733858
 20
0.3501364490130996
 30
0.0
 41
1.0
 10
8.406873931087084
 20
0.3954569479266211
 30
0.0
 41
0.9994962782114493
 10
8.40311360714992
 20
0.4406200690413195
 30
0.0
 41
0.9994962782114493
 10
8.397605637998396
 20
0.4855575634127614
 30
0.0
 41
1.0
 10
8.392541108517054
 20
0.526877196620711
 30
0.0
 41
1.0
 10
8.326839319250922
 20
0.5400000000000114
 30
0.0
 41
1.0
 10
8.285210464506804
 20
0.5400000000000112
 30
0.0
 41
1.0
 10
7.977540487633235
 20
0.5400000000000108
 30
0.0
 41
1.0
 10
7.669870510759662
 20
0.5400000000000102
 30
0.0
 41
1.0
 10
7.362200533886089
 20
0.5400000000000098
 30
0.0
 41
1.0
 10
7.334163622210962
 20
0.5400000000000098
 30
0.0
 41
1.0
 10
7.305571695380735
 20
0.5279038488330348
 30
0.0
 41
1.0
 10
7.283288282149471
 20
0.5108886229737142
 30
0.0
 41
1.0
 10
7.238435587159128
 20
0.4766398870310019
 30
0.0
 41
0.9308066682344033
 10
7.213431922117351
 20
0.4260478234631951
 30
0.0
 41
0.9308066682344033
 10
7.213467547695917
 20
0.3696143325877538
 30
0.0
 41
1.0
 10
7.217160811108446
 20
0.2964983093396986
 30
0.0
 41
0.9997177881689924
 10
7.222072356989427
 20
0.2317114807381092
 30
0.0
 41
0.9997177881689924
 10
7.2281980270498
 20
0.1753086976115603
 30
0.0
 41
1.0
 10
7.238438515076666
 20
0.0810182739360133
 30
0.0
 41
1.0
 10
7.357466564966021
 20
-0.0000000000000004
 30
0.0
 41
1.0
 10
7.452311446704272
 20
0.0
 30
0.0
 41
1.0
 10
7.756395239021597
 20
0.0000000000000012
 30
0.0
 41
1.0
 10
8.060479031338918
 20
0.0000000000000023
 30
0.0
 41
1.0
 10
8.591542205548038
 20
-0.0002651114711826
 30
0.0
 41
1.0
  0
ARC
  5
95
330
1F
100
AcDbEntity
  8
Default
100
AcDbCircle
 10
8.575820583585756
 20
0.3219667312215891
 30
0.0
 40
0.3226151419916679
100
AcDbArc
 50
272.7932337266029
 51
281.7274646399305
  0
ARC
  5
96
330
1F
100
AcDbEntity
  8
Default
100
AcDbCircle
 10
8.596186595945301
 20
0.2238598264421936
 30
0.0
 40
0.2224166428770481
100
AcDbArc
 50
281.7274646399303
 51
341.3077763744659
  0
SPLINE
  5
97
330
1F
100
AcDbEntity
  8
Default
100
AcDbSpline
210
0.0
220
0.0
230
1.0
 70
    24
 71
     2
 72
     6
 73
     3
 74
     0
 42
0.0000000001
 43
0.0000000001
 40
0.0
 40
0.0
 40
0.0
 40
5.309158539051804
 40
5.309158539051804
 40
5.309158539051804
 10
-7.232969042618141
 20
0.1525787539958415
 30
0.0
 10
-4.578389773092239
 20
0.1525787539958106
 30
0.0
 10
-1.923810503566337
 20
0.1525787539957797
 30
0.0
  0
SPLINE
  5
98
330
1F
100
AcDbEntity
  8
Default
100
AcDbSpline
210
0.0
220
0.0
230
1.0
 70
    12
 71
     2
 72
     8
 73
     5
 74
     0
 42
0.0000000001
 43
0.0000000001
 40
0.0
 40
0.0
 40
0.0
 40
0.3167097645631024
 40
0.3167097645631024
 40
0.605160883947577
 40
0.605160883947577
 40
0.605160883947577
 10
-1.923810503566337
 20
0.1525787539957797
 30
0.0
 41
1.0
 10
-1.73459107258021
 20
0.2012120727525021
 30
0.0
 41
0.7386023741328179
 10
-1.765790675435264
 20
0.3940741414381114
 30
0.0
 41
1.0
 10
-1.767734106779069
 20
0.5707402431660344
 30
0.0
 41
0.7459465885243229
 10
-1.943490577741672
 20
0.588749999963412
 30
0.0
 41
0.9999999930443638
  0
POLYLINE
  5
99
330
1F
100
AcDbEntity
  8
Default
100
AcDb2dPolyline
 66
     1
 10
0.0
 20
0.0
 30
0.0
  0
VERTEX
  5
9A
330
99
100
AcDbEntity
  8
Default
100
AcDbVertex
100
AcDb2dVertex
 10
-1.943490577741672
 20
0.588749999963412
 30
0.0
  0
VERTEX
  5
9B
330
99
100
AcDbEntity
  8
Default
100
AcDbVertex
100
AcDb2dVertex
 10
-8.908422971651042
 20
0.5887499999999743
 30
0.0
  0
SEQEND
  5
9C
330
99
100
AcDbEntity
  8
Default
  0
SPLINE
  5
9D
330
1F
100
AcDbEntity
  8
Default
100
AcDbSpline
210
0.0
220
0.0
230
1.0
 70
     8
 71
     3
 72
    11
 73
     7
 74
     0
 42
0.0000000001
 43
0.0000000001
 40
0.0
 40
0.0
 40
0.0
 40
0.0
 40
0.0845988574993078
 40
0.1984421163829465
 40
0.4958697716758607
 40
1.189939830360232
 40
1.189939830360232
 40
1.189939830360232
 40
1.189939830360232
 10
-8.908422971651042
 20
0.5887499999999743
 30
0.0
 10
-8.937015453675482
 20
0.5888436509776955
 30
0.0
 10
-8.999875571346163
 20
0.6144104622495807
 30
0.0
 10
-9.11814638788088
 20
0.7336114840239678
 30
0.0
 10
-9.271114683673744
 20
1.07437291399231
 30
0.0
 10
-9.281919128889207
 20
1.414252175010208
 30
0.0
 10
-9.240907669108385
 20
1.641580709923929
 30
0.0
  0
SPLINE
  5
9E
330
1F
100
AcDbEntity
  8
Default
100
AcDbSpline
210
0.0
220
0.0
230
1.0
 70
    12
 71
     3
 72
    30
 73
    26
 74
     0
 42
0.0000000001
 43
0.0000000001
 40
-17.8484931894299
 40
-17.8484931894299
 40
-17.8484931894299
 40
-17.8484931894299
 40
-7.615999840475066
 40
-7.615999840475066
 40
-7.615999840475066
 40
-7.52816003568542
 40
-7.445381776445632
 40
-7.297640003543176
 40
-7.1738051283902
 40
-7.091305656952183
 40
-7.091305656952183
 40
-7.091305656952183
 40
-7.0
 40
-7.0
 40
-7.0
 40
-6.0
 40
-5.0
 40
-4.0
 40
-3.0
 40
-2.0
 40
-1.0
 40
0.0
 40
0.0
 40
0.0
 40
3.750000000000004
 40
3.750000000000004
 40
3.750000000000004
 40
3.750000000000004
 10
-9.240907669108385
 20
1.641580709923929
 30
0.0
 41
1.0
 10
-8.601984642009985
 20
5.006568753598065
 30
0.0
 41
1.0
 10
-7.965060421862091
 20
8.361028736880007
 30
0.0
 41
1.0
 10
-7.328136201714198
 20
11.71548872016195
 30
0.0
 41
1.0
 10
-7.322454667446028
 20
11.74420403768131
 30
0.0
 41
1.0
 10
-7.309094107101156
 20
11.79956150224595
 30
0.0
 41
1.0
 10
-7.275956267619204
 20
11.90041419925976
 30
0.0
 41
1.0
 10
-7.224034486267982
 20
12.00722081597929
 30
0.0
 41
1.0
 10
-7.148360556766725
 20
12.09931539010405
 30
0.0
 41
1.0
 10
-7.084624204310717
 20
12.13165304371249
 30
0.0
 41
1.0
 10
-7.056236441000898
 20
12.12811585097298
 30
0.0
 41
1.0
 10
-7.02593021550299
 20
12.12379047909632
 30
0.0
 41
0.9884316066092852
 10
-6.996952262405774
 20
12.11391891757107
 30
0.0
 41
0.9884316066092852
 10
-6.970308266792511
 20
12.09884376071855
 30
0.0
 41
1.0
 10
-6.829531128729148
 20
12.02055637818338
 30
0.0
 41
1.0
 10
-6.543712945106325
 20
11.8718701943614
 30
0.0
 41
1.0
 10
-6.103851757783982
 20
11.67092569413197
 30
0.0
 41
1.0
 10
-5.652272386472159
 20
11.49982142631847
 30
0.0
 41
1.0
 10
-5.194561240719295
 20
11.34014150444726
 30
0.0
 41
1.0
 10
-4.715395276231874
 20
11.26881073540698
 30
0.0
 41
1.0
 10
-4.233343930663601
 20
11.23421136461893
 30
0.0
 41
1.0
 10
-3.911039945280974
 20
11.23178641422753
 30
0.0
 41
1.0
 10
-3.749999999997353
 20
11.23125000000139
 30
0.0
 41
1.0
 10
-2.499999999997351
 20
11.23125000000187
 30
0.0
 41
1.0
 10
-1.249999999997351
 20
11.23125000000235
 30
0.0
 41
1.0
 10
0.0000000000026503
 20
11.23125000000283
 30
0.0
 41
1.0
  0
SPLINE
  5
9F
330
1F
100
AcDbEntity
  8
Default
100
AcDbSpline
210
0.0
220
0.0
230
1.0
 70
    12
 71
     3
 72
    30
 73
    26
 74
     0
 42
0.0000000001
 43
0.0000000001
 40
-3.750000000000004
 40
-3.750000000000004
 40
-3.750000000000004
 40
-3.750000000000004
 40
0.0
 40
0.0
 40
0.0
 40
1.0
 40
2.0
 40
3.0
 40
4.0
 40
5.0
 40
6.0
 40
7.0
 40
7.0
 40
7.0
 40
7.091305656952183
 40
7.091305656952183
 40
7.091305656952183
 40
7.1738051283902
 40
7.297640003543176
 40
7.445381776445632
 40
7.52816003568542
 40
7.615999840475066
 40
7.615999840475066
 40
7.615999840475066
 40
17.8484931894299
 40
17.8484931894299
 40
17.8484931894299
 40
17.8484931894299
 10
0.0000000000026503
 20
11.23125000000283
 30
0.0
 41
1.0
 10
1.250000000002652
 20
11.23125000000235
 30
0.0
 41
1.0
 10
2.500000000002652
 20
11.23125000000187
 30
0.0
 41
1.0
 10
3.750000000002654
 20
11.23125000000139
 30
0.0
 41
1.0
 10
3.911039945286275
 20
11.23178641422753
 30
0.0
 41
1.0
 10
4.233343930668902
 20
11.23421136461893
 30
0.0
 41
1.0
 10
4.715395276237174
 20
11.26881073540698
 30
0.0
 41
1.0
 10
5.194561240724596
 20
11.34014150444726
 30
0.0
 41
1.0
 10
5.65227238647746
 20
11.49982142631847
 30
0.0
 41
1.0
 10
6.103851757789283
 20
11.67092569413197
 30
0.0
 41
1.0
 10
6.543712945111626
 20
11.8718701943614
 30
0.0
 41
1.0
 10
6.829531128734448
 20
12.02055637818338
 30
0.0
 41
1.0
 10
6.970308266797812
 20
12.09884376071855
 30
0.0
 41
1.0
 10
6.996952262411074
 20
12.11391891757107
 30
0.0
 41
0.9884316066092852
 10
7.025930215508291
 20
12.12379047909632
 30
0.0
 41
0.9884316066092852
 10
7.056236441006199
 20
12.12811585097298
 30
0.0
 41
1.0
 10
7.084624204316018
 20
12.13165304371249
 30
0.0
 41
1.0
 10
7.148360556772026
 20
12.09931539010405
 30
0.0
 41
1.0
 10
7.224034486273283
 20
12.00722081597929
 30
0.0
 41
1.0
 10
7.275956267624505
 20
11.90041419925976
 30
0.0
 41
1.0
 10
7.309094107106457
 20
11.79956150224595
 30
0.0
 41
1.0
 10
7.322454667451328
 20
11.74420403768131
 30
0.0
 41
1.0
 10
7.328136201719499
 20
11.71548872016195
 30
0.0
 41
1.0
 10
7.965060421867392
 20
8.361028736880007
 30
0.0
 41
1.0
 10
8.601984642015285
 20
5.006568753598065
 30
0.0
 41
1.0
 10
9.240907669113685
 20
1.641580709923929
 30
0.0
 41
1.0
  0
SPLINE
  5
A0
330
1F
100
AcDbEntity
  8
Default
100
AcDbSpline
210
0.0
220
0.0
230
1.0
 70
     8
 71
     3
 72
    11
 73
     7
 74
     0
 42
0.0000000001
 43
0.0000000001
 40
-1.189939830360232
 40
-1.189939830360232
 40
-1.189939830360232
 40
-1.189939830360232
 40
-0.4958697716758607
 40
-0.1984421163829465
 40
-0.0845988574993078
 40
0.0
 40
0.0
 40
0.0
 40
0.0
 10
9.240907669113685
 20
1.641580709923929
 30
0.0
 10
9.281919128894508
 20
1.414252175010208
 30
0.0
 10
9.271114683679045
 20
1.07437291399231
 30
0.0
 10
9.118146387886181
 20
0.7336114840239678
 30
0.0
 10
8.999875571351463
 20
0.6144104622495807
 30
0.0
 10
8.937015453680782
 20
0.5888436509776955
 30
0.0
 10
8.908422971656343
 20
0.5887499999999743
 30
0.0
  0
POLYLINE
  5
A1
330
1F
100
AcDbEntity
  8
Default
100
AcDb2dPolyline
 66
     1
 10
0.0
 20
0.0
 30
0.0
  0
VERTEX
  5
A2
330
A1
100
AcDbEntity
  8
Default
100
AcDbVertex
100
AcDb2dVertex
 10
8.908422971656343
 20
0.5887499999999743
 30
0.0
  0
VERTEX
  5
A3
330
A1
100
AcDbEntity
  8
Default
100
AcDbVertex
100
AcDb2dVertex
 10
1.943490577746973
 20
0.588749999963412
 30
0.0
  0
SEQEND
  5
A4
330
A1
100
AcDbEntity
  8
Default
  0
SPLINE
  5
A5
330
1F
100
AcDbEntity
  8
Default
100
AcDbSpline
210
0.0
220
0.0
230
1.0
 70
    12
 71
     2
 72
     8
 73
     5
 74
     0
 42
0.0000000001
 43
0.0000000001
 40
-0.605160883947577
 40
-0.605160883947577
 40
-0.605160883947577
 40
-0.3167097645631024
 40
-0.3167097645631024
 40
0.0
 40
0.0
 40
0.0
 10
1.943490577746973
 20
0.588749999963412
 30
0.0
 41
0.9999999930443638
 10
1.76773410678437
 20
0.5707402431660344
 30
0.0
 41
0.7459465885243229
 10
1.765790675440565
 20
0.3940741414381114
 30
0.0
 41
1.0
 10
1.734591072585511
 20
0.2012120727525021
 30
0.0
 41
0.7386023741328179
 10
1.923810503571637
 20
0.1525787539957797
 30
0.0
 41
1.0
  0
SPLINE
  5
A6
330
1F
100
AcDbEntity
  8
Default
100
AcDbSpline
210
0.0
220
0.0
230
1.0
 70
    24
 71
     2
 72
     6
 73
     3
 74
     0
 42
0.0000000001
 43
0.0000000001
 40
-5.309158539051804
 40
-5.309158539051804
 40
-5.309158539051804
 40
0.0
 40
0.0
 40
0.0
 10
1.923810503571637
 20
0.1525787539957797
 30
0.0
 10
4.578389773097539
 20
0.1525787539958106
 30
0.0
 10
7.232969042623441
 20
0.1525787539958415
 30
0.0
  0
SPLINE
  5
A7
330
1F
100
AcDbEntity
  8
Make2D visible lines
100
AcDbSpline
210
0.0
220
0.0
230
1.0
 70
    12
 71
     2
 72
     6
 73
     3
 74
     0
 42
0.0000000001
 43
0.0000000001
 40
0.0
 40
0.0
 40
0.0
 40
0.6012576679582256
 40
0.6012576679582256
 40
0.6012576679582256
 10
4.938078286857392
 20
11.30375263810943
 30
0.0
 41
1.0
 10
4.685904875097432
 20
11.11119152789185
 30
0.0
 41
0.9924518525083379
 10
4.403383683492304
 20
11.00405581872977
 30
0.0
 41
1.0
  0
SPLINE
  5
A8
330
1F
100
AcDbEntity
  8
Make2D visible lines
100
AcDbSpline
210
0.0
220
0.0
230
1.0
 70
    12
 71
     2
 72
     6
 73
     3
 74
     0
 42
0.0000000001
 43
0.0000000001
 40
0.0
 40
0.0
 40
0.0
 40
1.008606465763914
 40
1.008606465763914
 40
1.008606465763914
 10
4.403383683492304
 20
11.00405581872977
 30
0.0
 41
1.0
 10
3.926853414400399
 20
10.82334934490279
 30
0.0
 41
0.9843578174881131
 10
3.400000000002606
 20
10.84224999999912
 30
0.0
 41
1.0
  0
SPLINE
  5
A9
330
1F
100
AcDbEntity
  8
Make2D visible lines
100
AcDbSpline
210
0.0
220
0.0
230
1.0
 70
    24
 71
     2
 72
     6
 73
     3
 74
     0
 42
0.0000000001
 43
0.0000000001
 40
0.0
 40
0.0
 40
0.0
 40
3.399999999999999
 40
3.399999999999999
 40
3.399999999999999
 10
3.400000000002606
 20
10.84224999999912
 30
0.0
 10
1.700000000002628
 20
10.84224999999748
 30
0.0
 10
0.0000000000026503
 20
10.84224999999585
 30
0.0
  0
SPLINE
  5
AA
330
1F
100
AcDbEntity
  8
Make2D visible lines
100
AcDbSpline
210
0.0
220
0.0
230
1.0
 70
    24
 71
     2
 72
     6
 73
     3
 74
     0
 42
0.0000000001
 43
0.0000000001
 40
-3.399999999999999
 40
-3.399999999999999
 40
-3.399999999999999
 40
0.0
 40
0.0
 40
0.0
 10
0.0000000000026503
 20
10.84224999999585
 30
0.0
 10
-1.699999999997328
 20
10.84224999999748
 30
0.0
 10
-3.399999999997306
 20
10.84224999999912
 30
0.0
  0
SPLINE
  5
AB
330
1F
100
AcDbEntity
  8
Make2D visible lines
100
AcDbSpline
210
0.0
220
0.0
230
1.0
 70
    12
 71
     2
 72
     6
 73
     3
 74
     0
 42
0.0000000001
 43
0.0000000001
 40
-1.008606465763914
 40
-1.008606465763914
 40
-1.008606465763914
 40
0.0
 40
0.0
 40
0.0
 10
-3.399999999997306
 20
10.84224999999912
 30
0.0
 41
1.0
 10
-3.926853414395099
 20
10.82334934490279
 30
0.0
 41
0.9843578174881131
 10
-4.403383683487004
 20
11.00405581872977
 30
0.0
 41
1.0
  0
SPLINE
  5
AC
330
1F
100
AcDbEntity
  8
Make2D visible lines
100
AcDbSpline
210
0.0
220
0.0
230
1.0
 70
    12
 71
     2
 72
     6
 73
     3
 74
     0
 42
0.0000000001
 43
0.0000000001
 40
-0.6012576679582256
 40
-0.6012576679582256
 40
-0.6012576679582256
 40
0.0
 40
0.0
 40
0.0
 10
-4.403383683487004
 20
11.00405581872977
 30
0.0
 41
1.0
 10
-4.685904875092131
 20
11.11119152789185
 30
0.0
 41
0.9924518525083379
 10
-4.938078286852091
 20
11.30375263810943
 30
0.0
 41
1.0
  0
SPLINE
  5
AD
330
1F
100
AcDbEntity
  8
Default
100
AcDbSpline
210
0.0
220
0.0
230
1.0
 70
    12
 71
     2
 72
     6
 73
     3
 74
     0
 42
0.0000000001
 43
0.0000000001
 40
-0.211553587540477
 40
-0.211553587540477
 40
-0.211553587540477
 40
0.0
 40
0.0
 40
0.0
 10
-6.502477518353821
 20
0.1525787539958214
 30
0.0
 41
1.0
 10
-6.539067175206425
 20
0.0438962250914205
 30
0.0
 41
0.8875534162529749
 10
-6.649005203120783
 20
0.0112722293835135
 30
0.0
 41
1.0
  0
SPLINE
  5
AE
330
1F
100
AcDbEntity
  8
Default
100
AcDbSpline
210
0.0
220
0.0
230
1.0
 70
     8
 71
     3
 72
     8
 73
     4
 74
     0
 42
0.0000000001
 43
0.0000000001
 40
0.0
 40
0.0
 40
0.0
 40
0.0
 40
1.0
 40
1.0
 40
1.0
 40
1.0
 10
-6.649005203120783
 20
0.0112722293835135
 30
0.0
 10
-6.672607570321087
 20
0.0042682514074945
 30
0.0
 10
-6.697379272183255
 20
0.0000000000000027
 30
0.0
 10
-6.721998927845885
 20
0.0000000000000036
 30
0.0
  0
LINE
  5
AF
330
1F
100
AcDbEntity
  8
Default
100
AcDbLine
 10
-6.721998927845885
 20
0.0000000000000036
 30
0.0
 11
-7.452311446698971
 21
0.0000000000000299
 31
0.0
  0
LINE
  5
B0
330
1F
100
AcDbEntity
  8
Make2D visible lines
100
AcDbLine
 10
-6.313222426880717
 20
11.76790423380818
 30
0.0
 11
-8.908927380983805
 21
1.849471051043777
 31
0.0
  0
SPLINE
  5
B1
330
1F
100
AcDbEntity
  8
Make2D visible lines
100
AcDbSpline
210
0.0
220
0.0
230
1.0
 70
     8
 71
     3
 72
    11
 73
     7
 74
     0
 42
0.0000000001
 43
0.0000000001
 40
0.0
 40
0.0
 40
0.0
 40
0.0
 40
0.1808079666173053
 40
0.3573749741682617
 40
0.6971779454963127
 40
1.284847912810405
 40
1.284847912810405
 40
1.284847912810405
 40
1.284847912810405
 10
-8.908927380983805
 20
1.849471051043777
 30
0.0
 10
-8.924896261503992
 20
1.787942529339398
 30
0.0
 10
-8.951101138414256
 20
1.671789227455212
 30
0.0
 10
-8.986177759548589
 20
1.441694512673601
 30
0.0
 10
-9.002700310655467
 20
1.073539047268699
 30
0.0
 10
-8.941866848531038
 20
0.7646989773466698
 30
0.0
 10
-8.853776599370029
 20
0.5887500000162448
 30
0.0
  0
SPLINE
  5
B2
330
1F
100
AcDbEntity
  8
Make2D visible lines
100
AcDbSpline
210
0.0
220
0.0
230
1.0
 70
     8
 71
     3
 72
    12
 73
     8
 74
     0
 42
0.0000000001
 43
0.0000000001
 40
0.0
 40
0.0
 40
0.0
 40
0.0
 40
0.1045449495724591
 40
0.2148937681762403
 40
0.5007879948566512
 40
0.8561420073208538
 40
1.264081239529036
 40
1.264081239529036
 40
1.264081239529036
 40
1.264081239529036
 10
-8.246604095506871
 20
0.5946423465464109
 30
0.0
 10
-8.280550316403623
 20
0.6020719707281382
 30
0.0
 10
-8.347849109360109
 20
0.6310631011182968
 30
0.0
 10
-8.463624316933032
 20
0.7555571056216934
 30
0.0
 10
-8.547639076530153
 20
0.9968449928249623
 30
0.0
 10
-8.56330217480092
 20
1.348128394503139
 30
0.0
 10
-8.521299246639952
 20
1.600551821673184
 30
0.0
 10
-8.487381968538457
 20
1.732138477176544
 30
0.0
  0
SPLINE
  5
B3
330
1F
100
AcDbEntity
  8
Make2D visible lines
100
AcDbSpline
210
0.0
220
0.0
230
1.0
 70
    24
 71
     2
 72
     6
 73
     3
 74
     0
 42
0.0000000001
 43
0.0000000001
 40
0.0
 40
0.0
 40
0.0
 40
10.18306939563208
 40
10.18306939563208
 40
10.18306939563208
 10
-8.487381968538457
 20
1.732138477176544
 30
0.0
 10
-7.196624356155145
 20
6.664279276977405
 30
0.0
 10
-5.905866743771833
 20
11.59642007677827
 30
0.0
  0
SPLINE
  5
B4
330
1F
100
AcDbEntity
  8
Default
100
AcDbSpline
210
0.0
220
0.0
230
1.0
 70
     8
 71
     3
 72
    24
 73
    20
 74
     0
 42
0.0000000001
 43
0.0000000001
 40
0.0
 40
0.0
 40
0.0
 40
0.0
 40
1.0
 40
2.0
 40
3.0
 40
4.0
 40
5.0
 40
6.0
 40
7.0
 40
8.0
 40
9.0
 40
10.0
 40
11.0
 40
12.0
 40
13.0
 40
14.0
 40
15.0
 40
16.0
 40
17.0
 40
17.0
 40
17.0
 40
17.0
 10
7.005755374596284
 20
15.33764325305247
 30
0.0
 10
7.245202413423705
 20
15.34010320736249
 30
0.0
 10
7.726774715044014
 20
15.36357724830521
 30
0.0
 10
8.426018377429292
 20
15.54607008389309
 30
0.0
 10
9.081582838574812
 20
15.84994564746409
 30
0.0
 10
9.673111602282562
 20
16.26278621887395
 30
0.0
 10
10.20892581625067
 20
16.74430546371507
 30
0.0
 10
10.70919529172992
 20
17.26187580890025
 30
0.0
 10
11.16965268536916
 20
17.81537622786035
 30
0.0
 10
11.59418385149988
 20
18.39659926424251
 30
0.0
 10
11.98917289678878
 20
18.99818654099212
 30
0.0
 10
12.36160688552658
 20
19.61385650846141
 30
0.0
 10
12.72153576203588
 20
20.2368862314116
 30
0.0
 10
13.06828013665765
 20
20.86737292387811
 30
0.0
 10
13.39625250396084
 20
21.50786239318387
 30
0.0
 10
13.70421307816741
 20
22.15822072732433
 30
0.0
 10
13.98807285649457
 20
22.81950393737268
 30
0.0
 10
14.2430447169298
 20
23.49252847690475
 30
0.0
 10
14.38788815293486
 20
23.95003669677491
 30
0.0
 10
14.45179601745139
 20
24.18120792011355
 30
0.0
  0
SPLINE
  5
B5
330
1F
100
AcDbEntity
  8
Default
100
AcDbSpline
210
0.0
220
0.0
230
1.0
 70
     8
 71
     3
 72
    19
 73
    15
 74
     0
 42
0.0000000001
 43
0.0000000001
 40
-12.0
 40
-12.0
 40
-12.0
 40
-12.0
 40
-11.0
 40
-10.0
 40
-9.0
 40
-8.0
 40
-7.0
 40
-6.0
 40
-5.0
 40
-4.0
 40
-3.0
 40
-2.0
 40
-1.0
 40
0.0
 40
0.0
 40
0.0
 40
0.0
 10
9.510957813972844
 20
16.15408025879688
 30
0.0
 10
9.303812582672101
 20
16.32878518581317
 30
0.0
 10
8.777476892911062
 20
16.46630922042947
 30
0.0
 10
7.992536832560622
 20
16.60518322695156
 30
0.0
 10
7.196422692906073
 20
16.70114920937841
 30
0.0
 10
6.399612544291518
 20
16.77676066856199
 30
0.0
 10
5.601087948561932
 20
16.83655982316822
 30
0.0
 10
4.801900669715047
 20
16.88481408003386
 30
0.0
 10
4.002165018056139
 20
16.92342580058238
 30
0.0
 10
3.202079379295916
 20
16.95366506695475
 30
0.0
 10
2.401745385658407
 20
16.97640911454387
 30
0.0
 10
1.601248018339321
 20
16.99232167841176
 30
0.0
 10
0.8006487750207737
 20
17.0017688346996
 30
0.0
 10
0.2668828846553568
 20
17.00386893458756
 30
0.0
 10
0.0000000036788812
 20
17.00386930826986
 30
0.0
  0
SPLINE
  5
B6
330
1F
100
AcDbEntity
  8
Default
100
AcDbSpline
210
0.0
220
0.0
230
1.0
 70
     8
 71
     3
 72
    19
 73
    15
 74
     0
 42
0.0000000001
 43
0.0000000001
 40
0.0
 40
0.0
 40
0.0
 40
0.0
 40
1.0
 40
2.0
 40
3.0
 40
4.0
 40
5.0
 40
6.0
 40
7.0
 40
8.0
 40
9.0
 40
10.0
 40
11.0
 40
12.0
 40
12.0
 40
12.0
 40
12.0
 10
0.0000000036788812
 20
17.00386930826986
 30
0.0
 10
-0.2668828772975944
 20
17.00386893458756
 30
0.0
 10
-0.8006487676630113
 20
17.0017688346996
 30
0.0
 10
-1.601248010981558
 20
16.99232167841176
 30
0.0
 10
-2.401745378300644
 20
16.97640911454387
 30
0.0
 10
-3.202079371938154
 20
16.95366506695475
 30
0.0
 10
-4.002165010698376
 20
16.92342580058238
 30
0.0
 10
-4.801900662357284
 20
16.88481408003386
 30
0.0
 10
-5.601087941204169
 20
16.83655982316822
 30
0.0
 10
-6.399612536933756
 20
16.77676066856199
 30
0.0
 10
-7.196422685548311
 20
16.70114920937841
 30
0.0
 10
-7.992536825202859
 20
16.60518322695156
 30
0.0
 10
-8.7774768855533
 20
16.46630922042947
 30
0.0
 10
-9.303812575314339
 20
16.32878518581317
 30
0.0
 10
-9.510957806615082
 20
16.15408025879688
 30
0.0
  0
SPLINE
  5
B7
330
1F
100
AcDbEntity
  8
Default
100
AcDbSpline
210
0.0
220
0.0
230
1.0
 70
     8
 71
     3
 72
    11
 73
     7
 74
     0
 42
0.0000000001
 43
0.0000000001
 40
0.0
 40
0.0
 40
0.0
 40
0.0
 40
0.9999786995718987
 40
0.9999786995718987
 40
0.9999786995718987
 40
2.0
 40
2.0
 40
2.0
 40
2.0
 10
-7.264218543382768
 20
14.9165257493923
 30
0.0
 10
-4.844020590337633
 20
14.83049678920524
 30
0.0
 10
-2.421726892406174
 20
14.94173658244007
 30
0.0
 10
-0.0000000000000035
 20
14.94173658244012
 30
0.0
 10
2.421830062242834
 20
14.94173658244012
 30
0.0
 10
4.844226978305823
 20
14.83048731098068
 30
0.0
 10
7.264528248292439
 20
14.91652574939236
 30
0.0
  0
SPLINE
  5
B8
330
1F
100
AcDbEntity
  8
Default
100
AcDbSpline
210
0.0
220
0.0
230
1.0
 70
     8
 71
     3
 72
    24
 73
    20
 74
     0
 42
0.0000000001
 43
0.0000000001
 40
-17.0
 40
-17.0
 40
-17.0
 40
-17.0
 40
-16.0
 40
-15.0
 40
-14.0
 40
-13.0
 40
-12.0
 40
-11.0
 40
-10.0
 40
-9.0
 40
-8.0
 40
-7.0
 40
-6.0
 40
-5.0
 40
-4.0
 40
-3.0
 40
-2.0
 40
-1.0
 40
0.0
 40
0.0
 40
0.0
 40
0.0
 10
7.264528248292439
 20
14.91652574939236
 30
0.0
 10
7.512672878414032
 20
14.92534695555404
 30
0.0
 10
8.009496138860273
 20
14.96664924791459
 30
0.0
 10
8.73159994476946
 20
15.1670186608064
 30
0.0
 10
9.396716773906059
 20
15.50974195744314
 30
0.0
 10
10.00230463625161
 20
15.94818797080485
 30
0.0
 10
10.52728316645268
 20
16.47973097353934
 30
0.0
 10
11.016206507692
 20
17.04232063488702
 30
0.0
 10
11.46655508036914
 20
17.63676451434979
 30
0.0
 10
11.88898979055112
 20
18.25095364304142
 30
0.0
 10
12.28856670999296
 20
18.88027254776769
 30
0.0
 10
12.66950873958517
 20
19.52095266802706
 30
0.0
 10
13.04036164519382
 20
20.16749530001406
 30
0.0
 10
13.40262085620008
 20
20.81891002623542
 30
0.0
 10
13.74786251076711
 20
21.47954808150056
 30
0.0
 10
14.0756727309052
 20
22.14900260325973
 30
0.0
 10
14.38315468045526
 20
22.82806652030767
 30
0.0
 10
14.66628231966859
 20
23.51769594610594
 30
0.0
 10
14.83420887572213
 20
23.98551033423937
 30
0.0
 10
14.91142503832697
 20
24.2216591064327
 30
0.0
  0
SPLINE
  5
B9
330
1F
100
AcDbEntity
  8
Default
100
AcDbSpline
210
0.0
220
0.0
230
1.0
 70
     8
 71
     3
 72
    12
 73
     8
 74
     0
 42
0.0000000001
 43
0.0000000001
 40
0.0
 40
0.0
 40
0.0
 40
0.0
 40
1.0
 40
2.0
 40
3.0
 40
4.0
 40
5.0
 40
5.0
 40
5.0
 40
5.0
 10
14.91142503832697
 20
24.2216591064327
 30
0.0
 10
14.97333240093583
 20
24.41320045308197
 30
0.0
 10
15.09510200282482
 20
24.7968147028769
 30
0.0
 10
15.23557538118716
 20
25.38552034935174
 30
0.0
 10
15.29157206406009
 20
25.98708708064697
 30
0.0
 10
15.16814641026623
 20
26.59923670148716
 30
0.0
 10
14.83418489439116
 20
26.87506521341825
 30
0.0
 10
14.63765481135745
 20
26.92391947441673
 30
0.0
  0
SPLINE
  5
BA
330
1F
100
AcDbEntity
  8
Default
100
AcDbSpline
210
0.0
220
0.0
230
1.0
 70
     8
 71
     3
 72
    19
 73
    15
 74
     0
 42
0.0000000001
 43
0.0000000001
 40
-12.0
 40
-12.0
 40
-12.0
 40
-12.0
 40
-11.0
 40
-10.0
 40
-9.0
 40
-8.0
 40
-7.0
 40
-6.0
 40
-5.0
 40
-4.0
 40
-3.0
 40
-2.0
 40
-1.0
 40
0.0
 40
0.0
 40
0.0
 40
0.0
 10
14.63765481135745
 20
26.92391947441673
 30
0.0
 10
14.24352968175928
 20
27.03225025946337
 30
0.0
 10
13.4429880902595
 20
27.19934035521602
 30
0.0
 10
12.23194428816031
 20
27.39069800264327
 30
0.0
 10
11.01532953641159
 20
27.54223935841959
 30
0.0
 10
9.795990734746864
 20
27.66932042003268
 30
0.0
 10
8.574447794877996
 20
27.77319825060876
 30
0.0
 10
7.351419985560202
 20
27.85750262912909
 30
0.0
 10
6.12737977338357
 20
27.92542446297751
 30
0.0
 10
4.902644960399331
 20
27.97924613881697
 30
0.0
 10
3.677430426611185
 20
28.02062545468437
 30
0.0
 10
2.451903443028373
 20
28.05123604056701
 30
0.0
 10
1.226172758338198
 20
28.07213162013663
 30
0.0
 10
0.4089361394371271
 20
28.07971963013544
 30
0.0
 10
0.0003097049096734
 20
28.08207163763437
 30
0.0
  0
SPLINE
  5
BB
330
1F
100
AcDbEntity
  8
Default
100
AcDbSpline
210
0.0
220
0.0
230
1.0
 70
     8
 71
     3
 72
    19
 73
    15
 74
     0
 42
0.0000000001
 43
0.0000000001
 40
0.0
 40
0.0
 40
0.0
 40
0.0
 40
1.0
 40
2.0
 40
3.0
 40
4.0
 40
5.0
 40
6.0
 40
7.0
 40
8.0
 40
9.0
 40
10.0
 40
11.0
 40
12.0
 40
12.0
 40
12.0
 40
12.0
 10
0.0003097049096734
 20
28.08207163763437
 30
0.0
 10
-0.4083167296177803
 20
28.07971963013544
 30
0.0
 10
-1.225553348518851
 20
28.07213162013663
 30
0.0
 10
-2.451284033209026
 20
28.05123604056701
 30
0.0
 10
-3.676811016791838
 20
28.02062545468437
 30
0.0
 10
-4.902025550579984
 20
27.97924613881697
 30
0.0
 10
-6.126760363564223
 20
27.92542446297751
 30
0.0
 10
-7.350800575740855
 20
27.85750262912909
 30
0.0
 10
-8.573828385058649
 20
27.77319825060876
 30
0.0
 10
-9.795371324927517
 20
27.66932042003268
 30
0.0
 10
-11.01471012659224
 20
27.54223935841959
 30
0.0
 10
-12.23132487834096
 20
27.39069800264327
 30
0.0
 10
-13.44236868044015
 20
27.19934035521602
 30
0.0
 10
-14.24291027193993
 20
27.03225025946337
 30
0.0
 10
-14.63703540153811
 20
26.92391947441673
 30
0.0
  0
SPLINE
  5
BC
330
1F
100
AcDbEntity
  8
Default
100
AcDbSpline
210
0.0
220
0.0
230
1.0
 70
     8
 71
     3
 72
    12
 73
     8
 74
     0
 42
0.0000000001
 43
0.0000000001
 40
-5.0
 40
-5.0
 40
-5.0
 40
-5.0
 40
-4.0
 40
-3.0
 40
-2.0
 40
-1.0
 40
0.0
 40
0.0
 40
0.0
 40
0.0
 10
-14.63703540153811
 20
26.92391947441673
 30
0.0
 10
-14.83356548457181
 20
26.87506521341825
 30
0.0
 10
-15.16752700044688
 20
26.59923670148716
 30
0.0
 10
-15.29095265424075
 20
25.98708708064697
 30
0.0
 10
-15.23495597136781
 20
25.38552034935174
 30
0.0
 10
-15.09448259300547
 20
24.7968147028769
 30
0.0
 10
-14.97271299111648
 20
24.41320045308197
 30
0.0
 10
-14.91080562850762
 20
24.2216591064327
 30
0.0
  0
SPLINE
  5
BD
330
1F
100
AcDbEntity
  8
Default
100
AcDbSpline
210
0.0
220
0.0
230
1.0
 70
     8
 71
     3
 72
    24
 73
    20
 74
     0
 42
0.0000000001
 43
0.0000000001
 40
0.0
 40
0.0
 40
0.0
 40
0.0
 40
1.000024441849377
 40
2.000048883698754
 40
3.000073325548131
 40
4.000097767397508
 40
5.000122209246884
 40
6.000146651096261
 40
7.000171092945639
 40
8.000195534795015
 40
9.000219976644392
 40
10.00024441849377
 40
11.00026886034314
 40
12.00029330219252
 40
13.0003177440419
 40
14.00034218589128
 40
15.00036662774065
 40
16.00039106959003
 40
17.0
 40
17.0
 40
17.0
 40
17.0
 10
-14.91080562850762
 20
24.2216591064327
 30
0.0
 10
-14.83358946590278
 20
23.98551033423937
 30
0.0
 10
-14.66566290984924
 20
23.51769594610594
 30
0.0
 10
-14.38253527063592
 20
22.82806652030767
 30
0.0
 10
-14.07505332108585
 20
22.14900260325973
 30
0.0
 10
-13.74724310094777
 20
21.47954808150056
 30
0.0
 10
-13.40200144638074
 20
20.81891002623542
 30
0.0
 10
-13.03974223537448
 20
20.16749530001406
 30
0.0
 10
-12.66888932976582
 20
19.52095266802706
 30
0.0
 10
-12.28794730017361
 20
18.88027254776769
 30
0.0
 10
-11.88837038073178
 20
18.25095364304142
 30
0.0
 10
-11.46593567054979
 20
17.63676451434979
 30
0.0
 10
-11.01558709787265
 20
17.04232063488702
 30
0.0
 10
-10.52666375663334
 20
16.47973097353934
 30
0.0
 10
-10.00168522643226
 20
15.94818797080485
 30
0.0
 10
-9.396097364086712
 20
15.50974195744314
 30
0.0
 10
-8.730980534950113
 20
15.1670186608064
 30
0.0
 10
-8.008976740727054
 20
14.96667699916402
 30
0.0
 10
-7.512259898631652
 20
14.92536412069225
 30
0.0
 10
-7.264218543382768
 20
14.9165257493923
 30
0.0
  0
SPLINE
  5
BE
330
1F
100
AcDbEntity
  8
Default
100
AcDbSpline
210
0.0
220
0.0
230
1.0
 70
     8
 71
     3
 72
    24
 73
    20
 74
     0
 42
0.0000000001
 43
0.0000000001
 40
0.0
 40
0.0
 40
0.0
 40
0.0
 40
1.0
 40
2.0
 40
3.0
 40
4.0
 40
5.0
 40
6.0
 40
7.0
 40
8.0
 40
9.0
 40
10.0
 40
11.0
 40
12.0
 40
13.0
 40
14.0
 40
15.0
 40
16.0
 40
17.0
 40
17.0
 40
17.0
 40
17.0
 10
-7.005755367238521
 20
15.33764325305247
 30
0.0
 10
-7.245202406065943
 20
15.34010320736249
 30
0.0
 10
-7.726774707686252
 20
15.36357724830521
 30
0.0
 10
-8.42601837007153
 20
15.54607008389309
 30
0.0
 10
-9.08158283121705
 20
15.84994564746409
 30
0.0
 10
-9.6731115949248
 20
16.26278621887395
 30
0.0
 10
-10.2089258088929
 20
16.74430546371507
 30
0.0
 10
-10.70919528437216
 20
17.26187580890025
 30
0.0
 10
-11.1696526780114
 20
17.81537622786035
 30
0.0
 10
-11.59418384414212
 20
18.39659926424251
 30
0.0
 10
-11.98917288943102
 20
18.99818654099212
 30
0.0
 10
-12.36160687816882
 20
19.61385650846141
 30
0.0
 10
-12.72153575467812
 20
20.2368862314116
 30
0.0
 10
-13.06828012929989
 20
20.86737292387811
 30
0.0
 10
-13.39625249660307
 20
21.50786239318387
 30
0.0
 10
-13.70421307080964
 20
22.15822072732433
 30
0.0
 10
-13.98807284913681
 20
22.81950393737268
 30
0.0
 10
-14.24304470957204
 20
23.49252847690475
 30
0.0
 10
-14.3878881455771
 20
23.95003669677491
 30
0.0
 10
-14.45179601009363
 20
24.18120792011355
 30
0.0
  0
SPLINE
  5
BF
330
1F
100
AcDbEntity
  8
Default
100
AcDbSpline
210
0.0
220
0.0
230
1.0
 70
     8
 71
     3
 72
    15
 73
    11
 74
     0
 42
0.0000000001
 43
0.0000000001
 40
0.0
 40
0.0
 40
0.0
 40
0.0
 40
0.2851889473013802
 40
1.587701404265863
 40
2.854872156616546
 40
6.708488880923252
 40
10.97639679747228
 40
12.29790800810541
 40
13.64242482470756
 40
13.92248948227173
 40
13.92248948227173
 40
13.92248948227173
 40
13.92248948227173
 10
-6.958932411343229
 20
15.33773586180759
 30
0.0
 10
-6.863810470360878
 20
15.33771277104221
 30
0.0
 10
-6.335222780579436
 20
15.3639332792043
 30
0.0
 10
-5.384927403271845
 20
15.41438999550311
 30
0.0
 10
-3.244259440540471
 20
15.4688417112956
 30
0.0
 10
-0.1146624444627165
 20
15.46975146893612
 30
0.0
 10
3.033066996438471
 20
15.47112573643857
 30
0.0
 10
5.343962394725395
 20
15.41660753837538
 30
0.0
 10
6.324658008553229
 20
15.36418065732374
 30
0.0
 10
6.865514516603678
 20
15.33766249811541
 30
0.0
 10
6.958934971682464
 20
15.33773590395704
 30
0.0
  0
SPLINE
  5
C0
330
1F
100
AcDbEntity
  8
Default
100
AcDbSpline
210
0.0
220
0.0
230
1.0
 70
    12
 71
     2
 72
     6
 73
     3
 74
     0
 42
0.0000000001
 43
0.0000000001
 40
0.0
 40
0.0
 40
0.0
 40
0.7038513494140428
 40
0.7038513494140428
 40
0.7038513494140428
 10
46.13768916201531
 20
15.03475004135267
 30
0.0
 41
1.0
 10
46.11189576801769
 20
15.47443701098382
 30
0.0
 41
0.7240920788525397
 10
45.67147474360758
 20
15.47003129091383
 30
0.0
 41
1.0
  0
SPLINE
  5
C1
330
1F
100
AcDbEntity
  8
Default
100
AcDbSpline
210
0.0
220
0.0
230
1.0
 70
     8
 71
     3
 72
    19
 73
    15
 74
     0
 42
0.0000000001
 43
0.0000000001
 40
0.0
 40
0.0
 40
0.0
 40
0.0
 40
1.0
 40
2.0
 40
3.0
 40
4.0
 40
5.0
 40
6.0
 40
7.0
 40
8.0
 40
9.0
 40
10.0
 40
11.0
 40
12.0
 40
12.0
 40
12.0
 40
12.0
 10
45.67147474360758
 20
15.47003129091383
 30
0.0
 10
45.47571575527689
 20
15.46821049334824
 30
0.0
 10
45.08439117405334
 20
15.45514474524738
 30
0.0
 10
44.49780468944255
 20
15.42591155542225
 30
0.0
 10
43.91189787397079
 20
15.38794985087002
 30
0.0
 10
43.32693229381539
 20
15.32546395911471
 30
0.0
 10
42.73867814051373
 20
15.35388624746368
 30
0.0
 10
42.16159025394771
 20
15.47293936200176
 30
0.0
 10
41.61267273836867
 20
15.68654584273126
 30
0.0
 10
41.10023125751852
 20
15.97728043481218
 30
0.0
 10
40.64003072438403
 20
16.3435672581654
 30
0.0
 10
40.20620610758189
 20
16.73957396420526
 30
0.0
 10
39.7900789886133
 20
17.15420338013822
 30
0.0
 10
39.52698085235147
 20
17.44431748818744
 30
0.0
 10
39.39898459118002
 20
17.59242830950442
 30
0.0
  0
SPLINE
  5
C2
330
1F
100
AcDbEntity
  8
Default
100
AcDbSpline
210
0.0
220
0.0
230
1.0
 70
    24
 71
     2
 72
     6
 73
     3
 74
     0
 42
0.0000000001
 43
0.0000000001
 40
0.0
 40
0.0
 40
0.0
 40
1.314622470337779
 40
1.314622470337779
 40
1.314622470337779
 10
45.63802264539783
 20
15.46971633869924
 30
0.0
 10
45.57639262411492
 20
16.12413195614424
 30
0.0
 10
45.51476260283202
 20
16.77854757358924
 30
0.0
  0
SPLINE
  5
C3
330
1F
100
AcDbEntity
  8
Default
100
AcDbSpline
210
0.0
220
0.0
230
1.0
 70
     8
 71
     3
 72
     8
 73
     4
 74
     0
 42
0.0000000001
 43
0.0000000001
 40
0.0
 40
0.0
 40
0.0
 40
0.0
 40
1.0
 40
1.0
 40
1.0
 40
1.0
 10
45.51476260283202
 20
16.77854757358924
 30
0.0
 10
45.50088910914354
 20
16.92586264422003
 30
0.0
 10
45.40008215152906
 20
16.99917265024076
 30
0.0
 10
45.2457283258543
 20
17.00762741736266
 30
0.0
  0
SPLINE
  5
C4
330
1F
100
AcDbEntity
  8
Default
100
AcDbSpline
210
0.0
220
0.0
230
1.0
 70
     8
 71
     3
 72
    10
 73
     6
 74
     0
 42
0.0000000001
 43
0.0000000001
 40
-3.0
 40
-3.0
 40
-3.0
 40
-3.0
 40
-2.0
 40
-1.0
 40
0.0
 40
0.0
 40
0.0
 40
0.0
 10
45.2457283258543
 20
17.00762741736266
 30
0.0
 10
44.67283877703983
 20
17.03900757720397
 30
0.0
 10
43.5253350477697
 20
17.01677658896156
 30
0.0
 10
41.80617158611717
 20
16.9523312270919
 30
0.0
 10
40.66061420601358
 20
16.89179620163037
 30
0.0
 10
40.08803276963511
 20
16.8591540363633
 30
0.0
  0
SPLINE
  5
C5
330
1F
100
AcDbEntity
  8
Default
100
AcDbSpline
210
0.0
220
0.0
230
1.0
 70
     8
 71
     3
 72
    12
 73
     8
 74
     0
 42
0.0000000001
 43
0.0000000001
 40
-15.35241690788854
 40
-15.35241690788854
 40
-15.35241690788854
 40
-15.35241690788854
 40
-11.42846741267097
 40
-7.624448814229928
 40
-3.868777023834104
 40
-1.918304340297428
 40
0.0
 40
0.0
 40
0.0
 40
0.0
 10
9.624942712843602
 20
48.25964677506013
 30
0.0
 10
9.624963806388408
 20
49.56702979910699
 30
0.0
 10
9.159497224214082
 20
52.14883583317514
 30
0.0
 10
7.055017480979089
 20
55.43853095021176
 30
0.0
 10
4.375109651159683
 20
57.25323731177797
 30
0.0
 10
1.929181394587542
 20
57.98732223712494
 30
0.0
 10
0.6393294451568121
 20
58.11213253592939
 30
0.0
 10
-0.0000432965210493
 20
58.11160191503407
 30
0.0
  0
SPLINE
  5
C6
330
1F
100
AcDbEntity
  8
Default
100
AcDbSpline
210
0.0
220
0.0
230
1.0
 70
     8
 71
     3
 72
    12
 73
     8
 74
     0
 42
0.0000000001
 43
0.0000000001
 40
0.0
 40
0.0
 40
0.0
 40
0.0
 40
1.918304340297428
 40
3.868777023834104
 40
7.624448814229928
 40
11.42846741267097
 40
15.35241690788854
 40
15.35241690788854
 40
15.35241690788854
 40
15.35241690788854
 10
-0.0000432965210493
 20
58.11160191503407
 30
0.0
 10
-0.6394160381989107
 20
58.11213253592939
 30
0.0
 10
-1.92926798762964
 20
57.98732223712494
 30
0.0
 10
-4.375196244201781
 20
57.25323731177797
 30
0.0
 10
-7.055104074021187
 20
55.43853095021176
 30
0.0
 10
-9.15958381725618
 20
52.14883583317514
 30
0.0
 10
-9.625050399430506
 20
49.56702979910699
 30
0.0
 10
-9.6250293058857
 20
48.25964677506013
 30
0.0
  0
SPLINE
  5
C7
330
1F
100
AcDbEntity
  8
Default
100
AcDbSpline
210
0.0
220
0.0
230
1.0
 70
     8
 71
     3
 72
    12
 73
     8
 74
     0
 42
0.0000000001
 43
0.0000000001
 40
-14.89017237659325
 40
-14.89017237659325
 40
-14.89017237659325
 40
-14.89017237659325
 40
-11.21816892444778
 40
-7.516681648226319
 40
-3.774518777477097
 40
-1.88935418416962
 40
0.0
 40
0.0
 40
0.0
 40
0.0
 10
-9.6250293058857
 20
48.25964677506013
 30
0.0
 10
-9.625357366877246
 20
47.03548048118093
 30
0.0
 10
-9.118204371753755
 20
44.57828503781994
 30
0.0
 10
-6.966198505619488
 20
41.47146240801652
 30
0.0
 10
-4.303090068121143
 20
39.75458844046953
 30
0.0
 10
-1.888023541134662
 20
39.04688820173934
 30
0.0
 10
-0.6297756847987467
 20
38.92587474548387
 30
0.0
 10
-0.0000432965210493
 20
38.92580691033672
 30
0.0
  0
SPLINE
  5
C8
330
1F
100
AcDbEntity
  8
Default
100
AcDbSpline
210
0.0
220
0.0
230
1.0
 70
     8
 71
     3
 72
    12
 73
     8
 74
     0
 42
0.0000000001
 43
0.0000000001
 40
0.0
 40
0.0
 40
0.0
 40
0.0
 40
1.88935418416962
 40
3.774518777477097
 40
7.516681648226319
 40
11.21816892444778
 40
14.89017237659325
 40
14.89017237659325
 40
14.89017237659325
 40
14.89017237659325
 10
-0.0000432965210493
 20
38.92580691033672
 30
0.0
 10
0.6296890917566481
 20
38.92587474548387
 30
0.0
 10
1.887936948092563
 20
39.04688820173934
 30
0.0
 10
4.303003475079045
 20
39.75458844046953
 30
0.0
 10
6.966111912577389
 20
41.47146240801652
 30
0.0
 10
9.118117778711657
 20
44.57828503781994
 30
0.0
 10
9.625270773835148
 20
47.03548048118093
 30
0.0
 10
9.624942712843602
 20
48.25964677506013
 30
0.0
  0
SPLINE
  5
C9
330
1F
100
AcDbEntity
  8
Default
100
AcDbSpline
210
0.0
220
0.0
230
1.0
 70
     8
 71
     3
 72
    24
 73
    20
 74
     0
 42
0.0000000001
 43
0.0000000001
 40
0.0
 40
0.0
 40
0.0
 40
0.0
 40
1.0
 40
2.0
 40
3.0
 40
4.0
 40
5.0
 40
6.0
 40
7.0
 40
8.0
 40
9.0
 40
10.0
 40
11.0
 40
12.0
 40
13.0
 40
14.0
 40
15.0
 40
16.0
 40
17.0
 40
17.0
 40
17.0
 40
17.0
 10
-14.91146938982287
 20
49.79333667563967
 30
0.0
 10
-14.74404140590299
 20
49.44594667486055
 30
0.0
 10
-14.3505589358419
 20
48.78198787246744
 30
0.0
 10
-13.69038637468816
 20
47.83198589215499
 30
0.0
 10
-12.96934978295479
 20
46.92776647624626
 30
0.0
 10
-12.24155108441811
 20
46.02941327322812
 30
0.0
 10
-11.50724818620031
 20
45.13617824402331
 30
0.0
 10
-10.74682707050804
 20
44.2649801887226
 30
0.0
 10
-9.95697046756544
 20
43.42028125930835
 30
0.0
 10
-9.14132432459947
 20
42.6008335045677
 30
0.0
 10
-8.335225896594034
 20
41.77132373535292
 30
0.0
 10
-7.465389362998006
 20
41.00792006754993
 30
0.0
 10
-6.534363108208249
 20
40.32062667662808
 30
0.0
 10
-5.546056275920123
 20
39.71816170370536
 30
0.0
 10
-4.506441167633202
 20
39.20920378405086
 30
0.0
 10
-3.421726036419122
 20
38.80449254802728
 30
0.0
 10
-2.300982020880367
 20
38.51402289883505
 30
0.0
 10
-1.156328421520289
 20
38.34031572279081
 30
0.0
 10
-0.3854612831033484
 20
38.30223874987968
 30
0.0
 10
-0.0000443516860802
 20
38.30288035115606
 30
0.0
  0
SPLINE
  5
CA
330
1F
100
AcDbEntity
  8
Default
100
AcDbSpline
210
0.0
220
0.0
230
1.0
 70
     8
 71
     3
 72
    24
 73
    20
 74
     0
 42
0.0000000001
 43
0.0000000001
 40
-17.0
 40
-17.0
 40
-17.0
 40
-17.0
 40
-16.0
 40
-15.0
 40
-14.0
 40
-13.0
 40
-12.0
 40
-11.0
 40
-10.0
 40
-9.0
 40
-8.0
 40
-7.0
 40
-6.0
 40
-5.0
 40
-4.0
 40
-3.0
 40
-2.0
 40
-1.0
 40
0.0
 40
0.0
 40
0.0
 40
0.0
 10
-0.0000443516860802
 20
38.30288035115606
 30
0.0
 10
0.385372579731188
 20
38.30223874987968
 30
0.0
 10
1.156239718148128
 20
38.34031572279081
 30
0.0
 10
2.300893317508206
 20
38.51402289883505
 30
0.0
 10
3.421637333046962
 20
38.80449254802728
 30
0.0
 10
4.506352464261042
 20
39.20920378405086
 30
0.0
 10
5.545967572547963
 20
39.71816170370536
 30
0.0
 10
6.534274404836089
 20
40.32062667662808
 30
0.0
 10
7.465300659625846
 20
41.00792006754993
 30
0.0
 10
8.335137193221874
 20
41.77132373535292
 30
0.0
 10
9.14123562122731
 20
42.6008335045677
 30
0.0
 10
9.95688176419328
 20
43.42028125930835
 30
0.0
 10
10.74673836713588
 20
44.2649801887226
 30
0.0
 10
11.50715948282815
 20
45.13617824402331
 30
0.0
 10
12.24146238104595
 20
46.02941327322812
 30
0.0
 10
12.96926107958263
 20
46.92776647624626
 30
0.0
 10
13.690297671316
 20
47.83198589215499
 30
0.0
 10
14.35047023246974
 20
48.78198787246744
 30
0.0
 10
14.74395270253082
 20
49.44594667486055
 30
0.0
 10
14.91138068645071
 20
49.79333667563967
 30
0.0
  0
SPLINE
  5
CB
330
1F
100
AcDbEntity
  8
Default
100
AcDbSpline
210
0.0
220
0.0
230
1.0
 70
     8
 71
     3
 72
    10
 73
     6
 74
     0
 42
0.0000000001
 43
0.0000000001
 40
0.0
 40
0.0
 40
0.0
 40
0.0
 40
1.0
 40
2.0
 40
3.0
 40
3.0
 40
3.0
 40
3.0
 10
14.91138068645071
 20
49.79333667563967
 30
0.0
 10
15.13649035258462
 20
50.25129181878313
 30
0.0
 10
15.34880833950252
 20
51.26621574977939
 30
0.0
 10
15.14730859388122
 20
52.79196509466748
 30
0.0
 10
14.83148227219829
 20
53.76116317302657
 30
0.0
 10
14.63761045948119
 20
54.23155926500364
 30
0.0
  0
SPLINE
  5
CC
330
1F
100
AcDbEntity
  8
Default
100
AcDbSpline
210
0.0
220
0.0
230
1.0
 70
     8
 71
     3
 72
    10
 73
     6
 74
     0
 42
0.0000000001
 43
0.0000000001
 40
-3.0
 40
-3.0
 40
-3.0
 40
-3.0
 40
-2.0
 40
-1.0
 40
0.0
 40
0.0
 40
0.0
 40
0.0
 10
14.63761045948119
 20
54.23155926500364
 30
0.0
 10
13.85921932644542
 20
56.11190144935151
 30
0.0
 10
11.39647824743043
 20
59.45371921896066
 30
0.0
 10
6.096303603913971
 20
62.67003705228447
 30
0.0
 10
2.03171887696621
 20
63.40647236281927
 30
0.0
 10
-0.0000432965210493
 20
63.38995856651007
 30
0.0
  0
SPLINE
  5
CD
330
1F
100
AcDbEntity
  8
Default
100
AcDbSpline
210
0.0
220
0.0
230
1.0
 70
     8
 71
     3
 72
    10
 73
     6
 74
     0
 42
0.0000000001
 43
0.0000000001
 40
0.0
 40
0.0
 40
0.0
 40
0.0
 40
1.0
 40
2.0
 40
3.0
 40
3.0
 40
3.0
 40
3.0
 10
-0.0000432965210493
 20
63.38995856651007
 30
0.0
 10
-2.031805470008309
 20
63.40647236281927
 30
0.0
 10
-6.09639019695607
 20
62.67003705228447
 30
0.0
 10
-11.39656484047253
 20
59.45371921896066
 30
0.0
 10
-13.85930591948752
 20
56.11190144935151
 30
0.0
 10
-14.63769705252329
 20
54.23155926500364
 30
0.0
  0
SPLINE
  5
CE
330
1F
100
AcDbEntity
  8
Default
100
AcDbSpline
210
0.0
220
0.0
230
1.0
 70
     8
 71
     3
 72
    10
 73
     6
 74
     0
 42
0.0000000001
 43
0.0000000001
 40
-3.0
 40
-3.0
 40
-3.0
 40
-3.0
 40
-2.0
 40
-1.0
 40
0.0
 40
0.0
 40
0.0
 40
0.0
 10
-14.63769705252329
 20
54.23155926500364
 30
0.0
 10
-14.83156886524039
 20
53.76116317302657
 30
0.0
 10
-15.14739518692332
 20
52.79196509466748
 30
0.0
 10
-15.34889493254462
 20
51.26621574977939
 30
0.0
 10
-15.13657694562672
 20
50.25129181878313
 30
0.0
 10
-14.9114672794928
 20
49.79333667563967
 30
0.0
  0
SPLINE
  5
CF
330
1F
100
AcDbEntity
  8
Default
100
AcDbSpline
210
0.0
220
0.0
230
1.0
 70
     8
 71
     3
 72
    19
 73
    15
 74
     0
 42
0.0000000001
 43
0.0000000001
 40
-12.0
 40
-12.0
 40
-12.0
 40
-12.0
 40
-11.0
 40
-10.0
 40
-9.0
 40
-8.0
 40
-7.0
 40
-6.0
 40
-5.0
 40
-4.0
 40
-3.0
 40
-2.0
 40
-1.0
 40
0.0
 40
0.0
 40
0.0
 40
0.0
 10
8.263603705567132
 20
41.71431495366532
 30
0.0
 10
8.94863550712469
 20
42.3740459069966
 30
0.0
 10
10.30707191844552
 20
43.69817318281974
 30
0.0
 10
12.35028705459127
 20
45.70699873982063
 30
0.0
 10
14.05404404382377
 20
47.95966192480641
 30
0.0
 10
15.77885045959066
 20
50.36759958383777
 30
0.0
 10
15.56621405153576
 20
53.33348762145461
 30
0.0
 10
14.37182084781255
 20
55.93808436136553
 30
0.0
 10
12.70501861755174
 20
58.26705559969658
 30
0.0
 10
10.62232098916487
 20
60.23284758205446
 30
0.0
 10
8.235381209147222
 20
61.81061618466843
 30
0.0
 10
5.61980622458824
 20
62.97028602007776
 30
0.0
 10
2.850940490547555
 20
63.69037126210404
 30
0.0
 10
0.9505684849979058
 20
63.85816025110407
 30
0.0
 10
-0.0000432965210493
 20
63.85860682770644
 30
0.0
  0
SPLINE
  5
D0
330
1F
100
AcDbEntity
  8
Default
100
AcDbSpline
210
0.0
220
0.0
230
1.0
 70
     8
 71
     3
 72
    19
 73
    15
 74
     0
 42
0.0000000001
 43
0.0000000001
 40
0.0
 40
0.0
 40
0.0
 40
0.0
 40
1.0
 40
2.0
 40
3.0
 40
4.0
 40
5.0
 40
6.0
 40
7.0
 40
8.0
 40
9.0
 40
10.0
 40
11.0
 40
12.0
 40
12.0
 40
12.0
 40
12.0
 10
-0.0000432965210493
 20
63.85860682770644
 30
0.0
 10
-0.9506550780400044
 20
63.85816025110407
 30
0.0
 10
-2.851027083589654
 20
63.69037126210404
 30
0.0
 10
-5.619892817630339
 20
62.97028602007776
 30
0.0
 10
-8.235467802189321
 20
61.81061618466843
 30
0.0
 10
-10.62240758220697
 20
60.23284758205446
 30
0.0
 10
-12.70510521059383
 20
58.26705559969658
 30
0.0
 10
-14.37190744085465
 20
55.93808436136553
 30
0.0
 10
-15.56630064457786
 20
53.33348762145461
 30
0.0
 10
-15.77893705263275
 20
50.36759958383777
 30
0.0
 10
-14.05413063686586
 20
47.95966192480641
 30
0.0
 10
-12.35037364763337
 20
45.70699873982063
 30
0.0
 10
-10.30715851148762
 20
43.69817318281974
 30
0.0
 10
-8.948722100166789
 20
42.3740459069966
 30
0.0
 10
-8.26369029860923
 20
41.71431495366532
 30
0.0
  0
ARC
  5
D1
330
1F
100
AcDbEntity
  8
Default
100
AcDbCircle
 10
-2.691082057075217
 20
57.17045762619632
 30
0.0
 40
17.94432680120315
100
AcDbArc
 50
304.5347986330879
 51
313.3741222381972
  0
SPLINE
  5
D2
330
1F
100
AcDbEntity
  8
Default
100
AcDbSpline
210
0.0
220
0.0
230
1.0
 70
     8
 71
     3
 72
    14
 73
    10
 74
     0
 42
0.0000000001
 43
0.0000000001
 40
0.0000000000000002
 40
0.0000000000000002
 40
0.0000000000000002
 40
0.0000000000000002
 40
1.0
 40
2.0
 40
3.0
 40
4.0
 40
5.0
 40
6.0
 40
7.0
 40
7.0
 40
7.0
 40
7.0
 10
9.632350927984024
 20
44.12699704968016
 30
0.0
 10
10.03912296869014
 20
44.51131438283198
 30
0.0
 10
10.84280227614689
 20
45.29192841512983
 30
0.0
 10
11.95782121057659
 20
46.54773001952265
 30
0.0
 10
13.04227297749206
 20
47.83149069353476
 30
0.0
 10
14.03485277649268
 20
49.18376576183169
 30
0.0
 10
14.78957542466199
 20
50.71530417678997
 30
0.0
 10
14.74321219546851
 20
52.43557043113385
 30
0.0
 10
14.43131391544402
 20
53.51117290700321
 30
0.0
 10
14.22297425356634
 20
54.03168732837011
 30
0.0
  0
ARC
  5
D3
330
1F
100
AcDbEntity
  8
Default
100
AcDbCircle
 10
2.690995464033119
 20
57.17045762619632
 30
0.0
 40
17.94432680120315
100
AcDbArc
 50
226.6258777618027
 51
235.4652013669121
  0
SPLINE
  5
D4
330
1F
100
AcDbEntity
  8
Default
100
AcDbSpline
210
0.0
220
0.0
230
1.0
 70
     8
 71
     3
 72
    14
 73
    10
 74
     0
 42
0.0000000001
 43
0.0000000001
 40
0.0000000000000002
 40
0.0000000000000002
 40
0.0000000000000002
 40
0.0000000000000002
 40
1.0
 40
2.0
 40
3.0
 40
4.0
 40
5.0
 40
6.0
 40
7.0
 40
7.0
 40
7.0
 40
7.0
 10
-9.632437521026123
 20
44.12699704968016
 30
0.0
 10
-10.03920956173224
 20
44.51131438283198
 30
0.0
 10
-10.84288886918898
 20
45.29192841512983
 30
0.0
 10
-11.95790780361869
 20
46.54773001952265
 30
0.0
 10
-13.04235957053416
 20
47.83149069353476
 30
0.0
 10
-14.03493936953478
 20
49.18376576183169
 30
0.0
 10
-14.78966201770409
 20
50.71530417678997
 30
0.0
 10
-14.74329878851061
 20
52.43557043113385
 30
0.0
 10
-14.43140050848612
 20
53.51117290700321
 30
0.0
 10
-14.22306084660844
 20
54.03168732837011
 30
0.0
  0
SPLINE
  5
D5
330
1F
100
AcDbEntity
  8
Make2D visible lines
100
AcDbSpline
210
0.0
220
0.0
230
1.0
 70
    24
 71
     2
 72
     6
 73
     3
 74
     0
 42
0.0000000001
 43
0.0000000001
 40
1.144412679649788
 40
1.144412679649788
 40
1.144412679649788
 40
3.293043573786101
 40
3.293043573786101
 40
3.293043573786101
 10
8.400917069592394
 20
41.8466616460144
 30
0.0
 10
9.024271413373569
 20
40.96254310062153
 30
0.0
 10
9.647625757154742
 20
40.07842455522865
 30
0.0
  0
SPLINE
  5
D6
330
1F
100
AcDbEntity
  8
Make2D visible lines
100
AcDbSpline
210
0.0
220
0.0
230
1.0
 70
    12
 71
     2
 72
     8
 73
     5
 74
     0
 42
0.0000000001
 43
0.0000000001
 40
0.0
 40
0.0
 40
0.0
 40
0.197163615910639
 40
0.197163615910639
 40
0.3943272318212779
 40
0.3943272318212779
 40
0.3943272318212779
 10
9.647625757154742
 20
40.07842455522865
 30
0.0
 41
1.0
 10
9.717082928954984
 20
39.99892240672829
 30
0.0
 41
0.903610101610362
 10
9.699505604083093
 20
39.89482664321694
 30
0.0
 41
1.0
 10
9.681928279211201
 20
39.7907308797056
 30
0.0
 41
0.903610101610362
 10
9.59014942179822
 20
39.73840566466279
 30
0.0
 41
1.0
  0
SPLINE
  5
D7
330
1F
100
AcDbEntity
  8
Make2D visible lines
100
AcDbSpline
210
0.0
220
0.0
230
1.0
 70
    12
 71
     2
 72
     6
 73
     3
 74
     0
 42
0.0000000001
 43
0.0000000001
 40
0.0
 40
0.0
 40
0.0
 40
0.3210187875113308
 40
0.3210187875113308
 40
0.3210187875113308
 10
9.59014942179822
 20
39.73840566466279
 30
0.0
 41
1.0
 10
9.41727787729478
 20
39.64328882864923
 30
0.0
 41
0.7427400324777469
 10
9.304852387233758
 20
39.80534332939839
 30
0.0
 41
1.0
  0
SPLINE
  5
D8
330
1F
100
AcDbEntity
  8
Make2D visible lines
100
AcDbSpline
210
0.0
220
0.0
230
1.0
 70
    24
 71
     2
 72
     6
 73
     3
 74
     0
 42
0.0000000001
 43
0.0000000001
 40
0.0
 40
0.0
 40
0.0
 40
2.103763487843004
 40
2.103763487843004
 40
2.103763487843004
 10
9.304852387233758
 20
39.80534332939839
 30
0.0
 10
8.689703027020542
 20
40.67782571868642
 30
0.0
 10
8.074553666807324
 20
41.55030810797444
 30
0.0
  0
LINE
  5
D9
330
1F
100
AcDbEntity
  8
Make2D visible lines
100
AcDbLine
 10
8.415693977754518
 20
41.06645990324818
 30
0.0
 11
8.387761448674247
 21
41.04592063749163
 31
0.0
  0
ARC
  5
DA
330
1F
100
AcDbEntity
  8
Make2D visible lines
100
AcDbCircle
 10
8.354902686531934
 20
41.09060715841994
 30
0.0
 40
0.0554669577514513
100
AcDbArc
 50
216.5632865949774
 51
306.3276799419556
  0
SPLINE
  5
DB
330
1F
100
AcDbEntity
  8
Make2D visible lines
100
AcDbSpline
210
0.0
220
0.0
230
1.0
 70
    24
 71
     2
 72
     6
 73
     3
 74
     0
 42
0.0000000001
 43
0.0000000001
 40
0.0
 40
0.0
 40
0.0
 40
0.5262007377155151
 40
0.5262007377155151
 40
0.5262007377155151
 10
8.310351661939531
 20
41.05756491863556
 30
0.0
 10
8.158316484404935
 20
41.27319317797263
 30
0.0
 10
8.00628130687034
 20
41.48882143730969
 30
0.0
  0
LINE
  5
DC
330
1F
100
AcDbEntity
  8
Make2D visible lines
100
AcDbLine
 10
8.773267857487715
 20
41.31854751597881
 30
0.0
 11
8.801985246994732
 21
41.33797182971335
 31
0.0
  0
ARC
  5
DD
330
1F
100
AcDbEntity
  8
Make2D visible lines
100
AcDbCircle
 10
8.770884598342427
 20
41.38395180375385
 30
0.0
 40
0.0555104346889764
100
AcDbArc
 50
304.0742445701134
 51
35.6466333213606
  0
SPLINE
  5
DE
330
1F
100
AcDbEntity
  8
Make2D visible lines
100
AcDbSpline
210
0.0
220
0.0
230
1.0
 70
    24
 71
     2
 72
     6
 73
     3
 74
     0
 42
0.0000000001
 43
0.0000000001
 40
0.0
 40
0.0
 40
0.0
 40
0.6042843821236102
 40
0.6042843821236102
 40
0.6042843821236102
 10
8.815993859643125
 20
41.41630242823413
 30
0.0
 10
8.64167772665366
 20
41.66353953120064
 30
0.0
 10
8.467361593664194
 20
41.91077663416716
 30
0.0
  0
SPLINE
  5
DF
330
1F
100
AcDbEntity
  8
Make2D visible lines
100
AcDbSpline
210
0.0
220
0.0
230
1.0
 70
    24
 71
     2
 72
     6
 73
     3
 74
     0
 42
0.0000000001
 43
0.0000000001
 40
1.144473090120382
 40
1.144473090120382
 40
1.144473090120382
 40
3.293043573786101
 40
3.293043573786101
 40
3.293043573786101
 10
-8.400952121801089
 20
41.84661193061886
 30
0.0
 10
-9.024288939477916
 20
40.96251824292376
 30
0.0
 10
-9.647625757154742
 20
40.07842455522865
 30
0.0
  0
SPLINE
  5
E0
330
1F
100
AcDbEntity
  8
Make2D visible lines
100
AcDbSpline
210
0.0
220
0.0
230
1.0
 70
    12
 71
     2
 72
     8
 73
     5
 74
     0
 42
0.0000000001
 43
0.0000000001
 40
0.0
 40
0.0
 40
0.0
 40
0.197163615910639
 40
0.197163615910639
 40
0.3943272318212779
 40
0.3943272318212779
 40
0.3943272318212779
 10
-9.647625757154742
 20
40.07842455522865
 30
0.0
 41
1.0
 10
-9.717082928954984
 20
39.99892240672829
 30
0.0
 41
0.903610101610362
 10
-9.699505604083093
 20
39.89482664321694
 30
0.0
 41
1.0
 10
-9.681928279211201
 20
39.7907308797056
 30
0.0
 41
0.903610101610362
 10
-9.59014942179822
 20
39.73840566466279
 30
0.0
 41
1.0
  0
SPLINE
  5
E1
330
1F
100
AcDbEntity
  8
Make2D visible lines
100
AcDbSpline
210
0.0
220
0.0
230
1.0
 70
    12
 71
     2
 72
     6
 73
     3
 74
     0
 42
0.0000000001
 43
0.0000000001
 40
0.0
 40
0.0
 40
0.0
 40
0.3210187875113308
 40
0.3210187875113308
 40
0.3210187875113308
 10
-9.59014942179822
 20
39.73840566466279
 30
0.0
 41
1.0
 10
-9.41727787729478
 20
39.64328882864923
 30
0.0
 41
0.7427400324777469
 10
-9.304852387233758
 20
39.80534332939839
 30
0.0
 41
1.0
  0
SPLINE
  5
E2
330
1F
100
AcDbEntity
  8
Make2D visible lines
100
AcDbSpline
210
0.0
220
0.0
230
1.0
 70
    24
 71
     2
 72
     6
 73
     3
 74
     0
 42
0.0000000001
 43
0.0000000001
 40
0.0
 40
0.0
 40
0.0
 40
2.103704346881144
 40
2.103704346881144
 40
2.103704346881144
 10
-9.304852387233758
 20
39.80534332939839
 30
0.0
 10
-8.689720320088446
 20
40.67780119147696
 30
0.0
 10
-8.074588252943133
 20
41.55025905355554
 30
0.0
  0
LINE
  5
E3
330
1F
100
AcDbEntity
  8
Make2D visible lines
100
AcDbLine
 10
-8.415693977754518
 20
41.06645990324818
 30
0.0
 11
-8.387761448674247
 21
41.04592063749163
 31
0.0
  0
ARC
  5
E4
330
1F
100
AcDbEntity
  8
Make2D visible lines
100
AcDbCircle
 10
-8.354902686531934
 20
41.09060715841994
 30
0.0
 40
0.0554669577514513
100
AcDbArc
 50
233.6723200580443
 51
323.4367134050225
  0
SPLINE
  5
E5
330
1F
100
AcDbEntity
  8
Make2D visible lines
100
AcDbSpline
210
0.0
220
0.0
230
1.0
 70
    24
 71
     2
 72
     6
 73
     3
 74
     0
 42
0.0000000001
 43
0.0000000001
 40
0.0
 40
0.0
 40
0.0
 40
0.5261413565638917
 40
0.5261413565638917
 40
0.5261413565638917
 10
-8.310351661939531
 20
41.05756491863556
 30
0.0
 10
-8.158333641400892
 20
41.27316884457009
 30
0.0
 10
-8.006315620862253
 20
41.48877277050463
 30
0.0
  0
LINE
  5
E6
330
1F
100
AcDbEntity
  8
Make2D visible lines
100
AcDbLine
 10
-8.773267857487715
 20
41.31854751597881
 30
0.0
 11
-8.801985246994732
 21
41.33797182971335
 31
0.0
  0
ARC
  5
E7
330
1F
100
AcDbEntity
  8
Make2D visible lines
100
AcDbCircle
 10
-8.770884598342427
 20
41.38395180375385
 30
0.0
 40
0.0555104346889764
100
AcDbArc
 50
144.3533666786394
 51
235.9257554298866
  0
SPLINE
  5
E8
330
1F
100
AcDbEntity
  8
Make2D visible lines
100
AcDbSpline
210
0.0
220
0.0
230
1.0
 70
    24
 71
     2
 72
     6
 73
     3
 74
     0
 42
0.0000000001
 43
0.0000000001
 40
0.0
 40
0.0
 40
0.0
 40
0.6042235994859216
 40
0.6042235994859216
 40
0.6042235994859216
 10
-8.815993859643125
 20
41.41630242823413
 30
0.0
 10
-8.641695260441836
 20
41.66351466257306
 30
0.0
 10
-8.467396661240548
 20
41.91072689691199
 30
0.0
  0
SPLINE
  5
E9
330
1F
100
AcDbEntity
  8
Default
100
AcDbSpline
210
0.0
220
0.0
230
1.0
 70
     8
 71
     3
 72
    10
 73
     6
 74
     0
 42
0.0000000001
 43
0.0000000001
 40
0.0
 40
0.0
 40
0.0
 40
0.0
 40
1.0
 40
2.0
 40
3.0
 40
3.0
 40
3.0
 40
3.0
 10
-14.63916897310133
 20
26.92949715703771
 30
0.0
 10
-14.99214924856702
 20
26.85669943203711
 30
0.0
 10
-15.59533036381109
 20
26.3538257642987
 30
0.0
 10
-15.68032349394995
 20
25.23285642962908
 30
0.0
 10
-15.50249817489478
 20
24.54329694208962
 30
0.0
 10
-15.40237779650903
 20
24.19939779514616
 30
0.0
  0
SPLINE
  5
EA
330
1F
100
AcDbEntity
  8
Default
100
AcDbSpline
210
0.0
220
0.0
230
1.0
 70
     8
 71
     3
 72
    14
 73
    10
 74
     0
 42
0.0000000001
 43
0.0000000001
 40
0.0
 40
0.0
 40
0.0
 40
0.0
 40
1.0
 40
2.0
 40
3.0
 40
4.0
 40
5.0
 40
6.0
 40
7.0
 40
7.0
 40
7.0
 40
7.0
 10
-15.40237779650903
 20
24.19939779514616
 30
0.0
 10
-15.21146690011158
 20
23.54364623415692
 30
0.0
 10
-14.70292527573749
 20
21.88480245716075
 30
0.0
 10
-13.9973091515473
 20
19.96003647414398
 30
0.0
 10
-13.17125694606299
 20
18.0838701840093
 30
0.0
 10
-12.21874317323631
 20
16.26787036517363
 30
0.0
 10
-11.09166182824705
 20
14.55212563326205
 30
0.0
 10
-9.663171306721122
 20
13.06032839179671
 30
0.0
 10
-8.451871737747728
 20
12.39135848650402
 30
0.0
 10
-7.809836138928095
 20
12.15878279587875
 30
0.0
  0
SPLINE
  5
EB
330
1F
100
AcDbEntity
  8
Default
100
AcDbSpline
210
0.0
220
0.0
230
1.0
 70
     8
 71
     3
 72
     8
 73
     4
 74
     0
 42
0.0000000001
 43
0.0000000001
 40
0.0
 40
0.0
 40
0.0
 40
0.0
 40
0.0700827904070991
 40
0.0700827904070991
 40
0.0700827904070991
 40
0.0700827904070991
 10
-7.809836138928095
 20
12.15878279587875
 30
0.0
 10
-7.760093992300589
 20
12.14114554534505
 30
0.0
 10
-7.710216347645724
 20
12.12395814311711
 30
0.0
 10
-7.660210958601018
 20
12.10720172521921
 30
0.0
  0
SPLINE
  5
EC
330
1F
100
AcDbEntity
  8
Default
100
AcDbSpline
210
0.0
220
0.0
230
1.0
 70
     8
 71
     3
 72
     8
 73
     4
 74
     0
 42
0.0000000001
 43
0.0000000001
 40
6.929917255623181
 40
6.929917255623181
 40
6.929917255623181
 40
6.929917255623181
 40
7.0
 40
7.0
 40
7.0
 40
7.0
 10
7.660210955672486
 20
12.10720173165774
 30
0.0
 10
7.710216341071347
 20
12.12395814682787
 30
0.0
 10
7.760093986551331
 20
12.14114554688543
 30
0.0
 10
7.809836138928095
 20
12.15878279587875
 30
0.0
  0
SPLINE
  5
ED
330
1F
100
AcDbEntity
  8
Default
100
AcDbSpline
210
0.0
220
0.0
230
1.0
 70
     8
 71
     3
 72
    14
 73
    10
 74
     0
 42
0.0000000001
 43
0.0000000001
 40
-7.0
 40
-7.0
 40
-7.0
 40
-7.0
 40
-6.0
 40
-5.0
 40
-4.0
 40
-3.0
 40
-2.0
 40
-1.0
 40
0.0
 40
0.0
 40
0.0
 40
0.0
 10
7.809836138928095
 20
12.15878279587875
 30
0.0
 10
8.451871737747728
 20
12.39135848650402
 30
0.0
 10
9.663171306721122
 20
13.06032839179671
 30
0.0
 10
11.09166182824705
 20
14.55212563326205
 30
0.0
 10
12.21874317323631
 20
16.26787036517363
 30
0.0
 10
13.17125694606299
 20
18.0838701840093
 30
0.0
 10
13.9973091515473
 20
19.96003647414398
 30
0.0
 10
14.70292527573749
 20
21.88480245716075
 30
0.0
 10
15.21146690011158
 20
23.54364623415692
 30
0.0
 10
15.40237779650903
 20
24.19939779514616
 30
0.0
  0
SPLINE
  5
EE
330
1F
100
AcDbEntity
  8
Default
100
AcDbSpline
210
0.0
220
0.0
230
1.0
 70
     8
 71
     3
 72
    10
 73
     6
 74
     0
 42
0.0000000001
 43
0.0000000001
 40
-3.0
 40
-3.0
 40
-3.0
 40
-3.0
 40
-2.0
 40
-1.0
 40
0.0
 40
0.0
 40
0.0
 40
0.0
 10
15.40237779650903
 20
24.19939779514616
 30
0.0
 10
15.50249817489478
 20
24.54329694208962
 30
0.0
 10
15.68032349394995
 20
25.23285642962908
 30
0.0
 10
15.59533036381109
 20
26.3538257642987
 30
0.0
 10
14.99214924856702
 20
26.85669943203711
 30
0.0
 10
14.63916897310133
 20
26.92949715703771
 30
0.0
  0
SPLINE
  5
EF
330
1F
100
AcDbEntity
  8
Default
100
AcDbSpline
210
0.0
220
0.0
230
1.0
 70
     8
 71
     3
 72
     8
 73
     4
 74
     0
 42
0.0000000001
 43
0.0000000001
 40
0.2666946148173359
 40
0.2666946148173359
 40
0.2666946148173359
 40
0.2666946148173359
 40
0.6860892577963682
 40
0.6860892577963682
 40
0.6860892577963682
 40
0.6860892577963682
 10
-7.236507257483834
 20
11.9759347764535
 30
0.0
 10
-6.93333722526831
 20
11.88924239737119
 30
0.0
 10
-6.626371450590634
 20
11.81608903304321
 30
0.0
 10
-6.317271585067692
 20
11.75243201888619
 30
0.0
  0
SPLINE
  5
F0
330
1F
100
AcDbEntity
  8
Default
100
AcDbSpline
210
0.0
220
0.0
230
1.0
 70
     8
 71
     3
 72
     8
 73
     4
 74
     0
 42
0.0000000001
 43
0.0000000001
 40
6.313910822411902
 40
6.313910822411902
 40
6.313910822411902
 40
6.313910822411902
 40
6.733305502214268
 40
6.733305502214268
 40
6.733305502214268
 40
6.733305502214268
 10
6.317271587795529
 20
11.75243200848312
 30
0.0
 10
6.626371404601271
 20
11.81608901186361
 30
0.0
 10
6.933337146316006
 20
11.88924237309844
 30
0.0
 10
7.236507254729556
 20
11.975934781358
 30
0.0
  0
SPLINE
  5
F1
330
1F
100
AcDbEntity
  8
Default
100
AcDbSpline
210
0.0
220
0.0
230
1.0
 70
     8
 71
     3
 72
     8
 73
     4
 74
     0
 42
0.0000000001
 43
0.0000000001
 40
9.152468672694921
 40
9.152468672694921
 40
9.152468672694921
 40
9.152468672694921
 40
13.0444822786923
 40
13.0444822786923
 40
13.0444822786923
 40
13.0444822786923
 10
37.95122455039429
 20
11.69091573671854
 30
0.0
 10
36.66935374194887
 20
11.49145013057804
 30
0.0
 10
35.37593156915011
 20
11.36697358367422
 30
0.0
 10
34.08070078714762
 20
11.29861201914871
 30
0.0
  0
SPLINE
  5
F2
330
1F
100
AcDbEntity
  8
Default
100
AcDbSpline
210
0.0
220
0.0
230
1.0
 70
     8
 71
     3
 72
    12
 73
     8
 74
     0
 42
0.0000000001
 43
0.0000000001
 40
0.0
 40
0.0
 40
0.0
 40
0.0
 40
1.0
 40
2.0
 40
3.0
 40
4.0
 40
4.731265467088711
 40
4.731265467088711
 40
4.731265467088711
 40
4.731265467088711
 10
34.08070078714762
 20
11.29861201914871
 30
0.0
 10
33.86200454936687
 20
11.28680429159548
 30
0.0
 10
33.42448876370725
 20
11.2655047744825
 30
0.0
 10
32.76799176078323
 20
11.23866393513155
 30
0.0
 10
32.11126283651376
 20
11.21763746602735
 30
0.0
 10
31.5131834415235
 20
11.20712430710761
 30
0.0
 10
31.13394537888694
 20
11.20552962548931
 30
0.0
 10
30.97379947183892
 20
11.20648637237241
 30
0.0
  0
SPLINE
  5
F3
330
1F
100
AcDbEntity
  8
Default
100
AcDbSpline
210
0.0
220
0.0
230
1.0
 70
     8
 71
     3
 72
    10
 73
     6
 74
     0
 42
0.0000000001
 43
0.0000000001
 40
7.555717922002653
 40
7.555717922002653
 40
7.555717922002653
 40
7.555717922002653
 40
8.0
 40
9.0
 40
9.804189457753335
 40
9.804189457753335
 40
9.804189457753335
 40
9.804189457753335
 10
29.1279184539334
 20
11.35509273480417
 30
0.0
 10
29.03311041311712
 20
11.37706994956493
 30
0.0
 10
28.72676779210047
 20
11.45723276439989
 30
0.0
 10
28.26017022752916
 20
11.61617652305875
 30
0.0
 10
27.89965812550008
 20
11.77887050800198
 30
0.0
 10
27.74229940903712
 20
11.85801649276359
 30
0.0
  0
SPLINE
  5
F4
330
1F
100
AcDbEntity
  8
Default
100
AcDbSpline
210
0.0
220
0.0
230
1.0
 70
     8
 71
     3
 72
     9
 73
     5
 74
     0
 42
0.0000000001
 43
0.0000000001
 40
10.49302715572868
 40
10.49302715572868
 40
10.49302715572868
 40
10.49302715572868
 40
11.0
 40
12.0
 40
12.0
 40
12.0
 40
12.0
 10
27.34562733035406
 20
12.075774584066
 30
0.0
 10
27.25028290951109
 20
12.1326765593396
 30
0.0
 10
26.97136317173578
 20
12.30933012161135
 30
0.0
 10
26.70697536006589
 20
12.50766193987033
 30
0.0
 10
26.53889889339126
 20
12.64807935050377
 30
0.0
  0
SPLINE
  5
F5
330
1F
100
AcDbEntity
  8
Default
100
AcDbSpline
210
0.0
220
0.0
230
1.0
 70
     8
 71
     3
 72
    14
 73
    10
 74
     0
 42
0.0000000001
 43
0.0000000001
 40
-16.37408178933761
 40
-16.37408178933761
 40
-16.37408178933761
 40
-16.37408178933761
 40
-14.95710752747041
 40
-13.59285564749454
 40
-11.67916133593988
 40
-9.20366561872866
 40
-4.5321021812345
 40
-1.64651626198485
 40
0.0
 40
0.0
 40
0.0
 40
0.0
 10
26.53889889339126
 20
12.64807935050377
 30
0.0
 10
26.1783491196762
 20
12.95151807535704
 30
0.0
 10
25.51714511500417
 20
13.61093267971223
 30
0.0
 10
24.6409820348632
 20
14.91100965868108
 30
0.0
 10
23.71418988748589
 20
16.59112162969296
 30
0.0
 10
22.47798592035206
 20
19.35141094470286
 30
0.0
 10
21.49762521332059
 20
22.55641033563741
 30
0.0
 10
20.84528033235172
 20
25.55442456311847
 30
0.0
 10
20.60529949352459
 20
27.04720185292743
 30
0.0
 10
20.58264566038935
 20
27.59681544090879
 30
0.0
  0
SPLINE
  5
F6
330
1F
100
AcDbEntity
  8
Default
100
AcDbSpline
210
0.0
220
0.0
230
1.0
 70
     8
 71
     3
 72
     8
 73
     4
 74
     0
 42
0.0000000001
 43
0.0000000001
 40
0.0
 40
0.0
 40
0.0
 40
0.0
 40
1.0
 40
1.0
 40
1.0
 40
1.0
 10
20.58264566038935
 20
27.59681544090879
 30
0.0
 10
20.57268629950039
 20
27.83844342675575
 30
0.0
 10
20.75493361353405
 20
28.12419012448249
 30
0.0
 10
21.11272404260856
 20
28.06591031136511
 30
0.0
  0
SPLINE
  5
F7
330
1F
100
AcDbEntity
  8
Default
100
AcDbSpline
210
0.0
220
0.0
230
1.0
 70
    12
 71
     3
 72
    22
 73
    18
 74
     0
 42
0.0000000001
 43
0.0000000001
 40
0.0
 40
0.0
 40
0.0
 40
0.0
 40
0.5733453317215156
 40
4.879117115964801
 40
9.234147877084636
 40
9.234147877084636
 40
9.234147877084636
 40
14.59274354194941
 40
14.59274354194941
 40
14.59274354194941
 40
15.59274354194941
 40
16.59274354194941
 40
17.59274354194941
 40
18.59274354194941
 40
19.59274354194941
 40
20.59274354194941
 40
21.59274354194941
 40
21.59274354194941
 40
21.59274354194941
 40
21.59274354194941
 10
21.11272404260856
 20
28.06591031136511
 30
0.0
 41
1.0
 10
21.29691762800575
 20
28.03590736309694
 30
0.0
 41
1.0
 10
22.89645311393444
 20
27.83155953941618
 30
0.0
 41
1.0
 10
25.90162682885488
 20
27.44379887846006
 30
0.0
 41
1.0
 10
28.76681263198667
 20
27.08987561652453
 30
0.0
 41
1.0
 10
30.2090101713354
 20
26.92414505713887
 30
0.0
 41
1.0
 10
32.03920818477193
 20
26.70631493327525
 30
0.0
 41
0.9397413184370592
 10
33.61347841825514
 20
25.74780260771183
 30
0.0
 41
0.9397413184370592
 10
34.64723052570456
 20
24.22188414744946
 30
0.0
 41
1.0
 10
34.91244996712756
 20
23.82659266497937
 30
0.0
 41
1.0
 10
35.44515357397114
 20
23.03753184305262
 30
0.0
 41
1.0
 10
36.25091102455019
 20
21.85849080761941
 30
0.0
 41
1.0
 10
37.0635043211759
 20
20.68415771747235
 30
0.0
 41
1.0
 10
37.88179324514834
 20
19.51376830209343
 30
0.0
 41
1.0
 10
38.73579367421121
 20
18.3687968893357
 30
0.0
 41
1.0
 10
39.64967611796769
 20
17.27066966767809
 30
0.0
 41
1.0
 10
40.305260962486
 20
16.57927666861769
 30
0.0
 41
1.0
 10
40.65296094355513
 20
16.25398396084818
 30
0.0
 41
1.0
  0
SPLINE
  5
F8
330
1F
100
AcDbEntity
  8
Default
100
AcDbSpline
210
0.0
220
0.0
230
1.0
 70
     8
 71
     3
 72
     9
 73
     5
 74
     0
 42
0.0000000001
 43
0.0000000001
 40
0.0
 40
0.0
 40
0.0
 40
0.0
 40
1.0
 40
2.0
 40
2.0
 40
2.0
 40
2.0
 10
40.65296094355513
 20
16.25398396084818
 30
0.0
 10
41.0474055745956
 20
15.87641779000715
 30
0.0
 10
41.94178553204758
 20
15.21561282081268
 30
0.0
 10
43.02318011402184
 20
14.93788399221119
 30
0.0
 10
43.57027861315775
 20
14.91675182292897
 30
0.0
  0
SPLINE
  5
F9
330
1F
100
AcDbEntity
  8
Default
100
AcDbSpline
210
0.0
220
0.0
230
1.0
 70
     8
 71
     3
 72
     8
 73
     4
 74
     0
 42
0.0000000001
 43
0.0000000001
 40
0.0
 40
0.0
 40
0.0
 40
0.0
 40
1.0
 40
1.0
 40
1.0
 40
1.0
 10
43.57027861315775
 20
14.91675182292897
 30
0.0
 10
44.42628729777995
 20
14.8821706903204
 30
0.0
 10
45.28215634300008
 20
14.98991346620425
 30
0.0
 10
46.13768916201411
 20
15.03475004135253
 30
0.0
  0
SPLINE
  5
FA
330
1F
100
AcDbEntity
  8
Default
100
AcDbSpline
210
0.0
220
0.0
230
1.0
 70
     8
 71
     3
 72
    13
 73
     9
 74
     0
 42
0.0000000001
 43
0.0000000001
 40
0.0
 40
0.0
 40
0.0
 40
0.0
 40
0.286105356394717
 40
0.6323793272272145
 40
1.570242750951684
 40
2.93508711673459
 40
4.89069209457038
 40
5.536788109019715
 40
5.536788109019715
 40
5.536788109019715
 40
5.536788109019715
 10
46.13768916201411
 20
15.03475004135253
 30
0.0
 10
46.14168847689308
 20
14.94032472107359
 30
0.0
 10
46.10343998398103
 20
14.72602601481892
 30
0.0
 10
45.79731412276578
 20
14.29208484175058
 30
0.0
 10
45.06570879707095
 20
13.78038997250439
 30
0.0
 10
43.77092074746415
 20
13.19799209684088
 30
0.0
 10
42.52178442587896
 20
12.75934538478946
 30
0.0
 10
41.69014542900945
 20
12.51319699095199
 30
0.0
 10
41.48292881263158
 20
12.45455847586327
 30
0.0
  0
ENDSEC
  0
SECTION
  2
OBJECTS
  0
DICTIONARY
  5
C
330
0
100
AcDbDictionary
281
     1
  3
ACAD_GROUP
350
D
  3
ACAD_LAYOUT
350
1A
  3
ACAD_MLEADERSTYLE
350
FC
  3
ACAD_MLINESTYLE
350
17
  3
ACAD_PLOTSETTINGS
350
19
  3
ACAD_PLOTSTYLENAME
350
E
  3
ACAD_TABLESTYLE
350
FB
  3
ACAD_VISUALSTYLE
350
2A
  0
DICTIONARY
  5
D
102
{ACAD_REACTORS
330
C
102
}
330
C
100
AcDbDictionary
281
     1
  0
DICTIONARY
  5
1A
102
{ACAD_REACTORS
330
C
102
}
330
C
100
AcDbDictionary
281
     1
  3
Layout1
350
1E
  3
Layout2
350
26
  3
Model
350
22
  0
DICTIONARY
  5
FC
102
{ACAD_REACTORS
330
C
102
}
330
C
100
AcDbDictionary
281
     1
  0
DICTIONARY
  5
17
102
{ACAD_REACTORS
330
C
102
}
330
C
100
AcDbDictionary
281
     1
  3
Standard
350
18
  0
DICTIONARY
  5
19
102
{ACAD_REACTORS
330
C
102
}
330
C
100
AcDbDictionary
281
     1
  0
ACDBDICTIONARYWDFLT
  5
E
102
{ACAD_REACTORS
330
C
102
}
330
C
100
AcDbDictionary
281
     1
  3
Normal
350
F
100
AcDbDictionaryWithDefault
340
F
  0
DICTIONARY
  5
FB
102
{ACAD_REACTORS
330
C
102
}
330
C
100
AcDbDictionary
281
     1
  0
DICTIONARY
  5
2A
102
{ACAD_REACTORS
330
C
102
}
330
C
100
AcDbDictionary
281
     1
  3
2dWireframe
350
2F
  3
3D Hidden
350
31
  3
3dWireframe
350
30
  3
Basic
350
32
  3
Brighten
350
36
  3
ColorChange
350
3A
  3
Conceptual
350
34
  3
Dim
350
35
  3
Facepattern
350
39
  3
Flat
350
2B
  3
FlatWithEdges
350
2C
  3
Gouraud
350
2D
  3
GouraudWithEdges
350
2E
  3
Linepattern
350
38
  3
Realistic
350
33
  3
Thicken
350
37
  0
LAYOUT
  5
1E
102
{ACAD_REACTORS
330
1A
102
}
330
1A
100
AcDbPlotSettings
  1

  2
none_device
  4

  6

 40
0.0
 41
0.0
 42
0.0
 43
0.0
 44
0.0
 45
0.0
 46
0.0
 47
0.0
 48
0.0
 49
0.0
140
0.0
141
0.0
142
1.0
143
1.0
 70
   688
 72
     0
 73
     0
 74
     5
  7

 75
    16
 76
     0
 77
     2
 78
   300
147
1.0
148
0.0
149
0.0
100
AcDbLayout
  1
Layout1
 70
     1
 71
     1
 10
0.0
 20
0.0
 11
12.0
 21
9.0
 12
0.0
 22
0.0
 32
0.0
 14
1.000000000000000E+20
 24
1.000000000000000E+20
 34
1.000000000000000E+20
 15
-1.000000000000000E+20
 25
-1.000000000000000E+20
 35
-1.000000000000000E+20
146
0.0
 13
0.0
 23
0.0
 33
0.0
 16
1.0
 26
0.0
 36
0.0
 17
0.0
 27
1.0
 37
0.0
 76
     0
330
1B
  0
LAYOUT
  5
26
102
{ACAD_REACTORS
330
1A
102
}
330
1A
100
AcDbPlotSettings
  1

  2
none_device
  4

  6

 40
0.0
 41
0.0
 42
0.0
 43
0.0
 44
0.0
 45
0.0
 46
0.0
 47
0.0
 48
0.0
 49
0.0
140
0.0
141
0.0
142
1.0
143
1.0
 70
   688
 72
     0
 73
     0
 74
     5
  7

 75
    16
 76
     0
 77
     2
 78
   300
147
1.0
148
0.0
149
0.0
100
AcDbLayout
  1
Layout2
 70
     1
 71
     2
 10
0.0
 20
0.0
 11
0.0
 21
0.0
 12
0.0
 22
0.0
 32
0.0
 14
0.0
 24
0.0
 34
0.0
 15
0.0
 25
0.0
 35
0.0
146
0.0
 13
0.0
 23
0.0
 33
0.0
 16
1.0
 26
0.0
 36
0.0
 17
0.0
 27
1.0
 37
0.0
 76
     0
330
23
  0
LAYOUT
  5
22
102
{ACAD_REACTORS
330
1A
102
}
330
1A
100
AcDbPlotSettings
  1

  2
none_device
  4

  6

 40
0.0
 41
0.0
 42
0.0
 43
0.0
 44
0.0
 45
0.0
 46
0.0
 47
0.0
 48
0.0
 49
0.0
140
0.0
141
0.0
142
1.0
143
1.0
 70
  1712
 72
     0
 73
     0
 74
     0
  7

 75
     0
 76
     0
 77
     2
 78
   300
147
1.0
148
0.0
149
0.0
100
AcDbLayout
  1
Model
 70
     1
 71
     0
 10
0.0
 20
0.0
 11
12.0
 21
9.0
 12
0.0
 22
0.0
 32
0.0
 14
-15.63220927787822
 24
-0.0002651114711827
 34
0.0
 15
46.13768916201531
 25
63.85860682770644
 35
0.0
146
0.0
 13
0.0
 23
0.0
 33
0.0
 16
1.0
 26
0.0
 36
0.0
 17
0.0
 27
1.0
 37
0.0
 76
     0
330
1F
331
29
  0
MLINESTYLE
  5
18
102
{ACAD_REACTORS
330
17
102
}
330
17
100
AcDbMlineStyle
  2
Standard
 70
     0
  3

 62
   256
 51
90.0
 52
90.0
 71
     2
 49
0.5
 62
   256
  6
BYLAYER
 49
-0.5
 62
   256
  6
BYLAYER
  0
ACDBPLACEHOLDER
  5
F
102
{ACAD_REACTORS
330
E
102
}
330
E
  0
VISUALSTYLE
  5
2F
102
{ACAD_REACTORS
330
2A
102
}
330
2A
100
AcDbVisualStyle
  2
2dWireframe
 70
     4
 71
     0
 72
     2
 73
     0
 90
        0
 40
-0.6
 41
-30.0
 62
     5
 63
     7
421
 16777215
 74
     1
 91
        4
 64
     7
 65
   257
 75
     1
175
     1
 42
1.0
 92
        0
 66
   257
 43
1.0
 76
     1
 77
     6
 78
     2
 67
     7
 79
     5
170
     0
171
     0
290
     0
174
     0
 93
        1
 44
0.0
173
     0
291
     0
 45
0.0
1001
ACAD
1000
AcDbSavedByObjectVersion
1070
     0
  0
VISUALSTYLE
  5
31
102
{ACAD_REACTORS
330
2A
102
}
330
2A
100
AcDbVisualStyle
  2
3D Hidden
 70
     6
 71
     1
 72
     2
 73
     2
 90
        0
 40
-0.6
 41
-30.0
 62
     5
 63
     7
421
 16777215
 74
     2
 91
        2
 64
     7
 65
   257
 75
     2
175
     1
 42
40.0
 92
        0
 66
   257
 43
1.0
 76
     1
 77
     6
 78
     2
 67
     7
 79
     3
170
     0
171
     0
290
     0
174
     0
 93
        1
 44
0.0
173
     0
291
     0
 45
0.0
1001
ACAD
1000
AcDbSavedByObjectVersion
1070
     0
  0
VISUALSTYLE
  5
30
102
{ACAD_REACTORS
330
2A
102
}
330
2A
100
AcDbVisualStyle
  2
3dWireframe
 70
     5
 71
     0
 72
     2
 73
     0
 90
        0
 40
-0.6
 41
-30.0
 62
     5
 63
     7
421
 16777215
 74
     1
 91
        4
 64
     7
 65
   257
 75
     1
175
     1
 42
1.0
 92
        0
 66
   257
 43
1.0
 76
     1
 77
     6
 78
     2
 67
     7
 79
     5
170
     0
171
     0
290
     0
174
     0
 93
        1
 44
0.0
173
     0
291
     0
 45
0.0
1001
ACAD
1000
AcDbSavedByObjectVersion
1070
     0
  0
VISUALSTYLE
  5
32
102
{ACAD_REACTORS
330
2A
102
}
330
2A
100
AcDbVisualStyle
  2
Basic
 70
     7
 71
     1
 72
     0
 73
     1
 90
        0
 40
-0.6
 41
-30.0
 62
     5
 63
     7
421
 16777215
 74
     0
 91
        4
 64
     7
 65
   257
 75
     1
175
     1
 42
1.0
 92
        8
 66
     7
 43
1.0
 76
     1
 77
     6
 78
     2
 67
     7
 79
     5
170
     0
171
     0
290
     0
174
     0
 93
        1
 44
0.0
173
     0
291
     1
 45
0.0
1001
ACAD
1000
AcDbSavedByObjectVersion
1070
     0
  0
VISUALSTYLE
  5
36
102
{ACAD_REACTORS
330
2A
102
}
330
2A
100
AcDbVisualStyle
  2
Brighten
 70
    12
 71
     2
 72
     2
 73
     0
 90
        0
 40
-0.6
 41
-30.0
 62
     5
 63
     7
421
 16777215
 74
     1
 91
        4
 64
     7
 65
   257
 75
     1
175
     1
 42
1.0
 92
        8
 66
     7
 43
1.0
 76
     1
 77
     6
 78
     2
 67
     7
 79
     5
170
     0
171
     0
290
     0
174
     0
 93
        1
 44
50.0
173
     0
291
     1
 45
0.0
1001
ACAD
1000
AcDbSavedByObjectVersion
1070
     0
  0
VISUALSTYLE
  5
3A
102
{ACAD_REACTORS
330
2A
102
}
330
2A
100
AcDbVisualStyle
  2
ColorChange
 70
    16
 71
     2
 72
     2
 73
     3
 90
        0
 40
-0.6
 41
-30.0
 62
     5
 63
     8
421
  8421504
 74
     1
 91
        4
 64
     7
 65
   257
 75
     1
175
     1
 42
1.0
 92
        8
 66
     8
424
  8421504
 43
1.0
 76
     1
 77
     6
 78
     2
 67
     7
 79
     5
170
     0
171
     0
290
     0
174
     0
 93
        1
 44
0.0
173
     0
291
     1
 45
0.0
1001
ACAD
1000
AcDbSavedByObjectVersion
1070
     0
  0
VISUALSTYLE
  5
34
102
{ACAD_REACTORS
330
2A
102
}
330
2A
100
AcDbVisualStyle
  2
Conceptual
 70
     9
 71
     3
 72
     2
 73
     0
 90
        0
 40
-0.6
 41
-30.0
 62
     5
 63
     7
421
 16777215
 74
     2
 91
        2
 64
     7
 65
   257
 75
     1
175
     1
 42
40.0
 92
        8
 66
     7
 43
1.0
 76
     1
 77
     6
 78
     2
 67
     7
 79
     3
170
     0
171
     0
290
     0
174
     0
 93
        1
 44
0.0
173
     0
291
     0
 45
0.0
1001
ACAD
1000
AcDbSavedByObjectVersion
1070
     0
  0
VISUALSTYLE
  5
35
102
{ACAD_REACTORS
330
2A
102
}
330
2A
100
AcDbVisualStyle
  2
Dim
 70
    11
 71
     2
 72
     2
 73
     0
 90
        0
 40
-0.6
 41
-30.0
 62
     5
 63
     7
421
 16777215
 74
     1
 91
        4
 64
     7
 65
   257
 75
     1
175
     1
 42
1.0
 92
        8
 66
     7
 43
1.0
 76
     1
 77
     6
 78
     2
 67
     7
 79
     5
170
     0
171
     0
290
     0
174
     0
 93
        1
 44
-50.0
173
     0
291
     1
 45
0.0
1001
ACAD
1000
AcDbSavedByObjectVersion
1070
     0
  0
VISUALSTYLE
  5
39
102
{ACAD_REACTORS
330
2A
102
}
330
2A
100
AcDbVisualStyle
  2
Facepattern
 70
    15
 71
     2
 72
     2
 73
     0
 90
        0
 40
-0.6
 41
-30.0
 62
     5
 63
     7
421
 16777215
 74
     1
 91
        4
 64
     7
 65
   257
 75
     1
175
     1
 42
1.0
 92
        8
 66
     7
 43
1.0
 76
     1
 77
     6
 78
     2
 67
     7
 79
     5
170
     0
171
     0
290
     0
174
     0
 93
        1
 44
0.0
173
     0
291
     1
 45
0.0
1001
ACAD
1000
AcDbSavedByObjectVersion
1070
     0
  0
VISUALSTYLE
  5
2B
102
{ACAD_REACTORS
330
2A
102
}
330
2A
100
AcDbVisualStyle
  2
Flat
 70
     0
 71
     2
 72
     1
 73
     1
 90
        2
 40
-0.6
 41
30.0
 62
     5
 63
     7
421
 16777215
 74
     0
 91
        4
 64
     7
 65
   257
 75
     1
175
     1
 42
1.0
 92
        8
 66
     7
 43
1.0
 76
     1
 77
     6
 78
     2
 67
     7
 79
     5
170
     0
171
     0
290
     0
174
     0
 93
       13
 44
0.0
173
     0
291
     1
 45
0.0
1001
ACAD
1000
AcDbSavedByObjectVersion
1070
     0
  0
VISUALSTYLE
  5
2C
102
{ACAD_REACTORS
330
2A
102
}
330
2A
100
AcDbVisualStyle
  2
FlatWithEdges
 70
     1
 71
     2
 72
     1
 73
     1
 90
        2
 40
-0.6
 41
30.0
 62
     5
 63
     7
421
 16777215
 74
     1
 91
        4
 64
     7
 65
   257
 75
     1
175
     1
 42
1.0
 92
        0
 66
   257
 43
1.0
 76
     1
 77
     6
 78
     2
 67
     7
 79
     5
170
     0
171
     0
290
     0
174
     0
 93
       13
 44
0.0
173
     0
291
     1
 45
0.0
1001
ACAD
1000
AcDbSavedByObjectVersion
1070
     0
  0
VISUALSTYLE
  5
2D
102
{ACAD_REACTORS
330
2A
102
}
330
2A
100
AcDbVisualStyle
  2
Gouraud
 70
     2
 71
     2
 72
     2
 73
     1
 90
        2
 40
-0.6
 41
30.0
 62
     5
 63
     7
421
 16777215
 74
     0
 91
        4
 64
     7
 65
   257
 75
     1
175
     1
 42
1.0
 92
        0
 66
     7
 43
1.0
 76
     1
 77
     6
 78
     2
 67
     7
 79
     5
170
     0
171
     0
290
     0
174
     0
 93
       13
 44
0.0
173
     0
291
     1
 45
0.0
1001
ACAD
1000
AcDbSavedByObjectVersion
1070
     0
  0
VISUALSTYLE
  5
2E
102
{ACAD_REACTORS
330
2A
102
}
330
2A
100
AcDbVisualStyle
  2
GouraudWithEdges
 70
     3
 71
     2
 72
     2
 73
     1
 90
        2
 40
-0.6
 41
30.0
 62
     5
 63
     7
421
 16777215
 74
     1
 91
        4
 64
     7
 65
   257
 75
     1
175
     1
 42
1.0
 92
        0
 66
   257
 43
1.0
 76
     1
 77
     6
 78
     2
 67
     7
 79
     5
170
     0
171
     0
290
     0
174
     0
 93
       13
 44
0.0
173
     0
291
     1
 45
0.0
1001
ACAD
1000
AcDbSavedByObjectVersion
1070
     0
  0
VISUALSTYLE
  5
38
102
{ACAD_REACTORS
330
2A
102
}
330
2A
100
AcDbVisualStyle
  2
Linepattern
 70
    14
 71
     2
 72
     2
 73
     0
 90
        0
 40
-0.6
 41
-30.0
 62
     5
 63
     7
421
 16777215
 74
     1
 91
        4
 64
     7
 65
   257
 75
     7
175
     7
 42
1.0
 92
        8
 66
     7
 43
1.0
 76
     1
 77
     6
 78
     2
 67
     7
 79
     5
170
     0
171
     0
290
     0
174
     0
 93
        1
 44
0.0
173
     0
291
     1
 45
0.0
1001
ACAD
1000
AcDbSavedByObjectVersion
1070
     0
  0
VISUALSTYLE
  5
33
102
{ACAD_REACTORS
330
2A
102
}
330
2A
100
AcDbVisualStyle
  2
Realistic
 70
     8
 71
     2
 72
     2
 73
     0
 90
        0
 40
-0.6
 41
-30.0
 62
     5
 63
     7
421
 16777215
 74
     1
 91
        0
 64
     7
 65
   257
 75
     1
175
     1
 42
1.0
 92
        8
 66
     8
424
  7895160
 43
1.0
 76
     1
 77
     6
 78
     2
 67
     7
 79
     5
170
     0
171
     0
290
     0
174
     0
 93
       13
 44
0.0
173
     0
291
     0
 45
0.0
1001
ACAD
1000
AcDbSavedByObjectVersion
1070
     0
  0
VISUALSTYLE
  5
37
102
{ACAD_REACTORS
330
2A
102
}
330
2A
100
AcDbVisualStyle
  2
Thicken
 70
    13
 71
     2
 72
     2
 73
     0
 90
        0
 40
-0.6
 41
-30.0
 62
     5
 63
     7
421
 16777215
 74
     1
 91
        4
 64
     7
 65
   257
 75
     1
175
     1
 42
1.0
 92
       12
 66
     7
 43
1.0
 76
     1
 77
     6
 78
     2
 67
     7
 79
     5
170
     0
171
     0
290
     0
174
     0
 93
        1
 44
0.0
173
     0
291
     1
 45
0.0
1001
ACAD
1000
AcDbSavedByObjectVersion
1070
     0
  0
ENDSEC
  0
EOF
