  0
SECTION
  2
HEADER
  9
$ACADVER
  1
AC1018
  9
$ACADMAINTVER
 70
     0
  9
$DWGCODEPAGE
  3
ANSI_1252
  9
$INSBASE
 10
0.0
 20
0.0
 30
0.0
  9
$EXTMIN
 10
-15.63220927787822
 20
0.0000000000000034
 30
0.0
  9
$EXTMAX
 10
57.26436956481862
 20
68.09536522144397
 30
0.0
  9
$LIMMIN
 10
0.0
 20
0.0
  9
$LIMMAX
 10
12.0
 20
9.0
  9
$ORTHOMODE
 70
     0
  9
$REGENMODE
 70
     1
  9
$FILLMODE
 70
     1
  9
$QTEXTMODE
 70
     0
  9
$MIRRTEXT
 70
     1
  9
$LTSCALE
 40
0.0393700787401575
  9
$ATTMODE
 70
     1
  9
$TEXTSIZE
 40
0.2
  9
$TRACEWID
 40
0.05
  9
$TEXTSTYLE
  7
Standard
  9
$CLAYER
  8
Default
  9
$CELTYPE
  6
ByLayer
  9
$CECOLOR
 62
   256
  9
$CELTSCALE
 40
1.0
  9
$DISPSILH
 70
     0
  9
$DIMSCALE
 40
1.0
  9
$DIMASZ
 40
0.18
  9
$DIMEXO
 40
0.0625
  9
$DIMDLI
 40
0.38
  9
$DIMRND
 40
0.0
  9
$DIMDLE
 40
0.0
  9
$DIMEXE
 40
0.18
  9
$DIMTP
 40
0.0
  9
$DIMTM
 40
0.0
  9
$DIMTXT
 40
0.18
  9
$DIMCEN
 40
0.09
  9
$DIMTSZ
 40
0.0
  9
$DIMTOL
 70
     0
  9
$DIMLIM
 70
     0
  9
$DIMTIH
 70
     1
  9
$DIMTOH
 70
     1
  9
$DIMSE1
 70
     0
  9
$DIMSE2
 70
     0
  9
$DIMTAD
 70
     0
  9
$DIMZIN
 70
     0
  9
$DIMBLK
  1

  9
$DIMASO
 70
     1
  9
$DIMSHO
 70
     1
  9
$DIMPOST
  1

  9
$DIMAPOST
  1

  9
$DIMALT
 70
     0
  9
$DIMALTD
 70
     2
  9
$DIMALTF
 40
25.4
  9
$DIMLFAC
 40
1.0
  9
$DIMTOFL
 70
     0
  9
$DIMTVP
 40
0.0
  9
$DIMTIX
 70
     0
  9
$DIMSOXD
 70
     0
  9
$DIMSAH
 70
     0
  9
$DIMBLK1
  1

  9
$DIMBLK2
  1

  9
$DIMSTYLE
  2
Standard
  9
$DIMCLRD
 70
     0
  9
$DIMCLRE
 70
     0
  9
$DIMCLRT
 70
     0
  9
$DIMTFAC
 40
1.0
  9
$DIMGAP
 40
0.09
  9
$DIMJUST
 70
     0
  9
$DIMSD1
 70
     0
  9
$DIMSD2
 70
     0
  9
$DIMTOLJ
 70
     1
  9
$DIMTZIN
 70
     0
  9
$DIMALTZ
 70
     0
  9
$DIMALTTZ
 70
     0
  9
$DIMUPT
 70
     0
  9
$DIMDEC
 70
     4
  9
$DIMTDEC
 70
     4
  9
$DIMALTU
 70
     2
  9
$DIMALTTD
 70
     2
  9
$DIMTXSTY
  7
Standard
  9
$DIMAUNIT
 70
     0
  9
$DIMADEC
 70
     0
  9
$DIMALTRND
 40
0.0
  9
$DIMAZIN
 70
     0
  9
$DIMDSEP
 70
    46
  9
$DIMATFIT
 70
     3
  9
$DIMFRAC
 70
     0
  9
$DIMLDRBLK
  1

  9
$DIMLUNIT
 70
     2
  9
$DIMLWD
 70
    -2
  9
$DIMLWE
 70
    -2
  9
$DIMTMOVE
 70
     2
  9
$LUNITS
 70
     2
  9
$LUPREC
 70
     3
  9
$SKETCHINC
 40
0.1
  9
$FILLETRAD
 40
0.5
  9
$AUNITS
 70
     0
  9
$AUPREC
 70
     0
  9
$MENU
  1
.
  9
$ELEVATION
 40
0.0
  9
$PELEVATION
 40
0.0
  9
$THICKNESS
 40
0.0
  9
$LIMCHECK
 70
     0
  9
$CHAMFERA
 40
0.5
  9
$CHAMFERB
 40
0.5
  9
$CHAMFERC
 40
1.0
  9
$CHAMFERD
 40
0.0
  9
$SKPOLY
 70
     0
  9
$TDCREATE
 40
2456338.472638912
  9
$TDUCREATE
 40
2456338.680972246
  9
$TDUPDATE
 40
2456338.472638924
  9
$TDUUPDATE
 40
2456338.680972257
  9
$TDINDWG
 40
0.0000000116
  9
$TDUSRTIMER
 40
0.0000000116
  9
$USRTIMER
 70
     1
  9
$ANGBASE
 50
0.0
  9
$ANGDIR
 70
     0
  9
$PDMODE
 70
     0
  9
$PDSIZE
 40
0.0
  9
$PLINEWID
 40
0.0
  9
$SPLFRAME
 70
     0
  9
$SPLINETYPE
 70
     6
  9
$SPLINESEGS
 70
     8
  9
$HANDSEED
  5
ED
  9
$SURFTAB1
 70
     6
  9
$SURFTAB2
 70
     6
  9
$SURFTYPE
 70
     6
  9
$SURFU
 70
     6
  9
$SURFV
 70
     6
  9
$UCSBASE
  2

  9
$UCSNAME
  2

  9
$UCSORG
 10
0.0
 20
0.0
 30
0.0
  9
$UCSXDIR
 10
1.0
 20
0.0
 30
0.0
  9
$UCSYDIR
 10
0.0
 20
1.0
 30
0.0
  9
$UCSORTHOREF
  2

  9
$UCSORTHOVIEW
 70
     0
  9
$UCSORGTOP
 10
0.0
 20
0.0
 30
0.0
  9
$UCSORGBOTTOM
 10
0.0
 20
0.0
 30
0.0
  9
$UCSORGLEFT
 10
0.0
 20
0.0
 30
0.0
  9
$UCSORGRIGHT
 10
0.0
 20
0.0
 30
0.0
  9
$UCSORGFRONT
 10
0.0
 20
0.0
 30
0.0
  9
$UCSORGBACK
 10
0.0
 20
0.0
 30
0.0
  9
$PUCSBASE
  2

  9
$PUCSNAME
  2

  9
$PUCSORG
 10
0.0
 20
0.0
 30
0.0
  9
$PUCSXDIR
 10
1.0
 20
0.0
 30
0.0
  9
$PUCSYDIR
 10
0.0
 20
1.0
 30
0.0
  9
$PUCSORTHOREF
  2

  9
$PUCSORTHOVIEW
 70
     0
  9
$PUCSORGTOP
 10
0.0
 20
0.0
 30
0.0
  9
$PUCSORGBOTTOM
 10
0.0
 20
0.0
 30
0.0
  9
$PUCSORGLEFT
 10
0.0
 20
0.0
 30
0.0
  9
$PUCSORGRIGHT
 10
0.0
 20
0.0
 30
0.0
  9
$PUCSORGFRONT
 10
0.0
 20
0.0
 30
0.0
  9
$PUCSORGBACK
 10
0.0
 20
0.0
 30
0.0
  9
$USERI1
 70
     0
  9
$USERI2
 70
     0
  9
$USERI3
 70
     0
  9
$USERI4
 70
     0
  9
$USERI5
 70
     0
  9
$USERR1
 40
0.0
  9
$USERR2
 40
0.0
  9
$USERR3
 40
0.0
  9
$USERR4
 40
0.0
  9
$USERR5
 40
0.0
  9
$WORLDVIEW
 70
     1
  9
$SHADEDGE
 70
     3
  9
$SHADEDIF
 70
    70
  9
$TILEMODE
 70
     1
  9
$MAXACTVP
 70
    64
  9
$PINSBASE
 10
0.0
 20
0.0
 30
0.0
  9
$PLIMCHECK
 70
     0
  9
$PEXTMIN
 10
1.000000000000000E+20
 20
1.000000000000000E+20
 30
1.000000000000000E+20
  9
$PEXTMAX
 10
-1.000000000000000E+20
 20
-1.000000000000000E+20
 30
-1.000000000000000E+20
  9
$PLIMMIN
 10
0.0
 20
0.0
  9
$PLIMMAX
 10
12.0
 20
9.0
  9
$UNITMODE
 70
     0
  9
$VISRETAIN
 70
     1
  9
$PLINEGEN
 70
     0
  9
$PSLTSCALE
 70
     1
  9
$TREEDEPTH
 70
  3020
  9
$CMLSTYLE
  2
Standard
  9
$CMLJUST
 70
     0
  9
$CMLSCALE
 40
1.0
  9
$PROXYGRAPHICS
 70
     1
  9
$MEASUREMENT
 70
     0
  9
$CELWEIGHT
370
    -1
  9
$ENDCAPS
280
     0
  9
$JOINSTYLE
280
     0
  9
$LWDISPLAY
290
     0
  9
$INSUNITS
 70
     1
  9
$HYPERLINKBASE
  1

  9
$STYLESHEET
  1

  9
$XEDIT
290
     1
  9
$CEPSNTYPE
380
     0
  9
$PSTYLEMODE
290
     1
  9
$FINGERPRINTGUID
  2
{778616D5-3FD4-451F-8E75-EBAD83C98526}
  9
$VERSIONGUID
  2
{FAEB1C32-E019-11D5-929B-00C0DF256EC4}
  9
$EXTNAMES
290
     1
  9
$PSVPSCALE
 40
0.0
  9
$OLESTARTUP
290
     0
  9
$SORTENTS
280
   127
  9
$INDEXCTL
280
     0
  9
$HIDETEXT
280
     1
  9
$XCLIPFRAME
290
     0
  9
$HALOGAP
280
     0
  9
$OBSCOLOR
 70
   257
  9
$OBSLTYPE
280
     0
  9
$INTERSECTIONDISPLAY
280
     0
  9
$INTERSECTIONCOLOR
 70
   257
  9
$DIMASSOC
280
     2
  9
$PROJECTNAME
  1

  0
ENDSEC
  0
SECTION
  2
CLASSES
  0
CLASS
  1
ACDBDICTIONARYWDFLT
  2
AcDbDictionaryWithDefault
  3
ObjectDBX Classes
 90
        0
 91
        4
280
     0
281
     0
  0
CLASS
  1
VISUALSTYLE
  2
AcDbVisualStyle
  3
ObjectDBX Classes
 90
     4095
 91
        4
280
     0
281
     0
  0
ENDSEC
  0
SECTION
  2
TABLES
  0
TABLE
  2
VPORT
  5
8
330
0
100
AcDbSymbolTable
 70
     1
  0
VPORT
  5
29
330
8
100
AcDbSymbolTableRecord
100
AcDbViewportTableRecord
  2
*Active
 70
     0
 10
0.0
 20
0.0
 11
1.0
 21
1.0
 12
20.8160801434702
 22
34.04768261072198
 13
0.0
 23
0.0
 14
0.5
 24
0.5
 15
0.5
 25
0.5
 16
0.0
 26
0.0
 36
1.0
 17
0.0
 27
0.0
 37
0.0
 40
69.45727252587285
 41
1.070507201270446
 42
50.0
 43
0.0
 44
0.0
 50
0.0
 51
0.0
 71
     0
 72
   100
 73
     1
 74
     3
 75
     0
 76
     0
 77
     0
 78
     0
281
     0
 65
     1
110
0.0
120
0.0
130
0.0
111
1.0
121
0.0
131
0.0
112
0.0
122
1.0
132
0.0
 79
     0
146
0.0
  0
ENDTAB
  0
TABLE
  2
LTYPE
  5
5
330
0
100
AcDbSymbolTable
 70
     1
  0
LTYPE
  5
14
330
5
100
AcDbSymbolTableRecord
100
AcDbLinetypeTableRecord
  2
ByBlock
 70
     0
  3

 72
    65
 73
     0
 40
0.0
  0
LTYPE
  5
15
330
5
100
AcDbSymbolTableRecord
100
AcDbLinetypeTableRecord
  2
ByLayer
 70
     0
  3

 72
    65
 73
     0
 40
0.0
  0
LTYPE
  5
16
330
5
100
AcDbSymbolTableRecord
100
AcDbLinetypeTableRecord
  2
Continuous
 70
     0
  3
Solid line
 72
    65
 73
     0
 40
0.0
  0
ENDTAB
  0
TABLE
  2
LAYER
  5
2
330
0
100
AcDbSymbolTable
 70
     4
  0
LAYER
  5
10
330
2
100
AcDbSymbolTableRecord
100
AcDbLayerTableRecord
  2
0
 70
     0
 62
     7
  6
Continuous
370
    -3
390
F
  0
LAYER
  5
3B
330
2
100
AcDbSymbolTableRecord
100
AcDbLayerTableRecord
  2
Make2D visible lines
 70
     0
 62
     7
  6
Continuous
370
    -3
390
F
  0
LAYER
  5
4F
330
2
100
AcDbSymbolTableRecord
100
AcDbLayerTableRecord
  2
Make2D visible lines - Tangent
 70
     0
 62
     7
  6
Continuous
370
    -3
390
F
  0
LAYER
  5
AF
330
2
100
AcDbSymbolTableRecord
100
AcDbLayerTableRecord
  2
Default
 70
     0
 62
     7
  6
Continuous
370
    -3
390
F
  0
ENDTAB
  0
TABLE
  2
STYLE
  5
3
330
0
100
AcDbSymbolTable
 70
     1
  0
STYLE
  5
11
330
3
100
AcDbSymbolTableRecord
100
AcDbTextStyleTableRecord
  2
Standard
 70
     0
 40
0.0
 41
1.0
 50
0.0
 71
     0
 42
0.2
  3
txt
  4

  0
ENDTAB
  0
TABLE
  2
VIEW
  5
6
330
0
100
AcDbSymbolTable
 70
     0
  0
ENDTAB
  0
TABLE
  2
UCS
  5
7
330
0
100
AcDbSymbolTable
 70
     0
  0
ENDTAB
  0
TABLE
  2
APPID
  5
9
330
0
100
AcDbSymbolTable
 70
     1
  0
APPID
  5
12
330
9
100
AcDbSymbolTableRecord
100
AcDbRegAppTableRecord
  2
ACAD
 70
     0
  0
ENDTAB
  0
TABLE
  2
DIMSTYLE
  5
A
330
0
100
AcDbSymbolTable
 70
     1
100
AcDbDimStyleTable
  0
DIMSTYLE
105
27
330
A
100
AcDbSymbolTableRecord
100
AcDbDimStyleTableRecord
  2
Standard
 70
     0
340
11
  0
ENDTAB
  0
TABLE
  2
BLOCK_RECORD
  5
1
330
0
100
AcDbSymbolTable
 70
     1
  0
BLOCK_RECORD
  5
1F
330
1
100
AcDbSymbolTableRecord
100
AcDbBlockTableRecord
  2
*Model_Space
340
22
  0
BLOCK_RECORD
  5
1B
330
1
100
AcDbSymbolTableRecord
100
AcDbBlockTableRecord
  2
*Paper_Space
340
1E
  0
BLOCK_RECORD
  5
23
330
1
100
AcDbSymbolTableRecord
100
AcDbBlockTableRecord
  2
*Paper_Space0
340
26
  0
ENDTAB
  0
ENDSEC
  0
SECTION
  2
BLOCKS
  0
BLOCK
  5
20
330
1F
100
AcDbEntity
  8
0
100
AcDbBlockBegin
  2
*Model_Space
 70
     0
 10
0.0
 20
0.0
 30
0.0
  3
*Model_Space
  1

  0
ENDBLK
  5
21
330
1F
100
AcDbEntity
  8
0
100
AcDbBlockEnd
  0
BLOCK
  5
1C
330
1B
100
AcDbEntity
 67
     1
  8
0
100
AcDbBlockBegin
  2
*Paper_Space
 70
     0
 10
0.0
 20
0.0
 30
0.0
  3
*Paper_Space
  1

  0
ENDBLK
  5
1D
330
1B
100
AcDbEntity
 67
     1
  8
0
100
AcDbBlockEnd
  0
BLOCK
  5
24
330
23
100
AcDbEntity
  8
0
100
AcDbBlockBegin
  2
*Paper_Space0
 70
     0
 10
0.0
 20
0.0
 30
0.0
  3
*Paper_Space0
  1

  0
ENDBLK
  5
25
330
23
100
AcDbEntity
  8
0
100
AcDbBlockEnd
  0
ENDSEC
  0
SECTION
  2
ENTITIES
  0
SPLINE
  5
3C
330
1F
100
AcDbEntity
  8
Make2D visible lines
100
AcDbSpline
210
0.0
220
0.0
230
1.0
 70
     8
 71
     3
 72
     8
 73
     4
 74
     0
 42
0.0000000001
 43
0.0000000001
 40
0.6950384688492743
 40
0.6950384688492743
 40
0.6950384688492743
 40
0.6950384688492743
 40
1.0
 40
1.0
 40
1.0
 40
1.0
 10
43.09182545515017
 20
3.673125576136301
 30
0.0
 10
43.34032008411272
 20
3.670158211529776
 30
0.0
 10
43.58877314422623
 20
3.664870965980719
 30
0.0
 10
43.83711963857024
 20
3.65726383948913
 30
0.0
  0
SPLINE
  5
3D
330
1F
100
AcDbEntity
  8
Make2D visible lines
100
AcDbSpline
210
0.0
220
0.0
230
1.0
 70
    12
 71
     3
 72
     8
 73
     4
 74
     0
 42
0.0000000001
 43
0.0000000001
 40
-0.9983344876344831
 40
-0.9983344876344831
 40
-0.9983344876344831
 40
-0.9983344876344831
 40
0.0
 40
0.0
 40
0.0
 40
0.0
 10
43.83711963857024
 20
3.65726383948913
 30
0.0
 41
1.0
 10
44.29178237733986
 20
3.64333701932616
 30
0.0
 41
1.0
 10
44.7441651531161
 20
3.574404695741988
 30
0.0
 41
1.0
 10
45.19501644368707
 20
3.511811827671384
 30
0.0
 41
1.0
  0
SPLINE
  5
3E
330
1F
100
AcDbEntity
  8
Make2D visible lines
100
AcDbSpline
210
0.0
220
0.0
230
1.0
 70
    24
 71
     2
 72
     6
 73
     3
 74
     0
 42
0.0000000001
 43
0.0000000001
 40
0.0
 40
0.0
 40
0.0
 40
10.36850216633574
 40
10.36850216633574
 40
10.36850216633574
 10
45.19501644368707
 20
3.511811827671384
 30
0.0
 10
50.33001644368707
 20
2.798906298637399
 30
0.0
 10
55.46501644368707
 20
2.086000769603414
 30
0.0
  0
SPLINE
  5
3F
330
1F
100
AcDbEntity
  8
Make2D visible lines
100
AcDbSpline
210
0.0
220
0.0
230
1.0
 70
     8
 71
     3
 72
    13
 73
     9
 74
     0
 42
0.0000000001
 43
0.0000000001
 40
0.0
 40
0.0
 40
0.0
 40
0.0
 40
0.1163337939371243
 40
0.2443108918713642
 40
0.4828690280123605
 40
0.5672189493277444
 40
0.750510233115731
 40
1.83258135608072
 40
1.83258135608072
 40
1.83258135608072
 40
1.83258135608072
 10
55.46501644368707
 20
2.086000769603414
 30
0.0
 10
55.50269536726016
 20
2.080693221901958
 30
0.0
 10
55.58363136125955
 20
2.057218183732865
 30
0.0
 10
55.71601298950972
 20
1.966768126584214
 30
0.0
 10
55.79839677042408
 20
1.830020096093349
 30
0.0
 10
55.80945238927565
 20
1.661268225296924
 30
0.0
 10
55.81752561026681
 20
1.211528658082631
 30
0.0
 10
55.8303508440803
 20
0.7898405850234216
 30
0.0
 10
55.83830116723628
 20
0.429267031622143
 30
0.0
  0
SPLINE
  5
40
330
1F
100
AcDbEntity
  8
Make2D visible lines
100
AcDbSpline
210
0.0
220
0.0
230
1.0
 70
     8
 71
     3
 72
    13
 73
     9
 74
     0
 42
0.0000000001
 43
0.0000000001
 40
-1.83258135608072
 40
-1.83258135608072
 40
-1.83258135608072
 40
-1.83258135608072
 40
-0.750510233115731
 40
-0.5672189493277444
 40
-0.4828690280123605
 40
-0.2443108918713642
 40
-0.1163337939371243
 40
0.0
 40
0.0
 40
0.0
 40
0.0
 10
29.39173172013774
 20
0.429267031622143
 30
0.0
 10
29.39968204329372
 20
0.7898405850234216
 30
0.0
 10
29.41250727710721
 20
1.211528658082631
 30
0.0
 10
29.42058049809838
 20
1.661268225296924
 30
0.0
 10
29.43163611694994
 20
1.830020096093349
 30
0.0
 10
29.5140198978643
 20
1.966768126584214
 30
0.0
 10
29.64640152611447
 20
2.057218183732865
 30
0.0
 10
29.72733752011387
 20
2.080693221901958
 30
0.0
 10
29.76501644368695
 20
2.086000769603414
 30
0.0
  0
SPLINE
  5
41
330
1F
100
AcDbEntity
  8
Make2D visible lines
100
AcDbSpline
210
0.0
220
0.0
230
1.0
 70
    24
 71
     2
 72
     6
 73
     3
 74
     0
 42
0.0000000001
 43
0.0000000001
 40
-10.36850216633574
 40
-10.36850216633574
 40
-10.36850216633574
 40
0.0
 40
0.0
 40
0.0
 10
29.76501644368695
 20
2.086000769603414
 30
0.0
 10
34.90001644368695
 20
2.798906298637399
 30
0.0
 10
40.03501644368696
 20
3.511811827671384
 30
0.0
  0
SPLINE
  5
42
330
1F
100
AcDbEntity
  8
Make2D visible lines
100
AcDbSpline
210
0.0
220
0.0
230
1.0
 70
    12
 71
     3
 72
     8
 73
     4
 74
     0
 42
0.0000000001
 43
0.0000000001
 40
0.0
 40
0.0
 40
0.0
 40
0.0
 40
0.9983344876344831
 40
0.9983344876344831
 40
0.9983344876344831
 40
0.9983344876344831
 10
40.03501644368696
 20
3.511811827671384
 30
0.0
 41
1.0
 10
40.48586773425792
 20
3.574404695741988
 30
0.0
 41
1.0
 10
40.93825051003416
 20
3.64333701932616
 30
0.0
 41
1.0
 10
41.39291324880378
 20
3.65726383948913
 30
0.0
 41
1.0
  0
SPLINE
  5
43
330
1F
100
AcDbEntity
  8
Make2D visible lines
100
AcDbSpline
210
0.0
220
0.0
230
1.0
 70
     8
 71
     3
 72
     8
 73
     4
 74
     0
 42
0.0000000001
 43
0.0000000001
 40
0.0
 40
0.0
 40
0.0
 40
0.0
 40
0.3051876163662417
 40
0.3051876163662417
 40
0.3051876163662417
 40
0.3051876163662417
 10
41.39291324880378
 20
3.65726383948913
 30
0.0
 10
41.64144385643738
 20
3.664876605573444
 30
0.0
 10
41.89008118790549
 20
3.670166049722532
 30
0.0
 10
42.1387601016228
 20
3.673132171936395
 30
0.0
  0
SPLINE
  5
44
330
1F
100
AcDbEntity
  8
Make2D visible lines
100
AcDbSpline
210
0.0
220
0.0
230
1.0
 70
     8
 71
     3
 72
     8
 73
     4
 74
     0
 42
0.0000000001
 43
0.0000000001
 40
0.6950384688492743
 40
0.6950384688492743
 40
0.6950384688492743
 40
0.6950384688492743
 40
1.0
 40
1.0
 40
1.0
 40
1.0
 10
0.4768090114631614
 20
3.673125576136301
 30
0.0
 10
0.7253036404257046
 20
3.670158211529776
 30
0.0
 10
0.9737567005392187
 20
3.664870965980719
 30
0.0
 10
1.222103194883235
 20
3.65726383948913
 30
0.0
  0
SPLINE
  5
45
330
1F
100
AcDbEntity
  8
Make2D visible lines
100
AcDbSpline
210
0.0
220
0.0
230
1.0
 70
    12
 71
     3
 72
     8
 73
     4
 74
     0
 42
0.0000000001
 43
0.0000000001
 40
-0.9983344876344831
 40
-0.9983344876344831
 40
-0.9983344876344831
 40
-0.9983344876344831
 40
0.0
 40
0.0
 40
0.0
 40
0.0
 10
1.222103194883235
 20
3.65726383948913
 30
0.0
 41
1.0
 10
1.676765933652849
 20
3.64333701932616
 30
0.0
 41
1.0
 10
2.129148709429085
 20
3.574404695741988
 30
0.0
 41
1.0
 10
2.580000000000052
 20
3.511811827671384
 30
0.0
 41
1.0
  0
SPLINE
  5
46
330
1F
100
AcDbEntity
  8
Make2D visible lines
100
AcDbSpline
210
0.0
220
0.0
230
1.0
 70
    24
 71
     2
 72
     6
 73
     3
 74
     0
 42
0.0000000001
 43
0.0000000001
 40
0.0
 40
0.0
 40
0.0
 40
10.36850216633574
 40
10.36850216633574
 40
10.36850216633574
 10
2.580000000000052
 20
3.511811827671384
 30
0.0
 10
7.715000000000055
 20
2.798906298637399
 30
0.0
 10
12.85000000000006
 20
2.086000769603414
 30
0.0
  0
SPLINE
  5
47
330
1F
100
AcDbEntity
  8
Make2D visible lines
100
AcDbSpline
210
0.0
220
0.0
230
1.0
 70
     8
 71
     3
 72
    13
 73
     9
 74
     0
 42
0.0000000001
 43
0.0000000001
 40
0.0
 40
0.0
 40
0.0
 40
0.0
 40
0.1163337939371243
 40
0.2443108918713642
 40
0.4828690280123605
 40
0.5672189493277444
 40
0.750510233115731
 40
1.83258135608072
 40
1.83258135608072
 40
1.83258135608072
 40
1.83258135608072
 10
12.85000000000006
 20
2.086000769603414
 30
0.0
 10
12.88767892357314
 20
2.080693221901958
 30
0.0
 10
12.96861491757254
 20
2.057218183732865
 30
0.0
 10
13.10099654582271
 20
1.966768126584214
 30
0.0
 10
13.18338032673707
 20
1.830020096093349
 30
0.0
 10
13.19443594558863
 20
1.661268225296924
 30
0.0
 10
13.2025091665798
 20
1.211528658082631
 30
0.0
 10
13.21533440039329
 20
0.7898405850234216
 30
0.0
 10
13.22328472354927
 20
0.429267031622143
 30
0.0
  0
SPLINE
  5
48
330
1F
100
AcDbEntity
  8
Make2D visible lines
100
AcDbSpline
210
0.0
220
0.0
230
1.0
 70
     8
 71
     3
 72
    13
 73
     9
 74
     0
 42
0.0000000001
 43
0.0000000001
 40
-1.83258135608072
 40
-1.83258135608072
 40
-1.83258135608072
 40
-1.83258135608072
 40
-0.750510233115731
 40
-0.5672189493277444
 40
-0.4828690280123605
 40
-0.2443108918713642
 40
-0.1163337939371243
 40
0.0
 40
0.0
 40
0.0
 40
0.0
 10
-13.22328472354927
 20
0.429267031622143
 30
0.0
 10
-13.21533440039329
 20
0.7898405850234216
 30
0.0
 10
-13.2025091665798
 20
1.211528658082631
 30
0.0
 10
-13.19443594558863
 20
1.661268225296924
 30
0.0
 10
-13.18338032673707
 20
1.830020096093349
 30
0.0
 10
-13.10099654582271
 20
1.966768126584214
 30
0.0
 10
-12.96861491757254
 20
2.057218183732865
 30
0.0
 10
-12.88767892357314
 20
2.080693221901958
 30
0.0
 10
-12.85000000000006
 20
2.086000769603414
 30
0.0
  0
SPLINE
  5
49
330
1F
100
AcDbEntity
  8
Make2D visible lines
100
AcDbSpline
210
0.0
220
0.0
230
1.0
 70
    24
 71
     2
 72
     6
 73
     3
 74
     0
 42
0.0000000001
 43
0.0000000001
 40
-10.36850216633574
 40
-10.36850216633574
 40
-10.36850216633574
 40
0.0
 40
0.0
 40
0.0
 10
-12.85000000000006
 20
2.086000769603414
 30
0.0
 10
-7.715000000000055
 20
2.798906298637399
 30
0.0
 10
-2.580000000000052
 20
3.511811827671384
 30
0.0
  0
SPLINE
  5
4A
330
1F
100
AcDbEntity
  8
Make2D visible lines
100
AcDbSpline
210
0.0
220
0.0
230
1.0
 70
    12
 71
     3
 72
     8
 73
     4
 74
     0
 42
0.0000000001
 43
0.0000000001
 40
0.0
 40
0.0
 40
0.0
 40
0.0
 40
0.9983344876344831
 40
0.9983344876344831
 40
0.9983344876344831
 40
0.9983344876344831
 10
-2.580000000000052
 20
3.511811827671384
 30
0.0
 41
1.0
 10
-2.129148709429085
 20
3.574404695741988
 30
0.0
 41
1.0
 10
-1.676765933652849
 20
3.64333701932616
 30
0.0
 41
1.0
 10
-1.222103194883235
 20
3.65726383948913
 30
0.0
 41
1.0
  0
SPLINE
  5
4B
330
1F
100
AcDbEntity
  8
Make2D visible lines
100
AcDbSpline
210
0.0
220
0.0
230
1.0
 70
     8
 71
     3
 72
     8
 73
     4
 74
     0
 42
0.0000000001
 43
0.0000000001
 40
0.0
 40
0.0
 40
0.0
 40
0.0
 40
0.3051876163662417
 40
0.3051876163662417
 40
0.3051876163662417
 40
0.3051876163662417
 10
-1.222103194883235
 20
3.65726383948913
 30
0.0
 10
-0.9735725872496357
 20
3.664876605573444
 30
0.0
 10
-0.7249352557815157
 20
3.670166049722532
 30
0.0
 10
-0.4762563420642089
 20
3.673132171936395
 30
0.0
  0
SPLINE
  5
4C
330
1F
100
AcDbEntity
  8
Make2D visible lines
100
AcDbSpline
210
0.0
220
0.0
230
1.0
 70
    12
 71
     2
 72
     6
 73
     3
 74
     0
 42
0.0000000001
 43
0.0000000001
 40
-0.0352706514985427
 40
-0.0352706514985427
 40
-0.0352706514985427
 40
0.0
 40
0.0
 40
0.0
 10
-13.24240847747864
 20
0.4020374895150737
 30
0.0
 41
1.0
 10
-13.22377320145242
 20
0.4092798636229074
 30
0.0
 41
0.8321381552760684
 10
-13.22328472354927
 20
0.429267031622143
 30
0.0
 41
1.0
  0
SPLINE
  5
4D
330
1F
100
AcDbEntity
  8
Make2D visible lines
100
AcDbSpline
210
0.0
220
0.0
230
1.0
 70
    12
 71
     2
 72
     6
 73
     3
 74
     0
 42
0.0000000001
 43
0.0000000001
 40
-0.0352706514985427
 40
-0.0352706514985427
 40
-0.0352706514985427
 40
0.0
 40
0.0
 40
0.0
 10
13.24240847747864
 20
0.4020374895150737
 30
0.0
 41
1.0
 10
13.22377320145242
 20
0.4092798636229074
 30
0.0
 41
0.8321381552760684
 10
13.22328472354927
 20
0.429267031622143
 30
0.0
 41
1.0
  0
SPLINE
  5
4E
330
1F
100
AcDbEntity
  8
Make2D visible lines
100
AcDbSpline
210
0.0
220
0.0
230
1.0
 70
    12
 71
     2
 72
     6
 73
     3
 74
     0
 42
0.0000000001
 43
0.0000000001
 40
0.0
 40
0.0
 40
0.0
 40
0.0853474550214741
 40
0.0853474550214741
 40
0.0853474550214741
 10
0.4045437767722273
 20
39.59196955307462
 30
0.0
 41
1.0
 10
0.407531154734965
 20
39.54938331459489
 30
0.0
 41
0.9993970637774641
 10
0.4075558872688809
 20
39.50669243122096
 30
0.0
 41
1.0
  0
SPLINE
  5
50
330
1F
100
AcDbEntity
  8
Make2D visible lines - Tangent
100
AcDbSpline
210
0.0
220
0.0
230
1.0
 70
     8
 71
     3
 72
    12
 73
     8
 74
     0
 42
0.0000000001
 43
0.0000000001
 40
0.0
 40
0.0
 40
0.0
 40
0.0
 40
0.1510110321465192
 40
0.3037660471064116
 40
0.5900965017365678
 40
0.8249401141264362
 40
1.014583801502342
 40
1.014583801502342
 40
1.014583801502342
 40
1.014583801502342
 10
-0.402084921046864
 20
39.62701597457043
 30
0.0
 10
-0.4070011434067684
 20
39.57689573814405
 30
0.0
 10
-0.4108309218993007
 20
39.4755958838939
 30
0.0
 10
-0.3936190376958084
 20
39.27914806489328
 30
0.0
 10
-0.3331667011838846
 20
39.06100479018242
 30
0.0
 10
-0.198418873259179
 20
38.8601500257268
 30
0.0
 10
-0.064601636924948
 20
38.79540549950087
 30
0.0
 10
-0.000250893648591
 20
38.79665897918977
 30
0.0
  0
SPLINE
  5
51
330
1F
100
AcDbEntity
  8
Make2D visible lines - Tangent
100
AcDbSpline
210
0.0
220
0.0
230
1.0
 70
     8
 71
     3
 72
    12
 73
     8
 74
     0
 42
0.0000000001
 43
0.0000000001
 40
-1.014583801502342
 40
-1.014583801502342
 40
-1.014583801502342
 40
-1.014583801502342
 40
-0.8249401141264362
 40
-0.5900965017365678
 40
-0.3037660471064116
 40
-0.1510110321465192
 40
0.0
 40
0.0
 40
0.0
 40
0.0
 10
-0.000250893648591
 20
38.79665897918977
 30
0.0
 10
0.064099849627766
 20
38.79540549950087
 30
0.0
 10
0.197917085961997
 20
38.8601500257268
 30
0.0
 10
0.3326649138867026
 20
39.06100479018242
 30
0.0
 10
0.3931172503986264
 20
39.27914806489328
 30
0.0
 10
0.4103291346021187
 20
39.4755958838939
 30
0.0
 10
0.4064993561095864
 20
39.57689573814405
 30
0.0
 10
0.401583133749682
 20
39.62701597457043
 30
0.0
  0
SPLINE
  5
52
330
1F
100
AcDbEntity
  8
Make2D visible lines - Tangent
100
AcDbSpline
210
0.0
220
0.0
230
1.0
 70
    12
 71
     2
 72
     6
 73
     3
 74
     0
 42
0.0000000001
 43
0.0000000001
 40
0.0
 40
0.0
 40
0.0
 40
0.1369528492222414
 40
0.1369528492222414
 40
0.1369528492222414
 10
-0.3678616769873102
 20
40.00637268860662
 30
0.0
 41
1.0
 10
-0.3664321413690675
 20
39.93791236333593
 30
0.0
 41
0.9999966913238282
 10
-0.3671838082863803
 20
39.86941312795196
 30
0.0
 41
0.9999959461296658
  0
ARC
  5
53
330
1F
100
AcDbEntity
  8
Make2D visible lines - Tangent
100
AcDbCircle
 10
-0.8671161965538576
 20
39.86119077055422
 30
0.0
 40
0.5
100
AcDbArc
 50
348.4871521735349
 51
0.9422552251317677
  0
SPLINE
  5
54
330
1F
100
AcDbEntity
  8
Make2D visible lines - Tangent
100
AcDbSpline
210
0.0
220
0.0
230
1.0
 70
     8
 71
     3
 72
    14
 73
    10
 74
     0
 42
0.0000000001
 43
0.0000000001
 40
0.2772630823298201
 40
0.2772630823298201
 40
0.2772630823298201
 40
0.2772630823298201
 40
1.0
 40
2.0
 40
3.0
 40
4.0
 40
5.0
 40
6.0
 40
7.0
 40
7.0
 40
7.0
 40
7.0
 10
-0.3771762093825908
 20
39.76139693822667
 30
0.0
 10
-0.3852734717199438
 20
39.72164325292204
 30
0.0
 10
-0.4003397105781008
 20
39.62601747491311
 30
0.0
 10
-0.4050810797033629
 20
39.47286291816956
 30
0.0
 10
-0.3870666860453736
 20
39.30508660447894
 30
0.0
 10
-0.3455373220093247
 20
39.14134080909351
 30
0.0
 10
-0.2750489478322445
 20
38.98747327416699
 30
0.0
 10
-0.1649438399710883
 20
38.85651378510121
 30
0.0
 10
-0.0569343947226571
 20
38.81129358160641
 30
0.0
 10
-0.0002503970885233
 20
38.81180108731335
 30
0.0
  0
SPLINE
  5
55
330
1F
100
AcDbEntity
  8
Make2D visible lines - Tangent
100
AcDbSpline
210
0.0
220
0.0
230
1.0
 70
     8
 71
     3
 72
    14
 73
    10
 74
     0
 42
0.0000000001
 43
0.0000000001
 40
-7.0
 40
-7.0
 40
-7.0
 40
-7.0
 40
-6.0
 40
-5.0
 40
-4.0
 40
-3.0
 40
-2.0
 40
-1.0
 40
-0.2482205602640466
 40
-0.2482205602640466
 40
-0.2482205602640466
 40
-0.2482205602640466
 10
-0.0002503970885233
 20
38.81180108731335
 30
0.0
 10
0.0564336005456106
 20
38.81129358160641
 30
0.0
 10
0.1644430457940418
 20
38.85651378510121
 30
0.0
 10
0.274548153655198
 20
38.98747327416699
 30
0.0
 10
0.3450365278322782
 20
39.14134080909351
 30
0.0
 10
0.3865658918683271
 20
39.30508660447894
 30
0.0
 10
0.4045802855263164
 20
39.47286291816956
 30
0.0
 10
0.3997883418058561
 20
39.62765112323397
 30
0.0
 10
0.3842612640488078
 20
39.72486707745706
 30
0.0
 10
0.3756906883844119
 20
39.76618756217591
 30
0.0
  0
ARC
  5
56
330
1F
100
AcDbEntity
  8
Make2D visible lines - Tangent
100
AcDbCircle
 10
0.8652702727112507
 20
39.86773474633362
 30
0.0
 40
0.5
100
AcDbArc
 50
178.9775798079559
 51
191.7179678781667
  0
SPLINE
  5
57
330
1F
100
AcDbEntity
  8
Make2D visible lines - Tangent
100
AcDbSpline
210
0.0
220
0.0
230
1.0
 70
    12
 71
     2
 72
     6
 73
     3
 74
     0
 42
0.0000000001
 43
0.0000000001
 40
-0.1297405451143296
 40
-0.1297405451143296
 40
-0.1297405451143296
 40
0.0
 40
0.0
 40
0.0
 10
0.3653498780244278
 20
39.87665657216532
 30
0.0
 41
0.9999960316975589
 10
0.3665074009040286
 20
39.94151653533235
 30
0.0
 41
0.9999968655123173
 10
0.3678616769873102
 20
40.00637268860662
 30
0.0
 41
1.0
  0
SPLINE
  5
58
330
1F
100
AcDbEntity
  8
Make2D visible lines - Tangent
100
AcDbSpline
210
0.0
220
0.0
230
1.0
 70
     8
 71
     3
 72
    12
 73
     8
 74
     0
 42
0.0000000001
 43
0.0000000001
 40
0.0
 40
0.0
 40
0.0
 40
0.0
 40
0.1510110321465192
 40
0.3037660471064116
 40
0.5900965017365678
 40
0.8249401141264362
 40
1.014583801502342
 40
1.014583801502342
 40
1.014583801502342
 40
1.014583801502342
 10
0.4015831222626446
 20
67.26500822606131
 30
0.0
 10
0.406499344622549
 20
67.31512846248769
 30
0.0
 10
0.4103291231150813
 20
67.41642831673784
 30
0.0
 10
0.393117238911589
 20
67.61287613573845
 30
0.0
 10
0.3326649023996652
 20
67.83101941044931
 30
0.0
 10
0.1979170744749595
 20
68.03187417490494
 30
0.0
 10
0.0640998381407286
 20
68.09661870113086
 30
0.0
 10
-0.0002509051356284
 20
68.09536522144197
 30
0.0
  0
SPLINE
  5
59
330
1F
100
AcDbEntity
  8
Make2D visible lines - Tangent
100
AcDbSpline
210
0.0
220
0.0
230
1.0
 70
     8
 71
     3
 72
    12
 73
     8
 74
     0
 42
0.0000000001
 43
0.0000000001
 40
-1.014583801502342
 40
-1.014583801502342
 40
-1.014583801502342
 40
-1.014583801502342
 40
-0.8249401141264362
 40
-0.5900965017365678
 40
-0.3037660471064116
 40
-0.1510110321465192
 40
0.0
 40
0.0
 40
0.0
 40
0.0
 10
-0.0002509051356284
 20
68.09536522144197
 30
0.0
 10
-0.0646016484119855
 20
68.09661870113086
 30
0.0
 10
-0.1984188847462164
 20
68.03187417490494
 30
0.0
 10
-0.333166712670922
 20
67.83101941044931
 30
0.0
 10
-0.3936190491828458
 20
67.61287613573845
 30
0.0
 10
-0.4108309333863381
 20
67.41642831673784
 30
0.0
 10
-0.4070011548938058
 20
67.31512846248769
 30
0.0
 10
-0.4020849325339014
 20
67.26500822606131
 30
0.0
  0
SPLINE
  5
5A
330
1F
100
AcDbEntity
  8
Make2D visible lines
100
AcDbSpline
210
0.0
220
0.0
230
1.0
 70
    12
 71
     2
 72
     6
 73
     3
 74
     0
 42
0.0000000001
 43
0.0000000001
 40
0.0
 40
0.0
 40
0.0
 40
0.0853474550214741
 40
0.0853474550214741
 40
0.0853474550214741
 10
-0.4050455755564467
 20
67.30005464755712
 30
0.0
 41
1.0
 10
-0.4080329535191844
 20
67.34264088603686
 30
0.0
 41
0.9993970637774641
 10
-0.4080576860531003
 20
67.38533176941078
 30
0.0
 41
1.0
  0
SPLINE
  5
5B
330
1F
100
AcDbEntity
  8
Make2D visible lines
100
AcDbSpline
210
0.0
220
0.0
230
1.0
 70
    24
 71
     2
 72
     6
 73
     3
 74
     0
 42
0.0000000001
 43
0.0000000001
 40
0.0
 40
0.0
 40
0.0
 40
1.107594207465098
 40
1.107594207465098
 40
1.107594207465098
 10
29.22900663063301
 20
0.0000000000000036
 30
0.0
 10
28.67520952690046
 20
0.0000000000000036
 30
0.0
 10
28.12141242316791
 20
0.0000000000000036
 30
0.0
  0
SPLINE
  5
5C
330
1F
100
AcDbEntity
  8
Make2D visible lines
100
AcDbSpline
210
0.0
220
0.0
230
1.0
 70
    12
 71
     2
 72
     8
 73
     5
 74
     0
 42
0.0000000001
 43
0.0000000001
 40
0.0
 40
0.0
 40
0.0
 40
0.1269465231438366
 40
0.1269465231438366
 40
0.2538930462876731
 40
0.2538930462876731
 40
0.2538930462876731
 10
28.12141242316792
 20
0.0000000000000036
 30
0.0
 41
1.0
 10
28.05418785883256
 20
0.000000000000002
 30
0.0
 41
0.918360064844369
 10
28.00802001672429
 20
0.0488638148853193
 30
0.0
 41
1.0
 10
27.96185217461602
 20
0.0977276297706366
 30
0.0
 41
0.918360064844369
 10
27.96566332256091
 20
0.1648440748599159
 30
0.0
 41
1.0
  0
SPLINE
  5
5D
330
1F
100
AcDbEntity
  8
Make2D visible lines
100
AcDbSpline
210
0.0
220
0.0
230
1.0
 70
    12
 71
     2
 72
     6
 73
     3
 74
     0
 42
0.0000000001
 43
0.0000000001
 40
0.0
 40
0.0
 40
0.0
 40
0.2412324278936833
 40
0.2412324278936833
 40
0.2412324278936833
 10
29.38496006303888
 20
0.1521885802082181
 30
0.0
 41
1.0
 10
29.38124065425295
 20
-0.0000000000000105
 30
0.0
 41
0.7156927337036098
 10
29.22900663063302
 20
0.0000000000000034
 30
0.0
 41
1.0
  0
SPLINE
  5
5E
330
1F
100
AcDbEntity
  8
Make2D visible lines
100
AcDbSpline
210
0.0
220
0.0
230
1.0
 70
    24
 71
     2
 72
     6
 73
     3
 74
     0
 42
0.0000000001
 43
0.0000000001
 40
0.0
 40
0.0
 40
0.0
 40
0.2325105046476637
 40
0.2325105046476637
 40
0.2325105046476637
 10
29.38496015686773
 20
0.1521924194416825
 30
0.0
 10
29.38780052590369
 20
0.2684129683847045
 30
0.0
 10
29.39064089493965
 20
0.3846335173277264
 30
0.0
  0
SPLINE
  5
5F
330
1F
100
AcDbEntity
  8
Make2D visible lines
100
AcDbSpline
210
0.0
220
0.0
230
1.0
 70
    24
 71
     2
 72
     6
 73
     3
 74
     0
 42
0.0000000001
 43
0.0000000001
 40
0.0
 40
0.0
 40
0.0
 40
0.2213623405233084
 40
0.2213623405233084
 40
0.2213623405233084
 10
27.97821297070673
 20
0.3858503918134666
 30
0.0
 10
27.97193814663382
 20
0.2753472333366913
 30
0.0
 10
27.96566332256091
 20
0.164844074859916
 30
0.0
  0
SPLINE
  5
60
330
1F
100
AcDbEntity
  8
Make2D visible lines
100
AcDbSpline
210
0.0
220
0.0
230
1.0
 70
    12
 71
     2
 72
     6
 73
     3
 74
     0
 42
0.0000000001
 43
0.0000000001
 40
0.0
 40
0.0
 40
0.0
 40
0.0224671519842366
 40
0.0224671519842366
 40
0.0224671519842366
 10
27.97822878041718
 20
0.3860938211857499
 30
0.0
 41
1.0
 10
27.97924554556131
 20
0.4000000000000348
 30
0.0
 41
0.7324347794791691
 10
27.99318884576511
 20
0.4000000000000183
 30
0.0
 41
1.0
  0
SPLINE
  5
61
330
1F
100
AcDbEntity
  8
Make2D visible lines
100
AcDbSpline
210
0.0
220
0.0
230
1.0
 70
    24
 71
     2
 72
     6
 73
     3
 74
     0
 42
0.0000000001
 43
0.0000000001
 40
0.0
 40
0.0
 40
0.0
 40
1.379419120443295
 40
1.379419120443295
 40
1.379419120443295
 10
27.99318884576511
 20
0.4000000000000163
 30
0.0
 10
28.68289840598676
 20
0.4000000000000162
 30
0.0
 10
29.37260796620841
 20
0.4000000000000161
 30
0.0
  0
SPLINE
  5
62
330
1F
100
AcDbEntity
  8
Make2D visible lines
100
AcDbSpline
210
0.0
220
0.0
230
1.0
 70
    12
 71
     2
 72
     8
 73
     5
 74
     0
 42
0.0000000001
 43
0.0000000001
 40
0.0
 40
0.0
 40
0.0
 40
0.0119642320224294
 40
0.0119642320224294
 40
0.0239284640448587
 40
0.0239284640448587
 40
0.0239284640448587
 10
29.37564537259291
 20
0.4000000000000163
 30
0.0
 41
1.0
 10
29.38196620065991
 20
0.4000000000000209
 30
0.0
 41
0.9215246294676533
 10
29.38638076359848
 20
0.3954762292814858
 30
0.0
 41
1.0
 10
29.39079532653706
 20
0.3909524585629509
 30
0.0
 41
0.9215246294676533
 10
29.39064089493965
 20
0.3846335173277264
 30
0.0
 41
1.0
  0
SPLINE
  5
63
330
1F
100
AcDbEntity
  8
Make2D visible lines
100
AcDbSpline
210
0.0
220
0.0
230
1.0
 70
    12
 71
     2
 72
     6
 73
     3
 74
     0
 42
0.0000000001
 43
0.0000000001
 40
-0.0371380794388858
 40
-0.0371380794388858
 40
-0.0371380794388858
 40
0.0
 40
0.0
 40
0.0
 10
57.23066002358576
 20
0.4022441987256987
 30
0.0
 41
1.0
 10
57.25043192870287
 20
0.4103542426935238
 30
0.0
 41
0.8144776561050845
 10
57.24922745668005
 20
0.4316908378358253
 30
0.0
 41
1.0
  0
SPLINE
  5
64
330
1F
100
AcDbEntity
  8
Make2D visible lines
100
AcDbSpline
210
0.0
220
0.0
230
1.0
 70
     8
 71
     3
 72
    12
 73
     8
 74
     0
 42
0.0000000001
 43
0.0000000001
 40
0.0
 40
0.0
 40
0.0
 40
0.0
 40
2.024931116884056
 40
2.121300252943487
 40
2.208073208949396
 40
2.641991453438839
 40
3.085460819895622
 40
3.085460819895622
 40
3.085460819895622
 40
3.085460819895622
 10
57.24922745668005
 20
0.4316908378358253
 30
0.0
 10
57.21052358467963
 20
1.105574847750693
 30
0.0
 10
57.17222092501552
 20
1.811593362411049
 30
0.0
 10
57.12939895821921
 20
2.546414843142783
 30
0.0
 10
57.08456473938336
 20
2.747953191239763
 30
0.0
 10
56.91600606378838
 20
3.034556781920432
 30
0.0
 10
56.64534071727383
 20
3.175838551528641
 30
0.0
 10
56.50101644368696
 20
3.205665827232744
 30
0.0
  0
SPLINE
  5
65
330
1F
100
AcDbEntity
  8
Make2D visible lines
100
AcDbSpline
210
0.0
220
0.0
230
1.0
 70
    24
 71
     2
 72
     6
 73
     3
 74
     0
 42
0.0000000001
 43
0.0000000001
 40
-12.2902709571203
 40
-12.2902709571203
 40
-12.2902709571203
 40
0.0
 40
0.0
 40
0.0
 10
56.50101644368696
 20
3.205665827232744
 30
0.0
 10
50.48301644368696
 20
4.449195501128249
 30
0.0
 10
44.46501644368696
 20
5.692725175023753
 30
0.0
  0
SPLINE
  5
66
330
1F
100
AcDbEntity
  8
Make2D visible lines
100
AcDbSpline
210
0.0
220
0.0
230
1.0
 70
    12
 71
     3
 72
    11
 73
     7
 74
     0
 42
0.0000000001
 43
0.0000000001
 40
0.0
 40
0.0
 40
0.0
 40
0.0
 40
0.2500000000000077
 40
0.500000000000056
 40
0.7500000000001044
 40
0.9903549301730069
 40
0.9903549301730069
 40
0.9903549301730069
 40
0.9903549301730069
 10
44.46501644368696
 20
5.692725175023753
 30
0.0
 41
1.0
 10
44.39254870271482
 20
5.707699549616471
 30
0.0
 41
1.0
 10
44.25090124203709
 20
5.771964450750453
 30
0.0
 41
1.0
 10
44.07005319011219
 20
5.941965920377697
 30
0.0
 41
1.0
 10
43.94422657511014
 20
6.15347175039408
 30
0.0
 41
1.0
 10
43.90906875830196
 20
6.303120864095799
 30
0.0
 41
1.0
 10
43.90652355600684
 20
6.378712134379271
 30
0.0
 41
1.0
  0
SPLINE
  5
67
330
1F
100
AcDbEntity
  8
Make2D visible lines
100
AcDbSpline
210
0.0
220
0.0
230
1.0
 70
    24
 71
     2
 72
     6
 73
     3
 74
     0
 42
0.0000000001
 43
0.0000000001
 40
0.0
 40
0.0
 40
0.0
 40
0.080013140622857
 40
0.080013140622857
 40
0.080013140622857
 10
43.90652355600684
 20
6.378712134379271
 30
0.0
 10
43.90576999984695
 20
6.420856067189643
 30
0.0
 10
43.90501644368706
 20
6.463000000000015
 30
0.0
  0
SPLINE
  5
68
330
1F
100
AcDbEntity
  8
Make2D visible lines
100
AcDbSpline
210
0.0
220
0.0
230
1.0
 70
    24
 71
     2
 72
     6
 73
     3
 74
     0
 42
0.0000000001
 43
0.0000000001
 40
0.0
 40
0.0
 40
0.0
 40
1.290000000000045
 40
1.290000000000045
 40
1.290000000000045
 10
43.90501644368706
 20
6.463000000000015
 30
0.0
 10
43.26001644368704
 20
6.463000000000015
 30
0.0
 10
42.61501644368701
 20
6.463000000000015
 30
0.0
  0
SPLINE
  5
69
330
1F
100
AcDbEntity
  8
Make2D visible lines
100
AcDbSpline
210
0.0
220
0.0
230
1.0
 70
    24
 71
     2
 72
     6
 73
     3
 74
     0
 42
0.0000000001
 43
0.0000000001
 40
0.0
 40
0.0
 40
0.0
 40
1.289412297652113
 40
1.289412297652113
 40
1.289412297652113
 10
42.61501644368701
 20
6.463000000000015
 30
0.0
 10
41.97016336927398
 20
6.463000000000015
 30
0.0
 10
41.32531029486093
 20
6.463000000000015
 30
0.0
  0
SPLINE
  5
6A
330
1F
100
AcDbEntity
  8
Make2D visible lines
100
AcDbSpline
210
0.0
220
0.0
230
1.0
 70
    24
 71
     2
 72
     6
 73
     3
 74
     0
 42
0.0000000001
 43
0.0000000001
 40
-0.080013140622857
 40
-0.080013140622857
 40
-0.080013140622857
 40
0.0
 40
0.0
 40
0.0
 10
41.32531029486093
 20
6.463000000000015
 30
0.0
 10
41.32440981311406
 20
6.420856067189643
 30
0.0
 10
41.32350933136718
 20
6.378712134379271
 30
0.0
  0
SPLINE
  5
6B
330
1F
100
AcDbEntity
  8
Make2D visible lines
100
AcDbSpline
210
0.0
220
0.0
230
1.0
 70
    12
 71
     3
 72
    11
 73
     7
 74
     0
 42
0.0000000001
 43
0.0000000001
 40
-0.9903549301730069
 40
-0.9903549301730069
 40
-0.9903549301730069
 40
-0.9903549301730069
 40
-0.7500000000001044
 40
-0.500000000000056
 40
-0.2500000000000077
 40
0.0
 40
0.0
 40
0.0
 40
0.0
 10
41.32350933136718
 20
6.378712134379271
 30
0.0
 41
1.0
 10
41.32096412907207
 20
6.303120864095799
 30
0.0
 41
1.0
 10
41.28580631226389
 20
6.15347175039408
 30
0.0
 41
1.0
 10
41.15997969726183
 20
5.941965920377697
 30
0.0
 41
1.0
 10
40.97913164533693
 20
5.771964450750453
 30
0.0
 41
1.0
 10
40.8374841846592
 20
5.707699549616471
 30
0.0
 41
1.0
 10
40.76501644368707
 20
5.692725175023753
 30
0.0
 41
1.0
  0
SPLINE
  5
6C
330
1F
100
AcDbEntity
  8
Make2D visible lines
100
AcDbSpline
210
0.0
220
0.0
230
1.0
 70
    24
 71
     2
 72
     6
 73
     3
 74
     0
 42
0.0000000001
 43
0.0000000001
 40
0.0
 40
0.0
 40
0.0
 40
12.2902709571203
 40
12.2902709571203
 40
12.2902709571203
 10
40.76501644368707
 20
5.692725175023753
 30
0.0
 10
34.74701644368707
 20
4.449195501128249
 30
0.0
 10
28.72901644368707
 20
3.205665827232744
 30
0.0
  0
SPLINE
  5
6D
330
1F
100
AcDbEntity
  8
Make2D visible lines
100
AcDbSpline
210
0.0
220
0.0
230
1.0
 70
     8
 71
     3
 72
    12
 73
     8
 74
     0
 42
0.0000000001
 43
0.0000000001
 40
-3.085460819895622
 40
-3.085460819895622
 40
-3.085460819895622
 40
-3.085460819895622
 40
-2.641991453438839
 40
-2.208073208949396
 40
-2.121300252943487
 40
-2.024931116884056
 40
0.0
 40
0.0
 40
0.0
 40
0.0
 10
28.72901644368707
 20
3.205665827232744
 30
0.0
 10
28.5846921701002
 20
3.175838551528641
 30
0.0
 10
28.31402682358564
 20
3.034556781920432
 30
0.0
 10
28.14546814799066
 20
2.747953191239763
 30
0.0
 10
28.10063392915482
 20
2.546414843142783
 30
0.0
 10
28.0578119623585
 20
1.811593362411049
 30
0.0
 10
28.0195093026944
 20
1.105574847750693
 30
0.0
 10
27.98080543069397
 20
0.4316908378358253
 30
0.0
  0
SPLINE
  5
6E
330
1F
100
AcDbEntity
  8
Make2D visible lines
100
AcDbSpline
210
0.0
220
0.0
230
1.0
 70
    12
 71
     2
 72
     6
 73
     3
 74
     0
 42
0.0000000001
 43
0.0000000001
 40
0.0
 40
0.0
 40
0.0
 40
0.0371380794388858
 40
0.0371380794388858
 40
0.0371380794388858
 10
27.98080543069397
 20
0.4316908378358253
 30
0.0
 41
1.0
 10
27.97960095867115
 20
0.4103542426935238
 30
0.0
 41
0.8144776561050845
 10
27.99937286378827
 20
0.4022441987256987
 30
0.0
 41
1.0
  0
SPLINE
  5
6F
330
1F
100
AcDbEntity
  8
Make2D visible lines - Tangent
100
AcDbSpline
210
0.0
220
0.0
230
1.0
 70
     8
 71
     3
 72
    54
 73
    50
 74
     0
 42
0.0000000001
 43
0.0000000001
 40
0.0
 40
0.0
 40
0.0
 40
0.0
 40
1.0
 40
2.0
 40
3.0
 40
4.0
 40
5.0
 40
6.0
 40
7.0
 40
8.0
 40
9.0
 40
10.0
 40
11.0
 40
12.0
 40
13.0
 40
14.0
 40
15.0
 40
16.0
 40
17.0
 40
18.0
 40
19.0
 40
20.0
 40
21.0
 40
22.0
 40
23.0
 40
24.0
 40
25.0
 40
26.0
 40
27.0
 40
28.0
 40
29.0
 40
30.0
 40
31.0
 40
32.0
 40
33.0
 40
34.0
 40
35.0
 40
36.0
 40
37.0
 40
38.0
 40
39.0
 40
40.0
 40
41.0
 40
42.0
 40
43.0
 40
44.0
 40
45.0
 40
46.0
 40
47.0
 40
47.0
 40
47.0
 40
47.0
 10
43.00059048277018
 20
0.403329261439214
 30
0.0
 10
43.02586076211671
 20
0.471691761030031
 30
0.0
 10
43.00782364649061
 20
0.6333535261625483
 30
0.0
 10
43.00859470873916
 20
0.8657327374605353
 30
0.0
 10
43.00201707161306
 20
1.100824691898526
 30
0.0
 10
42.99722308779433
 20
1.335184942048012
 30
0.0
 10
42.99193671666011
 20
1.569741898107297
 30
0.0
 10
42.98682619228469
 20
1.804245165096962
 30
0.0
 10
42.9821911742717
 20
2.038780643129261
 30
0.0
 10
42.97686129189375
 20
2.27327054669982
 30
0.0
 10
42.97617445746255
 20
2.50795635439968
 30
0.0
 10
42.99142153070245
 20
2.742035110000107
 30
0.0
 10
43.01659103232997
 20
2.975291767990851
 30
0.0
 10
43.04121813127318
 20
3.208581524431251
 30
0.0
 10
43.06545061147957
 20
3.44180444554645
 30
0.0
 10
43.09601005834661
 20
3.674811437325082
 30
0.0
 10
43.10233314267312
 20
3.908675454710889
 30
0.0
 10
43.08778008622586
 20
4.14316108458999
 30
0.0
 10
43.07723910236287
 20
4.377402299909646
 30
0.0
 10
43.0668766105384
 20
4.611784456659724
 30
0.0
 10
43.0547705111597
 20
4.845964675118837
 30
0.0
 10
43.04302050256182
 20
5.080512320442788
 30
0.0
 10
43.00467764996926
 20
5.312100872344999
 30
0.0
 10
42.92138089225633
 20
5.534912960303022
 30
0.0
 10
42.74117151460975
 20
5.701053020982688
 30
0.0
 10
42.48596175737421
 20
5.700046595423096
 30
0.0
 10
42.30727598235828
 20
5.532266007601516
 30
0.0
 10
42.22464075739712
 20
5.309372210240867
 30
0.0
 10
42.18679935921073
 20
5.077673675160892
 30
0.0
 10
42.17509508673621
 20
4.843140061617282
 30
0.0
 10
42.16306479157247
 20
4.608952622806954
 30
0.0
 10
42.15261953623322
 20
4.374572197465292
 30
0.0
 10
42.14221087605507
 20
4.140337130437424
 30
0.0
 10
42.1272616275431
 20
3.905822607503123
 30
0.0
 10
42.13508572594923
 20
3.67206586450394
 30
0.0
 10
42.16541743624275
 20
3.439049497872843
 30
0.0
 10
42.18906286066223
 20
3.205758678338231
 30
0.0
 10
42.21305976033802
 20
2.972405099167784
 30
0.0
 10
42.23844135696391
 20
2.739167888374083
 30
0.0
 10
42.2540274179712
 20
2.505129568181835
 30
0.0
 10
42.25300358640477
 20
2.270431807711549
 30
0.0
 10
42.24785067199891
 20
2.035943620623493
 30
0.0
 10
42.243108798633
 20
1.801408320125761
 30
0.0
 10
42.23793633349188
 20
1.566909832637999
 30
0.0
 10
42.23259495414857
 20
1.332342661516703
 30
0.0
 10
42.22816908606394
 20
1.098016778736779
 30
0.0
 10
42.22117917199742
 20
0.8627750502036662
 30
0.0
 10
42.22286909087921
 20
0.6309690073439601
 30
0.0
 10
42.20255676793687
 20
0.4678802044313225
 30
0.0
 10
42.23202258852131
 20
0.4021512543515627
 30
0.0
  0
SPLINE
  5
70
330
1F
100
AcDbEntity
  8
Make2D visible lines
100
AcDbSpline
210
0.0
220
0.0
230
1.0
 70
    24
 71
     2
 72
     6
 73
     3
 74
     0
 42
0.0000000001
 43
0.0000000001
 40
0.0
 40
0.0
 40
0.0
 40
2.579999999999997
 40
2.579999999999997
 40
2.579999999999997
 10
41.32501644368702
 20
6.503000000000016
 30
0.0
 10
42.61501644368701
 20
6.503000000000016
 30
0.0
 10
43.90501644368701
 20
6.503000000000016
 30
0.0
  0
SPLINE
  5
71
330
1F
100
AcDbEntity
  8
Make2D visible lines
100
AcDbSpline
210
0.0
220
0.0
230
1.0
 70
    24
 71
     2
 72
     6
 73
     3
 74
     0
 42
0.0000000001
 43
0.0000000001
 40
0.0
 40
0.0
 40
0.0
 40
0.0400060931217547
 40
0.0400060931217547
 40
0.0400060931217547
 10
41.41431824108963
 20
6.463000000000022
 30
0.0
 10
41.41466734238818
 20
6.483000000000022
 30
0.0
 10
41.41501644368672
 20
6.503000000000021
 30
0.0
  0
SPLINE
  5
72
330
1F
100
AcDbEntity
  8
Make2D visible lines
100
AcDbSpline
210
0.0
220
0.0
230
1.0
 70
    24
 71
     2
 72
     6
 73
     3
 74
     0
 42
0.0000000001
 43
0.0000000001
 40
0.0
 40
0.0
 40
0.0
 40
0.0400060931217547
 40
0.0400060931217547
 40
0.0400060931217547
 10
43.8150164436873
 20
6.503000000000021
 30
0.0
 10
43.81536554498584
 20
6.483000000000022
 30
0.0
 10
43.81571464628439
 20
6.463000000000022
 30
0.0
  0
SPLINE
  5
73
330
1F
100
AcDbEntity
  8
Make2D visible lines
100
AcDbSpline
210
0.0
220
0.0
230
1.0
 70
    24
 71
     2
 72
     6
 73
     3
 74
     0
 42
0.0000000001
 43
0.0000000001
 40
0.0
 40
0.0
 40
0.0
 40
1.107594207465098
 40
1.107594207465098
 40
1.107594207465098
 10
56.00102625674101
 20
0.0000000000000036
 30
0.0
 10
56.55482336047356
 20
0.0000000000000036
 30
0.0
 10
57.10862046420611
 20
0.0000000000000036
 30
0.0
  0
SPLINE
  5
74
330
1F
100
AcDbEntity
  8
Make2D visible lines
100
AcDbSpline
210
0.0
220
0.0
230
1.0
 70
    12
 71
     2
 72
     8
 73
     5
 74
     0
 42
0.0000000001
 43
0.0000000001
 40
0.0
 40
0.0
 40
0.0
 40
0.1269465231438366
 40
0.1269465231438366
 40
0.2538930462876731
 40
0.2538930462876731
 40
0.2538930462876731
 10
57.1086204642061
 20
0.0000000000000036
 30
0.0
 41
1.0
 10
57.17584502854147
 20
0.000000000000002
 30
0.0
 41
0.918360064844369
 10
57.22201287064973
 20
0.0488638148853193
 30
0.0
 41
1.0
 10
57.268180712758
 20
0.0977276297706366
 30
0.0
 41
0.918360064844369
 10
57.26436956481311
 20
0.1648440748599159
 30
0.0
 41
1.0
  0
SPLINE
  5
75
330
1F
100
AcDbEntity
  8
Make2D visible lines
100
AcDbSpline
210
0.0
220
0.0
230
1.0
 70
    12
 71
     2
 72
     6
 73
     3
 74
     0
 42
0.0000000001
 43
0.0000000001
 40
0.0
 40
0.0
 40
0.0
 40
0.2412324278936833
 40
0.2412324278936833
 40
0.2412324278936833
 10
55.84507282433514
 20
0.1521885802082181
 30
0.0
 41
1.0
 10
55.84879223312107
 20
-0.0000000000000105
 30
0.0
 41
0.7156927337036098
 10
56.00102625674101
 20
0.0000000000000034
 30
0.0
 41
1.0
  0
SPLINE
  5
76
330
1F
100
AcDbEntity
  8
Make2D visible lines
100
AcDbSpline
210
0.0
220
0.0
230
1.0
 70
    24
 71
     2
 72
     6
 73
     3
 74
     0
 42
0.0000000001
 43
0.0000000001
 40
0.0
 40
0.0
 40
0.0
 40
0.2325105046476637
 40
0.2325105046476637
 40
0.2325105046476637
 10
55.84507273050629
 20
0.1521924194416825
 30
0.0
 10
55.84223236147033
 20
0.2684129683847045
 30
0.0
 10
55.83939199243437
 20
0.3846335173277264
 30
0.0
  0
SPLINE
  5
77
330
1F
100
AcDbEntity
  8
Make2D visible lines
100
AcDbSpline
210
0.0
220
0.0
230
1.0
 70
    24
 71
     2
 72
     6
 73
     3
 74
     0
 42
0.0000000001
 43
0.0000000001
 40
0.0
 40
0.0
 40
0.0
 40
0.2213623405233084
 40
0.2213623405233084
 40
0.2213623405233084
 10
57.25181991666729
 20
0.3858503918134666
 30
0.0
 10
57.2580947407402
 20
0.2753472333366913
 30
0.0
 10
57.26436956481312
 20
0.164844074859916
 30
0.0
  0
SPLINE
  5
78
330
1F
100
AcDbEntity
  8
Make2D visible lines
100
AcDbSpline
210
0.0
220
0.0
230
1.0
 70
    12
 71
     2
 72
     6
 73
     3
 74
     0
 42
0.0000000001
 43
0.0000000001
 40
0.0
 40
0.0
 40
0.0
 40
0.0224671519842366
 40
0.0224671519842366
 40
0.0224671519842366
 10
57.25180410695684
 20
0.3860938211857499
 30
0.0
 41
1.0
 10
57.25078734181271
 20
0.4000000000000348
 30
0.0
 41
0.7324347794791691
 10
57.23684404160891
 20
0.4000000000000183
 30
0.0
 41
1.0
  0
SPLINE
  5
79
330
1F
100
AcDbEntity
  8
Make2D visible lines
100
AcDbSpline
210
0.0
220
0.0
230
1.0
 70
    24
 71
     2
 72
     6
 73
     3
 74
     0
 42
0.0000000001
 43
0.0000000001
 40
0.0
 40
0.0
 40
0.0
 40
1.379419120443295
 40
1.379419120443295
 40
1.379419120443295
 10
57.23684404160891
 20
0.4000000000000163
 30
0.0
 10
56.54713448138726
 20
0.4000000000000162
 30
0.0
 10
55.85742492116562
 20
0.4000000000000161
 30
0.0
  0
SPLINE
  5
7A
330
1F
100
AcDbEntity
  8
Make2D visible lines
100
AcDbSpline
210
0.0
220
0.0
230
1.0
 70
    12
 71
     2
 72
     8
 73
     5
 74
     0
 42
0.0000000001
 43
0.0000000001
 40
0.0
 40
0.0
 40
0.0
 40
0.0119642320224294
 40
0.0119642320224294
 40
0.0239284640448587
 40
0.0239284640448587
 40
0.0239284640448587
 10
55.85438751478111
 20
0.4000000000000163
 30
0.0
 41
1.0
 10
55.84806668671413
 20
0.4000000000000209
 30
0.0
 41
0.9215246294676533
 10
55.84365212377554
 20
0.3954762292814858
 30
0.0
 41
1.0
 10
55.83923756083698
 20
0.3909524585629509
 30
0.0
 41
0.9215246294676533
 10
55.83939199243437
 20
0.3846335173277264
 30
0.0
 41
1.0
  0
SPLINE
  5
7B
330
1F
100
AcDbEntity
  8
Make2D visible lines
100
AcDbSpline
210
0.0
220
0.0
230
1.0
 70
    24
 71
     3
 72
     9
 73
     5
 74
     0
 42
0.0000000001
 43
0.0000000001
 40
0.0
 40
0.0
 40
0.0
 40
0.0
 40
0.0000682360840525
 40
0.251869451330915
 40
0.251869451330915
 40
0.251869451330915
 40
0.251869451330915
 10
42.36328346702261
 20
0.0000000000000036
 30
0.0
 10
42.36317398704254
 20
0.0000000000000036
 30
0.0
 10
42.44712013153413
 20
0.0000000000000036
 30
0.0
 10
42.53108562855708
 20
0.0000000000000036
 30
0.0
 10
42.61501644618542
 20
0.0000000000000036
 30
0.0
  0
SPLINE
  5
7C
330
1F
100
AcDbEntity
  8
Make2D visible lines
100
AcDbSpline
210
0.0
220
0.0
230
1.0
 70
    24
 71
     2
 72
     6
 73
     3
 74
     0
 42
0.0000000001
 43
0.0000000001
 40
0.0
 40
0.0
 40
0.0
 40
0.2517559204860955
 40
0.2517559204860955
 40
0.2517559204860955
 10
42.61501644618542
 20
0.0000000000000036
 30
0.0
 10
42.74089440642847
 20
0.0000000000000036
 30
0.0
 10
42.86677236667152
 20
0.0000000000000036
 30
0.0
  0
SPLINE
  5
7D
330
1F
100
AcDbEntity
  8
Make2D visible lines
100
AcDbSpline
210
0.0
220
0.0
230
1.0
 70
    24
 71
     2
 72
     6
 73
     3
 74
     0
 42
0.0000000001
 43
0.0000000001
 40
0.0
 40
0.0
 40
0.0
 40
0.3876534637036499
 40
0.3876534637036499
 40
0.3876534637036499
 10
42.61501644379415
 20
0.4000000000000163
 30
0.0
 10
42.42118971194232
 20
0.4000000000000162
 30
0.0
 10
42.2273629800905
 20
0.4000000000000161
 30
0.0
  0
SPLINE
  5
7E
330
1F
100
AcDbEntity
  8
Make2D visible lines
100
AcDbSpline
210
0.0
220
0.0
230
1.0
 70
    24
 71
     2
 72
     6
 73
     3
 74
     0
 42
0.0000000001
 43
0.0000000001
 40
0.0
 40
0.0
 40
0.0
 40
0.3863627208447955
 40
0.3863627208447955
 40
0.3863627208447955
 10
43.00137947410477
 20
0.4000000000000166
 30
0.0
 10
42.80819811368237
 20
0.4000000000000165
 30
0.0
 10
42.61501675325997
 20
0.4000000000000163
 30
0.0
  0
SPLINE
  5
7F
330
1F
100
AcDbEntity
  8
Make2D visible lines
100
AcDbSpline
210
0.0
220
0.0
230
1.0
 70
    12
 71
     2
 72
     8
 73
     5
 74
     0
 42
0.0000000001
 43
0.0000000001
 40
0.0
 40
0.0
 40
0.0
 40
0.1240063772075993
 40
0.1240063772075993
 40
0.2480127544151987
 40
0.2480127544151987
 40
0.2480127544151987
 10
42.36321470484675
 20
0.000000000001096
 30
0.0
 41
1.0
 10
42.29772477079248
 20
-0.0000119099018914
 30
0.0
 41
0.9220189045496352
 10
42.25185774604606
 20
0.0467336529376692
 30
0.0
 41
1.0
 10
42.20599072129961
 20
0.0934792157772298
 30
0.0
 41
0.9220189045496352
 10
42.20724501362697
 20
0.1589571384308644
 30
0.0
 41
1.0
  0
SPLINE
  5
80
330
1F
100
AcDbEntity
  8
Make2D visible lines
100
AcDbSpline
210
0.0
220
0.0
230
1.0
 70
    12
 71
     2
 72
     8
 73
     5
 74
     0
 42
0.0000000001
 43
0.0000000001
 40
0.0
 40
0.0
 40
0.0
 40
0.1242318577480881
 40
0.1242318577480881
 40
0.2484637154961761
 40
0.2484637154961761
 40
0.2484637154961761
 10
43.02277802222789
 20
0.1594215907425355
 30
0.0
 41
1.0
 10
43.0242176128818
 20
0.0938162002370285
 30
0.0
 41
0.9217678869813357
 10
42.97832852070015
 20
0.0469085153295885
 30
0.0
 41
1.0
 10
42.93243942851851
 20
0.0000008304221485
 30
0.0
 41
0.9217678869813357
 10
42.86681824532329
 20
0.0000000000011417
 30
0.0
 41
1.0
  0
SPLINE
  5
81
330
1F
100
AcDbEntity
  8
Make2D visible lines
100
AcDbSpline
210
0.0
220
0.0
230
1.0
 70
    12
 71
     2
 72
     6
 73
     3
 74
     0
 42
0.0000000001
 43
0.0000000001
 40
0.0
 40
0.0
 40
0.0
 40
0.2253642768281202
 40
0.2253642768281202
 40
0.2253642768281202
 10
43.01783672021335
 20
0.385325058594006
 30
0.0
 41
1.0
 10
43.02029582951432
 20
0.2726697563467351
 30
0.0
 41
0.9999999984988344
 10
43.02276728436502
 20
0.1600147242624911
 30
0.0
 41
1.0
  0
SPLINE
  5
82
330
1F
100
AcDbEntity
  8
Make2D visible lines
100
AcDbSpline
210
0.0
220
0.0
230
1.0
 70
    12
 71
     2
 72
     6
 73
     3
 74
     0
 42
0.0000000001
 43
0.0000000001
 40
0.0
 40
0.0
 40
0.0
 40
0.2259576718196235
 40
0.2259576718196235
 40
0.2259576718196235
 10
42.20725259171238
 20
0.1594216323489093
 30
0.0
 41
1.0
 10
42.20973058622484
 20
0.2723732898507527
 30
0.0
 41
0.9999999984910576
 10
42.21219617065994
 20
0.3853252189294936
 30
0.0
 41
1.0
  0
SPLINE
  5
83
330
1F
100
AcDbEntity
  8
Make2D visible lines
100
AcDbSpline
210
0.0
220
0.0
230
1.0
 70
    12
 71
     2
 72
     6
 73
     3
 74
     0
 42
0.0000000001
 43
0.0000000001
 40
0.0
 40
0.0
 40
0.0
 40
0.0232125536774005
 40
0.0232125536774005
 40
0.0232125536774005
 10
42.21219807522409
 20
0.3853269610145591
 30
0.0
 41
1.0
 10
42.21256458756184
 20
0.3999502926109969
 30
0.0
 41
0.7170957278319929
 10
42.22719242702815
 20
0.3999999999617776
 30
0.0
 41
1.0
  0
SPLINE
  5
84
330
1F
100
AcDbEntity
  8
Make2D visible lines
100
AcDbSpline
210
0.0
220
0.0
230
1.0
 70
    12
 71
     2
 72
     6
 73
     3
 74
     0
 42
0.0000000001
 43
0.0000000001
 40
0.0
 40
0.0
 40
0.0
 40
0.0232077921390905
 40
0.0232077921390905
 40
0.0232077921390905
 10
43.00284082610177
 20
0.3999999999470365
 30
0.0
 41
1.0
 10
43.0174580003221
 20
0.3999392744149043
 30
0.0
 41
0.7176120634141828
 10
43.01783485464624
 20
0.3853268327778507
 30
0.0
 41
1.0
  0
SPLINE
  5
85
330
1F
100
AcDbEntity
  8
Make2D visible lines
100
AcDbSpline
210
0.0
220
0.0
230
1.0
 70
    24
 71
     2
 72
     6
 73
     3
 74
     0
 42
0.0000000001
 43
0.0000000001
 40
0.0
 40
0.0
 40
0.0
 40
1.107594207465098
 40
1.107594207465098
 40
1.107594207465098
 10
-13.386009813054
 20
0.0000000000000036
 30
0.0
 10
-13.93980691678655
 20
0.0000000000000036
 30
0.0
 10
-14.4936040205191
 20
0.0000000000000036
 30
0.0
  0
SPLINE
  5
86
330
1F
100
AcDbEntity
  8
Make2D visible lines
100
AcDbSpline
210
0.0
220
0.0
230
1.0
 70
    12
 71
     2
 72
     8
 73
     5
 74
     0
 42
0.0000000001
 43
0.0000000001
 40
0.0
 40
0.0
 40
0.0
 40
0.1269465231438366
 40
0.1269465231438366
 40
0.2538930462876731
 40
0.2538930462876731
 40
0.2538930462876731
 10
-14.49360402051909
 20
0.0000000000000036
 30
0.0
 41
1.0
 10
-14.56082858485446
 20
0.000000000000002
 30
0.0
 41
0.918360064844369
 10
-14.60699642696272
 20
0.0488638148853193
 30
0.0
 41
1.0
 10
-14.65316426907099
 20
0.0977276297706366
 30
0.0
 41
0.918360064844369
 10
-14.6493531211261
 20
0.1648440748599159
 30
0.0
 41
1.0
  0
SPLINE
  5
87
330
1F
100
AcDbEntity
  8
Make2D visible lines
100
AcDbSpline
210
0.0
220
0.0
230
1.0
 70
    12
 71
     2
 72
     6
 73
     3
 74
     0
 42
0.0000000001
 43
0.0000000001
 40
0.0
 40
0.0
 40
0.0
 40
0.2412324278936833
 40
0.2412324278936833
 40
0.2412324278936833
 10
-13.23005638064813
 20
0.1521885802082181
 30
0.0
 41
1.0
 10
-13.23377578943406
 20
-0.0000000000000105
 30
0.0
 41
0.7156927337036098
 10
-13.386009813054
 20
0.0000000000000034
 30
0.0
 41
1.0
  0
SPLINE
  5
88
330
1F
100
AcDbEntity
  8
Make2D visible lines
100
AcDbSpline
210
0.0
220
0.0
230
1.0
 70
    24
 71
     2
 72
     6
 73
     3
 74
     0
 42
0.0000000001
 43
0.0000000001
 40
0.0
 40
0.0
 40
0.0
 40
0.2325105046476637
 40
0.2325105046476637
 40
0.2325105046476637
 10
-13.23005628681928
 20
0.1521924194416825
 30
0.0
 10
-13.22721591778332
 20
0.2684129683847045
 30
0.0
 10
-13.22437554874736
 20
0.3846335173277264
 30
0.0
  0
SPLINE
  5
89
330
1F
100
AcDbEntity
  8
Make2D visible lines
100
AcDbSpline
210
0.0
220
0.0
230
1.0
 70
    24
 71
     2
 72
     6
 73
     3
 74
     0
 42
0.0000000001
 43
0.0000000001
 40
0.0
 40
0.0
 40
0.0
 40
0.2213623405233084
 40
0.2213623405233084
 40
0.2213623405233084
 10
-14.63680347298028
 20
0.3858503918134666
 30
0.0
 10
-14.64307829705319
 20
0.2753472333366913
 30
0.0
 10
-14.6493531211261
 20
0.164844074859916
 30
0.0
  0
SPLINE
  5
8A
330
1F
100
AcDbEntity
  8
Make2D visible lines
100
AcDbSpline
210
0.0
220
0.0
230
1.0
 70
    12
 71
     2
 72
     6
 73
     3
 74
     0
 42
0.0000000001
 43
0.0000000001
 40
0.0
 40
0.0
 40
0.0
 40
0.0224671519842366
 40
0.0224671519842366
 40
0.0224671519842366
 10
-14.63678766326983
 20
0.3860938211857499
 30
0.0
 41
1.0
 10
-14.6357708981257
 20
0.4000000000000348
 30
0.0
 41
0.7324347794791691
 10
-14.6218275979219
 20
0.4000000000000183
 30
0.0
 41
1.0
  0
SPLINE
  5
8B
330
1F
100
AcDbEntity
  8
Make2D visible lines
100
AcDbSpline
210
0.0
220
0.0
230
1.0
 70
    24
 71
     2
 72
     6
 73
     3
 74
     0
 42
0.0000000001
 43
0.0000000001
 40
0.0
 40
0.0
 40
0.0
 40
1.379419120443295
 40
1.379419120443295
 40
1.379419120443295
 10
-14.6218275979219
 20
0.4000000000000163
 30
0.0
 10
-13.93211803770025
 20
0.4000000000000162
 30
0.0
 10
-13.24240847747861
 20
0.4000000000000161
 30
0.0
  0
SPLINE
  5
8C
330
1F
100
AcDbEntity
  8
Make2D visible lines
100
AcDbSpline
210
0.0
220
0.0
230
1.0
 70
    12
 71
     2
 72
     8
 73
     5
 74
     0
 42
0.0000000001
 43
0.0000000001
 40
0.0
 40
0.0
 40
0.0
 40
0.0119642320224294
 40
0.0119642320224294
 40
0.0239284640448587
 40
0.0239284640448587
 40
0.0239284640448587
 10
-13.2393710710941
 20
0.4000000000000163
 30
0.0
 41
1.0
 10
-13.23305024302711
 20
0.4000000000000209
 30
0.0
 41
0.9215246294676533
 10
-13.22863568008853
 20
0.3954762292814858
 30
0.0
 41
1.0
 10
-13.22422111714996
 20
0.3909524585629509
 30
0.0
 41
0.9215246294676533
 10
-13.22437554874736
 20
0.3846335173277264
 30
0.0
 41
1.0
  0
SPLINE
  5
8D
330
1F
100
AcDbEntity
  8
Make2D visible lines
100
AcDbSpline
210
0.0
220
0.0
230
1.0
 70
    12
 71
     2
 72
     6
 73
     3
 74
     0
 42
0.0000000001
 43
0.0000000001
 40
-0.0371380794388858
 40
-0.0371380794388858
 40
-0.0371380794388858
 40
0.0
 40
0.0
 40
0.0
 10
14.61564357989874
 20
0.4022441987256987
 30
0.0
 41
1.0
 10
14.63541548501586
 20
0.4103542426935238
 30
0.0
 41
0.8144776561050845
 10
14.63421101299304
 20
0.4316908378358253
 30
0.0
 41
1.0
  0
SPLINE
  5
8E
330
1F
100
AcDbEntity
  8
Make2D visible lines
100
AcDbSpline
210
0.0
220
0.0
230
1.0
 70
     8
 71
     3
 72
    12
 73
     8
 74
     0
 42
0.0000000001
 43
0.0000000001
 40
0.0
 40
0.0
 40
0.0
 40
0.0
 40
2.024931116884056
 40
2.121300252943487
 40
2.208073208949396
 40
2.641991453438839
 40
3.085460819895622
 40
3.085460819895622
 40
3.085460819895622
 40
3.085460819895622
 10
14.63421101299304
 20
0.4316908378358253
 30
0.0
 10
14.59550714099262
 20
1.105574847750693
 30
0.0
 10
14.55720448132851
 20
1.811593362411049
 30
0.0
 10
14.51438251453219
 20
2.546414843142783
 30
0.0
 10
14.46954829569635
 20
2.747953191239763
 30
0.0
 10
14.30098962010137
 20
3.034556781920432
 30
0.0
 10
14.03032427358681
 20
3.175838551528641
 30
0.0
 10
13.88599999999995
 20
3.205665827232744
 30
0.0
  0
SPLINE
  5
8F
330
1F
100
AcDbEntity
  8
Make2D visible lines
100
AcDbSpline
210
0.0
220
0.0
230
1.0
 70
    24
 71
     2
 72
     6
 73
     3
 74
     0
 42
0.0000000001
 43
0.0000000001
 40
-12.2902709571203
 40
-12.2902709571203
 40
-12.2902709571203
 40
0.0
 40
0.0
 40
0.0
 10
13.88599999999995
 20
3.205665827232744
 30
0.0
 10
7.867999999999946
 20
4.449195501128249
 30
0.0
 10
1.849999999999945
 20
5.692725175023753
 30
0.0
  0
SPLINE
  5
90
330
1F
100
AcDbEntity
  8
Make2D visible lines
100
AcDbSpline
210
0.0
220
0.0
230
1.0
 70
    12
 71
     3
 72
    11
 73
     7
 74
     0
 42
0.0000000001
 43
0.0000000001
 40
0.0
 40
0.0
 40
0.0
 40
0.0
 40
0.2500000000000077
 40
0.500000000000056
 40
0.7500000000001044
 40
0.9903549301730069
 40
0.9903549301730069
 40
0.9903549301730069
 40
0.9903549301730069
 10
1.849999999999945
 20
5.692725175023753
 30
0.0
 41
1.0
 10
1.777532259027804
 20
5.707699549616471
 30
0.0
 41
1.0
 10
1.635884798350073
 20
5.771964450750453
 30
0.0
 41
1.0
 10
1.455036746425176
 20
5.941965920377697
 30
0.0
 41
1.0
 10
1.329210131423126
 20
6.15347175039408
 30
0.0
 41
1.0
 10
1.294052314614946
 20
6.303120864095799
 30
0.0
 41
1.0
 10
1.291507112319829
 20
6.378712134379271
 30
0.0
 41
1.0
  0
SPLINE
  5
91
330
1F
100
AcDbEntity
  8
Make2D visible lines
100
AcDbSpline
210
0.0
220
0.0
230
1.0
 70
    24
 71
     2
 72
     6
 73
     3
 74
     0
 42
0.0000000001
 43
0.0000000001
 40
0.0
 40
0.0
 40
0.0
 40
0.080013140622857
 40
0.080013140622857
 40
0.080013140622857
 10
1.291507112319829
 20
6.378712134379271
 30
0.0
 10
1.290753556159937
 20
6.420856067189643
 30
0.0
 10
1.290000000000045
 20
6.463000000000015
 30
0.0
  0
SPLINE
  5
92
330
1F
100
AcDbEntity
  8
Make2D visible lines
100
AcDbSpline
210
0.0
220
0.0
230
1.0
 70
    24
 71
     2
 72
     6
 73
     3
 74
     0
 42
0.0000000001
 43
0.0000000001
 40
0.0
 40
0.0
 40
0.0
 40
1.290000000000045
 40
1.290000000000045
 40
1.290000000000045
 10
1.290000000000045
 20
6.463000000000015
 30
0.0
 10
0.6450000000000227
 20
6.463000000000015
 30
0.0
 10
0.0
 20
6.463000000000015
 30
0.0
  0
SPLINE
  5
93
330
1F
100
AcDbEntity
  8
Make2D visible lines
100
AcDbSpline
210
0.0
220
0.0
230
1.0
 70
    24
 71
     2
 72
     6
 73
     3
 74
     0
 42
0.0000000001
 43
0.0000000001
 40
0.0
 40
0.0
 40
0.0
 40
1.289412297652113
 40
1.289412297652113
 40
1.289412297652113
 10
0.0
 20
6.463000000000015
 30
0.0
 10
-0.6448530744130396
 20
6.463000000000015
 30
0.0
 10
-1.289706148826079
 20
6.463000000000015
 30
0.0
  0
SPLINE
  5
94
330
1F
100
AcDbEntity
  8
Make2D visible lines
100
AcDbSpline
210
0.0
220
0.0
230
1.0
 70
    24
 71
     2
 72
     6
 73
     3
 74
     0
 42
0.0000000001
 43
0.0000000001
 40
-0.080013140622857
 40
-0.080013140622857
 40
-0.080013140622857
 40
0.0
 40
0.0
 40
0.0
 10
-1.289706148826079
 20
6.463000000000015
 30
0.0
 10
-1.290606630572954
 20
6.420856067189643
 30
0.0
 10
-1.291507112319829
 20
6.378712134379271
 30
0.0
  0
SPLINE
  5
95
330
1F
100
AcDbEntity
  8
Make2D visible lines
100
AcDbSpline
210
0.0
220
0.0
230
1.0
 70
    12
 71
     3
 72
    11
 73
     7
 74
     0
 42
0.0000000001
 43
0.0000000001
 40
-0.9903549301730069
 40
-0.9903549301730069
 40
-0.9903549301730069
 40
-0.9903549301730069
 40
-0.7500000000001044
 40
-0.500000000000056
 40
-0.2500000000000077
 40
0.0
 40
0.0
 40
0.0
 40
0.0
 10
-1.291507112319829
 20
6.378712134379271
 30
0.0
 41
1.0
 10
-1.294052314614946
 20
6.303120864095799
 30
0.0
 41
1.0
 10
-1.329210131423126
 20
6.15347175039408
 30
0.0
 41
1.0
 10
-1.455036746425176
 20
5.941965920377697
 30
0.0
 41
1.0
 10
-1.635884798350073
 20
5.771964450750453
 30
0.0
 41
1.0
 10
-1.777532259027804
 20
5.707699549616471
 30
0.0
 41
1.0
 10
-1.849999999999945
 20
5.692725175023753
 30
0.0
 41
1.0
  0
SPLINE
  5
96
330
1F
100
AcDbEntity
  8
Make2D visible lines
100
AcDbSpline
210
0.0
220
0.0
230
1.0
 70
    24
 71
     2
 72
     6
 73
     3
 74
     0
 42
0.0000000001
 43
0.0000000001
 40
0.0
 40
0.0
 40
0.0
 40
12.2902709571203
 40
12.2902709571203
 40
12.2902709571203
 10
-1.849999999999945
 20
5.692725175023753
 30
0.0
 10
-7.867999999999946
 20
4.449195501128249
 30
0.0
 10
-13.88599999999995
 20
3.205665827232744
 30
0.0
  0
SPLINE
  5
97
330
1F
100
AcDbEntity
  8
Make2D visible lines
100
AcDbSpline
210
0.0
220
0.0
230
1.0
 70
     8
 71
     3
 72
    12
 73
     8
 74
     0
 42
0.0000000001
 43
0.0000000001
 40
-3.085460819895622
 40
-3.085460819895622
 40
-3.085460819895622
 40
-3.085460819895622
 40
-2.641991453438839
 40
-2.208073208949396
 40
-2.121300252943487
 40
-2.024931116884056
 40
0.0
 40
0.0
 40
0.0
 40
0.0
 10
-13.88599999999995
 20
3.205665827232744
 30
0.0
 10
-14.03032427358681
 20
3.175838551528641
 30
0.0
 10
-14.30098962010137
 20
3.034556781920432
 30
0.0
 10
-14.46954829569635
 20
2.747953191239763
 30
0.0
 10
-14.51438251453219
 20
2.546414843142783
 30
0.0
 10
-14.55720448132851
 20
1.811593362411049
 30
0.0
 10
-14.59550714099262
 20
1.105574847750693
 30
0.0
 10
-14.63421101299304
 20
0.4316908378358253
 30
0.0
  0
SPLINE
  5
98
330
1F
100
AcDbEntity
  8
Make2D visible lines
100
AcDbSpline
210
0.0
220
0.0
230
1.0
 70
    12
 71
     2
 72
     6
 73
     3
 74
     0
 42
0.0000000001
 43
0.0000000001
 40
0.0
 40
0.0
 40
0.0
 40
0.0371380794388858
 40
0.0371380794388858
 40
0.0371380794388858
 10
-14.63421101299304
 20
0.4316908378358253
 30
0.0
 41
1.0
 10
-14.63541548501586
 20
0.4103542426935238
 30
0.0
 41
0.8144776561050845
 10
-14.61564357989874
 20
0.4022441987256987
 30
0.0
 41
1.0
  0
SPLINE
  5
99
330
1F
100
AcDbEntity
  8
Make2D visible lines - Tangent
100
AcDbSpline
210
0.0
220
0.0
230
1.0
 70
     8
 71
     3
 72
    54
 73
    50
 74
     0
 42
0.0000000001
 43
0.0000000001
 40
0.0
 40
0.0
 40
0.0
 40
0.0
 40
1.0
 40
2.0
 40
3.0
 40
4.0
 40
5.0
 40
6.0
 40
7.0
 40
8.0
 40
9.0
 40
10.0
 40
11.0
 40
12.0
 40
13.0
 40
14.0
 40
15.0
 40
16.0
 40
17.0
 40
18.0
 40
19.0
 40
20.0
 40
21.0
 40
22.0
 40
23.0
 40
24.0
 40
25.0
 40
26.0
 40
27.0
 40
28.0
 40
29.0
 40
30.0
 40
31.0
 40
32.0
 40
33.0
 40
34.0
 40
35.0
 40
36.0
 40
37.0
 40
38.0
 40
39.0
 40
40.0
 40
41.0
 40
42.0
 40
43.0
 40
44.0
 40
45.0
 40
46.0
 40
47.0
 40
47.0
 40
47.0
 40
47.0
 10
0.3855740390831688
 20
0.403329261439214
 30
0.0
 10
0.4108443184297055
 20
0.471691761030031
 30
0.0
 10
0.3928072028035972
 20
0.6333535261625483
 30
0.0
 10
0.3935782650521504
 20
0.8657327374605353
 30
0.0
 10
0.3870006279260478
 20
1.100824691898526
 30
0.0
 10
0.3822066441073212
 20
1.335184942048012
 30
0.0
 10
0.376920272973096
 20
1.569741898107297
 30
0.0
 10
0.3718097485976801
 20
1.804245165096962
 30
0.0
 10
0.367174730584694
 20
2.038780643129261
 30
0.0
 10
0.3618448482067402
 20
2.27327054669982
 30
0.0
 10
0.3611580137755363
 20
2.50795635439968
 30
0.0
 10
0.376405087015441
 20
2.742035110000107
 30
0.0
 10
0.4015745886429593
 20
2.975291767990851
 30
0.0
 10
0.4262016875861679
 20
3.208581524431251
 30
0.0
 10
0.4504341677925552
 20
3.44180444554645
 30
0.0
 10
0.4809936146595975
 20
3.674811437325082
 30
0.0
 10
0.4873166989861086
 20
3.908675454710889
 30
0.0
 10
0.4727636425388441
 20
4.14316108458999
 30
0.0
 10
0.4622226586758619
 20
4.377402299909646
 30
0.0
 10
0.4518601668513925
 20
4.611784456659724
 30
0.0
 10
0.4397540674726934
 20
4.845964675118837
 30
0.0
 10
0.4280040588748157
 20
5.080512320442788
 30
0.0
 10
0.3896612062822467
 20
5.312100872344999
 30
0.0
 10
0.306364448569322
 20
5.534912960303022
 30
0.0
 10
0.1261550709227438
 20
5.701053020982688
 30
0.0
 10
-0.1290546863127963
 20
5.700046595423096
 30
0.0
 10
-0.3077404613287302
 20
5.532266007601516
 30
0.0
 10
-0.3903756862898934
 20
5.309372210240867
 30
0.0
 10
-0.428217084476282
 20
5.077673675160892
 30
0.0
 10
-0.4399213569507985
 20
4.843140061617282
 30
0.0
 10
-0.4519516521145414
 20
4.608952622806954
 30
0.0
 10
-0.4623969074537961
 20
4.374572197465292
 30
0.0
 10
-0.4728055676319354
 20
4.140337130437424
 30
0.0
 10
-0.4877548161439153
 20
3.905822607503123
 30
0.0
 10
-0.4799307177377822
 20
3.67206586450394
 30
0.0
 10
-0.4495990074442647
 20
3.439049497872843
 30
0.0
 10
-0.4259535830247766
 20
3.205758678338231
 30
0.0
 10
-0.4019566833489902
 20
2.972405099167784
 30
0.0
 10
-0.3765750867231028
 20
2.739167888374083
 30
0.0
 10
-0.3609890257158116
 20
2.505129568181835
 30
0.0
 10
-0.362012857282243
 20
2.270431807711549
 30
0.0
 10
-0.3671657716880983
 20
2.035943620623493
 30
0.0
 10
-0.3719076450540077
 20
1.801408320125761
 30
0.0
 10
-0.3770801101951297
 20
1.566909832637999
 30
0.0
 10
-0.3824214895384378
 20
1.332342661516703
 30
0.0
 10
-0.386847357623071
 20
1.098016778736779
 30
0.0
 10
-0.39383727168959
 20
0.8627750502036662
 30
0.0
 10
-0.3921473528078007
 20
0.6309690073439601
 30
0.0
 10
-0.412459675750142
 20
0.4678802044313225
 30
0.0
 10
-0.3829938551656991
 20
0.4021512543515627
 30
0.0
  0
SPLINE
  5
9A
330
1F
100
AcDbEntity
  8
Make2D visible lines
100
AcDbSpline
210
0.0
220
0.0
230
1.0
 70
    24
 71
     2
 72
     6
 73
     3
 74
     0
 42
0.0000000001
 43
0.0000000001
 40
0.0
 40
0.0
 40
0.0
 40
2.579999999999997
 40
2.579999999999997
 40
2.579999999999997
 10
-1.289999999999996
 20
6.503000000000016
 30
0.0
 10
0.0000000000000027
 20
6.503000000000016
 30
0.0
 10
1.290000000000001
 20
6.503000000000016
 30
0.0
  0
SPLINE
  5
9B
330
1F
100
AcDbEntity
  8
Make2D visible lines
100
AcDbSpline
210
0.0
220
0.0
230
1.0
 70
    24
 71
     2
 72
     6
 73
     3
 74
     0
 42
0.0000000001
 43
0.0000000001
 40
0.0
 40
0.0
 40
0.0
 40
0.0400060931217547
 40
0.0400060931217547
 40
0.0400060931217547
 10
-1.200698202597376
 20
6.463000000000022
 30
0.0
 10
-1.200349101298833
 20
6.483000000000022
 30
0.0
 10
-1.200000000000291
 20
6.503000000000021
 30
0.0
  0
SPLINE
  5
9C
330
1F
100
AcDbEntity
  8
Make2D visible lines
100
AcDbSpline
210
0.0
220
0.0
230
1.0
 70
    24
 71
     2
 72
     6
 73
     3
 74
     0
 42
0.0000000001
 43
0.0000000001
 40
0.0
 40
0.0
 40
0.0
 40
0.0400060931217547
 40
0.0400060931217547
 40
0.0400060931217547
 10
1.200000000000291
 20
6.503000000000021
 30
0.0
 10
1.200349101298833
 20
6.483000000000022
 30
0.0
 10
1.200698202597376
 20
6.463000000000022
 30
0.0
  0
SPLINE
  5
9D
330
1F
100
AcDbEntity
  8
Make2D visible lines
100
AcDbSpline
210
0.0
220
0.0
230
1.0
 70
    24
 71
     2
 72
     6
 73
     3
 74
     0
 42
0.0000000001
 43
0.0000000001
 40
0.0
 40
0.0
 40
0.0
 40
1.107594207465098
 40
1.107594207465098
 40
1.107594207465098
 10
13.386009813054
 20
0.0000000000000036
 30
0.0
 10
13.93980691678655
 20
0.0000000000000036
 30
0.0
 10
14.4936040205191
 20
0.0000000000000036
 30
0.0
  0
SPLINE
  5
9E
330
1F
100
AcDbEntity
  8
Make2D visible lines
100
AcDbSpline
210
0.0
220
0.0
230
1.0
 70
    12
 71
     2
 72
     8
 73
     5
 74
     0
 42
0.0000000001
 43
0.0000000001
 40
0.0
 40
0.0
 40
0.0
 40
0.1269465231438366
 40
0.1269465231438366
 40
0.2538930462876731
 40
0.2538930462876731
 40
0.2538930462876731
 10
14.49360402051909
 20
0.0000000000000036
 30
0.0
 41
1.0
 10
14.56082858485446
 20
0.000000000000002
 30
0.0
 41
0.918360064844369
 10
14.60699642696272
 20
0.0488638148853193
 30
0.0
 41
1.0
 10
14.65316426907099
 20
0.0977276297706366
 30
0.0
 41
0.918360064844369
 10
14.6493531211261
 20
0.1648440748599159
 30
0.0
 41
1.0
  0
SPLINE
  5
9F
330
1F
100
AcDbEntity
  8
Make2D visible lines
100
AcDbSpline
210
0.0
220
0.0
230
1.0
 70
    12
 71
     2
 72
     6
 73
     3
 74
     0
 42
0.0000000001
 43
0.0000000001
 40
0.0
 40
0.0
 40
0.0
 40
0.2412324278936833
 40
0.2412324278936833
 40
0.2412324278936833
 10
13.23005638064813
 20
0.1521885802082181
 30
0.0
 41
1.0
 10
13.23377578943406
 20
-0.0000000000000105
 30
0.0
 41
0.7156927337036098
 10
13.386009813054
 20
0.0000000000000034
 30
0.0
 41
1.0
  0
SPLINE
  5
A0
330
1F
100
AcDbEntity
  8
Make2D visible lines
100
AcDbSpline
210
0.0
220
0.0
230
1.0
 70
    24
 71
     2
 72
     6
 73
     3
 74
     0
 42
0.0000000001
 43
0.0000000001
 40
0.0
 40
0.0
 40
0.0
 40
0.2325105046476637
 40
0.2325105046476637
 40
0.2325105046476637
 10
13.23005628681928
 20
0.1521924194416825
 30
0.0
 10
13.22721591778332
 20
0.2684129683847045
 30
0.0
 10
13.22437554874736
 20
0.3846335173277264
 30
0.0
  0
SPLINE
  5
A1
330
1F
100
AcDbEntity
  8
Make2D visible lines
100
AcDbSpline
210
0.0
220
0.0
230
1.0
 70
    24
 71
     2
 72
     6
 73
     3
 74
     0
 42
0.0000000001
 43
0.0000000001
 40
0.0
 40
0.0
 40
0.0
 40
0.2213623405233084
 40
0.2213623405233084
 40
0.2213623405233084
 10
14.63680347298028
 20
0.3858503918134666
 30
0.0
 10
14.64307829705319
 20
0.2753472333366913
 30
0.0
 10
14.6493531211261
 20
0.164844074859916
 30
0.0
  0
SPLINE
  5
A2
330
1F
100
AcDbEntity
  8
Make2D visible lines
100
AcDbSpline
210
0.0
220
0.0
230
1.0
 70
    12
 71
     2
 72
     6
 73
     3
 74
     0
 42
0.0000000001
 43
0.0000000001
 40
0.0
 40
0.0
 40
0.0
 40
0.0224671519842366
 40
0.0224671519842366
 40
0.0224671519842366
 10
14.63678766326983
 20
0.3860938211857499
 30
0.0
 41
1.0
 10
14.6357708981257
 20
0.4000000000000348
 30
0.0
 41
0.7324347794791691
 10
14.6218275979219
 20
0.4000000000000183
 30
0.0
 41
1.0
  0
SPLINE
  5
A3
330
1F
100
AcDbEntity
  8
Make2D visible lines
100
AcDbSpline
210
0.0
220
0.0
230
1.0
 70
    24
 71
     2
 72
     6
 73
     3
 74
     0
 42
0.0000000001
 43
0.0000000001
 40
0.0
 40
0.0
 40
0.0
 40
1.379419120443295
 40
1.379419120443295
 40
1.379419120443295
 10
14.6218275979219
 20
0.4000000000000163
 30
0.0
 10
13.93211803770025
 20
0.4000000000000162
 30
0.0
 10
13.24240847747861
 20
0.4000000000000161
 30
0.0
  0
SPLINE
  5
A4
330
1F
100
AcDbEntity
  8
Make2D visible lines
100
AcDbSpline
210
0.0
220
0.0
230
1.0
 70
    12
 71
     2
 72
     8
 73
     5
 74
     0
 42
0.0000000001
 43
0.0000000001
 40
0.0
 40
0.0
 40
0.0
 40
0.0119642320224294
 40
0.0119642320224294
 40
0.0239284640448587
 40
0.0239284640448587
 40
0.0239284640448587
 10
13.2393710710941
 20
0.4000000000000163
 30
0.0
 41
1.0
 10
13.23305024302711
 20
0.4000000000000209
 30
0.0
 41
0.9215246294676533
 10
13.22863568008853
 20
0.3954762292814858
 30
0.0
 41
1.0
 10
13.22422111714996
 20
0.3909524585629509
 30
0.0
 41
0.9215246294676533
 10
13.22437554874736
 20
0.3846335173277264
 30
0.0
 41
1.0
  0
SPLINE
  5
A5
330
1F
100
AcDbEntity
  8
Make2D visible lines
100
AcDbSpline
210
0.0
220
0.0
230
1.0
 70
    24
 71
     3
 72
     9
 73
     5
 74
     0
 42
0.0000000001
 43
0.0000000001
 40
0.0
 40
0.0
 40
0.0
 40
0.0
 40
0.0000682360840525
 40
0.251869451330915
 40
0.251869451330915
 40
0.251869451330915
 40
0.251869451330915
 10
-0.2517329766643961
 20
0.0000000000000036
 30
0.0
 10
-0.2518424566444732
 20
0.0000000000000036
 30
0.0
 10
-0.1678963121528749
 20
0.0000000000000036
 30
0.0
 10
-0.0839308151299303
 20
0.0000000000000036
 30
0.0
 10
0.0000000024984139
 20
0.0000000000000036
 30
0.0
  0
SPLINE
  5
A6
330
1F
100
AcDbEntity
  8
Make2D visible lines
100
AcDbSpline
210
0.0
220
0.0
230
1.0
 70
    24
 71
     2
 72
     6
 73
     3
 74
     0
 42
0.0000000001
 43
0.0000000001
 40
0.0
 40
0.0
 40
0.0
 40
0.2517559204860955
 40
0.2517559204860955
 40
0.2517559204860955
 10
0.0000000024984139
 20
0.0000000000000036
 30
0.0
 10
0.1258779627414617
 20
0.0000000000000036
 30
0.0
 10
0.2517559229845094
 20
0.0000000000000036
 30
0.0
  0
SPLINE
  5
A7
330
1F
100
AcDbEntity
  8
Make2D visible lines
100
AcDbSpline
210
0.0
220
0.0
230
1.0
 70
    24
 71
     2
 72
     6
 73
     3
 74
     0
 42
0.0000000001
 43
0.0000000001
 40
0.0
 40
0.0
 40
0.0
 40
0.3876534637036499
 40
0.3876534637036499
 40
0.3876534637036499
 10
0.0000000001071356
 20
0.4000000000000163
 30
0.0
 10
-0.1938267317446893
 20
0.4000000000000162
 30
0.0
 10
-0.3876534635965143
 20
0.4000000000000161
 30
0.0
  0
SPLINE
  5
A8
330
1F
100
AcDbEntity
  8
Make2D visible lines
100
AcDbSpline
210
0.0
220
0.0
230
1.0
 70
    24
 71
     2
 72
     6
 73
     3
 74
     0
 42
0.0000000001
 43
0.0000000001
 40
0.0
 40
0.0
 40
0.0
 40
0.3863627208447955
 40
0.3863627208447955
 40
0.3863627208447955
 10
0.3863630304177565
 20
0.4000000000000166
 30
0.0
 10
0.1931816699953588
 20
0.4000000000000165
 30
0.0
 10
0.000000309572961
 20
0.4000000000000163
 30
0.0
  0
SPLINE
  5
A9
330
1F
100
AcDbEntity
  8
Make2D visible lines
100
AcDbSpline
210
0.0
220
0.0
230
1.0
 70
    12
 71
     2
 72
     8
 73
     5
 74
     0
 42
0.0000000001
 43
0.0000000001
 40
0.0
 40
0.0
 40
0.0
 40
0.1240063772075993
 40
0.1240063772075993
 40
0.2480127544151987
 40
0.2480127544151987
 40
0.2480127544151987
 10
-0.2518017388402534
 20
0.000000000001096
 30
0.0
 41
1.0
 10
-0.3172916728945204
 20
-0.0000119099018914
 30
0.0
 41
0.9220189045496352
 10
-0.3631586976409586
 20
0.0467336529376692
 30
0.0
 41
1.0
 10
-0.4090257223873984
 20
0.0934792157772298
 30
0.0
 41
0.9220189045496352
 10
-0.4077714300600412
 20
0.1589571384308644
 30
0.0
 41
1.0
  0
SPLINE
  5
AA
330
1F
100
AcDbEntity
  8
Make2D visible lines
100
AcDbSpline
210
0.0
220
0.0
230
1.0
 70
    12
 71
     2
 72
     8
 73
     5
 74
     0
 42
0.0000000001
 43
0.0000000001
 40
0.0
 40
0.0
 40
0.0
 40
0.1242318577480881
 40
0.1242318577480881
 40
0.2484637154961761
 40
0.2484637154961761
 40
0.2484637154961761
 10
0.4077615785408764
 20
0.1594215907425355
 30
0.0
 41
1.0
 10
0.4092011691947805
 20
0.0938162002370285
 30
0.0
 41
0.9217678869813357
 10
0.3633120770131395
 20
0.0469085153295885
 30
0.0
 41
1.0
 10
0.3174229848314968
 20
0.0000008304221485
 30
0.0
 41
0.9217678869813357
 10
0.2518018016362724
 20
0.0000000000011417
 30
0.0
 41
1.0
  0
SPLINE
  5
AB
330
1F
100
AcDbEntity
  8
Make2D visible lines
100
AcDbSpline
210
0.0
220
0.0
230
1.0
 70
    12
 71
     2
 72
     6
 73
     3
 74
     0
 42
0.0000000001
 43
0.0000000001
 40
0.0
 40
0.0
 40
0.0
 40
0.2253642768281202
 40
0.2253642768281202
 40
0.2253642768281202
 10
0.4028202765263416
 20
0.385325058594006
 30
0.0
 41
1.0
 10
0.4052793858273148
 20
0.2726697563467351
 30
0.0
 41
0.9999999984988344
 10
0.4077508406780019
 20
0.1600147242624911
 30
0.0
 41
1.0
  0
SPLINE
  5
AC
330
1F
100
AcDbEntity
  8
Make2D visible lines
100
AcDbSpline
210
0.0
220
0.0
230
1.0
 70
    12
 71
     2
 72
     6
 73
     3
 74
     0
 42
0.0000000001
 43
0.0000000001
 40
0.0
 40
0.0
 40
0.0
 40
0.2259576718196235
 40
0.2259576718196235
 40
0.2259576718196235
 10
-0.4077638519746358
 20
0.1594216323489093
 30
0.0
 41
1.0
 10
-0.4052858574621696
 20
0.2723732898507527
 30
0.0
 41
0.9999999984910576
 10
-0.4028202730270731
 20
0.3853252189294936
 30
0.0
 41
1.0
  0
SPLINE
  5
AD
330
1F
100
AcDbEntity
  8
Make2D visible lines
100
AcDbSpline
210
0.0
220
0.0
230
1.0
 70
    12
 71
     2
 72
     6
 73
     3
 74
     0
 42
0.0000000001
 43
0.0000000001
 40
0.0
 40
0.0
 40
0.0
 40
0.0232125536774005
 40
0.0232125536774005
 40
0.0232125536774005
 10
-0.4028183684629205
 20
0.3853269610145591
 30
0.0
 41
1.0
 10
-0.4024518561251791
 20
0.3999502926109969
 30
0.0
 41
0.7170957278319929
 10
-0.3878240166588611
 20
0.3999999999617776
 30
0.0
 41
1.0
  0
SPLINE
  5
AE
330
1F
100
AcDbEntity
  8
Make2D visible lines
100
AcDbSpline
210
0.0
220
0.0
230
1.0
 70
    12
 71
     2
 72
     6
 73
     3
 74
     0
 42
0.0000000001
 43
0.0000000001
 40
0.0
 40
0.0
 40
0.0
 40
0.0232077921390905
 40
0.0232077921390905
 40
0.0232077921390905
 10
0.387824382414756
 20
0.3999999999470365
 30
0.0
 41
1.0
 10
0.4024415566350914
 20
0.3999392744149043
 30
0.0
 41
0.7176120634141828
 10
0.4028184109592292
 20
0.3853268327778507
 30
0.0
 41
1.0
  0
SPLINE
  5
B0
330
1F
100
AcDbEntity
  8
Default
100
AcDbSpline
210
0.0
220
0.0
230
1.0
 70
     8
 71
     3
 72
    14
 73
    10
 74
     0
 42
0.0000000001
 43
0.0000000001
 40
0.0
 40
0.0
 40
0.0
 40
0.0
 40
0.286105356394717
 40
0.6323793272272145
 40
1.570242750951684
 40
2.93508711673459
 40
4.89069209457038
 40
8.807143435501573
 40
13.0444822786923
 40
13.0444822786923
 40
13.0444822786923
 40
13.0444822786923
 10
54.70910136421963
 20
14.88005219713886
 30
0.0
 10
54.7131006790986
 20
14.78562687685992
 30
0.0
 10
54.67485218618656
 20
14.57132817060524
 30
0.0
 10
54.36872632497131
 20
14.13738699753691
 30
0.0
 10
53.63712099927648
 20
13.62569212829072
 30
0.0
 10
52.34233294966967
 20
13.04329425262721
 30
0.0
 10
50.06330304209816
 20
12.24299010779659
 30
0.0
 10
46.77165569648281
 20
11.48955109831889
 30
0.0
 10
44.06226522906223
 20
11.21834123045685
 30
0.0
 10
42.65211298935314
 20
11.14391417493503
 30
0.0
  0
SPLINE
  5
B1
330
1F
100
AcDbEntity
  8
Default
100
AcDbSpline
210
0.0
220
0.0
230
1.0
 70
     8
 71
     3
 72
    19
 73
    15
 74
     0
 42
0.0000000001
 43
0.0000000001
 40
0.0
 40
0.0
 40
0.0
 40
0.0
 40
1.0
 40
2.0
 40
3.0
 40
4.0
 40
5.0
 40
6.0
 40
7.0
 40
8.0
 40
9.0
 40
10.0
 40
11.0
 40
12.0
 40
12.0
 40
12.0
 40
12.0
 10
42.65211298935314
 20
11.14391417493503
 30
0.0
 10
42.43341675157239
 20
11.13210644738181
 30
0.0
 10
41.99590096591277
 20
11.11080693026883
 30
0.0
 10
41.33940396298875
 20
11.08396609091788
 30
0.0
 10
40.68267503871928
 20
11.06293962181368
 30
0.0
 10
40.0257494463186
 20
11.05139205269626
 30
0.0
 10
39.36855588073968
 20
11.04999225902228
 30
0.0
 10
38.71206895056181
 20
11.06987815791649
 30
0.0
 10
38.05512062108737
 20
11.11427021117852
 30
0.0
 10
37.41350128028726
 20
11.26325139185474
 30
0.0
 10
36.79094828308128
 20
11.47532046562105
 30
0.0
 10
36.19399649842889
 20
11.75219196057425
 30
0.0
 10
35.62927352902913
 20
12.08974526060874
 30
0.0
 10
35.27838756227142
 20
12.35296409565665
 30
0.0
 10
35.11031109559678
 20
12.4933815062901
 30
0.0
  0
SPLINE
  5
B2
330
1F
100
AcDbEntity
  8
Default
100
AcDbSpline
210
0.0
220
0.0
230
1.0
 70
     8
 71
     3
 72
    14
 73
    10
 74
     0
 42
0.0000000001
 43
0.0000000001
 40
-16.37408178933761
 40
-16.37408178933761
 40
-16.37408178933761
 40
-16.37408178933761
 40
-14.95710752747041
 40
-13.59285564749454
 40
-11.67916133593988
 40
-9.20366561872866
 40
-4.5321021812345
 40
-1.64651626198485
 40
0.0
 40
0.0
 40
0.0
 40
0.0
 10
35.11031109559678
 20
12.4933815062901
 30
0.0
 10
34.74976132188172
 20
12.79682023114336
 30
0.0
 10
34.08855731720969
 20
13.45623483549856
 30
0.0
 10
33.21239423706872
 20
14.75631181446741
 30
0.0
 10
32.28560208969141
 20
16.43642378547928
 30
0.0
 10
31.04939812255758
 20
19.19671310048918
 30
0.0
 10
30.06903741552611
 20
22.40171249142373
 30
0.0
 10
29.41669253455724
 20
25.39972671890479
 30
0.0
 10
29.17671169573012
 20
26.89250400871376
 30
0.0
 10
29.15405786259487
 20
27.44211759669512
 30
0.0
  0
SPLINE
  5
B3
330
1F
100
AcDbEntity
  8
Default
100
AcDbSpline
210
0.0
220
0.0
230
1.0
 70
     8
 71
     3
 72
     8
 73
     4
 74
     0
 42
0.0000000001
 43
0.0000000001
 40
0.0
 40
0.0
 40
0.0
 40
0.0
 40
1.0
 40
1.0
 40
1.0
 40
1.0
 10
29.15405786259487
 20
27.44211759669512
 30
0.0
 10
29.14409850170591
 20
27.68374558254208
 30
0.0
 10
29.32634581573957
 20
27.96949228026881
 30
0.0
 10
29.68413624481408
 20
27.91121246715143
 30
0.0
  0
SPLINE
  5
B4
330
1F
100
AcDbEntity
  8
Default
100
AcDbSpline
210
0.0
220
0.0
230
1.0
 70
    12
 71
     3
 72
    22
 73
    18
 74
     0
 42
0.0000000001
 43
0.0000000001
 40
0.0
 40
0.0
 40
0.0
 40
0.0
 40
0.5733453317215156
 40
4.879117115964801
 40
9.234147877084636
 40
9.234147877084636
 40
9.234147877084636
 40
14.59274354194941
 40
14.59274354194941
 40
14.59274354194941
 40
15.59274354194941
 40
16.59274354194941
 40
17.59274354194941
 40
18.59274354194941
 40
19.59274354194941
 40
20.59274354194941
 40
21.59274354194941
 40
21.59274354194941
 40
21.59274354194941
 40
21.59274354194941
 10
29.68413624481408
 20
27.91121246715143
 30
0.0
 41
1.0
 10
29.86832983021127
 20
27.88120951888326
 30
0.0
 41
1.0
 10
31.46786531613996
 20
27.67686169520251
 30
0.0
 41
1.0
 10
34.47303903106041
 20
27.28910103424639
 30
0.0
 41
1.0
 10
37.33822483419219
 20
26.93517777231086
 30
0.0
 41
1.0
 10
38.78042237354093
 20
26.7694472129252
 30
0.0
 41
1.0
 10
40.61062038697745
 20
26.55161708906158
 30
0.0
 41
0.9397413184370592
 10
42.18489062046066
 20
25.59310476349816
 30
0.0
 41
0.9397413184370592
 10
43.21864272791008
 20
24.06718630323579
 30
0.0
 41
1.0
 10
43.48386216933308
 20
23.67189482076569
 30
0.0
 41
1.0
 10
44.01656577617666
 20
22.88283399883895
 30
0.0
 41
1.0
 10
44.82232322675571
 20
21.70379296340573
 30
0.0
 41
1.0
 10
45.63491652338142
 20
20.52945987325867
 30
0.0
 41
1.0
 10
46.45320544735387
 20
19.35907045787976
 30
0.0
 41
1.0
 10
47.30720587641673
 20
18.21409904512202
 30
0.0
 41
1.0
 10
48.22108832017321
 20
17.11597182346441
 30
0.0
 41
1.0
 10
48.87667316469152
 20
16.42457882440402
 30
0.0
 41
1.0
 10
49.22437314576065
 20
16.09928611663451
 30
0.0
 41
1.0
  0
SPLINE
  5
B5
330
1F
100
AcDbEntity
  8
Default
100
AcDbSpline
210
0.0
220
0.0
230
1.0
 70
     8
 71
     3
 72
     9
 73
     5
 74
     0
 42
0.0000000001
 43
0.0000000001
 40
0.0
 40
0.0
 40
0.0
 40
0.0
 40
1.0
 40
2.0
 40
2.0
 40
2.0
 40
2.0
 10
49.22437314576065
 20
16.09928611663451
 30
0.0
 10
49.61881777680112
 20
15.72171994579348
 30
0.0
 10
50.5131977342531
 20
15.060914976599
 30
0.0
 10
51.59459231622736
 20
14.78318614799752
 30
0.0
 10
52.14169081536328
 20
14.76205397871529
 30
0.0
  0
SPLINE
  5
B6
330
1F
100
AcDbEntity
  8
Default
100
AcDbSpline
210
0.0
220
0.0
230
1.0
 70
     8
 71
     3
 72
     8
 73
     4
 74
     0
 42
0.0000000001
 43
0.0000000001
 40
0.0
 40
0.0
 40
0.0
 40
0.0
 40
1.0
 40
1.0
 40
1.0
 40
1.0
 10
52.14169081536328
 20
14.76205397871529
 30
0.0
 10
52.99769949998547
 20
14.72747284610673
 30
0.0
 10
53.8535685452056
 20
14.83521562199057
 30
0.0
 10
54.70910136421963
 20
14.88005219713886
 30
0.0
  0
SPLINE
  5
B7
330
1F
100
AcDbEntity
  8
Default
100
AcDbSpline
210
0.0
220
0.0
230
1.0
 70
    24
 71
     2
 72
     6
 73
     3
 74
     0
 42
0.0000000001
 43
0.0000000001
 40
0.0
 40
0.0
 40
0.0
 40
1.314622470337779
 40
1.314622470337779
 40
1.314622470337779
 10
54.20943484760335
 20
15.31501849448556
 30
0.0
 10
54.14780482632045
 20
15.96943411193056
 30
0.0
 10
54.08617480503754
 20
16.62384972937556
 30
0.0
  0
SPLINE
  5
B8
330
1F
100
AcDbEntity
  8
Default
100
AcDbSpline
210
0.0
220
0.0
230
1.0
 70
     8
 71
     3
 72
     8
 73
     4
 74
     0
 42
0.0000000001
 43
0.0000000001
 40
0.0
 40
0.0
 40
0.0
 40
0.0
 40
1.0
 40
1.0
 40
1.0
 40
1.0
 10
54.08617480503754
 20
16.62384972937556
 30
0.0
 10
54.07230131134907
 20
16.77116480000636
 30
0.0
 10
53.97149435373458
 20
16.84447480602709
 30
0.0
 10
53.81714052805982
 20
16.85292957314898
 30
0.0
  0
SPLINE
  5
B9
330
1F
100
AcDbEntity
  8
Default
100
AcDbSpline
210
0.0
220
0.0
230
1.0
 70
     8
 71
     3
 72
    10
 73
     6
 74
     0
 42
0.0000000001
 43
0.0000000001
 40
-3.0
 40
-3.0
 40
-3.0
 40
-3.0
 40
-2.0
 40
-1.0
 40
0.0
 40
0.0
 40
0.0
 40
0.0
 10
53.81714052805982
 20
16.85292957314898
 30
0.0
 10
53.24425097924535
 20
16.8843097329903
 30
0.0
 10
52.09674724997522
 20
16.86207874474789
 30
0.0
 10
50.3775837883227
 20
16.79763338287822
 30
0.0
 10
49.2320264082191
 20
16.73709835741669
 30
0.0
 10
48.65944497184063
 20
16.70445619214962
 30
0.0
  0
SPLINE
  5
BA
330
1F
100
AcDbEntity
  8
Default
100
AcDbSpline
210
0.0
220
0.0
230
1.0
 70
    12
 71
     2
 72
     6
 73
     3
 74
     0
 42
0.0000000001
 43
0.0000000001
 40
0.0
 40
0.0
 40
0.0
 40
0.7038513494140428
 40
0.7038513494140428
 40
0.7038513494140428
 10
54.70910136422083
 20
14.88005219713899
 30
0.0
 41
1.0
 10
54.68330797022322
 20
15.31973916677014
 30
0.0
 41
0.7240920788525397
 10
54.2428869458131
 20
15.31533344670016
 30
0.0
 41
1.0
  0
SPLINE
  5
BB
330
1F
100
AcDbEntity
  8
Default
100
AcDbSpline
210
0.0
220
0.0
230
1.0
 70
     8
 71
     3
 72
    19
 73
    15
 74
     0
 42
0.0000000001
 43
0.0000000001
 40
0.0
 40
0.0
 40
0.0
 40
0.0
 40
1.0
 40
2.0
 40
3.0
 40
4.0
 40
5.0
 40
6.0
 40
7.0
 40
8.0
 40
9.0
 40
10.0
 40
11.0
 40
12.0
 40
12.0
 40
12.0
 40
12.0
 10
54.2428869458131
 20
15.31533344670016
 30
0.0
 10
54.04712795748242
 20
15.31351264913456
 30
0.0
 10
53.65580337625886
 20
15.30044690103371
 30
0.0
 10
53.06921689164807
 20
15.27121371120857
 30
0.0
 10
52.48331007617631
 20
15.23325200665634
 30
0.0
 10
51.89834449602091
 20
15.17076611490104
 30
0.0
 10
51.31009034271925
 20
15.19918840325
 30
0.0
 10
50.73300245615323
 20
15.31824151778809
 30
0.0
 10
50.18408494057419
 20
15.53184799851759
 30
0.0
 10
49.67164345972404
 20
15.82258259059851
 30
0.0
 10
49.21144292658956
 20
16.18886941395173
 30
0.0
 10
48.77761830978741
 20
16.58487611999159
 30
0.0
 10
48.36149119081882
 20
16.99950553592454
 30
0.0
 10
48.09839305455699
 20
17.28961964397376
 30
0.0
 10
47.97039679338555
 20
17.43773046529075
 30
0.0
  0
SPLINE
  5
BC
330
1F
100
AcDbEntity
  8
Default
100
AcDbSpline
210
0.0
220
0.0
230
1.0
 70
     8
 71
     3
 72
    19
 73
    15
 74
     0
 42
0.0000000001
 43
0.0000000001
 40
-12.0
 40
-12.0
 40
-12.0
 40
-12.0
 40
-11.0
 40
-10.0
 40
-9.0
 40
-8.0
 40
-7.0
 40
-6.0
 40
-5.0
 40
-4.0
 40
-3.0
 40
-2.0
 40
-1.0
 40
0.0
 40
0.0
 40
0.0
 40
0.0
 10
9.510957813972851
 20
15.99938241458326
 30
0.0
 10
9.303812582672094
 20
16.17408734159955
 30
0.0
 10
8.777476892911068
 20
16.31161137621584
 30
0.0
 10
7.992536832560617
 20
16.45048538273793
 30
0.0
 10
7.196422692906069
 20
16.54645136516478
 30
0.0
 10
6.399612544291514
 20
16.62206282434837
 30
0.0
 10
5.601087948561926
 20
16.68186197895459
 30
0.0
 10
4.801900669715053
 20
16.73011623582024
 30
0.0
 10
4.002165018056132
 20
16.76872795636875
 30
0.0
 10
3.20207937929591
 20
16.79896722274112
 30
0.0
 10
2.401745385658401
 20
16.82171127033024
 30
0.0
 10
1.601248018339319
 20
16.83762383419813
 30
0.0
 10
0.8006487750207754
 20
16.84707099048597
 30
0.0
 10
0.2668828846553595
 20
16.84917109037394
 30
0.0
 10
0.0000000036788776
 20
16.84917146405624
 30
0.0
  0
SPLINE
  5
BD
330
1F
100
AcDbEntity
  8
Default
100
AcDbSpline
210
0.0
220
0.0
230
1.0
 70
     8
 71
     3
 72
    19
 73
    15
 74
     0
 42
0.0000000001
 43
0.0000000001
 40
0.0
 40
0.0
 40
0.0
 40
0.0
 40
1.0
 40
2.0
 40
3.0
 40
4.0
 40
5.0
 40
6.0
 40
7.0
 40
8.0
 40
9.0
 40
10.0
 40
11.0
 40
12.0
 40
12.0
 40
12.0
 40
12.0
 10
0.0000000036788776
 20
16.84917146405624
 30
0.0
 10
-0.26688287729759
 20
16.84917109037394
 30
0.0
 10
-0.8006487676630059
 20
16.84707099048597
 30
0.0
 10
-1.601248010981564
 20
16.83762383419813
 30
0.0
 10
-2.401745378300646
 20
16.82171127033024
 30
0.0
 10
-3.202079371938154
 20
16.79896722274112
 30
0.0
 10
-4.002165010698377
 20
16.76872795636875
 30
0.0
 10
-4.801900662357284
 20
16.73011623582024
 30
0.0
 10
-5.60108794120417
 20
16.68186197895459
 30
0.0
 10
-6.399612536933759
 20
16.62206282434837
 30
0.0
 10
-7.196422685548313
 20
16.54645136516478
 30
0.0
 10
-7.992536825202862
 20
16.45048538273793
 30
0.0
 10
-8.777476885553298
 20
16.31161137621584
 30
0.0
 10
-9.303812575314339
 20
16.17408734159955
 30
0.0
 10
-9.510957806615082
 20
15.99938241458326
 30
0.0
  0
SPLINE
  5
BE
330
1F
100
AcDbEntity
  8
Default
100
AcDbSpline
210
0.0
220
0.0
230
1.0
 70
     8
 71
     3
 72
    10
 73
     6
 74
     0
 42
0.0000000001
 43
0.0000000001
 40
0.0
 40
0.0
 40
0.0
 40
0.0
 40
1.0
 40
2.0
 40
3.0
 40
3.0
 40
3.0
 40
3.0
 10
-14.63916897310133
 20
26.77479931282409
 30
0.0
 10
-14.99214924856702
 20
26.70200158782348
 30
0.0
 10
-15.59533036381109
 20
26.19912792008508
 30
0.0
 10
-15.68032349394994
 20
25.07815858541545
 30
0.0
 10
-15.50249817489478
 20
24.38859909787599
 30
0.0
 10
-15.40237779650903
 20
24.04469995093254
 30
0.0
  0
SPLINE
  5
BF
330
1F
100
AcDbEntity
  8
Default
100
AcDbSpline
210
0.0
220
0.0
230
1.0
 70
     8
 71
     3
 72
    14
 73
    10
 74
     0
 42
0.0000000001
 43
0.0000000001
 40
0.0
 40
0.0
 40
0.0
 40
0.0
 40
1.0
 40
2.0
 40
3.0
 40
4.0
 40
5.0
 40
6.0
 40
7.0
 40
7.0
 40
7.0
 40
7.0
 10
-15.40237779650903
 20
24.04469995093254
 30
0.0
 10
-15.21146690011157
 20
23.3889483899433
 30
0.0
 10
-14.7029252757375
 20
21.73010461294712
 30
0.0
 10
-13.9973091515473
 20
19.80533862993035
 30
0.0
 10
-13.171256946063
 20
17.92917233979567
 30
0.0
 10
-12.21874317323631
 20
16.11317252096001
 30
0.0
 10
-11.09166182824706
 20
14.39742778904842
 30
0.0
 10
-9.663171306721125
 20
12.90563054758309
 30
0.0
 10
-8.451871737747723
 20
12.2366606422904
 30
0.0
 10
-7.809836138928091
 20
12.00408495166512
 30
0.0
  0
SPLINE
  5
C0
330
1F
100
AcDbEntity
  8
Default
100
AcDbSpline
210
0.0
220
0.0
230
1.0
 70
     8
 71
     3
 72
    14
 73
    10
 74
     0
 42
0.0000000001
 43
0.0000000001
 40
0.0
 40
0.0
 40
0.0
 40
0.0
 40
1.0
 40
2.0
 40
3.0
 40
4.0
 40
5.0
 40
6.0
 40
7.0
 40
7.0
 40
7.0
 40
7.0
 10
-7.809836138928091
 20
12.00408495166512
 30
0.0
 10
-7.100073494795893
 20
11.75242187673263
 30
0.0
 10
-5.62537347894073
 20
11.43227372740017
 30
0.0
 10
-3.382951307102672
 20
11.17277148732694
 30
0.0
 10
-1.128817574097354
 20
11.04494773393565
 30
0.0
 10
1.128817542067196
 20
11.04494774264822
 30
0.0
 10
3.382951014416491
 20
11.17277144859887
 30
0.0
 10
5.625373766952649
 20
11.43227379461638
 30
0.0
 10
7.100072946589179
 20
11.7524217334201
 30
0.0
 10
7.809836138928091
 20
12.00408495166512
 30
0.0
  0
SPLINE
  5
C1
330
1F
100
AcDbEntity
  8
Default
100
AcDbSpline
210
0.0
220
0.0
230
1.0
 70
     8
 71
     3
 72
    14
 73
    10
 74
     0
 42
0.0000000001
 43
0.0000000001
 40
-7.0
 40
-7.0
 40
-7.0
 40
-7.0
 40
-6.0
 40
-5.0
 40
-4.0
 40
-3.0
 40
-2.0
 40
-1.0
 40
0.0
 40
0.0
 40
0.0
 40
0.0
 10
7.809836138928091
 20
12.00408495166512
 30
0.0
 10
8.451871737747723
 20
12.2366606422904
 30
0.0
 10
9.663171306721125
 20
12.90563054758309
 30
0.0
 10
11.09166182824706
 20
14.39742778904842
 30
0.0
 10
12.21874317323631
 20
16.11317252096001
 30
0.0
 10
13.171256946063
 20
17.92917233979567
 30
0.0
 10
13.9973091515473
 20
19.80533862993035
 30
0.0
 10
14.7029252757375
 20
21.73010461294712
 30
0.0
 10
15.21146690011157
 20
23.3889483899433
 30
0.0
 10
15.40237779650903
 20
24.04469995093254
 30
0.0
  0
SPLINE
  5
C2
330
1F
100
AcDbEntity
  8
Default
100
AcDbSpline
210
0.0
220
0.0
230
1.0
 70
     8
 71
     3
 72
    10
 73
     6
 74
     0
 42
0.0000000001
 43
0.0000000001
 40
-3.0
 40
-3.0
 40
-3.0
 40
-3.0
 40
-2.0
 40
-1.0
 40
0.0
 40
0.0
 40
0.0
 40
0.0
 10
15.40237779650903
 20
24.04469995093254
 30
0.0
 10
15.50249817489478
 20
24.38859909787599
 30
0.0
 10
15.68032349394994
 20
25.07815858541545
 30
0.0
 10
15.59533036381109
 20
26.19912792008508
 30
0.0
 10
14.99214924856702
 20
26.70200158782348
 30
0.0
 10
14.63916897310133
 20
26.77479931282409
 30
0.0
  0
SPLINE
  5
C3
330
1F
100
AcDbEntity
  8
Default
100
AcDbSpline
210
0.0
220
0.0
230
1.0
 70
     8
 71
     3
 72
    24
 73
    20
 74
     0
 42
0.0000000001
 43
0.0000000001
 40
0.0
 40
0.0
 40
0.0
 40
0.0
 40
1.0
 40
2.0
 40
3.0
 40
4.0
 40
5.0
 40
6.0
 40
7.0
 40
8.0
 40
9.0
 40
10.0
 40
11.0
 40
12.0
 40
13.0
 40
14.0
 40
15.0
 40
16.0
 40
17.0
 40
17.0
 40
17.0
 40
17.0
 10
7.005755374596276
 20
15.18294540883885
 30
0.0
 10
7.245202413423698
 20
15.18540536314887
 30
0.0
 10
7.726774715044016
 20
15.20887940409158
 30
0.0
 10
8.426018377429287
 20
15.39137223967946
 30
0.0
 10
9.081582838574818
 20
15.69524780325047
 30
0.0
 10
9.67311160228256
 20
16.10808837466032
 30
0.0
 10
10.20892581625067
 20
16.58960761950145
 30
0.0
 10
10.70919529172991
 20
17.10717796468662
 30
0.0
 10
11.16965268536916
 20
17.66067838364673
 30
0.0
 10
11.59418385149988
 20
18.24190142002889
 30
0.0
 10
11.98917289678879
 20
18.84348869677849
 30
0.0
 10
12.36160688552658
 20
19.45915866424778
 30
0.0
 10
12.72153576203588
 20
20.08218838719797
 30
0.0
 10
13.06828013665765
 20
20.71267507966449
 30
0.0
 10
13.39625250396084
 20
21.35316454897024
 30
0.0
 10
13.70421307816741
 20
22.0035228831107
 30
0.0
 10
13.98807285649457
 20
22.66480609315906
 30
0.0
 10
14.2430447169298
 20
23.33783063269112
 30
0.0
 10
14.38788815293486
 20
23.79533885256128
 30
0.0
 10
14.45179601745139
 20
24.02651007589992
 30
0.0
  0
SPLINE
  5
C4
330
1F
100
AcDbEntity
  8
Default
100
AcDbSpline
210
0.0
220
0.0
230
1.0
 70
     8
 71
     3
 72
    24
 73
    20
 74
     0
 42
0.0000000001
 43
0.0000000001
 40
0.0
 40
0.0
 40
0.0
 40
0.0
 40
1.0
 40
2.0
 40
3.0
 40
4.0
 40
5.0
 40
6.0
 40
7.0
 40
8.0
 40
9.0
 40
10.0
 40
11.0
 40
12.0
 40
13.0
 40
14.0
 40
15.0
 40
16.0
 40
17.0
 40
17.0
 40
17.0
 40
17.0
 10
-7.005755367238521
 20
15.18294540883885
 30
0.0
 10
-7.245202406065943
 20
15.18540536314887
 30
0.0
 10
-7.726774707686246
 20
15.20887940409158
 30
0.0
 10
-8.426018370071532
 20
15.39137223967946
 30
0.0
 10
-9.081582831217048
 20
15.69524780325047
 30
0.0
 10
-9.673111594924805
 20
16.10808837466032
 30
0.0
 10
-10.2089258088929
 20
16.58960761950145
 30
0.0
 10
-10.70919528437216
 20
17.10717796468662
 30
0.0
 10
-11.1696526780114
 20
17.66067838364673
 30
0.0
 10
-11.59418384414212
 20
18.24190142002889
 30
0.0
 10
-11.98917288943102
 20
18.84348869677849
 30
0.0
 10
-12.36160687816883
 20
19.45915866424778
 30
0.0
 10
-12.72153575467811
 20
20.08218838719797
 30
0.0
 10
-13.06828012929989
 20
20.71267507966449
 30
0.0
 10
-13.39625249660307
 20
21.35316454897024
 30
0.0
 10
-13.70421307080964
 20
22.0035228831107
 30
0.0
 10
-13.98807284913681
 20
22.66480609315906
 30
0.0
 10
-14.24304470957203
 20
23.33783063269112
 30
0.0
 10
-14.38788814557709
 20
23.79533885256128
 30
0.0
 10
-14.45179601009363
 20
24.02651007589992
 30
0.0
  0
SPLINE
  5
C5
330
1F
100
AcDbEntity
  8
Default
100
AcDbSpline
210
0.0
220
0.0
230
1.0
 70
     8
 71
     3
 72
    11
 73
     7
 74
     0
 42
0.0000000001
 43
0.0000000001
 40
0.0
 40
0.0
 40
0.0
 40
0.0
 40
0.9999786995718987
 40
0.9999786995718987
 40
0.9999786995718987
 40
2.0
 40
2.0
 40
2.0
 40
2.0
 10
-7.264218543382768
 20
14.76182790517867
 30
0.0
 10
-4.844020590337635
 20
14.67579894499161
 30
0.0
 10
-2.42172689240617
 20
14.78703873822645
 30
0.0
 10
0.0
 20
14.78703873822649
 30
0.0
 10
2.421830062242833
 20
14.78703873822649
 30
0.0
 10
4.844226978305826
 20
14.67578946676706
 30
0.0
 10
7.264528248292436
 20
14.76182790517874
 30
0.0
  0
SPLINE
  5
C6
330
1F
100
AcDbEntity
  8
Default
100
AcDbSpline
210
0.0
220
0.0
230
1.0
 70
     8
 71
     3
 72
    24
 73
    20
 74
     0
 42
0.0000000001
 43
0.0000000001
 40
-17.0
 40
-17.0
 40
-17.0
 40
-17.0
 40
-16.0
 40
-15.0
 40
-14.0
 40
-13.0
 40
-12.0
 40
-11.0
 40
-10.0
 40
-9.0
 40
-8.0
 40
-7.0
 40
-6.0
 40
-5.0
 40
-4.0
 40
-3.0
 40
-2.0
 40
-1.0
 40
0.0
 40
0.0
 40
0.0
 40
0.0
 10
7.264528248292436
 20
14.76182790517874
 30
0.0
 10
7.512672878414037
 20
14.77064911134041
 30
0.0
 10
8.009496138860271
 20
14.81195140370097
 30
0.0
 10
8.731599944769457
 20
15.01232081659277
 30
0.0
 10
9.396716773906064
 20
15.35504411322951
 30
0.0
 10
10.00230463625161
 20
15.79349012659122
 30
0.0
 10
10.52728316645269
 20
16.32503312932572
 30
0.0
 10
11.016206507692
 20
16.88762279067339
 30
0.0
 10
11.46655508036913
 20
17.48206667013616
 30
0.0
 10
11.88898979055112
 20
18.0962557988278
 30
0.0
 10
12.28856670999295
 20
18.72557470355406
 30
0.0
 10
12.66950873958517
 20
19.36625482381344
 30
0.0
 10
13.04036164519383
 20
20.01279745580043
 30
0.0
 10
13.40262085620009
 20
20.66421218202179
 30
0.0
 10
13.74786251076711
 20
21.32485023728693
 30
0.0
 10
14.0756727309052
 20
21.99430475904611
 30
0.0
 10
14.38315468045526
 20
22.67336867609405
 30
0.0
 10
14.66628231966858
 20
23.36299810189231
 30
0.0
 10
14.83420887572213
 20
23.83081249002574
 30
0.0
 10
14.91142503832697
 20
24.06696126221907
 30
0.0
  0
SPLINE
  5
C7
330
1F
100
AcDbEntity
  8
Default
100
AcDbSpline
210
0.0
220
0.0
230
1.0
 70
     8
 71
     3
 72
    12
 73
     8
 74
     0
 42
0.0000000001
 43
0.0000000001
 40
0.0
 40
0.0
 40
0.0
 40
0.0
 40
1.0
 40
2.0
 40
3.0
 40
4.0
 40
5.0
 40
5.0
 40
5.0
 40
5.0
 10
14.91142503832697
 20
24.06696126221907
 30
0.0
 10
14.97333240093583
 20
24.25850260886835
 30
0.0
 10
15.09510200282482
 20
24.64211685866327
 30
0.0
 10
15.23557538118716
 20
25.23082250513811
 30
0.0
 10
15.29157206406009
 20
25.83238923643334
 30
0.0
 10
15.16814641026623
 20
26.44453885727353
 30
0.0
 10
14.83418489439116
 20
26.72036736920462
 30
0.0
 10
14.63765481135745
 20
26.7692216302031
 30
0.0
  0
SPLINE
  5
C8
330
1F
100
AcDbEntity
  8
Default
100
AcDbSpline
210
0.0
220
0.0
230
1.0
 70
     8
 71
     3
 72
    19
 73
    15
 74
     0
 42
0.0000000001
 43
0.0000000001
 40
-12.0
 40
-12.0
 40
-12.0
 40
-12.0
 40
-11.0
 40
-10.0
 40
-9.0
 40
-8.0
 40
-7.0
 40
-6.0
 40
-5.0
 40
-4.0
 40
-3.0
 40
-2.0
 40
-1.0
 40
0.0
 40
0.0
 40
0.0
 40
0.0
 10
14.63765481135745
 20
26.7692216302031
 30
0.0
 10
14.24352968175928
 20
26.87755241524974
 30
0.0
 10
13.44298809025949
 20
27.04464251100239
 30
0.0
 10
12.23194428816031
 20
27.23600015842964
 30
0.0
 10
11.01532953641158
 20
27.38754151420596
 30
0.0
 10
9.795990734746866
 20
27.51462257581905
 30
0.0
 10
8.574447794877997
 20
27.61850040639514
 30
0.0
 10
7.351419985560199
 20
27.70280478491546
 30
0.0
 10
6.127379773383566
 20
27.77072661876388
 30
0.0
 10
4.902644960399329
 20
27.82454829460334
 30
0.0
 10
3.677430426611181
 20
27.86592761047074
 30
0.0
 10
2.451903443028371
 20
27.89653819635338
 30
0.0
 10
1.226172758338194
 20
27.917433775923
 30
0.0
 10
0.4089361394371309
 20
27.92502178592181
 30
0.0
 10
0.0003097049096681
 20
27.92737379342075
 30
0.0
  0
SPLINE
  5
C9
330
1F
100
AcDbEntity
  8
Default
100
AcDbSpline
210
0.0
220
0.0
230
1.0
 70
     8
 71
     3
 72
    19
 73
    15
 74
     0
 42
0.0000000001
 43
0.0000000001
 40
0.0
 40
0.0
 40
0.0
 40
0.0
 40
1.0
 40
2.0
 40
3.0
 40
4.0
 40
5.0
 40
6.0
 40
7.0
 40
8.0
 40
9.0
 40
10.0
 40
11.0
 40
12.0
 40
12.0
 40
12.0
 40
12.0
 10
0.0003097049096681
 20
27.92737379342075
 30
0.0
 10
-0.4083167296177805
 20
27.92502178592181
 30
0.0
 10
-1.225553348518858
 20
27.917433775923
 30
0.0
 10
-2.451284033209021
 20
27.89653819635338
 30
0.0
 10
-3.676811016791845
 20
27.86592761047074
 30
0.0
 10
-4.902025550579978
 20
27.82454829460334
 30
0.0
 10
-6.126760363564216
 20
27.77072661876388
 30
0.0
 10
-7.350800575740863
 20
27.70280478491546
 30
0.0
 10
-8.573828385058647
 20
27.61850040639514
 30
0.0
 10
-9.795371324927515
 20
27.51462257581905
 30
0.0
 10
-11.01471012659225
 20
27.38754151420596
 30
0.0
 10
-12.23132487834096
 20
27.23600015842964
 30
0.0
 10
-13.44236868044015
 20
27.04464251100239
 30
0.0
 10
-14.24291027193993
 20
26.87755241524974
 30
0.0
 10
-14.6370354015381
 20
26.7692216302031
 30
0.0
  0
SPLINE
  5
CA
330
1F
100
AcDbEntity
  8
Default
100
AcDbSpline
210
0.0
220
0.0
230
1.0
 70
     8
 71
     3
 72
    12
 73
     8
 74
     0
 42
0.0000000001
 43
0.0000000001
 40
-5.0
 40
-5.0
 40
-5.0
 40
-5.0
 40
-4.0
 40
-3.0
 40
-2.0
 40
-1.0
 40
0.0
 40
0.0
 40
0.0
 40
0.0
 10
-14.6370354015381
 20
26.7692216302031
 30
0.0
 10
-14.83356548457181
 20
26.72036736920462
 30
0.0
 10
-15.16752700044688
 20
26.44453885727353
 30
0.0
 10
-15.29095265424075
 20
25.83238923643334
 30
0.0
 10
-15.23495597136781
 20
25.23082250513811
 30
0.0
 10
-15.09448259300547
 20
24.64211685866327
 30
0.0
 10
-14.97271299111648
 20
24.25850260886835
 30
0.0
 10
-14.91080562850763
 20
24.06696126221907
 30
0.0
  0
SPLINE
  5
CB
330
1F
100
AcDbEntity
  8
Default
100
AcDbSpline
210
0.0
220
0.0
230
1.0
 70
     8
 71
     3
 72
    24
 73
    20
 74
     0
 42
0.0000000001
 43
0.0000000001
 40
0.0
 40
0.0
 40
0.0
 40
0.0
 40
1.000024441849377
 40
2.000048883698754
 40
3.000073325548131
 40
4.000097767397508
 40
5.000122209246884
 40
6.000146651096261
 40
7.000171092945639
 40
8.000195534795015
 40
9.000219976644392
 40
10.00024441849377
 40
11.00026886034314
 40
12.00029330219252
 40
13.0003177440419
 40
14.00034218589128
 40
15.00036662774065
 40
16.00039106959003
 40
17.0
 40
17.0
 40
17.0
 40
17.0
 10
-14.91080562850763
 20
24.06696126221907
 30
0.0
 10
-14.83358946590278
 20
23.83081249002574
 30
0.0
 10
-14.66566290984925
 20
23.36299810189231
 30
0.0
 10
-14.38253527063591
 20
22.67336867609405
 30
0.0
 10
-14.07505332108585
 20
21.99430475904611
 30
0.0
 10
-13.74724310094777
 20
21.32485023728693
 30
0.0
 10
-13.40200144638074
 20
20.66421218202179
 30
0.0
 10
-13.03974223537448
 20
20.01279745580043
 30
0.0
 10
-12.66888932976582
 20
19.36625482381344
 30
0.0
 10
-12.28794730017361
 20
18.72557470355406
 30
0.0
 10
-11.88837038073177
 20
18.0962557988278
 30
0.0
 10
-11.4659356705498
 20
17.48206667013616
 30
0.0
 10
-11.01558709787265
 20
16.88762279067339
 30
0.0
 10
-10.52666375663334
 20
16.32503312932572
 30
0.0
 10
-10.00168522643226
 20
15.79349012659122
 30
0.0
 10
-9.396097364086714
 20
15.35504411322951
 30
0.0
 10
-8.730980534950106
 20
15.01232081659277
 30
0.0
 10
-8.00897674072705
 20
14.8119791549504
 30
0.0
 10
-7.512259898631655
 20
14.77066627647863
 30
0.0
 10
-7.264218543382768
 20
14.76182790517867
 30
0.0
  0
SPLINE
  5
CC
330
1F
100
AcDbEntity
  8
Default
100
AcDbSpline
210
0.0
220
0.0
230
1.0
 70
     8
 71
     3
 72
    15
 73
    11
 74
     0
 42
0.0000000001
 43
0.0000000001
 40
0.0
 40
0.0
 40
0.0
 40
0.0
 40
0.2851889473013802
 40
1.587701404265863
 40
2.854872156616546
 40
6.708488880923252
 40
10.97639679747228
 40
12.29790800810541
 40
13.64242482470756
 40
13.92248948227173
 40
13.92248948227173
 40
13.92248948227173
 40
13.92248948227173
 10
-6.958932411343227
 20
15.18303801759396
 30
0.0
 10
-6.863810470360875
 20
15.18301492682858
 30
0.0
 10
-6.335222780579443
 20
15.20923543499068
 30
0.0
 10
-5.384927403271845
 20
15.25969215128948
 30
0.0
 10
-3.244259440540475
 20
15.31414386708198
 30
0.0
 10
-0.1146624444627093
 20
15.3150536247225
 30
0.0
 10
3.033066996438464
 20
15.31642789222495
 30
0.0
 10
5.343962394725395
 20
15.26190969416175
 30
0.0
 10
6.324658008553229
 20
15.20948281311011
 30
0.0
 10
6.865514516603682
 20
15.18296465390179
 30
0.0
 10
6.958934971682467
 20
15.18303805974342
 30
0.0
  0
SPLINE
  5
CD
330
1F
100
AcDbEntity
  8
Default
100
AcDbSpline
210
0.0
220
0.0
230
1.0
 70
     8
 71
     3
 72
    10
 73
     6
 74
     0
 42
0.0000000001
 43
0.0000000001
 40
0.0
 40
0.0
 40
0.0
 40
0.0
 40
1.0
 40
2.0
 40
3.0
 40
3.0
 40
3.0
 40
3.0
 10
14.91117308357965
 20
52.84973438121578
 30
0.0
 10
15.13628274971357
 20
53.30768952435925
 30
0.0
 10
15.34860073663146
 20
54.32261345535551
 30
0.0
 10
15.14710099101016
 20
55.8483628002436
 30
0.0
 10
14.83127466932724
 20
56.81756087860269
 30
0.0
 10
14.63740285661013
 20
57.28795697057976
 30
0.0
  0
SPLINE
  5
CE
330
1F
100
AcDbEntity
  8
Default
100
AcDbSpline
210
0.0
220
0.0
230
1.0
 70
     8
 71
     3
 72
    10
 73
     6
 74
     0
 42
0.0000000001
 43
0.0000000001
 40
-3.0
 40
-3.0
 40
-3.0
 40
-3.0
 40
-2.0
 40
-1.0
 40
0.0
 40
0.0
 40
0.0
 40
0.0
 10
14.63740285661013
 20
57.28795697057976
 30
0.0
 10
13.85901172357436
 20
59.16829915492763
 30
0.0
 10
11.39627064455937
 20
62.51011692453677
 30
0.0
 10
6.096096001042918
 20
65.7264347578606
 30
0.0
 10
2.031511274095161
 20
66.46287006839539
 30
0.0
 10
-0.0002508993921051
 20
66.44635627208619
 30
0.0
  0
SPLINE
  5
CF
330
1F
100
AcDbEntity
  8
Default
100
AcDbSpline
210
0.0
220
0.0
230
1.0
 70
     8
 71
     3
 72
    10
 73
     6
 74
     0
 42
0.0000000001
 43
0.0000000001
 40
0.0
 40
0.0
 40
0.0
 40
0.0
 40
1.0
 40
2.0
 40
3.0
 40
3.0
 40
3.0
 40
3.0
 10
-0.0002508993921051
 20
66.44635627208619
 30
0.0
 10
-2.032013072879371
 20
66.46287006839539
 30
0.0
 10
-6.096597799827128
 20
65.7264347578606
 30
0.0
 10
-11.39677244334358
 20
62.51011692453677
 30
0.0
 10
-13.85951352235857
 20
59.16829915492763
 30
0.0
 10
-14.63790465539434
 20
57.28795697057976
 30
0.0
  0
SPLINE
  5
D0
330
1F
100
AcDbEntity
  8
Default
100
AcDbSpline
210
0.0
220
0.0
230
1.0
 70
     8
 71
     3
 72
    10
 73
     6
 74
     0
 42
0.0000000001
 43
0.0000000001
 40
-3.0
 40
-3.0
 40
-3.0
 40
-3.0
 40
-2.0
 40
-1.0
 40
0.0
 40
0.0
 40
0.0
 40
0.0
 10
-14.63790465539434
 20
57.28795697057976
 30
0.0
 10
-14.83177646811145
 20
56.81756087860269
 30
0.0
 10
-15.14760278979437
 20
55.8483628002436
 30
0.0
 10
-15.34910253541567
 20
54.32261345535551
 30
0.0
 10
-15.13678454849778
 20
53.30768952435925
 30
0.0
 10
-14.91167488236386
 20
52.84973438121578
 30
0.0
  0
ARC
  5
D1
330
1F
100
AcDbEntity
  8
Default
100
AcDbCircle
 10
2.690787861162059
 20
60.22685533177244
 30
0.0
 40
17.94432680120315
100
AcDbArc
 50
226.6258777618027
 51
235.4652013669121
  0
SPLINE
  5
D2
330
1F
100
AcDbEntity
  8
Default
100
AcDbSpline
210
0.0
220
0.0
230
1.0
 70
     8
 71
     3
 72
    14
 73
    10
 74
     0
 42
0.0000000001
 43
0.0000000001
 40
0.0000000000000002
 40
0.0000000000000002
 40
0.0000000000000002
 40
0.0000000000000002
 40
1.0
 40
2.0
 40
3.0
 40
4.0
 40
5.0
 40
6.0
 40
7.0
 40
7.0
 40
7.0
 40
7.0
 10
-9.632645123897182
 20
47.18339475525628
 30
0.0
 10
-10.03941716460328
 20
47.5677120884081
 30
0.0
 10
-10.84309647206005
 20
48.34832612070595
 30
0.0
 10
-11.95811540648974
 20
49.60412772509876
 30
0.0
 10
-13.04256717340522
 20
50.88788839911088
 30
0.0
 10
-14.03514697240583
 20
52.24016346740782
 30
0.0
 10
-14.78986962057514
 20
53.77170188236609
 30
0.0
 10
-14.74350639138166
 20
55.49196813670997
 30
0.0
 10
-14.43160811135717
 20
56.56757061257934
 30
0.0
 10
-14.2232684494795
 20
57.08808503394624
 30
0.0
  0
ARC
  5
D3
330
1F
100
AcDbEntity
  8
Default
100
AcDbCircle
 10
-2.691289659946269
 20
60.22685533177244
 30
0.0
 40
17.94432680120315
100
AcDbArc
 50
304.5347986330879
 51
313.3741222381972
  0
SPLINE
  5
D4
330
1F
100
AcDbEntity
  8
Default
100
AcDbSpline
210
0.0
220
0.0
230
1.0
 70
     8
 71
     3
 72
    14
 73
    10
 74
     0
 42
0.0000000001
 43
0.0000000001
 40
0.0000000000000002
 40
0.0000000000000002
 40
0.0000000000000002
 40
0.0000000000000002
 40
1.0
 40
2.0
 40
3.0
 40
4.0
 40
5.0
 40
6.0
 40
7.0
 40
7.0
 40
7.0
 40
7.0
 10
9.632143325112972
 20
47.18339475525628
 30
0.0
 10
10.03891536581907
 20
47.5677120884081
 30
0.0
 10
10.84259467327584
 20
48.34832612070595
 30
0.0
 10
11.95761360770553
 20
49.60412772509876
 30
0.0
 10
13.04206537462101
 20
50.88788839911088
 30
0.0
 10
14.03464517362162
 20
52.24016346740782
 30
0.0
 10
14.78936782179093
 20
53.77170188236609
 30
0.0
 10
14.74300459259745
 20
55.49196813670997
 30
0.0
 10
14.43110631257296
 20
56.56757061257934
 30
0.0
 10
14.22276665069529
 20
57.08808503394624
 30
0.0
  0
SPLINE
  5
D5
330
1F
100
AcDbEntity
  8
Default
100
AcDbSpline
210
0.0
220
0.0
230
1.0
 70
     8
 71
     3
 72
    24
 73
    20
 74
     0
 42
0.0000000001
 43
0.0000000001
 40
0.0
 40
0.0
 40
0.0
 40
0.0
 40
1.0
 40
2.0
 40
3.0
 40
4.0
 40
5.0
 40
6.0
 40
7.0
 40
8.0
 40
9.0
 40
10.0
 40
11.0
 40
12.0
 40
13.0
 40
14.0
 40
15.0
 40
16.0
 40
17.0
 40
17.0
 40
17.0
 40
17.0
 10
-14.91167699269392
 20
52.84973438121578
 30
0.0
 10
-14.74424900877404
 20
52.50234438043667
 30
0.0
 10
-14.35076653871295
 20
51.83838557804356
 30
0.0
 10
-13.69059397755921
 20
50.88838359773111
 30
0.0
 10
-12.96955738582584
 20
49.98416418182239
 30
0.0
 10
-12.24175868728917
 20
49.08581097880423
 30
0.0
 10
-11.50745578907136
 20
48.19257594959943
 30
0.0
 10
-10.7470346733791
 20
47.32137789429872
 30
0.0
 10
-9.95717807043649
 20
46.47667896488447
 30
0.0
 10
-9.14153192747053
 20
45.65723121014383
 30
0.0
 10
-8.335433499465088
 20
44.82772144092905
 30
0.0
 10
-7.465596965869059
 20
44.06431777312605
 30
0.0
 10
-6.534570711079303
 20
43.3770243822042
 30
0.0
 10
-5.546263878791185
 20
42.77455940928148
 30
0.0
 10
-4.506648770504261
 20
42.26560148962697
 30
0.0
 10
-3.421933639290179
 20
41.8608902536034
 30
0.0
 10
-2.301189623751418
 20
41.57042060441117
 30
0.0
 10
-1.156536024391349
 20
41.39671342836693
 30
0.0
 10
-0.3856688859744022
 20
41.35863645545579
 30
0.0
 10
-0.0002519545571342
 20
41.35927805673218
 30
0.0
  0
SPLINE
  5
D6
330
1F
100
AcDbEntity
  8
Default
100
AcDbSpline
210
0.0
220
0.0
230
1.0
 70
     8
 71
     3
 72
    24
 73
    20
 74
     0
 42
0.0000000001
 43
0.0000000001
 40
-17.0
 40
-17.0
 40
-17.0
 40
-17.0
 40
-16.0
 40
-15.0
 40
-14.0
 40
-13.0
 40
-12.0
 40
-11.0
 40
-10.0
 40
-9.0
 40
-8.0
 40
-7.0
 40
-6.0
 40
-5.0
 40
-4.0
 40
-3.0
 40
-2.0
 40
-1.0
 40
0.0
 40
0.0
 40
0.0
 40
0.0
 10
-0.0002519545571342
 20
41.35927805673218
 30
0.0
 10
0.3851649768601337
 20
41.35863645545579
 30
0.0
 10
1.156032115277066
 20
41.39671342836693
 30
0.0
 10
2.300685714637149
 20
41.57042060441117
 30
0.0
 10
3.421429730175911
 20
41.8608902536034
 30
0.0
 10
4.506144861389979
 20
42.26560148962697
 30
0.0
 10
5.545759969676903
 20
42.77455940928148
 30
0.0
 10
6.534066801965034
 20
43.3770243822042
 30
0.0
 10
7.465093056754791
 20
44.06431777312605
 30
0.0
 10
8.33492959035082
 20
44.82772144092905
 30
0.0
 10
9.14102801835626
 20
45.65723121014383
 30
0.0
 10
9.956674161322221
 20
46.47667896488447
 30
0.0
 10
10.74653076426483
 20
47.32137789429872
 30
0.0
 10
11.50695187995709
 20
48.19257594959943
 30
0.0
 10
12.2412547781749
 20
49.08581097880423
 30
0.0
 10
12.96905347671157
 20
49.98416418182239
 30
0.0
 10
13.69009006844494
 20
50.88838359773111
 30
0.0
 10
14.35026262959868
 20
51.83838557804356
 30
0.0
 10
14.74374509965977
 20
52.50234438043667
 30
0.0
 10
14.91117308357965
 20
52.84973438121578
 30
0.0
  0
SPLINE
  5
D7
330
1F
100
AcDbEntity
  8
Default
100
AcDbSpline
210
0.0
220
0.0
230
1.0
 70
     8
 71
     3
 72
    12
 73
     8
 74
     0
 42
0.0000000001
 43
0.0000000001
 40
-15.35241690788854
 40
-15.35241690788854
 40
-15.35241690788854
 40
-15.35241690788854
 40
-11.42846741267097
 40
-7.624448814229928
 40
-3.868777023834104
 40
-1.918304340297428
 40
0.0
 40
0.0
 40
0.0
 40
0.0
 10
9.624735109972542
 20
51.31604448063626
 30
0.0
 10
9.624756203517345
 20
52.62342750468311
 30
0.0
 10
9.15928962134303
 20
55.20523353875127
 30
0.0
 10
7.054809878108026
 20
58.49492865578788
 30
0.0
 10
4.374902048288627
 20
60.30963501735408
 30
0.0
 10
1.928973791716482
 20
61.04371994270107
 30
0.0
 10
0.6391218422857552
 20
61.16853024150551
 30
0.0
 10
-0.0002508993921051
 20
61.16799962061019
 30
0.0
  0
SPLINE
  5
D8
330
1F
100
AcDbEntity
  8
Default
100
AcDbSpline
210
0.0
220
0.0
230
1.0
 70
     8
 71
     3
 72
    12
 73
     8
 74
     0
 42
0.0000000001
 43
0.0000000001
 40
0.0
 40
0.0
 40
0.0
 40
0.0
 40
1.918304340297428
 40
3.868777023834104
 40
7.624448814229928
 40
11.42846741267097
 40
15.35241690788854
 40
15.35241690788854
 40
15.35241690788854
 40
15.35241690788854
 10
-0.0002508993921051
 20
61.16799962061019
 30
0.0
 10
-0.6396236410699654
 20
61.16853024150551
 30
0.0
 10
-1.929475590500692
 20
61.04371994270107
 30
0.0
 10
-4.375403847072837
 20
60.30963501735408
 30
0.0
 10
-7.055311676892236
 20
58.49492865578788
 30
0.0
 10
-9.15979142012724
 20
55.20523353875127
 30
0.0
 10
-9.625258002301555
 20
52.62342750468311
 30
0.0
 10
-9.625236908756753
 20
51.31604448063626
 30
0.0
  0
SPLINE
  5
D9
330
1F
100
AcDbEntity
  8
Default
100
AcDbSpline
210
0.0
220
0.0
230
1.0
 70
     8
 71
     3
 72
    12
 73
     8
 74
     0
 42
0.0000000001
 43
0.0000000001
 40
-14.89017237659325
 40
-14.89017237659325
 40
-14.89017237659325
 40
-14.89017237659325
 40
-11.21816892444778
 40
-7.516681648226319
 40
-3.774518777477097
 40
-1.88935418416962
 40
0.0
 40
0.0
 40
0.0
 40
0.0
 10
-9.625236908756753
 20
51.31604448063626
 30
0.0
 10
-9.625564969748302
 20
50.09187818675704
 30
0.0
 10
-9.118411974624811
 20
47.63468274339606
 30
0.0
 10
-6.966406108490551
 20
44.52786011359264
 30
0.0
 10
-4.303297670992199
 20
42.81098614604565
 30
0.0
 10
-1.88823114400572
 20
42.10328590731546
 30
0.0
 10
-0.6299832876698073
 20
41.98227245105998
 30
0.0
 10
-0.0002508993921051
 20
41.98220461591283
 30
0.0
  0
SPLINE
  5
DA
330
1F
100
AcDbEntity
  8
Default
100
AcDbSpline
210
0.0
220
0.0
230
1.0
 70
     8
 71
     3
 72
    12
 73
     8
 74
     0
 42
0.0000000001
 43
0.0000000001
 40
0.0
 40
0.0
 40
0.0
 40
0.0
 40
1.88935418416962
 40
3.774518777477097
 40
7.516681648226319
 40
11.21816892444778
 40
14.89017237659325
 40
14.89017237659325
 40
14.89017237659325
 40
14.89017237659325
 10
-0.0002508993921051
 20
41.98220461591283
 30
0.0
 10
0.6294814888855971
 20
41.98227245105998
 30
0.0
 10
1.88772934522151
 20
42.10328590731546
 30
0.0
 10
4.302795872207989
 20
42.81098614604565
 30
0.0
 10
6.965904309706341
 20
44.52786011359264
 30
0.0
 10
9.117910175840601
 20
47.63468274339606
 30
0.0
 10
9.625063170964092
 20
50.09187818675704
 30
0.0
 10
9.624735109972542
 20
51.31604448063626
 30
0.0
  0
SPLINE
  5
DB
330
1F
100
AcDbEntity
  8
Default
100
AcDbSpline
210
0.0
220
0.0
230
1.0
 70
     8
 71
     3
 72
    19
 73
    15
 74
     0
 42
0.0000000001
 43
0.0000000001
 40
-12.0
 40
-12.0
 40
-12.0
 40
-12.0
 40
-11.0
 40
-10.0
 40
-9.0
 40
-8.0
 40
-7.0
 40
-6.0
 40
-5.0
 40
-4.0
 40
-3.0
 40
-2.0
 40
-1.0
 40
0.0
 40
0.0
 40
0.0
 40
0.0
 10
8.263396102696072
 20
44.77071265924144
 30
0.0
 10
8.948427904253629
 20
45.43044361257272
 30
0.0
 10
10.30686431557447
 20
46.75457088839586
 30
0.0
 10
12.35007945172021
 20
48.76339644539675
 30
0.0
 10
14.0538364409527
 20
51.01605963038254
 30
0.0
 10
15.77864285671959
 20
53.4239972894139
 30
0.0
 10
15.5660064486647
 20
56.38988532703073
 30
0.0
 10
14.37161324494149
 20
58.99448206694164
 30
0.0
 10
12.70481101468068
 20
61.3234533052727
 30
0.0
 10
10.62211338629381
 20
63.28924528763059
 30
0.0
 10
8.235173606276172
 20
64.86701389024455
 30
0.0
 10
5.619598621717182
 20
66.02668372565388
 30
0.0
 10
2.850732887676495
 20
66.74676896768017
 30
0.0
 10
0.9503608821268532
 20
66.9145579566802
 30
0.0
 10
-0.0002508993921051
 20
66.91500453328256
 30
0.0
  0
SPLINE
  5
DC
330
1F
100
AcDbEntity
  8
Default
100
AcDbSpline
210
0.0
220
0.0
230
1.0
 70
     8
 71
     3
 72
    19
 73
    15
 74
     0
 42
0.0000000001
 43
0.0000000001
 40
0.0
 40
0.0
 40
0.0
 40
0.0
 40
1.0
 40
2.0
 40
3.0
 40
4.0
 40
5.0
 40
6.0
 40
7.0
 40
8.0
 40
9.0
 40
10.0
 40
11.0
 40
12.0
 40
12.0
 40
12.0
 40
12.0
 10
-0.0002508993921051
 20
66.91500453328256
 30
0.0
 10
-0.9508626809110634
 20
66.9145579566802
 30
0.0
 10
-2.851234686460705
 20
66.74676896768017
 30
0.0
 10
-5.620100420501393
 20
66.02668372565388
 30
0.0
 10
-8.235675405060382
 20
64.86701389024455
 30
0.0
 10
-10.62261518507802
 20
63.28924528763059
 30
0.0
 10
-12.70531281346489
 20
61.3234533052727
 30
0.0
 10
-14.3721150437257
 20
58.99448206694164
 30
0.0
 10
-15.56650824744891
 20
56.38988532703073
 30
0.0
 10
-15.7791446555038
 20
53.4239972894139
 30
0.0
 10
-14.05433823973691
 20
51.01605963038254
 30
0.0
 10
-12.35058125050442
 20
48.76339644539675
 30
0.0
 10
-10.30736611435868
 20
46.75457088839586
 30
0.0
 10
-8.94892970303784
 20
45.43044361257272
 30
0.0
 10
-8.263897901480282
 20
44.77071265924144
 30
0.0
  0
SPLINE
  5
DD
330
1F
100
AcDbEntity
  8
Make2D visible lines
100
AcDbSpline
210
0.0
220
0.0
230
1.0
 70
    24
 71
     2
 72
     6
 73
     3
 74
     0
 42
0.0000000001
 43
0.0000000001
 40
0.7118360981698707
 40
0.7118360981698707
 40
0.7118360981698707
 40
5.280000000000005
 40
5.280000000000005
 40
5.280000000000005
 10
1.289999999999999
 20
11.07116390183015
 30
0.0
 10
1.289999999999999
 20
8.787081950915084
 30
0.0
 10
1.289999999999999
 20
6.503000000000018
 30
0.0
  0
SPLINE
  5
DE
330
1F
100
AcDbEntity
  8
Make2D visible lines
100
AcDbSpline
210
0.0
220
0.0
230
1.0
 70
    24
 71
     2
 72
     6
 73
     3
 74
     0
 42
0.0000000001
 43
0.0000000001
 40
0.0
 40
0.0
 40
0.0
 40
4.568163902390249
 40
4.568163902390249
 40
4.568163902390249
 10
-1.289999999999999
 20
6.503000000000018
 30
0.0
 10
-1.289999999999999
 20
8.787081951195143
 30
0.0
 10
-1.289999999999999
 20
11.07116390239027
 30
0.0
  0
SPLINE
  5
DF
330
1F
100
AcDbEntity
  8
Make2D visible lines
100
AcDbSpline
210
0.0
220
0.0
230
1.0
 70
    24
 71
     2
 72
     6
 73
     3
 74
     0
 42
0.0000000001
 43
0.0000000001
 40
0.5547497354924024
 40
0.5547497354924024
 40
0.5547497354924024
 40
5.280000000000005
 40
5.280000000000005
 40
5.280000000000005
 10
43.90501644368701
 20
11.22825026450762
 30
0.0
 10
43.90501644368701
 20
8.865625132253818
 30
0.0
 10
43.90501644368701
 20
6.503000000000018
 30
0.0
  0
SPLINE
  5
E0
330
1F
100
AcDbEntity
  8
Make2D visible lines
100
AcDbSpline
210
0.0
220
0.0
230
1.0
 70
    24
 71
     2
 72
     6
 73
     3
 74
     0
 42
0.0000000001
 43
0.0000000001
 40
0.0
 40
0.0
 40
0.0
 40
4.581413530725247
 40
4.581413530725247
 40
4.581413530725247
 10
41.32501644368701
 20
6.503000000000018
 30
0.0
 10
41.32501644368701
 20
8.793706765362641
 30
0.0
 10
41.32501644368701
 20
11.08441353072526
 30
0.0
  0
SPLINE
  5
E1
330
1F
100
AcDbEntity
  8
Make2D visible lines - Tangent
100
AcDbSpline
210
0.0
220
0.0
230
1.0
 70
    12
 71
     2
 72
     6
 73
     3
 74
     0
 42
0.0000000001
 43
0.0000000001
 40
-1.290200918579373
 40
-1.290200918579373
 40
-1.290200918579373
 40
0.0
 40
0.0
 40
0.0
 10
0.3832771739880346
 20
41.36512858700121
 30
0.0
 41
0.9999999993028318
 10
0.3761233646161597
 20
40.71965877624924
 30
0.0
 41
0.9999999996040198
 10
0.368978209363922
 20
40.07413325678999
 30
0.0
 41
1.0
  0
SPLINE
  5
E2
330
1F
100
AcDbEntity
  8
Make2D visible lines - Tangent
100
AcDbSpline
210
0.0
220
0.0
230
1.0
 70
     8
 71
     3
 72
    14
 73
    10
 74
     0
 42
0.0000000001
 43
0.0000000001
 40
0.0
 40
0.0
 40
0.0
 40
0.0
 40
1.0
 40
2.0
 40
3.0
 40
4.0
 40
5.0
 40
6.0
 40
7.0
 40
7.0
 40
7.0
 40
7.0
 10
0.368978209363922
 20
40.07413325678999
 30
0.0
 10
0.3679283206412023
 20
40.00382764374495
 30
0.0
 10
0.3476312540660575
 20
39.87119170133975
 30
0.0
 10
0.2618463973939553
 20
39.68881452954935
 30
0.0
 10
0.1024514305723055
 20
39.55400348678361
 30
0.0
 10
-0.1107360343711191
 20
39.55738080107379
 30
0.0
 10
-0.266892404210345
 20
39.69535211447176
 30
0.0
 10
-0.3503130387533445
 20
39.87874138992334
 30
0.0
 10
-0.3692210562649737
 20
40.01157869195713
 30
0.0
 10
-0.3692508993932266
 20
40.07801210031588
 30
0.0
  0
SPLINE
  5
E3
330
1F
100
AcDbEntity
  8
Make2D visible lines - Tangent
100
AcDbSpline
210
0.0
220
0.0
230
1.0
 70
    12
 71
     2
 72
     6
 73
     3
 74
     0
 42
0.0000000001
 43
0.0000000001
 40
0.0
 40
0.0
 40
0.0
 40
1.287184386108664
 40
1.287184386108664
 40
1.287184386108664
 10
-0.3692508993932266
 20
40.07801210031588
 30
0.0
 41
1.0
 10
-0.3763467862098636
 20
40.72156517409031
 30
0.0
 41
0.9999999996049456
 10
-0.3834551751618655
 20
41.36511810989337
 30
0.0
 41
0.9999999993042407
  0
SPLINE
  5
E4
330
1F
100
AcDbEntity
  8
Make2D visible lines - Tangent
100
AcDbSpline
210
0.0
220
0.0
230
1.0
 70
     8
 71
     3
 72
    14
 73
    10
 74
     0
 42
0.0000000001
 43
0.0000000001
 40
0.4515573393836121
 40
0.4515573393836121
 40
0.4515573393836121
 40
0.4515573393836121
 40
1.0
 40
2.0
 40
3.0
 40
4.0
 40
5.0
 40
6.0
 40
6.512759776800351
 40
6.512759776800351
 40
6.512759776800351
 40
6.512759776800351
 10
-0.3624805331359046
 20
66.91080547924179
 30
0.0
 10
-0.3573841804584224
 20
66.94752594606703
 30
0.0
 10
-0.3352207923041906
 20
67.04828374944465
 30
0.0
 10
-0.2623481961781747
 20
67.20320967108239
 30
0.0
 10
-0.102953229356525
 20
67.33802071384812
 30
0.0
 10
0.1102342355868997
 20
67.33464339955795
 30
0.0
 10
0.2663906054261256
 20
67.19667208615998
 30
0.0
 10
0.3362626104377293
 20
67.04306768787622
 30
0.0
 10
0.3573279973559253
 20
66.94454138579694
 30
0.0
 10
0.3620221573283376
 20
66.91080449396576
 30
0.0
  0
SPLINE
  5
E5
330
1F
100
AcDbEntity
  8
Make2D visible lines - Tangent
100
AcDbSpline
210
0.0
220
0.0
230
1.0
 70
    12
 71
     2
 72
     6
 73
     3
 74
     0
 42
0.0000000001
 43
0.0000000001
 40
0.0250459851910298
 40
0.0250459851910298
 40
0.0250459851910298
 40
0.1369528492222414
 40
0.1369528492222414
 40
0.1369528492222414
 10
0.3669099620553551
 20
66.91069285195782
 30
0.0
 41
0.9999988755525053
 10
0.3660678076111177
 20
66.9666389939055
 30
0.0
 41
0.9999965550424579
 10
0.3666820095021608
 20
67.02261107267978
 30
0.0
 41
0.9999959461296658
  0
ARC
  5
E6
330
1F
100
AcDbEntity
  8
Make2D visible lines - Tangent
100
AcDbCircle
 10
0.8666143977696382
 20
67.03083343007751
 30
0.0
 40
0.5
100
AcDbArc
 50
168.4871521735349
 51
180.9422552251326
  0
SPLINE
  5
E7
330
1F
100
AcDbEntity
  8
Make2D visible lines - Tangent
100
AcDbSpline
210
0.0
220
0.0
230
1.0
 70
     8
 71
     3
 72
    14
 73
    10
 74
     0
 42
0.0000000001
 43
0.0000000001
 40
0.2772630823298201
 40
0.2772630823298201
 40
0.2772630823298201
 40
0.2772630823298201
 40
1.0
 40
2.0
 40
3.0
 40
4.0
 40
5.0
 40
6.0
 40
7.0
 40
7.0
 40
7.0
 40
7.0
 10
0.3766744105983714
 20
67.13062726240506
 30
0.0
 10
0.3847716729357244
 20
67.1703809477097
 30
0.0
 10
0.3998379117938814
 20
67.26600672571863
 30
0.0
 10
0.4045792809191435
 20
67.41916128246217
 30
0.0
 10
0.3865648872611542
 20
67.58693759615281
 30
0.0
 10
0.3450355232251053
 20
67.75068339153823
 30
0.0
 10
0.2745471490480251
 20
67.90455092646474
 30
0.0
 10
0.1644420411868689
 20
68.03551041553052
 30
0.0
 10
0.0564325959384377
 20
68.08073061902533
 30
0.0
 10
-0.0002514016956962
 20
68.0802231133184
 30
0.0
  0
SPLINE
  5
E8
330
1F
100
AcDbEntity
  8
Make2D visible lines - Tangent
100
AcDbSpline
210
0.0
220
0.0
230
1.0
 70
     8
 71
     3
 72
    14
 73
    10
 74
     0
 42
0.0000000001
 43
0.0000000001
 40
-7.0
 40
-7.0
 40
-7.0
 40
-7.0
 40
-6.0
 40
-5.0
 40
-4.0
 40
-3.0
 40
-2.0
 40
-1.0
 40
-0.2482205602640466
 40
-0.2482205602640466
 40
-0.2482205602640466
 40
-0.2482205602640466
 10
-0.0002514016956962
 20
68.0802231133184
 30
0.0
 10
-0.05693539932983
 20
68.08073061902533
 30
0.0
 10
-0.1649448445782612
 20
68.03551041553052
 30
0.0
 10
-0.2750499524394174
 20
67.90455092646474
 30
0.0
 10
-0.3455383266164976
 20
67.75068339153823
 30
0.0
 10
-0.3870676906525465
 20
67.58693759615281
 30
0.0
 10
-0.4050820843105358
 20
67.41916128246217
 30
0.0
 10
-0.4002901405900755
 20
67.26437307739778
 30
0.0
 10
-0.3847630628330272
 20
67.16715712317469
 30
0.0
 10
-0.3761924871686313
 20
67.12583663845584
 30
0.0
  0
ARC
  5
E9
330
1F
100
AcDbEntity
  8
Make2D visible lines - Tangent
100
AcDbCircle
 10
-0.8657720714954701
 20
67.02428945429813
 30
0.0
 40
0.5
100
AcDbArc
 50
358.9775798079559
 51
11.71796787816672
  0
SPLINE
  5
EA
330
1F
100
AcDbEntity
  8
Make2D visible lines - Tangent
100
AcDbSpline
210
0.0
220
0.0
230
1.0
 70
    12
 71
     2
 72
     6
 73
     3
 74
     0
 42
0.0000000001
 43
0.0000000001
 40
-0.1297405451143296
 40
-0.1297405451143296
 40
-0.1297405451143296
 40
-0.025036663849024
 40
-0.025036663849024
 40
-0.025036663849024
 10
-0.3658516768086472
 20
67.01536762846641
 30
0.0
 41
0.9999960316975589
 10
-0.366785827020072
 20
66.96302399934837
 30
0.0
 41
0.9999967046070289
 10
-0.3678481213548828
 20
66.91068281406743
 30
0.0
 41
0.9999988759207846
  0
ENDSEC
  0
SECTION
  2
OBJECTS
  0
DICTIONARY
  5
C
330
0
100
AcDbDictionary
281
     1
  3
ACAD_GROUP
350
D
  3
ACAD_LAYOUT
350
1A
  3
ACAD_MLEADERSTYLE
350
EC
  3
ACAD_MLINESTYLE
350
17
  3
ACAD_PLOTSETTINGS
350
19
  3
ACAD_PLOTSTYLENAME
350
E
  3
ACAD_TABLESTYLE
350
EB
  3
ACAD_VISUALSTYLE
350
2A
  0
DICTIONARY
  5
D
102
{ACAD_REACTORS
330
C
102
}
330
C
100
AcDbDictionary
281
     1
  0
DICTIONARY
  5
1A
102
{ACAD_REACTORS
330
C
102
}
330
C
100
AcDbDictionary
281
     1
  3
Layout1
350
1E
  3
Layout2
350
26
  3
Model
350
22
  0
DICTIONARY
  5
EC
102
{ACAD_REACTORS
330
C
102
}
330
C
100
AcDbDictionary
281
     1
  0
DICTIONARY
  5
17
102
{ACAD_REACTORS
330
C
102
}
330
C
100
AcDbDictionary
281
     1
  3
Standard
350
18
  0
DICTIONARY
  5
19
102
{ACAD_REACTORS
330
C
102
}
330
C
100
AcDbDictionary
281
     1
  0
ACDBDICTIONARYWDFLT
  5
E
102
{ACAD_REACTORS
330
C
102
}
330
C
100
AcDbDictionary
281
     1
  3
Normal
350
F
100
AcDbDictionaryWithDefault
340
F
  0
DICTIONARY
  5
EB
102
{ACAD_REACTORS
330
C
102
}
330
C
100
AcDbDictionary
281
     1
  0
DICTIONARY
  5
2A
102
{ACAD_REACTORS
330
C
102
}
330
C
100
AcDbDictionary
281
     1
  3
2dWireframe
350
2F
  3
3D Hidden
350
31
  3
3dWireframe
350
30
  3
Basic
350
32
  3
Brighten
350
36
  3
ColorChange
350
3A
  3
Conceptual
350
34
  3
Dim
350
35
  3
Facepattern
350
39
  3
Flat
350
2B
  3
FlatWithEdges
350
2C
  3
Gouraud
350
2D
  3
GouraudWithEdges
350
2E
  3
Linepattern
350
38
  3
Realistic
350
33
  3
Thicken
350
37
  0
LAYOUT
  5
1E
102
{ACAD_REACTORS
330
1A
102
}
330
1A
100
AcDbPlotSettings
  1

  2
none_device
  4

  6

 40
0.0
 41
0.0
 42
0.0
 43
0.0
 44
0.0
 45
0.0
 46
0.0
 47
0.0
 48
0.0
 49
0.0
140
0.0
141
0.0
142
1.0
143
1.0
 70
   688
 72
     0
 73
     0
 74
     5
  7

 75
    16
 76
     0
 77
     2
 78
   300
147
1.0
148
0.0
149
0.0
100
AcDbLayout
  1
Layout1
 70
     1
 71
     1
 10
0.0
 20
0.0
 11
12.0
 21
9.0
 12
0.0
 22
0.0
 32
0.0
 14
1.000000000000000E+20
 24
1.000000000000000E+20
 34
1.000000000000000E+20
 15
-1.000000000000000E+20
 25
-1.000000000000000E+20
 35
-1.000000000000000E+20
146
0.0
 13
0.0
 23
0.0
 33
0.0
 16
1.0
 26
0.0
 36
0.0
 17
0.0
 27
1.0
 37
0.0
 76
     0
330
1B
  0
LAYOUT
  5
26
102
{ACAD_REACTORS
330
1A
102
}
330
1A
100
AcDbPlotSettings
  1

  2
none_device
  4

  6

 40
0.0
 41
0.0
 42
0.0
 43
0.0
 44
0.0
 45
0.0
 46
0.0
 47
0.0
 48
0.0
 49
0.0
140
0.0
141
0.0
142
1.0
143
1.0
 70
   688
 72
     0
 73
     0
 74
     5
  7

 75
    16
 76
     0
 77
     2
 78
   300
147
1.0
148
0.0
149
0.0
100
AcDbLayout
  1
Layout2
 70
     1
 71
     2
 10
0.0
 20
0.0
 11
0.0
 21
0.0
 12
0.0
 22
0.0
 32
0.0
 14
0.0
 24
0.0
 34
0.0
 15
0.0
 25
0.0
 35
0.0
146
0.0
 13
0.0
 23
0.0
 33
0.0
 16
1.0
 26
0.0
 36
0.0
 17
0.0
 27
1.0
 37
0.0
 76
     0
330
23
  0
LAYOUT
  5
22
102
{ACAD_REACTORS
330
1A
102
}
330
1A
100
AcDbPlotSettings
  1

  2
none_device
  4

  6

 40
0.0
 41
0.0
 42
0.0
 43
0.0
 44
0.0
 45
0.0
 46
0.0
 47
0.0
 48
0.0
 49
0.0
140
0.0
141
0.0
142
1.0
143
1.0
 70
  1712
 72
     0
 73
     0
 74
     0
  7

 75
     0
 76
     0
 77
     2
 78
   300
147
1.0
148
0.0
149
0.0
100
AcDbLayout
  1
Model
 70
     1
 71
     0
 10
0.0
 20
0.0
 11
12.0
 21
9.0
 12
0.0
 22
0.0
 32
0.0
 14
-15.63220927787822
 24
0.0000000000000034
 34
0.0
 15
57.26436956481862
 25
68.09536522144397
 35
0.0
146
0.0
 13
0.0
 23
0.0
 33
0.0
 16
1.0
 26
0.0
 36
0.0
 17
0.0
 27
1.0
 37
0.0
 76
     0
330
1F
331
29
  0
MLINESTYLE
  5
18
102
{ACAD_REACTORS
330
17
102
}
330
17
100
AcDbMlineStyle
  2
Standard
 70
     0
  3

 62
   256
 51
90.0
 52
90.0
 71
     2
 49
0.5
 62
   256
  6
BYLAYER
 49
-0.5
 62
   256
  6
BYLAYER
  0
ACDBPLACEHOLDER
  5
F
102
{ACAD_REACTORS
330
E
102
}
330
E
  0
VISUALSTYLE
  5
2F
102
{ACAD_REACTORS
330
2A
102
}
330
2A
100
AcDbVisualStyle
  2
2dWireframe
 70
     4
 71
     0
 72
     2
 73
     0
 90
        0
 40
-0.6
 41
-30.0
 62
     5
 63
     7
421
 16777215
 74
     1
 91
        4
 64
     7
 65
   257
 75
     1
175
     1
 42
1.0
 92
        0
 66
   257
 43
1.0
 76
     1
 77
     6
 78
     2
 67
     7
 79
     5
170
     0
171
     0
290
     0
174
     0
 93
        1
 44
0.0
173
     0
291
     0
 45
0.0
1001
ACAD
1000
AcDbSavedByObjectVersion
1070
     0
  0
VISUALSTYLE
  5
31
102
{ACAD_REACTORS
330
2A
102
}
330
2A
100
AcDbVisualStyle
  2
3D Hidden
 70
     6
 71
     1
 72
     2
 73
     2
 90
        0
 40
-0.6
 41
-30.0
 62
     5
 63
     7
421
 16777215
 74
     2
 91
        2
 64
     7
 65
   257
 75
     2
175
     1
 42
40.0
 92
        0
 66
   257
 43
1.0
 76
     1
 77
     6
 78
     2
 67
     7
 79
     3
170
     0
171
     0
290
     0
174
     0
 93
        1
 44
0.0
173
     0
291
     0
 45
0.0
1001
ACAD
1000
AcDbSavedByObjectVersion
1070
     0
  0
VISUALSTYLE
  5
30
102
{ACAD_REACTORS
330
2A
102
}
330
2A
100
AcDbVisualStyle
  2
3dWireframe
 70
     5
 71
     0
 72
     2
 73
     0
 90
        0
 40
-0.6
 41
-30.0
 62
     5
 63
     7
421
 16777215
 74
     1
 91
        4
 64
     7
 65
   257
 75
     1
175
     1
 42
1.0
 92
        0
 66
   257
 43
1.0
 76
     1
 77
     6
 78
     2
 67
     7
 79
     5
170
     0
171
     0
290
     0
174
     0
 93
        1
 44
0.0
173
     0
291
     0
 45
0.0
1001
ACAD
1000
AcDbSavedByObjectVersion
1070
     0
  0
VISUALSTYLE
  5
32
102
{ACAD_REACTORS
330
2A
102
}
330
2A
100
AcDbVisualStyle
  2
Basic
 70
     7
 71
     1
 72
     0
 73
     1
 90
        0
 40
-0.6
 41
-30.0
 62
     5
 63
     7
421
 16777215
 74
     0
 91
        4
 64
     7
 65
   257
 75
     1
175
     1
 42
1.0
 92
        8
 66
     7
 43
1.0
 76
     1
 77
     6
 78
     2
 67
     7
 79
     5
170
     0
171
     0
290
     0
174
     0
 93
        1
 44
0.0
173
     0
291
     1
 45
0.0
1001
ACAD
1000
AcDbSavedByObjectVersion
1070
     0
  0
VISUALSTYLE
  5
36
102
{ACAD_REACTORS
330
2A
102
}
330
2A
100
AcDbVisualStyle
  2
Brighten
 70
    12
 71
     2
 72
     2
 73
     0
 90
        0
 40
-0.6
 41
-30.0
 62
     5
 63
     7
421
 16777215
 74
     1
 91
        4
 64
     7
 65
   257
 75
     1
175
     1
 42
1.0
 92
        8
 66
     7
 43
1.0
 76
     1
 77
     6
 78
     2
 67
     7
 79
     5
170
     0
171
     0
290
     0
174
     0
 93
        1
 44
50.0
173
     0
291
     1
 45
0.0
1001
ACAD
1000
AcDbSavedByObjectVersion
1070
     0
  0
VISUALSTYLE
  5
3A
102
{ACAD_REACTORS
330
2A
102
}
330
2A
100
AcDbVisualStyle
  2
ColorChange
 70
    16
 71
     2
 72
     2
 73
     3
 90
        0
 40
-0.6
 41
-30.0
 62
     5
 63
     8
421
  8421504
 74
     1
 91
        4
 64
     7
 65
   257
 75
     1
175
     1
 42
1.0
 92
        8
 66
     8
424
  8421504
 43
1.0
 76
     1
 77
     6
 78
     2
 67
     7
 79
     5
170
     0
171
     0
290
     0
174
     0
 93
        1
 44
0.0
173
     0
291
     1
 45
0.0
1001
ACAD
1000
AcDbSavedByObjectVersion
1070
     0
  0
VISUALSTYLE
  5
34
102
{ACAD_REACTORS
330
2A
102
}
330
2A
100
AcDbVisualStyle
  2
Conceptual
 70
     9
 71
     3
 72
     2
 73
     0
 90
        0
 40
-0.6
 41
-30.0
 62
     5
 63
     7
421
 16777215
 74
     2
 91
        2
 64
     7
 65
   257
 75
     1
175
     1
 42
40.0
 92
        8
 66
     7
 43
1.0
 76
     1
 77
     6
 78
     2
 67
     7
 79
     3
170
     0
171
     0
290
     0
174
     0
 93
        1
 44
0.0
173
     0
291
     0
 45
0.0
1001
ACAD
1000
AcDbSavedByObjectVersion
1070
     0
  0
VISUALSTYLE
  5
35
102
{ACAD_REACTORS
330
2A
102
}
330
2A
100
AcDbVisualStyle
  2
Dim
 70
    11
 71
     2
 72
     2
 73
     0
 90
        0
 40
-0.6
 41
-30.0
 62
     5
 63
     7
421
 16777215
 74
     1
 91
        4
 64
     7
 65
   257
 75
     1
175
     1
 42
1.0
 92
        8
 66
     7
 43
1.0
 76
     1
 77
     6
 78
     2
 67
     7
 79
     5
170
     0
171
     0
290
     0
174
     0
 93
        1
 44
-50.0
173
     0
291
     1
 45
0.0
1001
ACAD
1000
AcDbSavedByObjectVersion
1070
     0
  0
VISUALSTYLE
  5
39
102
{ACAD_REACTORS
330
2A
102
}
330
2A
100
AcDbVisualStyle
  2
Facepattern
 70
    15
 71
     2
 72
     2
 73
     0
 90
        0
 40
-0.6
 41
-30.0
 62
     5
 63
     7
421
 16777215
 74
     1
 91
        4
 64
     7
 65
   257
 75
     1
175
     1
 42
1.0
 92
        8
 66
     7
 43
1.0
 76
     1
 77
     6
 78
     2
 67
     7
 79
     5
170
     0
171
     0
290
     0
174
     0
 93
        1
 44
0.0
173
     0
291
     1
 45
0.0
1001
ACAD
1000
AcDbSavedByObjectVersion
1070
     0
  0
VISUALSTYLE
  5
2B
102
{ACAD_REACTORS
330
2A
102
}
330
2A
100
AcDbVisualStyle
  2
Flat
 70
     0
 71
     2
 72
     1
 73
     1
 90
        2
 40
-0.6
 41
30.0
 62
     5
 63
     7
421
 16777215
 74
     0
 91
        4
 64
     7
 65
   257
 75
     1
175
     1
 42
1.0
 92
        8
 66
     7
 43
1.0
 76
     1
 77
     6
 78
     2
 67
     7
 79
     5
170
     0
171
     0
290
     0
174
     0
 93
       13
 44
0.0
173
     0
291
     1
 45
0.0
1001
ACAD
1000
AcDbSavedByObjectVersion
1070
     0
  0
VISUALSTYLE
  5
2C
102
{ACAD_REACTORS
330
2A
102
}
330
2A
100
AcDbVisualStyle
  2
FlatWithEdges
 70
     1
 71
     2
 72
     1
 73
     1
 90
        2
 40
-0.6
 41
30.0
 62
     5
 63
     7
421
 16777215
 74
     1
 91
        4
 64
     7
 65
   257
 75
     1
175
     1
 42
1.0
 92
        0
 66
   257
 43
1.0
 76
     1
 77
     6
 78
     2
 67
     7
 79
     5
170
     0
171
     0
290
     0
174
     0
 93
       13
 44
0.0
173
     0
291
     1
 45
0.0
1001
ACAD
1000
AcDbSavedByObjectVersion
1070
     0
  0
VISUALSTYLE
  5
2D
102
{ACAD_REACTORS
330
2A
102
}
330
2A
100
AcDbVisualStyle
  2
Gouraud
 70
     2
 71
     2
 72
     2
 73
     1
 90
        2
 40
-0.6
 41
30.0
 62
     5
 63
     7
421
 16777215
 74
     0
 91
        4
 64
     7
 65
   257
 75
     1
175
     1
 42
1.0
 92
        0
 66
     7
 43
1.0
 76
     1
 77
     6
 78
     2
 67
     7
 79
     5
170
     0
171
     0
290
     0
174
     0
 93
       13
 44
0.0
173
     0
291
     1
 45
0.0
1001
ACAD
1000
AcDbSavedByObjectVersion
1070
     0
  0
VISUALSTYLE
  5
2E
102
{ACAD_REACTORS
330
2A
102
}
330
2A
100
AcDbVisualStyle
  2
GouraudWithEdges
 70
     3
 71
     2
 72
     2
 73
     1
 90
        2
 40
-0.6
 41
30.0
 62
     5
 63
     7
421
 16777215
 74
     1
 91
        4
 64
     7
 65
   257
 75
     1
175
     1
 42
1.0
 92
        0
 66
   257
 43
1.0
 76
     1
 77
     6
 78
     2
 67
     7
 79
     5
170
     0
171
     0
290
     0
174
     0
 93
       13
 44
0.0
173
     0
291
     1
 45
0.0
1001
ACAD
1000
AcDbSavedByObjectVersion
1070
     0
  0
VISUALSTYLE
  5
38
102
{ACAD_REACTORS
330
2A
102
}
330
2A
100
AcDbVisualStyle
  2
Linepattern
 70
    14
 71
     2
 72
     2
 73
     0
 90
        0
 40
-0.6
 41
-30.0
 62
     5
 63
     7
421
 16777215
 74
     1
 91
        4
 64
     7
 65
   257
 75
     7
175
     7
 42
1.0
 92
        8
 66
     7
 43
1.0
 76
     1
 77
     6
 78
     2
 67
     7
 79
     5
170
     0
171
     0
290
     0
174
     0
 93
        1
 44
0.0
173
     0
291
     1
 45
0.0
1001
ACAD
1000
AcDbSavedByObjectVersion
1070
     0
  0
VISUALSTYLE
  5
33
102
{ACAD_REACTORS
330
2A
102
}
330
2A
100
AcDbVisualStyle
  2
Realistic
 70
     8
 71
     2
 72
     2
 73
     0
 90
        0
 40
-0.6
 41
-30.0
 62
     5
 63
     7
421
 16777215
 74
     1
 91
        0
 64
     7
 65
   257
 75
     1
175
     1
 42
1.0
 92
        8
 66
     8
424
  7895160
 43
1.0
 76
     1
 77
     6
 78
     2
 67
     7
 79
     5
170
     0
171
     0
290
     0
174
     0
 93
       13
 44
0.0
173
     0
291
     0
 45
0.0
1001
ACAD
1000
AcDbSavedByObjectVersion
1070
     0
  0
VISUALSTYLE
  5
37
102
{ACAD_REACTORS
330
2A
102
}
330
2A
100
AcDbVisualStyle
  2
Thicken
 70
    13
 71
     2
 72
     2
 73
     0
 90
        0
 40
-0.6
 41
-30.0
 62
     5
 63
     7
421
 16777215
 74
     1
 91
        4
 64
     7
 65
   257
 75
     1
175
     1
 42
1.0
 92
       12
 66
     7
 43
1.0
 76
     1
 77
     6
 78
     2
 67
     7
 79
     5
170
     0
171
     0
290
     0
174
     0
 93
        1
 44
0.0
173
     0
291
     1
 45
0.0
1001
ACAD
1000
AcDbSavedByObjectVersion
1070
     0
  0
ENDSEC
  0
EOF
