  0
SECTION
  2
HEADER
  9
$ACADVER
  1
AC1018
  9
$ACADMAINTVER
 70
     0
  9
$DWGCODEPAGE
  3
ANSI_1252
  9
$INSBASE
 10
0.0
 20
0.0
 30
0.0
  9
$EXTMIN
 10
-21.94529949049637
 20
0.0000000000000034
 30
0.0
  9
$EXTMAX
 10
61.58874290579941
 20
71.456204210915
 30
0.0
  9
$LIMMIN
 10
0.0
 20
0.0
  9
$LIMMAX
 10
12.0
 20
9.0
  9
$ORTHOMODE
 70
     0
  9
$REGENMODE
 70
     1
  9
$FILLMODE
 70
     1
  9
$QTEXTMODE
 70
     0
  9
$MIRRTEXT
 70
     1
  9
$LTSCALE
 40
0.0393700787401575
  9
$ATTMODE
 70
     1
  9
$TEXTSIZE
 40
0.2
  9
$TRACEWID
 40
0.05
  9
$TEXTSTYLE
  7
Standard
  9
$CLAYER
  8
Default
  9
$CELTYPE
  6
ByLayer
  9
$CECOLOR
 62
   256
  9
$CELTSCALE
 40
1.0
  9
$DISPSILH
 70
     0
  9
$DIMSCALE
 40
1.0
  9
$DIMASZ
 40
0.18
  9
$DIMEXO
 40
0.0625
  9
$DIMDLI
 40
0.38
  9
$DIMRND
 40
0.0
  9
$DIMDLE
 40
0.0
  9
$DIMEXE
 40
0.18
  9
$DIMTP
 40
0.0
  9
$DIMTM
 40
0.0
  9
$DIMTXT
 40
0.18
  9
$DIMCEN
 40
0.09
  9
$DIMTSZ
 40
0.0
  9
$DIMTOL
 70
     0
  9
$DIMLIM
 70
     0
  9
$DIMTIH
 70
     1
  9
$DIMTOH
 70
     1
  9
$DIMSE1
 70
     0
  9
$DIMSE2
 70
     0
  9
$DIMTAD
 70
     0
  9
$DIMZIN
 70
     0
  9
$DIMBLK
  1

  9
$DIMASO
 70
     1
  9
$DIMSHO
 70
     1
  9
$DIMPOST
  1

  9
$DIMAPOST
  1

  9
$DIMALT
 70
     0
  9
$DIMALTD
 70
     2
  9
$DIMALTF
 40
25.4
  9
$DIMLFAC
 40
1.0
  9
$DIMTOFL
 70
     0
  9
$DIMTVP
 40
0.0
  9
$DIMTIX
 70
     0
  9
$DIMSOXD
 70
     0
  9
$DIMSAH
 70
     0
  9
$DIMBLK1
  1

  9
$DIMBLK2
  1

  9
$DIMSTYLE
  2
Standard
  9
$DIMCLRD
 70
     0
  9
$DIMCLRE
 70
     0
  9
$DIMCLRT
 70
     0
  9
$DIMTFAC
 40
1.0
  9
$DIMGAP
 40
0.09
  9
$DIMJUST
 70
     0
  9
$DIMSD1
 70
     0
  9
$DIMSD2
 70
     0
  9
$DIMTOLJ
 70
     1
  9
$DIMTZIN
 70
     0
  9
$DIMALTZ
 70
     0
  9
$DIMALTTZ
 70
     0
  9
$DIMUPT
 70
     0
  9
$DIMDEC
 70
     4
  9
$DIMTDEC
 70
     4
  9
$DIMALTU
 70
     2
  9
$DIMALTTD
 70
     2
  9
$DIMTXSTY
  7
Standard
  9
$DIMAUNIT
 70
     0
  9
$DIMADEC
 70
     0
  9
$DIMALTRND
 40
0.0
  9
$DIMAZIN
 70
     0
  9
$DIMDSEP
 70
    46
  9
$DIMATFIT
 70
     3
  9
$DIMFRAC
 70
     0
  9
$DIMLDRBLK
  1

  9
$DIMLUNIT
 70
     2
  9
$DIMLWD
 70
    -2
  9
$DIMLWE
 70
    -2
  9
$DIMTMOVE
 70
     2
  9
$LUNITS
 70
     2
  9
$LUPREC
 70
     3
  9
$SKETCHINC
 40
0.1
  9
$FILLETRAD
 40
0.5
  9
$AUNITS
 70
     0
  9
$AUPREC
 70
     0
  9
$MENU
  1
.
  9
$ELEVATION
 40
0.0
  9
$PELEVATION
 40
0.0
  9
$THICKNESS
 40
0.0
  9
$LIMCHECK
 70
     0
  9
$CHAMFERA
 40
0.5
  9
$CHAMFERB
 40
0.5
  9
$CHAMFERC
 40
1.0
  9
$CHAMFERD
 40
0.0
  9
$SKPOLY
 70
     0
  9
$TDCREATE
 40
2456338.473159085
  9
$TDUCREATE
 40
2456338.681492419
  9
$TDUPDATE
 40
2456338.473159097
  9
$TDUUPDATE
 40
2456338.681492431
  9
$TDINDWG
 40
0.0000000116
  9
$TDUSRTIMER
 40
0.0000000116
  9
$USRTIMER
 70
     1
  9
$ANGBASE
 50
0.0
  9
$ANGDIR
 70
     0
  9
$PDMODE
 70
     0
  9
$PDSIZE
 40
0.0
  9
$PLINEWID
 40
0.0
  9
$SPLFRAME
 70
     0
  9
$SPLINETYPE
 70
     6
  9
$SPLINESEGS
 70
     8
  9
$HANDSEED
  5
145
  9
$SURFTAB1
 70
     6
  9
$SURFTAB2
 70
     6
  9
$SURFTYPE
 70
     6
  9
$SURFU
 70
     6
  9
$SURFV
 70
     6
  9
$UCSBASE
  2

  9
$UCSNAME
  2

  9
$UCSORG
 10
0.0
 20
0.0
 30
0.0
  9
$UCSXDIR
 10
1.0
 20
0.0
 30
0.0
  9
$UCSYDIR
 10
0.0
 20
1.0
 30
0.0
  9
$UCSORTHOREF
  2

  9
$UCSORTHOVIEW
 70
     0
  9
$UCSORGTOP
 10
0.0
 20
0.0
 30
0.0
  9
$UCSORGBOTTOM
 10
0.0
 20
0.0
 30
0.0
  9
$UCSORGLEFT
 10
0.0
 20
0.0
 30
0.0
  9
$UCSORGRIGHT
 10
0.0
 20
0.0
 30
0.0
  9
$UCSORGFRONT
 10
0.0
 20
0.0
 30
0.0
  9
$UCSORGBACK
 10
0.0
 20
0.0
 30
0.0
  9
$PUCSBASE
  2

  9
$PUCSNAME
  2

  9
$PUCSORG
 10
0.0
 20
0.0
 30
0.0
  9
$PUCSXDIR
 10
1.0
 20
0.0
 30
0.0
  9
$PUCSYDIR
 10
0.0
 20
1.0
 30
0.0
  9
$PUCSORTHOREF
  2

  9
$PUCSORTHOVIEW
 70
     0
  9
$PUCSORGTOP
 10
0.0
 20
0.0
 30
0.0
  9
$PUCSORGBOTTOM
 10
0.0
 20
0.0
 30
0.0
  9
$PUCSORGLEFT
 10
0.0
 20
0.0
 30
0.0
  9
$PUCSORGRIGHT
 10
0.0
 20
0.0
 30
0.0
  9
$PUCSORGFRONT
 10
0.0
 20
0.0
 30
0.0
  9
$PUCSORGBACK
 10
0.0
 20
0.0
 30
0.0
  9
$USERI1
 70
     0
  9
$USERI2
 70
     0
  9
$USERI3
 70
     0
  9
$USERI4
 70
     0
  9
$USERI5
 70
     0
  9
$USERR1
 40
0.0
  9
$USERR2
 40
0.0
  9
$USERR3
 40
0.0
  9
$USERR4
 40
0.0
  9
$USERR5
 40
0.0
  9
$WORLDVIEW
 70
     1
  9
$SHADEDGE
 70
     3
  9
$SHADEDIF
 70
    70
  9
$TILEMODE
 70
     1
  9
$MAXACTVP
 70
    64
  9
$PINSBASE
 10
0.0
 20
0.0
 30
0.0
  9
$PLIMCHECK
 70
     0
  9
$PEXTMIN
 10
1.000000000000000E+20
 20
1.000000000000000E+20
 30
1.000000000000000E+20
  9
$PEXTMAX
 10
-1.000000000000000E+20
 20
-1.000000000000000E+20
 30
-1.000000000000000E+20
  9
$PLIMMIN
 10
0.0
 20
0.0
  9
$PLIMMAX
 10
12.0
 20
9.0
  9
$UNITMODE
 70
     0
  9
$VISRETAIN
 70
     1
  9
$PLINEGEN
 70
     0
  9
$PSLTSCALE
 70
     1
  9
$TREEDEPTH
 70
  3020
  9
$CMLSTYLE
  2
Standard
  9
$CMLJUST
 70
     0
  9
$CMLSCALE
 40
1.0
  9
$PROXYGRAPHICS
 70
     1
  9
$MEASUREMENT
 70
     0
  9
$CELWEIGHT
370
    -1
  9
$ENDCAPS
280
     0
  9
$JOINSTYLE
280
     0
  9
$LWDISPLAY
290
     0
  9
$INSUNITS
 70
     1
  9
$HYPERLINKBASE
  1

  9
$STYLESHEET
  1

  9
$XEDIT
290
     1
  9
$CEPSNTYPE
380
     0
  9
$PSTYLEMODE
290
     1
  9
$FINGERPRINTGUID
  2
{F847A2F2-7637-4BC3-A15C-6713B811EE57}
  9
$VERSIONGUID
  2
{FAEB1C32-E019-11D5-929B-00C0DF256EC4}
  9
$EXTNAMES
290
     1
  9
$PSVPSCALE
 40
0.0
  9
$OLESTARTUP
290
     0
  9
$SORTENTS
280
   127
  9
$INDEXCTL
280
     0
  9
$HIDETEXT
280
     1
  9
$XCLIPFRAME
290
     0
  9
$HALOGAP
280
     0
  9
$OBSCOLOR
 70
   257
  9
$OBSLTYPE
280
     0
  9
$INTERSECTIONDISPLAY
280
     0
  9
$INTERSECTIONCOLOR
 70
   257
  9
$DIMASSOC
280
     2
  9
$PROJECTNAME
  1

  0
ENDSEC
  0
SECTION
  2
CLASSES
  0
CLASS
  1
ACDBDICTIONARYWDFLT
  2
AcDbDictionaryWithDefault
  3
ObjectDBX Classes
 90
        0
 91
        4
280
     0
281
     0
  0
CLASS
  1
VISUALSTYLE
  2
AcDbVisualStyle
  3
ObjectDBX Classes
 90
     4095
 91
        4
280
     0
281
     0
  0
ENDSEC
  0
SECTION
  2
TABLES
  0
TABLE
  2
VPORT
  5
8
330
0
100
AcDbSymbolTable
 70
     1
  0
VPORT
  5
29
330
8
100
AcDbSymbolTableRecord
100
AcDbViewportTableRecord
  2
*Active
 70
     0
 10
0.0
 20
0.0
 11
1.0
 21
1.0
 12
19.82172170765152
 22
35.7281021054575
 13
0.0
 23
0.0
 14
0.5
 24
0.5
 15
0.5
 25
0.5
 16
0.0
 26
0.0
 36
1.0
 17
0.0
 27
0.0
 37
0.0
 40
72.8853282951333
 41
1.169024346013832
 42
50.0
 43
0.0
 44
0.0
 50
0.0
 51
0.0
 71
     0
 72
   100
 73
     1
 74
     3
 75
     0
 76
     0
 77
     0
 78
     0
281
     0
 65
     1
110
0.0
120
0.0
130
0.0
111
1.0
121
0.0
131
0.0
112
0.0
122
1.0
132
0.0
 79
     0
146
0.0
  0
ENDTAB
  0
TABLE
  2
LTYPE
  5
5
330
0
100
AcDbSymbolTable
 70
     1
  0
LTYPE
  5
14
330
5
100
AcDbSymbolTableRecord
100
AcDbLinetypeTableRecord
  2
ByBlock
 70
     0
  3

 72
    65
 73
     0
 40
0.0
  0
LTYPE
  5
15
330
5
100
AcDbSymbolTableRecord
100
AcDbLinetypeTableRecord
  2
ByLayer
 70
     0
  3

 72
    65
 73
     0
 40
0.0
  0
LTYPE
  5
16
330
5
100
AcDbSymbolTableRecord
100
AcDbLinetypeTableRecord
  2
Continuous
 70
     0
  3
Solid line
 72
    65
 73
     0
 40
0.0
  0
ENDTAB
  0
TABLE
  2
LAYER
  5
2
330
0
100
AcDbSymbolTable
 70
     4
  0
LAYER
  5
10
330
2
100
AcDbSymbolTableRecord
100
AcDbLayerTableRecord
  2
0
 70
     0
 62
     7
  6
Continuous
370
    -3
390
F
  0
LAYER
  5
3B
330
2
100
AcDbSymbolTableRecord
100
AcDbLayerTableRecord
  2
Make2D visible lines
 70
     0
 62
     7
  6
Continuous
370
    -3
390
F
  0
LAYER
  5
58
330
2
100
AcDbSymbolTableRecord
100
AcDbLayerTableRecord
  2
Make2D visible lines - Tangent
 70
     0
 62
     7
  6
Continuous
370
    -3
390
F
  0
LAYER
  5
6C
330
2
100
AcDbSymbolTableRecord
100
AcDbLayerTableRecord
  2
Default
 70
     0
 62
     7
  6
Continuous
370
    -3
390
F
  0
ENDTAB
  0
TABLE
  2
STYLE
  5
3
330
0
100
AcDbSymbolTable
 70
     1
  0
STYLE
  5
11
330
3
100
AcDbSymbolTableRecord
100
AcDbTextStyleTableRecord
  2
Standard
 70
     0
 40
0.0
 41
1.0
 50
0.0
 71
     0
 42
0.2
  3
txt
  4

  0
ENDTAB
  0
TABLE
  2
VIEW
  5
6
330
0
100
AcDbSymbolTable
 70
     0
  0
ENDTAB
  0
TABLE
  2
UCS
  5
7
330
0
100
AcDbSymbolTable
 70
     0
  0
ENDTAB
  0
TABLE
  2
APPID
  5
9
330
0
100
AcDbSymbolTable
 70
     1
  0
APPID
  5
12
330
9
100
AcDbSymbolTableRecord
100
AcDbRegAppTableRecord
  2
ACAD
 70
     0
  0
ENDTAB
  0
TABLE
  2
DIMSTYLE
  5
A
330
0
100
AcDbSymbolTable
 70
     1
100
AcDbDimStyleTable
  0
DIMSTYLE
105
27
330
A
100
AcDbSymbolTableRecord
100
AcDbDimStyleTableRecord
  2
Standard
 70
     0
340
11
  0
ENDTAB
  0
TABLE
  2
BLOCK_RECORD
  5
1
330
0
100
AcDbSymbolTable
 70
     1
  0
BLOCK_RECORD
  5
1F
330
1
100
AcDbSymbolTableRecord
100
AcDbBlockTableRecord
  2
*Model_Space
340
22
  0
BLOCK_RECORD
  5
1B
330
1
100
AcDbSymbolTableRecord
100
AcDbBlockTableRecord
  2
*Paper_Space
340
1E
  0
BLOCK_RECORD
  5
23
330
1
100
AcDbSymbolTableRecord
100
AcDbBlockTableRecord
  2
*Paper_Space0
340
26
  0
ENDTAB
  0
ENDSEC
  0
SECTION
  2
BLOCKS
  0
BLOCK
  5
20
330
1F
100
AcDbEntity
  8
0
100
AcDbBlockBegin
  2
*Model_Space
 70
     0
 10
0.0
 20
0.0
 30
0.0
  3
*Model_Space
  1

  0
ENDBLK
  5
21
330
1F
100
AcDbEntity
  8
0
100
AcDbBlockEnd
  0
BLOCK
  5
1C
330
1B
100
AcDbEntity
 67
     1
  8
0
100
AcDbBlockBegin
  2
*Paper_Space
 70
     0
 10
0.0
 20
0.0
 30
0.0
  3
*Paper_Space
  1

  0
ENDBLK
  5
1D
330
1B
100
AcDbEntity
 67
     1
  8
0
100
AcDbBlockEnd
  0
BLOCK
  5
24
330
23
100
AcDbEntity
  8
0
100
AcDbBlockBegin
  2
*Paper_Space0
 70
     0
 10
0.0
 20
0.0
 30
0.0
  3
*Paper_Space0
  1

  0
ENDBLK
  5
25
330
23
100
AcDbEntity
  8
0
100
AcDbBlockEnd
  0
ENDSEC
  0
SECTION
  2
ENTITIES
  0
SPLINE
  5
3C
330
1F
100
AcDbEntity
  8
Make2D visible lines
100
AcDbSpline
210
0.0
220
0.0
230
1.0
 70
     8
 71
     3
 72
    13
 73
     9
 74
     0
 42
0.0000000001
 43
0.0000000001
 40
-1.83258135608072
 40
-1.83258135608072
 40
-1.83258135608072
 40
-1.83258135608072
 40
-0.750510233115731
 40
-0.5672189493277444
 40
-0.4828690280123605
 40
-0.2443108918713642
 40
-0.1163337939371243
 40
0.0
 40
0.0
 40
0.0
 40
0.0
 10
31.52170809089625
 20
0.429267031622143
 30
0.0
 10
31.52965841405223
 20
0.7898405850234216
 30
0.0
 10
31.54248364786573
 20
1.211528658082631
 30
0.0
 10
31.55055686885689
 20
1.661268225296924
 30
0.0
 10
31.56161248770845
 20
1.830020096093349
 30
0.0
 10
31.64399626862281
 20
1.966768126584214
 30
0.0
 10
31.77637789687299
 20
2.057218183732865
 30
0.0
 10
31.85731389087238
 20
2.080693221901958
 30
0.0
 10
31.89499281444547
 20
2.086000769603414
 30
0.0
  0
SPLINE
  5
3D
330
1F
100
AcDbEntity
  8
Make2D visible lines
100
AcDbSpline
210
0.0
220
0.0
230
1.0
 70
    24
 71
     2
 72
     6
 73
     3
 74
     0
 42
0.0000000001
 43
0.0000000001
 40
-10.36850216633574
 40
-10.36850216633574
 40
-10.36850216633574
 40
0.0
 40
0.0
 40
0.0
 10
31.89499281444547
 20
2.086000769603414
 30
0.0
 10
37.02999281444546
 20
2.798906298637399
 30
0.0
 10
42.16499281444547
 20
3.511811827671384
 30
0.0
  0
SPLINE
  5
3E
330
1F
100
AcDbEntity
  8
Make2D visible lines
100
AcDbSpline
210
0.0
220
0.0
230
1.0
 70
    12
 71
     3
 72
     8
 73
     4
 74
     0
 42
0.0000000001
 43
0.0000000001
 40
0.0
 40
0.0
 40
0.0
 40
0.0
 40
0.9983344876344831
 40
0.9983344876344831
 40
0.9983344876344831
 40
0.9983344876344831
 10
42.16499281444547
 20
3.511811827671384
 30
0.0
 41
1.0
 10
42.61584410501644
 20
3.574404695741988
 30
0.0
 41
1.0
 10
43.06822688079267
 20
3.64333701932616
 30
0.0
 41
1.0
 10
43.52288961956229
 20
3.65726383948913
 30
0.0
 41
1.0
  0
SPLINE
  5
3F
330
1F
100
AcDbEntity
  8
Make2D visible lines
100
AcDbSpline
210
0.0
220
0.0
230
1.0
 70
     8
 71
     3
 72
     8
 73
     4
 74
     0
 42
0.0000000001
 43
0.0000000001
 40
0.0
 40
0.0
 40
0.0
 40
0.0
 40
0.3051876163662417
 40
0.3051876163662417
 40
0.3051876163662417
 40
0.3051876163662417
 10
43.52288961956229
 20
3.65726383948913
 30
0.0
 10
43.77142022719589
 20
3.664876605573444
 30
0.0
 10
44.02005755866401
 20
3.670166049722532
 30
0.0
 10
44.26873647238131
 20
3.673132171936395
 30
0.0
  0
SPLINE
  5
40
330
1F
100
AcDbEntity
  8
Make2D visible lines
100
AcDbSpline
210
0.0
220
0.0
230
1.0
 70
    12
 71
     2
 72
     8
 73
     5
 74
     0
 42
0.0000000001
 43
0.0000000001
 40
0.0
 40
0.0
 40
0.0
 40
0.1269465231438366
 40
0.1269465231438366
 40
0.2538930462876731
 40
0.2538930462876731
 40
0.2538930462876731
 10
30.25138879392643
 20
0.0000000000000036
 30
0.0
 41
1.0
 10
30.18416422959107
 20
0.000000000000002
 30
0.0
 41
0.918360064844369
 10
30.1379963874828
 20
0.0488638148853193
 30
0.0
 41
1.0
 10
30.09182854537453
 20
0.0977276297706366
 30
0.0
 41
0.918360064844369
 10
30.09563969331943
 20
0.1648440748599159
 30
0.0
 41
1.0
  0
SPLINE
  5
41
330
1F
100
AcDbEntity
  8
Make2D visible lines
100
AcDbSpline
210
0.0
220
0.0
230
1.0
 70
    24
 71
     2
 72
     6
 73
     3
 74
     0
 42
0.0000000001
 43
0.0000000001
 40
0.0
 40
0.0
 40
0.0
 40
0.2325105046476637
 40
0.2325105046476637
 40
0.2325105046476637
 10
31.51493652762624
 20
0.1521924194416825
 30
0.0
 10
31.5177768966622
 20
0.2684129683847045
 30
0.0
 10
31.52061726569816
 20
0.3846335173277264
 30
0.0
  0
SPLINE
  5
42
330
1F
100
AcDbEntity
  8
Make2D visible lines
100
AcDbSpline
210
0.0
220
0.0
230
1.0
 70
    12
 71
     2
 72
     6
 73
     3
 74
     0
 42
0.0000000001
 43
0.0000000001
 40
0.0
 40
0.0
 40
0.0
 40
0.0224671519842366
 40
0.0224671519842366
 40
0.0224671519842366
 10
30.10820515117569
 20
0.3860938211857499
 30
0.0
 41
1.0
 10
30.10922191631982
 20
0.4000000000000348
 30
0.0
 41
0.7324347794791691
 10
30.12316521652362
 20
0.4000000000000183
 30
0.0
 41
1.0
  0
SPLINE
  5
43
330
1F
100
AcDbEntity
  8
Make2D visible lines
100
AcDbSpline
210
0.0
220
0.0
230
1.0
 70
    12
 71
     2
 72
     8
 73
     5
 74
     0
 42
0.0000000001
 43
0.0000000001
 40
0.0
 40
0.0
 40
0.0
 40
0.0119642320224294
 40
0.0119642320224294
 40
0.0239284640448587
 40
0.0239284640448587
 40
0.0239284640448587
 10
31.50562174335143
 20
0.4000000000000163
 30
0.0
 41
1.0
 10
31.51194257141842
 20
0.4000000000000209
 30
0.0
 41
0.9215246294676533
 10
31.51635713435699
 20
0.3954762292814858
 30
0.0
 41
1.0
 10
31.52077169729557
 20
0.3909524585629509
 30
0.0
 41
0.9215246294676533
 10
31.52061726569816
 20
0.3846335173277264
 30
0.0
 41
1.0
  0
SPLINE
  5
44
330
1F
100
AcDbEntity
  8
Make2D visible lines
100
AcDbSpline
210
0.0
220
0.0
230
1.0
 70
     8
 71
     3
 72
     8
 73
     4
 74
     0
 42
0.0000000001
 43
0.0000000001
 40
0.6950384688492743
 40
0.6950384688492743
 40
0.6950384688492743
 40
0.6950384688492743
 40
1.0
 40
1.0
 40
1.0
 40
1.0
 10
45.22180182590868
 20
3.673125576136301
 30
0.0
 10
45.47029645487123
 20
3.670158211529776
 30
0.0
 10
45.71874951498474
 20
3.664870965980719
 30
0.0
 10
45.96709600932876
 20
3.65726383948913
 30
0.0
  0
SPLINE
  5
45
330
1F
100
AcDbEntity
  8
Make2D visible lines
100
AcDbSpline
210
0.0
220
0.0
230
1.0
 70
    12
 71
     3
 72
     8
 73
     4
 74
     0
 42
0.0000000001
 43
0.0000000001
 40
-0.9983344876344831
 40
-0.9983344876344831
 40
-0.9983344876344831
 40
-0.9983344876344831
 40
0.0
 40
0.0
 40
0.0
 40
0.0
 10
45.96709600932876
 20
3.65726383948913
 30
0.0
 41
1.0
 10
46.42175874809838
 20
3.64333701932616
 30
0.0
 41
1.0
 10
46.87414152387461
 20
3.574404695741988
 30
0.0
 41
1.0
 10
47.32499281444558
 20
3.511811827671384
 30
0.0
 41
1.0
  0
SPLINE
  5
46
330
1F
100
AcDbEntity
  8
Make2D visible lines
100
AcDbSpline
210
0.0
220
0.0
230
1.0
 70
    24
 71
     2
 72
     6
 73
     3
 74
     0
 42
0.0000000001
 43
0.0000000001
 40
0.0
 40
0.0
 40
0.0
 40
10.36850216633574
 40
10.36850216633574
 40
10.36850216633574
 10
47.32499281444558
 20
3.511811827671384
 30
0.0
 10
52.45999281444558
 20
2.798906298637399
 30
0.0
 10
57.59499281444558
 20
2.086000769603414
 30
0.0
  0
SPLINE
  5
47
330
1F
100
AcDbEntity
  8
Make2D visible lines
100
AcDbSpline
210
0.0
220
0.0
230
1.0
 70
     8
 71
     3
 72
    13
 73
     9
 74
     0
 42
0.0000000001
 43
0.0000000001
 40
0.0
 40
0.0
 40
0.0
 40
0.0
 40
0.1163337939371243
 40
0.2443108918713642
 40
0.4828690280123605
 40
0.5672189493277444
 40
0.750510233115731
 40
1.83258135608072
 40
1.83258135608072
 40
1.83258135608072
 40
1.83258135608072
 10
57.59499281444558
 20
2.086000769603414
 30
0.0
 10
57.63267173801867
 20
2.080693221901958
 30
0.0
 10
57.71360773201806
 20
2.057218183732865
 30
0.0
 10
57.84598936026823
 20
1.966768126584214
 30
0.0
 10
57.92837314118259
 20
1.830020096093349
 30
0.0
 10
57.93942876003416
 20
1.661268225296924
 30
0.0
 10
57.94750198102533
 20
1.211528658082631
 30
0.0
 10
57.96032721483881
 20
0.7898405850234216
 30
0.0
 10
57.96827753799479
 20
0.429267031622143
 30
0.0
  0
SPLINE
  5
48
330
1F
100
AcDbEntity
  8
Make2D visible lines
100
AcDbSpline
210
0.0
220
0.0
230
1.0
 70
    24
 71
     2
 72
     6
 73
     3
 74
     0
 42
0.0000000001
 43
0.0000000001
 40
0.0
 40
0.0
 40
0.0
 40
1.107594207465098
 40
1.107594207465098
 40
1.107594207465098
 10
31.35898300139152
 20
0.0000000000000036
 30
0.0
 10
30.80518589765897
 20
0.0000000000000036
 30
0.0
 10
30.25138879392642
 20
0.0000000000000036
 30
0.0
  0
SPLINE
  5
49
330
1F
100
AcDbEntity
  8
Make2D visible lines
100
AcDbSpline
210
0.0
220
0.0
230
1.0
 70
    12
 71
     2
 72
     6
 73
     3
 74
     0
 42
0.0000000001
 43
0.0000000001
 40
0.0
 40
0.0
 40
0.0
 40
0.2412324278936833
 40
0.2412324278936833
 40
0.2412324278936833
 10
31.51493643379739
 20
0.1521885802082181
 30
0.0
 41
1.0
 10
31.51121702501146
 20
-0.0000000000000105
 30
0.0
 41
0.7156927337036098
 10
31.35898300139153
 20
0.0000000000000034
 30
0.0
 41
1.0
  0
SPLINE
  5
4A
330
1F
100
AcDbEntity
  8
Make2D visible lines
100
AcDbSpline
210
0.0
220
0.0
230
1.0
 70
    24
 71
     2
 72
     6
 73
     3
 74
     0
 42
0.0000000001
 43
0.0000000001
 40
0.0
 40
0.0
 40
0.0
 40
0.2213623405233084
 40
0.2213623405233084
 40
0.2213623405233084
 10
30.10818934146524
 20
0.3858503918134666
 30
0.0
 10
30.10191451739233
 20
0.2753472333366913
 30
0.0
 10
30.09563969331942
 20
0.164844074859916
 30
0.0
  0
SPLINE
  5
4B
330
1F
100
AcDbEntity
  8
Make2D visible lines
100
AcDbSpline
210
0.0
220
0.0
230
1.0
 70
    24
 71
     2
 72
     6
 73
     3
 74
     0
 42
0.0000000001
 43
0.0000000001
 40
0.0
 40
0.0
 40
0.0
 40
1.379419120443295
 40
1.379419120443295
 40
1.379419120443295
 10
30.12316521652362
 20
0.4000000000000163
 30
0.0
 10
30.81287477674527
 20
0.4000000000000162
 30
0.0
 10
31.50258433696692
 20
0.4000000000000161
 30
0.0
  0
SPLINE
  5
4C
330
1F
100
AcDbEntity
  8
Make2D visible lines
100
AcDbSpline
210
0.0
220
0.0
230
1.0
 70
    12
 71
     2
 72
     6
 73
     3
 74
     0
 42
0.0000000001
 43
0.0000000001
 40
-0.0371380794388858
 40
-0.0371380794388858
 40
-0.0371380794388858
 40
0.0
 40
0.0
 40
0.0
 10
59.36063639434428
 20
0.4022441987256987
 30
0.0
 41
1.0
 10
59.38040829946138
 20
0.4103542426935238
 30
0.0
 41
0.8144776561050845
 10
59.37920382743857
 20
0.4316908378358253
 30
0.0
 41
1.0
  0
SPLINE
  5
4D
330
1F
100
AcDbEntity
  8
Make2D visible lines
100
AcDbSpline
210
0.0
220
0.0
230
1.0
 70
     8
 71
     3
 72
    12
 73
     8
 74
     0
 42
0.0000000001
 43
0.0000000001
 40
0.0
 40
0.0
 40
0.0
 40
0.0
 40
2.024931116884056
 40
2.121300252943487
 40
2.208073208949396
 40
2.641991453438839
 40
3.085460819895622
 40
3.085460819895622
 40
3.085460819895622
 40
3.085460819895622
 10
59.37920382743857
 20
0.4316908378358253
 30
0.0
 10
59.34049995543814
 20
1.105574847750693
 30
0.0
 10
59.30219729577404
 20
1.811593362411049
 30
0.0
 10
59.25937532897772
 20
2.546414843142783
 30
0.0
 10
59.21454111014187
 20
2.747953191239763
 30
0.0
 10
59.04598243454689
 20
3.034556781920432
 30
0.0
 10
58.77531708803234
 20
3.175838551528641
 30
0.0
 10
58.63099281444547
 20
3.205665827232744
 30
0.0
  0
SPLINE
  5
4E
330
1F
100
AcDbEntity
  8
Make2D visible lines
100
AcDbSpline
210
0.0
220
0.0
230
1.0
 70
    24
 71
     2
 72
     6
 73
     3
 74
     0
 42
0.0000000001
 43
0.0000000001
 40
-12.2902709571203
 40
-12.2902709571203
 40
-12.2902709571203
 40
0.0
 40
0.0
 40
0.0
 10
58.63099281444547
 20
3.205665827232744
 30
0.0
 10
52.61299281444547
 20
4.449195501128249
 30
0.0
 10
46.59499281444547
 20
5.692725175023753
 30
0.0
  0
SPLINE
  5
4F
330
1F
100
AcDbEntity
  8
Make2D visible lines
100
AcDbSpline
210
0.0
220
0.0
230
1.0
 70
    12
 71
     3
 72
    11
 73
     7
 74
     0
 42
0.0000000001
 43
0.0000000001
 40
0.0
 40
0.0
 40
0.0
 40
0.0
 40
0.2500000000000077
 40
0.500000000000056
 40
0.7500000000001044
 40
0.9903549301730069
 40
0.9903549301730069
 40
0.9903549301730069
 40
0.9903549301730069
 10
46.59499281444547
 20
5.692725175023753
 30
0.0
 41
1.0
 10
46.52252507347333
 20
5.707699549616471
 30
0.0
 41
1.0
 10
46.3808776127956
 20
5.771964450750453
 30
0.0
 41
1.0
 10
46.2000295608707
 20
5.941965920377697
 30
0.0
 41
1.0
 10
46.07420294586865
 20
6.15347175039408
 30
0.0
 41
1.0
 10
46.03904512906047
 20
6.303120864095799
 30
0.0
 41
1.0
 10
46.03649992676535
 20
6.378712134379271
 30
0.0
 41
1.0
  0
SPLINE
  5
50
330
1F
100
AcDbEntity
  8
Make2D visible lines
100
AcDbSpline
210
0.0
220
0.0
230
1.0
 70
    24
 71
     2
 72
     6
 73
     3
 74
     0
 42
0.0000000001
 43
0.0000000001
 40
0.0
 40
0.0
 40
0.0
 40
0.080013140622857
 40
0.080013140622857
 40
0.080013140622857
 10
46.03649992676535
 20
6.378712134379271
 30
0.0
 10
46.03574637060547
 20
6.420856067189643
 30
0.0
 10
46.03499281444557
 20
6.463000000000015
 30
0.0
  0
SPLINE
  5
51
330
1F
100
AcDbEntity
  8
Make2D visible lines
100
AcDbSpline
210
0.0
220
0.0
230
1.0
 70
    24
 71
     2
 72
     6
 73
     3
 74
     0
 42
0.0000000001
 43
0.0000000001
 40
0.0
 40
0.0
 40
0.0
 40
1.290000000000045
 40
1.290000000000045
 40
1.290000000000045
 10
46.03499281444557
 20
6.463000000000015
 30
0.0
 10
45.38999281444555
 20
6.463000000000015
 30
0.0
 10
44.74499281444552
 20
6.463000000000015
 30
0.0
  0
SPLINE
  5
52
330
1F
100
AcDbEntity
  8
Make2D visible lines
100
AcDbSpline
210
0.0
220
0.0
230
1.0
 70
    24
 71
     2
 72
     6
 73
     3
 74
     0
 42
0.0000000001
 43
0.0000000001
 40
0.0
 40
0.0
 40
0.0
 40
1.289412297652113
 40
1.289412297652113
 40
1.289412297652113
 10
44.74499281444552
 20
6.463000000000015
 30
0.0
 10
44.10013974003249
 20
6.463000000000015
 30
0.0
 10
43.45528666561945
 20
6.463000000000015
 30
0.0
  0
SPLINE
  5
53
330
1F
100
AcDbEntity
  8
Make2D visible lines
100
AcDbSpline
210
0.0
220
0.0
230
1.0
 70
    24
 71
     2
 72
     6
 73
     3
 74
     0
 42
0.0000000001
 43
0.0000000001
 40
-0.080013140622857
 40
-0.080013140622857
 40
-0.080013140622857
 40
0.0
 40
0.0
 40
0.0
 10
43.45528666561945
 20
6.463000000000015
 30
0.0
 10
43.45438618387257
 20
6.420856067189643
 30
0.0
 10
43.4534857021257
 20
6.378712134379271
 30
0.0
  0
SPLINE
  5
54
330
1F
100
AcDbEntity
  8
Make2D visible lines
100
AcDbSpline
210
0.0
220
0.0
230
1.0
 70
    12
 71
     3
 72
    11
 73
     7
 74
     0
 42
0.0000000001
 43
0.0000000001
 40
-0.9903549301730069
 40
-0.9903549301730069
 40
-0.9903549301730069
 40
-0.9903549301730069
 40
-0.7500000000001044
 40
-0.500000000000056
 40
-0.2500000000000077
 40
0.0
 40
0.0
 40
0.0
 40
0.0
 10
43.4534857021257
 20
6.378712134379271
 30
0.0
 41
1.0
 10
43.45094049983058
 20
6.303120864095799
 30
0.0
 41
1.0
 10
43.4157826830224
 20
6.15347175039408
 30
0.0
 41
1.0
 10
43.28995606802035
 20
5.941965920377697
 30
0.0
 41
1.0
 10
43.10910801609545
 20
5.771964450750453
 30
0.0
 41
1.0
 10
42.96746055541772
 20
5.707699549616471
 30
0.0
 41
1.0
 10
42.89499281444558
 20
5.692725175023753
 30
0.0
 41
1.0
  0
SPLINE
  5
55
330
1F
100
AcDbEntity
  8
Make2D visible lines
100
AcDbSpline
210
0.0
220
0.0
230
1.0
 70
    24
 71
     2
 72
     6
 73
     3
 74
     0
 42
0.0000000001
 43
0.0000000001
 40
0.0
 40
0.0
 40
0.0
 40
12.2902709571203
 40
12.2902709571203
 40
12.2902709571203
 10
42.89499281444558
 20
5.692725175023753
 30
0.0
 10
36.87699281444558
 20
4.449195501128249
 30
0.0
 10
30.85899281444558
 20
3.205665827232744
 30
0.0
  0
SPLINE
  5
56
330
1F
100
AcDbEntity
  8
Make2D visible lines
100
AcDbSpline
210
0.0
220
0.0
230
1.0
 70
     8
 71
     3
 72
    12
 73
     8
 74
     0
 42
0.0000000001
 43
0.0000000001
 40
-3.085460819895622
 40
-3.085460819895622
 40
-3.085460819895622
 40
-3.085460819895622
 40
-2.641991453438839
 40
-2.208073208949396
 40
-2.121300252943487
 40
-2.024931116884056
 40
0.0
 40
0.0
 40
0.0
 40
0.0
 10
30.85899281444558
 20
3.205665827232744
 30
0.0
 10
30.71466854085871
 20
3.175838551528641
 30
0.0
 10
30.44400319434416
 20
3.034556781920432
 30
0.0
 10
30.27544451874918
 20
2.747953191239763
 30
0.0
 10
30.23061029991333
 20
2.546414843142783
 30
0.0
 10
30.18778833311701
 20
1.811593362411049
 30
0.0
 10
30.14948567345291
 20
1.105574847750693
 30
0.0
 10
30.11078180145248
 20
0.4316908378358253
 30
0.0
  0
SPLINE
  5
57
330
1F
100
AcDbEntity
  8
Make2D visible lines
100
AcDbSpline
210
0.0
220
0.0
230
1.0
 70
    12
 71
     2
 72
     6
 73
     3
 74
     0
 42
0.0000000001
 43
0.0000000001
 40
0.0
 40
0.0
 40
0.0
 40
0.0371380794388858
 40
0.0371380794388858
 40
0.0371380794388858
 10
30.11078180145248
 20
0.4316908378358253
 30
0.0
 41
1.0
 10
30.10957732942967
 20
0.4103542426935238
 30
0.0
 41
0.8144776561050845
 10
30.12934923454678
 20
0.4022441987256987
 30
0.0
 41
1.0
  0
SPLINE
  5
59
330
1F
100
AcDbEntity
  8
Make2D visible lines - Tangent
100
AcDbSpline
210
0.0
220
0.0
230
1.0
 70
     8
 71
     3
 72
    54
 73
    50
 74
     0
 42
0.0000000001
 43
0.0000000001
 40
0.0
 40
0.0
 40
0.0
 40
0.0
 40
1.0
 40
2.0
 40
3.0
 40
4.0
 40
5.0
 40
6.0
 40
7.0
 40
8.0
 40
9.0
 40
10.0
 40
11.0
 40
12.0
 40
13.0
 40
14.0
 40
15.0
 40
16.0
 40
17.0
 40
18.0
 40
19.0
 40
20.0
 40
21.0
 40
22.0
 40
23.0
 40
24.0
 40
25.0
 40
26.0
 40
27.0
 40
28.0
 40
29.0
 40
30.0
 40
31.0
 40
32.0
 40
33.0
 40
34.0
 40
35.0
 40
36.0
 40
37.0
 40
38.0
 40
39.0
 40
40.0
 40
41.0
 40
42.0
 40
43.0
 40
44.0
 40
45.0
 40
46.0
 40
47.0
 40
47.0
 40
47.0
 40
47.0
 10
45.13056685352869
 20
0.403329261439214
 30
0.0
 10
45.15583713287523
 20
0.471691761030031
 30
0.0
 10
45.13780001724912
 20
0.6333535261625483
 30
0.0
 10
45.13857107949767
 20
0.8657327374605353
 30
0.0
 10
45.13199344237157
 20
1.100824691898526
 30
0.0
 10
45.12719945855284
 20
1.335184942048012
 30
0.0
 10
45.12191308741862
 20
1.569741898107297
 30
0.0
 10
45.1168025630432
 20
1.804245165096962
 30
0.0
 10
45.11216754503022
 20
2.038780643129261
 30
0.0
 10
45.10683766265227
 20
2.27327054669982
 30
0.0
 10
45.10615082822106
 20
2.50795635439968
 30
0.0
 10
45.12139790146097
 20
2.742035110000107
 30
0.0
 10
45.14656740308848
 20
2.975291767990851
 30
0.0
 10
45.17119450203169
 20
3.208581524431251
 30
0.0
 10
45.19542698223808
 20
3.44180444554645
 30
0.0
 10
45.22598642910512
 20
3.674811437325082
 30
0.0
 10
45.23230951343163
 20
3.908675454710889
 30
0.0
 10
45.21775645698437
 20
4.14316108458999
 30
0.0
 10
45.20721547312139
 20
4.377402299909646
 30
0.0
 10
45.19685298129691
 20
4.611784456659724
 30
0.0
 10
45.18474688191822
 20
4.845964675118837
 30
0.0
 10
45.17299687332034
 20
5.080512320442788
 30
0.0
 10
45.13465402072777
 20
5.312100872344999
 30
0.0
 10
45.05135726301484
 20
5.534912960303022
 30
0.0
 10
44.87114788536827
 20
5.701053020982688
 30
0.0
 10
44.61593812813273
 20
5.700046595423096
 30
0.0
 10
44.4372523531168
 20
5.532266007601516
 30
0.0
 10
44.35461712815563
 20
5.309372210240867
 30
0.0
 10
44.31677572996924
 20
5.077673675160892
 30
0.0
 10
44.30507145749473
 20
4.843140061617282
 30
0.0
 10
44.29304116233098
 20
4.608952622806954
 30
0.0
 10
44.28259590699173
 20
4.374572197465292
 30
0.0
 10
44.27218724681359
 20
4.140337130437424
 30
0.0
 10
44.25723799830161
 20
3.905822607503123
 30
0.0
 10
44.26506209670774
 20
3.67206586450394
 30
0.0
 10
44.29539380700126
 20
3.439049497872843
 30
0.0
 10
44.31903923142075
 20
3.205758678338231
 30
0.0
 10
44.34303613109653
 20
2.972405099167784
 30
0.0
 10
44.36841772772242
 20
2.739167888374083
 30
0.0
 10
44.38400378872971
 20
2.505129568181835
 30
0.0
 10
44.38297995716328
 20
2.270431807711549
 30
0.0
 10
44.37782704275742
 20
2.035943620623493
 30
0.0
 10
44.37308516939152
 20
1.801408320125761
 30
0.0
 10
44.36791270425039
 20
1.566909832637999
 30
0.0
 10
44.36257132490709
 20
1.332342661516703
 30
0.0
 10
44.35814545682246
 20
1.098016778736779
 30
0.0
 10
44.35115554275593
 20
0.8627750502036662
 30
0.0
 10
44.35284546163772
 20
0.6309690073439601
 30
0.0
 10
44.33253313869538
 20
0.4678802044313225
 30
0.0
 10
44.36199895927982
 20
0.4021512543515627
 30
0.0
  0
SPLINE
  5
5A
330
1F
100
AcDbEntity
  8
Make2D visible lines
100
AcDbSpline
210
0.0
220
0.0
230
1.0
 70
    24
 71
     2
 72
     6
 73
     3
 74
     0
 42
0.0000000001
 43
0.0000000001
 40
0.0
 40
0.0
 40
0.0
 40
0.0400060931217547
 40
0.0400060931217547
 40
0.0400060931217547
 10
43.54429461184814
 20
6.463000000000022
 30
0.0
 10
43.54464371314669
 20
6.483000000000022
 30
0.0
 10
43.54499281444524
 20
6.503000000000021
 30
0.0
  0
SPLINE
  5
5B
330
1F
100
AcDbEntity
  8
Make2D visible lines
100
AcDbSpline
210
0.0
220
0.0
230
1.0
 70
    24
 71
     2
 72
     6
 73
     3
 74
     0
 42
0.0000000001
 43
0.0000000001
 40
0.0
 40
0.0
 40
0.0
 40
0.0400060931217547
 40
0.0400060931217547
 40
0.0400060931217547
 10
45.94499281444581
 20
6.503000000000021
 30
0.0
 10
45.94534191574436
 20
6.483000000000022
 30
0.0
 10
45.9456910170429
 20
6.463000000000022
 30
0.0
  0
SPLINE
  5
5C
330
1F
100
AcDbEntity
  8
Make2D visible lines
100
AcDbSpline
210
0.0
220
0.0
230
1.0
 70
    24
 71
     2
 72
     6
 73
     3
 74
     0
 42
0.0000000001
 43
0.0000000001
 40
0.0
 40
0.0
 40
0.0
 40
1.107594207465098
 40
1.107594207465098
 40
1.107594207465098
 10
58.13100262749953
 20
0.0000000000000036
 30
0.0
 10
58.68479973123208
 20
0.0000000000000036
 30
0.0
 10
59.23859683496462
 20
0.0000000000000036
 30
0.0
  0
SPLINE
  5
5D
330
1F
100
AcDbEntity
  8
Make2D visible lines
100
AcDbSpline
210
0.0
220
0.0
230
1.0
 70
    12
 71
     2
 72
     8
 73
     5
 74
     0
 42
0.0000000001
 43
0.0000000001
 40
0.0
 40
0.0
 40
0.0
 40
0.1269465231438366
 40
0.1269465231438366
 40
0.2538930462876731
 40
0.2538930462876731
 40
0.2538930462876731
 10
59.23859683496462
 20
0.0000000000000036
 30
0.0
 41
1.0
 10
59.30582139929999
 20
0.000000000000002
 30
0.0
 41
0.918360064844369
 10
59.35198924140825
 20
0.0488638148853193
 30
0.0
 41
1.0
 10
59.39815708351652
 20
0.0977276297706366
 30
0.0
 41
0.918360064844369
 10
59.39434593557163
 20
0.1648440748599159
 30
0.0
 41
1.0
  0
SPLINE
  5
5E
330
1F
100
AcDbEntity
  8
Make2D visible lines
100
AcDbSpline
210
0.0
220
0.0
230
1.0
 70
    12
 71
     2
 72
     6
 73
     3
 74
     0
 42
0.0000000001
 43
0.0000000001
 40
0.0
 40
0.0
 40
0.0
 40
0.2412324278936833
 40
0.2412324278936833
 40
0.2412324278936833
 10
57.97504919509365
 20
0.1521885802082181
 30
0.0
 41
1.0
 10
57.97876860387959
 20
-0.0000000000000105
 30
0.0
 41
0.7156927337036098
 10
58.13100262749952
 20
0.0000000000000034
 30
0.0
 41
1.0
  0
SPLINE
  5
5F
330
1F
100
AcDbEntity
  8
Make2D visible lines
100
AcDbSpline
210
0.0
220
0.0
230
1.0
 70
    24
 71
     2
 72
     6
 73
     3
 74
     0
 42
0.0000000001
 43
0.0000000001
 40
0.0
 40
0.0
 40
0.0
 40
0.2325105046476637
 40
0.2325105046476637
 40
0.2325105046476637
 10
57.9750491012648
 20
0.1521924194416825
 30
0.0
 10
57.97220873222884
 20
0.2684129683847045
 30
0.0
 10
57.96936836319288
 20
0.3846335173277264
 30
0.0
  0
SPLINE
  5
60
330
1F
100
AcDbEntity
  8
Make2D visible lines
100
AcDbSpline
210
0.0
220
0.0
230
1.0
 70
    24
 71
     2
 72
     6
 73
     3
 74
     0
 42
0.0000000001
 43
0.0000000001
 40
0.0
 40
0.0
 40
0.0
 40
0.2213623405233084
 40
0.2213623405233084
 40
0.2213623405233084
 10
59.38179628742581
 20
0.3858503918134666
 30
0.0
 10
59.38807111149872
 20
0.2753472333366913
 30
0.0
 10
59.39434593557163
 20
0.164844074859916
 30
0.0
  0
SPLINE
  5
61
330
1F
100
AcDbEntity
  8
Make2D visible lines
100
AcDbSpline
210
0.0
220
0.0
230
1.0
 70
    12
 71
     2
 72
     6
 73
     3
 74
     0
 42
0.0000000001
 43
0.0000000001
 40
0.0
 40
0.0
 40
0.0
 40
0.0224671519842366
 40
0.0224671519842366
 40
0.0224671519842366
 10
59.38178047771535
 20
0.3860938211857499
 30
0.0
 41
1.0
 10
59.38076371257123
 20
0.4000000000000348
 30
0.0
 41
0.7324347794791691
 10
59.36682041236742
 20
0.4000000000000183
 30
0.0
 41
1.0
  0
SPLINE
  5
62
330
1F
100
AcDbEntity
  8
Make2D visible lines
100
AcDbSpline
210
0.0
220
0.0
230
1.0
 70
    24
 71
     2
 72
     6
 73
     3
 74
     0
 42
0.0000000001
 43
0.0000000001
 40
0.0
 40
0.0
 40
0.0
 40
1.379419120443295
 40
1.379419120443295
 40
1.379419120443295
 10
59.36682041236742
 20
0.4000000000000163
 30
0.0
 10
58.67711085214577
 20
0.4000000000000162
 30
0.0
 10
57.98740129192413
 20
0.4000000000000161
 30
0.0
  0
SPLINE
  5
63
330
1F
100
AcDbEntity
  8
Make2D visible lines
100
AcDbSpline
210
0.0
220
0.0
230
1.0
 70
    12
 71
     2
 72
     8
 73
     5
 74
     0
 42
0.0000000001
 43
0.0000000001
 40
0.0
 40
0.0
 40
0.0
 40
0.0119642320224294
 40
0.0119642320224294
 40
0.0239284640448587
 40
0.0239284640448587
 40
0.0239284640448587
 10
57.98436388553962
 20
0.4000000000000163
 30
0.0
 41
1.0
 10
57.97804305747264
 20
0.4000000000000209
 30
0.0
 41
0.9215246294676533
 10
57.97362849453405
 20
0.3954762292814858
 30
0.0
 41
1.0
 10
57.96921393159549
 20
0.3909524585629509
 30
0.0
 41
0.9215246294676533
 10
57.96936836319288
 20
0.3846335173277264
 30
0.0
 41
1.0
  0
SPLINE
  5
64
330
1F
100
AcDbEntity
  8
Make2D visible lines
100
AcDbSpline
210
0.0
220
0.0
230
1.0
 70
    24
 71
     3
 72
     9
 73
     5
 74
     0
 42
0.0000000001
 43
0.0000000001
 40
0.0
 40
0.0
 40
0.0
 40
0.0
 40
0.0000682360840525
 40
0.251869451330915
 40
0.251869451330915
 40
0.251869451330915
 40
0.251869451330915
 10
44.49325983778112
 20
0.0000000000000036
 30
0.0
 10
44.49315035780105
 20
0.0000000000000036
 30
0.0
 10
44.57709650229265
 20
0.0000000000000036
 30
0.0
 10
44.66106199931559
 20
0.0000000000000036
 30
0.0
 10
44.74499281694393
 20
0.0000000000000036
 30
0.0
  0
SPLINE
  5
65
330
1F
100
AcDbEntity
  8
Make2D visible lines
100
AcDbSpline
210
0.0
220
0.0
230
1.0
 70
    24
 71
     2
 72
     6
 73
     3
 74
     0
 42
0.0000000001
 43
0.0000000001
 40
0.0
 40
0.0
 40
0.0
 40
0.2517559204860955
 40
0.2517559204860955
 40
0.2517559204860955
 10
44.74499281694393
 20
0.0000000000000036
 30
0.0
 10
44.87087077718698
 20
0.0000000000000036
 30
0.0
 10
44.99674873743003
 20
0.0000000000000036
 30
0.0
  0
SPLINE
  5
66
330
1F
100
AcDbEntity
  8
Make2D visible lines
100
AcDbSpline
210
0.0
220
0.0
230
1.0
 70
    24
 71
     2
 72
     6
 73
     3
 74
     0
 42
0.0000000001
 43
0.0000000001
 40
0.0
 40
0.0
 40
0.0
 40
0.3876534637036499
 40
0.3876534637036499
 40
0.3876534637036499
 10
44.74499281455266
 20
0.4000000000000163
 30
0.0
 10
44.55116608270083
 20
0.4000000000000162
 30
0.0
 10
44.35733935084901
 20
0.4000000000000161
 30
0.0
  0
SPLINE
  5
67
330
1F
100
AcDbEntity
  8
Make2D visible lines
100
AcDbSpline
210
0.0
220
0.0
230
1.0
 70
    24
 71
     2
 72
     6
 73
     3
 74
     0
 42
0.0000000001
 43
0.0000000001
 40
0.0
 40
0.0
 40
0.0
 40
0.3863627208447955
 40
0.3863627208447955
 40
0.3863627208447955
 10
45.13135584486328
 20
0.4000000000000166
 30
0.0
 10
44.93817448444088
 20
0.4000000000000165
 30
0.0
 10
44.74499312401849
 20
0.4000000000000163
 30
0.0
  0
SPLINE
  5
68
330
1F
100
AcDbEntity
  8
Make2D visible lines
100
AcDbSpline
210
0.0
220
0.0
230
1.0
 70
    12
 71
     2
 72
     8
 73
     5
 74
     0
 42
0.0000000001
 43
0.0000000001
 40
0.0
 40
0.0
 40
0.0
 40
0.1240063772075993
 40
0.1240063772075993
 40
0.2480127544151987
 40
0.2480127544151987
 40
0.2480127544151987
 10
44.49319107560527
 20
0.000000000001096
 30
0.0
 41
1.0
 10
44.427701141551
 20
-0.0000119099018914
 30
0.0
 41
0.9220189045496352
 10
44.38183411680457
 20
0.0467336529376692
 30
0.0
 41
1.0
 10
44.33596709205811
 20
0.0934792157772298
 30
0.0
 41
0.9220189045496352
 10
44.33722138438549
 20
0.1589571384308644
 30
0.0
 41
1.0
  0
SPLINE
  5
69
330
1F
100
AcDbEntity
  8
Make2D visible lines
100
AcDbSpline
210
0.0
220
0.0
230
1.0
 70
    12
 71
     2
 72
     8
 73
     5
 74
     0
 42
0.0000000001
 43
0.0000000001
 40
0.0
 40
0.0
 40
0.0
 40
0.1242318577480881
 40
0.1242318577480881
 40
0.2484637154961761
 40
0.2484637154961761
 40
0.2484637154961761
 10
45.1527543929864
 20
0.1594215907425355
 30
0.0
 41
1.0
 10
45.15419398364032
 20
0.0938162002370285
 30
0.0
 41
0.9217678869813357
 10
45.10830489145867
 20
0.0469085153295885
 30
0.0
 41
1.0
 10
45.06241579927703
 20
0.0000008304221485
 30
0.0
 41
0.9217678869813357
 10
44.9967946160818
 20
0.0000000000011417
 30
0.0
 41
1.0
  0
SPLINE
  5
6A
330
1F
100
AcDbEntity
  8
Make2D visible lines
100
AcDbSpline
210
0.0
220
0.0
230
1.0
 70
    12
 71
     2
 72
     6
 73
     3
 74
     0
 42
0.0000000001
 43
0.0000000001
 40
0.0
 40
0.0
 40
0.0
 40
0.2259576718196235
 40
0.2259576718196235
 40
0.2259576718196235
 10
44.33722896247089
 20
0.1594216323489093
 30
0.0
 41
1.0
 10
44.33970695698336
 20
0.2723732898507527
 30
0.0
 41
0.9999999984910576
 10
44.34217254141845
 20
0.3853252189294936
 30
0.0
 41
1.0
  0
SPLINE
  5
6B
330
1F
100
AcDbEntity
  8
Make2D visible lines
100
AcDbSpline
210
0.0
220
0.0
230
1.0
 70
    12
 71
     2
 72
     6
 73
     3
 74
     0
 42
0.0000000001
 43
0.0000000001
 40
0.0
 40
0.0
 40
0.0
 40
0.0232077921390905
 40
0.0232077921390905
 40
0.0232077921390905
 10
45.13281719686028
 20
0.3999999999470365
 30
0.0
 41
1.0
 10
45.14743437108061
 20
0.3999392744149043
 30
0.0
 41
0.7176120634141828
 10
45.14781122540475
 20
0.3853268327778507
 30
0.0
 41
1.0
  0
POLYLINE
  5
6D
330
1F
100
AcDbEntity
  8
Default
100
AcDb2dPolyline
 66
     1
 10
0.0
 20
0.0
 30
0.0
  0
VERTEX
  5
6E
330
6D
100
AcDbEntity
  8
Default
100
AcDbVertex
100
AcDb2dVertex
 10
61.56270468541242
 20
24.77163328823512
 30
0.0
  0
VERTEX
  5
6F
330
6D
100
AcDbEntity
  8
Default
100
AcDbVertex
100
AcDb2dVertex
 10
45.86478112618643
 20
24.77163328823512
 30
0.0
  0
SEQEND
  5
70
330
6D
100
AcDbEntity
  8
Default
  0
SPLINE
  5
71
330
1F
100
AcDbEntity
  8
Default
100
AcDbSpline
210
0.0
220
0.0
230
1.0
 70
    12
 71
     2
 72
     6
 73
     3
 74
     0
 42
0.0000000001
 43
0.0000000001
 40
0.0
 40
0.0
 40
0.0
 40
0.0431172320695658
 40
0.0431172320695658
 40
0.0431172320695658
 10
45.86478112618643
 20
24.77163328823512
 30
0.0
 41
1.0
 10
45.83882443762777
 20
24.77517364985712
 30
0.0
 41
0.754396026161636
 10
45.83874290579943
 20
24.80137054268636
 30
0.0
 41
1.0
  0
SPLINE
  5
72
330
1F
100
AcDbEntity
  8
Default
100
AcDbSpline
210
0.0
220
0.0
230
1.0
 70
    24
 71
     2
 72
     6
 73
     3
 74
     0
 42
0.0000000001
 43
0.0000000001
 40
0.0
 40
0.0
 40
0.0
 40
0.1037317171327032
 40
0.1037317171327032
 40
0.1037317171327032
 10
45.83874290579943
 20
24.80137054268636
 30
0.0
 10
45.83874290579943
 20
24.85323640125272
 30
0.0
 10
45.83874290579943
 20
24.90510225981907
 30
0.0
  0
SPLINE
  5
73
330
1F
100
AcDbEntity
  8
Default
100
AcDbSpline
210
0.0
220
0.0
230
1.0
 70
    12
 71
     2
 72
     6
 73
     3
 74
     0
 42
0.0000000001
 43
0.0000000001
 40
0.0
 40
0.0
 40
0.0
 40
0.0470942880630165
 40
0.0470942880630165
 40
0.0470942880630165
 10
45.83874290579943
 20
24.90510225981907
 30
0.0
 41
1.0
 10
45.83881120470349
 20
24.93503368509901
 30
0.0
 41
0.7087216954127066
 10
45.86874262935279
 20
24.9351022598178
 30
0.0
 41
1.0
  0
POLYLINE
  5
74
330
1F
100
AcDbEntity
  8
Default
100
AcDb2dPolyline
 66
     1
 10
0.0
 20
0.0
 30
0.0
  0
VERTEX
  5
75
330
74
100
AcDbEntity
  8
Default
100
AcDbVertex
100
AcDb2dVertex
 10
45.86874262935279
 20
24.9351022598178
 30
0.0
  0
VERTEX
  5
76
330
74
100
AcDbEntity
  8
Default
100
AcDbVertex
100
AcDb2dVertex
 10
61.55874318224607
 20
24.9351022598178
 30
0.0
  0
SEQEND
  5
77
330
74
100
AcDbEntity
  8
Default
  0
SPLINE
  5
78
330
1F
100
AcDbEntity
  8
Default
100
AcDbSpline
210
0.0
220
0.0
230
1.0
 70
    12
 71
     2
 72
     6
 73
     3
 74
     0
 42
0.0000000001
 43
0.0000000001
 40
0.0
 40
0.0
 40
0.0
 40
0.0470830900804005
 40
0.0470830900804005
 40
0.0470830900804005
 10
61.55874318224607
 20
24.9351022598178
 30
0.0
 41
1.0
 10
61.58864854030358
 20
24.93500761874742
 30
0.0
 41
0.709337752437847
 10
61.58874290579941
 20
24.90510225981907
 30
0.0
 41
1.0
  0
SPLINE
  5
79
330
1F
100
AcDbEntity
  8
Default
100
AcDbSpline
210
0.0
220
0.0
230
1.0
 70
    24
 71
     2
 72
     6
 73
     3
 74
     0
 42
0.0000000001
 43
0.0000000001
 40
0.0
 40
0.0
 40
0.0
 40
0.1037317171327068
 40
0.1037317171327068
 40
0.1037317171327068
 10
61.58874290579941
 20
24.90510225981907
 30
0.0
 10
61.58874290579941
 20
24.85323640125272
 30
0.0
 10
61.58874290579941
 20
24.80137054268636
 30
0.0
  0
SPLINE
  5
7A
330
1F
100
AcDbEntity
  8
Default
100
AcDbSpline
210
0.0
220
0.0
230
1.0
 70
    12
 71
     2
 72
     6
 73
     3
 74
     0
 42
0.0000000001
 43
0.0000000001
 40
0.0
 40
0.0
 40
0.0
 40
0.0431192810070287
 40
0.0431192810070287
 40
0.0431192810070287
 10
61.58874290579941
 20
24.80137054268636
 30
0.0
 41
1.0
 10
61.588666394901
 20
24.77516925348354
 30
0.0
 41
0.7542698814906877
 10
61.56270468541242
 20
24.77163328823512
 30
0.0
 41
1.0
  0
SPLINE
  5
7B
330
1F
100
AcDbEntity
  8
Make2D visible lines
100
AcDbSpline
210
0.0
220
0.0
230
1.0
 70
    12
 71
     3
 72
    14
 73
    10
 74
     0
 42
0.0000000001
 43
0.0000000001
 40
-9.369194023568344
 40
-9.369194023568344
 40
-9.369194023568344
 40
-9.369194023568344
 40
-6.644620846041471
 40
-6.644620846041471
 40
-6.644620846041471
 40
-5.644620846041471
 40
-5.644620846041471
 40
-5.644620846041471
 40
0.0
 40
0.0
 40
0.0
 40
0.0
 10
51.04400316357654
 20
24.61689621905553
 30
0.0
 41
1.0
 10
51.22040247783848
 20
23.72596983649513
 30
0.0
 41
0.9999326719119793
 10
51.38412234703789
 20
22.83262648612889
 30
0.0
 41
0.9999326719119793
 10
51.53512970233748
 20
21.93704660925599
 30
0.0
 41
1.0
 10
51.57221072911538
 20
21.71713002750946
 30
0.0
 41
1.0
 10
51.58897712263015
 20
21.49301932749712
 30
0.0
 41
1.0
 10
51.58710997522138
 20
21.27000628026772
 30
0.0
 41
1.0
 10
51.57135757564166
 20
19.38853156919292
 30
0.0
 41
0.9999996063308121
 10
51.55356050860374
 20
17.50707508792333
 30
0.0
 41
0.9999996063308121
 10
51.533584596722
 20
15.61317500847246
 30
0.0
 41
1.0
  0
SPLINE
  5
7C
330
1F
100
AcDbEntity
  8
Make2D visible lines
100
AcDbSpline
210
0.0
220
0.0
230
1.0
 70
     8
 71
     3
 72
    15
 73
    11
 74
     0
 42
0.0000000001
 43
0.0000000001
 40
-4.153347557483698
 40
-4.153347557483698
 40
-4.153347557483698
 40
-4.153347557483698
 40
-3.295975673650196
 40
-2.616913012557761
 40
-2.082597737094207
 40
-1.65699777635294
 40
-1.302977998228093
 40
-0.9532165727599612
 40
-0.5355895472125215
 40
0.0
 40
0.0
 40
0.0
 40
0.0
 10
51.533584596722
 20
15.61317500847246
 30
0.0
 10
51.5304184588784
 20
15.32741300333841
 30
0.0
 10
51.51747098096479
 20
14.81529994090117
 30
0.0
 10
51.46431825767496
 20
14.12679507586071
 30
0.0
 10
51.37666338103944
 20
13.58676174159199
 30
0.0
 10
51.24822499906738
 20
13.16656577060321
 30
0.0
 10
51.06370476071281
 20
12.83493691942002
 30
0.0
 10
50.80161716516322
 20
12.56457860210507
 30
0.0
 10
50.44009351457963
 20
12.32127211812947
 30
0.0
 10
50.15670322830285
 20
12.17719228482401
 30
0.0
 10
49.9951167918292
 20
12.1011428008692
 30
0.0
  0
SPLINE
  5
7D
330
1F
100
AcDbEntity
  8
Make2D visible lines
100
AcDbSpline
210
0.0
220
0.0
230
1.0
 70
    12
 71
     2
 72
     6
 73
     3
 74
     0
 42
0.0000000001
 43
0.0000000001
 40
-4.882455989528093
 40
-4.882455989528093
 40
-4.882455989528093
 40
-0.0648357019554221
 40
-0.0648357019554221
 40
-0.0648357019554221
 10
49.9951167918292
 20
12.1011428008692
 30
0.0
 41
1.0
 10
47.80481018899041
 20
11.07078637567836
 30
0.0
 41
0.9999998925932001
 10
45.62404150186479
 20
10.04737720350293
 30
0.0
 41
0.9999999971474212
  0
SPLINE
  5
7E
330
1F
100
AcDbEntity
  8
Make2D visible lines
100
AcDbSpline
210
0.0
220
0.0
230
1.0
 70
    12
 71
     3
 72
     8
 73
     4
 74
     0
 42
0.0000000001
 43
0.0000000001
 40
-0.5668263165431112
 40
-0.5668263165431112
 40
-0.5668263165431112
 40
-0.5668263165431112
 40
0.0
 40
0.0
 40
0.0
 40
0.0
 10
45.62404150186479
 20
10.04737720350293
 30
0.0
 41
0.8623499803984138
 10
45.5089219715768
 20
10.07966932510136
 30
0.0
 41
0.756694382114321
 10
45.43840314415332
 20
10.24456426802436
 30
0.0
 41
0.8025777219815275
 10
45.43840316038681
 20
10.44884868170901
 30
0.0
 41
1.0
  0
SPLINE
  5
7F
330
1F
100
AcDbEntity
  8
Make2D visible lines
100
AcDbSpline
210
0.0
220
0.0
230
1.0
 70
    12
 71
     2
 72
     6
 73
     3
 74
     0
 42
0.0000000001
 43
0.0000000001
 40
0.0
 40
0.0
 40
0.0
 40
0.0232125536774005
 40
0.0232125536774005
 40
0.0232125536774005
 10
44.34217444598261
 20
0.3853269610145591
 30
0.0
 41
1.0
 10
44.34254095832035
 20
0.3999502926109969
 30
0.0
 41
0.7170957278319929
 10
44.35716879778666
 20
0.3999999999617776
 30
0.0
 41
1.0
  0
LINE
  5
80
330
1F
100
AcDbEntity
  8
Make2D visible lines
100
AcDbLine
 10
61.56270468541242
 20
24.77163328823514
 30
0.0
 11
60.40124290579941
 21
24.61689621905553
 31
0.0
  0
POLYLINE
  5
81
330
1F
100
AcDbEntity
  8
Make2D visible lines
100
AcDb2dPolyline
 66
     1
 10
0.0
 20
0.0
 30
0.0
  0
VERTEX
  5
82
330
81
100
AcDbEntity
  8
Make2D visible lines
100
AcDbVertex
100
AcDb2dVertex
 10
60.40124290579941
 20
24.61689621905553
 30
0.0
  0
VERTEX
  5
83
330
81
100
AcDbEntity
  8
Make2D visible lines
100
AcDbVertex
100
AcDb2dVertex
 10
47.02624290579944
 20
24.61689621905553
 30
0.0
  0
SEQEND
  5
84
330
81
100
AcDbEntity
  8
Make2D visible lines
  0
LINE
  5
85
330
1F
100
AcDbEntity
  8
Make2D visible lines
100
AcDbLine
 10
47.02624290579944
 20
24.61689621905553
 30
0.0
 11
45.86478112618644
 21
24.77163328823515
 31
0.0
  0
SPLINE
  5
86
330
1F
100
AcDbEntity
  8
Default
100
AcDbSpline
210
0.0
220
0.0
230
1.0
 70
    12
 71
     3
 72
    14
 73
    10
 74
     0
 42
0.0000000001
 43
0.0000000001
 40
0.0
 40
0.0
 40
0.0
 40
0.0
 40
2.738070880085492
 40
2.738070880085492
 40
2.738070880085492
 40
3.738070880085492
 40
3.738070880085492
 40
3.738070880085492
 40
10.0982367506281
 40
10.0982367506281
 40
10.0982367506281
 40
10.0982367506281
 10
53.41897761892958
 20
24.61698045436065
 30
0.0
 41
1.0
 10
53.22726326520323
 20
23.72465042441085
 30
0.0
 41
0.999995553249477
 10
53.03880935858628
 20
22.83162612415036
 30
0.0
 41
0.999995553249477
 10
52.85361841310126
 20
21.93791946674801
 30
0.0
 41
1.0
 10
52.80674474957249
 20
21.71171345520253
 30
0.0
 41
1.0
 10
52.78132391641842
 20
21.48016480989474
 30
0.0
 41
1.0
 10
52.77633974206194
 20
21.24920711247396
 30
0.0
 41
1.0
 10
52.73059860937939
 20
19.12964508951428
 30
0.0
 41
0.9999997804119717
 10
52.68657781894188
 20
17.0100466392409
 30
0.0
 41
0.9999997804119717
 10
52.64374935849004
 20
14.86526492847472
 30
0.0
 41
1.0
  0
SPLINE
  5
87
330
1F
100
AcDbEntity
  8
Default
100
AcDbSpline
210
0.0
220
0.0
230
1.0
 70
     8
 71
     3
 72
    12
 73
     8
 74
     0
 42
0.0000000001
 43
0.0000000001
 40
0.0
 40
0.0
 40
0.0
 40
0.0
 40
0.734171097111815
 40
1.389037115062323
 40
2.477792613121731
 40
3.469609426476286
 40
4.491698434972608
 40
4.491698434972608
 40
4.491698434972608
 40
4.491698434972608
 10
52.64374935849004
 20
14.86526492847472
 30
0.0
 10
52.63822167896184
 20
14.62111212585674
 30
0.0
 10
52.61548368801039
 20
14.15695025661434
 30
0.0
 10
52.51131621740283
 20
13.33938308769229
 30
0.0
 10
52.27932341465741
 20
12.44794394918895
 30
0.0
 10
51.69776836353908
 20
11.57499518523299
 30
0.0
 10
51.16825520193147
 20
11.15133032278984
 30
0.0
 10
50.8734360310273
 20
10.97508945814597
 30
0.0
  0
LINE
  5
88
330
1F
100
AcDbEntity
  8
Default
100
AcDbLine
 10
50.8734360310273
 20
10.97508945814597
 30
0.0
 11
45.5471319690246
 21
7.78034929902472
 31
0.0
  0
SPLINE
  5
89
330
1F
100
AcDbEntity
  8
Default
100
AcDbSpline
210
0.0
220
0.0
230
1.0
 70
    12
 71
     3
 72
     8
 73
     4
 74
     0
 42
0.0000000001
 43
0.0000000001
 40
-0.4964376332803108
 40
-0.4964376332803108
 40
-0.4964376332803108
 40
-0.4964376332803108
 40
0.0
 40
0.0
 40
0.0
 40
0.0
 10
45.5471319690246
 20
7.78034929902472
 30
0.0
 41
0.9156675536327253
 10
45.47735820343126
 20
7.666440532614299
 30
0.0
 41
0.8872573437122231
 10
45.43842370952249
 20
7.508514561170021
 30
0.0
 41
0.9130793517795608
 10
45.43840316038683
 20
7.333777840749015
 30
0.0
 41
1.0
  0
SPLINE
  5
8A
330
1F
100
AcDbEntity
  8
Make2D visible lines
100
AcDbSpline
210
0.0
220
0.0
230
1.0
 70
    12
 71
     2
 72
     6
 73
     3
 74
     0
 42
0.0000000001
 43
0.0000000001
 40
0.0
 40
0.0
 40
0.0
 40
0.2253642768281202
 40
0.2253642768281202
 40
0.2253642768281202
 10
45.14781309097187
 20
0.385325058594006
 30
0.0
 41
1.0
 10
45.15027220027284
 20
0.2726697563467351
 30
0.0
 41
0.9999999984988344
 10
45.15274365512353
 20
0.1600147242624911
 30
0.0
 41
1.0
  0
SPLINE
  5
8B
330
1F
100
AcDbEntity
  8
Make2D visible lines
100
AcDbSpline
210
0.0
220
0.0
230
1.0
 70
    24
 71
     2
 72
     6
 73
     3
 74
     0
 42
0.0000000001
 43
0.0000000001
 40
0.0
 40
0.0
 40
0.0
 40
0.0480073117461094
 40
0.0480073117461094
 40
0.0480073117461094
 10
43.54535648587872
 20
6.507000000000013
 30
0.0
 10
43.54493756432044
 20
6.483000000000012
 30
0.0
 10
43.54451864276216
 20
6.459000000000011
 30
0.0
  0
SPLINE
  5
8C
330
1F
100
AcDbEntity
  8
Default
100
AcDbSpline
210
0.0
220
0.0
230
1.0
 70
    12
 71
     2
 72
     6
 73
     3
 74
     0
 42
0.0000000001
 43
0.0000000001
 40
0.0
 40
0.0
 40
0.0
 40
0.7038513494140428
 40
0.7038513494140428
 40
0.7038513494140428
 10
56.83937158615325
 20
14.80505219713892
 30
0.0
 41
1.0
 10
56.81357819215564
 20
15.24473916677007
 30
0.0
 41
0.7240920788525397
 10
56.37315716774552
 20
15.24033344670009
 30
0.0
 41
1.0
  0
SPLINE
  5
8D
330
1F
100
AcDbEntity
  8
Default
100
AcDbSpline
210
0.0
220
0.0
230
1.0
 70
     8
 71
     3
 72
    14
 73
    10
 74
     0
 42
0.0000000001
 43
0.0000000001
 40
0.0
 40
0.0
 40
0.0
 40
0.0
 40
1.0
 40
2.0
 40
3.0
 40
4.0
 40
5.0
 40
6.0
 40
6.385584632156062
 40
6.385584632156062
 40
6.385584632156062
 40
6.385584632156062
 10
56.37315716774552
 20
15.24033344670009
 30
0.0
 10
56.17739817941484
 20
15.23851264913449
 30
0.0
 10
55.78607359819128
 20
15.22544690103364
 30
0.0
 10
55.19948711358049
 20
15.1962137112085
 30
0.0
 10
54.61358029810873
 20
15.15825200665627
 30
0.0
 10
54.02861471795333
 20
15.09576611490097
 30
0.0
 10
53.44036056465167
 20
15.12418840324993
 30
0.0
 10
52.98146323345323
 20
15.21885883006738
 30
0.0
 10
52.72394232102498
 20
15.30409951634541
 30
0.0
 10
52.65305602908937
 20
15.32999702132048
 30
0.0
  0
SPLINE
  5
8E
330
1F
100
AcDbEntity
  8
Default
100
AcDbSpline
210
0.0
220
0.0
230
1.0
 70
    24
 71
     2
 72
     6
 73
     3
 74
     0
 42
0.0000000001
 43
0.0000000001
 40
0.0
 40
0.0
 40
0.0
 40
1.314622470337779
 40
1.314622470337779
 40
1.314622470337779
 10
56.33970506953577
 20
15.24001849448549
 30
0.0
 10
56.27807504825287
 20
15.89443411193049
 30
0.0
 10
56.21644502696996
 20
16.54884972937549
 30
0.0
  0
SPLINE
  5
8F
330
1F
100
AcDbEntity
  8
Default
100
AcDbSpline
210
0.0
220
0.0
230
1.0
 70
     8
 71
     3
 72
     8
 73
     4
 74
     0
 42
0.0000000001
 43
0.0000000001
 40
0.0
 40
0.0
 40
0.0
 40
0.0
 40
1.0
 40
1.0
 40
1.0
 40
1.0
 10
56.21644502696996
 20
16.54884972937549
 30
0.0
 10
56.20257153328149
 20
16.69616480000628
 30
0.0
 10
56.101764575667
 20
16.76947480602701
 30
0.0
 10
55.94741074999224
 20
16.77792957314891
 30
0.0
  0
SPLINE
  5
90
330
1F
100
AcDbEntity
  8
Default
100
AcDbSpline
210
0.0
220
0.0
230
1.0
 70
     8
 71
     3
 72
     9
 73
     5
 74
     0
 42
0.0000000001
 43
0.0000000001
 40
-3.0
 40
-3.0
 40
-3.0
 40
-3.0
 40
-2.0
 40
-1.100850441427352
 40
-1.100850441427352
 40
-1.100850441427352
 40
-1.100850441427352
 10
55.94741074999224
 20
16.77792957314891
 30
0.0
 10
55.37452120117777
 20
16.80930973299022
 30
0.0
 10
54.28488060072586
 20
16.78819974723662
 30
0.0
 10
53.19649763991539
 20
16.74839534882263
 30
0.0
 10
52.68133300526797
 20
16.72593408222865
 30
0.0
  0
SPLINE
  5
91
330
1F
100
AcDbEntity
  8
Default
100
AcDbSpline
210
0.0
220
0.0
230
1.0
 70
     8
 71
     3
 72
     8
 73
     4
 74
     0
 42
0.0000000001
 43
0.0000000001
 40
9.180616473001736
 40
9.180616473001736
 40
9.180616473001736
 40
9.180616473001736
 40
13.0444822786923
 40
13.0444822786923
 40
13.0444822786923
 40
13.0444822786923
 10
48.62509294771544
 20
11.45690192987338
 30
0.0
 10
47.35232750943368
 20
11.25995474418418
 30
0.0
 10
46.06824663204686
 20
11.13678133531348
 30
0.0
 10
44.78238321128556
 20
11.06891417493496
 30
0.0
  0
SPLINE
  5
92
330
1F
100
AcDbEntity
  8
Default
100
AcDbSpline
210
0.0
220
0.0
230
1.0
 70
     8
 71
     3
 72
    19
 73
    15
 74
     0
 42
0.0000000001
 43
0.0000000001
 40
0.0
 40
0.0
 40
0.0
 40
0.0
 40
1.0
 40
2.0
 40
3.0
 40
4.0
 40
5.0
 40
6.0
 40
7.0
 40
8.0
 40
9.0
 40
10.0
 40
11.0
 40
12.0
 40
12.0
 40
12.0
 40
12.0
 10
44.78238321128556
 20
11.06891417493496
 30
0.0
 10
44.56368697350482
 20
11.05710644738173
 30
0.0
 10
44.12617118784519
 20
11.03580693026876
 30
0.0
 10
43.46967418492117
 20
11.00896609091781
 30
0.0
 10
42.8129452606517
 20
10.98793962181361
 30
0.0
 10
42.15601966825102
 20
10.97639205269618
 30
0.0
 10
41.4988261026721
 20
10.9749922590222
 30
0.0
 10
40.84233917249423
 20
10.99487815791642
 30
0.0
 10
40.18539084301979
 20
11.03927021117845
 30
0.0
 10
39.54377150221968
 20
11.18825139185466
 30
0.0
 10
38.9212185050137
 20
11.40032046562098
 30
0.0
 10
38.32426672036131
 20
11.67719196057417
 30
0.0
 10
37.75954375096156
 20
12.01474526060866
 30
0.0
 10
37.40865778420384
 20
12.27796409565658
 30
0.0
 10
37.24058131752921
 20
12.41838150629003
 30
0.0
  0
SPLINE
  5
93
330
1F
100
AcDbEntity
  8
Default
100
AcDbSpline
210
0.0
220
0.0
230
1.0
 70
     8
 71
     3
 72
    14
 73
    10
 74
     0
 42
0.0000000001
 43
0.0000000001
 40
-16.37408178933761
 40
-16.37408178933761
 40
-16.37408178933761
 40
-16.37408178933761
 40
-14.95710752747041
 40
-13.59285564749454
 40
-11.67916133593988
 40
-9.20366561872866
 40
-4.5321021812345
 40
-1.64651626198485
 40
0.0
 40
0.0
 40
0.0
 40
0.0
 10
37.24058131752921
 20
12.41838150629003
 30
0.0
 10
36.88003154381414
 20
12.72182023114329
 30
0.0
 10
36.21882753914211
 20
13.38123483549849
 30
0.0
 10
35.34266445900114
 20
14.68131181446734
 30
0.0
 10
34.41587231162383
 20
16.3614237854792
 30
0.0
 10
33.17966834449
 20
19.12171310048911
 30
0.0
 10
32.19930763745853
 20
22.32671249142366
 30
0.0
 10
31.54696275648966
 20
25.32472671890472
 30
0.0
 10
31.30698191766254
 20
26.81750400871368
 30
0.0
 10
31.28432808452729
 20
27.36711759669504
 30
0.0
  0
SPLINE
  5
94
330
1F
100
AcDbEntity
  8
Default
100
AcDbSpline
210
0.0
220
0.0
230
1.0
 70
     8
 71
     3
 72
     8
 73
     4
 74
     0
 42
0.0000000001
 43
0.0000000001
 40
0.0
 40
0.0
 40
0.0
 40
0.0
 40
1.0
 40
1.0
 40
1.0
 40
1.0
 10
31.28432808452729
 20
27.36711759669504
 30
0.0
 10
31.27436872363833
 20
27.60874558254201
 30
0.0
 10
31.45661603767199
 20
27.89449228026874
 30
0.0
 10
31.8144064667465
 20
27.83621246715136
 30
0.0
  0
SPLINE
  5
95
330
1F
100
AcDbEntity
  8
Default
100
AcDbSpline
210
0.0
220
0.0
230
1.0
 70
    12
 71
     3
 72
    22
 73
    18
 74
     0
 42
0.0000000001
 43
0.0000000001
 40
0.0
 40
0.0
 40
0.0
 40
0.0
 40
0.5733453317215156
 40
4.879117115964801
 40
9.234147877084636
 40
9.234147877084636
 40
9.234147877084636
 40
14.59274354194941
 40
14.59274354194941
 40
14.59274354194941
 40
15.59274354194941
 40
16.59274354194941
 40
17.59274354194941
 40
18.59274354194941
 40
19.59274354194941
 40
20.59274354194941
 40
21.59274354194941
 40
21.59274354194941
 40
21.59274354194941
 40
21.59274354194941
 10
31.8144064667465
 20
27.83621246715136
 30
0.0
 41
1.0
 10
31.99860005214369
 20
27.80620951888319
 30
0.0
 41
1.0
 10
33.59813553807238
 20
27.60186169520243
 30
0.0
 41
1.0
 10
36.60330925299283
 20
27.21410103424632
 30
0.0
 41
1.0
 10
39.46849505612461
 20
26.86017777231078
 30
0.0
 41
1.0
 10
40.91069259547335
 20
26.69444721292513
 30
0.0
 41
1.0
 10
42.74089060890987
 20
26.47661708906151
 30
0.0
 41
0.9397413184370592
 10
44.31516084239308
 20
25.51810476349808
 30
0.0
 41
0.9397413184370592
 10
45.3489129498425
 20
23.99218630323571
 30
0.0
 41
1.0
 10
45.6141323912655
 20
23.59689482076562
 30
0.0
 41
1.0
 10
46.14683599810908
 20
22.80783399883887
 30
0.0
 41
1.0
 10
46.95259344868813
 20
21.62879296340566
 30
0.0
 41
1.0
 10
47.76518674531384
 20
20.4544598732586
 30
0.0
 41
1.0
 10
48.58347566928629
 20
19.28407045787968
 30
0.0
 41
1.0
 10
49.43747609834915
 20
18.13909904512195
 30
0.0
 41
1.0
 10
50.35135854210563
 20
17.04097182346434
 30
0.0
 41
1.0
 10
51.00694338662395
 20
16.34957882440394
 30
0.0
 41
1.0
 10
51.35464336769307
 20
16.02428611663444
 30
0.0
 41
1.0
  0
SPLINE
  5
96
330
1F
100
AcDbEntity
  8
Default
100
AcDbSpline
210
0.0
220
0.0
230
1.0
 70
     8
 71
     3
 72
     8
 73
     4
 74
     0
 42
0.0000000001
 43
0.0000000001
 40
0.0
 40
0.0
 40
0.0
 40
0.0
 40
0.1503777530867438
 40
0.1503777530867438
 40
0.1503777530867438
 40
0.1503777530867438
 10
51.35464336769307
 20
16.02428611663444
 30
0.0
 10
51.41395906502607
 20
15.9675085642218
 30
0.0
 10
51.47446751762399
 20
15.91179754634819
 30
0.0
 10
51.5361483503646
 20
15.85731834854533
 30
0.0
  0
SPLINE
  5
97
330
1F
100
AcDbEntity
  8
Default
100
AcDbSpline
210
0.0
220
0.0
230
1.0
 70
     8
 71
     3
 72
    11
 73
     7
 74
     0
 42
0.0000000001
 43
0.0000000001
 40
8.578406377677098
 40
8.578406377677098
 40
8.578406377677098
 40
8.578406377677098
 40
9.0
 40
10.0
 40
11.0
 40
12.0
 40
12.0
 40
12.0
 40
12.0
 10
51.53723385930306
 20
15.96134731050671
 30
0.0
 10
51.47252891613978
 20
16.01257710547088
 30
0.0
 10
51.25807084013808
 20
16.19022034874377
 30
0.0
 10
50.90788853171983
 20
16.50987611999151
 30
0.0
 10
50.49176141275125
 20
16.92450553592447
 30
0.0
 10
50.22866327648941
 20
17.21461964397369
 30
0.0
 10
50.10066701531797
 20
17.36273046529067
 30
0.0
  0
SPLINE
  5
98
330
1F
100
AcDbEntity
  8
Default
100
AcDbSpline
210
0.0
220
0.0
230
1.0
 70
     8
 71
     3
 72
     8
 73
     4
 74
     0
 42
0.0000000001
 43
0.0000000001
 40
-0.4393573282153334
 40
-0.4393573282153334
 40
-0.4393573282153334
 40
-0.4393573282153334
 40
0.0
 40
0.0
 40
0.0
 40
0.0
 10
51.54452794051736
 20
16.67093457654199
 30
0.0
 10
51.29288897075452
 20
16.65768095046305
 30
0.0
 10
51.04128304384599
 20
16.64379776666845
 30
0.0
 10
50.78971519377305
 20
16.62945619214955
 30
0.0
  0
SPLINE
  5
99
330
1F
100
AcDbEntity
  8
Default
100
AcDbSpline
210
0.0
220
0.0
230
1.0
 70
     8
 71
     3
 72
     9
 73
     5
 74
     0
 42
0.0000000001
 43
0.0000000001
 40
0.9717550513105664
 40
0.9717550513105664
 40
0.9717550513105664
 40
0.9717550513105664
 40
1.0
 40
2.0
 40
2.0
 40
2.0
 40
2.0
 10
52.64847940645426
 20
15.10179375277292
 30
0.0
 10
52.66235608606954
 20
15.09501483357386
 30
0.0
 10
53.16889327993221
 20
14.8509727805549
 30
0.0
 10
53.72486253815978
 20
14.70818614799744
 30
0.0
 10
54.2719610372957
 20
14.68705397871522
 30
0.0
  0
SPLINE
  5
9A
330
1F
100
AcDbEntity
  8
Default
100
AcDbSpline
210
0.0
220
0.0
230
1.0
 70
     8
 71
     3
 72
     8
 73
     4
 74
     0
 42
0.0000000001
 43
0.0000000001
 40
0.0
 40
0.0
 40
0.0
 40
0.0
 40
1.0
 40
1.0
 40
1.0
 40
1.0
 10
54.2719610372957
 20
14.68705397871522
 30
0.0
 10
55.12796972191789
 20
14.65247284610665
 30
0.0
 10
55.98383876713802
 20
14.7602156219905
 30
0.0
 10
56.83937158615205
 20
14.80505219713879
 30
0.0
  0
SPLINE
  5
9B
330
1F
100
AcDbEntity
  8
Default
100
AcDbSpline
210
0.0
220
0.0
230
1.0
 70
     8
 71
     3
 72
    13
 73
     9
 74
     0
 42
0.0000000001
 43
0.0000000001
 40
0.0
 40
0.0
 40
0.0
 40
0.0
 40
0.286105356394717
 40
0.6323793272272145
 40
1.570242750951684
 40
2.93508711673459
 40
4.89069209457038
 40
5.637536333648707
 40
5.637536333648707
 40
5.637536333648707
 40
5.637536333648707
 10
56.83937158615205
 20
14.80505219713879
 30
0.0
 10
56.84337090103102
 20
14.71062687685984
 30
0.0
 10
56.80512240811898
 20
14.49632817060517
 30
0.0
 10
56.49899654690373
 20
14.06238699753684
 30
0.0
 10
55.7673912212089
 20
13.55069212829065
 30
0.0
 10
54.47260317160209
 20
12.96829425262713
 30
0.0
 10
53.19173942593405
 20
12.51850613830014
 30
0.0
 10
52.32740063521795
 20
12.26449778279339
 30
0.0
 10
52.08762487238749
 20
12.19761072764538
 30
0.0
  0
SPLINE
  5
9C
330
1F
100
AcDbEntity
  8
Make2D visible lines
100
AcDbSpline
210
0.0
220
0.0
230
1.0
 70
    24
 71
     2
 72
     6
 73
     3
 74
     0
 42
0.0000000001
 43
0.0000000001
 40
0.726251811288348
 40
0.726251811288348
 40
0.726251811288348
 40
0.8793882784309069
 40
0.8793882784309069
 40
0.8793882784309069
 10
46.42235966445879
 20
11.18703421826722
 30
0.0
 10
46.36217156066025
 20
11.13960277375771
 30
0.0
 10
46.30198345686171
 20
11.0921713292482
 30
0.0
  0
SPLINE
  5
9D
330
1F
100
AcDbEntity
  8
Make2D visible lines
100
AcDbSpline
210
0.0
220
0.0
230
1.0
 70
    12
 71
     2
 72
     6
 73
     3
 74
     0
 42
0.0000000001
 43
0.0000000001
 40
0.0
 40
0.0
 40
0.0
 40
0.6322790145841365
 40
0.6322790145841365
 40
0.6322790145841365
 10
46.30198345686171
 20
11.0921713292482
 30
0.0
 41
1.0
 10
46.03529946638587
 20
10.88194126350768
 30
0.0
 41
0.8997531621452598
 10
46.03528666561944
 20
10.54240017006401
 30
0.0
 41
1.0
  0
SPLINE
  5
9E
330
1F
100
AcDbEntity
  8
Make2D visible lines
100
AcDbSpline
210
0.0
220
0.0
230
1.0
 70
    24
 71
     2
 72
     6
 73
     3
 74
     0
 42
0.0000000001
 43
0.0000000001
 40
0.0
 40
0.0
 40
0.0
 40
0.3018629644594117
 40
0.3018629644594117
 40
0.3018629644594117
 10
46.03528666561944
 20
10.54240017006401
 30
0.0
 10
46.03528666561944
 20
10.39139384701719
 30
0.0
 10
46.03528666561944
 20
10.24038752397038
 30
0.0
  0
SPLINE
  5
9F
330
1F
100
AcDbEntity
  8
Make2D visible lines
100
AcDbSpline
210
0.0
220
0.0
230
1.0
 70
    24
 71
     2
 72
     6
 73
     3
 74
     0
 42
0.0000000001
 43
0.0000000001
 40
2.467690004424522
 40
2.467690004424522
 40
2.467690004424522
 40
4.033400170063998
 40
4.033400170063998
 40
4.033400170063998
 10
46.03528666561944
 20
8.073486537980253
 30
0.0
 10
46.03528666561944
 20
7.290243268990133
 30
0.0
 10
46.03528666561944
 20
6.507000000000012
 30
0.0
  0
POLYLINE
  5
A0
330
1F
100
AcDbEntity
  8
Make2D visible lines
100
AcDb2dPolyline
 66
     1
 10
0.0
 20
0.0
 30
0.0
  0
VERTEX
  5
A1
330
A0
100
AcDbEntity
  8
Make2D visible lines
100
AcDbVertex
100
AcDb2dVertex
 10
46.03528666561944
 20
6.507000000000012
 30
0.0
  0
VERTEX
  5
A2
330
A0
100
AcDbEntity
  8
Make2D visible lines
100
AcDbVertex
100
AcDb2dVertex
 10
43.45528666561944
 20
6.507000000000012
 30
0.0
  0
SEQEND
  5
A3
330
A0
100
AcDbEntity
  8
Make2D visible lines
  0
LINE
  5
A4
330
1F
100
AcDbEntity
  8
Make2D visible lines
100
AcDbLine
 10
43.45528666561944
 20
6.507000000000012
 30
0.0
 11
43.45528666561944
 21
10.54240017006401
 31
0.0
  0
SPLINE
  5
A5
330
1F
100
AcDbEntity
  8
Make2D visible lines
100
AcDbSpline
210
0.0
220
0.0
230
1.0
 70
    12
 71
     2
 72
     6
 73
     3
 74
     0
 42
0.0000000001
 43
0.0000000001
 40
0.0
 40
0.0
 40
0.0
 40
0.5010668025146542
 40
0.5010668025146542
 40
0.5010668025146542
 10
43.45528666561944
 20
10.54240017006401
 30
0.0
 41
1.0
 10
43.45527061459692
 20
10.80539665236468
 30
0.0
 41
0.9205644365430459
 10
43.28207781840981
 20
11.00335039565502
 30
0.0
 41
0.9670310921638529
  0
SPLINE
  5
A6
330
1F
100
AcDbEntity
  8
Default
100
AcDbSpline
210
0.0
220
0.0
230
1.0
 70
    12
 71
     3
 72
    14
 73
    10
 74
     0
 42
0.0000000001
 43
0.0000000001
 40
-7.851921632594228
 40
-7.851921632594228
 40
-7.851921632594228
 40
-7.851921632594228
 40
-7.223416780340785
 40
-7.223416780340785
 40
-7.223416780340785
 40
-7.182234897653156
 40
-7.182234897653156
 40
-7.182234897653156
 40
0.0
 40
0.0
 40
0.0
 40
0.0
 10
-1.087974965098564
 20
10.44884868170901
 30
0.0
 41
1.108373166011991
 10
-1.087974976881124
 20
10.21610556041002
 30
0.0
 41
0.8657452370177615
 10
-1.225557066866899
 20
10.04284414402172
 30
0.0
 41
0.829620848347081
 10
-1.43039787579814
 20
10.04284794089273
 30
0.0
 41
1.0
 10
-1.444170991176403
 20
10.04268090055419
 30
0.0
 41
0.9932183010949919
 10
-1.457830731021889
 20
10.04447591790557
 30
0.0
 41
0.9932183010949919
 10
-1.47109918660634
 20
10.04819647314525
 30
0.0
 41
1.0
 10
-3.764198876764564
 20
10.73618918902576
 30
0.0
 41
0.9999999997107566
 10
-6.057275352476235
 20
11.4242486427083
 30
0.0
 41
0.9999999997107566
 10
-8.36959752570557
 20
12.11815760052702
 30
0.0
 41
1.0
  0
SPLINE
  5
A7
330
1F
100
AcDbEntity
  8
Default
100
AcDbSpline
210
0.0
220
0.0
230
1.0
 70
     8
 71
     3
 72
    15
 73
    11
 74
     0
 42
0.0000000001
 43
0.0000000001
 40
-4.985347559037918
 40
-4.985347559037918
 40
-4.985347559037918
 40
-4.985347559037918
 40
-4.144504839433057
 40
-3.519413160475471
 40
-3.029507512421486
 40
-2.598100727174707
 40
-2.14945976211948
 40
-1.608302902920508
 40
-0.9168011467460935
 40
0.0
 40
0.0
 40
0.0
 40
0.0
 10
-8.36959752570557
 20
12.11815760052702
 30
0.0
 10
-8.63796658046054
 20
12.19884520687978
 30
0.0
 10
-9.10337868749894
 20
12.34896647745966
 30
0.0
 10
-9.703783760020746
 20
12.60540361662879
 30
0.0
 10
-10.1415504763274
 20
12.88276062913774
 30
0.0
 10
-10.45524394216001
 20
13.22127281169374
 30
0.0
 10
-10.66544254571284
 20
13.65044490752243
 30
0.0
 10
-10.79908163061076
 20
14.19656326678415
 30
0.0
 10
-10.87723585570718
 20
14.90961794479225
 30
0.0
 10
-10.89500067800051
 20
15.44560999231419
 30
0.0
 10
-10.89959272190302
 20
15.75118283601881
 30
0.0
  0
SPLINE
  5
A8
330
1F
100
AcDbEntity
  8
Default
100
AcDbSpline
210
0.0
220
0.0
230
1.0
 70
    12
 71
     3
 72
    14
 73
    10
 74
     0
 42
0.0000000001
 43
0.0000000001
 40
-9.335342694068547
 40
-9.335342694068547
 40
-9.335342694068547
 40
-9.335342694068547
 40
-3.773257194535608
 40
-3.773257194535608
 40
-3.773257194535608
 40
-2.773257194535608
 40
-2.773257194535608
 40
-2.773257194535608
 40
0.0
 40
0.0
 40
0.0
 40
0.0
 10
-10.89959272190302
 20
15.75118283601881
 30
0.0
 41
1.0
 10
-10.92596412764134
 20
17.61846981170457
 30
0.0
 41
0.9999998387315352
 10
-10.95085091483679
 20
19.47233142477224
 30
0.0
 41
0.9999998387315352
 10
-10.97444822186661
 20
21.32620989966851
 30
0.0
 41
1.0
 10
-10.97675638270533
 20
21.50754625682535
 30
0.0
 41
1.0
 10
-10.96614448582388
 20
21.68946093783767
 30
0.0
 41
1.0
 10
-10.94334695547599
 20
21.86937334609071
 30
0.0
 41
1.0
 10
-10.82713630358629
 20
22.78647874860963
 30
0.0
 41
0.9999571404114421
 10
-10.70053399543317
 20
23.70220746963586
 30
0.0
 41
0.9999571404114421
 10
-10.56355630938515
 20
24.61644176590076
 30
0.0
 41
1.0
  0
SPLINE
  5
A9
330
1F
100
AcDbEntity
  8
Make2D visible lines
100
AcDbSpline
210
0.0
220
0.0
230
1.0
 70
    24
 71
     2
 72
     6
 73
     3
 74
     0
 42
0.0000000001
 43
0.0000000001
 40
0.0
 40
0.0
 40
0.0
 40
0.0003850834689041
 40
0.0003850834689041
 40
0.0003850834689041
 10
-10.89978780275879
 20
15.76462114998707
 30
0.0
 10
-10.89978505912628
 20
15.76442862780137
 30
0.0
 10
-10.89978231549377
 20
15.76423610561567
 30
0.0
  0
SPLINE
  5
AA
330
1F
100
AcDbEntity
  8
Default
100
AcDbSpline
210
0.0
220
0.0
230
1.0
 70
    12
 71
     2
 72
     6
 73
     3
 74
     0
 42
0.0000000001
 43
0.0000000001
 40
0.0
 40
0.0
 40
0.0
 40
0.2848297924636928
 40
0.2848297924636928
 40
0.2848297924636928
 10
-1.269417757372509
 20
7.709739291697887
 30
0.0
 41
1.0
 10
-1.32778273475247
 20
7.848723593973444
 30
0.0
 41
0.9191630720278404
 10
-1.472551539644218
 20
7.903851089859234
 30
0.0
 41
1.0
  0
SPLINE
  5
AB
330
1F
100
AcDbEntity
  8
Default
100
AcDbSpline
210
0.0
220
0.0
230
1.0
 70
    12
 71
     2
 72
     6
 73
     3
 74
     0
 42
0.0000000001
 43
0.0000000001
 40
0.0
 40
0.0
 40
0.0
 40
8.55403057480208
 40
8.55403057480208
 40
8.55403057480208
 10
-1.472551539644218
 20
7.903851089859234
 30
0.0
 41
1.0
 10
-5.473122242455539
 20
9.428306444791495
 30
0.0
 41
0.9999999995230491
 10
-9.47308002427927
 20
10.95219539814218
 30
0.0
 41
1.0
  0
SPLINE
  5
AC
330
1F
100
AcDbEntity
  8
Default
100
AcDbSpline
210
0.0
220
0.0
230
1.0
 70
     8
 71
     3
 72
    12
 73
     8
 74
     0
 42
0.0000000001
 43
0.0000000001
 40
0.0
 40
0.0
 40
0.0
 40
0.0
 40
0.6930437478149829
 40
1.32765868136064
 40
2.492549863782481
 40
3.645157442336307
 40
4.986886914207258
 40
4.986886914207258
 40
4.986886914207258
 40
4.986886914207258
 10
-9.47308002427927
 20
10.95219539814218
 30
0.0
 10
-9.691697883740517
 20
11.0352440642686
 30
0.0
 10
-10.09875123338559
 20
11.21467091072427
 30
0.0
 10
-10.81031599211447
 20
11.64226616118724
 30
0.0
 10
-11.53434037217971
 20
12.3345263903745
 30
0.0
 10
-12.0399228728535
 20
13.46584885399771
 30
0.0
 10
-12.13779583903439
 20
14.29784564060567
 30
0.0
 10
-12.15473555885995
 20
14.74857118979213
 30
0.0
  0
SPLINE
  5
AD
330
1F
100
AcDbEntity
  8
Default
100
AcDbSpline
210
0.0
220
0.0
230
1.0
 70
    12
 71
     2
 72
     6
 73
     3
 74
     0
 42
0.0000000001
 43
0.0000000001
 40
0.0
 40
0.0
 40
0.0
 40
6.582689554136967
 40
6.582689554136967
 40
6.582689554136967
 10
-12.15473555885995
 20
14.74857118979213
 30
0.0
 41
1.0
 10
-12.26577399261657
 20
18.04219716040329
 30
0.0
 41
0.999999699257555
 10
-12.38177294557348
 20
21.33149785026954
 30
0.0
 41
1.0
  0
SPLINE
  5
AE
330
1F
100
AcDbEntity
  8
Default
100
AcDbSpline
210
0.0
220
0.0
230
1.0
 70
     8
 71
     3
 72
     8
 73
     4
 74
     0
 42
0.0000000001
 43
0.0000000001
 40
-1.0
 40
-1.0
 40
-1.0
 40
-1.0
 40
0.0
 40
0.0
 40
0.0
 40
0.0
 10
-12.38177294557348
 20
21.33149785026954
 30
0.0
 10
-12.38795514194017
 20
21.50680204272541
 30
0.0
 10
-12.40581252079217
 20
21.68214855950679
 30
0.0
 10
-12.43612224210331
 20
21.8549232689945
 30
0.0
  0
SPLINE
  5
AF
330
1F
100
AcDbEntity
  8
Default
100
AcDbSpline
210
0.0
220
0.0
230
1.0
 70
    12
 71
     2
 72
     6
 73
     3
 74
     0
 42
0.0000000001
 43
0.0000000001
 40
0.0
 40
0.0
 40
0.0
 40
2.806836410498757
 40
2.806836410498757
 40
2.806836410498757
 10
-12.43612224210331
 20
21.8549232689945
 30
0.0
 41
1.0
 10
-12.67862266597285
 20
23.23725007611397
 30
0.0
 41
0.9999805045748583
 10
-12.93836698962393
 20
24.61644068788199
 30
0.0
 41
1.0
  0
LINE
  5
B0
330
1F
100
AcDbEntity
  8
Make2D visible lines
100
AcDbLine
 10
-6.221337710883378
 20
24.77117775706166
 30
0.0
 11
-7.382799490496385
 21
24.61644068788204
 31
0.0
  0
POLYLINE
  5
B1
330
1F
100
AcDbEntity
  8
Make2D visible lines
100
AcDb2dPolyline
 66
     1
 10
0.0
 20
0.0
 30
0.0
  0
VERTEX
  5
B2
330
B1
100
AcDbEntity
  8
Make2D visible lines
100
AcDbVertex
100
AcDb2dVertex
 10
-7.382799490496385
 20
24.61644068788204
 30
0.0
  0
VERTEX
  5
B3
330
B1
100
AcDbEntity
  8
Make2D visible lines
100
AcDbVertex
100
AcDb2dVertex
 10
-20.75779949049634
 20
24.61644068788204
 30
0.0
  0
SEQEND
  5
B4
330
B1
100
AcDbEntity
  8
Make2D visible lines
  0
LINE
  5
B5
330
1F
100
AcDbEntity
  8
Make2D visible lines
100
AcDbLine
 10
-20.75779949049634
 20
24.61644068788204
 30
0.0
 11
-21.91926127010935
 21
24.77117775706167
 31
0.0
  0
POLYLINE
  5
B6
330
1F
100
AcDbEntity
  8
Default
100
AcDb2dPolyline
 66
     1
 10
0.0
 20
0.0
 30
0.0
  0
VERTEX
  5
B7
330
B6
100
AcDbEntity
  8
Default
100
AcDbVertex
100
AcDb2dVertex
 10
-6.221337710883375
 20
24.77117775706164
 30
0.0
  0
VERTEX
  5
B8
330
B6
100
AcDbEntity
  8
Default
100
AcDbVertex
100
AcDb2dVertex
 10
-21.91926127010936
 20
24.77117775706164
 30
0.0
  0
SEQEND
  5
B9
330
B6
100
AcDbEntity
  8
Default
  0
SPLINE
  5
BA
330
1F
100
AcDbEntity
  8
Default
100
AcDbSpline
210
0.0
220
0.0
230
1.0
 70
    12
 71
     2
 72
     6
 73
     3
 74
     0
 42
0.0000000001
 43
0.0000000001
 40
0.0
 40
0.0
 40
0.0
 40
0.0431172320695658
 40
0.0431172320695658
 40
0.0431172320695658
 10
-21.91926127010936
 20
24.77117775706164
 30
0.0
 41
1.0
 10
-21.94521795866801
 20
24.77471811868364
 30
0.0
 41
0.754396026161636
 10
-21.94529949049636
 20
24.80091501151288
 30
0.0
 41
1.0
  0
SPLINE
  5
BB
330
1F
100
AcDbEntity
  8
Default
100
AcDbSpline
210
0.0
220
0.0
230
1.0
 70
    24
 71
     2
 72
     6
 73
     3
 74
     0
 42
0.0000000001
 43
0.0000000001
 40
0.0
 40
0.0
 40
0.0
 40
0.1037317171327032
 40
0.1037317171327032
 40
0.1037317171327032
 10
-21.94529949049636
 20
24.80091501151288
 30
0.0
 10
-21.94529949049636
 20
24.85278087007924
 30
0.0
 10
-21.94529949049636
 20
24.90464672864559
 30
0.0
  0
SPLINE
  5
BC
330
1F
100
AcDbEntity
  8
Default
100
AcDbSpline
210
0.0
220
0.0
230
1.0
 70
    12
 71
     2
 72
     6
 73
     3
 74
     0
 42
0.0000000001
 43
0.0000000001
 40
0.0
 40
0.0
 40
0.0
 40
0.0470942880630165
 40
0.0470942880630165
 40
0.0470942880630165
 10
-21.94529949049636
 20
24.90464672864559
 30
0.0
 41
1.0
 10
-21.94523119159231
 20
24.93457815392553
 30
0.0
 41
0.7087216954127066
 10
-21.915299766943
 20
24.93464672864432
 30
0.0
 41
1.0
  0
POLYLINE
  5
BD
330
1F
100
AcDbEntity
  8
Default
100
AcDb2dPolyline
 66
     1
 10
0.0
 20
0.0
 30
0.0
  0
VERTEX
  5
BE
330
BD
100
AcDbEntity
  8
Default
100
AcDbVertex
100
AcDb2dVertex
 10
-21.915299766943
 20
24.93464672864432
 30
0.0
  0
VERTEX
  5
BF
330
BD
100
AcDbEntity
  8
Default
100
AcDbVertex
100
AcDb2dVertex
 10
-6.225299214049731
 20
24.93464672864431
 30
0.0
  0
SEQEND
  5
C0
330
BD
100
AcDbEntity
  8
Default
  0
SPLINE
  5
C1
330
1F
100
AcDbEntity
  8
Default
100
AcDbSpline
210
0.0
220
0.0
230
1.0
 70
    12
 71
     2
 72
     6
 73
     3
 74
     0
 42
0.0000000001
 43
0.0000000001
 40
0.0
 40
0.0
 40
0.0
 40
0.0470830900804005
 40
0.0470830900804005
 40
0.0470830900804005
 10
-6.225299214049731
 20
24.93464672864431
 30
0.0
 41
1.0
 10
-6.195393855992204
 20
24.93455208757395
 30
0.0
 41
0.709337752437847
 10
-6.195299490496366
 20
24.90464672864558
 30
0.0
 41
1.0
  0
SPLINE
  5
C2
330
1F
100
AcDbEntity
  8
Default
100
AcDbSpline
210
0.0
220
0.0
230
1.0
 70
    24
 71
     2
 72
     6
 73
     3
 74
     0
 42
0.0000000001
 43
0.0000000001
 40
0.0
 40
0.0
 40
0.0
 40
0.1037317171327068
 40
0.1037317171327068
 40
0.1037317171327068
 10
-6.195299490496367
 20
24.9046467286456
 30
0.0
 10
-6.195299490496367
 20
24.85278087007924
 30
0.0
 10
-6.195299490496367
 20
24.80091501151288
 30
0.0
  0
SPLINE
  5
C3
330
1F
100
AcDbEntity
  8
Default
100
AcDbSpline
210
0.0
220
0.0
230
1.0
 70
    12
 71
     2
 72
     6
 73
     3
 74
     0
 42
0.0000000001
 43
0.0000000001
 40
0.0
 40
0.0
 40
0.0
 40
0.0431192810070287
 40
0.0431192810070287
 40
0.0431192810070287
 10
-6.195299490496367
 20
24.80091501151288
 30
0.0
 41
1.0
 10
-6.195376001394783
 20
24.77471372231005
 30
0.0
 41
0.7542698814906877
 10
-6.221337710883375
 20
24.77117775706164
 30
0.0
 41
1.0
  0
SPLINE
  5
C4
330
1F
100
AcDbEntity
  8
Make2D visible lines
100
AcDbSpline
210
0.0
220
0.0
230
1.0
 70
    12
 71
     2
 72
     6
 73
     3
 74
     0
 42
0.0000000001
 43
0.0000000001
 40
0.0
 40
0.0
 40
0.0
 40
0.0232077921390905
 40
0.0232077921390905
 40
0.0232077921390905
 10
0.387824382414756
 20
0.3999999999470365
 30
0.0
 41
1.0
 10
0.4024415566350914
 20
0.3999392744149043
 30
0.0
 41
0.7176120634141828
 10
0.4028184109592292
 20
0.3853268327778507
 30
0.0
 41
1.0
  0
SPLINE
  5
C5
330
1F
100
AcDbEntity
  8
Make2D visible lines
100
AcDbSpline
210
0.0
220
0.0
230
1.0
 70
    12
 71
     2
 72
     6
 73
     3
 74
     0
 42
0.0000000001
 43
0.0000000001
 40
0.0
 40
0.0
 40
0.0
 40
0.0232125536774005
 40
0.0232125536774005
 40
0.0232125536774005
 10
-0.4028183684629205
 20
0.3853269610145591
 30
0.0
 41
1.0
 10
-0.4024518561251791
 20
0.3999502926109969
 30
0.0
 41
0.7170957278319929
 10
-0.3878240166588611
 20
0.3999999999617776
 30
0.0
 41
1.0
  0
SPLINE
  5
C6
330
1F
100
AcDbEntity
  8
Make2D visible lines
100
AcDbSpline
210
0.0
220
0.0
230
1.0
 70
    12
 71
     2
 72
     6
 73
     3
 74
     0
 42
0.0000000001
 43
0.0000000001
 40
0.0
 40
0.0
 40
0.0
 40
0.2259576718196235
 40
0.2259576718196235
 40
0.2259576718196235
 10
-0.4077638519746358
 20
0.1594216323489093
 30
0.0
 41
1.0
 10
-0.4052858574621696
 20
0.2723732898507527
 30
0.0
 41
0.9999999984910576
 10
-0.4028202730270731
 20
0.3853252189294936
 30
0.0
 41
1.0
  0
SPLINE
  5
C7
330
1F
100
AcDbEntity
  8
Make2D visible lines
100
AcDbSpline
210
0.0
220
0.0
230
1.0
 70
    12
 71
     2
 72
     6
 73
     3
 74
     0
 42
0.0000000001
 43
0.0000000001
 40
0.0
 40
0.0
 40
0.0
 40
0.2253642768281202
 40
0.2253642768281202
 40
0.2253642768281202
 10
0.4028202765263416
 20
0.385325058594006
 30
0.0
 41
1.0
 10
0.4052793858273148
 20
0.2726697563467351
 30
0.0
 41
0.9999999984988344
 10
0.4077508406780019
 20
0.1600147242624911
 30
0.0
 41
1.0
  0
SPLINE
  5
C8
330
1F
100
AcDbEntity
  8
Make2D visible lines
100
AcDbSpline
210
0.0
220
0.0
230
1.0
 70
    12
 71
     2
 72
     8
 73
     5
 74
     0
 42
0.0000000001
 43
0.0000000001
 40
0.0
 40
0.0
 40
0.0
 40
0.1242318577480881
 40
0.1242318577480881
 40
0.2484637154961761
 40
0.2484637154961761
 40
0.2484637154961761
 10
0.4077615785408764
 20
0.1594215907425355
 30
0.0
 41
1.0
 10
0.4092011691947805
 20
0.0938162002370285
 30
0.0
 41
0.9217678869813357
 10
0.3633120770131395
 20
0.0469085153295885
 30
0.0
 41
1.0
 10
0.3174229848314968
 20
0.0000008304221485
 30
0.0
 41
0.9217678869813357
 10
0.2518018016362724
 20
0.0000000000011417
 30
0.0
 41
1.0
  0
SPLINE
  5
C9
330
1F
100
AcDbEntity
  8
Make2D visible lines
100
AcDbSpline
210
0.0
220
0.0
230
1.0
 70
    12
 71
     2
 72
     8
 73
     5
 74
     0
 42
0.0000000001
 43
0.0000000001
 40
0.0
 40
0.0
 40
0.0
 40
0.1240063772075993
 40
0.1240063772075993
 40
0.2480127544151987
 40
0.2480127544151987
 40
0.2480127544151987
 10
-0.2518017388402534
 20
0.000000000001096
 30
0.0
 41
1.0
 10
-0.3172916728945204
 20
-0.0000119099018914
 30
0.0
 41
0.9220189045496352
 10
-0.3631586976409586
 20
0.0467336529376692
 30
0.0
 41
1.0
 10
-0.4090257223873984
 20
0.0934792157772298
 30
0.0
 41
0.9220189045496352
 10
-0.4077714300600412
 20
0.1589571384308644
 30
0.0
 41
1.0
  0
SPLINE
  5
CA
330
1F
100
AcDbEntity
  8
Make2D visible lines
100
AcDbSpline
210
0.0
220
0.0
230
1.0
 70
    24
 71
     2
 72
     6
 73
     3
 74
     0
 42
0.0000000001
 43
0.0000000001
 40
0.0
 40
0.0
 40
0.0
 40
0.3863627208447955
 40
0.3863627208447955
 40
0.3863627208447955
 10
0.3863630304177565
 20
0.4000000000000166
 30
0.0
 10
0.1931816699953588
 20
0.4000000000000165
 30
0.0
 10
0.000000309572961
 20
0.4000000000000163
 30
0.0
  0
SPLINE
  5
CB
330
1F
100
AcDbEntity
  8
Make2D visible lines
100
AcDbSpline
210
0.0
220
0.0
230
1.0
 70
    24
 71
     2
 72
     6
 73
     3
 74
     0
 42
0.0000000001
 43
0.0000000001
 40
0.0
 40
0.0
 40
0.0
 40
0.3876534637036499
 40
0.3876534637036499
 40
0.3876534637036499
 10
0.0000000001071356
 20
0.4000000000000163
 30
0.0
 10
-0.1938267317446893
 20
0.4000000000000162
 30
0.0
 10
-0.3876534635965143
 20
0.4000000000000161
 30
0.0
  0
SPLINE
  5
CC
330
1F
100
AcDbEntity
  8
Make2D visible lines
100
AcDbSpline
210
0.0
220
0.0
230
1.0
 70
    24
 71
     2
 72
     6
 73
     3
 74
     0
 42
0.0000000001
 43
0.0000000001
 40
0.0
 40
0.0
 40
0.0
 40
0.2517559204860955
 40
0.2517559204860955
 40
0.2517559204860955
 10
0.0000000024984139
 20
0.0000000000000036
 30
0.0
 10
0.1258779627414617
 20
0.0000000000000036
 30
0.0
 10
0.2517559229845094
 20
0.0000000000000036
 30
0.0
  0
SPLINE
  5
CD
330
1F
100
AcDbEntity
  8
Make2D visible lines
100
AcDbSpline
210
0.0
220
0.0
230
1.0
 70
    24
 71
     3
 72
     9
 73
     5
 74
     0
 42
0.0000000001
 43
0.0000000001
 40
0.0
 40
0.0
 40
0.0
 40
0.0
 40
0.0000682360840525
 40
0.251869451330915
 40
0.251869451330915
 40
0.251869451330915
 40
0.251869451330915
 10
-0.2517329766643961
 20
0.0000000000000036
 30
0.0
 10
-0.2518424566444732
 20
0.0000000000000036
 30
0.0
 10
-0.1678963121528749
 20
0.0000000000000036
 30
0.0
 10
-0.0839308151299303
 20
0.0000000000000036
 30
0.0
 10
0.0000000024984139
 20
0.0000000000000036
 30
0.0
  0
SPLINE
  5
CE
330
1F
100
AcDbEntity
  8
Make2D visible lines
100
AcDbSpline
210
0.0
220
0.0
230
1.0
 70
    12
 71
     2
 72
     8
 73
     5
 74
     0
 42
0.0000000001
 43
0.0000000001
 40
0.0
 40
0.0
 40
0.0
 40
0.0119642320224294
 40
0.0119642320224294
 40
0.0239284640448587
 40
0.0239284640448587
 40
0.0239284640448587
 10
13.2393710710941
 20
0.4000000000000163
 30
0.0
 41
1.0
 10
13.23305024302711
 20
0.4000000000000209
 30
0.0
 41
0.9215246294676533
 10
13.22863568008853
 20
0.3954762292814858
 30
0.0
 41
1.0
 10
13.22422111714996
 20
0.3909524585629509
 30
0.0
 41
0.9215246294676533
 10
13.22437554874736
 20
0.3846335173277264
 30
0.0
 41
1.0
  0
SPLINE
  5
CF
330
1F
100
AcDbEntity
  8
Make2D visible lines
100
AcDbSpline
210
0.0
220
0.0
230
1.0
 70
    24
 71
     2
 72
     6
 73
     3
 74
     0
 42
0.0000000001
 43
0.0000000001
 40
0.0
 40
0.0
 40
0.0
 40
1.379419120443295
 40
1.379419120443295
 40
1.379419120443295
 10
14.6218275979219
 20
0.4000000000000163
 30
0.0
 10
13.93211803770025
 20
0.4000000000000162
 30
0.0
 10
13.24240847747861
 20
0.4000000000000161
 30
0.0
  0
SPLINE
  5
D0
330
1F
100
AcDbEntity
  8
Make2D visible lines
100
AcDbSpline
210
0.0
220
0.0
230
1.0
 70
    12
 71
     2
 72
     6
 73
     3
 74
     0
 42
0.0000000001
 43
0.0000000001
 40
0.0
 40
0.0
 40
0.0
 40
0.0224671519842366
 40
0.0224671519842366
 40
0.0224671519842366
 10
14.63678766326983
 20
0.3860938211857499
 30
0.0
 41
1.0
 10
14.6357708981257
 20
0.4000000000000348
 30
0.0
 41
0.7324347794791691
 10
14.6218275979219
 20
0.4000000000000183
 30
0.0
 41
1.0
  0
SPLINE
  5
D1
330
1F
100
AcDbEntity
  8
Make2D visible lines
100
AcDbSpline
210
0.0
220
0.0
230
1.0
 70
    24
 71
     2
 72
     6
 73
     3
 74
     0
 42
0.0000000001
 43
0.0000000001
 40
0.0
 40
0.0
 40
0.0
 40
0.2213623405233084
 40
0.2213623405233084
 40
0.2213623405233084
 10
14.63680347298028
 20
0.3858503918134666
 30
0.0
 10
14.64307829705319
 20
0.2753472333366913
 30
0.0
 10
14.6493531211261
 20
0.164844074859916
 30
0.0
  0
SPLINE
  5
D2
330
1F
100
AcDbEntity
  8
Make2D visible lines
100
AcDbSpline
210
0.0
220
0.0
230
1.0
 70
    24
 71
     2
 72
     6
 73
     3
 74
     0
 42
0.0000000001
 43
0.0000000001
 40
0.0
 40
0.0
 40
0.0
 40
0.2325105046476637
 40
0.2325105046476637
 40
0.2325105046476637
 10
13.23005628681928
 20
0.1521924194416825
 30
0.0
 10
13.22721591778332
 20
0.2684129683847045
 30
0.0
 10
13.22437554874736
 20
0.3846335173277264
 30
0.0
  0
SPLINE
  5
D3
330
1F
100
AcDbEntity
  8
Make2D visible lines
100
AcDbSpline
210
0.0
220
0.0
230
1.0
 70
    12
 71
     2
 72
     6
 73
     3
 74
     0
 42
0.0000000001
 43
0.0000000001
 40
0.0
 40
0.0
 40
0.0
 40
0.2412324278936833
 40
0.2412324278936833
 40
0.2412324278936833
 10
13.23005638064813
 20
0.1521885802082181
 30
0.0
 41
1.0
 10
13.23377578943406
 20
-0.0000000000000105
 30
0.0
 41
0.7156927337036098
 10
13.386009813054
 20
0.0000000000000034
 30
0.0
 41
1.0
  0
SPLINE
  5
D4
330
1F
100
AcDbEntity
  8
Make2D visible lines
100
AcDbSpline
210
0.0
220
0.0
230
1.0
 70
    12
 71
     2
 72
     8
 73
     5
 74
     0
 42
0.0000000001
 43
0.0000000001
 40
0.0
 40
0.0
 40
0.0
 40
0.1269465231438366
 40
0.1269465231438366
 40
0.2538930462876731
 40
0.2538930462876731
 40
0.2538930462876731
 10
14.49360402051909
 20
0.0000000000000036
 30
0.0
 41
1.0
 10
14.56082858485446
 20
0.000000000000002
 30
0.0
 41
0.918360064844369
 10
14.60699642696272
 20
0.0488638148853193
 30
0.0
 41
1.0
 10
14.65316426907099
 20
0.0977276297706366
 30
0.0
 41
0.918360064844369
 10
14.6493531211261
 20
0.1648440748599159
 30
0.0
 41
1.0
  0
SPLINE
  5
D5
330
1F
100
AcDbEntity
  8
Make2D visible lines
100
AcDbSpline
210
0.0
220
0.0
230
1.0
 70
    24
 71
     2
 72
     6
 73
     3
 74
     0
 42
0.0000000001
 43
0.0000000001
 40
0.0
 40
0.0
 40
0.0
 40
1.107594207465098
 40
1.107594207465098
 40
1.107594207465098
 10
13.386009813054
 20
0.0000000000000036
 30
0.0
 10
13.93980691678655
 20
0.0000000000000036
 30
0.0
 10
14.4936040205191
 20
0.0000000000000036
 30
0.0
  0
SPLINE
  5
D6
330
1F
100
AcDbEntity
  8
Make2D visible lines
100
AcDbSpline
210
0.0
220
0.0
230
1.0
 70
    24
 71
     2
 72
     6
 73
     3
 74
     0
 42
0.0000000001
 43
0.0000000001
 40
0.0
 40
0.0
 40
0.0
 40
0.0400060931217547
 40
0.0400060931217547
 40
0.0400060931217547
 10
1.200000000000291
 20
6.503000000000021
 30
0.0
 10
1.200349101298833
 20
6.483000000000022
 30
0.0
 10
1.200698202597376
 20
6.463000000000022
 30
0.0
  0
SPLINE
  5
D7
330
1F
100
AcDbEntity
  8
Make2D visible lines
100
AcDbSpline
210
0.0
220
0.0
230
1.0
 70
    24
 71
     2
 72
     6
 73
     3
 74
     0
 42
0.0000000001
 43
0.0000000001
 40
0.0
 40
0.0
 40
0.0
 40
0.0400060931217547
 40
0.0400060931217547
 40
0.0400060931217547
 10
-1.200698202597376
 20
6.463000000000022
 30
0.0
 10
-1.200349101298833
 20
6.483000000000022
 30
0.0
 10
-1.200000000000291
 20
6.503000000000021
 30
0.0
  0
SPLINE
  5
D8
330
1F
100
AcDbEntity
  8
Make2D visible lines - Tangent
100
AcDbSpline
210
0.0
220
0.0
230
1.0
 70
     8
 71
     3
 72
    54
 73
    50
 74
     0
 42
0.0000000001
 43
0.0000000001
 40
0.0
 40
0.0
 40
0.0
 40
0.0
 40
1.0
 40
2.0
 40
3.0
 40
4.0
 40
5.0
 40
6.0
 40
7.0
 40
8.0
 40
9.0
 40
10.0
 40
11.0
 40
12.0
 40
13.0
 40
14.0
 40
15.0
 40
16.0
 40
17.0
 40
18.0
 40
19.0
 40
20.0
 40
21.0
 40
22.0
 40
23.0
 40
24.0
 40
25.0
 40
26.0
 40
27.0
 40
28.0
 40
29.0
 40
30.0
 40
31.0
 40
32.0
 40
33.0
 40
34.0
 40
35.0
 40
36.0
 40
37.0
 40
38.0
 40
39.0
 40
40.0
 40
41.0
 40
42.0
 40
43.0
 40
44.0
 40
45.0
 40
46.0
 40
47.0
 40
47.0
 40
47.0
 40
47.0
 10
0.3855740390831688
 20
0.403329261439214
 30
0.0
 10
0.4108443184297055
 20
0.471691761030031
 30
0.0
 10
0.3928072028035972
 20
0.6333535261625483
 30
0.0
 10
0.3935782650521504
 20
0.8657327374605353
 30
0.0
 10
0.3870006279260478
 20
1.100824691898526
 30
0.0
 10
0.3822066441073212
 20
1.335184942048012
 30
0.0
 10
0.376920272973096
 20
1.569741898107297
 30
0.0
 10
0.3718097485976801
 20
1.804245165096962
 30
0.0
 10
0.367174730584694
 20
2.038780643129261
 30
0.0
 10
0.3618448482067402
 20
2.27327054669982
 30
0.0
 10
0.3611580137755363
 20
2.50795635439968
 30
0.0
 10
0.376405087015441
 20
2.742035110000107
 30
0.0
 10
0.4015745886429593
 20
2.975291767990851
 30
0.0
 10
0.4262016875861679
 20
3.208581524431251
 30
0.0
 10
0.4504341677925552
 20
3.44180444554645
 30
0.0
 10
0.4809936146595975
 20
3.674811437325082
 30
0.0
 10
0.4873166989861086
 20
3.908675454710889
 30
0.0
 10
0.4727636425388441
 20
4.14316108458999
 30
0.0
 10
0.4622226586758619
 20
4.377402299909646
 30
0.0
 10
0.4518601668513925
 20
4.611784456659724
 30
0.0
 10
0.4397540674726934
 20
4.845964675118837
 30
0.0
 10
0.4280040588748157
 20
5.080512320442788
 30
0.0
 10
0.3896612062822467
 20
5.312100872344999
 30
0.0
 10
0.306364448569322
 20
5.534912960303022
 30
0.0
 10
0.1261550709227438
 20
5.701053020982688
 30
0.0
 10
-0.1290546863127963
 20
5.700046595423096
 30
0.0
 10
-0.3077404613287302
 20
5.532266007601516
 30
0.0
 10
-0.3903756862898934
 20
5.309372210240867
 30
0.0
 10
-0.428217084476282
 20
5.077673675160892
 30
0.0
 10
-0.4399213569507985
 20
4.843140061617282
 30
0.0
 10
-0.4519516521145414
 20
4.608952622806954
 30
0.0
 10
-0.4623969074537961
 20
4.374572197465292
 30
0.0
 10
-0.4728055676319354
 20
4.140337130437424
 30
0.0
 10
-0.4877548161439153
 20
3.905822607503123
 30
0.0
 10
-0.4799307177377822
 20
3.67206586450394
 30
0.0
 10
-0.4495990074442647
 20
3.439049497872843
 30
0.0
 10
-0.4259535830247766
 20
3.205758678338231
 30
0.0
 10
-0.4019566833489902
 20
2.972405099167784
 30
0.0
 10
-0.3765750867231028
 20
2.739167888374083
 30
0.0
 10
-0.3609890257158116
 20
2.505129568181835
 30
0.0
 10
-0.362012857282243
 20
2.270431807711549
 30
0.0
 10
-0.3671657716880983
 20
2.035943620623493
 30
0.0
 10
-0.3719076450540077
 20
1.801408320125761
 30
0.0
 10
-0.3770801101951297
 20
1.566909832637999
 30
0.0
 10
-0.3824214895384378
 20
1.332342661516703
 30
0.0
 10
-0.386847357623071
 20
1.098016778736779
 30
0.0
 10
-0.39383727168959
 20
0.8627750502036662
 30
0.0
 10
-0.3921473528078007
 20
0.6309690073439601
 30
0.0
 10
-0.412459675750142
 20
0.4678802044313225
 30
0.0
 10
-0.3829938551656991
 20
0.4021512543515627
 30
0.0
  0
SPLINE
  5
D9
330
1F
100
AcDbEntity
  8
Make2D visible lines
100
AcDbSpline
210
0.0
220
0.0
230
1.0
 70
    12
 71
     2
 72
     6
 73
     3
 74
     0
 42
0.0000000001
 43
0.0000000001
 40
-0.0371380794388858
 40
-0.0371380794388858
 40
-0.0371380794388858
 40
0.0
 40
0.0
 40
0.0
 10
14.61564357989874
 20
0.4022441987256987
 30
0.0
 41
1.0
 10
14.63541548501586
 20
0.4103542426935238
 30
0.0
 41
0.8144776561050845
 10
14.63421101299304
 20
0.4316908378358253
 30
0.0
 41
1.0
  0
SPLINE
  5
DA
330
1F
100
AcDbEntity
  8
Make2D visible lines
100
AcDbSpline
210
0.0
220
0.0
230
1.0
 70
     8
 71
     3
 72
    12
 73
     8
 74
     0
 42
0.0000000001
 43
0.0000000001
 40
0.0
 40
0.0
 40
0.0
 40
0.0
 40
2.024931116884056
 40
2.121300252943487
 40
2.208073208949396
 40
2.641991453438839
 40
3.085460819895622
 40
3.085460819895622
 40
3.085460819895622
 40
3.085460819895622
 10
14.63421101299304
 20
0.4316908378358253
 30
0.0
 10
14.59550714099262
 20
1.105574847750693
 30
0.0
 10
14.55720448132851
 20
1.811593362411049
 30
0.0
 10
14.51438251453219
 20
2.546414843142783
 30
0.0
 10
14.46954829569635
 20
2.747953191239763
 30
0.0
 10
14.30098962010137
 20
3.034556781920432
 30
0.0
 10
14.03032427358681
 20
3.175838551528641
 30
0.0
 10
13.88599999999995
 20
3.205665827232744
 30
0.0
  0
SPLINE
  5
DB
330
1F
100
AcDbEntity
  8
Make2D visible lines
100
AcDbSpline
210
0.0
220
0.0
230
1.0
 70
    24
 71
     2
 72
     6
 73
     3
 74
     0
 42
0.0000000001
 43
0.0000000001
 40
-12.2902709571203
 40
-12.2902709571203
 40
-12.2902709571203
 40
0.0
 40
0.0
 40
0.0
 10
13.88599999999995
 20
3.205665827232744
 30
0.0
 10
7.867999999999946
 20
4.449195501128249
 30
0.0
 10
1.849999999999945
 20
5.692725175023753
 30
0.0
  0
SPLINE
  5
DC
330
1F
100
AcDbEntity
  8
Make2D visible lines
100
AcDbSpline
210
0.0
220
0.0
230
1.0
 70
    12
 71
     3
 72
    11
 73
     7
 74
     0
 42
0.0000000001
 43
0.0000000001
 40
0.0
 40
0.0
 40
0.0
 40
0.0
 40
0.2500000000000077
 40
0.500000000000056
 40
0.7500000000001044
 40
0.9903549301730069
 40
0.9903549301730069
 40
0.9903549301730069
 40
0.9903549301730069
 10
1.849999999999945
 20
5.692725175023753
 30
0.0
 41
1.0
 10
1.777532259027804
 20
5.707699549616471
 30
0.0
 41
1.0
 10
1.635884798350073
 20
5.771964450750453
 30
0.0
 41
1.0
 10
1.455036746425176
 20
5.941965920377697
 30
0.0
 41
1.0
 10
1.329210131423126
 20
6.15347175039408
 30
0.0
 41
1.0
 10
1.294052314614946
 20
6.303120864095799
 30
0.0
 41
1.0
 10
1.291507112319829
 20
6.378712134379271
 30
0.0
 41
1.0
  0
SPLINE
  5
DD
330
1F
100
AcDbEntity
  8
Make2D visible lines
100
AcDbSpline
210
0.0
220
0.0
230
1.0
 70
    24
 71
     2
 72
     6
 73
     3
 74
     0
 42
0.0000000001
 43
0.0000000001
 40
0.0
 40
0.0
 40
0.0
 40
0.080013140622857
 40
0.080013140622857
 40
0.080013140622857
 10
1.291507112319829
 20
6.378712134379271
 30
0.0
 10
1.290753556159937
 20
6.420856067189643
 30
0.0
 10
1.290000000000045
 20
6.463000000000015
 30
0.0
  0
SPLINE
  5
DE
330
1F
100
AcDbEntity
  8
Make2D visible lines
100
AcDbSpline
210
0.0
220
0.0
230
1.0
 70
    24
 71
     2
 72
     6
 73
     3
 74
     0
 42
0.0000000001
 43
0.0000000001
 40
0.0
 40
0.0
 40
0.0
 40
1.290000000000045
 40
1.290000000000045
 40
1.290000000000045
 10
1.290000000000045
 20
6.463000000000015
 30
0.0
 10
0.6450000000000227
 20
6.463000000000015
 30
0.0
 10
0.0
 20
6.463000000000015
 30
0.0
  0
SPLINE
  5
DF
330
1F
100
AcDbEntity
  8
Make2D visible lines
100
AcDbSpline
210
0.0
220
0.0
230
1.0
 70
    24
 71
     2
 72
     6
 73
     3
 74
     0
 42
0.0000000001
 43
0.0000000001
 40
0.0
 40
0.0
 40
0.0
 40
1.289412297652113
 40
1.289412297652113
 40
1.289412297652113
 10
0.0
 20
6.463000000000015
 30
0.0
 10
-0.6448530744130396
 20
6.463000000000015
 30
0.0
 10
-1.289706148826079
 20
6.463000000000015
 30
0.0
  0
SPLINE
  5
E0
330
1F
100
AcDbEntity
  8
Make2D visible lines
100
AcDbSpline
210
0.0
220
0.0
230
1.0
 70
    24
 71
     2
 72
     6
 73
     3
 74
     0
 42
0.0000000001
 43
0.0000000001
 40
-0.080013140622857
 40
-0.080013140622857
 40
-0.080013140622857
 40
0.0
 40
0.0
 40
0.0
 10
-1.289706148826079
 20
6.463000000000015
 30
0.0
 10
-1.290606630572954
 20
6.420856067189643
 30
0.0
 10
-1.291507112319829
 20
6.378712134379271
 30
0.0
  0
SPLINE
  5
E1
330
1F
100
AcDbEntity
  8
Make2D visible lines
100
AcDbSpline
210
0.0
220
0.0
230
1.0
 70
    12
 71
     3
 72
    11
 73
     7
 74
     0
 42
0.0000000001
 43
0.0000000001
 40
-0.9903549301730069
 40
-0.9903549301730069
 40
-0.9903549301730069
 40
-0.9903549301730069
 40
-0.7500000000001044
 40
-0.500000000000056
 40
-0.2500000000000077
 40
0.0
 40
0.0
 40
0.0
 40
0.0
 10
-1.291507112319829
 20
6.378712134379271
 30
0.0
 41
1.0
 10
-1.294052314614946
 20
6.303120864095799
 30
0.0
 41
1.0
 10
-1.329210131423126
 20
6.15347175039408
 30
0.0
 41
1.0
 10
-1.455036746425176
 20
5.941965920377697
 30
0.0
 41
1.0
 10
-1.635884798350073
 20
5.771964450750453
 30
0.0
 41
1.0
 10
-1.777532259027804
 20
5.707699549616471
 30
0.0
 41
1.0
 10
-1.849999999999945
 20
5.692725175023753
 30
0.0
 41
1.0
  0
SPLINE
  5
E2
330
1F
100
AcDbEntity
  8
Make2D visible lines
100
AcDbSpline
210
0.0
220
0.0
230
1.0
 70
    24
 71
     2
 72
     6
 73
     3
 74
     0
 42
0.0000000001
 43
0.0000000001
 40
0.0
 40
0.0
 40
0.0
 40
12.2902709571203
 40
12.2902709571203
 40
12.2902709571203
 10
-1.849999999999945
 20
5.692725175023753
 30
0.0
 10
-7.867999999999946
 20
4.449195501128249
 30
0.0
 10
-13.88599999999995
 20
3.205665827232744
 30
0.0
  0
SPLINE
  5
E3
330
1F
100
AcDbEntity
  8
Make2D visible lines
100
AcDbSpline
210
0.0
220
0.0
230
1.0
 70
     8
 71
     3
 72
    12
 73
     8
 74
     0
 42
0.0000000001
 43
0.0000000001
 40
-3.085460819895622
 40
-3.085460819895622
 40
-3.085460819895622
 40
-3.085460819895622
 40
-2.641991453438839
 40
-2.208073208949396
 40
-2.121300252943487
 40
-2.024931116884056
 40
0.0
 40
0.0
 40
0.0
 40
0.0
 10
-13.88599999999995
 20
3.205665827232744
 30
0.0
 10
-14.03032427358681
 20
3.175838551528641
 30
0.0
 10
-14.30098962010137
 20
3.034556781920432
 30
0.0
 10
-14.46954829569635
 20
2.747953191239763
 30
0.0
 10
-14.51438251453219
 20
2.546414843142783
 30
0.0
 10
-14.55720448132851
 20
1.811593362411049
 30
0.0
 10
-14.59550714099262
 20
1.105574847750693
 30
0.0
 10
-14.63421101299304
 20
0.4316908378358253
 30
0.0
  0
SPLINE
  5
E4
330
1F
100
AcDbEntity
  8
Make2D visible lines
100
AcDbSpline
210
0.0
220
0.0
230
1.0
 70
    12
 71
     2
 72
     6
 73
     3
 74
     0
 42
0.0000000001
 43
0.0000000001
 40
0.0
 40
0.0
 40
0.0
 40
0.0371380794388858
 40
0.0371380794388858
 40
0.0371380794388858
 10
-14.63421101299304
 20
0.4316908378358253
 30
0.0
 41
1.0
 10
-14.63541548501586
 20
0.4103542426935238
 30
0.0
 41
0.8144776561050845
 10
-14.61564357989874
 20
0.4022441987256987
 30
0.0
 41
1.0
  0
SPLINE
  5
E5
330
1F
100
AcDbEntity
  8
Make2D visible lines
100
AcDbSpline
210
0.0
220
0.0
230
1.0
 70
    12
 71
     2
 72
     8
 73
     5
 74
     0
 42
0.0000000001
 43
0.0000000001
 40
0.0
 40
0.0
 40
0.0
 40
0.0119642320224294
 40
0.0119642320224294
 40
0.0239284640448587
 40
0.0239284640448587
 40
0.0239284640448587
 10
-13.2393710710941
 20
0.4000000000000163
 30
0.0
 41
1.0
 10
-13.23305024302711
 20
0.4000000000000209
 30
0.0
 41
0.9215246294676533
 10
-13.22863568008853
 20
0.3954762292814858
 30
0.0
 41
1.0
 10
-13.22422111714996
 20
0.3909524585629509
 30
0.0
 41
0.9215246294676533
 10
-13.22437554874736
 20
0.3846335173277264
 30
0.0
 41
1.0
  0
SPLINE
  5
E6
330
1F
100
AcDbEntity
  8
Make2D visible lines
100
AcDbSpline
210
0.0
220
0.0
230
1.0
 70
    24
 71
     2
 72
     6
 73
     3
 74
     0
 42
0.0000000001
 43
0.0000000001
 40
0.0
 40
0.0
 40
0.0
 40
1.379419120443295
 40
1.379419120443295
 40
1.379419120443295
 10
-14.6218275979219
 20
0.4000000000000163
 30
0.0
 10
-13.93211803770025
 20
0.4000000000000162
 30
0.0
 10
-13.24240847747861
 20
0.4000000000000161
 30
0.0
  0
SPLINE
  5
E7
330
1F
100
AcDbEntity
  8
Make2D visible lines
100
AcDbSpline
210
0.0
220
0.0
230
1.0
 70
    12
 71
     2
 72
     6
 73
     3
 74
     0
 42
0.0000000001
 43
0.0000000001
 40
0.0
 40
0.0
 40
0.0
 40
0.0224671519842366
 40
0.0224671519842366
 40
0.0224671519842366
 10
-14.63678766326983
 20
0.3860938211857499
 30
0.0
 41
1.0
 10
-14.6357708981257
 20
0.4000000000000348
 30
0.0
 41
0.7324347794791691
 10
-14.6218275979219
 20
0.4000000000000183
 30
0.0
 41
1.0
  0
SPLINE
  5
E8
330
1F
100
AcDbEntity
  8
Make2D visible lines
100
AcDbSpline
210
0.0
220
0.0
230
1.0
 70
    24
 71
     2
 72
     6
 73
     3
 74
     0
 42
0.0000000001
 43
0.0000000001
 40
0.0
 40
0.0
 40
0.0
 40
0.2213623405233084
 40
0.2213623405233084
 40
0.2213623405233084
 10
-14.63680347298028
 20
0.3858503918134666
 30
0.0
 10
-14.64307829705319
 20
0.2753472333366913
 30
0.0
 10
-14.6493531211261
 20
0.164844074859916
 30
0.0
  0
SPLINE
  5
E9
330
1F
100
AcDbEntity
  8
Make2D visible lines
100
AcDbSpline
210
0.0
220
0.0
230
1.0
 70
    24
 71
     2
 72
     6
 73
     3
 74
     0
 42
0.0000000001
 43
0.0000000001
 40
0.0
 40
0.0
 40
0.0
 40
0.2325105046476637
 40
0.2325105046476637
 40
0.2325105046476637
 10
-13.23005628681928
 20
0.1521924194416825
 30
0.0
 10
-13.22721591778332
 20
0.2684129683847045
 30
0.0
 10
-13.22437554874736
 20
0.3846335173277264
 30
0.0
  0
SPLINE
  5
EA
330
1F
100
AcDbEntity
  8
Make2D visible lines
100
AcDbSpline
210
0.0
220
0.0
230
1.0
 70
    12
 71
     2
 72
     6
 73
     3
 74
     0
 42
0.0000000001
 43
0.0000000001
 40
0.0
 40
0.0
 40
0.0
 40
0.2412324278936833
 40
0.2412324278936833
 40
0.2412324278936833
 10
-13.23005638064813
 20
0.1521885802082181
 30
0.0
 41
1.0
 10
-13.23377578943406
 20
-0.0000000000000105
 30
0.0
 41
0.7156927337036098
 10
-13.386009813054
 20
0.0000000000000034
 30
0.0
 41
1.0
  0
SPLINE
  5
EB
330
1F
100
AcDbEntity
  8
Make2D visible lines
100
AcDbSpline
210
0.0
220
0.0
230
1.0
 70
    12
 71
     2
 72
     8
 73
     5
 74
     0
 42
0.0000000001
 43
0.0000000001
 40
0.0
 40
0.0
 40
0.0
 40
0.1269465231438366
 40
0.1269465231438366
 40
0.2538930462876731
 40
0.2538930462876731
 40
0.2538930462876731
 10
-14.49360402051909
 20
0.0000000000000036
 30
0.0
 41
1.0
 10
-14.56082858485446
 20
0.000000000000002
 30
0.0
 41
0.918360064844369
 10
-14.60699642696272
 20
0.0488638148853193
 30
0.0
 41
1.0
 10
-14.65316426907099
 20
0.0977276297706366
 30
0.0
 41
0.918360064844369
 10
-14.6493531211261
 20
0.1648440748599159
 30
0.0
 41
1.0
  0
SPLINE
  5
EC
330
1F
100
AcDbEntity
  8
Make2D visible lines
100
AcDbSpline
210
0.0
220
0.0
230
1.0
 70
    24
 71
     2
 72
     6
 73
     3
 74
     0
 42
0.0000000001
 43
0.0000000001
 40
0.0
 40
0.0
 40
0.0
 40
1.107594207465098
 40
1.107594207465098
 40
1.107594207465098
 10
-13.386009813054
 20
0.0000000000000036
 30
0.0
 10
-13.93980691678655
 20
0.0000000000000036
 30
0.0
 10
-14.4936040205191
 20
0.0000000000000036
 30
0.0
  0
SPLINE
  5
ED
330
1F
100
AcDbEntity
  8
Make2D visible lines
100
AcDbSpline
210
0.0
220
0.0
230
1.0
 70
    12
 71
     2
 72
     6
 73
     3
 74
     0
 42
0.0000000001
 43
0.0000000001
 40
-0.0352706514985427
 40
-0.0352706514985427
 40
-0.0352706514985427
 40
0.0
 40
0.0
 40
0.0
 10
13.24240847747864
 20
0.4020374895150737
 30
0.0
 41
1.0
 10
13.22377320145242
 20
0.4092798636229074
 30
0.0
 41
0.8321381552760684
 10
13.22328472354927
 20
0.429267031622143
 30
0.0
 41
1.0
  0
SPLINE
  5
EE
330
1F
100
AcDbEntity
  8
Make2D visible lines
100
AcDbSpline
210
0.0
220
0.0
230
1.0
 70
    12
 71
     2
 72
     6
 73
     3
 74
     0
 42
0.0000000001
 43
0.0000000001
 40
-0.0352706514985427
 40
-0.0352706514985427
 40
-0.0352706514985427
 40
0.0
 40
0.0
 40
0.0
 10
-13.24240847747864
 20
0.4020374895150737
 30
0.0
 41
1.0
 10
-13.22377320145242
 20
0.4092798636229074
 30
0.0
 41
0.8321381552760684
 10
-13.22328472354927
 20
0.429267031622143
 30
0.0
 41
1.0
  0
SPLINE
  5
EF
330
1F
100
AcDbEntity
  8
Make2D visible lines
100
AcDbSpline
210
0.0
220
0.0
230
1.0
 70
     8
 71
     3
 72
    13
 73
     9
 74
     0
 42
0.0000000001
 43
0.0000000001
 40
-1.83258135608072
 40
-1.83258135608072
 40
-1.83258135608072
 40
-1.83258135608072
 40
-0.750510233115731
 40
-0.5672189493277444
 40
-0.4828690280123605
 40
-0.2443108918713642
 40
-0.1163337939371243
 40
0.0
 40
0.0
 40
0.0
 40
0.0
 10
-13.22328472354927
 20
0.429267031622143
 30
0.0
 10
-13.21533440039329
 20
0.7898405850234216
 30
0.0
 10
-13.2025091665798
 20
1.211528658082631
 30
0.0
 10
-13.19443594558863
 20
1.661268225296924
 30
0.0
 10
-13.18338032673707
 20
1.830020096093349
 30
0.0
 10
-13.10099654582271
 20
1.966768126584214
 30
0.0
 10
-12.96861491757254
 20
2.057218183732865
 30
0.0
 10
-12.88767892357314
 20
2.080693221901958
 30
0.0
 10
-12.85000000000006
 20
2.086000769603414
 30
0.0
  0
SPLINE
  5
F0
330
1F
100
AcDbEntity
  8
Make2D visible lines
100
AcDbSpline
210
0.0
220
0.0
230
1.0
 70
    24
 71
     2
 72
     6
 73
     3
 74
     0
 42
0.0000000001
 43
0.0000000001
 40
-10.36850216633574
 40
-10.36850216633574
 40
-10.36850216633574
 40
0.0
 40
0.0
 40
0.0
 10
-12.85000000000006
 20
2.086000769603414
 30
0.0
 10
-7.715000000000055
 20
2.798906298637399
 30
0.0
 10
-2.580000000000052
 20
3.511811827671384
 30
0.0
  0
SPLINE
  5
F1
330
1F
100
AcDbEntity
  8
Make2D visible lines
100
AcDbSpline
210
0.0
220
0.0
230
1.0
 70
    12
 71
     3
 72
     8
 73
     4
 74
     0
 42
0.0000000001
 43
0.0000000001
 40
0.0
 40
0.0
 40
0.0
 40
0.0
 40
0.9983344876344831
 40
0.9983344876344831
 40
0.9983344876344831
 40
0.9983344876344831
 10
-2.580000000000052
 20
3.511811827671384
 30
0.0
 41
1.0
 10
-2.129148709429085
 20
3.574404695741988
 30
0.0
 41
1.0
 10
-1.676765933652849
 20
3.64333701932616
 30
0.0
 41
1.0
 10
-1.222103194883235
 20
3.65726383948913
 30
0.0
 41
1.0
  0
SPLINE
  5
F2
330
1F
100
AcDbEntity
  8
Make2D visible lines
100
AcDbSpline
210
0.0
220
0.0
230
1.0
 70
     8
 71
     3
 72
     8
 73
     4
 74
     0
 42
0.0000000001
 43
0.0000000001
 40
0.0
 40
0.0
 40
0.0
 40
0.0
 40
0.3051876163662417
 40
0.3051876163662417
 40
0.3051876163662417
 40
0.3051876163662417
 10
-1.222103194883235
 20
3.65726383948913
 30
0.0
 10
-0.9735725872496357
 20
3.664876605573444
 30
0.0
 10
-0.7249352557815157
 20
3.670166049722532
 30
0.0
 10
-0.4762563420642089
 20
3.673132171936395
 30
0.0
  0
SPLINE
  5
F3
330
1F
100
AcDbEntity
  8
Make2D visible lines
100
AcDbSpline
210
0.0
220
0.0
230
1.0
 70
     8
 71
     3
 72
     8
 73
     4
 74
     0
 42
0.0000000001
 43
0.0000000001
 40
0.6950384688492743
 40
0.6950384688492743
 40
0.6950384688492743
 40
0.6950384688492743
 40
1.0
 40
1.0
 40
1.0
 40
1.0
 10
0.4768090114631614
 20
3.673125576136301
 30
0.0
 10
0.7253036404257046
 20
3.670158211529776
 30
0.0
 10
0.9737567005392187
 20
3.664870965980719
 30
0.0
 10
1.222103194883235
 20
3.65726383948913
 30
0.0
  0
SPLINE
  5
F4
330
1F
100
AcDbEntity
  8
Make2D visible lines
100
AcDbSpline
210
0.0
220
0.0
230
1.0
 70
    12
 71
     3
 72
     8
 73
     4
 74
     0
 42
0.0000000001
 43
0.0000000001
 40
-0.9983344876344831
 40
-0.9983344876344831
 40
-0.9983344876344831
 40
-0.9983344876344831
 40
0.0
 40
0.0
 40
0.0
 40
0.0
 10
1.222103194883235
 20
3.65726383948913
 30
0.0
 41
1.0
 10
1.676765933652849
 20
3.64333701932616
 30
0.0
 41
1.0
 10
2.129148709429085
 20
3.574404695741988
 30
0.0
 41
1.0
 10
2.580000000000052
 20
3.511811827671384
 30
0.0
 41
1.0
  0
SPLINE
  5
F5
330
1F
100
AcDbEntity
  8
Make2D visible lines
100
AcDbSpline
210
0.0
220
0.0
230
1.0
 70
    24
 71
     2
 72
     6
 73
     3
 74
     0
 42
0.0000000001
 43
0.0000000001
 40
0.0
 40
0.0
 40
0.0
 40
10.36850216633574
 40
10.36850216633574
 40
10.36850216633574
 10
2.580000000000052
 20
3.511811827671384
 30
0.0
 10
7.715000000000055
 20
2.798906298637399
 30
0.0
 10
12.85000000000006
 20
2.086000769603414
 30
0.0
  0
SPLINE
  5
F6
330
1F
100
AcDbEntity
  8
Make2D visible lines
100
AcDbSpline
210
0.0
220
0.0
230
1.0
 70
     8
 71
     3
 72
    13
 73
     9
 74
     0
 42
0.0000000001
 43
0.0000000001
 40
0.0
 40
0.0
 40
0.0
 40
0.0
 40
0.1163337939371243
 40
0.2443108918713642
 40
0.4828690280123605
 40
0.5672189493277444
 40
0.750510233115731
 40
1.83258135608072
 40
1.83258135608072
 40
1.83258135608072
 40
1.83258135608072
 10
12.85000000000006
 20
2.086000769603414
 30
0.0
 10
12.88767892357314
 20
2.080693221901958
 30
0.0
 10
12.96861491757254
 20
2.057218183732865
 30
0.0
 10
13.10099654582271
 20
1.966768126584214
 30
0.0
 10
13.18338032673707
 20
1.830020096093349
 30
0.0
 10
13.19443594558863
 20
1.661268225296924
 30
0.0
 10
13.2025091665798
 20
1.211528658082631
 30
0.0
 10
13.21533440039329
 20
0.7898405850234216
 30
0.0
 10
13.22328472354927
 20
0.429267031622143
 30
0.0
  0
SPLINE
  5
F7
330
1F
100
AcDbEntity
  8
Make2D visible lines - Tangent
100
AcDbSpline
210
0.0
220
0.0
230
1.0
 70
    12
 71
     3
 72
     8
 73
     4
 74
     0
 42
0.0000000001
 43
0.0000000001
 40
0.0
 40
0.0
 40
0.0
 40
0.0
 40
0.7485252977771374
 40
0.7485252977771374
 40
0.7485252977771374
 40
0.7485252977771374
 10
-1.087974965098603
 20
7.333777840749014
 30
0.0
 41
1.0
 10
-1.08795422357794
 20
7.610627428485982
 30
0.0
 41
0.8689416359064603
 10
-1.228530999854747
 20
7.820448948771346
 30
0.0
 41
0.8767873884333912
 10
-1.435811815169476
 20
7.89934516098998
 30
0.0
 41
1.0
  0
SPLINE
  5
F8
330
1F
100
AcDbEntity
  8
Make2D visible lines - Tangent
100
AcDbSpline
210
0.0
220
0.0
230
1.0
 70
    12
 71
     2
 72
     6
 73
     3
 74
     0
 42
0.0000000001
 43
0.0000000001
 40
0.0
 40
0.0
 40
0.0
 40
0.0308046280168251
 40
0.0308046280168251
 40
0.0308046280168251
 10
-9.44598419310422
 20
10.94849961452236
 30
0.0
 41
1.0
 10
-9.461553906619582
 20
10.94817719742534
 30
0.0
 41
0.9836353730027907
 10
-9.47622706802109
 20
10.95339431024951
 30
0.0
 41
1.0
  0
SPLINE
  5
F9
330
1F
100
AcDbEntity
  8
Make2D visible lines
100
AcDbSpline
210
0.0
220
0.0
230
1.0
 70
    12
 71
     2
 72
     6
 73
     3
 74
     0
 42
0.0000000001
 43
0.0000000001
 40
0.0
 40
0.0
 40
0.0
 40
0.1386895252079068
 40
0.1386895252079068
 40
0.1386895252079068
 10
-1.354624701347504
 20
10.05722983915138
 30
0.0
 41
1.0
 10
-1.286703259670559
 20
10.08106939445078
 30
0.0
 41
0.9459069102561863
 10
-1.247712816708233
 20
10.14157883168127
 30
0.0
 41
1.0
  0
SPLINE
  5
FA
330
1F
100
AcDbEntity
  8
Default
100
AcDbSpline
210
0.0
220
0.0
230
1.0
 70
     8
 71
     3
 72
    15
 73
    11
 74
     0
 42
0.0000000001
 43
0.0000000001
 40
0.0
 40
0.0
 40
0.0
 40
0.0
 40
0.2851889473013802
 40
1.587701404265863
 40
2.854872156616546
 40
6.708488880923252
 40
10.97639679747228
 40
12.29790800810541
 40
13.64242482470756
 40
13.92248948227173
 40
13.92248948227173
 40
13.92248948227173
 40
13.92248948227173
 10
-6.958932411343227
 20
15.10803801759389
 30
0.0
 10
-6.863810470360875
 20
15.10801492682851
 30
0.0
 10
-6.335222780579443
 20
15.1342354349906
 30
0.0
 10
-5.384927403271845
 20
15.18469215128941
 30
0.0
 10
-3.244259440540475
 20
15.2391438670819
 30
0.0
 10
-0.1146624444627093
 20
15.24005362472242
 30
0.0
 10
3.033066996438464
 20
15.24142789222488
 30
0.0
 10
5.343962394725395
 20
15.18690969416168
 30
0.0
 10
6.324658008553229
 20
15.13448281311004
 30
0.0
 10
6.865514516603682
 20
15.10796465390171
 30
0.0
 10
6.958934971682467
 20
15.10803805974334
 30
0.0
  0
SPLINE
  5
FB
330
1F
100
AcDbEntity
  8
Default
100
AcDbSpline
210
0.0
220
0.0
230
1.0
 70
     8
 71
     3
 72
    24
 73
    20
 74
     0
 42
0.0000000001
 43
0.0000000001
 40
0.0
 40
0.0
 40
0.0
 40
0.0
 40
1.0
 40
2.0
 40
3.0
 40
4.0
 40
5.0
 40
6.0
 40
7.0
 40
8.0
 40
9.0
 40
10.0
 40
11.0
 40
12.0
 40
13.0
 40
14.0
 40
15.0
 40
16.0
 40
17.0
 40
17.0
 40
17.0
 40
17.0
 10
7.005755374596276
 20
15.10794540883877
 30
0.0
 10
7.245202413423698
 20
15.11040536314879
 30
0.0
 10
7.726774715044016
 20
15.13387940409151
 30
0.0
 10
8.426018377429287
 20
15.31637223967939
 30
0.0
 10
9.081582838574818
 20
15.62024780325039
 30
0.0
 10
9.67311160228256
 20
16.03308837466025
 30
0.0
 10
10.20892581625067
 20
16.51460761950137
 30
0.0
 10
10.70919529172991
 20
17.03217796468655
 30
0.0
 10
11.16965268536916
 20
17.58567838364665
 30
0.0
 10
11.59418385149988
 20
18.16690142002881
 30
0.0
 10
11.98917289678879
 20
18.76848869677842
 30
0.0
 10
12.36160688552658
 20
19.38415866424771
 30
0.0
 10
12.72153576203588
 20
20.0071883871979
 30
0.0
 10
13.06828013665765
 20
20.63767507966441
 30
0.0
 10
13.39625250396084
 20
21.27816454897017
 30
0.0
 10
13.70421307816741
 20
21.92852288311063
 30
0.0
 10
13.98807285649457
 20
22.58980609315898
 30
0.0
 10
14.2430447169298
 20
23.26283063269104
 30
0.0
 10
14.38788815293486
 20
23.72033885256121
 30
0.0
 10
14.45179601745139
 20
23.95151007589985
 30
0.0
  0
SPLINE
  5
FC
330
1F
100
AcDbEntity
  8
Default
100
AcDbSpline
210
0.0
220
0.0
230
1.0
 70
     8
 71
     3
 72
    19
 73
    15
 74
     0
 42
0.0000000001
 43
0.0000000001
 40
-12.0
 40
-12.0
 40
-12.0
 40
-12.0
 40
-11.0
 40
-10.0
 40
-9.0
 40
-8.0
 40
-7.0
 40
-6.0
 40
-5.0
 40
-4.0
 40
-3.0
 40
-2.0
 40
-1.0
 40
0.0
 40
0.0
 40
0.0
 40
0.0
 10
9.510957813972851
 20
15.92438241458318
 30
0.0
 10
9.303812582672094
 20
16.09908734159947
 30
0.0
 10
8.777476892911068
 20
16.23661137621577
 30
0.0
 10
7.992536832560617
 20
16.37548538273786
 30
0.0
 10
7.196422692906069
 20
16.47145136516471
 30
0.0
 10
6.399612544291514
 20
16.54706282434829
 30
0.0
 10
5.601087948561926
 20
16.60686197895451
 30
0.0
 10
4.801900669715053
 20
16.65511623582016
 30
0.0
 10
4.002165018056132
 20
16.69372795636868
 30
0.0
 10
3.20207937929591
 20
16.72396722274105
 30
0.0
 10
2.401745385658401
 20
16.74671127033017
 30
0.0
 10
1.601248018339319
 20
16.76262383419806
 30
0.0
 10
0.8006487750207754
 20
16.7720709904859
 30
0.0
 10
0.2668828846553595
 20
16.77417109037386
 30
0.0
 10
0.0000000036788776
 20
16.77417146405616
 30
0.0
  0
SPLINE
  5
FD
330
1F
100
AcDbEntity
  8
Default
100
AcDbSpline
210
0.0
220
0.0
230
1.0
 70
     8
 71
     3
 72
    19
 73
    15
 74
     0
 42
0.0000000001
 43
0.0000000001
 40
0.0
 40
0.0
 40
0.0
 40
0.0
 40
1.0
 40
2.0
 40
3.0
 40
4.0
 40
5.0
 40
6.0
 40
7.0
 40
8.0
 40
9.0
 40
10.0
 40
11.0
 40
12.0
 40
12.0
 40
12.0
 40
12.0
 10
0.0000000036788776
 20
16.77417146405616
 30
0.0
 10
-0.26688287729759
 20
16.77417109037386
 30
0.0
 10
-0.8006487676630059
 20
16.7720709904859
 30
0.0
 10
-1.601248010981564
 20
16.76262383419806
 30
0.0
 10
-2.401745378300646
 20
16.74671127033017
 30
0.0
 10
-3.202079371938154
 20
16.72396722274105
 30
0.0
 10
-4.002165010698377
 20
16.69372795636868
 30
0.0
 10
-4.801900662357284
 20
16.65511623582016
 30
0.0
 10
-5.60108794120417
 20
16.60686197895451
 30
0.0
 10
-6.399612536933759
 20
16.54706282434829
 30
0.0
 10
-7.196422685548313
 20
16.47145136516471
 30
0.0
 10
-7.992536825202862
 20
16.37548538273786
 30
0.0
 10
-8.777476885553298
 20
16.23661137621577
 30
0.0
 10
-9.303812575314339
 20
16.09908734159947
 30
0.0
 10
-9.510957806615082
 20
15.92438241458318
 30
0.0
  0
SPLINE
  5
FE
330
1F
100
AcDbEntity
  8
Make2D visible lines
100
AcDbSpline
210
0.0
220
0.0
230
1.0
 70
    24
 71
     2
 72
     6
 73
     3
 74
     0
 42
0.0000000001
 43
0.0000000001
 40
0.0
 40
0.0
 40
0.0
 40
0.4463586863427782
 40
0.4463586863427782
 40
0.4463586863427782
 10
-1.289999999999999
 20
10.09404148372123
 30
0.0
 10
-1.289999999999999
 20
10.31722082689262
 30
0.0
 10
-1.289999999999999
 20
10.54040017006401
 30
0.0
  0
SPLINE
  5
FF
330
1F
100
AcDbEntity
  8
Make2D visible lines
100
AcDbSpline
210
0.0
220
0.0
230
1.0
 70
    12
 71
     2
 72
     6
 73
     3
 74
     0
 42
0.0000000001
 43
0.0000000001
 40
0.0
 40
0.0
 40
0.0
 40
0.5021727794579385
 40
0.5021727794579385
 40
0.5021727794579385
 10
-1.289999999999999
 20
10.54040017006401
 30
0.0
 41
1.0
 10
-1.290016089515501
 20
10.80402736119959
 30
0.0
 41
0.9203891028326119
 10
-1.463937246140048
 20
11.00218160737582
 30
0.0
 41
0.9672368320904093
  0
SPLINE
  5
100
330
1F
100
AcDbEntity
  8
Make2D visible lines
100
AcDbSpline
210
0.0
220
0.0
230
1.0
 70
    12
 71
     2
 72
     6
 73
     3
 74
     0
 42
0.0000000001
 43
0.0000000001
 40
0.1301067270990915
 40
0.1301067270990915
 40
0.1301067270990915
 40
0.6322790145841365
 40
0.6322790145841365
 40
0.6322790145841365
 10
1.463933933058203
 20
11.00218148412097
 30
0.0
 41
0.967233078785426
 10
1.290009938835598
 20
10.80402837719464
 30
0.0
 41
0.9203813779716099
 10
1.289999999999999
 20
10.54040017006401
 30
0.0
 41
1.0
  0
SPLINE
  5
101
330
1F
100
AcDbEntity
  8
Make2D visible lines
100
AcDbSpline
210
0.0
220
0.0
230
1.0
 70
    24
 71
     2
 72
     6
 73
     3
 74
     0
 42
0.0000000001
 43
0.0000000001
 40
0.0
 40
0.0
 40
0.0
 40
4.033400170063998
 40
4.033400170063998
 40
4.033400170063998
 10
1.289999999999999
 20
10.54040017006401
 30
0.0
 10
1.29
 20
8.522700085032014
 30
0.0
 10
1.29
 20
6.505000000000015
 30
0.0
  0
SPLINE
  5
102
330
1F
100
AcDbEntity
  8
Make2D visible lines
100
AcDbSpline
210
0.0
220
0.0
230
1.0
 70
    24
 71
     2
 72
     6
 73
     3
 74
     0
 42
0.0000000001
 43
0.0000000001
 40
-2.579999999999997
 40
-2.579999999999997
 40
-2.579999999999997
 40
0.0
 40
0.0
 40
0.0
 10
1.29
 20
6.505000000000015
 30
0.0
 10
0.0000000000000013
 20
6.505000000000015
 30
0.0
 10
-1.289999999999997
 20
6.505000000000015
 30
0.0
  0
SPLINE
  5
103
330
1F
100
AcDbEntity
  8
Make2D visible lines
100
AcDbSpline
210
0.0
220
0.0
230
1.0
 70
    24
 71
     2
 72
     6
 73
     3
 74
     0
 42
0.0000000001
 43
0.0000000001
 40
0.0
 40
0.0
 40
0.0
 40
1.245843365086012
 40
1.245843365086012
 40
1.245843365086012
 10
-1.289999999999997
 20
6.505000000000015
 30
0.0
 10
-1.289999999999998
 20
7.12892168254302
 30
0.0
 10
-1.289999999999999
 20
7.752843365086025
 30
0.0
  0
SPLINE
  5
104
330
1F
100
AcDbEntity
  8
Default
100
AcDbSpline
210
0.0
220
0.0
230
1.0
 70
     8
 71
     3
 72
    10
 73
     6
 74
     0
 42
0.0000000001
 43
0.0000000001
 40
0.0
 40
0.0
 40
0.0
 40
0.0
 40
1.0
 40
2.0
 40
2.077206730289885
 40
2.077206730289885
 40
2.077206730289885
 40
2.077206730289885
 10
-14.63916897310133
 20
26.69979931282401
 30
0.0
 10
-14.99214924856702
 20
26.62700158782341
 30
0.0
 10
-15.59533036381109
 20
26.124127920085
 30
0.0
 10
-15.65417979779536
 20
25.34796623794357
 30
0.0
 10
-15.61667489622277
 20
24.96221489219068
 30
0.0
 10
-15.61365918735507
 20
24.93464672864432
 30
0.0
  0
SPLINE
  5
105
330
1F
100
AcDbEntity
  8
Default
100
AcDbSpline
210
0.0
220
0.0
230
1.0
 70
     8
 71
     3
 72
     8
 73
     4
 74
     0
 42
0.0000000001
 43
0.0000000001
 40
2.377295449086285
 40
2.377295449086285
 40
2.377295449086285
 40
2.377295449086285
 40
3.0
 40
3.0
 40
3.0
 40
3.0
 10
-15.56492765411183
 20
24.61644068788204
 30
0.0
 10
-15.52272271123065
 20
24.39833653971526
 30
0.0
 10
-15.46472321176904
 20
24.18384751478949
 30
0.0
 10
-15.40237779650903
 20
23.96969995093246
 30
0.0
  0
SPLINE
  5
106
330
1F
100
AcDbEntity
  8
Default
100
AcDbSpline
210
0.0
220
0.0
230
1.0
 70
     8
 71
     3
 72
    11
 73
     7
 74
     0
 42
0.0000000001
 43
0.0000000001
 40
0.0
 40
0.0
 40
0.0
 40
0.0
 40
1.0
 40
2.0
 40
3.0
 40
3.99047099729853
 40
3.99047099729853
 40
3.99047099729853
 40
3.99047099729853
 10
-15.40237779650903
 20
23.96969995093246
 30
0.0
 10
-15.21146690011157
 20
23.31394838994322
 30
0.0
 10
-14.7029252757375
 20
21.65510461294704
 30
0.0
 10
-13.9973091515473
 20
19.73033862993028
 30
0.0
 10
-13.1738807639622
 20
17.8601316710113
 30
0.0
 10
-12.54229685456323
 20
16.65504314922977
 30
0.0
 10
-12.19954889302803
 20
16.07171324969112
 30
0.0
  0
SPLINE
  5
107
330
1F
100
AcDbEntity
  8
Default
100
AcDbSpline
210
0.0
220
0.0
230
1.0
 70
     8
 71
     3
 72
     9
 73
     5
 74
     0
 42
0.0000000001
 43
0.0000000001
 40
5.223464116670684
 40
5.223464116670684
 40
5.223464116670684
 40
5.223464116670684
 40
6.0
 40
6.870793265693433
 40
6.870793265693433
 40
6.870793265693433
 40
6.870793265693433
 10
-10.74820014729129
 20
14.00745037681691
 30
0.0
 10
-10.39945437896709
 20
13.60698426810246
 30
0.0
 10
-9.591223177470576
 20
12.8177852558372
 30
0.0
 10
-8.607298952750305
 20
12.24945482133816
 30
0.0
 10
-8.056818624674564
 20
12.02429566422276
 30
0.0
  0
SPLINE
  5
108
330
1F
100
AcDbEntity
  8
Default
100
AcDbSpline
210
0.0
220
0.0
230
1.0
 70
     8
 71
     3
 72
     8
 73
     4
 74
     0
 42
0.0000000001
 43
0.0000000001
 40
6.870793265693433
 40
6.870793265693433
 40
6.870793265693433
 40
6.870793265693433
 40
7.0
 40
7.0
 40
7.0
 40
7.0
 10
-8.056818624674564
 20
12.02429566422276
 30
0.0
 10
-7.97513934637418
 20
11.9908869545597
 30
0.0
 10
-7.892791461960138
 20
11.95913529712984
 30
0.0
 10
-7.809836138928091
 20
11.92908495166505
 30
0.0
  0
SPLINE
  5
109
330
1F
100
AcDbEntity
  8
Default
100
AcDbSpline
210
0.0
220
0.0
230
1.0
 70
     8
 71
     3
 72
     8
 73
     4
 74
     0
 42
0.0000000001
 43
0.0000000001
 40
0.0
 40
0.0
 40
0.0
 40
0.0
 40
0.5777349903667943
 40
0.5777349903667943
 40
0.5777349903667943
 40
0.5777349903667943
 10
-7.809836138928091
 20
11.92908495166505
 30
0.0
 10
-7.399781424557665
 20
11.78369038749325
 30
0.0
 10
-6.980518662823797
 20
11.66886619092443
 30
0.0
 10
-6.556391529012124
 20
11.5740445497527
 30
0.0
  0
SPLINE
  5
10A
330
1F
100
AcDbEntity
  8
Default
100
AcDbSpline
210
0.0
220
0.0
230
1.0
 70
     8
 71
     3
 72
    14
 73
    10
 74
     0
 42
0.0000000001
 43
0.0000000001
 40
0.5777349903667943
 40
0.5777349903667943
 40
0.5777349903667943
 40
0.5777349903667943
 40
1.0
 40
2.0
 40
3.0
 40
4.0
 40
5.0
 40
6.0
 40
7.0
 40
7.0
 40
7.0
 40
7.0
 10
-6.556391529012124
 20
11.5740445497527
 30
0.0
 10
-6.246398104291584
 20
11.50473965756088
 30
0.0
 10
-5.193531561659015
 20
11.3072992193438
 30
0.0
 10
-3.382951307102672
 20
11.09777148732687
 30
0.0
 10
-1.128817574097354
 20
10.96994773393558
 30
0.0
 10
1.128817542067196
 20
10.96994774264815
 30
0.0
 10
3.382951014416491
 20
11.0977714485988
 30
0.0
 10
5.625373766952649
 20
11.3572737946163
 30
0.0
 10
7.100072946589179
 20
11.67742173342003
 30
0.0
 10
7.809836138928091
 20
11.92908495166505
 30
0.0
  0
SPLINE
  5
10B
330
1F
100
AcDbEntity
  8
Default
100
AcDbSpline
210
0.0
220
0.0
230
1.0
 70
     8
 71
     3
 72
    14
 73
    10
 74
     0
 42
0.0000000001
 43
0.0000000001
 40
-7.0
 40
-7.0
 40
-7.0
 40
-7.0
 40
-6.0
 40
-5.0
 40
-4.0
 40
-3.0
 40
-2.0
 40
-1.0
 40
0.0
 40
0.0
 40
0.0
 40
0.0
 10
7.809836138928091
 20
11.92908495166505
 30
0.0
 10
8.451871737747723
 20
12.16166064229033
 30
0.0
 10
9.663171306721125
 20
12.83063054758301
 30
0.0
 10
11.09166182824706
 20
14.32242778904835
 30
0.0
 10
12.21874317323631
 20
16.03817252095993
 30
0.0
 10
13.171256946063
 20
17.8541723397956
 30
0.0
 10
13.9973091515473
 20
19.73033862993028
 30
0.0
 10
14.7029252757375
 20
21.65510461294704
 30
0.0
 10
15.21146690011157
 20
23.31394838994322
 30
0.0
 10
15.40237779650903
 20
23.96969995093246
 30
0.0
  0
SPLINE
  5
10C
330
1F
100
AcDbEntity
  8
Default
100
AcDbSpline
210
0.0
220
0.0
230
1.0
 70
     8
 71
     3
 72
    10
 73
     6
 74
     0
 42
0.0000000001
 43
0.0000000001
 40
-3.0
 40
-3.0
 40
-3.0
 40
-3.0
 40
-2.0
 40
-1.0
 40
0.0
 40
0.0
 40
0.0
 40
0.0
 10
15.40237779650903
 20
23.96969995093246
 30
0.0
 10
15.50249817489478
 20
24.31359909787592
 30
0.0
 10
15.68032349394994
 20
25.00315858541538
 30
0.0
 10
15.59533036381109
 20
26.124127920085
 30
0.0
 10
14.99214924856702
 20
26.62700158782341
 30
0.0
 10
14.63916897310133
 20
26.69979931282401
 30
0.0
  0
SPLINE
  5
10D
330
1F
100
AcDbEntity
  8
Default
100
AcDbSpline
210
0.0
220
0.0
230
1.0
 70
     8
 71
     3
 72
    14
 73
    10
 74
     0
 42
0.0000000001
 43
0.0000000001
 40
0.0
 40
0.0
 40
0.0
 40
0.0
 40
1.0
 40
2.0
 40
3.0
 40
4.0
 40
5.0
 40
6.0
 40
6.463579579036415
 40
6.463579579036415
 40
6.463579579036415
 40
6.463579579036415
 10
-7.005755367238521
 20
15.10794540883877
 30
0.0
 10
-7.245202406065943
 20
15.11040536314879
 30
0.0
 10
-7.726774707686246
 20
15.13387940409151
 30
0.0
 10
-8.426018370071532
 20
15.31637223967939
 30
0.0
 10
-9.081582831217048
 20
15.62024780325039
 30
0.0
 10
-9.673111594924805
 20
16.03308837466025
 30
0.0
 10
-10.2089258088929
 20
16.51460761950137
 30
0.0
 10
-10.61974369682822
 20
16.93963286387238
 30
0.0
 10
-10.84959174720063
 20
17.20496208653134
 30
0.0
 10
-10.92103321007661
 20
17.29015409257945
 30
0.0
  0
SPLINE
  5
10E
330
1F
100
AcDbEntity
  8
Default
100
AcDbSpline
210
0.0
220
0.0
230
1.0
 70
     8
 71
     3
 72
    15
 73
    11
 74
     0
 42
0.0000000001
 43
0.0000000001
 40
9.867056491674225
 40
9.867056491674225
 40
9.867056491674225
 40
9.867056491674225
 40
10.0
 40
11.0
 40
12.0
 40
13.0
 40
14.0
 40
15.0
 40
16.0
 40
17.0
 40
17.0
 40
17.0
 40
17.0
 10
-12.31072680530552
 20
19.30311441967709
 30
0.0
 10
-12.32703156072984
 20
19.33051460864984
 30
0.0
 10
-12.46563310114162
 20
19.5642259861777
 30
0.0
 10
-12.72153575467811
 20
20.0071883871979
 30
0.0
 10
-13.06828012929989
 20
20.63767507966441
 30
0.0
 10
-13.39625249660307
 20
21.27816454897017
 30
0.0
 10
-13.70421307080964
 20
21.92852288311063
 30
0.0
 10
-13.98807284913681
 20
22.58980609315898
 30
0.0
 10
-14.24304470957203
 20
23.26283063269104
 30
0.0
 10
-14.38788814557709
 20
23.72033885256121
 30
0.0
 10
-14.45179601009363
 20
23.95151007589985
 30
0.0
  0
SPLINE
  5
10F
330
1F
100
AcDbEntity
  8
Default
100
AcDbSpline
210
0.0
220
0.0
230
1.0
 70
     8
 71
     3
 72
     9
 73
     5
 74
     0
 42
0.0000000001
 43
0.0000000001
 40
-1.08086126420698
 40
-1.08086126420698
 40
-1.08086126420698
 40
-1.08086126420698
 40
-1.0
 40
0.0
 40
0.0
 40
0.0
 40
0.0
 10
-15.1003750544021
 20
24.61644068788204
 30
0.0
 10
-15.09611596214182
 20
24.60072297480267
 30
0.0
 10
-15.03852101403634
 20
24.39081950036885
 30
0.0
 10
-14.97271299111648
 20
24.18350260886827
 30
0.0
 10
-14.91080562850763
 20
23.99196126221899
 30
0.0
  0
SPLINE
  5
110
330
1F
100
AcDbEntity
  8
Default
100
AcDbSpline
210
0.0
220
0.0
230
1.0
 70
     8
 71
     3
 72
    15
 73
    11
 74
     0
 42
0.0000000001
 43
0.0000000001
 40
0.0
 40
0.0
 40
0.0
 40
0.0
 40
1.000024441849377
 40
2.000048883698754
 40
3.000073325548131
 40
4.000097767397508
 40
5.000122209246884
 40
6.000146651096261
 40
7.000171092945639
 40
7.991228181082349
 40
7.991228181082349
 40
7.991228181082349
 40
7.991228181082349
 10
-14.91080562850763
 20
23.99196126221899
 30
0.0
 10
-14.83358946590278
 20
23.75581249002567
 30
0.0
 10
-14.66566290984925
 20
23.28799810189224
 30
0.0
 10
-14.38253527063591
 20
22.59836867609398
 30
0.0
 10
-14.07505332108585
 20
21.91930475904604
 30
0.0
 10
-13.74724310094777
 20
21.24985023728686
 30
0.0
 10
-13.40200144638074
 20
20.58921218202172
 30
0.0
 10
-13.03974223537448
 20
19.93779745580036
 30
0.0
 10
-12.66999782573211
 20
19.29318736873551
 30
0.0
 10
-12.4172051471148
 20
18.86796486543074
 30
0.0
 10
-12.28834024622778
 20
18.65816282165114
 30
0.0
  0
SPLINE
  5
111
330
1F
100
AcDbEntity
  8
Default
100
AcDbSpline
210
0.0
220
0.0
230
1.0
 70
     8
 71
     3
 72
    13
 73
     9
 74
     0
 42
0.0000000001
 43
0.0000000001
 40
11.2035583808474
 40
11.2035583808474
 40
11.2035583808474
 40
11.2035583808474
 40
12.00029330219252
 40
13.0003177440419
 40
14.00034218589128
 40
15.00036662774065
 40
16.00039106959003
 40
17.0
 40
17.0
 40
17.0
 40
17.0
 10
-10.9128947188061
 20
16.70098535549732
 30
0.0
 10
-10.78610394815189
 20
16.54906287727242
 30
0.0
 10
-10.49109041488507
 20
16.21401496895833
 30
0.0
 10
-10.00168522643226
 20
15.71849012659115
 30
0.0
 10
-9.396097364086714
 20
15.28004411322944
 30
0.0
 10
-8.730980534950106
 20
14.9373208165927
 30
0.0
 10
-8.00897674072705
 20
14.73697915495032
 30
0.0
 10
-7.512259898631655
 20
14.69566627647855
 30
0.0
 10
-7.264218543382768
 20
14.6868279051786
 30
0.0
  0
SPLINE
  5
112
330
1F
100
AcDbEntity
  8
Default
100
AcDbSpline
210
0.0
220
0.0
230
1.0
 70
     8
 71
     3
 72
    11
 73
     7
 74
     0
 42
0.0000000001
 43
0.0000000001
 40
0.0
 40
0.0
 40
0.0
 40
0.0
 40
0.9999786995718987
 40
0.9999786995718987
 40
0.9999786995718987
 40
2.0
 40
2.0
 40
2.0
 40
2.0
 10
-7.264218543382768
 20
14.6868279051786
 30
0.0
 10
-4.844020590337635
 20
14.60079894499154
 30
0.0
 10
-2.42172689240617
 20
14.71203873822637
 30
0.0
 10
0.0
 20
14.71203873822642
 30
0.0
 10
2.421830062242833
 20
14.71203873822642
 30
0.0
 10
4.844226978305826
 20
14.60078946676698
 30
0.0
 10
7.264528248292436
 20
14.68682790517866
 30
0.0
  0
SPLINE
  5
113
330
1F
100
AcDbEntity
  8
Default
100
AcDbSpline
210
0.0
220
0.0
230
1.0
 70
     8
 71
     3
 72
    24
 73
    20
 74
     0
 42
0.0000000001
 43
0.0000000001
 40
-17.0
 40
-17.0
 40
-17.0
 40
-17.0
 40
-16.0
 40
-15.0
 40
-14.0
 40
-13.0
 40
-12.0
 40
-11.0
 40
-10.0
 40
-9.0
 40
-8.0
 40
-7.0
 40
-6.0
 40
-5.0
 40
-4.0
 40
-3.0
 40
-2.0
 40
-1.0
 40
0.0
 40
0.0
 40
0.0
 40
0.0
 10
7.264528248292436
 20
14.68682790517866
 30
0.0
 10
7.512672878414037
 20
14.69564911134034
 30
0.0
 10
8.009496138860271
 20
14.73695140370089
 30
0.0
 10
8.731599944769457
 20
14.9373208165927
 30
0.0
 10
9.396716773906064
 20
15.28004411322944
 30
0.0
 10
10.00230463625161
 20
15.71849012659115
 30
0.0
 10
10.52728316645269
 20
16.25003312932564
 30
0.0
 10
11.016206507692
 20
16.81262279067332
 30
0.0
 10
11.46655508036913
 20
17.40706667013609
 30
0.0
 10
11.88898979055112
 20
18.02125579882772
 30
0.0
 10
12.28856670999295
 20
18.65057470355399
 30
0.0
 10
12.66950873958517
 20
19.29125482381337
 30
0.0
 10
13.04036164519383
 20
19.93779745580036
 30
0.0
 10
13.40262085620009
 20
20.58921218202172
 30
0.0
 10
13.74786251076711
 20
21.24985023728686
 30
0.0
 10
14.0756727309052
 20
21.91930475904604
 30
0.0
 10
14.38315468045526
 20
22.59836867609398
 30
0.0
 10
14.66628231966858
 20
23.28799810189224
 30
0.0
 10
14.83420887572213
 20
23.75581249002567
 30
0.0
 10
14.91142503832697
 20
23.99196126221899
 30
0.0
  0
SPLINE
  5
114
330
1F
100
AcDbEntity
  8
Default
100
AcDbSpline
210
0.0
220
0.0
230
1.0
 70
     8
 71
     3
 72
    12
 73
     8
 74
     0
 42
0.0000000001
 43
0.0000000001
 40
0.0
 40
0.0
 40
0.0
 40
0.0
 40
1.0
 40
2.0
 40
3.0
 40
4.0
 40
5.0
 40
5.0
 40
5.0
 40
5.0
 10
14.91142503832697
 20
23.99196126221899
 30
0.0
 10
14.97333240093583
 20
24.18350260886827
 30
0.0
 10
15.09510200282482
 20
24.5671168586632
 30
0.0
 10
15.23557538118716
 20
25.15582250513804
 30
0.0
 10
15.29157206406009
 20
25.75738923643327
 30
0.0
 10
15.16814641026623
 20
26.36953885727346
 30
0.0
 10
14.83418489439116
 20
26.64536736920455
 30
0.0
 10
14.63765481135745
 20
26.69422163020302
 30
0.0
  0
SPLINE
  5
115
330
1F
100
AcDbEntity
  8
Default
100
AcDbSpline
210
0.0
220
0.0
230
1.0
 70
     8
 71
     3
 72
    19
 73
    15
 74
     0
 42
0.0000000001
 43
0.0000000001
 40
-12.0
 40
-12.0
 40
-12.0
 40
-12.0
 40
-11.0
 40
-10.0
 40
-9.0
 40
-8.0
 40
-7.0
 40
-6.0
 40
-5.0
 40
-4.0
 40
-3.0
 40
-2.0
 40
-1.0
 40
0.0
 40
0.0
 40
0.0
 40
0.0
 10
14.63765481135745
 20
26.69422163020302
 30
0.0
 10
14.24352968175928
 20
26.80255241524966
 30
0.0
 10
13.44298809025949
 20
26.96964251100232
 30
0.0
 10
12.23194428816031
 20
27.16100015842957
 30
0.0
 10
11.01532953641158
 20
27.31254151420589
 30
0.0
 10
9.795990734746866
 20
27.43962257581898
 30
0.0
 10
8.574447794877997
 20
27.54350040639507
 30
0.0
 10
7.351419985560199
 20
27.62780478491539
 30
0.0
 10
6.127379773383566
 20
27.69572661876381
 30
0.0
 10
4.902644960399329
 20
27.74954829460327
 30
0.0
 10
3.677430426611181
 20
27.79092761047067
 30
0.0
 10
2.451903443028371
 20
27.82153819635331
 30
0.0
 10
1.226172758338194
 20
27.84243377592293
 30
0.0
 10
0.4089361394371309
 20
27.85002178592174
 30
0.0
 10
0.0003097049096681
 20
27.85237379342067
 30
0.0
  0
SPLINE
  5
116
330
1F
100
AcDbEntity
  8
Default
100
AcDbSpline
210
0.0
220
0.0
230
1.0
 70
     8
 71
     3
 72
    19
 73
    15
 74
     0
 42
0.0000000001
 43
0.0000000001
 40
0.0
 40
0.0
 40
0.0
 40
0.0
 40
1.0
 40
2.0
 40
3.0
 40
4.0
 40
5.0
 40
6.0
 40
7.0
 40
8.0
 40
9.0
 40
10.0
 40
11.0
 40
12.0
 40
12.0
 40
12.0
 40
12.0
 10
0.0003097049096681
 20
27.85237379342067
 30
0.0
 10
-0.4083167296177805
 20
27.85002178592174
 30
0.0
 10
-1.225553348518858
 20
27.84243377592293
 30
0.0
 10
-2.451284033209021
 20
27.82153819635331
 30
0.0
 10
-3.676811016791845
 20
27.79092761047067
 30
0.0
 10
-4.902025550579978
 20
27.74954829460327
 30
0.0
 10
-6.126760363564216
 20
27.69572661876381
 30
0.0
 10
-7.350800575740863
 20
27.62780478491539
 30
0.0
 10
-8.573828385058647
 20
27.54350040639507
 30
0.0
 10
-9.795371324927515
 20
27.43962257581898
 30
0.0
 10
-11.01471012659225
 20
27.31254151420589
 30
0.0
 10
-12.23132487834096
 20
27.16100015842957
 30
0.0
 10
-13.44236868044015
 20
26.96964251100232
 30
0.0
 10
-14.24291027193993
 20
26.80255241524966
 30
0.0
 10
-14.6370354015381
 20
26.69422163020302
 30
0.0
  0
SPLINE
  5
117
330
1F
100
AcDbEntity
  8
Default
100
AcDbSpline
210
0.0
220
0.0
230
1.0
 70
     8
 71
     3
 72
    11
 73
     7
 74
     0
 42
0.0000000001
 43
0.0000000001
 40
-5.0
 40
-5.0
 40
-5.0
 40
-5.0
 40
-4.0
 40
-3.0
 40
-2.0
 40
-1.623219067885231
 40
-1.623219067885231
 40
-1.623219067885231
 40
-1.623219067885231
 10
-14.6370354015381
 20
26.69422163020302
 30
0.0
 10
-14.83356548457181
 20
26.64536736920455
 30
0.0
 10
-15.16752700044688
 20
26.36953885727346
 30
0.0
 10
-15.29095265424075
 20
25.75738923643327
 30
0.0
 10
-15.24658870486939
 20
25.28079179098756
 30
0.0
 10
-15.19420235807053
 20
25.00877967551652
 30
0.0
 10
-15.17824417720349
 20
24.93464672864432
 30
0.0
  0
CIRCLE
  5
118
330
1F
100
AcDbEntity
  8
Default
100
AcDbCircle
 10
-14.07029949049637
 20
47.84308172373684
 30
0.0
 40
7.875000000000004
  0
SPLINE
  5
119
330
1F
100
AcDbEntity
  8
Make2D visible lines - Tangent
100
AcDbSpline
210
0.0
220
0.0
230
1.0
 70
     8
 71
     3
 72
    12
 73
     8
 74
     0
 42
0.0000000001
 43
0.0000000001
 40
0.0
 40
0.0
 40
0.0
 40
0.0
 40
0.1510110321465192
 40
0.3037660471064116
 40
0.5900965017365678
 40
0.8249401141264362
 40
1.014583801502342
 40
1.014583801502342
 40
1.014583801502342
 40
1.014583801502342
 10
0.4018340216547455
 20
70.62584721553233
 30
0.0
 10
0.4067502440146499
 20
70.67596745195871
 30
0.0
 10
0.4105800225071822
 20
70.77726730620887
 30
0.0
 10
0.3933681383036899
 20
70.97371512520948
 30
0.0
 10
0.3329158017917661
 20
71.19185839992033
 30
0.0
 10
0.1981679738670605
 20
71.39271316437598
 30
0.0
 10
0.0643507375328296
 20
71.4574576906019
 30
0.0
 10
-0.0000000057435275
 20
71.456204210913
 30
0.0
  0
SPLINE
  5
11A
330
1F
100
AcDbEntity
  8
Make2D visible lines - Tangent
100
AcDbSpline
210
0.0
220
0.0
230
1.0
 70
     8
 71
     3
 72
    12
 73
     8
 74
     0
 42
0.0000000001
 43
0.0000000001
 40
-1.014583801502342
 40
-1.014583801502342
 40
-1.014583801502342
 40
-1.014583801502342
 40
-0.8249401141264362
 40
-0.5900965017365678
 40
-0.3037660471064116
 40
-0.1510110321465192
 40
0.0
 40
0.0
 40
0.0
 40
0.0
 10
-0.0000000057435275
 20
71.456204210913
 30
0.0
 10
-0.0643507490198845
 20
71.4574576906019
 30
0.0
 10
-0.1981679853541155
 20
71.39271316437598
 30
0.0
 10
-0.3329158132788211
 20
71.19185839992033
 30
0.0
 10
-0.3933681497907449
 20
70.97371512520948
 30
0.0
 10
-0.4105800339942372
 20
70.77726730620887
 30
0.0
 10
-0.4067502555017049
 20
70.67596745195871
 30
0.0
 10
-0.4018340331418005
 20
70.62584721553233
 30
0.0
  0
SPLINE
  5
11B
330
1F
100
AcDbEntity
  8
Make2D visible lines
100
AcDbSpline
210
0.0
220
0.0
230
1.0
 70
    12
 71
     2
 72
     6
 73
     3
 74
     0
 42
0.0000000001
 43
0.0000000001
 40
0.0
 40
0.0
 40
0.0
 40
0.0853474550214741
 40
0.0853474550214741
 40
0.0853474550214741
 10
-0.4047946761643458
 20
70.66089363702815
 30
0.0
 41
1.0
 10
-0.4077820541270834
 20
70.7034798755079
 30
0.0
 41
0.9993970637774641
 10
-0.4078067866609994
 20
70.74617075888182
 30
0.0
 41
1.0
  0
SPLINE
  5
11C
330
1F
100
AcDbEntity
  8
Make2D visible lines - Tangent
100
AcDbSpline
210
0.0
220
0.0
230
1.0
 70
    12
 71
     2
 72
     6
 73
     3
 74
     0
 42
0.0000000001
 43
0.0000000001
 40
0.0
 40
0.0
 40
0.0
 40
0.1369528492222414
 40
0.1369528492222414
 40
0.1369528492222414
 10
-0.3676107775952093
 20
43.36721167807764
 30
0.0
 41
1.0
 10
-0.3661812419769666
 20
43.29875135280695
 30
0.0
 41
0.9999966913238282
 10
-0.3669329088942793
 20
43.23025211742299
 30
0.0
 41
0.9999959461296658
  0
ARC
  5
11D
330
1F
100
AcDbEntity
  8
Make2D visible lines - Tangent
100
AcDbCircle
 10
-0.8668652971617566
 20
43.22202976002525
 30
0.0
 40
0.5
100
AcDbArc
 50
348.4871521735349
 51
0.9422552251317675
  0
SPLINE
  5
11E
330
1F
100
AcDbEntity
  8
Make2D visible lines - Tangent
100
AcDbSpline
210
0.0
220
0.0
230
1.0
 70
     8
 71
     3
 72
    14
 73
    10
 74
     0
 42
0.0000000001
 43
0.0000000001
 40
0.2772630823298201
 40
0.2772630823298201
 40
0.2772630823298201
 40
0.2772630823298201
 40
1.0
 40
2.0
 40
3.0
 40
4.0
 40
5.0
 40
6.0
 40
7.0
 40
7.0
 40
7.0
 40
7.0
 10
-0.3769253099904898
 20
43.1222359276977
 30
0.0
 10
-0.3850225723278429
 20
43.08248224239307
 30
0.0
 10
-0.4000888111859999
 20
42.98685646438413
 30
0.0
 10
-0.4048301803112619
 20
42.83370190764059
 30
0.0
 10
-0.3868157866532727
 20
42.66592559394996
 30
0.0
 10
-0.3452864226172238
 20
42.50217979856453
 30
0.0
 10
-0.2747980484401435
 20
42.34831226363802
 30
0.0
 10
-0.1646929405789873
 20
42.21735277457224
 30
0.0
 10
-0.0566834953305561
 20
42.17213257107744
 30
0.0
 10
0.0000005023035777
 20
42.17264007678438
 30
0.0
  0
SPLINE
  5
11F
330
1F
100
AcDbEntity
  8
Make2D visible lines - Tangent
100
AcDbSpline
210
0.0
220
0.0
230
1.0
 70
     8
 71
     3
 72
    14
 73
    10
 74
     0
 42
0.0000000001
 43
0.0000000001
 40
-7.0
 40
-7.0
 40
-7.0
 40
-7.0
 40
-6.0
 40
-5.0
 40
-4.0
 40
-3.0
 40
-2.0
 40
-1.0
 40
-0.2482205602640466
 40
-0.2482205602640466
 40
-0.2482205602640466
 40
-0.2482205602640466
 10
0.0000005023035777
 20
42.17264007678438
 30
0.0
 10
0.0566844999377115
 20
42.17213257107744
 30
0.0
 10
0.1646939451861427
 20
42.21735277457224
 30
0.0
 10
0.2747990530472989
 20
42.34831226363802
 30
0.0
 10
0.3452874272243791
 20
42.50217979856453
 30
0.0
 10
0.3868167912604281
 20
42.66592559394996
 30
0.0
 10
0.4048311849184173
 20
42.83370190764059
 30
0.0
 10
0.400039241197957
 20
42.98849011270499
 30
0.0
 10
0.3845121634409088
 20
43.08570606692808
 30
0.0
 10
0.3759415877765128
 20
43.12702655164694
 30
0.0
  0
ARC
  5
120
330
1F
100
AcDbEntity
  8
Make2D visible lines - Tangent
100
AcDbCircle
 10
0.8655211721033517
 20
43.22857373580464
 30
0.0
 40
0.5
100
AcDbArc
 50
178.9775798079559
 51
191.7179678781667
  0
SPLINE
  5
121
330
1F
100
AcDbEntity
  8
Make2D visible lines - Tangent
100
AcDbSpline
210
0.0
220
0.0
230
1.0
 70
    12
 71
     2
 72
     6
 73
     3
 74
     0
 42
0.0000000001
 43
0.0000000001
 40
-0.1297405451143296
 40
-0.1297405451143296
 40
-0.1297405451143296
 40
0.0
 40
0.0
 40
0.0
 10
0.3656007774165287
 20
43.23749556163634
 30
0.0
 41
0.9999960316975589
 10
0.3667583002961295
 20
43.30235552480337
 30
0.0
 41
0.9999968655123173
 10
0.3681125763794111
 20
43.36721167807764
 30
0.0
 41
1.0
  0
SPLINE
  5
122
330
1F
100
AcDbEntity
  8
Make2D visible lines
100
AcDbSpline
210
0.0
220
0.0
230
1.0
 70
    12
 71
     2
 72
     6
 73
     3
 74
     0
 42
0.0000000001
 43
0.0000000001
 40
0.0
 40
0.0
 40
0.0
 40
0.0853474550214741
 40
0.0853474550214741
 40
0.0853474550214741
 10
0.4047946761643282
 20
42.95280854254565
 30
0.0
 41
1.0
 10
0.4077820541270659
 20
42.91022230406591
 30
0.0
 41
0.9993970637774641
 10
0.4078067866609819
 20
42.86753142069198
 30
0.0
 41
1.0
  0
SPLINE
  5
123
330
1F
100
AcDbEntity
  8
Make2D visible lines - Tangent
100
AcDbSpline
210
0.0
220
0.0
230
1.0
 70
     8
 71
     3
 72
    12
 73
     8
 74
     0
 42
0.0000000001
 43
0.0000000001
 40
0.0
 40
0.0
 40
0.0
 40
0.0
 40
0.1510110321465192
 40
0.3037660471064116
 40
0.5900965017365678
 40
0.8249401141264362
 40
1.014583801502342
 40
1.014583801502342
 40
1.014583801502342
 40
1.014583801502342
 10
-0.4018340216547631
 20
42.98785496404145
 30
0.0
 10
-0.4067502440146675
 20
42.93773472761507
 30
0.0
 10
-0.4105800225071998
 20
42.83643487336493
 30
0.0
 10
-0.3933681383037075
 20
42.63998705436431
 30
0.0
 10
-0.3329158017917836
 20
42.42184377965345
 30
0.0
 10
-0.198167973867078
 20
42.22098901519783
 30
0.0
 10
-0.0643507375328471
 20
42.1562444889719
 30
0.0
 10
0.00000000574351
 20
42.1574979686608
 30
0.0
  0
SPLINE
  5
124
330
1F
100
AcDbEntity
  8
Make2D visible lines - Tangent
100
AcDbSpline
210
0.0
220
0.0
230
1.0
 70
     8
 71
     3
 72
    12
 73
     8
 74
     0
 42
0.0000000001
 43
0.0000000001
 40
-1.014583801502342
 40
-1.014583801502342
 40
-1.014583801502342
 40
-1.014583801502342
 40
-0.8249401141264362
 40
-0.5900965017365678
 40
-0.3037660471064116
 40
-0.1510110321465192
 40
0.0
 40
0.0
 40
0.0
 40
0.0
 10
0.00000000574351
 20
42.1574979686608
 30
0.0
 10
0.064350749019867
 20
42.1562444889719
 30
0.0
 10
0.1981679853540979
 20
42.22098901519783
 30
0.0
 10
0.3329158132788035
 20
42.42184377965345
 30
0.0
 10
0.3933681497907274
 20
42.63998705436431
 30
0.0
 10
0.4105800339942197
 20
42.83643487336493
 30
0.0
 10
0.4067502555016874
 20
42.93773472761507
 30
0.0
 10
0.401834033141783
 20
42.98785496404145
 30
0.0
  0
SPLINE
  5
125
330
1F
100
AcDbEntity
  8
Make2D visible lines - Tangent
100
AcDbSpline
210
0.0
220
0.0
230
1.0
 70
    12
 71
     2
 72
     6
 73
     3
 74
     0
 42
0.0000000001
 43
0.0000000001
 40
0.0
 40
0.0
 40
0.0
 40
0.0587632096241838
 40
0.0587632096241838
 40
0.0587632096241838
 10
0.0581358437700779
 20
42.17748124827425
 30
0.0
 41
1.0
 10
0.029537873752985
 20
42.17009141424122
 30
0.0
 41
0.9921107855315546
 10
0.0000005817660913
 20
42.17004761680739
 30
0.0
 41
1.0
  0
ARC
  5
126
330
1F
100
AcDbEntity
  8
Default
100
AcDbCircle
 10
-2.691038760554168
 20
63.58769432124348
 30
0.0
 40
17.94432680120315
100
AcDbArc
 50
304.5347986330879
 51
313.3741222381972
  0
SPLINE
  5
127
330
1F
100
AcDbEntity
  8
Default
100
AcDbSpline
210
0.0
220
0.0
230
1.0
 70
     8
 71
     3
 72
    14
 73
    10
 74
     0
 42
0.0000000001
 43
0.0000000001
 40
0.0000000000000002
 40
0.0000000000000002
 40
0.0000000000000002
 40
0.0000000000000002
 40
1.0
 40
2.0
 40
3.0
 40
4.0
 40
5.0
 40
6.0
 40
7.0
 40
7.0
 40
7.0
 40
7.0
 10
9.632394224505072
 20
50.54423374472732
 30
0.0
 10
10.03916626521117
 20
50.92855107787914
 30
0.0
 10
10.84284557266793
 20
51.70916511017699
 30
0.0
 10
11.95786450709763
 20
52.9649667145698
 30
0.0
 10
13.04231627401311
 20
54.24872738858192
 30
0.0
 10
14.03489607301372
 20
55.60100245687887
 30
0.0
 10
14.78961872118303
 20
57.13254087183713
 30
0.0
 10
14.74325549198955
 20
58.85280712618101
 30
0.0
 10
14.43135721196506
 20
59.92840960205039
 30
0.0
 10
14.22301755008739
 20
60.44892402341728
 30
0.0
  0
SPLINE
  5
128
330
1F
100
AcDbEntity
  8
Default
100
AcDbSpline
210
0.0
220
0.0
230
1.0
 70
     8
 71
     3
 72
    10
 73
     6
 74
     0
 42
0.0000000001
 43
0.0000000001
 40
0.0
 40
0.0
 40
0.0
 40
0.0
 40
1.0
 40
2.0
 40
3.0
 40
3.0
 40
3.0
 40
3.0
 10
14.91142398297175
 20
56.21057337068682
 30
0.0
 10
15.13653364910567
 20
56.6685285138303
 30
0.0
 10
15.34885163602356
 20
57.68345244482655
 30
0.0
 10
15.14735189040226
 20
59.20920178971463
 30
0.0
 10
14.83152556871934
 20
60.17839986807373
 30
0.0
 10
14.63765375600223
 20
60.6487959600508
 30
0.0
  0
SPLINE
  5
129
330
1F
100
AcDbEntity
  8
Default
100
AcDbSpline
210
0.0
220
0.0
230
1.0
 70
     8
 71
     3
 72
    10
 73
     6
 74
     0
 42
0.0000000001
 43
0.0000000001
 40
-3.0
 40
-3.0
 40
-3.0
 40
-3.0
 40
-2.0
 40
-1.0
 40
0.0
 40
0.0
 40
0.0
 40
0.0
 10
14.63765375600223
 20
60.6487959600508
 30
0.0
 10
13.85926262296646
 20
62.52913814439868
 30
0.0
 10
11.39652154395147
 20
65.87095591400782
 30
0.0
 10
6.096346900435019
 20
69.08727374733164
 30
0.0
 10
2.031762173487262
 20
69.82370905786644
 30
0.0
 10
-0.0000000000000036
 20
69.80719526155724
 30
0.0
  0
SPLINE
  5
12A
330
1F
100
AcDbEntity
  8
Default
100
AcDbSpline
210
0.0
220
0.0
230
1.0
 70
     8
 71
     3
 72
    10
 73
     6
 74
     0
 42
0.0000000001
 43
0.0000000001
 40
0.0
 40
0.0
 40
0.0
 40
0.0
 40
1.0
 40
2.0
 40
3.0
 40
3.0
 40
3.0
 40
3.0
 10
-0.0000000000000036
 20
69.80719526155724
 30
0.0
 10
-2.03176217348727
 20
69.82370905786644
 30
0.0
 10
-6.096346900435027
 20
69.08727374733164
 30
0.0
 10
-11.39652154395148
 20
65.87095591400782
 30
0.0
 10
-13.85926262296647
 20
62.52913814439868
 30
0.0
 10
-14.63765375600224
 20
60.6487959600508
 30
0.0
  0
SPLINE
  5
12B
330
1F
100
AcDbEntity
  8
Default
100
AcDbSpline
210
0.0
220
0.0
230
1.0
 70
     8
 71
     3
 72
    10
 73
     6
 74
     0
 42
0.0000000001
 43
0.0000000001
 40
-3.0
 40
-3.0
 40
-3.0
 40
-3.0
 40
-2.0
 40
-1.0
 40
0.0
 40
0.0
 40
0.0
 40
0.0
 10
-14.63765375600224
 20
60.6487959600508
 30
0.0
 10
-14.83152556871935
 20
60.17839986807373
 30
0.0
 10
-15.14735189040227
 20
59.20920178971463
 30
0.0
 10
-15.34885163602357
 20
57.68345244482655
 30
0.0
 10
-15.13653364910568
 20
56.6685285138303
 30
0.0
 10
-14.91142398297176
 20
56.21057337068682
 30
0.0
  0
SPLINE
  5
12C
330
1F
100
AcDbEntity
  8
Make2D visible lines - Tangent
100
AcDbSpline
210
0.0
220
0.0
230
1.0
 70
    12
 71
     2
 72
     6
 73
     3
 74
     0
 42
0.0000000001
 43
0.0000000001
 40
-1.290200918579388
 40
-1.290200918579388
 40
-1.290200918579388
 40
0.0
 40
0.0
 40
0.0
 10
0.3835280733801357
 20
44.72596757647226
 30
0.0
 41
0.9999999993028318
 10
0.3763742640082607
 20
44.08049776572027
 30
0.0
 41
0.9999999996040198
 10
0.3692291087560229
 20
43.43497224626102
 30
0.0
 41
1.0
  0
SPLINE
  5
12D
330
1F
100
AcDbEntity
  8
Make2D visible lines - Tangent
100
AcDbSpline
210
0.0
220
0.0
230
1.0
 70
     8
 71
     3
 72
    14
 73
    10
 74
     0
 42
0.0000000001
 43
0.0000000001
 40
0.0
 40
0.0
 40
0.0
 40
0.0
 40
1.0
 40
2.0
 40
3.0
 40
4.0
 40
5.0
 40
6.0
 40
7.0
 40
7.0
 40
7.0
 40
7.0
 10
0.3692291087560229
 20
43.43497224626102
 30
0.0
 10
0.3681792200333033
 20
43.36466663321598
 30
0.0
 10
0.3478821534581585
 20
43.23203069081078
 30
0.0
 10
0.2620972967860562
 20
43.04965351902037
 30
0.0
 10
0.1027023299644065
 20
42.91484247625464
 30
0.0
 10
-0.1104851349790182
 20
42.91821979054482
 30
0.0
 10
-0.2666415048182441
 20
43.05619110394279
 30
0.0
 10
-0.3500621393612435
 20
43.23958037939437
 30
0.0
 10
-0.3689701568728728
 20
43.37241768142816
 30
0.0
 10
-0.3690000000011257
 20
43.43885108978691
 30
0.0
  0
SPLINE
  5
12E
330
1F
100
AcDbEntity
  8
Make2D visible lines - Tangent
100
AcDbSpline
210
0.0
220
0.0
230
1.0
 70
    12
 71
     2
 72
     6
 73
     3
 74
     0
 42
0.0000000001
 43
0.0000000001
 40
0.0
 40
0.0
 40
0.0
 40
1.287184386108678
 40
1.287184386108678
 40
1.287184386108678
 10
-0.3690000000011257
 20
43.43885108978691
 30
0.0
 41
1.0
 10
-0.3760958868177627
 20
44.08240416356134
 30
0.0
 41
0.9999999996049456
 10
-0.3832042757697647
 20
44.72595709936441
 30
0.0
 41
0.9999999993042407
  0
SPLINE
  5
12F
330
1F
100
AcDbEntity
  8
Make2D visible lines - Tangent
100
AcDbSpline
210
0.0
220
0.0
230
1.0
 70
     8
 71
     3
 72
    14
 73
    10
 74
     0
 42
0.0000000001
 43
0.0000000001
 40
0.4515573393837257
 40
0.4515573393837257
 40
0.4515573393837257
 40
0.4515573393837257
 40
1.0
 40
2.0
 40
3.0
 40
4.0
 40
5.0
 40
6.0
 40
6.512759776800181
 40
6.512759776800181
 40
6.512759776800181
 40
6.512759776800181
 10
-0.3622296337438005
 20
70.27164446871282
 30
0.0
 10
-0.3571332810663182
 20
70.30836493553807
 30
0.0
 10
-0.3349698929120865
 20
70.40912273891567
 30
0.0
 10
-0.2620972967860737
 20
70.56404866055342
 30
0.0
 10
-0.102702329964424
 20
70.69885970331916
 30
0.0
 10
0.1104851349790007
 20
70.69548238902897
 30
0.0
 10
0.2666415048182266
 20
70.557511075631
 30
0.0
 10
0.3365135098298255
 20
70.40390667734727
 30
0.0
 10
0.3575788967480215
 20
70.30538037526799
 30
0.0
 10
0.3622730567204339
 20
70.27164348343683
 30
0.0
  0
SPLINE
  5
130
330
1F
100
AcDbEntity
  8
Default
100
AcDbSpline
210
0.0
220
0.0
230
1.0
 70
     8
 71
     3
 72
    19
 73
    15
 74
     0
 42
0.0000000001
 43
0.0000000001
 40
-12.0
 40
-12.0
 40
-12.0
 40
-12.0
 40
-11.0
 40
-10.0
 40
-9.0
 40
-8.0
 40
-7.0
 40
-6.0
 40
-5.0
 40
-4.0
 40
-3.0
 40
-2.0
 40
-1.0
 40
0.0
 40
0.0
 40
0.0
 40
0.0
 10
8.263647002088174
 20
48.13155164871248
 30
0.0
 10
8.948678803645729
 20
48.79128260204376
 30
0.0
 10
10.30711521496657
 20
50.1154098778669
 30
0.0
 10
12.35033035111231
 20
52.12423543486779
 30
0.0
 10
14.0540873403448
 20
54.37689861985357
 30
0.0
 10
15.77889375611169
 20
56.78483627888495
 30
0.0
 10
15.5662573480568
 20
59.75072431650177
 30
0.0
 10
14.37186414433359
 20
62.35532105641268
 30
0.0
 10
12.70506191407278
 20
64.68429229474373
 30
0.0
 10
10.62236428568591
 20
66.65008427710163
 30
0.0
 10
8.235424505668274
 20
68.22785287971558
 30
0.0
 10
5.619849521109284
 20
69.38752271512493
 30
0.0
 10
2.850983787068596
 20
70.1076079571512
 30
0.0
 10
0.9506117815189548
 20
70.27539694615123
 30
0.0
 10
-0.0000000000000036
 20
70.2758435227536
 30
0.0
  0
SPLINE
  5
131
330
1F
100
AcDbEntity
  8
Default
100
AcDbSpline
210
0.0
220
0.0
230
1.0
 70
     8
 71
     3
 72
    16
 73
    12
 74
     0
 42
0.0000000001
 43
0.0000000001
 40
0.0
 40
0.0
 40
0.0
 40
0.0
 40
1.0
 40
2.0
 40
3.0
 40
4.0
 40
5.0
 40
6.0
 40
7.0
 40
8.0
 40
8.46908142162564
 40
8.46908142162564
 40
8.46908142162564
 40
8.46908142162564
 10
-0.0000000000000036
 20
70.2758435227536
 30
0.0
 10
-0.9506117815189619
 20
70.27539694615123
 30
0.0
 10
-2.850983787068603
 20
70.1076079571512
 30
0.0
 10
-5.619849521109291
 20
69.38752271512493
 30
0.0
 10
-8.23542450566828
 20
68.22785287971558
 30
0.0
 10
-10.62236428568592
 20
66.65008427710163
 30
0.0
 10
-12.70506191407279
 20
64.68429229474373
 30
0.0
 10
-14.3718641443336
 20
62.35532105641268
 30
0.0
 10
-15.56625734805681
 20
59.75072431650177
 30
0.0
 10
-15.74126288295333
 20
57.30971796573463
 30
0.0
 10
-15.14849135930983
 20
56.05803573278809
 30
0.0
 10
-14.92185737766079
 20
55.67190501748977
 30
0.0
  0
SPLINE
  5
132
330
1F
100
AcDbEntity
  8
Make2D visible lines - Tangent
100
AcDbSpline
210
0.0
220
0.0
230
1.0
 70
    12
 71
     2
 72
     6
 73
     3
 74
     0
 42
0.0000000001
 43
0.0000000001
 40
0.0250459851910567
 40
0.0250459851910567
 40
0.0250459851910567
 40
0.1369528492222414
 40
0.1369528492222414
 40
0.1369528492222414
 10
0.3671608614474556
 20
70.27153184142887
 30
0.0
 41
0.9999988755525053
 10
0.3663187070032188
 20
70.32747798337655
 30
0.0
 41
0.9999965550424579
 10
0.3669329088942618
 20
70.38345006215079
 30
0.0
 41
0.9999959461296658
  0
ARC
  5
133
330
1F
100
AcDbEntity
  8
Make2D visible lines - Tangent
100
AcDbCircle
 10
0.8668652971617392
 20
70.39167241954854
 30
0.0
 40
0.5
100
AcDbArc
 50
168.4871521735349
 51
180.9422552251326
  0
SPLINE
  5
134
330
1F
100
AcDbEntity
  8
Make2D visible lines - Tangent
100
AcDbSpline
210
0.0
220
0.0
230
1.0
 70
     8
 71
     3
 72
    14
 73
    10
 74
     0
 42
0.0000000001
 43
0.0000000001
 40
0.2772630823298201
 40
0.2772630823298201
 40
0.2772630823298201
 40
0.2772630823298201
 40
1.0
 40
2.0
 40
3.0
 40
4.0
 40
5.0
 40
6.0
 40
7.0
 40
7.0
 40
7.0
 40
7.0
 10
0.3769253099904723
 20
70.49146625187609
 30
0.0
 10
0.3850225723278253
 20
70.53121993718074
 30
0.0
 10
0.4000888111859823
 20
70.62684571518966
 30
0.0
 10
0.4048301803112444
 20
70.7800002719332
 30
0.0
 10
0.3868157866532552
 20
70.94777658562384
 30
0.0
 10
0.3452864226172062
 20
71.11152238100925
 30
0.0
 10
0.274798048440126
 20
71.26538991593577
 30
0.0
 10
0.1646929405789698
 20
71.39634940500156
 30
0.0
 10
0.0566834953305386
 20
71.44156960849637
 30
0.0
 10
-0.0000005023035952
 20
71.44106210278943
 30
0.0
  0
SPLINE
  5
135
330
1F
100
AcDbEntity
  8
Make2D visible lines - Tangent
100
AcDbSpline
210
0.0
220
0.0
230
1.0
 70
     8
 71
     3
 72
    14
 73
    10
 74
     0
 42
0.0000000001
 43
0.0000000001
 40
-7.0
 40
-7.0
 40
-7.0
 40
-7.0
 40
-6.0
 40
-5.0
 40
-4.0
 40
-3.0
 40
-2.0
 40
-1.0
 40
-0.2482205602640466
 40
-0.2482205602640466
 40
-0.2482205602640466
 40
-0.2482205602640466
 10
-0.0000005023035952
 20
71.44106210278943
 30
0.0
 10
-0.056684499937729
 20
71.44156960849637
 30
0.0
 10
-0.1646939451861602
 20
71.39634940500156
 30
0.0
 10
-0.2747990530473164
 20
71.26538991593577
 30
0.0
 10
-0.3452874272243966
 20
71.11152238100925
 30
0.0
 10
-0.3868167912604456
 20
70.94777658562384
 30
0.0
 10
-0.4048311849184348
 20
70.7800002719332
 30
0.0
 10
-0.4000392411979746
 20
70.62521206686881
 30
0.0
 10
-0.3845121634409263
 20
70.52799611264572
 30
0.0
 10
-0.3759415877765304
 20
70.48667562792687
 30
0.0
  0
ARC
  5
136
330
1F
100
AcDbEntity
  8
Make2D visible lines - Tangent
100
AcDbCircle
 10
-0.8655211721033691
 20
70.38512844376916
 30
0.0
 40
0.5
100
AcDbArc
 50
358.9775798079559
 51
11.71796787816672
  0
SPLINE
  5
137
330
1F
100
AcDbEntity
  8
Make2D visible lines - Tangent
100
AcDbSpline
210
0.0
220
0.0
230
1.0
 70
    12
 71
     2
 72
     6
 73
     3
 74
     0
 42
0.0000000001
 43
0.0000000001
 40
-0.1297405451143296
 40
-0.1297405451143296
 40
-0.1297405451143296
 40
-0.025036663849024
 40
-0.025036663849024
 40
-0.025036663849024
 10
-0.3656007774165463
 20
70.37620661793743
 30
0.0
 41
0.9999960316975589
 10
-0.3665349276279711
 20
70.3238629888194
 30
0.0
 41
0.9999967046070289
 10
-0.3675972219627819
 20
70.27152180353846
 30
0.0
 41
0.9999988759207846
  0
SPLINE
  5
138
330
1F
100
AcDbEntity
  8
Make2D visible lines - Tangent
100
AcDbSpline
210
0.0
220
0.0
230
1.0
 70
    12
 71
     2
 72
     6
 73
     3
 74
     0
 42
0.0000000001
 43
0.0000000001
 40
0.0
 40
0.0
 40
0.0
 40
0.0586712320260919
 40
0.0586712320260919
 40
0.0586712320260919
 10
0.0000000000871161
 20
42.17004761680663
 30
0.0
 41
1.0
 10
-0.0294905925234669
 20
42.17009109800792
 30
0.0
 41
0.9921343149382713
 10
-0.0580461792410674
 20
42.17745828270438
 30
0.0
 41
1.0
  0
SPLINE
  5
139
330
1F
100
AcDbEntity
  8
Make2D visible lines - Tangent
100
AcDbSpline
210
0.0
220
0.0
230
1.0
 70
    24
 71
     2
 72
     6
 73
     3
 74
     0
 42
0.0000000001
 43
0.0000000001
 40
0.0
 40
0.0
 40
0.0
 40
0.0114467396849787
 40
0.0114467396849787
 40
0.0114467396849787
 10
0.0000000000871161
 20
42.17004761680663
 30
0.0
 10
0.0000000026667664
 20
42.16432424696414
 30
0.0
 10
0.0000000052464166
 20
42.15860087712165
 30
0.0
  0
SPLINE
  5
13A
330
1F
100
AcDbEntity
  8
Default
100
AcDbSpline
210
0.0
220
0.0
230
1.0
 70
     8
 71
     3
 72
     8
 73
     4
 74
     0
 42
0.0000000001
 43
0.0000000001
 40
0.0
 40
0.0
 40
0.0
 40
0.0
 40
0.5025547712488262
 40
0.5025547712488262
 40
0.5025547712488262
 40
0.5025547712488262
 10
-14.91142609330182
 20
56.21057337068682
 30
0.0
 10
-14.82728436114231
 20
56.03599086831115
 30
0.0
 10
-14.73573923623062
 20
55.86530048697062
 30
0.0
 10
-14.63903160883643
 20
55.6975179719706
 30
0.0
  0
SPLINE
  5
13B
330
1F
100
AcDbEntity
  8
Default
100
AcDbSpline
210
0.0
220
0.0
230
1.0
 70
     8
 71
     3
 72
    10
 73
     6
 74
     0
 42
0.0000000001
 43
0.0000000001
 40
4.060228117203671
 40
4.060228117203671
 40
4.060228117203671
 40
4.060228117203671
 40
5.0
 40
6.0
 40
7.0
 40
7.0
 40
7.0
 40
7.0
 10
-14.0474196698299
 20
55.71804848644809
 30
0.0
 10
-14.31628965850673
 20
56.17312381135211
 30
0.0
 10
-14.78868793118243
 20
57.16707700436651
 30
0.0
 10
-14.74325549198956
 20
58.85280712618101
 30
0.0
 10
-14.43135721196507
 20
59.92840960205039
 30
0.0
 10
-14.22301755008739
 20
60.44892402341728
 30
0.0
  0
SPLINE
  5
13C
330
1F
100
AcDbEntity
  8
Default
100
AcDbSpline
210
0.0
220
0.0
230
1.0
 70
     8
 71
     3
 72
    13
 73
     9
 74
     0
 42
0.0000000001
 43
0.0000000001
 40
11.2388243463028
 40
11.2388243463028
 40
11.2388243463028
 40
11.2388243463028
 40
12.0
 40
13.0
 40
14.0
 40
15.0
 40
16.0
 40
17.0
 40
17.0
 40
17.0
 40
17.0
 10
-6.293961314689922
 20
46.60042747757851
 30
0.0
 10
-6.047041966538133
 20
46.44200840651392
 30
0.0
 10
-5.46325117985137
 20
46.09488121793348
 30
0.0
 10
-4.50639787111216
 20
45.62644047909802
 30
0.0
 10
-3.421682739898078
 20
45.22172924307444
 30
0.0
 10
-2.300938724359316
 20
44.93125959388221
 30
0.0
 10
-1.156285124999247
 20
44.75755241783797
 30
0.0
 10
-0.3854179865823006
 20
44.71947544492684
 30
0.0
 10
-0.0000010551650327
 20
44.72011704620322
 30
0.0
  0
SPLINE
  5
13D
330
1F
100
AcDbEntity
  8
Default
100
AcDbSpline
210
0.0
220
0.0
230
1.0
 70
     8
 71
     3
 72
    24
 73
    20
 74
     0
 42
0.0000000001
 43
0.0000000001
 40
-17.0
 40
-17.0
 40
-17.0
 40
-17.0
 40
-16.0
 40
-15.0
 40
-14.0
 40
-13.0
 40
-12.0
 40
-11.0
 40
-10.0
 40
-9.0
 40
-8.0
 40
-7.0
 40
-6.0
 40
-5.0
 40
-4.0
 40
-3.0
 40
-2.0
 40
-1.0
 40
0.0
 40
0.0
 40
0.0
 40
0.0
 10
-0.0000010551650327
 20
44.72011704620322
 30
0.0
 10
0.3854158762522353
 20
44.71947544492684
 30
0.0
 10
1.156283014669167
 20
44.75755241783797
 30
0.0
 10
2.300936614029251
 20
44.93125959388221
 30
0.0
 10
3.421680629568012
 20
45.22172924307444
 30
0.0
 10
4.50639576078208
 20
45.62644047909802
 30
0.0
 10
5.546010869069004
 20
46.13539839875252
 30
0.0
 10
6.534317701357136
 20
46.73786337167525
 30
0.0
 10
7.465343956146892
 20
47.42515676259709
 30
0.0
 10
8.335180489742921
 20
48.18856043040009
 30
0.0
 10
9.14127891774836
 20
49.01807019961487
 30
0.0
 10
9.95692506071432
 20
49.83751795435551
 30
0.0
 10
10.74678166365693
 20
50.68221688376976
 30
0.0
 10
11.50720277934919
 20
51.55341493907047
 30
0.0
 10
12.241505677567
 20
52.44664996827527
 30
0.0
 10
12.96930437610367
 20
53.34500317129343
 30
0.0
 10
13.69034096783704
 20
54.24922258720215
 30
0.0
 10
14.35051352899078
 20
55.1992245675146
 30
0.0
 10
14.74399599905187
 20
55.86318336990771
 30
0.0
 10
14.91142398297175
 20
56.21057337068682
 30
0.0
  0
SPLINE
  5
13E
330
1F
100
AcDbEntity
  8
Default
100
AcDbSpline
210
0.0
220
0.0
230
1.0
 70
     8
 71
     3
 72
    10
 73
     6
 74
     0
 42
0.0000000001
 43
0.0000000001
 40
-6.708185088176815
 40
-6.708185088176815
 40
-6.708185088176815
 40
-6.708185088176815
 40
-3.774518777477097
 40
-1.88935418416962
 40
0.0
 40
0.0
 40
0.0
 40
0.0
 10
-6.201188772901784
 20
47.53857964781879
 30
0.0
 10
-5.443720768797371
 20
46.92032807454987
 30
0.0
 10
-4.043281482774807
 20
46.09570468299033
 30
0.0
 10
-1.887980244613619
 20
45.4641248967865
 30
0.0
 10
-0.6297323882777057
 20
45.34311144053103
 30
0.0
 10
-0.0000000000000036
 20
45.34304360538388
 30
0.0
  0
SPLINE
  5
13F
330
1F
100
AcDbEntity
  8
Default
100
AcDbSpline
210
0.0
220
0.0
230
1.0
 70
     8
 71
     3
 72
    12
 73
     8
 74
     0
 42
0.0000000001
 43
0.0000000001
 40
0.0
 40
0.0
 40
0.0
 40
0.0
 40
1.88935418416962
 40
3.774518777477097
 40
7.516681648226319
 40
11.21816892444778
 40
14.89017237659325
 40
14.89017237659325
 40
14.89017237659325
 40
14.89017237659325
 10
-0.0000000000000036
 20
45.34304360538388
 30
0.0
 10
0.6297323882776986
 20
45.34311144053103
 30
0.0
 10
1.887980244613612
 20
45.4641248967865
 30
0.0
 10
4.303046771600091
 20
46.17182513551669
 30
0.0
 10
6.966155209098442
 20
47.88869910306368
 30
0.0
 10
9.1181610752327
 20
50.9955217328671
 30
0.0
 10
9.625314070356191
 20
53.45271717622808
 30
0.0
 10
9.624986009364642
 20
54.67688347010731
 30
0.0
  0
SPLINE
  5
140
330
1F
100
AcDbEntity
  8
Default
100
AcDbSpline
210
0.0
220
0.0
230
1.0
 70
     8
 71
     3
 72
    12
 73
     8
 74
     0
 42
0.0000000001
 43
0.0000000001
 40
-15.35241690788854
 40
-15.35241690788854
 40
-15.35241690788854
 40
-15.35241690788854
 40
-11.42846741267097
 40
-7.624448814229928
 40
-3.868777023834104
 40
-1.918304340297428
 40
0.0
 40
0.0
 40
0.0
 40
0.0
 10
9.624986009364642
 20
54.67688347010731
 30
0.0
 10
9.625007102909445
 20
55.98426649415416
 30
0.0
 10
9.15954052073513
 20
58.5660725282223
 30
0.0
 10
7.055060777500128
 20
61.85576764525891
 30
0.0
 10
4.375152947680728
 20
63.67047400682512
 30
0.0
 10
1.929224691108583
 20
64.40455893217211
 30
0.0
 10
0.6393727416778567
 20
64.52936923097656
 30
0.0
 10
-0.0000000000000036
 20
64.52883861008124
 30
0.0
  0
SPLINE
  5
141
330
1F
100
AcDbEntity
  8
Default
100
AcDbSpline
210
0.0
220
0.0
230
1.0
 70
     8
 71
     3
 72
    12
 73
     8
 74
     0
 42
0.0000000001
 43
0.0000000001
 40
0.0
 40
0.0
 40
0.0
 40
0.0
 40
1.918304340297428
 40
3.868777023834104
 40
7.624448814229928
 40
11.42846741267097
 40
15.35241690788854
 40
15.35241690788854
 40
15.35241690788854
 40
15.35241690788854
 10
-0.0000000000000036
 20
64.52883861008124
 30
0.0
 10
-0.6393727416778638
 20
64.52936923097656
 30
0.0
 10
-1.92922469110859
 20
64.40455893217211
 30
0.0
 10
-4.375152947680736
 20
63.67047400682512
 30
0.0
 10
-7.055060777500135
 20
61.85576764525891
 30
0.0
 10
-9.159540520735138
 20
58.5660725282223
 30
0.0
 10
-9.625007102909453
 20
55.98426649415416
 30
0.0
 10
-9.624986009364651
 20
54.67688347010731
 30
0.0
  0
SPLINE
  5
142
330
1F
100
AcDbEntity
  8
Default
100
AcDbSpline
210
0.0
220
0.0
230
1.0
 70
     8
 71
     3
 72
     8
 73
     4
 74
     0
 42
0.0000000001
 43
0.0000000001
 40
-14.89017237659325
 40
-14.89017237659325
 40
-14.89017237659325
 40
-14.89017237659325
 40
-14.55237807590695
 40
-14.55237807590695
 40
-14.55237807590695
 40
-14.55237807590695
 10
-9.624986009364651
 20
54.67688347010731
 30
0.0
 10
-9.62501618829413
 20
54.56427017805742
 30
0.0
 10
-9.622906281534089
 20
54.45166095878439
 30
0.0
 10
-9.618675467553661
 20
54.33913195124894
 30
0.0
  0
ENDSEC
  0
SECTION
  2
OBJECTS
  0
DICTIONARY
  5
C
330
0
100
AcDbDictionary
281
     1
  3
ACAD_GROUP
350
D
  3
ACAD_LAYOUT
350
1A
  3
ACAD_MLEADERSTYLE
350
144
  3
ACAD_MLINESTYLE
350
17
  3
ACAD_PLOTSETTINGS
350
19
  3
ACAD_PLOTSTYLENAME
350
E
  3
ACAD_TABLESTYLE
350
143
  3
ACAD_VISUALSTYLE
350
2A
  0
DICTIONARY
  5
D
102
{ACAD_REACTORS
330
C
102
}
330
C
100
AcDbDictionary
281
     1
  0
DICTIONARY
  5
1A
102
{ACAD_REACTORS
330
C
102
}
330
C
100
AcDbDictionary
281
     1
  3
Layout1
350
1E
  3
Layout2
350
26
  3
Model
350
22
  0
DICTIONARY
  5
144
102
{ACAD_REACTORS
330
C
102
}
330
C
100
AcDbDictionary
281
     1
  0
DICTIONARY
  5
17
102
{ACAD_REACTORS
330
C
102
}
330
C
100
AcDbDictionary
281
     1
  3
Standard
350
18
  0
DICTIONARY
  5
19
102
{ACAD_REACTORS
330
C
102
}
330
C
100
AcDbDictionary
281
     1
  0
ACDBDICTIONARYWDFLT
  5
E
102
{ACAD_REACTORS
330
C
102
}
330
C
100
AcDbDictionary
281
     1
  3
Normal
350
F
100
AcDbDictionaryWithDefault
340
F
  0
DICTIONARY
  5
143
102
{ACAD_REACTORS
330
C
102
}
330
C
100
AcDbDictionary
281
     1
  0
DICTIONARY
  5
2A
102
{ACAD_REACTORS
330
C
102
}
330
C
100
AcDbDictionary
281
     1
  3
2dWireframe
350
2F
  3
3D Hidden
350
31
  3
3dWireframe
350
30
  3
Basic
350
32
  3
Brighten
350
36
  3
ColorChange
350
3A
  3
Conceptual
350
34
  3
Dim
350
35
  3
Facepattern
350
39
  3
Flat
350
2B
  3
FlatWithEdges
350
2C
  3
Gouraud
350
2D
  3
GouraudWithEdges
350
2E
  3
Linepattern
350
38
  3
Realistic
350
33
  3
Thicken
350
37
  0
LAYOUT
  5
1E
102
{ACAD_REACTORS
330
1A
102
}
330
1A
100
AcDbPlotSettings
  1

  2
none_device
  4

  6

 40
0.0
 41
0.0
 42
0.0
 43
0.0
 44
0.0
 45
0.0
 46
0.0
 47
0.0
 48
0.0
 49
0.0
140
0.0
141
0.0
142
1.0
143
1.0
 70
   688
 72
     0
 73
     0
 74
     5
  7

 75
    16
 76
     0
 77
     2
 78
   300
147
1.0
148
0.0
149
0.0
100
AcDbLayout
  1
Layout1
 70
     1
 71
     1
 10
0.0
 20
0.0
 11
12.0
 21
9.0
 12
0.0
 22
0.0
 32
0.0
 14
1.000000000000000E+20
 24
1.000000000000000E+20
 34
1.000000000000000E+20
 15
-1.000000000000000E+20
 25
-1.000000000000000E+20
 35
-1.000000000000000E+20
146
0.0
 13
0.0
 23
0.0
 33
0.0
 16
1.0
 26
0.0
 36
0.0
 17
0.0
 27
1.0
 37
0.0
 76
     0
330
1B
  0
LAYOUT
  5
26
102
{ACAD_REACTORS
330
1A
102
}
330
1A
100
AcDbPlotSettings
  1

  2
none_device
  4

  6

 40
0.0
 41
0.0
 42
0.0
 43
0.0
 44
0.0
 45
0.0
 46
0.0
 47
0.0
 48
0.0
 49
0.0
140
0.0
141
0.0
142
1.0
143
1.0
 70
   688
 72
     0
 73
     0
 74
     5
  7

 75
    16
 76
     0
 77
     2
 78
   300
147
1.0
148
0.0
149
0.0
100
AcDbLayout
  1
Layout2
 70
     1
 71
     2
 10
0.0
 20
0.0
 11
0.0
 21
0.0
 12
0.0
 22
0.0
 32
0.0
 14
0.0
 24
0.0
 34
0.0
 15
0.0
 25
0.0
 35
0.0
146
0.0
 13
0.0
 23
0.0
 33
0.0
 16
1.0
 26
0.0
 36
0.0
 17
0.0
 27
1.0
 37
0.0
 76
     0
330
23
  0
LAYOUT
  5
22
102
{ACAD_REACTORS
330
1A
102
}
330
1A
100
AcDbPlotSettings
  1

  2
none_device
  4

  6

 40
0.0
 41
0.0
 42
0.0
 43
0.0
 44
0.0
 45
0.0
 46
0.0
 47
0.0
 48
0.0
 49
0.0
140
0.0
141
0.0
142
1.0
143
1.0
 70
  1712
 72
     0
 73
     0
 74
     0
  7

 75
     0
 76
     0
 77
     2
 78
   300
147
1.0
148
0.0
149
0.0
100
AcDbLayout
  1
Model
 70
     1
 71
     0
 10
0.0
 20
0.0
 11
12.0
 21
9.0
 12
0.0
 22
0.0
 32
0.0
 14
-21.94529949049637
 24
0.0000000000000034
 34
0.0
 15
61.58874290579941
 25
71.456204210915
 35
0.0
146
0.0
 13
0.0
 23
0.0
 33
0.0
 16
1.0
 26
0.0
 36
0.0
 17
0.0
 27
1.0
 37
0.0
 76
     0
330
1F
331
29
  0
MLINESTYLE
  5
18
102
{ACAD_REACTORS
330
17
102
}
330
17
100
AcDbMlineStyle
  2
Standard
 70
     0
  3

 62
   256
 51
90.0
 52
90.0
 71
     2
 49
0.5
 62
   256
  6
BYLAYER
 49
-0.5
 62
   256
  6
BYLAYER
  0
ACDBPLACEHOLDER
  5
F
102
{ACAD_REACTORS
330
E
102
}
330
E
  0
VISUALSTYLE
  5
2F
102
{ACAD_REACTORS
330
2A
102
}
330
2A
100
AcDbVisualStyle
  2
2dWireframe
 70
     4
 71
     0
 72
     2
 73
     0
 90
        0
 40
-0.6
 41
-30.0
 62
     5
 63
     7
421
 16777215
 74
     1
 91
        4
 64
     7
 65
   257
 75
     1
175
     1
 42
1.0
 92
        0
 66
   257
 43
1.0
 76
     1
 77
     6
 78
     2
 67
     7
 79
     5
170
     0
171
     0
290
     0
174
     0
 93
        1
 44
0.0
173
     0
291
     0
 45
0.0
1001
ACAD
1000
AcDbSavedByObjectVersion
1070
     0
  0
VISUALSTYLE
  5
31
102
{ACAD_REACTORS
330
2A
102
}
330
2A
100
AcDbVisualStyle
  2
3D Hidden
 70
     6
 71
     1
 72
     2
 73
     2
 90
        0
 40
-0.6
 41
-30.0
 62
     5
 63
     7
421
 16777215
 74
     2
 91
        2
 64
     7
 65
   257
 75
     2
175
     1
 42
40.0
 92
        0
 66
   257
 43
1.0
 76
     1
 77
     6
 78
     2
 67
     7
 79
     3
170
     0
171
     0
290
     0
174
     0
 93
        1
 44
0.0
173
     0
291
     0
 45
0.0
1001
ACAD
1000
AcDbSavedByObjectVersion
1070
     0
  0
VISUALSTYLE
  5
30
102
{ACAD_REACTORS
330
2A
102
}
330
2A
100
AcDbVisualStyle
  2
3dWireframe
 70
     5
 71
     0
 72
     2
 73
     0
 90
        0
 40
-0.6
 41
-30.0
 62
     5
 63
     7
421
 16777215
 74
     1
 91
        4
 64
     7
 65
   257
 75
     1
175
     1
 42
1.0
 92
        0
 66
   257
 43
1.0
 76
     1
 77
     6
 78
     2
 67
     7
 79
     5
170
     0
171
     0
290
     0
174
     0
 93
        1
 44
0.0
173
     0
291
     0
 45
0.0
1001
ACAD
1000
AcDbSavedByObjectVersion
1070
     0
  0
VISUALSTYLE
  5
32
102
{ACAD_REACTORS
330
2A
102
}
330
2A
100
AcDbVisualStyle
  2
Basic
 70
     7
 71
     1
 72
     0
 73
     1
 90
        0
 40
-0.6
 41
-30.0
 62
     5
 63
     7
421
 16777215
 74
     0
 91
        4
 64
     7
 65
   257
 75
     1
175
     1
 42
1.0
 92
        8
 66
     7
 43
1.0
 76
     1
 77
     6
 78
     2
 67
     7
 79
     5
170
     0
171
     0
290
     0
174
     0
 93
        1
 44
0.0
173
     0
291
     1
 45
0.0
1001
ACAD
1000
AcDbSavedByObjectVersion
1070
     0
  0
VISUALSTYLE
  5
36
102
{ACAD_REACTORS
330
2A
102
}
330
2A
100
AcDbVisualStyle
  2
Brighten
 70
    12
 71
     2
 72
     2
 73
     0
 90
        0
 40
-0.6
 41
-30.0
 62
     5
 63
     7
421
 16777215
 74
     1
 91
        4
 64
     7
 65
   257
 75
     1
175
     1
 42
1.0
 92
        8
 66
     7
 43
1.0
 76
     1
 77
     6
 78
     2
 67
     7
 79
     5
170
     0
171
     0
290
     0
174
     0
 93
        1
 44
50.0
173
     0
291
     1
 45
0.0
1001
ACAD
1000
AcDbSavedByObjectVersion
1070
     0
  0
VISUALSTYLE
  5
3A
102
{ACAD_REACTORS
330
2A
102
}
330
2A
100
AcDbVisualStyle
  2
ColorChange
 70
    16
 71
     2
 72
     2
 73
     3
 90
        0
 40
-0.6
 41
-30.0
 62
     5
 63
     8
421
  8421504
 74
     1
 91
        4
 64
     7
 65
   257
 75
     1
175
     1
 42
1.0
 92
        8
 66
     8
424
  8421504
 43
1.0
 76
     1
 77
     6
 78
     2
 67
     7
 79
     5
170
     0
171
     0
290
     0
174
     0
 93
        1
 44
0.0
173
     0
291
     1
 45
0.0
1001
ACAD
1000
AcDbSavedByObjectVersion
1070
     0
  0
VISUALSTYLE
  5
34
102
{ACAD_REACTORS
330
2A
102
}
330
2A
100
AcDbVisualStyle
  2
Conceptual
 70
     9
 71
     3
 72
     2
 73
     0
 90
        0
 40
-0.6
 41
-30.0
 62
     5
 63
     7
421
 16777215
 74
     2
 91
        2
 64
     7
 65
   257
 75
     1
175
     1
 42
40.0
 92
        8
 66
     7
 43
1.0
 76
     1
 77
     6
 78
     2
 67
     7
 79
     3
170
     0
171
     0
290
     0
174
     0
 93
        1
 44
0.0
173
     0
291
     0
 45
0.0
1001
ACAD
1000
AcDbSavedByObjectVersion
1070
     0
  0
VISUALSTYLE
  5
35
102
{ACAD_REACTORS
330
2A
102
}
330
2A
100
AcDbVisualStyle
  2
Dim
 70
    11
 71
     2
 72
     2
 73
     0
 90
        0
 40
-0.6
 41
-30.0
 62
     5
 63
     7
421
 16777215
 74
     1
 91
        4
 64
     7
 65
   257
 75
     1
175
     1
 42
1.0
 92
        8
 66
     7
 43
1.0
 76
     1
 77
     6
 78
     2
 67
     7
 79
     5
170
     0
171
     0
290
     0
174
     0
 93
        1
 44
-50.0
173
     0
291
     1
 45
0.0
1001
ACAD
1000
AcDbSavedByObjectVersion
1070
     0
  0
VISUALSTYLE
  5
39
102
{ACAD_REACTORS
330
2A
102
}
330
2A
100
AcDbVisualStyle
  2
Facepattern
 70
    15
 71
     2
 72
     2
 73
     0
 90
        0
 40
-0.6
 41
-30.0
 62
     5
 63
     7
421
 16777215
 74
     1
 91
        4
 64
     7
 65
   257
 75
     1
175
     1
 42
1.0
 92
        8
 66
     7
 43
1.0
 76
     1
 77
     6
 78
     2
 67
     7
 79
     5
170
     0
171
     0
290
     0
174
     0
 93
        1
 44
0.0
173
     0
291
     1
 45
0.0
1001
ACAD
1000
AcDbSavedByObjectVersion
1070
     0
  0
VISUALSTYLE
  5
2B
102
{ACAD_REACTORS
330
2A
102
}
330
2A
100
AcDbVisualStyle
  2
Flat
 70
     0
 71
     2
 72
     1
 73
     1
 90
        2
 40
-0.6
 41
30.0
 62
     5
 63
     7
421
 16777215
 74
     0
 91
        4
 64
     7
 65
   257
 75
     1
175
     1
 42
1.0
 92
        8
 66
     7
 43
1.0
 76
     1
 77
     6
 78
     2
 67
     7
 79
     5
170
     0
171
     0
290
     0
174
     0
 93
       13
 44
0.0
173
     0
291
     1
 45
0.0
1001
ACAD
1000
AcDbSavedByObjectVersion
1070
     0
  0
VISUALSTYLE
  5
2C
102
{ACAD_REACTORS
330
2A
102
}
330
2A
100
AcDbVisualStyle
  2
FlatWithEdges
 70
     1
 71
     2
 72
     1
 73
     1
 90
        2
 40
-0.6
 41
30.0
 62
     5
 63
     7
421
 16777215
 74
     1
 91
        4
 64
     7
 65
   257
 75
     1
175
     1
 42
1.0
 92
        0
 66
   257
 43
1.0
 76
     1
 77
     6
 78
     2
 67
     7
 79
     5
170
     0
171
     0
290
     0
174
     0
 93
       13
 44
0.0
173
     0
291
     1
 45
0.0
1001
ACAD
1000
AcDbSavedByObjectVersion
1070
     0
  0
VISUALSTYLE
  5
2D
102
{ACAD_REACTORS
330
2A
102
}
330
2A
100
AcDbVisualStyle
  2
Gouraud
 70
     2
 71
     2
 72
     2
 73
     1
 90
        2
 40
-0.6
 41
30.0
 62
     5
 63
     7
421
 16777215
 74
     0
 91
        4
 64
     7
 65
   257
 75
     1
175
     1
 42
1.0
 92
        0
 66
     7
 43
1.0
 76
     1
 77
     6
 78
     2
 67
     7
 79
     5
170
     0
171
     0
290
     0
174
     0
 93
       13
 44
0.0
173
     0
291
     1
 45
0.0
1001
ACAD
1000
AcDbSavedByObjectVersion
1070
     0
  0
VISUALSTYLE
  5
2E
102
{ACAD_REACTORS
330
2A
102
}
330
2A
100
AcDbVisualStyle
  2
GouraudWithEdges
 70
     3
 71
     2
 72
     2
 73
     1
 90
        2
 40
-0.6
 41
30.0
 62
     5
 63
     7
421
 16777215
 74
     1
 91
        4
 64
     7
 65
   257
 75
     1
175
     1
 42
1.0
 92
        0
 66
   257
 43
1.0
 76
     1
 77
     6
 78
     2
 67
     7
 79
     5
170
     0
171
     0
290
     0
174
     0
 93
       13
 44
0.0
173
     0
291
     1
 45
0.0
1001
ACAD
1000
AcDbSavedByObjectVersion
1070
     0
  0
VISUALSTYLE
  5
38
102
{ACAD_REACTORS
330
2A
102
}
330
2A
100
AcDbVisualStyle
  2
Linepattern
 70
    14
 71
     2
 72
     2
 73
     0
 90
        0
 40
-0.6
 41
-30.0
 62
     5
 63
     7
421
 16777215
 74
     1
 91
        4
 64
     7
 65
   257
 75
     7
175
     7
 42
1.0
 92
        8
 66
     7
 43
1.0
 76
     1
 77
     6
 78
     2
 67
     7
 79
     5
170
     0
171
     0
290
     0
174
     0
 93
        1
 44
0.0
173
     0
291
     1
 45
0.0
1001
ACAD
1000
AcDbSavedByObjectVersion
1070
     0
  0
VISUALSTYLE
  5
33
102
{ACAD_REACTORS
330
2A
102
}
330
2A
100
AcDbVisualStyle
  2
Realistic
 70
     8
 71
     2
 72
     2
 73
     0
 90
        0
 40
-0.6
 41
-30.0
 62
     5
 63
     7
421
 16777215
 74
     1
 91
        0
 64
     7
 65
   257
 75
     1
175
     1
 42
1.0
 92
        8
 66
     8
424
  7895160
 43
1.0
 76
     1
 77
     6
 78
     2
 67
     7
 79
     5
170
     0
171
     0
290
     0
174
     0
 93
       13
 44
0.0
173
     0
291
     0
 45
0.0
1001
ACAD
1000
AcDbSavedByObjectVersion
1070
     0
  0
VISUALSTYLE
  5
37
102
{ACAD_REACTORS
330
2A
102
}
330
2A
100
AcDbVisualStyle
  2
Thicken
 70
    13
 71
     2
 72
     2
 73
     0
 90
        0
 40
-0.6
 41
-30.0
 62
     5
 63
     7
421
 16777215
 74
     1
 91
        4
 64
     7
 65
   257
 75
     1
175
     1
 42
1.0
 92
       12
 66
     7
 43
1.0
 76
     1
 77
     6
 78
     2
 67
     7
 79
     5
170
     0
171
     0
290
     0
174
     0
 93
        1
 44
0.0
173
     0
291
     1
 45
0.0
1001
ACAD
1000
AcDbSavedByObjectVersion
1070
     0
  0
ENDSEC
  0
EOF
