  0
SECTION
  2
HEADER
  9
$ACADVER
  1
AC1018
  9
$ACADMAINTVER
 70
     0
  9
$DWGCODEPAGE
  3
ANSI_1252
  9
$INSBASE
 10
0.0
 20
0.0
 30
0.0
  9
$EXTMIN
 10
-21.94529949049637
 20
-0.0000000000000001
 30
0.0
  9
$EXTMAX
 10
59.3776832835701
 20
69.04066176504008
 30
0.0
  9
$LIMMIN
 10
0.0
 20
0.0
  9
$LIMMAX
 10
12.0
 20
9.0
  9
$ORTHOMODE
 70
     0
  9
$REGENMODE
 70
     1
  9
$FILLMODE
 70
     1
  9
$QTEXTMODE
 70
     0
  9
$MIRRTEXT
 70
     1
  9
$LTSCALE
 40
0.0393700787401575
  9
$ATTMODE
 70
     1
  9
$TEXTSIZE
 40
0.2
  9
$TRACEWID
 40
0.05
  9
$TEXTSTYLE
  7
Standard
  9
$CLAYER
  8
Default
  9
$CELTYPE
  6
ByLayer
  9
$CECOLOR
 62
   256
  9
$CELTSCALE
 40
1.0
  9
$DISPSILH
 70
     0
  9
$DIMSCALE
 40
1.0
  9
$DIMASZ
 40
0.18
  9
$DIMEXO
 40
0.0625
  9
$DIMDLI
 40
0.38
  9
$DIMRND
 40
0.0
  9
$DIMDLE
 40
0.0
  9
$DIMEXE
 40
0.18
  9
$DIMTP
 40
0.0
  9
$DIMTM
 40
0.0
  9
$DIMTXT
 40
0.18
  9
$DIMCEN
 40
0.09
  9
$DIMTSZ
 40
0.0
  9
$DIMTOL
 70
     0
  9
$DIMLIM
 70
     0
  9
$DIMTIH
 70
     1
  9
$DIMTOH
 70
     1
  9
$DIMSE1
 70
     0
  9
$DIMSE2
 70
     0
  9
$DIMTAD
 70
     0
  9
$DIMZIN
 70
     0
  9
$DIMBLK
  1

  9
$DIMASO
 70
     1
  9
$DIMSHO
 70
     1
  9
$DIMPOST
  1

  9
$DIMAPOST
  1

  9
$DIMALT
 70
     0
  9
$DIMALTD
 70
     2
  9
$DIMALTF
 40
25.4
  9
$DIMLFAC
 40
1.0
  9
$DIMTOFL
 70
     0
  9
$DIMTVP
 40
0.0
  9
$DIMTIX
 70
     0
  9
$DIMSOXD
 70
     0
  9
$DIMSAH
 70
     0
  9
$DIMBLK1
  1

  9
$DIMBLK2
  1

  9
$DIMSTYLE
  2
Standard
  9
$DIMCLRD
 70
     0
  9
$DIMCLRE
 70
     0
  9
$DIMCLRT
 70
     0
  9
$DIMTFAC
 40
1.0
  9
$DIMGAP
 40
0.09
  9
$DIMJUST
 70
     0
  9
$DIMSD1
 70
     0
  9
$DIMSD2
 70
     0
  9
$DIMTOLJ
 70
     1
  9
$DIMTZIN
 70
     0
  9
$DIMALTZ
 70
     0
  9
$DIMALTTZ
 70
     0
  9
$DIMUPT
 70
     0
  9
$DIMDEC
 70
     4
  9
$DIMTDEC
 70
     4
  9
$DIMALTU
 70
     2
  9
$DIMALTTD
 70
     2
  9
$DIMTXSTY
  7
Standard
  9
$DIMAUNIT
 70
     0
  9
$DIMADEC
 70
     0
  9
$DIMALTRND
 40
0.0
  9
$DIMAZIN
 70
     0
  9
$DIMDSEP
 70
    46
  9
$DIMATFIT
 70
     3
  9
$DIMFRAC
 70
     0
  9
$DIMLDRBLK
  1

  9
$DIMLUNIT
 70
     2
  9
$DIMLWD
 70
    -2
  9
$DIMLWE
 70
    -2
  9
$DIMTMOVE
 70
     2
  9
$LUNITS
 70
     2
  9
$LUPREC
 70
     3
  9
$SKETCHINC
 40
0.1
  9
$FILLETRAD
 40
0.5
  9
$AUNITS
 70
     0
  9
$AUPREC
 70
     0
  9
$MENU
  1
.
  9
$ELEVATION
 40
0.0
  9
$PELEVATION
 40
0.0
  9
$THICKNESS
 40
0.0
  9
$LIMCHECK
 70
     0
  9
$CHAMFERA
 40
0.5
  9
$CHAMFERB
 40
0.5
  9
$CHAMFERC
 40
1.0
  9
$CHAMFERD
 40
0.0
  9
$SKPOLY
 70
     0
  9
$TDCREATE
 40
2456338.474179225
  9
$TDUCREATE
 40
2456338.682512558
  9
$TDUPDATE
 40
2456338.474179236
  9
$TDUUPDATE
 40
2456338.682512569
  9
$TDINDWG
 40
0.0000000116
  9
$TDUSRTIMER
 40
0.0000000116
  9
$USRTIMER
 70
     1
  9
$ANGBASE
 50
0.0
  9
$ANGDIR
 70
     0
  9
$PDMODE
 70
     0
  9
$PDSIZE
 40
0.0
  9
$PLINEWID
 40
0.0
  9
$SPLFRAME
 70
     0
  9
$SPLINETYPE
 70
     6
  9
$SPLINESEGS
 70
     8
  9
$HANDSEED
  5
279
  9
$SURFTAB1
 70
     6
  9
$SURFTAB2
 70
     6
  9
$SURFTYPE
 70
     6
  9
$SURFU
 70
     6
  9
$SURFV
 70
     6
  9
$UCSBASE
  2

  9
$UCSNAME
  2

  9
$UCSORG
 10
0.0
 20
0.0
 30
0.0
  9
$UCSXDIR
 10
1.0
 20
0.0
 30
0.0
  9
$UCSYDIR
 10
0.0
 20
1.0
 30
0.0
  9
$UCSORTHOREF
  2

  9
$UCSORTHOVIEW
 70
     0
  9
$UCSORGTOP
 10
0.0
 20
0.0
 30
0.0
  9
$UCSORGBOTTOM
 10
0.0
 20
0.0
 30
0.0
  9
$UCSORGLEFT
 10
0.0
 20
0.0
 30
0.0
  9
$UCSORGRIGHT
 10
0.0
 20
0.0
 30
0.0
  9
$UCSORGFRONT
 10
0.0
 20
0.0
 30
0.0
  9
$UCSORGBACK
 10
0.0
 20
0.0
 30
0.0
  9
$PUCSBASE
  2

  9
$PUCSNAME
  2

  9
$PUCSORG
 10
0.0
 20
0.0
 30
0.0
  9
$PUCSXDIR
 10
1.0
 20
0.0
 30
0.0
  9
$PUCSYDIR
 10
0.0
 20
1.0
 30
0.0
  9
$PUCSORTHOREF
  2

  9
$PUCSORTHOVIEW
 70
     0
  9
$PUCSORGTOP
 10
0.0
 20
0.0
 30
0.0
  9
$PUCSORGBOTTOM
 10
0.0
 20
0.0
 30
0.0
  9
$PUCSORGLEFT
 10
0.0
 20
0.0
 30
0.0
  9
$PUCSORGRIGHT
 10
0.0
 20
0.0
 30
0.0
  9
$PUCSORGFRONT
 10
0.0
 20
0.0
 30
0.0
  9
$PUCSORGBACK
 10
0.0
 20
0.0
 30
0.0
  9
$USERI1
 70
     0
  9
$USERI2
 70
     0
  9
$USERI3
 70
     0
  9
$USERI4
 70
     0
  9
$USERI5
 70
     0
  9
$USERR1
 40
0.0
  9
$USERR2
 40
0.0
  9
$USERR3
 40
0.0
  9
$USERR4
 40
0.0
  9
$USERR5
 40
0.0
  9
$WORLDVIEW
 70
     1
  9
$SHADEDGE
 70
     3
  9
$SHADEDIF
 70
    70
  9
$TILEMODE
 70
     1
  9
$MAXACTVP
 70
    64
  9
$PINSBASE
 10
0.0
 20
0.0
 30
0.0
  9
$PLIMCHECK
 70
     0
  9
$PEXTMIN
 10
1.000000000000000E+20
 20
1.000000000000000E+20
 30
1.000000000000000E+20
  9
$PEXTMAX
 10
-1.000000000000000E+20
 20
-1.000000000000000E+20
 30
-1.000000000000000E+20
  9
$PLIMMIN
 10
0.0
 20
0.0
  9
$PLIMMAX
 10
12.0
 20
9.0
  9
$UNITMODE
 70
     0
  9
$VISRETAIN
 70
     1
  9
$PLINEGEN
 70
     0
  9
$PSLTSCALE
 70
     1
  9
$TREEDEPTH
 70
  3020
  9
$CMLSTYLE
  2
Standard
  9
$CMLJUST
 70
     0
  9
$CMLSCALE
 40
1.0
  9
$PROXYGRAPHICS
 70
     1
  9
$MEASUREMENT
 70
     0
  9
$CELWEIGHT
370
    -1
  9
$ENDCAPS
280
     0
  9
$JOINSTYLE
280
     0
  9
$LWDISPLAY
290
     0
  9
$INSUNITS
 70
     1
  9
$HYPERLINKBASE
  1

  9
$STYLESHEET
  1

  9
$XEDIT
290
     1
  9
$CEPSNTYPE
380
     0
  9
$PSTYLEMODE
290
     1
  9
$FINGERPRINTGUID
  2
{A35CE66A-76F1-429C-808E-A6FADF6003DF}
  9
$VERSIONGUID
  2
{FAEB1C32-E019-11D5-929B-00C0DF256EC4}
  9
$EXTNAMES
290
     1
  9
$PSVPSCALE
 40
0.0
  9
$OLESTARTUP
290
     0
  9
$SORTENTS
280
   127
  9
$INDEXCTL
280
     0
  9
$HIDETEXT
280
     1
  9
$XCLIPFRAME
290
     0
  9
$HALOGAP
280
     0
  9
$OBSCOLOR
 70
   257
  9
$OBSLTYPE
280
     0
  9
$INTERSECTIONDISPLAY
280
     0
  9
$INTERSECTIONCOLOR
 70
   257
  9
$DIMASSOC
280
     2
  9
$PROJECTNAME
  1

  0
ENDSEC
  0
SECTION
  2
CLASSES
  0
CLASS
  1
ACDBDICTIONARYWDFLT
  2
AcDbDictionaryWithDefault
  3
ObjectDBX Classes
 90
        0
 91
        4
280
     0
281
     0
  0
CLASS
  1
VISUALSTYLE
  2
AcDbVisualStyle
  3
ObjectDBX Classes
 90
     4095
 91
        4
280
     0
281
     0
  0
ENDSEC
  0
SECTION
  2
TABLES
  0
TABLE
  2
VPORT
  5
8
330
0
100
AcDbSymbolTable
 70
     1
  0
VPORT
  5
29
330
8
100
AcDbSymbolTableRecord
100
AcDbViewportTableRecord
  2
*Active
 70
     0
 10
0.0
 20
0.0
 11
1.0
 21
1.0
 12
18.71619189653687
 22
34.52033088252004
 13
0.0
 23
0.0
 14
0.5
 24
0.5
 15
0.5
 25
0.5
 16
0.0
 26
0.0
 36
1.0
 17
0.0
 27
0.0
 37
0.0
 40
70.42147500034089
 41
1.177899815775604
 42
50.0
 43
0.0
 44
0.0
 50
0.0
 51
0.0
 71
     0
 72
   100
 73
     1
 74
     3
 75
     0
 76
     0
 77
     0
 78
     0
281
     0
 65
     1
110
0.0
120
0.0
130
0.0
111
1.0
121
0.0
131
0.0
112
0.0
122
1.0
132
0.0
 79
     0
146
0.0
  0
ENDTAB
  0
TABLE
  2
LTYPE
  5
5
330
0
100
AcDbSymbolTable
 70
     1
  0
LTYPE
  5
14
330
5
100
AcDbSymbolTableRecord
100
AcDbLinetypeTableRecord
  2
ByBlock
 70
     0
  3

 72
    65
 73
     0
 40
0.0
  0
LTYPE
  5
15
330
5
100
AcDbSymbolTableRecord
100
AcDbLinetypeTableRecord
  2
ByLayer
 70
     0
  3

 72
    65
 73
     0
 40
0.0
  0
LTYPE
  5
16
330
5
100
AcDbSymbolTableRecord
100
AcDbLinetypeTableRecord
  2
Continuous
 70
     0
  3
Solid line
 72
    65
 73
     0
 40
0.0
  0
ENDTAB
  0
TABLE
  2
LAYER
  5
2
330
0
100
AcDbSymbolTable
 70
     4
  0
LAYER
  5
10
330
2
100
AcDbSymbolTableRecord
100
AcDbLayerTableRecord
  2
0
 70
     0
 62
     7
  6
Continuous
370
    -3
390
F
  0
LAYER
  5
3B
330
2
100
AcDbSymbolTableRecord
100
AcDbLayerTableRecord
  2
Default
 70
     0
 62
     7
  6
Continuous
370
    -3
390
F
  0
LAYER
  5
3D
330
2
100
AcDbSymbolTableRecord
100
AcDbLayerTableRecord
  2
Make2D visible lines - Tangent
 70
     0
 62
     7
  6
Continuous
370
    -3
390
F
  0
LAYER
  5
3F
330
2
100
AcDbSymbolTableRecord
100
AcDbLayerTableRecord
  2
Make2D visible lines
 70
     0
 62
     7
  6
Continuous
370
    -3
390
F
  0
ENDTAB
  0
TABLE
  2
STYLE
  5
3
330
0
100
AcDbSymbolTable
 70
     1
  0
STYLE
  5
11
330
3
100
AcDbSymbolTableRecord
100
AcDbTextStyleTableRecord
  2
Standard
 70
     0
 40
0.0
 41
1.0
 50
0.0
 71
     0
 42
0.2
  3
txt
  4

  0
ENDTAB
  0
TABLE
  2
VIEW
  5
6
330
0
100
AcDbSymbolTable
 70
     0
  0
ENDTAB
  0
TABLE
  2
UCS
  5
7
330
0
100
AcDbSymbolTable
 70
     0
  0
ENDTAB
  0
TABLE
  2
APPID
  5
9
330
0
100
AcDbSymbolTable
 70
     1
  0
APPID
  5
12
330
9
100
AcDbSymbolTableRecord
100
AcDbRegAppTableRecord
  2
ACAD
 70
     0
  0
ENDTAB
  0
TABLE
  2
DIMSTYLE
  5
A
330
0
100
AcDbSymbolTable
 70
     1
100
AcDbDimStyleTable
  0
DIMSTYLE
105
27
330
A
100
AcDbSymbolTableRecord
100
AcDbDimStyleTableRecord
  2
Standard
 70
     0
340
11
  0
ENDTAB
  0
TABLE
  2
BLOCK_RECORD
  5
1
330
0
100
AcDbSymbolTable
 70
     1
  0
BLOCK_RECORD
  5
1F
330
1
100
AcDbSymbolTableRecord
100
AcDbBlockTableRecord
  2
*Model_Space
340
22
  0
BLOCK_RECORD
  5
1B
330
1
100
AcDbSymbolTableRecord
100
AcDbBlockTableRecord
  2
*Paper_Space
340
1E
  0
BLOCK_RECORD
  5
23
330
1
100
AcDbSymbolTableRecord
100
AcDbBlockTableRecord
  2
*Paper_Space0
340
26
  0
ENDTAB
  0
ENDSEC
  0
SECTION
  2
BLOCKS
  0
BLOCK
  5
20
330
1F
100
AcDbEntity
  8
0
100
AcDbBlockBegin
  2
*Model_Space
 70
     0
 10
0.0
 20
0.0
 30
0.0
  3
*Model_Space
  1

  0
ENDBLK
  5
21
330
1F
100
AcDbEntity
  8
0
100
AcDbBlockEnd
  0
BLOCK
  5
1C
330
1B
100
AcDbEntity
 67
     1
  8
0
100
AcDbBlockBegin
  2
*Paper_Space
 70
     0
 10
0.0
 20
0.0
 30
0.0
  3
*Paper_Space
  1

  0
ENDBLK
  5
1D
330
1B
100
AcDbEntity
 67
     1
  8
0
100
AcDbBlockEnd
  0
BLOCK
  5
24
330
23
100
AcDbEntity
  8
0
100
AcDbBlockBegin
  2
*Paper_Space0
 70
     0
 10
0.0
 20
0.0
 30
0.0
  3
*Paper_Space0
  1

  0
ENDBLK
  5
25
330
23
100
AcDbEntity
  8
0
100
AcDbBlockEnd
  0
ENDSEC
  0
SECTION
  2
ENTITIES
  0
CIRCLE
  5
3C
330
1F
100
AcDbEntity
  8
Default
100
AcDbCircle
 10
-14.07029949049636
 20
47.38836247006999
 30
0.0
 40
7.875000000000004
  0
SPLINE
  5
3E
330
1F
100
AcDbEntity
  8
Make2D visible lines - Tangent
100
AcDbSpline
210
0.0
220
0.0
230
1.0
 70
    12
 71
     3
 72
     8
 73
     4
 74
     0
 42
0.0000000001
 43
0.0000000001
 40
0.0
 40
0.0
 40
0.0
 40
0.0
 40
0.7485252977771374
 40
0.7485252977771374
 40
0.7485252977771374
 40
0.7485252977771374
 10
-1.087974965098603
 20
8.148777840748991
 30
0.0
 41
1.0
 10
-1.08795422357794
 20
8.425627428485958
 30
0.0
 41
0.8689416359064603
 10
-1.228530999854747
 20
8.635448948771321
 30
0.0
 41
0.8767873884333912
 10
-1.435811815169473
 20
8.714345160989957
 30
0.0
 41
1.0
  0
SPLINE
  5
40
330
1F
100
AcDbEntity
  8
Make2D visible lines
100
AcDbSpline
210
0.0
220
0.0
230
1.0
 70
    12
 71
     2
 72
     6
 73
     3
 74
     0
 42
0.0000000001
 43
0.0000000001
 40
0.0
 40
0.0
 40
0.0
 40
0.1386895252079068
 40
0.1386895252079068
 40
0.1386895252079068
 10
-1.354624701347504
 20
10.87222983915135
 30
0.0
 41
1.0
 10
-1.286703259670557
 20
10.89606939445076
 30
0.0
 41
0.9459069102561863
 10
-1.24771281670823
 20
10.95657883168124
 30
0.0
 41
1.0
  0
LINE
  5
41
330
1F
100
AcDbEntity
  8
Make2D visible lines
100
AcDbLine
 10
-6.221337710883375
 20
25.58617775706164
 30
0.0
 11
-7.382799490496382
 21
25.43144068788202
 31
0.0
  0
POLYLINE
  5
42
330
1F
100
AcDbEntity
  8
Make2D visible lines
100
AcDb2dPolyline
 66
     1
 10
0.0
 20
0.0
 30
0.0
  0
VERTEX
  5
43
330
42
100
AcDbEntity
  8
Make2D visible lines
100
AcDbVertex
100
AcDb2dVertex
 10
-7.382799490496382
 20
25.43144068788202
 30
0.0
  0
VERTEX
  5
44
330
42
100
AcDbEntity
  8
Make2D visible lines
100
AcDbVertex
100
AcDb2dVertex
 10
-20.75779949049634
 20
25.43144068788202
 30
0.0
  0
SEQEND
  5
45
330
42
100
AcDbEntity
  8
Make2D visible lines
  0
LINE
  5
46
330
1F
100
AcDbEntity
  8
Make2D visible lines
100
AcDbLine
 10
-20.75779949049634
 20
25.43144068788202
 30
0.0
 11
-21.91926127010936
 21
25.58617775706164
 31
0.0
  0
POLYLINE
  5
47
330
1F
100
AcDbEntity
  8
Default
100
AcDb2dPolyline
 66
     1
 10
0.0
 20
0.0
 30
0.0
  0
VERTEX
  5
48
330
47
100
AcDbEntity
  8
Default
100
AcDbVertex
100
AcDb2dVertex
 10
-6.221337710883375
 20
25.58617775706162
 30
0.0
  0
VERTEX
  5
49
330
47
100
AcDbEntity
  8
Default
100
AcDbVertex
100
AcDb2dVertex
 10
-21.91926127010936
 20
25.58617775706161
 30
0.0
  0
SEQEND
  5
4A
330
47
100
AcDbEntity
  8
Default
  0
SPLINE
  5
4B
330
1F
100
AcDbEntity
  8
Default
100
AcDbSpline
210
0.0
220
0.0
230
1.0
 70
    12
 71
     2
 72
     6
 73
     3
 74
     0
 42
0.0000000001
 43
0.0000000001
 40
0.0
 40
0.0
 40
0.0
 40
0.0431172320695658
 40
0.0431172320695658
 40
0.0431172320695658
 10
-21.91926127010936
 20
25.58617775706161
 30
0.0
 41
1.0
 10
-21.94521795866801
 20
25.58971811868362
 30
0.0
 41
0.754396026161636
 10
-21.94529949049635
 20
25.61591501151286
 30
0.0
 41
1.0
  0
SPLINE
  5
4C
330
1F
100
AcDbEntity
  8
Default
100
AcDbSpline
210
0.0
220
0.0
230
1.0
 70
    24
 71
     2
 72
     6
 73
     3
 74
     0
 42
0.0000000001
 43
0.0000000001
 40
0.0
 40
0.0
 40
0.0
 40
0.1037317171327032
 40
0.1037317171327032
 40
0.1037317171327032
 10
-21.94529949049635
 20
25.61591501151286
 30
0.0
 10
-21.94529949049636
 20
25.66778087007921
 30
0.0
 10
-21.94529949049637
 20
25.71964672864556
 30
0.0
  0
SPLINE
  5
4D
330
1F
100
AcDbEntity
  8
Default
100
AcDbSpline
210
0.0
220
0.0
230
1.0
 70
    12
 71
     2
 72
     6
 73
     3
 74
     0
 42
0.0000000001
 43
0.0000000001
 40
0.0
 40
0.0
 40
0.0
 40
0.0470942880630165
 40
0.0470942880630165
 40
0.0470942880630165
 10
-21.94529949049637
 20
25.71964672864556
 30
0.0
 41
1.0
 10
-21.94523119159231
 20
25.7495781539255
 30
0.0
 41
0.7087216954127066
 10
-21.91529976694301
 20
25.7496467286443
 30
0.0
 41
1.0
  0
POLYLINE
  5
4E
330
1F
100
AcDbEntity
  8
Default
100
AcDb2dPolyline
 66
     1
 10
0.0
 20
0.0
 30
0.0
  0
VERTEX
  5
4F
330
4E
100
AcDbEntity
  8
Default
100
AcDbVertex
100
AcDb2dVertex
 10
-21.91529976694301
 20
25.7496467286443
 30
0.0
  0
VERTEX
  5
50
330
4E
100
AcDbEntity
  8
Default
100
AcDbVertex
100
AcDb2dVertex
 10
-6.225299214049727
 20
25.74964672864429
 30
0.0
  0
SEQEND
  5
51
330
4E
100
AcDbEntity
  8
Default
  0
SPLINE
  5
52
330
1F
100
AcDbEntity
  8
Default
100
AcDbSpline
210
0.0
220
0.0
230
1.0
 70
    12
 71
     2
 72
     6
 73
     3
 74
     0
 42
0.0000000001
 43
0.0000000001
 40
0.0
 40
0.0
 40
0.0
 40
0.0470830900804005
 40
0.0470830900804005
 40
0.0470830900804005
 10
-6.225299214049727
 20
25.74964672864429
 30
0.0
 41
1.0
 10
-6.19539385599221
 20
25.74955208757392
 30
0.0
 41
0.709337752437847
 10
-6.195299490496367
 20
25.71964672864556
 30
0.0
 41
1.0
  0
SPLINE
  5
53
330
1F
100
AcDbEntity
  8
Default
100
AcDbSpline
210
0.0
220
0.0
230
1.0
 70
    24
 71
     2
 72
     6
 73
     3
 74
     0
 42
0.0000000001
 43
0.0000000001
 40
0.0
 40
0.0
 40
0.0
 40
0.1037317171327068
 40
0.1037317171327068
 40
0.1037317171327068
 10
-6.195299490496367
 20
25.71964672864557
 30
0.0
 10
-6.195299490496367
 20
25.66778087007922
 30
0.0
 10
-6.195299490496367
 20
25.61591501151286
 30
0.0
  0
SPLINE
  5
54
330
1F
100
AcDbEntity
  8
Default
100
AcDbSpline
210
0.0
220
0.0
230
1.0
 70
    12
 71
     2
 72
     6
 73
     3
 74
     0
 42
0.0000000001
 43
0.0000000001
 40
0.0
 40
0.0
 40
0.0
 40
0.0431192810070287
 40
0.0431192810070287
 40
0.0431192810070287
 10
-6.195299490496367
 20
25.61591501151286
 30
0.0
 41
1.0
 10
-6.19537600139478
 20
25.58971372231003
 30
0.0
 41
0.7542698814906877
 10
-6.221337710883375
 20
25.58617775706162
 30
0.0
 41
1.0
  0
SPLINE
  5
55
330
1F
100
AcDbEntity
  8
Default
100
AcDbSpline
210
0.0
220
0.0
230
1.0
 70
    12
 71
     3
 72
    14
 73
    10
 74
     0
 42
0.0000000001
 43
0.0000000001
 40
-7.851921632594228
 40
-7.851921632594228
 40
-7.851921632594228
 40
-7.851921632594228
 40
-7.223416780340785
 40
-7.223416780340785
 40
-7.223416780340785
 40
-7.182234897653156
 40
-7.182234897653156
 40
-7.182234897653156
 40
0.0
 40
0.0
 40
0.0
 40
0.0
 10
-1.087974965098561
 20
11.26384868170898
 30
0.0
 41
1.108373166011991
 10
-1.087974976881122
 20
11.03110556041
 30
0.0
 41
0.8657452370177615
 10
-1.2255570668669
 20
10.8578441440217
 30
0.0
 41
0.829620848347081
 10
-1.430397875798143
 20
10.85784794089271
 30
0.0
 41
1.0
 10
-1.444170991176405
 20
10.85768090055416
 30
0.0
 41
0.9932183010949919
 10
-1.45783073102189
 20
10.85947591790555
 30
0.0
 41
0.9932183010949919
 10
-1.471099186606338
 20
10.86319647314523
 30
0.0
 41
1.0
 10
-3.764198876764561
 20
11.55118918902573
 30
0.0
 41
0.9999999997107566
 10
-6.057275352476235
 20
12.23924864270827
 30
0.0
 41
0.9999999997107566
 10
-8.369597525705572
 20
12.93315760052699
 30
0.0
 41
1.0
  0
SPLINE
  5
56
330
1F
100
AcDbEntity
  8
Default
100
AcDbSpline
210
0.0
220
0.0
230
1.0
 70
     8
 71
     3
 72
    15
 73
    11
 74
     0
 42
0.0000000001
 43
0.0000000001
 40
-4.985347559037918
 40
-4.985347559037918
 40
-4.985347559037918
 40
-4.985347559037918
 40
-4.144504839433057
 40
-3.519413160475471
 40
-3.029507512421486
 40
-2.598100727174707
 40
-2.14945976211948
 40
-1.608302902920508
 40
-0.9168011467460935
 40
0.0
 40
0.0
 40
0.0
 40
0.0
 10
-8.369597525705572
 20
12.93315760052699
 30
0.0
 10
-8.637966580460542
 20
13.01384520687976
 30
0.0
 10
-9.103378687498939
 20
13.16396647745963
 30
0.0
 10
-9.703783760020748
 20
13.42040361662877
 30
0.0
 10
-10.1415504763274
 20
13.69776062913772
 30
0.0
 10
-10.45524394216001
 20
14.03627281169372
 30
0.0
 10
-10.66544254571284
 20
14.4654449075224
 30
0.0
 10
-10.79908163061076
 20
15.01156326678413
 30
0.0
 10
-10.87723585570718
 20
15.72461794479223
 30
0.0
 10
-10.89500067800051
 20
16.26060999231417
 30
0.0
 10
-10.89959272190302
 20
16.56618283601879
 30
0.0
  0
SPLINE
  5
57
330
1F
100
AcDbEntity
  8
Default
100
AcDbSpline
210
0.0
220
0.0
230
1.0
 70
    12
 71
     3
 72
    14
 73
    10
 74
     0
 42
0.0000000001
 43
0.0000000001
 40
-9.335342694068547
 40
-9.335342694068547
 40
-9.335342694068547
 40
-9.335342694068547
 40
-3.773257194535608
 40
-3.773257194535608
 40
-3.773257194535608
 40
-2.773257194535608
 40
-2.773257194535608
 40
-2.773257194535608
 40
0.0
 40
0.0
 40
0.0
 40
0.0
 10
-10.89959272190302
 20
16.56618283601879
 30
0.0
 41
1.0
 10
-10.92596412764134
 20
18.43346981170455
 30
0.0
 41
0.9999998387315352
 10
-10.95085091483679
 20
20.28733142477222
 30
0.0
 41
0.9999998387315352
 10
-10.97444822186661
 20
22.14120989966848
 30
0.0
 41
1.0
 10
-10.97675638270533
 20
22.32254625682533
 30
0.0
 41
1.0
 10
-10.96614448582388
 20
22.50446093783764
 30
0.0
 41
1.0
 10
-10.943346955476
 20
22.68437334609068
 30
0.0
 41
1.0
 10
-10.82713630358628
 20
23.60147874860961
 30
0.0
 41
0.9999571404114421
 10
-10.70053399543317
 20
24.51720746963584
 30
0.0
 41
0.9999571404114421
 10
-10.56355630938515
 20
25.43144176590073
 30
0.0
 41
1.0
  0
LINE
  5
58
330
1F
100
AcDbEntity
  8
Make2D visible lines
100
AcDbLine
 10
59.35164506318311
 20
25.58463328823512
 30
0.0
 11
58.1901832835701
 21
25.42989621905551
 31
0.0
  0
POLYLINE
  5
59
330
1F
100
AcDbEntity
  8
Make2D visible lines
100
AcDb2dPolyline
 66
     1
 10
0.0
 20
0.0
 30
0.0
  0
VERTEX
  5
5A
330
59
100
AcDbEntity
  8
Make2D visible lines
100
AcDbVertex
100
AcDb2dVertex
 10
58.1901832835701
 20
25.42989621905551
 30
0.0
  0
VERTEX
  5
5B
330
59
100
AcDbEntity
  8
Make2D visible lines
100
AcDbVertex
100
AcDb2dVertex
 10
44.81518328357013
 20
25.42989621905551
 30
0.0
  0
SEQEND
  5
5C
330
59
100
AcDbEntity
  8
Make2D visible lines
  0
LINE
  5
5D
330
1F
100
AcDbEntity
  8
Make2D visible lines
100
AcDbLine
 10
44.81518328357013
 20
25.42989621905551
 30
0.0
 11
43.65372150395712
 21
25.58463328823513
 31
0.0
  0
POLYLINE
  5
5E
330
1F
100
AcDbEntity
  8
Default
100
AcDb2dPolyline
 66
     1
 10
0.0
 20
0.0
 30
0.0
  0
VERTEX
  5
5F
330
5E
100
AcDbEntity
  8
Default
100
AcDbVertex
100
AcDb2dVertex
 10
59.35164506318311
 20
25.5846332882351
 30
0.0
  0
VERTEX
  5
60
330
5E
100
AcDbEntity
  8
Default
100
AcDbVertex
100
AcDb2dVertex
 10
43.65372150395712
 20
25.5846332882351
 30
0.0
  0
SEQEND
  5
61
330
5E
100
AcDbEntity
  8
Default
  0
SPLINE
  5
62
330
1F
100
AcDbEntity
  8
Default
100
AcDbSpline
210
0.0
220
0.0
230
1.0
 70
    12
 71
     2
 72
     6
 73
     3
 74
     0
 42
0.0000000001
 43
0.0000000001
 40
0.0
 40
0.0
 40
0.0
 40
0.0431172320695658
 40
0.0431172320695658
 40
0.0431172320695658
 10
43.65372150395712
 20
25.5846332882351
 30
0.0
 41
1.0
 10
43.62776481539845
 20
25.5881736498571
 30
0.0
 41
0.754396026161636
 10
43.62768328357011
 20
25.61437054268634
 30
0.0
 41
1.0
  0
SPLINE
  5
63
330
1F
100
AcDbEntity
  8
Default
100
AcDbSpline
210
0.0
220
0.0
230
1.0
 70
    24
 71
     2
 72
     6
 73
     3
 74
     0
 42
0.0000000001
 43
0.0000000001
 40
0.0
 40
0.0
 40
0.0
 40
0.1037317171327032
 40
0.1037317171327032
 40
0.1037317171327032
 10
43.62768328357011
 20
25.61437054268634
 30
0.0
 10
43.62768328357011
 20
25.6662364012527
 30
0.0
 10
43.62768328357011
 20
25.71810225981905
 30
0.0
  0
SPLINE
  5
64
330
1F
100
AcDbEntity
  8
Default
100
AcDbSpline
210
0.0
220
0.0
230
1.0
 70
    12
 71
     2
 72
     6
 73
     3
 74
     0
 42
0.0000000001
 43
0.0000000001
 40
0.0
 40
0.0
 40
0.0
 40
0.0470942880630165
 40
0.0470942880630165
 40
0.0470942880630165
 10
43.62768328357011
 20
25.71810225981905
 30
0.0
 41
1.0
 10
43.62775158247417
 20
25.748033685099
 30
0.0
 41
0.7087216954127066
 10
43.65768300712347
 20
25.74810225981778
 30
0.0
 41
1.0
  0
POLYLINE
  5
65
330
1F
100
AcDbEntity
  8
Default
100
AcDb2dPolyline
 66
     1
 10
0.0
 20
0.0
 30
0.0
  0
VERTEX
  5
66
330
65
100
AcDbEntity
  8
Default
100
AcDbVertex
100
AcDb2dVertex
 10
43.65768300712347
 20
25.74810225981778
 30
0.0
  0
VERTEX
  5
67
330
65
100
AcDbEntity
  8
Default
100
AcDbVertex
100
AcDb2dVertex
 10
59.34768356001675
 20
25.74810225981778
 30
0.0
  0
SEQEND
  5
68
330
65
100
AcDbEntity
  8
Default
  0
SPLINE
  5
69
330
1F
100
AcDbEntity
  8
Default
100
AcDbSpline
210
0.0
220
0.0
230
1.0
 70
    12
 71
     2
 72
     6
 73
     3
 74
     0
 42
0.0000000001
 43
0.0000000001
 40
0.0
 40
0.0
 40
0.0
 40
0.0470830900804005
 40
0.0470830900804005
 40
0.0470830900804005
 10
59.34768356001675
 20
25.74810225981778
 30
0.0
 41
1.0
 10
59.37758891807427
 20
25.7480076187474
 30
0.0
 41
0.709337752437847
 10
59.3776832835701
 20
25.71810225981905
 30
0.0
 41
1.0
  0
SPLINE
  5
6A
330
1F
100
AcDbEntity
  8
Default
100
AcDbSpline
210
0.0
220
0.0
230
1.0
 70
    24
 71
     2
 72
     6
 73
     3
 74
     0
 42
0.0000000001
 43
0.0000000001
 40
0.0
 40
0.0
 40
0.0
 40
0.1037317171327068
 40
0.1037317171327068
 40
0.1037317171327068
 10
59.3776832835701
 20
25.71810225981906
 30
0.0
 10
59.3776832835701
 20
25.6662364012527
 30
0.0
 10
59.3776832835701
 20
25.61437054268634
 30
0.0
  0
SPLINE
  5
6B
330
1F
100
AcDbEntity
  8
Default
100
AcDbSpline
210
0.0
220
0.0
230
1.0
 70
    12
 71
     2
 72
     6
 73
     3
 74
     0
 42
0.0000000001
 43
0.0000000001
 40
0.0
 40
0.0
 40
0.0
 40
0.0431192810070287
 40
0.0431192810070287
 40
0.0431192810070287
 10
59.3776832835701
 20
25.61437054268634
 30
0.0
 41
1.0
 10
59.37760677267169
 20
25.58816925348352
 30
0.0
 41
0.7542698814906877
 10
59.35164506318311
 20
25.5846332882351
 30
0.0
 41
1.0
  0
SPLINE
  5
6C
330
1F
100
AcDbEntity
  8
Make2D visible lines
100
AcDbSpline
210
0.0
220
0.0
230
1.0
 70
    12
 71
     3
 72
    14
 73
    10
 74
     0
 42
0.0000000001
 43
0.0000000001
 40
-9.369194023568344
 40
-9.369194023568344
 40
-9.369194023568344
 40
-9.369194023568344
 40
-6.644620846041471
 40
-6.644620846041471
 40
-6.644620846041471
 40
-5.644620846041471
 40
-5.644620846041471
 40
-5.644620846041471
 40
0.0
 40
0.0
 40
0.0
 40
0.0
 10
48.83294354134723
 20
25.42989621905551
 30
0.0
 41
1.0
 10
49.00934285560917
 20
24.53896983649511
 30
0.0
 41
0.9999326719119793
 10
49.17306272480857
 20
23.64562648612887
 30
0.0
 41
0.9999326719119793
 10
49.32407008010816
 20
22.75004660925597
 30
0.0
 41
1.0
 10
49.36115110688606
 20
22.53013002750944
 30
0.0
 41
1.0
 10
49.37791750040083
 20
22.3060193274971
 30
0.0
 41
1.0
 10
49.37605035299207
 20
22.0830062802677
 30
0.0
 41
1.0
 10
49.36029795341234
 20
20.2015315691929
 30
0.0
 41
0.9999996063308121
 10
49.34250088637442
 20
18.32007508792331
 30
0.0
 41
0.9999996063308121
 10
49.32252497449269
 20
16.42617500847244
 30
0.0
 41
1.0
  0
SPLINE
  5
6D
330
1F
100
AcDbEntity
  8
Make2D visible lines
100
AcDbSpline
210
0.0
220
0.0
230
1.0
 70
     8
 71
     3
 72
    15
 73
    11
 74
     0
 42
0.0000000001
 43
0.0000000001
 40
-4.153347557483698
 40
-4.153347557483698
 40
-4.153347557483698
 40
-4.153347557483698
 40
-3.295975673650196
 40
-2.616913012557761
 40
-2.082597737094207
 40
-1.65699777635294
 40
-1.302977998228093
 40
-0.9532165727599612
 40
-0.5355895472125215
 40
0.0
 40
0.0
 40
0.0
 40
0.0
 10
49.32252497449269
 20
16.42617500847244
 30
0.0
 10
49.31935883664909
 20
16.1404130033384
 30
0.0
 10
49.30641135873547
 20
15.62829994090115
 30
0.0
 10
49.25325863544565
 20
14.93979507586069
 30
0.0
 10
49.16560375881012
 20
14.39976174159197
 30
0.0
 10
49.03716537683806
 20
13.97956577060319
 30
0.0
 10
48.8526451384835
 20
13.64793691942
 30
0.0
 10
48.59055754293391
 20
13.37757860210505
 30
0.0
 10
48.22903389235032
 20
13.13427211812945
 30
0.0
 10
47.94564360607353
 20
12.99019228482399
 30
0.0
 10
47.78405716959988
 20
12.91414280086918
 30
0.0
  0
SPLINE
  5
6E
330
1F
100
AcDbEntity
  8
Make2D visible lines
100
AcDbSpline
210
0.0
220
0.0
230
1.0
 70
    12
 71
     2
 72
     6
 73
     3
 74
     0
 42
0.0000000001
 43
0.0000000001
 40
-4.882455989528093
 40
-4.882455989528093
 40
-4.882455989528093
 40
-0.0648357019554221
 40
-0.0648357019554221
 40
-0.0648357019554221
 10
47.78405716959988
 20
12.91414280086918
 30
0.0
 41
1.0
 10
45.59375056676109
 20
11.88378637567834
 30
0.0
 41
0.9999998925932001
 10
43.41298187963547
 20
10.86037720350291
 30
0.0
 41
0.9999999971474212
  0
SPLINE
  5
6F
330
1F
100
AcDbEntity
  8
Make2D visible lines
100
AcDbSpline
210
0.0
220
0.0
230
1.0
 70
    12
 71
     3
 72
     8
 73
     4
 74
     0
 42
0.0000000001
 43
0.0000000001
 40
-0.5668263165431112
 40
-0.5668263165431112
 40
-0.5668263165431112
 40
-0.5668263165431112
 40
0.0
 40
0.0
 40
0.0
 40
0.0
 10
43.41298187963547
 20
10.86037720350291
 30
0.0
 41
0.8623499803984138
 10
43.29786234934748
 20
10.89266932510134
 30
0.0
 41
0.756694382114321
 10
43.22734352192401
 20
11.05756426802433
 30
0.0
 41
0.8025777219815275
 10
43.2273435381575
 20
11.26184868170899
 30
0.0
 41
1.0
  0
SPLINE
  5
70
330
1F
100
AcDbEntity
  8
Default
100
AcDbSpline
210
0.0
220
0.0
230
1.0
 70
    12
 71
     3
 72
    14
 73
    10
 74
     0
 42
0.0000000001
 43
0.0000000001
 40
0.0
 40
0.0
 40
0.0
 40
0.0
 40
2.738070880085492
 40
2.738070880085492
 40
2.738070880085492
 40
3.738070880085492
 40
3.738070880085492
 40
3.738070880085492
 40
10.0982367506281
 40
10.0982367506281
 40
10.0982367506281
 40
10.0982367506281
 10
51.20791799670027
 20
25.42998045436063
 30
0.0
 41
1.0
 10
51.01620364297392
 20
24.53765042441083
 30
0.0
 41
0.999995553249477
 10
50.82774973635697
 20
23.64462612415034
 30
0.0
 41
0.999995553249477
 10
50.64255879087195
 20
22.75091946674799
 30
0.0
 41
1.0
 10
50.59568512734317
 20
22.52471345520251
 30
0.0
 41
1.0
 10
50.5702642941891
 20
22.29316480989472
 30
0.0
 41
1.0
 10
50.56528011983263
 20
22.06220711247394
 30
0.0
 41
1.0
 10
50.51953898715008
 20
19.94264508951426
 30
0.0
 41
0.9999997804119717
 10
50.47551819671257
 20
17.82304663924088
 30
0.0
 41
0.9999997804119717
 10
50.43268973626073
 20
15.67826492847469
 30
0.0
 41
1.0
  0
SPLINE
  5
71
330
1F
100
AcDbEntity
  8
Default
100
AcDbSpline
210
0.0
220
0.0
230
1.0
 70
     8
 71
     3
 72
    12
 73
     8
 74
     0
 42
0.0000000001
 43
0.0000000001
 40
0.0
 40
0.0
 40
0.0
 40
0.0
 40
0.734171097111815
 40
1.389037115062323
 40
2.477792613121731
 40
3.469609426476286
 40
4.491698434972608
 40
4.491698434972608
 40
4.491698434972608
 40
4.491698434972608
 10
50.43268973626073
 20
15.67826492847469
 30
0.0
 10
50.42716205673253
 20
15.43411212585672
 30
0.0
 10
50.40442406578107
 20
14.96995025661432
 30
0.0
 10
50.30025659517351
 20
14.15238308769227
 30
0.0
 10
50.0682637924281
 20
13.26094394918893
 30
0.0
 10
49.48670874130977
 20
12.38799518523297
 30
0.0
 10
48.95719557970215
 20
11.96433032278982
 30
0.0
 10
48.66237640879799
 20
11.78808945814595
 30
0.0
  0
LINE
  5
72
330
1F
100
AcDbEntity
  8
Default
100
AcDbLine
 10
48.66237640879799
 20
11.78808945814595
 30
0.0
 11
43.33607234679528
 21
8.593349299024698
 31
0.0
  0
SPLINE
  5
73
330
1F
100
AcDbEntity
  8
Default
100
AcDbSpline
210
0.0
220
0.0
230
1.0
 70
    12
 71
     3
 72
     8
 73
     4
 74
     0
 42
0.0000000001
 43
0.0000000001
 40
-0.4964376332803108
 40
-0.4964376332803108
 40
-0.4964376332803108
 40
-0.4964376332803108
 40
0.0
 40
0.0
 40
0.0
 40
0.0
 10
43.33607234679528
 20
8.593349299024698
 30
0.0
 41
0.9156675536327253
 10
43.26629858120194
 20
8.479440532614278
 30
0.0
 41
0.8872573437122231
 10
43.22736408729318
 20
8.32151456117
 30
0.0
 41
0.9130793517795608
 10
43.22734353815752
 20
8.146777840748994
 30
0.0
 41
1.0
  0
SPLINE
  5
74
330
1F
100
AcDbEntity
  8
Make2D visible lines
100
AcDbSpline
210
0.0
220
0.0
230
1.0
 70
    24
 71
     2
 72
     6
 73
     3
 74
     0
 42
0.0000000001
 43
0.0000000001
 40
0.0
 40
0.0
 40
0.0
 40
0.0399213772270059
 40
0.0399213772270059
 40
0.0399213772270059
 10
43.73422556489345
 20
7.280084702992101
 30
0.0
 10
43.733877202843
 20
7.300042351496046
 30
0.0
 10
43.73352884079256
 20
7.319999999999991
 30
0.0
  0
SPLINE
  5
75
330
1F
100
AcDbEntity
  8
Make2D visible lines
100
AcDbSpline
210
0.0
220
0.0
230
1.0
 70
    24
 71
     2
 72
     6
 73
     3
 74
     0
 42
0.0000000001
 43
0.0000000001
 40
0.0
 40
0.0
 40
0.0
 40
0.0399213772270059
 40
0.0399213772270059
 40
0.0399213772270059
 10
41.33492524598769
 20
7.319999999999991
 30
0.0
 10
41.33457688393725
 20
7.300042351496046
 30
0.0
 10
41.3342285218868
 20
7.280084702992101
 30
0.0
  0
SPLINE
  5
76
330
1F
100
AcDbEntity
  8
Make2D visible lines
100
AcDbSpline
210
0.0
220
0.0
230
1.0
 70
    12
 71
     2
 72
     8
 73
     5
 74
     0
 42
0.0000000001
 43
0.0000000001
 40
0.0
 40
0.0
 40
0.0
 40
1.497204518884545
 40
1.497204518884545
 40
2.994409037769103
 40
2.994409037769103
 40
2.994409037769103
 10
31.12569711447011
 20
0.3268500000000003
 30
0.0
 41
1.0
 10
32.07884711447009
 20
0.3268500000000287
 30
0.0
 41
0.7071067811865704
 10
32.07884711447012
 20
1.279999999999999
 30
0.0
 41
1.0
 10
32.07884711447011
 20
2.233149999999981
 30
0.0
 41
0.7071067811865678
 10
31.12569711447011
 20
2.23315000000001
 30
0.0
 41
1.0
  0
SPLINE
  5
77
330
1F
100
AcDbEntity
  8
Make2D visible lines
100
AcDbSpline
210
0.0
220
0.0
230
1.0
 70
    12
 71
     2
 72
     8
 73
     5
 74
     0
 42
0.0000000001
 43
0.0000000001
 40
0.0
 40
0.0
 40
0.0
 40
1.497204518884547
 40
1.497204518884547
 40
2.994409037769108
 40
2.994409037769108
 40
2.994409037769108
 10
31.12569711447011
 20
2.23315
 30
0.0
 41
1.0
 10
30.17254711447012
 20
2.23315
 30
0.0
 41
0.7071067811865408
 10
30.17254711447013
 20
1.279999999999999
 30
0.0
 41
1.0
 10
30.1725471144701
 20
0.3268499999999905
 30
0.0
 41
0.7071067811865419
 10
31.12569711447011
 20
0.3268499999999905
 30
0.0
 41
1.0
  0
SPLINE
  5
78
330
1F
100
AcDbEntity
  8
Make2D visible lines
100
AcDbSpline
210
0.0
220
0.0
230
1.0
 70
    12
 71
     2
 72
     8
 73
     5
 74
     0
 42
0.0000000001
 43
0.0000000001
 40
0.0
 40
0.0
 40
0.0
 40
2.010589900836999
 40
2.010589900836999
 40
4.021209199134468
 40
4.021209199134468
 40
4.021209199134468
 10
31.12566771700966
 20
2.559999999662418
 30
0.0
 41
1.0
 10
29.84569711447011
 20
2.559970602877123
 30
0.0
 41
0.7071149011179003
 10
29.84569711447014
 20
1.28
 30
0.0
 41
1.0
 10
29.84569711447009
 20
-0.0000000000000256
 30
0.0
 41
0.7071067811865291
 10
31.12569711447011
 20
0.0000000000000029
 30
0.0
 41
1.0
  0
SPLINE
  5
79
330
1F
100
AcDbEntity
  8
Make2D visible lines - Tangent
100
AcDbSpline
210
0.0
220
0.0
230
1.0
 70
    12
 71
     2
 72
     8
 73
     5
 74
     0
 42
0.0000000001
 43
0.0000000001
 40
0.0
 40
0.0
 40
0.0
 40
1.520766455445231
 40
1.520766455445231
 40
3.04153291089047
 40
3.04153291089047
 40
3.04153291089047
 10
31.12569711447011
 20
0.3118500053102
 30
0.0
 41
1.0
 10
30.1575471197803
 20
0.3118500053102001
 30
0.0
 41
0.7071067811865446
 10
30.15754711978032
 20
1.279999999999999
 30
0.0
 41
1.0
 10
30.15754711978032
 20
2.248149994689805
 30
0.0
 41
0.707106781186544
 10
31.12569711447011
 20
2.248149994689805
 30
0.0
 41
1.0
  0
SPLINE
  5
7A
330
1F
100
AcDbEntity
  8
Make2D visible lines - Tangent
100
AcDbSpline
210
0.0
220
0.0
230
1.0
 70
    12
 71
     2
 72
     8
 73
     5
 74
     0
 42
0.0000000001
 43
0.0000000001
 40
0.0
 40
0.0
 40
0.0
 40
1.520766455445226
 40
1.520766455445226
 40
3.041532910890458
 40
3.041532910890458
 40
3.041532910890458
 10
31.12569711447011
 20
2.248149994689799
 30
0.0
 41
1.0
 10
32.09384710915992
 20
2.248149994689784
 30
0.0
 41
0.7071067811865557
 10
32.09384710915991
 20
1.279999999999999
 30
0.0
 41
1.0
 10
32.0938471091599
 20
0.3118500053102179
 30
0.0
 41
0.7071067811865631
 10
31.12569711447011
 20
0.3118500053101894
 30
0.0
 41
1.0
  0
SPLINE
  5
7B
330
1F
100
AcDbEntity
  8
Make2D visible lines
100
AcDbSpline
210
0.0
220
0.0
230
1.0
 70
    12
 71
     2
 72
     8
 73
     5
 74
     0
 42
0.0000000001
 43
0.0000000001
 40
0.0
 40
0.0
 40
0.0
 40
2.010619298297465
 40
2.010619298297465
 40
4.021238596594936
 40
4.021238596594936
 40
4.021238596594936
 10
31.12569711447011
 20
0.0
 30
0.0
 41
1.0
 10
32.40569711447013
 20
0.0
 30
0.0
 41
0.7071067811865468
 10
32.40569711447012
 20
1.279999999999999
 30
0.0
 41
1.0
 10
32.40569711447012
 20
2.560000000000002
 30
0.0
 41
0.7071067811865471
 10
31.12569711447011
 20
2.560000000000002
 30
0.0
 41
1.0
  0
SPLINE
  5
7C
330
1F
100
AcDbEntity
  8
Make2D visible lines - Tangent
100
AcDbSpline
210
0.0
220
0.0
230
1.0
 70
     8
 71
     3
 72
    11
 73
     7
 74
     0
 42
0.0000000001
 43
0.0000000001
 40
0.0
 40
0.0
 40
0.0
 40
0.0
 40
0.1251400008539807
 40
0.249997976020166
 40
0.4891881354632792
 40
0.9100604574811362
 40
0.9100604574811362
 40
0.9100604574811362
 40
0.9100604574811362
 10
41.48458249113612
 20
6.854219928193997
 30
0.0
 10
41.48380982890389
 20
6.812537349420499
 30
0.0
 10
41.47779267886848
 20
6.729205092758733
 30
0.0
 10
41.44225416075601
 20
6.569608694327405
 30
0.0
 10
41.33489031283297
 20
6.32836481042481
 30
0.0
 10
41.15099887299256
 20
6.183549263645575
 30
0.0
 10
41.01165705997607
 20
6.155372616098385
 30
0.0
  0
SPLINE
  5
7D
330
1F
100
AcDbEntity
  8
Make2D visible lines
100
AcDbSpline
210
0.0
220
0.0
230
1.0
 70
    12
 71
     2
 72
     6
 73
     3
 74
     0
 42
0.0000000001
 43
0.0000000001
 40
0.0
 40
0.0
 40
0.0
 40
0.9451941989567216
 40
0.9451941989567216
 40
0.9451941989567216
 10
0.3694653799216745
 20
3.739901312996954
 30
0.0
 41
1.0
 10
0.3912483426810571
 20
3.267731811760904
 30
0.0
 41
0.9997632778586072
 10
0.3924691019662365
 20
2.79506168883071
 30
0.0
 41
1.0
  0
SPLINE
  5
7E
330
1F
100
AcDbEntity
  8
Make2D visible lines
100
AcDbSpline
210
0.0
220
0.0
230
1.0
 70
    12
 71
     2
 72
     6
 73
     3
 74
     0
 42
0.0000000001
 43
0.0000000001
 40
0.0
 40
0.0
 40
0.0
 40
0.9451955936296548
 40
0.9451955936296548
 40
0.9451955936296548
 10
-0.3924691019662347
 20
2.795061688830217
 30
0.0
 41
1.0
 10
-0.3912492713989337
 20
3.267732525302891
 30
0.0
 41
0.9997632344084707
 10
-0.3694653196555304
 20
3.739902692811206
 30
0.0
 41
1.0
  0
SPLINE
  5
7F
330
1F
100
AcDbEntity
  8
Make2D visible lines
100
AcDbSpline
210
0.0
220
0.0
230
1.0
 70
    12
 71
     2
 72
     8
 73
     5
 74
     0
 42
0.0000000001
 43
0.0000000001
 40
0.0
 40
0.0
 40
0.0
 40
0.0281928929716271
 40
0.0281928929716271
 40
0.0563857859432542
 40
0.0563857859432542
 40
0.0563857859432542
 10
-12.87419962211639
 20
2.760000000033125
 30
0.0
 41
1.0
 10
-12.8891051433937
 20
2.760054542525548
 30
0.0
 41
0.9205244397931974
 10
-12.89942123268554
 20
2.770813531379281
 30
0.0
 41
1.0
 10
-12.90973732197737
 20
2.781572520233012
 30
0.0
 41
0.9205244397931974
 10
-12.90916560420659
 20
2.796467172905111
 30
0.0
 41
1.0
  0
SPLINE
  5
80
330
1F
100
AcDbEntity
  8
Make2D visible lines
100
AcDbSpline
210
0.0
220
0.0
230
1.0
 70
    12
 71
     2
 72
     8
 73
     5
 74
     0
 42
0.0000000001
 43
0.0000000001
 40
0.0
 40
0.0
 40
0.0
 40
0.0286061523138886
 40
0.0286061523138886
 40
0.0572123046277773
 40
0.0572123046277773
 40
0.0572123046277773
 10
-8.09179832887641
 20
2.760000000000004
 30
0.0
 41
1.0
 10
-8.106948194180319
 20
2.760056392118597
 30
0.0
 41
0.9182200393676768
 10
-8.11730386400521
 20
2.771114497800655
 30
0.0
 41
1.0
 10
-8.127659533830098
 20
2.782172603482712
 30
0.0
 41
0.9182200393676768
 10
-8.12672295131464
 20
2.79729359591011
 30
0.0
 41
1.0
  0
SPLINE
  5
81
330
1F
100
AcDbEntity
  8
Make2D visible lines
100
AcDbSpline
210
0.0
220
0.0
230
1.0
 70
    12
 71
     2
 72
     6
 73
     3
 74
     0
 42
0.0000000001
 43
0.0000000001
 40
0.0
 40
0.0
 40
0.0
 40
0.0483212497416666
 40
0.0483212497416666
 40
0.0483212497416666
 10
-7.339092164560495
 20
2.788441279212112
 30
0.0
 41
1.0
 10
-7.344577707264786
 20
2.760100728064051
 30
0.0
 41
0.7724816427213782
 10
-7.373444086878428
 20
2.760000000026418
 30
0.0
 41
1.0
  0
SPLINE
  5
82
330
1F
100
AcDbEntity
  8
Make2D visible lines
100
AcDbSpline
210
0.0
220
0.0
230
1.0
 70
    12
 71
     2
 72
     8
 73
     5
 74
     0
 42
0.0000000001
 43
0.0000000001
 40
0.0
 40
0.0
 40
0.0
 40
0.027519365239457
 40
0.027519365239457
 40
0.055038730478914
 40
0.055038730478914
 40
0.055038730478914
 10
0.3924690982870231
 20
2.795060859175598
 30
0.0
 41
1.0
 10
0.3924943380273974
 20
2.780545578019819
 30
0.0
 41
0.9237130894360682
 10
0.3822393962683694
 20
2.770272789031682
 30
0.0
 41
1.0
 10
0.3719844545093454
 20
2.760000000043546
 30
0.0
 41
0.9237130894360682
 10
0.3574691514096564
 20
2.76
 30
0.0
 41
1.0
  0
SPLINE
  5
83
330
1F
100
AcDbEntity
  8
Make2D visible lines
100
AcDbSpline
210
0.0
220
0.0
230
1.0
 70
    12
 71
     2
 72
     8
 73
     5
 74
     0
 42
0.0000000001
 43
0.0000000001
 40
0.0
 40
0.0
 40
0.0
 40
0.0275193652394809
 40
0.0275193652394809
 40
0.0550387304789617
 40
0.0550387304789617
 40
0.0550387304789617
 10
-0.392469098286945
 20
2.795060859175598
 30
0.0
 41
1.0
 10
-0.3924943380273489
 20
2.780545578019801
 30
0.0
 41
0.9237130894356401
 10
-0.3822393962683055
 20
2.770272789031655
 30
0.0
 41
1.0
 10
-0.3719844545092662
 20
2.760000000043509
 30
0.0
 41
0.9237130894356401
 10
-0.3574691514095605
 20
2.759999999999999
 30
0.0
 41
1.0
  0
SPLINE
  5
84
330
1F
100
AcDbEntity
  8
Make2D visible lines
100
AcDbSpline
210
0.0
220
0.0
230
1.0
 70
     8
 71
     3
 72
    10
 73
     6
 74
     0
 42
0.0000000001
 43
0.0000000001
 40
0.0
 40
0.0
 40
0.0
 40
0.0
 40
0.1433698128057911
 40
0.4430225636810531
 40
0.6174910235575549
 40
0.6174910235575549
 40
0.6174910235575549
 40
0.6174910235575549
 10
0.3713722818984841
 20
3.706431423623549
 30
0.0
 10
0.3747594189904628
 20
3.754160023142436
 30
0.0
 10
0.3980913625064755
 20
3.900127902315828
 30
0.0
 10
0.4518920455993438
 20
4.09909627514287
 30
0.0
 10
0.4810290329776841
 20
4.254465881479404
 30
0.0
 10
0.4919039992344878
 20
4.311590862398229
 30
0.0
  0
SPLINE
  5
85
330
1F
100
AcDbEntity
  8
Make2D visible lines
100
AcDbSpline
210
0.0
220
0.0
230
1.0
 70
     8
 71
     3
 72
    10
 73
     6
 74
     0
 42
0.0000000001
 43
0.0000000001
 40
0.0
 40
0.0
 40
0.0
 40
0.0
 40
0.1391330979403417
 40
0.4324509644282648
 40
0.6069566116810106
 40
0.6069566116810106
 40
0.6069566116810106
 40
0.6069566116810106
 10
-0.372341809286814
 20
3.71621560366935
 30
0.0
 10
-0.375778393328865
 20
3.762523541766038
 30
0.0
 10
-0.3995594495262029
 20
3.904844969657872
 30
0.0
 10
-0.4521358506302917
 20
4.10043907930714
 30
0.0
 10
-0.4811972892511474
 20
4.25370276395725
 30
0.0
 10
-0.4919398215763238
 20
4.310860686608981
 30
0.0
  0
SPLINE
  5
86
330
1F
100
AcDbEntity
  8
Make2D visible lines
100
AcDbSpline
210
0.0
220
0.0
230
1.0
 70
    24
 71
     2
 72
     6
 73
     3
 74
     0
 42
0.0000000001
 43
0.0000000001
 40
0.0
 40
0.0
 40
0.0
 40
0.0399213772270035
 40
0.0399213772270035
 40
0.0399213772270035
 10
-1.199998521503481
 20
7.280084702992102
 30
0.0
 10
-1.199650159453052
 20
7.300042351496047
 30
0.0
 10
-1.199301797402622
 20
7.319999999999991
 30
0.0
  0
SPLINE
  5
87
330
1F
100
AcDbEntity
  8
Make2D visible lines
100
AcDbSpline
210
0.0
220
0.0
230
1.0
 70
    24
 71
     2
 72
     6
 73
     3
 74
     0
 42
0.0000000001
 43
0.0000000001
 40
0.0
 40
0.0
 40
0.0
 40
0.0400060931217512
 40
0.0400060931217512
 40
0.0400060931217512
 10
1.199301797402622
 20
7.319999999999991
 30
0.0
 10
1.199650898701165
 20
7.299999999999994
 30
0.0
 10
1.199999999999708
 20
7.279999999999996
 30
0.0
  0
SPLINE
  5
88
330
1F
100
AcDbEntity
  8
Default
100
AcDbSpline
210
0.0
220
0.0
230
1.0
 70
    12
 71
     2
 72
     6
 73
     3
 74
     0
 42
0.0000000001
 43
0.0000000001
 40
-0.0205148466803361
 40
-0.0205148466803361
 40
-0.0205148466803361
 40
0.0
 40
0.0
 40
0.0
 10
-12.12739467758714
 20
1.321916756511124
 30
0.0
 41
1.0
 10
-12.12465045721535
 20
1.331850316586209
 30
0.0
 41
0.9929165310438545
 10
-12.12432822671823
 20
1.342150924790038
 30
0.0
 41
0.9999992470307488
  0
SPLINE
  5
89
330
1F
100
AcDbEntity
  8
Default
100
AcDbSpline
210
0.0
220
0.0
230
1.0
 70
    12
 71
     2
 72
     6
 73
     3
 74
     0
 42
0.0000000001
 43
0.0000000001
 40
-0.1306670865212424
 40
-0.1306670865212424
 40
-0.1306670865212424
 40
0.0
 40
0.0
 40
0.0
 10
-12.12432822671823
 20
1.342150924790038
 30
0.0
 41
1.0
 10
-12.12708470200503
 20
1.259999371951817
 30
0.0
 41
0.7188571908882943
 10
-12.20928139703665
 20
1.260000489392885
 30
0.0
 41
1.0
  0
SPLINE
  5
8A
330
1F
100
AcDbEntity
  8
Default
100
AcDbSpline
210
0.0
220
0.0
230
1.0
 70
    24
 71
     2
 72
     6
 73
     3
 74
     0
 42
0.0000000001
 43
0.0000000001
 40
-0.6179999986728006
 40
-0.6179999986728006
 40
-0.6179999986728006
 40
0.0
 40
0.0
 40
0.0
 10
-12.20928139703665
 20
1.260000489392885
 30
0.0
 10
-12.51828139637305
 20
1.260000489380662
 30
0.0
 10
-12.82728139570945
 20
1.260000489368439
 30
0.0
  0
SPLINE
  5
8B
330
1F
100
AcDbEntity
  8
Default
100
AcDbSpline
210
0.0
220
0.0
230
1.0
 70
    12
 71
     2
 72
     6
 73
     3
 74
     0
 42
0.0000000001
 43
0.0000000001
 40
-0.1306642149348706
 40
-0.1306642149348706
 40
-0.1306642149348706
 40
0.0
 40
0.0
 40
0.0
 10
-12.82728139570945
 20
1.260000489368439
 30
0.0
 41
1.0
 10
-12.90947530938752
 20
1.259999377635789
 30
0.0
 41
0.7188689686272367
 10
-12.91225732744545
 20
1.343573495961616
 30
0.0
 41
1.0
  0
LINE
  5
8C
330
1F
100
AcDbEntity
  8
Default
100
AcDbLine
 10
-12.91225732744545
 20
1.343573495961616
 30
0.0
 11
-12.91228150966132
 21
2.719999999999945
 31
0.0
  0
SPLINE
  5
8D
330
1F
100
AcDbEntity
  8
Default
100
AcDbSpline
210
0.0
220
0.0
230
1.0
 70
    12
 71
     2
 72
     8
 73
     5
 74
     0
 42
0.0000000001
 43
0.0000000001
 40
-0.0628318931243996
 40
-0.0628318931243996
 40
-0.0628318931243996
 40
-0.0314159465621985
 40
-0.0314159465621985
 40
0.0
 40
0.0
 40
0.0
 10
-12.91228150966132
 20
2.719999999999945
 30
0.0
 41
1.0
 10
-12.91228139573
 20
2.736568554226062
 30
0.0
 41
0.923879436714611
 10
-12.90056565281673
 20
2.748284285408195
 30
0.0
 41
1.0
 10
-12.88884990990345
 20
2.760000016590326
 30
0.0
 41
0.9238794367145934
 10
-12.8722813556774
 20
2.759999999999986
 30
0.0
 41
1.0
  0
POLYLINE
  5
8E
330
1F
100
AcDbEntity
  8
Default
100
AcDb2dPolyline
 66
     1
 10
0.0
 20
0.0
 30
0.0
  0
VERTEX
  5
8F
330
8E
100
AcDbEntity
  8
Default
100
AcDbVertex
100
AcDb2dVertex
 10
-12.8722813556774
 20
2.759999999999986
 30
0.0
  0
VERTEX
  5
90
330
8E
100
AcDbEntity
  8
Default
100
AcDbVertex
100
AcDb2dVertex
 10
-12.1642814370687
 20
2.759999999999986
 30
0.0
  0
SEQEND
  5
91
330
8E
100
AcDbEntity
  8
Default
  0
SPLINE
  5
92
330
1F
100
AcDbEntity
  8
Default
100
AcDbSpline
210
0.0
220
0.0
230
1.0
 70
    12
 71
     2
 72
     8
 73
     5
 74
     0
 42
0.0000000001
 43
0.0000000001
 40
0.0
 40
0.0
 40
0.0
 40
0.0314159465621985
 40
0.0314159465621985
 40
0.0628318931243996
 40
0.0628318931243996
 40
0.0628318931243996
 10
-12.1642814370687
 20
2.759999999999986
 30
0.0
 41
1.0
 10
-12.14771288284265
 20
2.760000016590326
 30
0.0
 41
0.9238794367145934
 10
-12.13599713992938
 20
2.748284285408195
 30
0.0
 41
1.0
 10
-12.1242813970161
 20
2.736568554226062
 30
0.0
 41
0.923879436714611
 10
-12.12428128308478
 20
2.719999999999945
 30
0.0
 41
1.0
  0
LINE
  5
93
330
1F
100
AcDbEntity
  8
Default
100
AcDbLine
 10
-12.12428128308478
 20
2.719999999999945
 30
0.0
 11
-12.12430546530065
 21
1.343573495961616
 31
0.0
  0
SPLINE
  5
94
330
1F
100
AcDbEntity
  8
Make2D visible lines
100
AcDbSpline
210
0.0
220
0.0
230
1.0
 70
    24
 71
     2
 72
     6
 73
     3
 74
     0
 42
0.0000000001
 43
0.0000000001
 40
-2.415105423527796
 40
-2.415105423527796
 40
-2.415105423527796
 40
0.0
 40
0.0
 40
0.0
 10
-12.98128139573
 20
2.487552711763898
 30
0.0
 10
-12.98128139573
 20
1.278776359863449
 30
0.0
 10
-12.98128139573
 20
0.0700000079629994
 30
0.0
  0
SPLINE
  5
95
330
1F
100
AcDbEntity
  8
Make2D visible lines
100
AcDbSpline
210
0.0
220
0.0
230
1.0
 70
    12
 71
     2
 72
     8
 73
     5
 74
     0
 42
0.0000000001
 43
0.0000000001
 40
-0.1099557508386429
 40
-0.1099557508386429
 40
-0.1099557508386429
 40
-0.0549778754193212
 40
-0.0549778754193212
 40
0.0
 40
0.0
 40
0.0
 10
-12.98128139573
 20
0.0700000079629994
 30
0.0
 41
1.0
 10
-12.98128139243162
 20
0.0410050562645741
 30
0.0
 41
0.9238795216280429
 10
-13.0017839182316
 20
0.0205025281322868
 30
0.0
 41
1.0
 10
-13.02228644403157
 20
0.0
 30
0.0
 41
0.923879521628049
 10
-13.05128139573
 20
0.0
 30
0.0
 41
1.0
  0
SPLINE
  5
96
330
1F
100
AcDbEntity
  8
Make2D visible lines
100
AcDbSpline
210
0.0
220
0.0
230
1.0
 70
    24
 71
     2
 72
     6
 73
     3
 74
     0
 42
0.0000000001
 43
0.0000000001
 40
0.0
 40
0.0
 40
0.0
 40
0.3520000000000003
 40
0.3520000000000003
 40
0.3520000000000003
 10
-13.05128139573
 20
0.0
 30
0.0
 10
-13.22728139573
 20
0.0
 30
0.0
 10
-13.40328139573
 20
0.0
 30
0.0
  0
SPLINE
  5
97
330
1F
100
AcDbEntity
  8
Make2D visible lines
100
AcDbSpline
210
0.0
220
0.0
230
1.0
 70
    12
 71
     2
 72
     6
 73
     3
 74
     0
 42
0.0000000001
 43
0.0000000001
 40
0.0
 40
0.0
 40
0.0
 40
0.2356194483882336
 40
0.2356194483882336
 40
0.2356194483882336
 10
-13.40328139573
 20
0.0
 30
0.0
 41
1.0
 10
-13.553281395099
 20
0.0
 30
0.0
 41
0.7071067826738353
 10
-13.55328139573
 20
0.1499999993689993
 30
0.0
 41
1.0
  0
SPLINE
  5
98
330
1F
100
AcDbEntity
  8
Make2D visible lines
100
AcDbSpline
210
0.0
220
0.0
230
1.0
 70
    24
 71
     2
 72
     6
 73
     3
 74
     0
 42
0.0000000001
 43
0.0000000001
 40
-2.260000001262
 40
-2.260000001262
 40
-2.260000001262
 40
0.0
 40
0.0
 40
0.0
 10
-13.55328139573
 20
0.1499999993689993
 30
0.0
 10
-13.55328139573
 20
1.279999999999999
 30
0.0
 10
-13.55328139573
 20
2.410000000630999
 30
0.0
  0
SPLINE
  5
99
330
1F
100
AcDbEntity
  8
Make2D visible lines
100
AcDbSpline
210
0.0
220
0.0
230
1.0
 70
    12
 71
     2
 72
     6
 73
     3
 74
     0
 42
0.0000000001
 43
0.0000000001
 40
0.0
 40
0.0
 40
0.0
 40
0.2356194483882358
 40
0.2356194483882358
 40
0.2356194483882358
 10
-13.55328139573
 20
2.410000000630999
 30
0.0
 41
1.0
 10
-13.553281395099
 20
2.560000000000001
 30
0.0
 41
0.7071067826738272
 10
-13.40328139573
 20
2.56
 30
0.0
 41
1.0
  0
SPLINE
  5
9A
330
1F
100
AcDbEntity
  8
Make2D visible lines
100
AcDbSpline
210
0.0
220
0.0
230
1.0
 70
    24
 71
     2
 72
     6
 73
     3
 74
     0
 42
0.0000000001
 43
0.0000000001
 40
0.0
 40
0.0
 40
0.0
 40
0.3520000000000003
 40
0.3520000000000003
 40
0.3520000000000003
 10
-13.40328139573
 20
2.56
 30
0.0
 10
-13.22728139573
 20
2.56
 30
0.0
 10
-13.05128139573
 20
2.56
 30
0.0
  0
SPLINE
  5
9B
330
1F
100
AcDbEntity
  8
Make2D visible lines
100
AcDbSpline
210
0.0
220
0.0
230
1.0
 70
    12
 71
     2
 72
     8
 73
     5
 74
     0
 42
0.0000000001
 43
0.0000000001
 40
-0.1099557508386414
 40
-0.1099557508386414
 40
-0.1099557508386414
 40
-0.0549778754193184
 40
-0.0549778754193184
 40
0.0
 40
0.0
 40
0.0
 10
-13.05128139573
 20
2.56
 30
0.0
 41
1.0
 10
-13.02228644403157
 20
2.56
 30
0.0
 41
0.9238795216280236
 10
-13.0017839182316
 20
2.53949747186771
 30
0.0
 41
1.0
 10
-12.98128139243162
 20
2.518994943735425
 30
0.0
 41
0.9238795216280324
 10
-12.98128139573
 20
2.487552711763898
 30
0.0
 41
1.0
  0
SPLINE
  5
9C
330
1F
100
AcDbEntity
  8
Make2D visible lines
100
AcDbSpline
210
0.0
220
0.0
230
1.0
 70
    24
 71
     2
 72
     6
 73
     3
 74
     0
 42
0.0000000001
 43
0.0000000001
 40
-2.415105433753071
 40
-2.415105433753071
 40
-2.415105433753071
 40
0.0
 40
0.0
 40
0.0
 10
-12.05528139573
 20
2.487552716876536
 30
0.0
 10
-12.05528139573
 20
1.278776359858268
 30
0.0
 10
-12.05528139573
 20
0.0700000028400005
 30
0.0
  0
SPLINE
  5
9D
330
1F
100
AcDbEntity
  8
Make2D visible lines
100
AcDbSpline
210
0.0
220
0.0
230
1.0
 70
    12
 71
     2
 72
     6
 73
     3
 74
     0
 42
0.0000000001
 43
0.0000000001
 40
0.0
 40
0.0
 40
0.0
 40
0.1099557457156439
 40
0.1099557457156439
 40
0.1099557457156439
 10
-12.05528139573
 20
0.0700000028400005
 30
0.0
 41
1.0
 10
-12.05528139857
 20
0.0
 30
0.0
 41
0.7071067668423728
 10
-11.98528139573
 20
-0.0000000000000001
 30
0.0
 41
1.0
  0
SPLINE
  5
9E
330
1F
100
AcDbEntity
  8
Make2D visible lines
100
AcDbSpline
210
0.0
220
0.0
230
1.0
 70
    24
 71
     2
 72
     6
 73
     3
 74
     0
 42
0.0000000001
 43
0.0000000001
 40
0.0
 40
0.0
 40
0.0
 40
0.3520000000000003
 40
0.3520000000000003
 40
0.3520000000000003
 10
-11.98528139573
 20
-0.0000000000000001
 30
0.0
 10
-11.80928139573
 20
0.0
 30
0.0
 10
-11.63328139573
 20
0.0
 30
0.0
  0
SPLINE
  5
9F
330
1F
100
AcDbEntity
  8
Make2D visible lines
100
AcDbSpline
210
0.0
220
0.0
230
1.0
 70
    12
 71
     2
 72
     6
 73
     3
 74
     0
 42
0.0000000001
 43
0.0000000001
 40
0.0
 40
0.0
 40
0.0
 40
0.2356194519512337
 40
0.2356194519512337
 40
0.2356194519512337
 10
-11.63328139573
 20
0.0
 30
0.0
 41
1.0
 10
-11.483281392798
 20
0.000000000000002
 30
0.0
 41
0.7071067742757676
 10
-11.48328139573
 20
0.1500000029319999
 30
0.0
 41
1.0
  0
SPLINE
  5
A0
330
1F
100
AcDbEntity
  8
Make2D visible lines
100
AcDbSpline
210
0.0
220
0.0
230
1.0
 70
    24
 71
     2
 72
     6
 73
     3
 74
     0
 42
0.0000000001
 43
0.0000000001
 40
0.0
 40
0.0
 40
0.0
 40
2.255429040880414
 40
2.255429040880414
 40
2.255429040880414
 10
-11.48328139573
 20
0.1500000029319999
 30
0.0
 10
-11.48328139573
 20
1.278857261686103
 30
0.0
 10
-11.48328139573
 20
2.407714520440207
 30
0.0
  0
SPLINE
  5
A1
330
1F
100
AcDbEntity
  8
Make2D visible lines
100
AcDbSpline
210
0.0
220
0.0
230
1.0
 70
    12
 71
     2
 72
     6
 73
     3
 74
     0
 42
0.0000000001
 43
0.0000000001
 40
0.0
 40
0.0
 40
0.0
 40
0.2356194519512344
 40
0.2356194519512344
 40
0.2356194519512344
 10
-11.48328139573
 20
2.407714520440207
 30
0.0
 41
1.0
 10
-11.483281392798
 20
2.56
 30
0.0
 41
0.7071067742757604
 10
-11.63328139573
 20
2.56
 30
0.0
 41
1.0
  0
SPLINE
  5
A2
330
1F
100
AcDbEntity
  8
Make2D visible lines
100
AcDbSpline
210
0.0
220
0.0
230
1.0
 70
    24
 71
     2
 72
     6
 73
     3
 74
     0
 42
0.0000000001
 43
0.0000000001
 40
0.0
 40
0.0
 40
0.0
 40
0.3520000000000003
 40
0.3520000000000003
 40
0.3520000000000003
 10
-11.63328139573
 20
2.56
 30
0.0
 10
-11.80928139573
 20
2.56
 30
0.0
 10
-11.98528139573
 20
2.56
 30
0.0
  0
SPLINE
  5
A3
330
1F
100
AcDbEntity
  8
Make2D visible lines
100
AcDbSpline
210
0.0
220
0.0
230
1.0
 70
    12
 71
     2
 72
     6
 73
     3
 74
     0
 42
0.0000000001
 43
0.0000000001
 40
0.0
 40
0.0
 40
0.0
 40
0.1099557457156434
 40
0.1099557457156434
 40
0.1099557457156434
 10
-11.98528139573
 20
2.56
 30
0.0
 41
1.0
 10
-12.05528139857
 20
2.56
 30
0.0
 41
0.7071067668423767
 10
-12.05528139573
 20
2.487552716876536
 30
0.0
 41
1.0
  0
SPLINE
  5
A4
330
1F
100
AcDbEntity
  8
Make2D visible lines
100
AcDbSpline
210
0.0
220
0.0
230
1.0
 70
    24
 71
     2
 72
     6
 73
     3
 74
     0
 42
0.0000000001
 43
0.0000000001
 40
0.0
 40
0.0
 40
0.0
 40
0.0689999999999991
 40
0.0689999999999991
 40
0.0689999999999991
 10
-12.12428139573
 20
1.595000000000001
 30
0.0
 10
-12.08978139573
 20
1.595000000000001
 30
0.0
 10
-12.05528139573
 20
1.595000000000001
 30
0.0
  0
SPLINE
  5
A5
330
1F
100
AcDbEntity
  8
Make2D visible lines
100
AcDbSpline
210
0.0
220
0.0
230
1.0
 70
    24
 71
     2
 72
     6
 73
     3
 74
     0
 42
0.0000000001
 43
0.0000000001
 40
0.0
 40
0.0
 40
0.0
 40
0.9260000000000002
 40
0.9260000000000002
 40
0.9260000000000002
 10
-12.05528139573
 20
0.9650000000000016
 30
0.0
 10
-12.51828139573
 20
0.9650000000000016
 30
0.0
 10
-12.98128139573
 20
0.9650000000000016
 30
0.0
  0
SPLINE
  5
A6
330
1F
100
AcDbEntity
  8
Make2D visible lines
100
AcDbSpline
210
0.0
220
0.0
230
1.0
 70
    24
 71
     2
 72
     6
 73
     3
 74
     0
 42
0.0000000001
 43
0.0000000001
 40
0.0
 40
0.0
 40
0.0
 40
0.0690000000000008
 40
0.0690000000000008
 40
0.0690000000000008
 10
-12.98128139573
 20
1.595000000000001
 30
0.0
 10
-12.94678139573
 20
1.595000000000001
 30
0.0
 10
-12.91228139573
 20
1.595000000000001
 30
0.0
  0
SPLINE
  5
A7
330
1F
100
AcDbEntity
  8
Make2D visible lines
100
AcDbSpline
210
0.0
220
0.0
230
1.0
 70
     8
 71
     3
 72
    12
 73
     8
 74
     0
 42
0.0000000001
 43
0.0000000001
 40
0.0
 40
0.0
 40
0.0
 40
0.0
 40
0.1463411183411369
 40
0.2853842069860231
 40
0.4774826785392335
 40
0.6695434217140405
 40
0.9551044705190225
 40
0.9551044705190225
 40
0.9551044705190225
 40
0.9551044705190225
 10
-12.17428139573
 20
2.135695657233184
 30
0.0
 10
-12.19483924901879
 20
2.092235288994199
 30
0.0
 10
-12.25007361418926
 20
2.011139443753334
 30
0.0
 10
-12.3490209868069
 20
1.892867635552798
 30
0.0
 10
-12.51940345317077
 20
1.800191929265525
 30
0.0
 10
-12.73138178770486
 20
1.918743261260477
 30
0.0
 10
-12.81556953510906
 20
2.051490853594749
 30
0.0
 10
-12.86228139573
 20
2.135695657233184
 30
0.0
  0
SPLINE
  5
A8
330
1F
100
AcDbEntity
  8
Make2D visible lines
100
AcDbSpline
210
0.0
220
0.0
230
1.0
 70
    12
 71
     2
 72
     6
 73
     3
 74
     0
 42
0.0000000001
 43
0.0000000001
 40
0.0
 40
0.0
 40
0.0
 40
0.1228476419690088
 40
0.1228476419690088
 40
0.1228476419690088
 10
-12.17428139573
 20
2.135695657233184
 30
0.0
 41
1.0
 10
-12.13896557419717
 20
2.186799143881471
 30
0.0
 41
0.9832969456840381
 10
-12.12428140026065
 20
2.247157644806792
 30
0.0
 41
1.0
  0
SPLINE
  5
A9
330
1F
100
AcDbEntity
  8
Make2D visible lines
100
AcDbSpline
210
0.0
220
0.0
230
1.0
 70
    12
 71
     2
 72
     6
 73
     3
 74
     0
 42
0.0000000001
 43
0.0000000001
 40
0.0
 40
0.0
 40
0.0
 40
0.1227840813427634
 40
0.1227840813427634
 40
0.1227840813427634
 10
-12.86228139573
 20
2.135695657233184
 30
0.0
 41
1.0
 10
-12.89709826317841
 20
2.187022966392655
 30
0.0
 41
0.9848379823800321
 10
-12.91228139119935
 20
2.247157644806793
 30
0.0
 41
1.0
  0
SPLINE
  5
AA
330
1F
100
AcDbEntity
  8
Make2D visible lines
100
AcDbSpline
210
0.0
220
0.0
230
1.0
 70
    12
 71
     2
 72
     6
 73
     3
 74
     0
 42
0.0000000001
 43
0.0000000001
 40
0.0
 40
0.0
 40
0.0
 40
0.1227840813427634
 40
0.1227840813427634
 40
0.1227840813427634
 10
-8.080723383299995
 20
2.135695657233184
 30
0.0
 41
1.0
 10
-8.115540250748406
 20
2.187022966392655
 30
0.0
 41
0.9848379823800321
 10
-8.130723378769352
 20
2.247157644806793
 30
0.0
 41
1.0
  0
SPLINE
  5
AB
330
1F
100
AcDbEntity
  8
Make2D visible lines
100
AcDbSpline
210
0.0
220
0.0
230
1.0
 70
    12
 71
     2
 72
     6
 73
     3
 74
     0
 42
0.0000000001
 43
0.0000000001
 40
0.0
 40
0.0
 40
0.0
 40
0.1228476419690088
 40
0.1228476419690088
 40
0.1228476419690088
 10
-7.3927233833
 20
2.135695657233184
 30
0.0
 41
1.0
 10
-7.35740756176717
 20
2.186799143881471
 30
0.0
 41
0.9832969456840381
 10
-7.342723387830643
 20
2.247157644806792
 30
0.0
 41
1.0
  0
SPLINE
  5
AC
330
1F
100
AcDbEntity
  8
Make2D visible lines
100
AcDbSpline
210
0.0
220
0.0
230
1.0
 70
     8
 71
     3
 72
    12
 73
     8
 74
     0
 42
0.0000000001
 43
0.0000000001
 40
0.0
 40
0.0
 40
0.0
 40
0.0
 40
0.1463411183411369
 40
0.2853842069860231
 40
0.4774826785392335
 40
0.6695434217140405
 40
0.9551044705190225
 40
0.9551044705190225
 40
0.9551044705190225
 40
0.9551044705190225
 10
-7.3927233833
 20
2.135695657233184
 30
0.0
 10
-7.413281236588784
 20
2.092235288994199
 30
0.0
 10
-7.468515601759259
 20
2.011139443753334
 30
0.0
 10
-7.567462974376896
 20
1.892867635552798
 30
0.0
 10
-7.737845440740765
 20
1.800191929265525
 30
0.0
 10
-7.949823775274854
 20
1.918743261260477
 30
0.0
 10
-8.034011522679057
 20
2.051490853594749
 30
0.0
 10
-8.080723383299995
 20
2.135695657233184
 30
0.0
  0
SPLINE
  5
AD
330
1F
100
AcDbEntity
  8
Make2D visible lines
100
AcDbSpline
210
0.0
220
0.0
230
1.0
 70
    24
 71
     2
 72
     6
 73
     3
 74
     0
 42
0.0000000001
 43
0.0000000001
 40
0.0
 40
0.0
 40
0.0
 40
0.0690000000000008
 40
0.0690000000000008
 40
0.0690000000000008
 10
-8.199723383299999
 20
1.595000000000001
 30
0.0
 10
-8.165223383299997
 20
1.595000000000001
 30
0.0
 10
-8.130723383299996
 20
1.595000000000001
 30
0.0
  0
SPLINE
  5
AE
330
1F
100
AcDbEntity
  8
Make2D visible lines
100
AcDbSpline
210
0.0
220
0.0
230
1.0
 70
    24
 71
     2
 72
     6
 73
     3
 74
     0
 42
0.0000000001
 43
0.0000000001
 40
0.0
 40
0.0
 40
0.0
 40
0.9260000000000002
 40
0.9260000000000002
 40
0.9260000000000002
 10
-7.273723383299997
 20
0.9650000000000016
 30
0.0
 10
-7.736723383299998
 20
0.9650000000000016
 30
0.0
 10
-8.199723383299999
 20
0.9650000000000016
 30
0.0
  0
SPLINE
  5
AF
330
1F
100
AcDbEntity
  8
Make2D visible lines
100
AcDbSpline
210
0.0
220
0.0
230
1.0
 70
    24
 71
     2
 72
     6
 73
     3
 74
     0
 42
0.0000000001
 43
0.0000000001
 40
0.0
 40
0.0
 40
0.0
 40
0.0689999999999991
 40
0.0689999999999991
 40
0.0689999999999991
 10
-7.342723383299996
 20
1.595000000000001
 30
0.0
 10
-7.308223383299996
 20
1.595000000000001
 30
0.0
 10
-7.273723383299997
 20
1.595000000000001
 30
0.0
  0
SPLINE
  5
B0
330
1F
100
AcDbEntity
  8
Make2D visible lines
100
AcDbSpline
210
0.0
220
0.0
230
1.0
 70
    24
 71
     2
 72
     6
 73
     3
 74
     0
 42
0.0000000001
 43
0.0000000001
 40
-2.415105433753071
 40
-2.415105433753071
 40
-2.415105433753071
 40
0.0
 40
0.0
 40
0.0
 10
-7.273723383299997
 20
2.487552716876536
 30
0.0
 10
-7.273723383299997
 20
1.278776359858268
 30
0.0
 10
-7.273723383299997
 20
0.0700000028400005
 30
0.0
  0
SPLINE
  5
B1
330
1F
100
AcDbEntity
  8
Make2D visible lines
100
AcDbSpline
210
0.0
220
0.0
230
1.0
 70
    12
 71
     2
 72
     6
 73
     3
 74
     0
 42
0.0000000001
 43
0.0000000001
 40
0.0
 40
0.0
 40
0.0
 40
0.1099557457156439
 40
0.1099557457156439
 40
0.1099557457156439
 10
-7.273723383299997
 20
0.0700000028400005
 30
0.0
 41
1.0
 10
-7.273723386139999
 20
0.0
 30
0.0
 41
0.7071067668423728
 10
-7.203723383299996
 20
-0.0000000000000001
 30
0.0
 41
1.0
  0
SPLINE
  5
B2
330
1F
100
AcDbEntity
  8
Make2D visible lines
100
AcDbSpline
210
0.0
220
0.0
230
1.0
 70
    24
 71
     2
 72
     6
 73
     3
 74
     0
 42
0.0000000001
 43
0.0000000001
 40
0.0
 40
0.0
 40
0.0
 40
0.3520000000000003
 40
0.3520000000000003
 40
0.3520000000000003
 10
-7.203723383299996
 20
-0.0000000000000001
 30
0.0
 10
-7.027723383299996
 20
0.0
 30
0.0
 10
-6.851723383299996
 20
0.0
 30
0.0
  0
SPLINE
  5
B3
330
1F
100
AcDbEntity
  8
Make2D visible lines
100
AcDbSpline
210
0.0
220
0.0
230
1.0
 70
    12
 71
     2
 72
     6
 73
     3
 74
     0
 42
0.0000000001
 43
0.0000000001
 40
0.0
 40
0.0
 40
0.0
 40
0.2356194519512337
 40
0.2356194519512337
 40
0.2356194519512337
 10
-6.851723383299996
 20
0.0
 30
0.0
 41
1.0
 10
-6.701723380367998
 20
0.000000000000002
 30
0.0
 41
0.7071067742757676
 10
-6.701723383299997
 20
0.1500000029319999
 30
0.0
 41
1.0
  0
SPLINE
  5
B4
330
1F
100
AcDbEntity
  8
Make2D visible lines
100
AcDbSpline
210
0.0
220
0.0
230
1.0
 70
    24
 71
     2
 72
     6
 73
     3
 74
     0
 42
0.0000000001
 43
0.0000000001
 40
0.0
 40
0.0
 40
0.0
 40
2.255429040880414
 40
2.255429040880414
 40
2.255429040880414
 10
-6.701723383299997
 20
0.1500000029319999
 30
0.0
 10
-6.701723383299997
 20
1.278857261686103
 30
0.0
 10
-6.701723383299997
 20
2.407714520440207
 30
0.0
  0
SPLINE
  5
B5
330
1F
100
AcDbEntity
  8
Make2D visible lines
100
AcDbSpline
210
0.0
220
0.0
230
1.0
 70
    12
 71
     2
 72
     6
 73
     3
 74
     0
 42
0.0000000001
 43
0.0000000001
 40
0.0
 40
0.0
 40
0.0
 40
0.2356194519512344
 40
0.2356194519512344
 40
0.2356194519512344
 10
-6.701723383299997
 20
2.407714520440207
 30
0.0
 41
1.0
 10
-6.701723380367997
 20
2.56
 30
0.0
 41
0.7071067742757604
 10
-6.851723383299996
 20
2.56
 30
0.0
 41
1.0
  0
SPLINE
  5
B6
330
1F
100
AcDbEntity
  8
Make2D visible lines
100
AcDbSpline
210
0.0
220
0.0
230
1.0
 70
    24
 71
     2
 72
     6
 73
     3
 74
     0
 42
0.0000000001
 43
0.0000000001
 40
0.0
 40
0.0
 40
0.0
 40
0.3520000000000003
 40
0.3520000000000003
 40
0.3520000000000003
 10
-6.851723383299996
 20
2.56
 30
0.0
 10
-7.027723383299996
 20
2.56
 30
0.0
 10
-7.203723383299996
 20
2.56
 30
0.0
  0
SPLINE
  5
B7
330
1F
100
AcDbEntity
  8
Make2D visible lines
100
AcDbSpline
210
0.0
220
0.0
230
1.0
 70
    12
 71
     2
 72
     6
 73
     3
 74
     0
 42
0.0000000001
 43
0.0000000001
 40
0.0
 40
0.0
 40
0.0
 40
0.1099557457156434
 40
0.1099557457156434
 40
0.1099557457156434
 10
-7.203723383299996
 20
2.56
 30
0.0
 41
1.0
 10
-7.273723386139998
 20
2.56
 30
0.0
 41
0.7071067668423767
 10
-7.273723383299997
 20
2.487552716876536
 30
0.0
 41
1.0
  0
SPLINE
  5
B8
330
1F
100
AcDbEntity
  8
Make2D visible lines
100
AcDbSpline
210
0.0
220
0.0
230
1.0
 70
    24
 71
     2
 72
     6
 73
     3
 74
     0
 42
0.0000000001
 43
0.0000000001
 40
-2.415105423527796
 40
-2.415105423527796
 40
-2.415105423527796
 40
0.0
 40
0.0
 40
0.0
 10
-8.199723383299999
 20
2.487552711763898
 30
0.0
 10
-8.199723383299999
 20
1.278776359863449
 30
0.0
 10
-8.199723383299999
 20
0.0700000079629994
 30
0.0
  0
SPLINE
  5
B9
330
1F
100
AcDbEntity
  8
Make2D visible lines
100
AcDbSpline
210
0.0
220
0.0
230
1.0
 70
    12
 71
     2
 72
     8
 73
     5
 74
     0
 42
0.0000000001
 43
0.0000000001
 40
-0.1099557508386429
 40
-0.1099557508386429
 40
-0.1099557508386429
 40
-0.0549778754193212
 40
-0.0549778754193212
 40
0.0
 40
0.0
 40
0.0
 10
-8.199723383299999
 20
0.0700000079629994
 30
0.0
 41
1.0
 10
-8.199723380001615
 20
0.0410050562645741
 30
0.0
 41
0.9238795216280429
 10
-8.220225905801593
 20
0.0205025281322868
 30
0.0
 41
1.0
 10
-8.240728431601573
 20
0.0
 30
0.0
 41
0.923879521628049
 10
-8.269723383299997
 20
0.0
 30
0.0
 41
1.0
  0
SPLINE
  5
BA
330
1F
100
AcDbEntity
  8
Make2D visible lines
100
AcDbSpline
210
0.0
220
0.0
230
1.0
 70
    24
 71
     2
 72
     6
 73
     3
 74
     0
 42
0.0000000001
 43
0.0000000001
 40
0.0
 40
0.0
 40
0.0
 40
0.3520000000000003
 40
0.3520000000000003
 40
0.3520000000000003
 10
-8.269723383299997
 20
0.0
 30
0.0
 10
-8.445723383299995
 20
0.0
 30
0.0
 10
-8.621723383299996
 20
0.0
 30
0.0
  0
SPLINE
  5
BB
330
1F
100
AcDbEntity
  8
Make2D visible lines
100
AcDbSpline
210
0.0
220
0.0
230
1.0
 70
    12
 71
     2
 72
     6
 73
     3
 74
     0
 42
0.0000000001
 43
0.0000000001
 40
0.0
 40
0.0
 40
0.0
 40
0.2356194483882336
 40
0.2356194483882336
 40
0.2356194483882336
 10
-8.621723383299996
 20
0.0
 30
0.0
 41
1.0
 10
-8.771723382668993
 20
0.0
 30
0.0
 41
0.7071067826738353
 10
-8.771723383299998
 20
0.1499999993689993
 30
0.0
 41
1.0
  0
SPLINE
  5
BC
330
1F
100
AcDbEntity
  8
Make2D visible lines
100
AcDbSpline
210
0.0
220
0.0
230
1.0
 70
    24
 71
     2
 72
     6
 73
     3
 74
     0
 42
0.0000000001
 43
0.0000000001
 40
-2.260000001262
 40
-2.260000001262
 40
-2.260000001262
 40
0.0
 40
0.0
 40
0.0
 10
-8.771723383299998
 20
0.1499999993689993
 30
0.0
 10
-8.771723383299998
 20
1.279999999999999
 30
0.0
 10
-8.771723383299998
 20
2.410000000630999
 30
0.0
  0
SPLINE
  5
BD
330
1F
100
AcDbEntity
  8
Make2D visible lines
100
AcDbSpline
210
0.0
220
0.0
230
1.0
 70
    12
 71
     2
 72
     6
 73
     3
 74
     0
 42
0.0000000001
 43
0.0000000001
 40
0.0
 40
0.0
 40
0.0
 40
0.2356194483882358
 40
0.2356194483882358
 40
0.2356194483882358
 10
-8.771723383299998
 20
2.410000000630999
 30
0.0
 41
1.0
 10
-8.771723382668998
 20
2.560000000000001
 30
0.0
 41
0.7071067826738272
 10
-8.621723383299996
 20
2.56
 30
0.0
 41
1.0
  0
SPLINE
  5
BE
330
1F
100
AcDbEntity
  8
Make2D visible lines
100
AcDbSpline
210
0.0
220
0.0
230
1.0
 70
    24
 71
     2
 72
     6
 73
     3
 74
     0
 42
0.0000000001
 43
0.0000000001
 40
0.0
 40
0.0
 40
0.0
 40
0.3520000000000003
 40
0.3520000000000003
 40
0.3520000000000003
 10
-8.621723383299996
 20
2.56
 30
0.0
 10
-8.445723383299995
 20
2.56
 30
0.0
 10
-8.269723383299997
 20
2.56
 30
0.0
  0
SPLINE
  5
BF
330
1F
100
AcDbEntity
  8
Make2D visible lines
100
AcDbSpline
210
0.0
220
0.0
230
1.0
 70
    12
 71
     2
 72
     8
 73
     5
 74
     0
 42
0.0000000001
 43
0.0000000001
 40
-0.1099557508386414
 40
-0.1099557508386414
 40
-0.1099557508386414
 40
-0.0549778754193184
 40
-0.0549778754193184
 40
0.0
 40
0.0
 40
0.0
 10
-8.269723383299997
 20
2.56
 30
0.0
 41
1.0
 10
-8.240728431601571
 20
2.56
 30
0.0
 41
0.9238795216280236
 10
-8.220225905801595
 20
2.53949747186771
 30
0.0
 41
1.0
 10
-8.199723380001616
 20
2.518994943735425
 30
0.0
 41
0.9238795216280324
 10
-8.199723383299999
 20
2.487552711763898
 30
0.0
 41
1.0
  0
SPLINE
  5
C0
330
1F
100
AcDbEntity
  8
Default
100
AcDbSpline
210
0.0
220
0.0
230
1.0
 70
    12
 71
     2
 72
     6
 73
     3
 74
     0
 42
0.0000000001
 43
0.0000000001
 40
-0.0205148466803361
 40
-0.0205148466803361
 40
-0.0205148466803361
 40
0.0
 40
0.0
 40
0.0
 10
-7.34583666515714
 20
1.321916756511124
 30
0.0
 41
1.0
 10
-7.343092444785353
 20
1.331850316586209
 30
0.0
 41
0.9929165310438545
 10
-7.342770214288228
 20
1.342150924790038
 30
0.0
 41
0.9999992470307488
  0
SPLINE
  5
C1
330
1F
100
AcDbEntity
  8
Default
100
AcDbSpline
210
0.0
220
0.0
230
1.0
 70
    12
 71
     2
 72
     6
 73
     3
 74
     0
 42
0.0000000001
 43
0.0000000001
 40
-0.1306670865212424
 40
-0.1306670865212424
 40
-0.1306670865212424
 40
0.0
 40
0.0
 40
0.0
 10
-7.342770214288228
 20
1.342150924790038
 30
0.0
 41
1.0
 10
-7.345526689575028
 20
1.259999371951817
 30
0.0
 41
0.7188571908882943
 10
-7.427723384606649
 20
1.260000489392885
 30
0.0
 41
1.0
  0
SPLINE
  5
C2
330
1F
100
AcDbEntity
  8
Default
100
AcDbSpline
210
0.0
220
0.0
230
1.0
 70
    24
 71
     2
 72
     6
 73
     3
 74
     0
 42
0.0000000001
 43
0.0000000001
 40
-0.6179999986728006
 40
-0.6179999986728006
 40
-0.6179999986728006
 40
0.0
 40
0.0
 40
0.0
 10
-7.427723384606649
 20
1.260000489392885
 30
0.0
 10
-7.736723383943049
 20
1.260000489380662
 30
0.0
 10
-8.04572338327945
 20
1.260000489368439
 30
0.0
  0
SPLINE
  5
C3
330
1F
100
AcDbEntity
  8
Default
100
AcDbSpline
210
0.0
220
0.0
230
1.0
 70
    12
 71
     2
 72
     6
 73
     3
 74
     0
 42
0.0000000001
 43
0.0000000001
 40
-0.1306642149348706
 40
-0.1306642149348706
 40
-0.1306642149348706
 40
0.0
 40
0.0
 40
0.0
 10
-8.04572338327945
 20
1.260000489368439
 30
0.0
 41
1.0
 10
-8.127917296957516
 20
1.259999377635789
 30
0.0
 41
0.7188689686272367
 10
-8.130699315015447
 20
1.343573495961616
 30
0.0
 41
1.0
  0
LINE
  5
C4
330
1F
100
AcDbEntity
  8
Default
100
AcDbLine
 10
-8.130699315015447
 20
1.343573495961616
 30
0.0
 11
-8.130723497231317
 21
2.719999999999945
 31
0.0
  0
SPLINE
  5
C5
330
1F
100
AcDbEntity
  8
Default
100
AcDbSpline
210
0.0
220
0.0
230
1.0
 70
    12
 71
     2
 72
     8
 73
     5
 74
     0
 42
0.0000000001
 43
0.0000000001
 40
-0.0628318931243996
 40
-0.0628318931243996
 40
-0.0628318931243996
 40
-0.0314159465621985
 40
-0.0314159465621985
 40
0.0
 40
0.0
 40
0.0
 10
-8.130723497231317
 20
2.719999999999945
 30
0.0
 41
1.0
 10
-8.130723383299998
 20
2.736568554226062
 30
0.0
 41
0.923879436714611
 10
-8.119007640386725
 20
2.748284285408195
 30
0.0
 41
1.0
 10
-8.107291897473448
 20
2.760000016590326
 30
0.0
 41
0.9238794367145934
 10
-8.090723343247399
 20
2.759999999999986
 30
0.0
 41
1.0
  0
POLYLINE
  5
C6
330
1F
100
AcDbEntity
  8
Default
100
AcDb2dPolyline
 66
     1
 10
0.0
 20
0.0
 30
0.0
  0
VERTEX
  5
C7
330
C6
100
AcDbEntity
  8
Default
100
AcDbVertex
100
AcDb2dVertex
 10
-8.090723343247399
 20
2.759999999999986
 30
0.0
  0
VERTEX
  5
C8
330
C6
100
AcDbEntity
  8
Default
100
AcDbVertex
100
AcDb2dVertex
 10
-7.3827234246387
 20
2.759999999999986
 30
0.0
  0
SEQEND
  5
C9
330
C6
100
AcDbEntity
  8
Default
  0
SPLINE
  5
CA
330
1F
100
AcDbEntity
  8
Default
100
AcDbSpline
210
0.0
220
0.0
230
1.0
 70
    12
 71
     2
 72
     8
 73
     5
 74
     0
 42
0.0000000001
 43
0.0000000001
 40
0.0
 40
0.0
 40
0.0
 40
0.0314159465621985
 40
0.0314159465621985
 40
0.0628318931243996
 40
0.0628318931243996
 40
0.0628318931243996
 10
-7.3827234246387
 20
2.759999999999986
 30
0.0
 41
1.0
 10
-7.366154870412649
 20
2.760000016590326
 30
0.0
 41
0.9238794367145934
 10
-7.354439127499374
 20
2.748284285408195
 30
0.0
 41
1.0
 10
-7.342723384586099
 20
2.736568554226062
 30
0.0
 41
0.923879436714611
 10
-7.342723270654782
 20
2.719999999999945
 30
0.0
 41
1.0
  0
LINE
  5
CB
330
1F
100
AcDbEntity
  8
Default
100
AcDbLine
 10
-7.342723270654782
 20
2.719999999999945
 30
0.0
 11
-7.342747452870652
 21
1.343573495961616
 31
0.0
  0
SPLINE
  5
CC
330
1F
100
AcDbEntity
  8
Make2D visible lines
100
AcDbSpline
210
0.0
220
0.0
230
1.0
 70
    12
 71
     2
 72
     6
 73
     3
 74
     0
 42
0.0000000001
 43
0.0000000001
 40
0.0
 40
0.0
 40
0.0
 40
0.1227840813427634
 40
0.1227840813427634
 40
0.1227840813427634
 10
-0.3439999999999976
 20
2.135695657233184
 30
0.0
 41
1.0
 10
-0.3788168674484081
 20
2.187022966392655
 30
0.0
 41
0.9848379823800321
 10
-0.393999995469354
 20
2.247157644806793
 30
0.0
 41
1.0
  0
SPLINE
  5
CD
330
1F
100
AcDbEntity
  8
Make2D visible lines
100
AcDbSpline
210
0.0
220
0.0
230
1.0
 70
    12
 71
     2
 72
     6
 73
     3
 74
     0
 42
0.0000000001
 43
0.0000000001
 40
0.0
 40
0.0
 40
0.0
 40
0.1228476419690088
 40
0.1228476419690088
 40
0.1228476419690088
 10
0.3439999999999976
 20
2.135695657233184
 30
0.0
 41
1.0
 10
0.3793158215328276
 20
2.186799143881471
 30
0.0
 41
0.9832969456840381
 10
0.393999995469354
 20
2.247157644806792
 30
0.0
 41
1.0
  0
SPLINE
  5
CE
330
1F
100
AcDbEntity
  8
Make2D visible lines
100
AcDbSpline
210
0.0
220
0.0
230
1.0
 70
     8
 71
     3
 72
    12
 73
     8
 74
     0
 42
0.0000000001
 43
0.0000000001
 40
0.0
 40
0.0
 40
0.0
 40
0.0
 40
0.1463411183411369
 40
0.2853842069860231
 40
0.4774826785392335
 40
0.6695434217140405
 40
0.9551044705190225
 40
0.9551044705190225
 40
0.9551044705190225
 40
0.9551044705190225
 10
0.3439999999999976
 20
2.135695657233184
 30
0.0
 10
0.3234421467112139
 20
2.092235288994199
 30
0.0
 10
0.2682077815407382
 20
2.011139443753334
 30
0.0
 10
0.1692604089231011
 20
1.892867635552798
 30
0.0
 10
-0.0011220574407673
 20
1.800191929265525
 30
0.0
 10
-0.2131003919748569
 20
1.918743261260477
 30
0.0
 10
-0.2972881393790594
 20
2.051490853594749
 30
0.0
 10
-0.3439999999999976
 20
2.135695657233184
 30
0.0
  0
SPLINE
  5
CF
330
1F
100
AcDbEntity
  8
Make2D visible lines
100
AcDbSpline
210
0.0
220
0.0
230
1.0
 70
    24
 71
     2
 72
     6
 73
     3
 74
     0
 42
0.0000000001
 43
0.0000000001
 40
0.0
 40
0.0
 40
0.0
 40
0.0690000000000008
 40
0.0690000000000008
 40
0.0690000000000008
 10
-0.463000000000001
 20
1.595000000000001
 30
0.0
 10
-0.4284999999999997
 20
1.595000000000001
 30
0.0
 10
-0.3939999999999984
 20
1.595000000000001
 30
0.0
  0
SPLINE
  5
D0
330
1F
100
AcDbEntity
  8
Make2D visible lines
100
AcDbSpline
210
0.0
220
0.0
230
1.0
 70
    24
 71
     2
 72
     6
 73
     3
 74
     0
 42
0.0000000001
 43
0.0000000001
 40
0.0
 40
0.0
 40
0.0
 40
0.9260000000000002
 40
0.9260000000000002
 40
0.9260000000000002
 10
0.463000000000001
 20
0.9650000000000016
 30
0.0
 10
0.0
 20
0.9650000000000016
 30
0.0
 10
-0.463000000000001
 20
0.9650000000000016
 30
0.0
  0
SPLINE
  5
D1
330
1F
100
AcDbEntity
  8
Make2D visible lines
100
AcDbSpline
210
0.0
220
0.0
230
1.0
 70
    24
 71
     2
 72
     6
 73
     3
 74
     0
 42
0.0000000001
 43
0.0000000001
 40
0.0
 40
0.0
 40
0.0
 40
0.0689999999999991
 40
0.0689999999999991
 40
0.0689999999999991
 10
0.3940000000000019
 20
1.595000000000001
 30
0.0
 10
0.4285000000000014
 20
1.595000000000001
 30
0.0
 10
0.463000000000001
 20
1.595000000000001
 30
0.0
  0
SPLINE
  5
D2
330
1F
100
AcDbEntity
  8
Make2D visible lines
100
AcDbSpline
210
0.0
220
0.0
230
1.0
 70
    24
 71
     2
 72
     6
 73
     3
 74
     0
 42
0.0000000001
 43
0.0000000001
 40
-2.415105433753071
 40
-2.415105433753071
 40
-2.415105433753071
 40
0.0
 40
0.0
 40
0.0
 10
0.463000000000001
 20
2.487552716876536
 30
0.0
 10
0.463000000000001
 20
1.278776359858268
 30
0.0
 10
0.463000000000001
 20
0.0700000028400005
 30
0.0
  0
SPLINE
  5
D3
330
1F
100
AcDbEntity
  8
Make2D visible lines
100
AcDbSpline
210
0.0
220
0.0
230
1.0
 70
    12
 71
     2
 72
     6
 73
     3
 74
     0
 42
0.0000000001
 43
0.0000000001
 40
0.0
 40
0.0
 40
0.0
 40
0.1099557457156439
 40
0.1099557457156439
 40
0.1099557457156439
 10
0.463000000000001
 20
0.0700000028400005
 30
0.0
 41
1.0
 10
0.4629999971599989
 20
0.0
 30
0.0
 41
0.7071067668423728
 10
0.5330000000000013
 20
-0.0000000000000001
 30
0.0
 41
1.0
  0
SPLINE
  5
D4
330
1F
100
AcDbEntity
  8
Make2D visible lines
100
AcDbSpline
210
0.0
220
0.0
230
1.0
 70
    24
 71
     2
 72
     6
 73
     3
 74
     0
 42
0.0000000001
 43
0.0000000001
 40
0.0
 40
0.0
 40
0.0
 40
0.3520000000000003
 40
0.3520000000000003
 40
0.3520000000000003
 10
0.5330000000000013
 20
-0.0000000000000001
 30
0.0
 10
0.7090000000000014
 20
0.0
 30
0.0
 10
0.8850000000000016
 20
0.0
 30
0.0
  0
SPLINE
  5
D5
330
1F
100
AcDbEntity
  8
Make2D visible lines
100
AcDbSpline
210
0.0
220
0.0
230
1.0
 70
    12
 71
     2
 72
     6
 73
     3
 74
     0
 42
0.0000000001
 43
0.0000000001
 40
0.0
 40
0.0
 40
0.0
 40
0.2356194519512337
 40
0.2356194519512337
 40
0.2356194519512337
 10
0.8850000000000016
 20
0.0
 30
0.0
 41
1.0
 10
1.035000002932
 20
0.000000000000002
 30
0.0
 41
0.7071067742757676
 10
1.035
 20
0.1500000029319999
 30
0.0
 41
1.0
  0
SPLINE
  5
D6
330
1F
100
AcDbEntity
  8
Make2D visible lines
100
AcDbSpline
210
0.0
220
0.0
230
1.0
 70
    24
 71
     2
 72
     6
 73
     3
 74
     0
 42
0.0000000001
 43
0.0000000001
 40
0.0
 40
0.0
 40
0.0
 40
2.255429040880414
 40
2.255429040880414
 40
2.255429040880414
 10
1.035
 20
0.1500000029319999
 30
0.0
 10
1.035
 20
1.278857261686103
 30
0.0
 10
1.035
 20
2.407714520440207
 30
0.0
  0
SPLINE
  5
D7
330
1F
100
AcDbEntity
  8
Make2D visible lines
100
AcDbSpline
210
0.0
220
0.0
230
1.0
 70
    12
 71
     2
 72
     6
 73
     3
 74
     0
 42
0.0000000001
 43
0.0000000001
 40
0.0
 40
0.0
 40
0.0
 40
0.2356194519512344
 40
0.2356194519512344
 40
0.2356194519512344
 10
1.035
 20
2.407714520440207
 30
0.0
 41
1.0
 10
1.035000002932001
 20
2.56
 30
0.0
 41
0.7071067742757604
 10
0.8850000000000016
 20
2.56
 30
0.0
 41
1.0
  0
SPLINE
  5
D8
330
1F
100
AcDbEntity
  8
Make2D visible lines
100
AcDbSpline
210
0.0
220
0.0
230
1.0
 70
    24
 71
     2
 72
     6
 73
     3
 74
     0
 42
0.0000000001
 43
0.0000000001
 40
0.0
 40
0.0
 40
0.0
 40
0.3520000000000003
 40
0.3520000000000003
 40
0.3520000000000003
 10
0.8850000000000016
 20
2.56
 30
0.0
 10
0.7090000000000014
 20
2.56
 30
0.0
 10
0.5330000000000013
 20
2.56
 30
0.0
  0
SPLINE
  5
D9
330
1F
100
AcDbEntity
  8
Make2D visible lines
100
AcDbSpline
210
0.0
220
0.0
230
1.0
 70
    12
 71
     2
 72
     6
 73
     3
 74
     0
 42
0.0000000001
 43
0.0000000001
 40
0.0
 40
0.0
 40
0.0
 40
0.1099557457156434
 40
0.1099557457156434
 40
0.1099557457156434
 10
0.5330000000000013
 20
2.56
 30
0.0
 41
1.0
 10
0.46299999716
 20
2.56
 30
0.0
 41
0.7071067668423767
 10
0.463000000000001
 20
2.487552716876536
 30
0.0
 41
1.0
  0
SPLINE
  5
DA
330
1F
100
AcDbEntity
  8
Make2D visible lines
100
AcDbSpline
210
0.0
220
0.0
230
1.0
 70
    24
 71
     2
 72
     6
 73
     3
 74
     0
 42
0.0000000001
 43
0.0000000001
 40
-2.415105423527796
 40
-2.415105423527796
 40
-2.415105423527796
 40
0.0
 40
0.0
 40
0.0
 10
-0.463000000000001
 20
2.487552711763898
 30
0.0
 10
-0.463000000000001
 20
1.278776359863449
 30
0.0
 10
-0.463000000000001
 20
0.0700000079629994
 30
0.0
  0
SPLINE
  5
DB
330
1F
100
AcDbEntity
  8
Make2D visible lines
100
AcDbSpline
210
0.0
220
0.0
230
1.0
 70
    12
 71
     2
 72
     8
 73
     5
 74
     0
 42
0.0000000001
 43
0.0000000001
 40
-0.1099557508386429
 40
-0.1099557508386429
 40
-0.1099557508386429
 40
-0.0549778754193212
 40
-0.0549778754193212
 40
0.0
 40
0.0
 40
0.0
 10
-0.463000000000001
 20
0.0700000079629994
 30
0.0
 41
1.0
 10
-0.4629999967016183
 20
0.0410050562645741
 30
0.0
 41
0.9238795216280429
 10
-0.4835025225015954
 20
0.0205025281322868
 30
0.0
 41
1.0
 10
-0.5040050483015753
 20
0.0
 30
0.0
 41
0.923879521628049
 10
-0.5329999999999995
 20
0.0
 30
0.0
 41
1.0
  0
SPLINE
  5
DC
330
1F
100
AcDbEntity
  8
Make2D visible lines
100
AcDbSpline
210
0.0
220
0.0
230
1.0
 70
    24
 71
     2
 72
     6
 73
     3
 74
     0
 42
0.0000000001
 43
0.0000000001
 40
0.0
 40
0.0
 40
0.0
 40
0.3520000000000003
 40
0.3520000000000003
 40
0.3520000000000003
 10
-0.5329999999999995
 20
0.0
 30
0.0
 10
-0.7089999999999987
 20
0.0
 30
0.0
 10
-0.884999999999998
 20
0.0
 30
0.0
  0
SPLINE
  5
DD
330
1F
100
AcDbEntity
  8
Make2D visible lines
100
AcDbSpline
210
0.0
220
0.0
230
1.0
 70
    12
 71
     2
 72
     6
 73
     3
 74
     0
 42
0.0000000001
 43
0.0000000001
 40
0.0
 40
0.0
 40
0.0
 40
0.2356194483882336
 40
0.2356194483882336
 40
0.2356194483882336
 10
-0.884999999999998
 20
0.0
 30
0.0
 41
1.0
 10
-1.034999999368996
 20
0.0
 30
0.0
 41
0.7071067826738353
 10
-1.035
 20
0.1499999993689993
 30
0.0
 41
1.0
  0
SPLINE
  5
DE
330
1F
100
AcDbEntity
  8
Make2D visible lines
100
AcDbSpline
210
0.0
220
0.0
230
1.0
 70
    24
 71
     2
 72
     6
 73
     3
 74
     0
 42
0.0000000001
 43
0.0000000001
 40
-2.260000001262
 40
-2.260000001262
 40
-2.260000001262
 40
0.0
 40
0.0
 40
0.0
 10
-1.035
 20
0.1499999993689993
 30
0.0
 10
-1.035
 20
1.279999999999999
 30
0.0
 10
-1.035
 20
2.410000000630999
 30
0.0
  0
SPLINE
  5
DF
330
1F
100
AcDbEntity
  8
Make2D visible lines
100
AcDbSpline
210
0.0
220
0.0
230
1.0
 70
    12
 71
     2
 72
     6
 73
     3
 74
     0
 42
0.0000000001
 43
0.0000000001
 40
0.0
 40
0.0
 40
0.0
 40
0.2356194483882358
 40
0.2356194483882358
 40
0.2356194483882358
 10
-1.035
 20
2.410000000630999
 30
0.0
 41
1.0
 10
-1.034999999369002
 20
2.560000000000001
 30
0.0
 41
0.7071067826738272
 10
-0.884999999999998
 20
2.56
 30
0.0
 41
1.0
  0
SPLINE
  5
E0
330
1F
100
AcDbEntity
  8
Make2D visible lines
100
AcDbSpline
210
0.0
220
0.0
230
1.0
 70
    24
 71
     2
 72
     6
 73
     3
 74
     0
 42
0.0000000001
 43
0.0000000001
 40
0.0
 40
0.0
 40
0.0
 40
0.3520000000000003
 40
0.3520000000000003
 40
0.3520000000000003
 10
-0.884999999999998
 20
2.56
 30
0.0
 10
-0.7089999999999987
 20
2.56
 30
0.0
 10
-0.5329999999999995
 20
2.56
 30
0.0
  0
SPLINE
  5
E1
330
1F
100
AcDbEntity
  8
Make2D visible lines
100
AcDbSpline
210
0.0
220
0.0
230
1.0
 70
    12
 71
     2
 72
     8
 73
     5
 74
     0
 42
0.0000000001
 43
0.0000000001
 40
-0.1099557508386414
 40
-0.1099557508386414
 40
-0.1099557508386414
 40
-0.0549778754193184
 40
-0.0549778754193184
 40
0.0
 40
0.0
 40
0.0
 10
-0.5329999999999995
 20
2.56
 30
0.0
 41
1.0
 10
-0.5040050483015742
 20
2.56
 30
0.0
 41
0.9238795216280236
 10
-0.4835025225015972
 20
2.53949747186771
 30
0.0
 41
1.0
 10
-0.4629999967016187
 20
2.518994943735425
 30
0.0
 41
0.9238795216280324
 10
-0.463000000000001
 20
2.487552711763898
 30
0.0
 41
1.0
  0
SPLINE
  5
E2
330
1F
100
AcDbEntity
  8
Default
100
AcDbSpline
210
0.0
220
0.0
230
1.0
 70
    12
 71
     2
 72
     6
 73
     3
 74
     0
 42
0.0000000001
 43
0.0000000001
 40
-0.0205148466803361
 40
-0.0205148466803361
 40
-0.0205148466803361
 40
0.0
 40
0.0
 40
0.0
 10
0.3908867181428572
 20
1.321916756511124
 30
0.0
 41
1.0
 10
0.3936309385146441
 20
1.331850316586209
 30
0.0
 41
0.9929165310438545
 10
0.3939531690117691
 20
1.342150924790038
 30
0.0
 41
0.9999992470307488
  0
SPLINE
  5
E3
330
1F
100
AcDbEntity
  8
Default
100
AcDbSpline
210
0.0
220
0.0
230
1.0
 70
    12
 71
     2
 72
     6
 73
     3
 74
     0
 42
0.0000000001
 43
0.0000000001
 40
-0.1306670865212424
 40
-0.1306670865212424
 40
-0.1306670865212424
 40
0.0
 40
0.0
 40
0.0
 10
0.3939531690117697
 20
1.342150924790038
 30
0.0
 41
1.0
 10
0.3911966937249701
 20
1.259999371951817
 30
0.0
 41
0.7188571908882943
 10
0.3089999986933485
 20
1.260000489392885
 30
0.0
 41
1.0
  0
SPLINE
  5
E4
330
1F
100
AcDbEntity
  8
Default
100
AcDbSpline
210
0.0
220
0.0
230
1.0
 70
    24
 71
     2
 72
     6
 73
     3
 74
     0
 42
0.0000000001
 43
0.0000000001
 40
-0.6179999986728006
 40
-0.6179999986728006
 40
-0.6179999986728006
 40
0.0
 40
0.0
 40
0.0
 10
0.3089999986933485
 20
1.260000489392885
 30
0.0
 10
-0.0000000006430518
 20
1.260000489380662
 30
0.0
 10
-0.3089999999794522
 20
1.260000489368439
 30
0.0
  0
SPLINE
  5
E5
330
1F
100
AcDbEntity
  8
Default
100
AcDbSpline
210
0.0
220
0.0
230
1.0
 70
    12
 71
     2
 72
     6
 73
     3
 74
     0
 42
0.0000000001
 43
0.0000000001
 40
-0.1306642149348706
 40
-0.1306642149348706
 40
-0.1306642149348706
 40
0.0
 40
0.0
 40
0.0
 10
-0.3089999999794522
 20
1.260000489368439
 30
0.0
 41
1.0
 10
-0.3911939136575184
 20
1.259999377635789
 30
0.0
 41
0.7188689686272367
 10
-0.393975931715449
 20
1.343573495961616
 30
0.0
 41
1.0
  0
LINE
  5
E6
330
1F
100
AcDbEntity
  8
Default
100
AcDbLine
 10
-0.393975931715449
 20
1.343573495961616
 30
0.0
 11
-0.3940001139313196
 21
2.719999999999945
 31
0.0
  0
SPLINE
  5
E7
330
1F
100
AcDbEntity
  8
Default
100
AcDbSpline
210
0.0
220
0.0
230
1.0
 70
    12
 71
     2
 72
     8
 73
     5
 74
     0
 42
0.0000000001
 43
0.0000000001
 40
-0.0628318931243996
 40
-0.0628318931243996
 40
-0.0628318931243996
 40
-0.0314159465621985
 40
-0.0314159465621985
 40
0.0
 40
0.0
 40
0.0
 10
-0.3940001139313196
 20
2.719999999999945
 30
0.0
 41
1.0
 10
-0.3940000000000003
 20
2.736568554226062
 30
0.0
 41
0.923879436714611
 10
-0.3822842570867273
 20
2.748284285408195
 30
0.0
 41
1.0
 10
-0.3705685141734518
 20
2.760000016590326
 30
0.0
 41
0.9238794367145934
 10
-0.3539999599474015
 20
2.759999999999986
 30
0.0
 41
1.0
  0
POLYLINE
  5
E8
330
1F
100
AcDbEntity
  8
Default
100
AcDb2dPolyline
 66
     1
 10
0.0
 20
0.0
 30
0.0
  0
VERTEX
  5
E9
330
E8
100
AcDbEntity
  8
Default
100
AcDbVertex
100
AcDb2dVertex
 10
-0.3539999599474015
 20
2.759999999999986
 30
0.0
  0
VERTEX
  5
EA
330
E8
100
AcDbEntity
  8
Default
100
AcDbVertex
100
AcDb2dVertex
 10
0.3539999586612979
 20
2.759999999999986
 30
0.0
  0
SEQEND
  5
EB
330
E8
100
AcDbEntity
  8
Default
  0
SPLINE
  5
EC
330
1F
100
AcDbEntity
  8
Default
100
AcDbSpline
210
0.0
220
0.0
230
1.0
 70
    12
 71
     2
 72
     8
 73
     5
 74
     0
 42
0.0000000001
 43
0.0000000001
 40
0.0
 40
0.0
 40
0.0
 40
0.0314159465621985
 40
0.0314159465621985
 40
0.0628318931243996
 40
0.0628318931243996
 40
0.0628318931243996
 10
0.3539999586612979
 20
2.759999999999986
 30
0.0
 41
1.0
 10
0.3705685128873479
 20
2.760000016590326
 30
0.0
 41
0.9238794367145934
 10
0.3822842558006236
 20
2.748284285408195
 30
0.0
 41
1.0
 10
0.3939999987138978
 20
2.736568554226062
 30
0.0
 41
0.923879436714611
 10
0.3940001126452159
 20
2.719999999999945
 30
0.0
 41
1.0
  0
LINE
  5
ED
330
1F
100
AcDbEntity
  8
Default
100
AcDbLine
 10
0.3940001126452159
 20
2.719999999999945
 30
0.0
 11
0.3939759304293453
 21
1.343573495961616
 31
0.0
  0
SPLINE
  5
EE
330
1F
100
AcDbEntity
  8
Default
100
AcDbSpline
210
0.0
220
0.0
230
1.0
 70
    12
 71
     2
 72
     6
 73
     3
 74
     0
 42
0.0000000001
 43
0.0000000001
 40
-0.0405034352679367
 40
-0.0405034352679367
 40
-0.0405034352679367
 40
0.0
 40
0.0
 40
0.0
 10
-12.14911371442322
 20
2.760035477590776
 30
0.0
 41
1.0
 10
-12.12629078105089
 20
2.761184994890809
 30
0.0
 41
0.8377474461443447
 10
-12.11806098244238
 20
2.782509390905094
 30
0.0
 41
1.0
  0
SPLINE
  5
EF
330
1F
100
AcDbEntity
  8
Default
100
AcDbSpline
210
0.0
220
0.0
230
1.0
 70
     8
 71
     3
 72
    11
 73
     7
 74
     0
 42
0.0000000001
 43
0.0000000001
 40
-0.5190498716913017
 40
-0.5190498716913017
 40
-0.5190498716913017
 40
-0.5190498716913017
 40
-0.3020474028680822
 40
-0.2374224159260925
 40
-0.1669895205952948
 40
0.0
 40
0.0
 40
0.0
 40
0.0
 10
-12.11806098244238
 20
2.782509390905094
 30
0.0
 10
-12.09223346747857
 20
2.850638090585806
 30
0.0
 10
-12.02956425645359
 20
2.924693852895348
 30
0.0
 10
-11.93187101904603
 20
2.989616466604408
 30
0.0
 10
-11.84364717303091
 20
3.038432671694692
 30
0.0
 10
-11.77004209026178
 20
3.068032893056389
 30
0.0
 10
-11.71556540523546
 20
3.087346865324408
 30
0.0
  0
SPLINE
  5
F0
330
1F
100
AcDbEntity
  8
Default
100
AcDbSpline
210
0.0
220
0.0
230
1.0
 70
     8
 71
     3
 72
    11
 73
     7
 74
     0
 42
0.0000000001
 43
0.0000000001
 40
-9.62873534496378
 40
-9.62873534496378
 40
-9.62873534496378
 40
-9.62873534496378
 40
-9.235760971098028
 40
-8.993257344707228
 40
-8.729254607404698
 40
0.0
 40
0.0
 40
0.0
 40
0.0
 10
-11.71556540523546
 20
3.087346865324408
 30
0.0
 10
-11.58988661813639
 20
3.132737362778273
 30
0.0
 10
-11.38308034450261
 20
3.177620608886414
 30
0.0
 10
-11.08778954878018
 20
3.232731597892199
 30
0.0
 10
-8.022689235877312
 20
3.520429176121879
 30
0.0
 10
-5.036998118275312
 20
3.789332298799763
 30
0.0
 10
-2.13965468369018
 20
4.057697784693569
 30
0.0
  0
ARC
  5
F1
330
1F
100
AcDbEntity
  8
Default
100
AcDbCircle
 10
3.866135974223456
 20
-60.78237684056489
 30
0.0
 40
65.11762279779389
100
AcDbArc
 50
94.26441233900313
 51
95.29190360224223
  0
SPLINE
  5
F2
330
1F
100
AcDbEntity
  8
Default
100
AcDbSpline
210
0.0
220
0.0
230
1.0
 70
    12
 71
     2
 72
     6
 73
     3
 74
     0
 42
0.0000000001
 43
0.0000000001
 40
0.0
 40
0.0
 40
0.0
 40
0.1645726248110703
 40
0.1645726248110703
 40
0.1645726248110703
 10
-0.975967409105224
 20
4.154968606111039
 30
0.0
 41
1.0
 10
-0.893930876010418
 20
4.148116645719011
 30
0.0
 41
0.999346492540072
 10
-0.8116136902486488
 20
4.147209423754928
 30
0.0
 41
1.0
  0
POLYLINE
  5
F3
330
1F
100
AcDbEntity
  8
Default
100
AcDb2dPolyline
 66
     1
 10
0.0
 20
0.0
 30
0.0
  0
VERTEX
  5
F4
330
F3
100
AcDbEntity
  8
Default
100
AcDbVertex
100
AcDb2dVertex
 10
-0.8116136902486488
 20
4.147209423754928
 30
0.0
  0
VERTEX
  5
F5
330
F3
100
AcDbEntity
  8
Default
100
AcDbVertex
100
AcDb2dVertex
 10
-0.4595528730361971
 20
4.147209423754928
 30
0.0
  0
SEQEND
  5
F6
330
F3
100
AcDbEntity
  8
Default
  0
SPLINE
  5
F7
330
1F
100
AcDbEntity
  8
Make2D visible lines - Tangent
100
AcDbSpline
210
0.0
220
0.0
230
1.0
 70
    12
 71
     3
 72
    12
 73
     8
 74
     0
 42
0.0000000001
 43
0.0000000001
 40
-0.7166866764941487
 40
-0.7166866764941487
 40
-0.7166866764941487
 40
-0.7166866764941487
 40
0.0
 40
0.0
 40
0.0
 40
5.426935465500462
 40
6.005717626902
 40
6.005717626902
 40
6.005717626902
 40
6.005717626902
 10
-0.6170939324199887
 20
4.144275746056073
 30
0.0
 41
1.0
 10
-0.8549403253933607
 20
4.121609837324083
 30
0.0
 41
0.9997624307684584
 10
-1.092096912421841
 20
4.092602884742096
 30
0.0
 41
0.9997624307684584
 10
-1.328394670181023
 20
4.057275561788416
 30
0.0
 41
1.0
 10
-3.117482356701391
 20
3.789800833743934
 30
0.0
 41
1.0
 10
-4.962818904875473
 20
3.51835316869112
 30
0.0
 41
1.0
 10
-6.858249519855342
 20
3.232953152428765
 30
0.0
 41
1.0
 10
-7.190070262656594
 20
3.097166056710528
 30
0.0
 41
1.0
  0
SPLINE
  5
F8
330
1F
100
AcDbEntity
  8
Make2D visible lines - Tangent
100
AcDbSpline
210
0.0
220
0.0
230
1.0
 70
     8
 71
     3
 72
    11
 73
     7
 74
     0
 42
0.0000000001
 43
0.0000000001
 40
0.0
 40
0.0
 40
0.0
 40
0.0
 40
0.066894803380304
 40
0.1150772171461536
 40
0.2142351287725906
 40
0.3577299678759472
 40
0.3577299678759472
 40
0.3577299678759472
 40
0.3577299678759472
 10
-7.190070262656594
 20
3.097166056710528
 30
0.0
 10
-7.208121581512791
 20
3.085283282473688
 30
0.0
 10
-7.24451976032389
 20
3.067447034369017
 30
0.0
 10
-7.287917173120947
 20
3.010049314205599
 30
0.0
 10
-7.308915743437923
 20
2.912711916718788
 30
0.0
 10
-7.331854348652731
 20
2.837086405743809
 30
0.0
 10
-7.338967423585012
 20
2.788958449657228
 30
0.0
  0
SPLINE
  5
F9
330
1F
100
AcDbEntity
  8
Make2D visible lines
100
AcDbSpline
210
0.0
220
0.0
230
1.0
 70
    12
 71
     2
 72
     6
 73
     3
 74
     0
 42
0.0000000001
 43
0.0000000001
 40
0.0
 40
0.0
 40
0.0
 40
0.715017489309887
 40
0.715017489309887
 40
0.715017489309887
 10
-8.126722355013005
 20
2.79730837210623
 30
0.0
 41
1.0
 10
-8.104889429230154
 20
3.154150786496702
 30
0.0
 41
0.9999959930683374
 10
-8.08507719706722
 20
3.511111093551959
 30
0.0
 41
1.0
  0
SPLINE
  5
FA
330
1F
100
AcDbEntity
  8
Make2D visible lines - Tangent
100
AcDbSpline
210
0.0
220
0.0
230
1.0
 70
     8
 71
     3
 72
    10
 73
     6
 74
     0
 42
0.0000000001
 43
0.0000000001
 40
0.0
 40
0.0
 40
0.0
 40
0.0
 40
0.9325163551893328
 40
1.201969207291272
 40
1.321746330228334
 40
1.321746330228334
 40
1.321746330228334
 40
1.321746330228334
 10
-0.4922361881355855
 20
4.312547573972912
 30
0.0
 10
-0.4781444779559614
 20
4.623074921349136
 30
0.0
 10
-0.4518634598309603
 20
5.022888491869843
 30
0.0
 10
-0.4248667814347975
 20
5.462639508991959
 30
0.0
 10
-0.4137931651459663
 20
5.591924565014583
 30
0.0
 10
-0.40734788353494
 20
5.631381523326024
 30
0.0
  0
SPLINE
  5
FB
330
1F
100
AcDbEntity
  8
Make2D visible lines - Tangent
100
AcDbSpline
210
0.0
220
0.0
230
1.0
 70
     8
 71
     3
 72
    14
 73
    10
 74
     0
 42
0.0000000001
 43
0.0000000001
 40
0.0
 40
0.0
 40
0.0
 40
0.0
 40
1.0
 40
2.0
 40
3.0
 40
4.0
 40
5.0
 40
6.0
 40
7.0
 40
7.0
 40
7.0
 40
7.0
 10
-0.40734788353494
 20
5.631381523326024
 30
0.0
 10
-0.3987132793635011
 20
5.700251292020925
 30
0.0
 10
-0.366388363362373
 20
5.834900712213313
 30
0.0
 10
-0.2811332489969679
 20
6.027827083836947
 30
0.0
 10
-0.1106055230578875
 20
6.161541295642544
 30
0.0
 10
0.110605503527551
 20
6.16154130441812
 30
0.0
 10
0.2811332478089688
 20
6.027827090257112
 30
0.0
 10
0.3663883611175909
 20
5.83490071215478
 30
0.0
 10
0.3987132743976017
 20
5.700251319852618
 30
0.0
 10
0.4073478837483213
 20
5.631381523390508
 30
0.0
  0
SPLINE
  5
FC
330
1F
100
AcDbEntity
  8
Make2D visible lines - Tangent
100
AcDbSpline
210
0.0
220
0.0
230
1.0
 70
     8
 71
     3
 72
    10
 73
     6
 74
     0
 42
0.0000000001
 43
0.0000000001
 40
-1.320997012290119
 40
-1.320997012290119
 40
-1.320997012290119
 40
-1.320997012290119
 40
-1.207504293467593
 40
-0.9725110545717917
 40
0.0
 40
0.0
 40
0.0
 40
0.0
 10
0.4073478837483213
 20
5.631381523390508
 30
0.0
 10
0.4133345900279615
 20
5.593988089779013
 30
0.0
 10
0.423801054350939
 20
5.478277267718975
 30
0.0
 10
0.4508886585945078
 20
5.038783424917222
 30
0.0
 10
0.4774380453713576
 20
4.637135479399406
 30
0.0
 10
0.4922052179077561
 20
4.313294790905834
 30
0.0
  0
SPLINE
  5
FD
330
1F
100
AcDbEntity
  8
Make2D visible lines - Tangent
100
AcDbSpline
210
0.0
220
0.0
230
1.0
 70
     8
 71
     3
 72
    11
 73
     7
 74
     0
 42
0.0000000001
 43
0.0000000001
 40
-0.7386030843065078
 40
-0.7386030843065078
 40
-0.7386030843065078
 40
-0.7386030843065078
 40
-0.3141361316168274
 40
-0.1452787980732192
 40
-0.0706522820738642
 40
0.0
 40
0.0
 40
0.0
 40
0.0
 10
0.3694721734610606
 20
3.739901380785775
 30
0.0
 10
0.3623696674723007
 20
3.880125352297963
 30
0.0
 10
0.3168498802065578
 20
4.08131084374745
 30
0.0
 10
0.1672431529643266
 20
4.252393228620664
 30
0.0
 10
0.0716772847736351
 20
4.299262188269639
 30
0.0
 10
0.0236962094207662
 20
4.307091201466158
 30
0.0
 10
0.0000032653121318
 20
4.307063383217811
 30
0.0
  0
SPLINE
  5
FE
330
1F
100
AcDbEntity
  8
Make2D visible lines - Tangent
100
AcDbSpline
210
0.0
220
0.0
230
1.0
 70
     8
 71
     3
 72
    11
 73
     7
 74
     0
 42
0.0000000001
 43
0.0000000001
 40
0.0
 40
0.0
 40
0.0
 40
0.0
 40
0.0706588126847526
 40
0.1452853286841054
 40
0.3141426622277108
 40
0.7386081388400023
 40
0.7386081388400023
 40
0.7386081388400023
 40
0.7386081388400023
 10
0.0000032653121318
 20
4.307063383217811
 30
0.0
 10
-0.0236918657242597
 20
4.307091899015024
 30
0.0
 10
-0.0716753146773375
 20
4.299263167152766
 30
0.0
 10
-0.1672431439844395
 20
4.252393224364116
 30
0.0
 10
-0.3168495639057287
 20
4.081311231398825
 30
0.0
 10
-0.3623694260001908
 20
3.880126339338435
 30
0.0
 10
-0.3694721094709443
 20
3.739902855478209
 30
0.0
  0
SPLINE
  5
FF
330
1F
100
AcDbEntity
  8
Make2D visible lines
100
AcDbSpline
210
0.0
220
0.0
230
1.0
 70
    12
 71
     2
 72
     8
 73
     5
 74
     0
 42
0.0000000001
 43
0.0000000001
 40
0.0
 40
0.0
 40
0.0
 40
0.0281928929716271
 40
0.0281928929716271
 40
0.0563857859432542
 40
0.0563857859432542
 40
0.0563857859432542
 10
12.87419962211639
 20
2.760000000033125
 30
0.0
 41
1.0
 10
12.8891051433937
 20
2.760054542525548
 30
0.0
 41
0.9205244397931974
 10
12.89942123268554
 20
2.770813531379281
 30
0.0
 41
1.0
 10
12.90973732197737
 20
2.781572520233012
 30
0.0
 41
0.9205244397931974
 10
12.90916560420659
 20
2.796467172905111
 30
0.0
 41
1.0
  0
SPLINE
  5
100
330
1F
100
AcDbEntity
  8
Make2D visible lines
100
AcDbSpline
210
0.0
220
0.0
230
1.0
 70
    12
 71
     2
 72
     8
 73
     5
 74
     0
 42
0.0000000001
 43
0.0000000001
 40
0.0
 40
0.0
 40
0.0
 40
0.0286061523138886
 40
0.0286061523138886
 40
0.0572123046277773
 40
0.0572123046277773
 40
0.0572123046277773
 10
8.09179832887641
 20
2.760000000000004
 30
0.0
 41
1.0
 10
8.106948194180319
 20
2.760056392118597
 30
0.0
 41
0.9182200393676768
 10
8.11730386400521
 20
2.771114497800655
 30
0.0
 41
1.0
 10
8.127659533830098
 20
2.782172603482712
 30
0.0
 41
0.9182200393676768
 10
8.12672295131464
 20
2.79729359591011
 30
0.0
 41
1.0
  0
SPLINE
  5
101
330
1F
100
AcDbEntity
  8
Make2D visible lines
100
AcDbSpline
210
0.0
220
0.0
230
1.0
 70
    12
 71
     2
 72
     6
 73
     3
 74
     0
 42
0.0000000001
 43
0.0000000001
 40
0.0
 40
0.0
 40
0.0
 40
0.0483212497416666
 40
0.0483212497416666
 40
0.0483212497416666
 10
7.339092164560495
 20
2.788441279212112
 30
0.0
 41
1.0
 10
7.344577707264786
 20
2.760100728064051
 30
0.0
 41
0.7724816427213782
 10
7.373444086878428
 20
2.760000000026418
 30
0.0
 41
1.0
  0
SPLINE
  5
102
330
1F
100
AcDbEntity
  8
Make2D visible lines
100
AcDbSpline
210
0.0
220
0.0
230
1.0
 70
    12
 71
     2
 72
     6
 73
     3
 74
     0
 42
0.0000000001
 43
0.0000000001
 40
0.0
 40
0.0
 40
0.0
 40
0.1227840813427634
 40
0.1227840813427634
 40
0.1227840813427634
 10
12.86228139573
 20
2.135695657233184
 30
0.0
 41
1.0
 10
12.89709826317841
 20
2.187022966392655
 30
0.0
 41
0.9848379823800321
 10
12.91228139119935
 20
2.247157644806793
 30
0.0
 41
1.0
  0
SPLINE
  5
103
330
1F
100
AcDbEntity
  8
Make2D visible lines
100
AcDbSpline
210
0.0
220
0.0
230
1.0
 70
    12
 71
     2
 72
     6
 73
     3
 74
     0
 42
0.0000000001
 43
0.0000000001
 40
0.0
 40
0.0
 40
0.0
 40
0.1228476419690088
 40
0.1228476419690088
 40
0.1228476419690088
 10
12.17428139573
 20
2.135695657233184
 30
0.0
 41
1.0
 10
12.13896557419717
 20
2.186799143881471
 30
0.0
 41
0.9832969456840381
 10
12.12428140026065
 20
2.247157644806792
 30
0.0
 41
1.0
  0
SPLINE
  5
104
330
1F
100
AcDbEntity
  8
Make2D visible lines
100
AcDbSpline
210
0.0
220
0.0
230
1.0
 70
     8
 71
     3
 72
    12
 73
     8
 74
     0
 42
0.0000000001
 43
0.0000000001
 40
0.0
 40
0.0
 40
0.0
 40
0.0
 40
0.1463411183411369
 40
0.2853842069860231
 40
0.4774826785392335
 40
0.6695434217140405
 40
0.9551044705190225
 40
0.9551044705190225
 40
0.9551044705190225
 40
0.9551044705190225
 10
12.17428139573
 20
2.135695657233184
 30
0.0
 10
12.19483924901879
 20
2.092235288994199
 30
0.0
 10
12.25007361418926
 20
2.011139443753334
 30
0.0
 10
12.3490209868069
 20
1.892867635552798
 30
0.0
 10
12.51940345317077
 20
1.800191929265525
 30
0.0
 10
12.73138178770486
 20
1.918743261260477
 30
0.0
 10
12.81556953510906
 20
2.051490853594749
 30
0.0
 10
12.86228139573
 20
2.135695657233184
 30
0.0
  0
SPLINE
  5
105
330
1F
100
AcDbEntity
  8
Make2D visible lines
100
AcDbSpline
210
0.0
220
0.0
230
1.0
 70
    24
 71
     2
 72
     6
 73
     3
 74
     0
 42
0.0000000001
 43
0.0000000001
 40
0.0
 40
0.0
 40
0.0
 40
0.0690000000000008
 40
0.0690000000000008
 40
0.0690000000000008
 10
12.98128139573
 20
1.595000000000001
 30
0.0
 10
12.94678139573
 20
1.595000000000001
 30
0.0
 10
12.91228139573
 20
1.595000000000001
 30
0.0
  0
SPLINE
  5
106
330
1F
100
AcDbEntity
  8
Make2D visible lines
100
AcDbSpline
210
0.0
220
0.0
230
1.0
 70
    24
 71
     2
 72
     6
 73
     3
 74
     0
 42
0.0000000001
 43
0.0000000001
 40
0.0
 40
0.0
 40
0.0
 40
0.9260000000000002
 40
0.9260000000000002
 40
0.9260000000000002
 10
12.05528139573
 20
0.9650000000000016
 30
0.0
 10
12.51828139573
 20
0.9650000000000016
 30
0.0
 10
12.98128139573
 20
0.9650000000000016
 30
0.0
  0
SPLINE
  5
107
330
1F
100
AcDbEntity
  8
Make2D visible lines
100
AcDbSpline
210
0.0
220
0.0
230
1.0
 70
    24
 71
     2
 72
     6
 73
     3
 74
     0
 42
0.0000000001
 43
0.0000000001
 40
0.0
 40
0.0
 40
0.0
 40
0.0689999999999991
 40
0.0689999999999991
 40
0.0689999999999991
 10
12.12428139573
 20
1.595000000000001
 30
0.0
 10
12.08978139573
 20
1.595000000000001
 30
0.0
 10
12.05528139573
 20
1.595000000000001
 30
0.0
  0
SPLINE
  5
108
330
1F
100
AcDbEntity
  8
Make2D visible lines
100
AcDbSpline
210
0.0
220
0.0
230
1.0
 70
    24
 71
     2
 72
     6
 73
     3
 74
     0
 42
0.0000000001
 43
0.0000000001
 40
-2.415105433753071
 40
-2.415105433753071
 40
-2.415105433753071
 40
0.0
 40
0.0
 40
0.0
 10
12.05528139573
 20
2.487552716876536
 30
0.0
 10
12.05528139573
 20
1.278776359858268
 30
0.0
 10
12.05528139573
 20
0.0700000028400005
 30
0.0
  0
SPLINE
  5
109
330
1F
100
AcDbEntity
  8
Make2D visible lines
100
AcDbSpline
210
0.0
220
0.0
230
1.0
 70
    12
 71
     2
 72
     6
 73
     3
 74
     0
 42
0.0000000001
 43
0.0000000001
 40
0.0
 40
0.0
 40
0.0
 40
0.1099557457156439
 40
0.1099557457156439
 40
0.1099557457156439
 10
12.05528139573
 20
0.0700000028400005
 30
0.0
 41
1.0
 10
12.05528139857
 20
0.0
 30
0.0
 41
0.7071067668423728
 10
11.98528139573
 20
-0.0000000000000001
 30
0.0
 41
1.0
  0
SPLINE
  5
10A
330
1F
100
AcDbEntity
  8
Make2D visible lines
100
AcDbSpline
210
0.0
220
0.0
230
1.0
 70
    24
 71
     2
 72
     6
 73
     3
 74
     0
 42
0.0000000001
 43
0.0000000001
 40
0.0
 40
0.0
 40
0.0
 40
0.3520000000000003
 40
0.3520000000000003
 40
0.3520000000000003
 10
11.98528139573
 20
-0.0000000000000001
 30
0.0
 10
11.80928139573
 20
0.0
 30
0.0
 10
11.63328139573
 20
0.0
 30
0.0
  0
SPLINE
  5
10B
330
1F
100
AcDbEntity
  8
Make2D visible lines
100
AcDbSpline
210
0.0
220
0.0
230
1.0
 70
    12
 71
     2
 72
     6
 73
     3
 74
     0
 42
0.0000000001
 43
0.0000000001
 40
0.0
 40
0.0
 40
0.0
 40
0.2356194519512337
 40
0.2356194519512337
 40
0.2356194519512337
 10
11.63328139573
 20
0.0
 30
0.0
 41
1.0
 10
11.483281392798
 20
0.000000000000002
 30
0.0
 41
0.7071067742757676
 10
11.48328139573
 20
0.1500000029319999
 30
0.0
 41
1.0
  0
SPLINE
  5
10C
330
1F
100
AcDbEntity
  8
Make2D visible lines
100
AcDbSpline
210
0.0
220
0.0
230
1.0
 70
    24
 71
     2
 72
     6
 73
     3
 74
     0
 42
0.0000000001
 43
0.0000000001
 40
0.0
 40
0.0
 40
0.0
 40
2.255429040880414
 40
2.255429040880414
 40
2.255429040880414
 10
11.48328139573
 20
0.1500000029319999
 30
0.0
 10
11.48328139573
 20
1.278857261686103
 30
0.0
 10
11.48328139573
 20
2.407714520440207
 30
0.0
  0
SPLINE
  5
10D
330
1F
100
AcDbEntity
  8
Make2D visible lines
100
AcDbSpline
210
0.0
220
0.0
230
1.0
 70
    12
 71
     2
 72
     6
 73
     3
 74
     0
 42
0.0000000001
 43
0.0000000001
 40
0.0
 40
0.0
 40
0.0
 40
0.2356194519512344
 40
0.2356194519512344
 40
0.2356194519512344
 10
11.48328139573
 20
2.407714520440207
 30
0.0
 41
1.0
 10
11.483281392798
 20
2.56
 30
0.0
 41
0.7071067742757604
 10
11.63328139573
 20
2.56
 30
0.0
 41
1.0
  0
SPLINE
  5
10E
330
1F
100
AcDbEntity
  8
Make2D visible lines
100
AcDbSpline
210
0.0
220
0.0
230
1.0
 70
    24
 71
     2
 72
     6
 73
     3
 74
     0
 42
0.0000000001
 43
0.0000000001
 40
0.0
 40
0.0
 40
0.0
 40
0.3520000000000003
 40
0.3520000000000003
 40
0.3520000000000003
 10
11.63328139573
 20
2.56
 30
0.0
 10
11.80928139573
 20
2.56
 30
0.0
 10
11.98528139573
 20
2.56
 30
0.0
  0
SPLINE
  5
10F
330
1F
100
AcDbEntity
  8
Make2D visible lines
100
AcDbSpline
210
0.0
220
0.0
230
1.0
 70
    12
 71
     2
 72
     6
 73
     3
 74
     0
 42
0.0000000001
 43
0.0000000001
 40
0.0
 40
0.0
 40
0.0
 40
0.1099557457156434
 40
0.1099557457156434
 40
0.1099557457156434
 10
11.98528139573
 20
2.56
 30
0.0
 41
1.0
 10
12.05528139857
 20
2.56
 30
0.0
 41
0.7071067668423767
 10
12.05528139573
 20
2.487552716876536
 30
0.0
 41
1.0
  0
SPLINE
  5
110
330
1F
100
AcDbEntity
  8
Make2D visible lines
100
AcDbSpline
210
0.0
220
0.0
230
1.0
 70
    24
 71
     2
 72
     6
 73
     3
 74
     0
 42
0.0000000001
 43
0.0000000001
 40
-2.415105423527796
 40
-2.415105423527796
 40
-2.415105423527796
 40
0.0
 40
0.0
 40
0.0
 10
12.98128139573
 20
2.487552711763898
 30
0.0
 10
12.98128139573
 20
1.278776359863449
 30
0.0
 10
12.98128139573
 20
0.0700000079629994
 30
0.0
  0
SPLINE
  5
111
330
1F
100
AcDbEntity
  8
Make2D visible lines
100
AcDbSpline
210
0.0
220
0.0
230
1.0
 70
    12
 71
     2
 72
     8
 73
     5
 74
     0
 42
0.0000000001
 43
0.0000000001
 40
-0.1099557508386429
 40
-0.1099557508386429
 40
-0.1099557508386429
 40
-0.0549778754193212
 40
-0.0549778754193212
 40
0.0
 40
0.0
 40
0.0
 10
12.98128139573
 20
0.0700000079629994
 30
0.0
 41
1.0
 10
12.98128139243162
 20
0.0410050562645741
 30
0.0
 41
0.9238795216280429
 10
13.0017839182316
 20
0.0205025281322868
 30
0.0
 41
1.0
 10
13.02228644403157
 20
0.0
 30
0.0
 41
0.923879521628049
 10
13.05128139573
 20
0.0
 30
0.0
 41
1.0
  0
SPLINE
  5
112
330
1F
100
AcDbEntity
  8
Make2D visible lines
100
AcDbSpline
210
0.0
220
0.0
230
1.0
 70
    24
 71
     2
 72
     6
 73
     3
 74
     0
 42
0.0000000001
 43
0.0000000001
 40
0.0
 40
0.0
 40
0.0
 40
0.3520000000000003
 40
0.3520000000000003
 40
0.3520000000000003
 10
13.05128139573
 20
0.0
 30
0.0
 10
13.22728139573
 20
0.0
 30
0.0
 10
13.40328139573
 20
0.0
 30
0.0
  0
SPLINE
  5
113
330
1F
100
AcDbEntity
  8
Make2D visible lines
100
AcDbSpline
210
0.0
220
0.0
230
1.0
 70
    12
 71
     2
 72
     6
 73
     3
 74
     0
 42
0.0000000001
 43
0.0000000001
 40
0.0
 40
0.0
 40
0.0
 40
0.2356194483882336
 40
0.2356194483882336
 40
0.2356194483882336
 10
13.40328139573
 20
0.0
 30
0.0
 41
1.0
 10
13.553281395099
 20
0.0
 30
0.0
 41
0.7071067826738353
 10
13.55328139573
 20
0.1499999993689993
 30
0.0
 41
1.0
  0
SPLINE
  5
114
330
1F
100
AcDbEntity
  8
Make2D visible lines
100
AcDbSpline
210
0.0
220
0.0
230
1.0
 70
    24
 71
     2
 72
     6
 73
     3
 74
     0
 42
0.0000000001
 43
0.0000000001
 40
-2.260000001262
 40
-2.260000001262
 40
-2.260000001262
 40
0.0
 40
0.0
 40
0.0
 10
13.55328139573
 20
0.1499999993689993
 30
0.0
 10
13.55328139573
 20
1.279999999999999
 30
0.0
 10
13.55328139573
 20
2.410000000630999
 30
0.0
  0
SPLINE
  5
115
330
1F
100
AcDbEntity
  8
Make2D visible lines
100
AcDbSpline
210
0.0
220
0.0
230
1.0
 70
    12
 71
     2
 72
     6
 73
     3
 74
     0
 42
0.0000000001
 43
0.0000000001
 40
0.0
 40
0.0
 40
0.0
 40
0.2356194483882358
 40
0.2356194483882358
 40
0.2356194483882358
 10
13.55328139573
 20
2.410000000630999
 30
0.0
 41
1.0
 10
13.553281395099
 20
2.560000000000001
 30
0.0
 41
0.7071067826738272
 10
13.40328139573
 20
2.56
 30
0.0
 41
1.0
  0
SPLINE
  5
116
330
1F
100
AcDbEntity
  8
Make2D visible lines
100
AcDbSpline
210
0.0
220
0.0
230
1.0
 70
    24
 71
     2
 72
     6
 73
     3
 74
     0
 42
0.0000000001
 43
0.0000000001
 40
0.0
 40
0.0
 40
0.0
 40
0.3520000000000003
 40
0.3520000000000003
 40
0.3520000000000003
 10
13.40328139573
 20
2.56
 30
0.0
 10
13.22728139573
 20
2.56
 30
0.0
 10
13.05128139573
 20
2.56
 30
0.0
  0
SPLINE
  5
117
330
1F
100
AcDbEntity
  8
Make2D visible lines
100
AcDbSpline
210
0.0
220
0.0
230
1.0
 70
    12
 71
     2
 72
     8
 73
     5
 74
     0
 42
0.0000000001
 43
0.0000000001
 40
-0.1099557508386414
 40
-0.1099557508386414
 40
-0.1099557508386414
 40
-0.0549778754193184
 40
-0.0549778754193184
 40
0.0
 40
0.0
 40
0.0
 10
13.05128139573
 20
2.56
 30
0.0
 41
1.0
 10
13.02228644403157
 20
2.56
 30
0.0
 41
0.9238795216280236
 10
13.0017839182316
 20
2.53949747186771
 30
0.0
 41
1.0
 10
12.98128139243162
 20
2.518994943735425
 30
0.0
 41
0.9238795216280324
 10
12.98128139573
 20
2.487552711763898
 30
0.0
 41
1.0
  0
SPLINE
  5
118
330
1F
100
AcDbEntity
  8
Default
100
AcDbSpline
210
0.0
220
0.0
230
1.0
 70
    12
 71
     2
 72
     6
 73
     3
 74
     0
 42
0.0000000001
 43
0.0000000001
 40
-0.0205148466803361
 40
-0.0205148466803361
 40
-0.0205148466803361
 40
0.0
 40
0.0
 40
0.0
 10
12.12739467758714
 20
1.321916756511124
 30
0.0
 41
1.0
 10
12.12465045721535
 20
1.331850316586209
 30
0.0
 41
0.9929165310438545
 10
12.12432822671823
 20
1.342150924790038
 30
0.0
 41
0.9999992470307488
  0
SPLINE
  5
119
330
1F
100
AcDbEntity
  8
Default
100
AcDbSpline
210
0.0
220
0.0
230
1.0
 70
    12
 71
     2
 72
     6
 73
     3
 74
     0
 42
0.0000000001
 43
0.0000000001
 40
-0.1306670865212424
 40
-0.1306670865212424
 40
-0.1306670865212424
 40
0.0
 40
0.0
 40
0.0
 10
12.12432822671823
 20
1.342150924790038
 30
0.0
 41
1.0
 10
12.12708470200503
 20
1.259999371951817
 30
0.0
 41
0.7188571908882943
 10
12.20928139703665
 20
1.260000489392885
 30
0.0
 41
1.0
  0
SPLINE
  5
11A
330
1F
100
AcDbEntity
  8
Default
100
AcDbSpline
210
0.0
220
0.0
230
1.0
 70
    24
 71
     2
 72
     6
 73
     3
 74
     0
 42
0.0000000001
 43
0.0000000001
 40
-0.6179999986728006
 40
-0.6179999986728006
 40
-0.6179999986728006
 40
0.0
 40
0.0
 40
0.0
 10
12.20928139703665
 20
1.260000489392885
 30
0.0
 10
12.51828139637305
 20
1.260000489380662
 30
0.0
 10
12.82728139570945
 20
1.260000489368439
 30
0.0
  0
SPLINE
  5
11B
330
1F
100
AcDbEntity
  8
Default
100
AcDbSpline
210
0.0
220
0.0
230
1.0
 70
    12
 71
     2
 72
     6
 73
     3
 74
     0
 42
0.0000000001
 43
0.0000000001
 40
-0.1306642149348706
 40
-0.1306642149348706
 40
-0.1306642149348706
 40
0.0
 40
0.0
 40
0.0
 10
12.82728139570945
 20
1.260000489368439
 30
0.0
 41
1.0
 10
12.90947530938752
 20
1.259999377635789
 30
0.0
 41
0.7188689686272367
 10
12.91225732744545
 20
1.343573495961616
 30
0.0
 41
1.0
  0
LINE
  5
11C
330
1F
100
AcDbEntity
  8
Default
100
AcDbLine
 10
12.91225732744545
 20
1.343573495961616
 30
0.0
 11
12.91228150966132
 21
2.719999999999945
 31
0.0
  0
SPLINE
  5
11D
330
1F
100
AcDbEntity
  8
Default
100
AcDbSpline
210
0.0
220
0.0
230
1.0
 70
    12
 71
     2
 72
     8
 73
     5
 74
     0
 42
0.0000000001
 43
0.0000000001
 40
-0.0628318931243996
 40
-0.0628318931243996
 40
-0.0628318931243996
 40
-0.0314159465621985
 40
-0.0314159465621985
 40
0.0
 40
0.0
 40
0.0
 10
12.91228150966132
 20
2.719999999999945
 30
0.0
 41
1.0
 10
12.91228139573
 20
2.736568554226062
 30
0.0
 41
0.923879436714611
 10
12.90056565281673
 20
2.748284285408195
 30
0.0
 41
1.0
 10
12.88884990990345
 20
2.760000016590326
 30
0.0
 41
0.9238794367145934
 10
12.8722813556774
 20
2.759999999999986
 30
0.0
 41
1.0
  0
POLYLINE
  5
11E
330
1F
100
AcDbEntity
  8
Default
100
AcDb2dPolyline
 66
     1
 10
0.0
 20
0.0
 30
0.0
  0
VERTEX
  5
11F
330
11E
100
AcDbEntity
  8
Default
100
AcDbVertex
100
AcDb2dVertex
 10
12.8722813556774
 20
2.759999999999986
 30
0.0
  0
VERTEX
  5
120
330
11E
100
AcDbEntity
  8
Default
100
AcDbVertex
100
AcDb2dVertex
 10
12.1642814370687
 20
2.759999999999986
 30
0.0
  0
SEQEND
  5
121
330
11E
100
AcDbEntity
  8
Default
  0
SPLINE
  5
122
330
1F
100
AcDbEntity
  8
Default
100
AcDbSpline
210
0.0
220
0.0
230
1.0
 70
    12
 71
     2
 72
     8
 73
     5
 74
     0
 42
0.0000000001
 43
0.0000000001
 40
0.0
 40
0.0
 40
0.0
 40
0.0314159465621985
 40
0.0314159465621985
 40
0.0628318931243996
 40
0.0628318931243996
 40
0.0628318931243996
 10
12.1642814370687
 20
2.759999999999986
 30
0.0
 41
1.0
 10
12.14771288284265
 20
2.760000016590326
 30
0.0
 41
0.9238794367145934
 10
12.13599713992938
 20
2.748284285408195
 30
0.0
 41
1.0
 10
12.1242813970161
 20
2.736568554226062
 30
0.0
 41
0.923879436714611
 10
12.12428128308478
 20
2.719999999999945
 30
0.0
 41
1.0
  0
LINE
  5
123
330
1F
100
AcDbEntity
  8
Default
100
AcDbLine
 10
12.12428128308478
 20
2.719999999999945
 30
0.0
 11
12.12430546530065
 21
1.343573495961616
 31
0.0
  0
SPLINE
  5
124
330
1F
100
AcDbEntity
  8
Make2D visible lines
100
AcDbSpline
210
0.0
220
0.0
230
1.0
 70
    12
 71
     2
 72
     6
 73
     3
 74
     0
 42
0.0000000001
 43
0.0000000001
 40
0.0
 40
0.0
 40
0.0
 40
0.1227840813427634
 40
0.1227840813427634
 40
0.1227840813427634
 10
8.080723383299995
 20
2.135695657233184
 30
0.0
 41
1.0
 10
8.115540250748406
 20
2.187022966392655
 30
0.0
 41
0.9848379823800321
 10
8.130723378769352
 20
2.247157644806793
 30
0.0
 41
1.0
  0
SPLINE
  5
125
330
1F
100
AcDbEntity
  8
Make2D visible lines
100
AcDbSpline
210
0.0
220
0.0
230
1.0
 70
    12
 71
     2
 72
     6
 73
     3
 74
     0
 42
0.0000000001
 43
0.0000000001
 40
0.0
 40
0.0
 40
0.0
 40
0.1228476419690088
 40
0.1228476419690088
 40
0.1228476419690088
 10
7.3927233833
 20
2.135695657233184
 30
0.0
 41
1.0
 10
7.35740756176717
 20
2.186799143881471
 30
0.0
 41
0.9832969456840381
 10
7.342723387830643
 20
2.247157644806792
 30
0.0
 41
1.0
  0
SPLINE
  5
126
330
1F
100
AcDbEntity
  8
Make2D visible lines
100
AcDbSpline
210
0.0
220
0.0
230
1.0
 70
     8
 71
     3
 72
    12
 73
     8
 74
     0
 42
0.0000000001
 43
0.0000000001
 40
0.0
 40
0.0
 40
0.0
 40
0.0
 40
0.1463411183411369
 40
0.2853842069860231
 40
0.4774826785392335
 40
0.6695434217140405
 40
0.9551044705190225
 40
0.9551044705190225
 40
0.9551044705190225
 40
0.9551044705190225
 10
7.3927233833
 20
2.135695657233184
 30
0.0
 10
7.413281236588784
 20
2.092235288994199
 30
0.0
 10
7.468515601759259
 20
2.011139443753334
 30
0.0
 10
7.567462974376896
 20
1.892867635552798
 30
0.0
 10
7.737845440740765
 20
1.800191929265525
 30
0.0
 10
7.949823775274854
 20
1.918743261260477
 30
0.0
 10
8.034011522679057
 20
2.051490853594749
 30
0.0
 10
8.080723383299995
 20
2.135695657233184
 30
0.0
  0
SPLINE
  5
127
330
1F
100
AcDbEntity
  8
Make2D visible lines
100
AcDbSpline
210
0.0
220
0.0
230
1.0
 70
    24
 71
     2
 72
     6
 73
     3
 74
     0
 42
0.0000000001
 43
0.0000000001
 40
0.0
 40
0.0
 40
0.0
 40
0.0690000000000008
 40
0.0690000000000008
 40
0.0690000000000008
 10
8.199723383299999
 20
1.595000000000001
 30
0.0
 10
8.165223383299997
 20
1.595000000000001
 30
0.0
 10
8.130723383299996
 20
1.595000000000001
 30
0.0
  0
SPLINE
  5
128
330
1F
100
AcDbEntity
  8
Make2D visible lines
100
AcDbSpline
210
0.0
220
0.0
230
1.0
 70
    24
 71
     2
 72
     6
 73
     3
 74
     0
 42
0.0000000001
 43
0.0000000001
 40
0.0
 40
0.0
 40
0.0
 40
0.9260000000000002
 40
0.9260000000000002
 40
0.9260000000000002
 10
7.273723383299997
 20
0.9650000000000016
 30
0.0
 10
7.736723383299998
 20
0.9650000000000016
 30
0.0
 10
8.199723383299999
 20
0.9650000000000016
 30
0.0
  0
SPLINE
  5
129
330
1F
100
AcDbEntity
  8
Make2D visible lines
100
AcDbSpline
210
0.0
220
0.0
230
1.0
 70
    24
 71
     2
 72
     6
 73
     3
 74
     0
 42
0.0000000001
 43
0.0000000001
 40
0.0
 40
0.0
 40
0.0
 40
0.0689999999999991
 40
0.0689999999999991
 40
0.0689999999999991
 10
7.342723383299996
 20
1.595000000000001
 30
0.0
 10
7.308223383299996
 20
1.595000000000001
 30
0.0
 10
7.273723383299997
 20
1.595000000000001
 30
0.0
  0
SPLINE
  5
12A
330
1F
100
AcDbEntity
  8
Make2D visible lines
100
AcDbSpline
210
0.0
220
0.0
230
1.0
 70
    24
 71
     2
 72
     6
 73
     3
 74
     0
 42
0.0000000001
 43
0.0000000001
 40
-2.415105433753071
 40
-2.415105433753071
 40
-2.415105433753071
 40
0.0
 40
0.0
 40
0.0
 10
7.273723383299997
 20
2.487552716876536
 30
0.0
 10
7.273723383299997
 20
1.278776359858268
 30
0.0
 10
7.273723383299997
 20
0.0700000028400005
 30
0.0
  0
SPLINE
  5
12B
330
1F
100
AcDbEntity
  8
Make2D visible lines
100
AcDbSpline
210
0.0
220
0.0
230
1.0
 70
    12
 71
     2
 72
     6
 73
     3
 74
     0
 42
0.0000000001
 43
0.0000000001
 40
0.0
 40
0.0
 40
0.0
 40
0.1099557457156439
 40
0.1099557457156439
 40
0.1099557457156439
 10
7.273723383299997
 20
0.0700000028400005
 30
0.0
 41
1.0
 10
7.273723386139999
 20
0.0
 30
0.0
 41
0.7071067668423728
 10
7.203723383299996
 20
-0.0000000000000001
 30
0.0
 41
1.0
  0
SPLINE
  5
12C
330
1F
100
AcDbEntity
  8
Make2D visible lines
100
AcDbSpline
210
0.0
220
0.0
230
1.0
 70
    24
 71
     2
 72
     6
 73
     3
 74
     0
 42
0.0000000001
 43
0.0000000001
 40
0.0
 40
0.0
 40
0.0
 40
0.3520000000000003
 40
0.3520000000000003
 40
0.3520000000000003
 10
7.203723383299996
 20
-0.0000000000000001
 30
0.0
 10
7.027723383299996
 20
0.0
 30
0.0
 10
6.851723383299996
 20
0.0
 30
0.0
  0
SPLINE
  5
12D
330
1F
100
AcDbEntity
  8
Make2D visible lines
100
AcDbSpline
210
0.0
220
0.0
230
1.0
 70
    12
 71
     2
 72
     6
 73
     3
 74
     0
 42
0.0000000001
 43
0.0000000001
 40
0.0
 40
0.0
 40
0.0
 40
0.2356194519512337
 40
0.2356194519512337
 40
0.2356194519512337
 10
6.851723383299996
 20
0.0
 30
0.0
 41
1.0
 10
6.701723380367998
 20
0.000000000000002
 30
0.0
 41
0.7071067742757676
 10
6.701723383299997
 20
0.1500000029319999
 30
0.0
 41
1.0
  0
SPLINE
  5
12E
330
1F
100
AcDbEntity
  8
Make2D visible lines
100
AcDbSpline
210
0.0
220
0.0
230
1.0
 70
    24
 71
     2
 72
     6
 73
     3
 74
     0
 42
0.0000000001
 43
0.0000000001
 40
0.0
 40
0.0
 40
0.0
 40
2.255429040880414
 40
2.255429040880414
 40
2.255429040880414
 10
6.701723383299997
 20
0.1500000029319999
 30
0.0
 10
6.701723383299997
 20
1.278857261686103
 30
0.0
 10
6.701723383299997
 20
2.407714520440207
 30
0.0
  0
SPLINE
  5
12F
330
1F
100
AcDbEntity
  8
Make2D visible lines
100
AcDbSpline
210
0.0
220
0.0
230
1.0
 70
    12
 71
     2
 72
     6
 73
     3
 74
     0
 42
0.0000000001
 43
0.0000000001
 40
0.0
 40
0.0
 40
0.0
 40
0.2356194519512344
 40
0.2356194519512344
 40
0.2356194519512344
 10
6.701723383299997
 20
2.407714520440207
 30
0.0
 41
1.0
 10
6.701723380367997
 20
2.56
 30
0.0
 41
0.7071067742757604
 10
6.851723383299996
 20
2.56
 30
0.0
 41
1.0
  0
SPLINE
  5
130
330
1F
100
AcDbEntity
  8
Make2D visible lines
100
AcDbSpline
210
0.0
220
0.0
230
1.0
 70
    24
 71
     2
 72
     6
 73
     3
 74
     0
 42
0.0000000001
 43
0.0000000001
 40
0.0
 40
0.0
 40
0.0
 40
0.3520000000000003
 40
0.3520000000000003
 40
0.3520000000000003
 10
6.851723383299996
 20
2.56
 30
0.0
 10
7.027723383299996
 20
2.56
 30
0.0
 10
7.203723383299996
 20
2.56
 30
0.0
  0
SPLINE
  5
131
330
1F
100
AcDbEntity
  8
Make2D visible lines
100
AcDbSpline
210
0.0
220
0.0
230
1.0
 70
    12
 71
     2
 72
     6
 73
     3
 74
     0
 42
0.0000000001
 43
0.0000000001
 40
0.0
 40
0.0
 40
0.0
 40
0.1099557457156434
 40
0.1099557457156434
 40
0.1099557457156434
 10
7.203723383299996
 20
2.56
 30
0.0
 41
1.0
 10
7.273723386139998
 20
2.56
 30
0.0
 41
0.7071067668423767
 10
7.273723383299997
 20
2.487552716876536
 30
0.0
 41
1.0
  0
SPLINE
  5
132
330
1F
100
AcDbEntity
  8
Make2D visible lines
100
AcDbSpline
210
0.0
220
0.0
230
1.0
 70
    24
 71
     2
 72
     6
 73
     3
 74
     0
 42
0.0000000001
 43
0.0000000001
 40
-2.415105423527796
 40
-2.415105423527796
 40
-2.415105423527796
 40
0.0
 40
0.0
 40
0.0
 10
8.199723383299999
 20
2.487552711763898
 30
0.0
 10
8.199723383299999
 20
1.278776359863449
 30
0.0
 10
8.199723383299999
 20
0.0700000079629994
 30
0.0
  0
SPLINE
  5
133
330
1F
100
AcDbEntity
  8
Make2D visible lines
100
AcDbSpline
210
0.0
220
0.0
230
1.0
 70
    12
 71
     2
 72
     8
 73
     5
 74
     0
 42
0.0000000001
 43
0.0000000001
 40
-0.1099557508386429
 40
-0.1099557508386429
 40
-0.1099557508386429
 40
-0.0549778754193212
 40
-0.0549778754193212
 40
0.0
 40
0.0
 40
0.0
 10
8.199723383299999
 20
0.0700000079629994
 30
0.0
 41
1.0
 10
8.199723380001615
 20
0.0410050562645741
 30
0.0
 41
0.9238795216280429
 10
8.220225905801593
 20
0.0205025281322868
 30
0.0
 41
1.0
 10
8.240728431601573
 20
0.0
 30
0.0
 41
0.923879521628049
 10
8.269723383299997
 20
0.0
 30
0.0
 41
1.0
  0
SPLINE
  5
134
330
1F
100
AcDbEntity
  8
Make2D visible lines
100
AcDbSpline
210
0.0
220
0.0
230
1.0
 70
    24
 71
     2
 72
     6
 73
     3
 74
     0
 42
0.0000000001
 43
0.0000000001
 40
0.0
 40
0.0
 40
0.0
 40
0.3520000000000003
 40
0.3520000000000003
 40
0.3520000000000003
 10
8.269723383299997
 20
0.0
 30
0.0
 10
8.445723383299995
 20
0.0
 30
0.0
 10
8.621723383299996
 20
0.0
 30
0.0
  0
SPLINE
  5
135
330
1F
100
AcDbEntity
  8
Make2D visible lines
100
AcDbSpline
210
0.0
220
0.0
230
1.0
 70
    12
 71
     2
 72
     6
 73
     3
 74
     0
 42
0.0000000001
 43
0.0000000001
 40
0.0
 40
0.0
 40
0.0
 40
0.2356194483882336
 40
0.2356194483882336
 40
0.2356194483882336
 10
8.621723383299996
 20
0.0
 30
0.0
 41
1.0
 10
8.771723382668993
 20
0.0
 30
0.0
 41
0.7071067826738353
 10
8.771723383299998
 20
0.1499999993689993
 30
0.0
 41
1.0
  0
SPLINE
  5
136
330
1F
100
AcDbEntity
  8
Make2D visible lines
100
AcDbSpline
210
0.0
220
0.0
230
1.0
 70
    24
 71
     2
 72
     6
 73
     3
 74
     0
 42
0.0000000001
 43
0.0000000001
 40
-2.260000001262
 40
-2.260000001262
 40
-2.260000001262
 40
0.0
 40
0.0
 40
0.0
 10
8.771723383299998
 20
0.1499999993689993
 30
0.0
 10
8.771723383299998
 20
1.279999999999999
 30
0.0
 10
8.771723383299998
 20
2.410000000630999
 30
0.0
  0
SPLINE
  5
137
330
1F
100
AcDbEntity
  8
Make2D visible lines
100
AcDbSpline
210
0.0
220
0.0
230
1.0
 70
    12
 71
     2
 72
     6
 73
     3
 74
     0
 42
0.0000000001
 43
0.0000000001
 40
0.0
 40
0.0
 40
0.0
 40
0.2356194483882358
 40
0.2356194483882358
 40
0.2356194483882358
 10
8.771723383299998
 20
2.410000000630999
 30
0.0
 41
1.0
 10
8.771723382668998
 20
2.560000000000001
 30
0.0
 41
0.7071067826738272
 10
8.621723383299996
 20
2.56
 30
0.0
 41
1.0
  0
SPLINE
  5
138
330
1F
100
AcDbEntity
  8
Make2D visible lines
100
AcDbSpline
210
0.0
220
0.0
230
1.0
 70
    24
 71
     2
 72
     6
 73
     3
 74
     0
 42
0.0000000001
 43
0.0000000001
 40
0.0
 40
0.0
 40
0.0
 40
0.3520000000000003
 40
0.3520000000000003
 40
0.3520000000000003
 10
8.621723383299996
 20
2.56
 30
0.0
 10
8.445723383299995
 20
2.56
 30
0.0
 10
8.269723383299997
 20
2.56
 30
0.0
  0
SPLINE
  5
139
330
1F
100
AcDbEntity
  8
Make2D visible lines
100
AcDbSpline
210
0.0
220
0.0
230
1.0
 70
    12
 71
     2
 72
     8
 73
     5
 74
     0
 42
0.0000000001
 43
0.0000000001
 40
-0.1099557508386414
 40
-0.1099557508386414
 40
-0.1099557508386414
 40
-0.0549778754193184
 40
-0.0549778754193184
 40
0.0
 40
0.0
 40
0.0
 10
8.269723383299997
 20
2.56
 30
0.0
 41
1.0
 10
8.240728431601571
 20
2.56
 30
0.0
 41
0.9238795216280236
 10
8.220225905801595
 20
2.53949747186771
 30
0.0
 41
1.0
 10
8.199723380001616
 20
2.518994943735425
 30
0.0
 41
0.9238795216280324
 10
8.199723383299999
 20
2.487552711763898
 30
0.0
 41
1.0
  0
SPLINE
  5
13A
330
1F
100
AcDbEntity
  8
Default
100
AcDbSpline
210
0.0
220
0.0
230
1.0
 70
    12
 71
     2
 72
     6
 73
     3
 74
     0
 42
0.0000000001
 43
0.0000000001
 40
-0.0205148466803361
 40
-0.0205148466803361
 40
-0.0205148466803361
 40
0.0
 40
0.0
 40
0.0
 10
7.34583666515714
 20
1.321916756511124
 30
0.0
 41
1.0
 10
7.343092444785353
 20
1.331850316586209
 30
0.0
 41
0.9929165310438545
 10
7.342770214288228
 20
1.342150924790038
 30
0.0
 41
0.9999992470307488
  0
SPLINE
  5
13B
330
1F
100
AcDbEntity
  8
Default
100
AcDbSpline
210
0.0
220
0.0
230
1.0
 70
    12
 71
     2
 72
     6
 73
     3
 74
     0
 42
0.0000000001
 43
0.0000000001
 40
-0.1306670865212424
 40
-0.1306670865212424
 40
-0.1306670865212424
 40
0.0
 40
0.0
 40
0.0
 10
7.342770214288228
 20
1.342150924790038
 30
0.0
 41
1.0
 10
7.345526689575028
 20
1.259999371951817
 30
0.0
 41
0.7188571908882943
 10
7.427723384606649
 20
1.260000489392885
 30
0.0
 41
1.0
  0
SPLINE
  5
13C
330
1F
100
AcDbEntity
  8
Default
100
AcDbSpline
210
0.0
220
0.0
230
1.0
 70
    24
 71
     2
 72
     6
 73
     3
 74
     0
 42
0.0000000001
 43
0.0000000001
 40
-0.6179999986728006
 40
-0.6179999986728006
 40
-0.6179999986728006
 40
0.0
 40
0.0
 40
0.0
 10
7.427723384606649
 20
1.260000489392885
 30
0.0
 10
7.736723383943049
 20
1.260000489380662
 30
0.0
 10
8.04572338327945
 20
1.260000489368439
 30
0.0
  0
SPLINE
  5
13D
330
1F
100
AcDbEntity
  8
Default
100
AcDbSpline
210
0.0
220
0.0
230
1.0
 70
    12
 71
     2
 72
     6
 73
     3
 74
     0
 42
0.0000000001
 43
0.0000000001
 40
-0.1306642149348706
 40
-0.1306642149348706
 40
-0.1306642149348706
 40
0.0
 40
0.0
 40
0.0
 10
8.04572338327945
 20
1.260000489368439
 30
0.0
 41
1.0
 10
8.127917296957516
 20
1.259999377635789
 30
0.0
 41
0.7188689686272367
 10
8.130699315015447
 20
1.343573495961616
 30
0.0
 41
1.0
  0
LINE
  5
13E
330
1F
100
AcDbEntity
  8
Default
100
AcDbLine
 10
8.130699315015447
 20
1.343573495961616
 30
0.0
 11
8.130723497231317
 21
2.719999999999945
 31
0.0
  0
SPLINE
  5
13F
330
1F
100
AcDbEntity
  8
Default
100
AcDbSpline
210
0.0
220
0.0
230
1.0
 70
    12
 71
     2
 72
     8
 73
     5
 74
     0
 42
0.0000000001
 43
0.0000000001
 40
-0.0628318931243996
 40
-0.0628318931243996
 40
-0.0628318931243996
 40
-0.0314159465621985
 40
-0.0314159465621985
 40
0.0
 40
0.0
 40
0.0
 10
8.130723497231317
 20
2.719999999999945
 30
0.0
 41
1.0
 10
8.130723383299998
 20
2.736568554226062
 30
0.0
 41
0.923879436714611
 10
8.119007640386725
 20
2.748284285408195
 30
0.0
 41
1.0
 10
8.107291897473448
 20
2.760000016590326
 30
0.0
 41
0.9238794367145934
 10
8.090723343247399
 20
2.759999999999986
 30
0.0
 41
1.0
  0
POLYLINE
  5
140
330
1F
100
AcDbEntity
  8
Default
100
AcDb2dPolyline
 66
     1
 10
0.0
 20
0.0
 30
0.0
  0
VERTEX
  5
141
330
140
100
AcDbEntity
  8
Default
100
AcDbVertex
100
AcDb2dVertex
 10
8.090723343247399
 20
2.759999999999986
 30
0.0
  0
VERTEX
  5
142
330
140
100
AcDbEntity
  8
Default
100
AcDbVertex
100
AcDb2dVertex
 10
7.3827234246387
 20
2.759999999999986
 30
0.0
  0
SEQEND
  5
143
330
140
100
AcDbEntity
  8
Default
  0
SPLINE
  5
144
330
1F
100
AcDbEntity
  8
Default
100
AcDbSpline
210
0.0
220
0.0
230
1.0
 70
    12
 71
     2
 72
     8
 73
     5
 74
     0
 42
0.0000000001
 43
0.0000000001
 40
0.0
 40
0.0
 40
0.0
 40
0.0314159465621985
 40
0.0314159465621985
 40
0.0628318931243996
 40
0.0628318931243996
 40
0.0628318931243996
 10
7.3827234246387
 20
2.759999999999986
 30
0.0
 41
1.0
 10
7.366154870412649
 20
2.760000016590326
 30
0.0
 41
0.9238794367145934
 10
7.354439127499374
 20
2.748284285408195
 30
0.0
 41
1.0
 10
7.342723384586099
 20
2.736568554226062
 30
0.0
 41
0.923879436714611
 10
7.342723270654782
 20
2.719999999999945
 30
0.0
 41
1.0
  0
LINE
  5
145
330
1F
100
AcDbEntity
  8
Default
100
AcDbLine
 10
7.342723270654782
 20
2.719999999999945
 30
0.0
 11
7.342747452870652
 21
1.343573495961616
 31
0.0
  0
SPLINE
  5
146
330
1F
100
AcDbEntity
  8
Default
100
AcDbSpline
210
0.0
220
0.0
230
1.0
 70
    12
 71
     2
 72
     6
 73
     3
 74
     0
 42
0.0000000001
 43
0.0000000001
 40
-0.0405034352679367
 40
-0.0405034352679367
 40
-0.0405034352679367
 40
0.0
 40
0.0
 40
0.0
 10
12.14911371442322
 20
2.760035477590776
 30
0.0
 41
1.0
 10
12.12629078105089
 20
2.761184994890809
 30
0.0
 41
0.8377474461443447
 10
12.11806098244238
 20
2.782509390905094
 30
0.0
 41
1.0
  0
SPLINE
  5
147
330
1F
100
AcDbEntity
  8
Default
100
AcDbSpline
210
0.0
220
0.0
230
1.0
 70
     8
 71
     3
 72
    11
 73
     7
 74
     0
 42
0.0000000001
 43
0.0000000001
 40
-0.5190498716913017
 40
-0.5190498716913017
 40
-0.5190498716913017
 40
-0.5190498716913017
 40
-0.3020474028680822
 40
-0.2374224159260925
 40
-0.1669895205952948
 40
0.0
 40
0.0
 40
0.0
 40
0.0
 10
12.11806098244238
 20
2.782509390905094
 30
0.0
 10
12.09223346747857
 20
2.850638090585806
 30
0.0
 10
12.02956425645359
 20
2.924693852895348
 30
0.0
 10
11.93187101904603
 20
2.989616466604408
 30
0.0
 10
11.84364717303091
 20
3.038432671694692
 30
0.0
 10
11.77004209026178
 20
3.068032893056389
 30
0.0
 10
11.71556540523546
 20
3.087346865324408
 30
0.0
  0
SPLINE
  5
148
330
1F
100
AcDbEntity
  8
Default
100
AcDbSpline
210
0.0
220
0.0
230
1.0
 70
     8
 71
     3
 72
    11
 73
     7
 74
     0
 42
0.0000000001
 43
0.0000000001
 40
-9.62873534496378
 40
-9.62873534496378
 40
-9.62873534496378
 40
-9.62873534496378
 40
-9.235760971098028
 40
-8.993257344707228
 40
-8.729254607404698
 40
0.0
 40
0.0
 40
0.0
 40
0.0
 10
11.71556540523546
 20
3.087346865324408
 30
0.0
 10
11.58988661813639
 20
3.132737362778273
 30
0.0
 10
11.38308034450261
 20
3.177620608886414
 30
0.0
 10
11.08778954878018
 20
3.232731597892199
 30
0.0
 10
8.022689235877312
 20
3.520429176121879
 30
0.0
 10
5.036998118275312
 20
3.789332298799763
 30
0.0
 10
2.13965468369018
 20
4.057697784693569
 30
0.0
  0
ARC
  5
149
330
1F
100
AcDbEntity
  8
Default
100
AcDbCircle
 10
-3.866135974223456
 20
-60.78237684056489
 30
0.0
 40
65.11762279779389
100
AcDbArc
 50
84.70809639775777
 51
85.73558766099688
  0
SPLINE
  5
14A
330
1F
100
AcDbEntity
  8
Default
100
AcDbSpline
210
0.0
220
0.0
230
1.0
 70
    12
 71
     2
 72
     6
 73
     3
 74
     0
 42
0.0000000001
 43
0.0000000001
 40
0.0
 40
0.0
 40
0.0
 40
0.1645726248110703
 40
0.1645726248110703
 40
0.1645726248110703
 10
0.975967409105224
 20
4.154968606111039
 30
0.0
 41
1.0
 10
0.893930876010418
 20
4.148116645719011
 30
0.0
 41
0.999346492540072
 10
0.8116136902486488
 20
4.147209423754928
 30
0.0
 41
1.0
  0
POLYLINE
  5
14B
330
1F
100
AcDbEntity
  8
Default
100
AcDb2dPolyline
 66
     1
 10
0.0
 20
0.0
 30
0.0
  0
VERTEX
  5
14C
330
14B
100
AcDbEntity
  8
Default
100
AcDbVertex
100
AcDb2dVertex
 10
0.8116136902486488
 20
4.147209423754928
 30
0.0
  0
VERTEX
  5
14D
330
14B
100
AcDbEntity
  8
Default
100
AcDbVertex
100
AcDb2dVertex
 10
0.4595528730361971
 20
4.147209423754928
 30
0.0
  0
SEQEND
  5
14E
330
14B
100
AcDbEntity
  8
Default
  0
SPLINE
  5
14F
330
1F
100
AcDbEntity
  8
Make2D visible lines - Tangent
100
AcDbSpline
210
0.0
220
0.0
230
1.0
 70
    12
 71
     3
 72
    12
 73
     8
 74
     0
 42
0.0000000001
 43
0.0000000001
 40
-0.7166866764941487
 40
-0.7166866764941487
 40
-0.7166866764941487
 40
-0.7166866764941487
 40
0.0
 40
0.0
 40
0.0
 40
5.426935465500462
 40
6.005717626902
 40
6.005717626902
 40
6.005717626902
 40
6.005717626902
 10
0.6170939324199887
 20
4.144275746056073
 30
0.0
 41
1.0
 10
0.8549403253933607
 20
4.121609837324083
 30
0.0
 41
0.9997624307684584
 10
1.092096912421841
 20
4.092602884742096
 30
0.0
 41
0.9997624307684584
 10
1.328394670181023
 20
4.057275561788416
 30
0.0
 41
1.0
 10
3.117482356701391
 20
3.789800833743934
 30
0.0
 41
1.0
 10
4.962818904875473
 20
3.51835316869112
 30
0.0
 41
1.0
 10
6.858249519855342
 20
3.232953152428765
 30
0.0
 41
1.0
 10
7.190070262656594
 20
3.097166056710528
 30
0.0
 41
1.0
  0
SPLINE
  5
150
330
1F
100
AcDbEntity
  8
Make2D visible lines - Tangent
100
AcDbSpline
210
0.0
220
0.0
230
1.0
 70
     8
 71
     3
 72
    11
 73
     7
 74
     0
 42
0.0000000001
 43
0.0000000001
 40
0.0
 40
0.0
 40
0.0
 40
0.0
 40
0.066894803380304
 40
0.1150772171461536
 40
0.2142351287725906
 40
0.3577299678759472
 40
0.3577299678759472
 40
0.3577299678759472
 40
0.3577299678759472
 10
7.190070262656594
 20
3.097166056710528
 30
0.0
 10
7.208121581512791
 20
3.085283282473688
 30
0.0
 10
7.24451976032389
 20
3.067447034369017
 30
0.0
 10
7.287917173120947
 20
3.010049314205599
 30
0.0
 10
7.308915743437923
 20
2.912711916718788
 30
0.0
 10
7.331854348652731
 20
2.837086405743809
 30
0.0
 10
7.338967423585012
 20
2.788958449657228
 30
0.0
  0
SPLINE
  5
151
330
1F
100
AcDbEntity
  8
Make2D visible lines
100
AcDbSpline
210
0.0
220
0.0
230
1.0
 70
    12
 71
     2
 72
     6
 73
     3
 74
     0
 42
0.0000000001
 43
0.0000000001
 40
0.0
 40
0.0
 40
0.0
 40
0.715017489309887
 40
0.715017489309887
 40
0.715017489309887
 10
8.126722355013005
 20
2.79730837210623
 30
0.0
 41
1.0
 10
8.104889429230154
 20
3.154150786496702
 30
0.0
 41
0.9999959930683374
 10
8.08507719706722
 20
3.511111093551959
 30
0.0
 41
1.0
  0
SPLINE
  5
152
330
1F
100
AcDbEntity
  8
Make2D visible lines
100
AcDbSpline
210
0.0
220
0.0
230
1.0
 70
    12
 71
     2
 72
     6
 73
     3
 74
     0
 42
0.0000000001
 43
0.0000000001
 40
0.0
 40
0.0
 40
0.0
 40
0.45463726350635
 40
0.45463726350635
 40
0.45463726350635
 10
-1.525639248006444
 20
6.273574874417954
 30
0.0
 41
1.0
 10
-1.331866525684014
 20
6.416079376188438
 30
0.0
 41
0.9195620123765541
 10
-1.300914760346337
 20
6.654611112365369
 30
0.0
 41
0.9999952872160333
  0
LINE
  5
153
330
1F
100
AcDbEntity
  8
Make2D visible lines
100
AcDbLine
 10
-1.300914760346337
 20
6.65461111236537
 30
0.0
 11
-1.289999999999569
 21
7.279999999999992
 31
0.0
  0
POLYLINE
  5
154
330
1F
100
AcDbEntity
  8
Make2D visible lines
100
AcDb2dPolyline
 66
     1
 10
0.0
 20
0.0
 30
0.0
  0
VERTEX
  5
155
330
154
100
AcDbEntity
  8
Make2D visible lines
100
AcDbVertex
100
AcDb2dVertex
 10
-1.289999999999569
 20
7.279999999999992
 30
0.0
  0
VERTEX
  5
156
330
154
100
AcDbEntity
  8
Make2D visible lines
100
AcDbVertex
100
AcDb2dVertex
 10
1.289999999999592
 20
7.279999999999992
 30
0.0
  0
SEQEND
  5
157
330
154
100
AcDbEntity
  8
Make2D visible lines
  0
LINE
  5
158
330
1F
100
AcDbEntity
  8
Make2D visible lines
100
AcDbLine
 10
1.289999999999592
 20
7.279999999999992
 30
0.0
 11
1.300914760346337
 21
6.65461111236537
 31
0.0
  0
SPLINE
  5
159
330
1F
100
AcDbEntity
  8
Make2D visible lines
100
AcDbSpline
210
0.0
220
0.0
230
1.0
 70
    12
 71
     2
 72
     6
 73
     3
 74
     0
 42
0.0000000001
 43
0.0000000001
 40
-0.45463726350635
 40
-0.45463726350635
 40
-0.45463726350635
 40
0.0
 40
0.0
 40
0.0
 10
1.300914760346337
 20
6.654611112365369
 30
0.0
 41
0.9999952872160333
 10
1.331866525684014
 20
6.416079376188438
 30
0.0
 41
0.9195620123765541
 10
1.525639248006444
 20
6.273574874417954
 30
0.0
 41
1.0
  0
SPLINE
  5
15A
330
1F
100
AcDbEntity
  8
Default
100
AcDbSpline
210
0.0
220
0.0
230
1.0
 70
     8
 71
     3
 72
    11
 73
     7
 74
     0
 42
0.0000000001
 43
0.0000000001
 40
0.0
 40
0.0
 40
0.0
 40
0.0
 40
0.1253255972496818
 40
0.2513039754497304
 40
0.4987317322664389
 40
0.9688442191042036
 40
0.9688442191042036
 40
0.9688442191042036
 40
0.9688442191042036
 10
1.233931175928038
 20
6.854219928194
 30
0.0
 10
1.23467305222108
 20
6.812556320277297
 30
0.0
 10
1.242264625258811
 20
6.728608986485762
 30
0.0
 10
1.283946118584169
 20
6.567490792756628
 30
0.0
 10
1.4188663182738
 20
6.315723651030756
 30
0.0
 10
1.634703816377003
 20
6.181635136261791
 30
0.0
 10
1.789888363667075
 20
6.155372616098481
 30
0.0
  0
SPLINE
  5
15B
330
1F
100
AcDbEntity
  8
Default
100
AcDbSpline
210
0.0
220
0.0
230
1.0
 70
    24
 71
     2
 72
     6
 73
     3
 74
     0
 42
0.0000000001
 43
0.0000000001
 40
0.0
 40
0.0
 40
0.0
 40
10.6106773182712
 40
10.6106773182712
 40
10.6106773182712
 10
1.789888363667075
 20
6.155372616098481
 30
0.0
 10
7.014116204513529
 20
5.231217999682199
 30
0.0
 10
12.23834404535998
 20
4.307063383265918
 30
0.0
  0
SPLINE
  5
15C
330
1F
100
AcDbEntity
  8
Default
100
AcDbSpline
210
0.0
220
0.0
230
1.0
 70
     8
 71
     3
 72
     8
 73
     4
 74
     0
 42
0.0000000001
 43
0.0000000001
 40
0.0
 40
0.0
 40
0.0
 40
0.0
 40
1.0
 40
1.0
 40
1.0
 40
1.0
 10
12.23834404535998
 20
4.307063383265918
 30
0.0
 10
12.3870957013065
 20
4.280749536754915
 30
0.0
 10
12.53891528303043
 20
4.219465901919556
 30
0.0
 10
12.64957970104333
 20
4.116641487256009
 30
0.0
  0
SPLINE
  5
15D
330
1F
100
AcDbEntity
  8
Default
100
AcDbSpline
210
0.0
220
0.0
230
1.0
 70
     8
 71
     3
 72
    11
 73
     7
 74
     0
 42
0.0000000001
 43
0.0000000001
 40
-1.380178003129728
 40
-1.380178003129728
 40
-1.380178003129728
 40
-1.380178003129728
 40
-0.9139752417836994
 40
-0.8294769469874151
 40
-0.7414398127600529
 40
0.0
 40
0.0
 40
0.0
 40
0.0
 10
12.64957970104333
 20
4.116641487256009
 30
0.0
 10
12.76482594389031
 20
4.009559846420637
 30
0.0
 10
12.84019467390332
 20
3.833863810798341
 30
0.0
 10
12.87358700758287
 20
3.624145861508745
 30
0.0
 10
12.89067083421591
 20
3.319744497831932
 30
0.0
 10
12.89695214670612
 20
3.043448157988741
 30
0.0
 10
12.90916395426856
 20
2.796533989153949
 30
0.0
  0
SPLINE
  5
15E
330
1F
100
AcDbEntity
  8
Default
100
AcDbSpline
210
0.0
220
0.0
230
1.0
 70
     8
 71
     3
 72
    11
 73
     7
 74
     0
 42
0.0000000001
 43
0.0000000001
 40
0.0
 40
0.0
 40
0.0
 40
0.0
 40
0.1253255972496818
 40
0.2513039754497304
 40
0.4987317322664389
 40
0.9688442191042036
 40
0.9688442191042036
 40
0.9688442191042036
 40
0.9688442191042036
 10
-1.233931175928038
 20
6.854219928194
 30
0.0
 10
-1.23467305222108
 20
6.812556320277297
 30
0.0
 10
-1.242264625258811
 20
6.728608986485762
 30
0.0
 10
-1.283946118584169
 20
6.567490792756628
 30
0.0
 10
-1.4188663182738
 20
6.315723651030756
 30
0.0
 10
-1.634703816377003
 20
6.181635136261791
 30
0.0
 10
-1.789888363667075
 20
6.155372616098481
 30
0.0
  0
SPLINE
  5
15F
330
1F
100
AcDbEntity
  8
Default
100
AcDbSpline
210
0.0
220
0.0
230
1.0
 70
    24
 71
     2
 72
     6
 73
     3
 74
     0
 42
0.0000000001
 43
0.0000000001
 40
0.0
 40
0.0
 40
0.0
 40
10.6106773182712
 40
10.6106773182712
 40
10.6106773182712
 10
-1.789888363667075
 20
6.155372616098481
 30
0.0
 10
-7.014116204513529
 20
5.231217999682199
 30
0.0
 10
-12.23834404535998
 20
4.307063383265918
 30
0.0
  0
SPLINE
  5
160
330
1F
100
AcDbEntity
  8
Default
100
AcDbSpline
210
0.0
220
0.0
230
1.0
 70
     8
 71
     3
 72
     8
 73
     4
 74
     0
 42
0.0000000001
 43
0.0000000001
 40
0.0
 40
0.0
 40
0.0
 40
0.0
 40
1.0
 40
1.0
 40
1.0
 40
1.0
 10
-12.23834404535998
 20
4.307063383265918
 30
0.0
 10
-12.3870957013065
 20
4.280749536754915
 30
0.0
 10
-12.53891528303043
 20
4.219465901919556
 30
0.0
 10
-12.64957970104333
 20
4.116641487256009
 30
0.0
  0
SPLINE
  5
161
330
1F
100
AcDbEntity
  8
Default
100
AcDbSpline
210
0.0
220
0.0
230
1.0
 70
     8
 71
     3
 72
    11
 73
     7
 74
     0
 42
0.0000000001
 43
0.0000000001
 40
-1.380178003129728
 40
-1.380178003129728
 40
-1.380178003129728
 40
-1.380178003129728
 40
-0.9139752417836994
 40
-0.8294769469874151
 40
-0.7414398127600529
 40
0.0
 40
0.0
 40
0.0
 40
0.0
 10
-12.64957970104333
 20
4.116641487256009
 30
0.0
 10
-12.76482594389031
 20
4.009559846420637
 30
0.0
 10
-12.84019467390332
 20
3.833863810798341
 30
0.0
 10
-12.87358700758287
 20
3.624145861508745
 30
0.0
 10
-12.89067083421591
 20
3.319744497831932
 30
0.0
 10
-12.89695214670612
 20
3.043448157988741
 30
0.0
 10
-12.90916395426856
 20
2.796533989153949
 30
0.0
  0
SPLINE
  5
162
330
1F
100
AcDbEntity
  8
Default
100
AcDbSpline
210
0.0
220
0.0
230
1.0
 70
    24
 71
     2
 72
     6
 73
     3
 74
     0
 42
0.0000000001
 43
0.0000000001
 40
0.0
 40
0.0
 40
0.0
 40
0.8769692108444929
 40
0.8769692108444929
 40
0.8769692108444929
 10
32.27954085493222
 20
1.843030789155508
 30
0.0
 10
32.27954085493222
 20
2.281515394577754
 30
0.0
 10
32.27954085493222
 20
2.720000000000001
 30
0.0
  0
SPLINE
  5
163
330
1F
100
AcDbEntity
  8
Default
100
AcDbSpline
210
0.0
220
0.0
230
1.0
 70
    12
 71
     2
 72
     6
 73
     3
 74
     0
 42
0.0000000001
 43
0.0000000001
 40
0.0
 40
0.0
 40
0.0
 40
0.061047366478666
 40
0.061047366478666
 40
0.061047366478666
 10
32.27954085493222
 20
2.720000000000001
 30
0.0
 41
1.0
 10
32.27947180046392
 20
2.758209518474056
 30
0.0
 41
0.7238690675884838
 10
32.24130296216789
 20
2.759973563164372
 30
0.0
 41
1.0
  0
POLYLINE
  5
164
330
1F
100
AcDbEntity
  8
Default
100
AcDb2dPolyline
 66
     1
 10
0.0
 20
0.0
 30
0.0
  0
VERTEX
  5
165
330
164
100
AcDbEntity
  8
Default
100
AcDbVertex
100
AcDb2dVertex
 10
32.24130296216789
 20
2.759973563164372
 30
0.0
  0
VERTEX
  5
166
330
164
100
AcDbEntity
  8
Default
100
AcDbVertex
100
AcDb2dVertex
 10
31.53154085494155
 20
2.76
 30
0.0
  0
SEQEND
  5
167
330
164
100
AcDbEntity
  8
Default
  0
SPLINE
  5
168
330
1F
100
AcDbEntity
  8
Default
100
AcDbSpline
210
0.0
220
0.0
230
1.0
 70
    12
 71
     2
 72
     6
 73
     3
 74
     0
 42
0.0000000001
 43
0.0000000001
 40
0.0
 40
0.0
 40
0.0
 40
0.0627492515484099
 40
0.0627492515484099
 40
0.0627492515484099
 10
31.53154085494155
 20
2.76
 30
0.0
 41
1.0
 10
31.49173315386758
 20
2.759807701073931
 30
0.0
 41
0.7105143094883521
 10
31.49154085493222
 20
2.720000000000001
 30
0.0
 41
1.0
  0
SPLINE
  5
169
330
1F
100
AcDbEntity
  8
Default
100
AcDbSpline
210
0.0
220
0.0
230
1.0
 70
    24
 71
     2
 72
     6
 73
     3
 74
     0
 42
0.0000000001
 43
0.0000000001
 40
0.0
 40
0.0
 40
0.0
 40
0.2133911288261197
 40
0.2133911288261197
 40
0.2133911288261197
 10
31.49154085493222
 20
2.720000000000001
 30
0.0
 10
31.49154085493221
 20
2.613304435586941
 30
0.0
 10
31.49154085493221
 20
2.506608871173881
 30
0.0
  0
SPLINE
  5
16A
330
1F
100
AcDbEntity
  8
Make2D visible lines
100
AcDbSpline
210
0.0
220
0.0
230
1.0
 70
    12
 71
     2
 72
     8
 73
     5
 74
     0
 42
0.0000000001
 43
0.0000000001
 40
0.0
 40
0.0
 40
0.0
 40
1.497204518884545
 40
1.497204518884545
 40
2.994409037769103
 40
2.994409037769103
 40
2.994409037769103
 10
45.84181949138809
 20
0.3268500000000034
 30
0.0
 41
1.0
 10
46.79496949138805
 20
0.3268500000000318
 30
0.0
 41
0.7071067811865704
 10
46.79496949138809
 20
1.280000000000002
 30
0.0
 41
1.0
 10
46.79496949138809
 20
2.233149999999984
 30
0.0
 41
0.7071067811865678
 10
45.84181949138809
 20
2.233150000000013
 30
0.0
 41
1.0
  0
SPLINE
  5
16B
330
1F
100
AcDbEntity
  8
Make2D visible lines
100
AcDbSpline
210
0.0
220
0.0
230
1.0
 70
    12
 71
     2
 72
     8
 73
     5
 74
     0
 42
0.0000000001
 43
0.0000000001
 40
0.0
 40
0.0
 40
0.0
 40
1.497204518884547
 40
1.497204518884547
 40
2.994409037769108
 40
2.994409037769108
 40
2.994409037769108
 10
45.84181949138809
 20
2.233150000000003
 30
0.0
 41
1.0
 10
44.88866949138809
 20
2.233150000000003
 30
0.0
 41
0.7071067811865408
 10
44.88866949138811
 20
1.280000000000002
 30
0.0
 41
1.0
 10
44.88866949138808
 20
0.3268499999999936
 30
0.0
 41
0.7071067811865419
 10
45.84181949138809
 20
0.3268499999999936
 30
0.0
 41
1.0
  0
SPLINE
  5
16C
330
1F
100
AcDbEntity
  8
Make2D visible lines
100
AcDbSpline
210
0.0
220
0.0
230
1.0
 70
    12
 71
     2
 72
     8
 73
     5
 74
     0
 42
0.0000000001
 43
0.0000000001
 40
0.0
 40
0.0
 40
0.0
 40
2.010589900836999
 40
2.010589900836999
 40
4.021209199134468
 40
4.021209199134468
 40
4.021209199134468
 10
45.84179009392764
 20
2.559999999662421
 30
0.0
 41
1.0
 10
44.56181949138809
 20
2.559970602877126
 30
0.0
 41
0.7071149011179003
 10
44.56181949138811
 20
1.280000000000003
 30
0.0
 41
1.0
 10
44.56181949138806
 20
-0.0000000000000225
 30
0.0
 41
0.7071067811865291
 10
45.84181949138809
 20
0.000000000000006
 30
0.0
 41
1.0
  0
SPLINE
  5
16D
330
1F
100
AcDbEntity
  8
Make2D visible lines - Tangent
100
AcDbSpline
210
0.0
220
0.0
230
1.0
 70
    12
 71
     2
 72
     8
 73
     5
 74
     0
 42
0.0000000001
 43
0.0000000001
 40
0.0
 40
0.0
 40
0.0
 40
1.520766455445231
 40
1.520766455445231
 40
3.04153291089047
 40
3.04153291089047
 40
3.04153291089047
 10
45.84181949138809
 20
0.3118500053102031
 30
0.0
 41
1.0
 10
44.87366949669828
 20
0.3118500053102032
 30
0.0
 41
0.7071067811865446
 10
44.87366949669829
 20
1.280000000000002
 30
0.0
 41
1.0
 10
44.87366949669829
 20
2.248149994689808
 30
0.0
 41
0.707106781186544
 10
45.84181949138809
 20
2.248149994689808
 30
0.0
 41
1.0
  0
SPLINE
  5
16E
330
1F
100
AcDbEntity
  8
Make2D visible lines - Tangent
100
AcDbSpline
210
0.0
220
0.0
230
1.0
 70
    12
 71
     2
 72
     8
 73
     5
 74
     0
 42
0.0000000001
 43
0.0000000001
 40
0.0
 40
0.0
 40
0.0
 40
1.520766455445226
 40
1.520766455445226
 40
3.041532910890458
 40
3.041532910890458
 40
3.041532910890458
 10
45.84181949138809
 20
2.248149994689802
 30
0.0
 41
1.0
 10
46.80996948607789
 20
2.248149994689788
 30
0.0
 41
0.7071067811865557
 10
46.80996948607788
 20
1.280000000000002
 30
0.0
 41
1.0
 10
46.80996948607788
 20
0.3118500053102209
 30
0.0
 41
0.7071067811865631
 10
45.84181949138809
 20
0.3118500053101925
 30
0.0
 41
1.0
  0
SPLINE
  5
16F
330
1F
100
AcDbEntity
  8
Make2D visible lines
100
AcDbSpline
210
0.0
220
0.0
230
1.0
 70
    12
 71
     2
 72
     8
 73
     5
 74
     0
 42
0.0000000001
 43
0.0000000001
 40
0.0
 40
0.0
 40
0.0
 40
2.010619298297465
 40
2.010619298297465
 40
4.021238596594936
 40
4.021238596594936
 40
4.021238596594936
 10
45.84181949138809
 20
0.0000000000000031
 30
0.0
 41
1.0
 10
47.12181949138811
 20
0.0000000000000031
 30
0.0
 41
0.7071067811865468
 10
47.12181949138809
 20
1.280000000000002
 30
0.0
 41
1.0
 10
47.12181949138809
 20
2.560000000000005
 30
0.0
 41
0.7071067811865471
 10
45.84181949138809
 20
2.560000000000005
 30
0.0
 41
1.0
  0
SPLINE
  5
170
330
1F
100
AcDbEntity
  8
Default
100
AcDbSpline
210
0.0
220
0.0
230
1.0
 70
    24
 71
     2
 72
     6
 73
     3
 74
     0
 42
0.0000000001
 43
0.0000000001
 40
0.0
 40
0.0
 40
0.0
 40
0.8769692108444929
 40
0.8769692108444929
 40
0.8769692108444929
 10
46.99566323185019
 20
1.843030789155511
 30
0.0
 10
46.99566323185019
 20
2.281515394577757
 30
0.0
 10
46.99566323185019
 20
2.720000000000004
 30
0.0
  0
SPLINE
  5
171
330
1F
100
AcDbEntity
  8
Default
100
AcDbSpline
210
0.0
220
0.0
230
1.0
 70
    12
 71
     2
 72
     6
 73
     3
 74
     0
 42
0.0000000001
 43
0.0000000001
 40
0.0
 40
0.0
 40
0.0
 40
0.061047366478666
 40
0.061047366478666
 40
0.061047366478666
 10
46.99566323185019
 20
2.720000000000004
 30
0.0
 41
1.0
 10
46.9955941773819
 20
2.758209518474059
 30
0.0
 41
0.7238690675884838
 10
46.95742533908587
 20
2.759973563164376
 30
0.0
 41
1.0
  0
POLYLINE
  5
172
330
1F
100
AcDbEntity
  8
Default
100
AcDb2dPolyline
 66
     1
 10
0.0
 20
0.0
 30
0.0
  0
VERTEX
  5
173
330
172
100
AcDbEntity
  8
Default
100
AcDbVertex
100
AcDb2dVertex
 10
46.95742533908587
 20
2.759973563164376
 30
0.0
  0
VERTEX
  5
174
330
172
100
AcDbEntity
  8
Default
100
AcDbVertex
100
AcDb2dVertex
 10
46.24766323185953
 20
2.760000000000003
 30
0.0
  0
SEQEND
  5
175
330
172
100
AcDbEntity
  8
Default
  0
SPLINE
  5
176
330
1F
100
AcDbEntity
  8
Default
100
AcDbSpline
210
0.0
220
0.0
230
1.0
 70
    12
 71
     2
 72
     6
 73
     3
 74
     0
 42
0.0000000001
 43
0.0000000001
 40
0.0
 40
0.0
 40
0.0
 40
0.0627492515484099
 40
0.0627492515484099
 40
0.0627492515484099
 10
46.24766323185953
 20
2.760000000000003
 30
0.0
 41
1.0
 10
46.20785553078555
 20
2.759807701073934
 30
0.0
 41
0.7105143094883521
 10
46.20766323185019
 20
2.720000000000004
 30
0.0
 41
1.0
  0
SPLINE
  5
177
330
1F
100
AcDbEntity
  8
Default
100
AcDbSpline
210
0.0
220
0.0
230
1.0
 70
    24
 71
     2
 72
     6
 73
     3
 74
     0
 42
0.0000000001
 43
0.0000000001
 40
0.0
 40
0.0
 40
0.0
 40
0.2133911288261197
 40
0.2133911288261197
 40
0.2133911288261197
 10
46.20766323185019
 20
2.720000000000004
 30
0.0
 10
46.20766323185019
 20
2.613304435586944
 30
0.0
 10
46.20766323185018
 20
2.506608871173884
 30
0.0
  0
SPLINE
  5
178
330
1F
100
AcDbEntity
  8
Make2D visible lines
100
AcDbSpline
210
0.0
220
0.0
230
1.0
 70
    12
 71
     2
 72
     8
 73
     5
 74
     0
 42
0.0000000001
 43
0.0000000001
 40
0.0
 40
0.0
 40
0.0
 40
1.497204518884545
 40
1.497204518884545
 40
2.994409037769103
 40
2.994409037769103
 40
2.994409037769103
 10
54.9368833029301
 20
0.3268500000000052
 30
0.0
 41
1.0
 10
55.89003330293007
 20
0.3268500000000336
 30
0.0
 41
0.7071067811865704
 10
55.89003330293011
 20
1.280000000000004
 30
0.0
 41
1.0
 10
55.8900333029301
 20
2.233149999999986
 30
0.0
 41
0.7071067811865678
 10
54.9368833029301
 20
2.233150000000014
 30
0.0
 41
1.0
  0
SPLINE
  5
179
330
1F
100
AcDbEntity
  8
Make2D visible lines
100
AcDbSpline
210
0.0
220
0.0
230
1.0
 70
    12
 71
     2
 72
     8
 73
     5
 74
     0
 42
0.0000000001
 43
0.0000000001
 40
0.0
 40
0.0
 40
0.0
 40
1.497204518884547
 40
1.497204518884547
 40
2.994409037769108
 40
2.994409037769108
 40
2.994409037769108
 10
54.9368833029301
 20
2.233150000000005
 30
0.0
 41
1.0
 10
53.9837333029301
 20
2.233150000000006
 30
0.0
 41
0.7071067811865408
 10
53.98373330293012
 20
1.280000000000004
 30
0.0
 41
1.0
 10
53.98373330293009
 20
0.3268499999999954
 30
0.0
 41
0.7071067811865419
 10
54.9368833029301
 20
0.3268499999999954
 30
0.0
 41
1.0
  0
SPLINE
  5
17A
330
1F
100
AcDbEntity
  8
Make2D visible lines
100
AcDbSpline
210
0.0
220
0.0
230
1.0
 70
    12
 71
     2
 72
     8
 73
     5
 74
     0
 42
0.0000000001
 43
0.0000000001
 40
0.0
 40
0.0
 40
0.0
 40
2.010589900836999
 40
2.010589900836999
 40
4.021209199134468
 40
4.021209199134468
 40
4.021209199134468
 10
54.93685390546965
 20
2.559999999662423
 30
0.0
 41
1.0
 10
53.6568833029301
 20
2.559970602877128
 30
0.0
 41
0.7071149011179003
 10
53.65688330293013
 20
1.280000000000004
 30
0.0
 41
1.0
 10
53.65688330293008
 20
-0.0000000000000207
 30
0.0
 41
0.7071067811865291
 10
54.9368833029301
 20
0.0000000000000078
 30
0.0
 41
1.0
  0
SPLINE
  5
17B
330
1F
100
AcDbEntity
  8
Make2D visible lines - Tangent
100
AcDbSpline
210
0.0
220
0.0
230
1.0
 70
    12
 71
     2
 72
     8
 73
     5
 74
     0
 42
0.0000000001
 43
0.0000000001
 40
0.0
 40
0.0
 40
0.0
 40
1.520766455445231
 40
1.520766455445231
 40
3.04153291089047
 40
3.04153291089047
 40
3.04153291089047
 10
54.9368833029301
 20
0.3118500053102049
 30
0.0
 41
1.0
 10
53.96873330824029
 20
0.3118500053102049
 30
0.0
 41
0.7071067811865446
 10
53.9687333082403
 20
1.280000000000004
 30
0.0
 41
1.0
 10
53.9687333082403
 20
2.24814999468981
 30
0.0
 41
0.707106781186544
 10
54.9368833029301
 20
2.24814999468981
 30
0.0
 41
1.0
  0
SPLINE
  5
17C
330
1F
100
AcDbEntity
  8
Make2D visible lines - Tangent
100
AcDbSpline
210
0.0
220
0.0
230
1.0
 70
    12
 71
     2
 72
     8
 73
     5
 74
     0
 42
0.0000000001
 43
0.0000000001
 40
0.0
 40
0.0
 40
0.0
 40
1.520766455445226
 40
1.520766455445226
 40
3.041532910890458
 40
3.041532910890458
 40
3.041532910890458
 10
54.9368833029301
 20
2.248149994689804
 30
0.0
 41
1.0
 10
55.90503329761991
 20
2.248149994689789
 30
0.0
 41
0.7071067811865557
 10
55.90503329761989
 20
1.280000000000004
 30
0.0
 41
1.0
 10
55.90503329761988
 20
0.3118500053102227
 30
0.0
 41
0.7071067811865631
 10
54.9368833029301
 20
0.3118500053101942
 30
0.0
 41
1.0
  0
SPLINE
  5
17D
330
1F
100
AcDbEntity
  8
Make2D visible lines
100
AcDbSpline
210
0.0
220
0.0
230
1.0
 70
    12
 71
     2
 72
     8
 73
     5
 74
     0
 42
0.0000000001
 43
0.0000000001
 40
0.0
 40
0.0
 40
0.0
 40
2.010619298297465
 40
2.010619298297465
 40
4.021238596594936
 40
4.021238596594936
 40
4.021238596594936
 10
54.9368833029301
 20
0.0000000000000049
 30
0.0
 41
1.0
 10
56.21688330293012
 20
0.0000000000000049
 30
0.0
 41
0.7071067811865468
 10
56.2168833029301
 20
1.280000000000004
 30
0.0
 41
1.0
 10
56.21688330293011
 20
2.560000000000008
 30
0.0
 41
0.7071067811865471
 10
54.9368833029301
 20
2.560000000000007
 30
0.0
 41
1.0
  0
SPLINE
  5
17E
330
1F
100
AcDbEntity
  8
Default
100
AcDbSpline
210
0.0
220
0.0
230
1.0
 70
    24
 71
     2
 72
     6
 73
     3
 74
     0
 42
0.0000000001
 43
0.0000000001
 40
0.0
 40
0.0
 40
0.0
 40
0.8769692108444929
 40
0.8769692108444929
 40
0.8769692108444929
 10
56.09072704339221
 20
1.843030789155513
 30
0.0
 10
56.09072704339221
 20
2.281515394577759
 30
0.0
 10
56.09072704339221
 20
2.720000000000006
 30
0.0
  0
SPLINE
  5
17F
330
1F
100
AcDbEntity
  8
Default
100
AcDbSpline
210
0.0
220
0.0
230
1.0
 70
    12
 71
     2
 72
     6
 73
     3
 74
     0
 42
0.0000000001
 43
0.0000000001
 40
0.0
 40
0.0
 40
0.0
 40
0.061047366478666
 40
0.061047366478666
 40
0.061047366478666
 10
56.09072704339221
 20
2.720000000000006
 30
0.0
 41
1.0
 10
56.09065798892391
 20
2.758209518474061
 30
0.0
 41
0.7238690675884838
 10
56.05248915062788
 20
2.759973563164377
 30
0.0
 41
1.0
  0
POLYLINE
  5
180
330
1F
100
AcDbEntity
  8
Default
100
AcDb2dPolyline
 66
     1
 10
0.0
 20
0.0
 30
0.0
  0
VERTEX
  5
181
330
180
100
AcDbEntity
  8
Default
100
AcDbVertex
100
AcDb2dVertex
 10
56.05248915062788
 20
2.759973563164377
 30
0.0
  0
VERTEX
  5
182
330
180
100
AcDbEntity
  8
Default
100
AcDbVertex
100
AcDb2dVertex
 10
55.34272704340154
 20
2.760000000000005
 30
0.0
  0
SEQEND
  5
183
330
180
100
AcDbEntity
  8
Default
  0
SPLINE
  5
184
330
1F
100
AcDbEntity
  8
Default
100
AcDbSpline
210
0.0
220
0.0
230
1.0
 70
    12
 71
     2
 72
     6
 73
     3
 74
     0
 42
0.0000000001
 43
0.0000000001
 40
0.0
 40
0.0
 40
0.0
 40
0.0627492515484099
 40
0.0627492515484099
 40
0.0627492515484099
 10
55.34272704340154
 20
2.760000000000005
 30
0.0
 41
1.0
 10
55.30291934232757
 20
2.759807701073936
 30
0.0
 41
0.7105143094883521
 10
55.3027270433922
 20
2.720000000000006
 30
0.0
 41
1.0
  0
SPLINE
  5
185
330
1F
100
AcDbEntity
  8
Default
100
AcDbSpline
210
0.0
220
0.0
230
1.0
 70
    24
 71
     2
 72
     6
 73
     3
 74
     0
 42
0.0000000001
 43
0.0000000001
 40
0.0
 40
0.0
 40
0.0
 40
0.2133911288261197
 40
0.2133911288261197
 40
0.2133911288261197
 10
55.3027270433922
 20
2.720000000000006
 30
0.0
 10
55.3027270433922
 20
2.613304435586945
 30
0.0
 10
55.3027270433922
 20
2.506608871173886
 30
0.0
  0
SPLINE
  5
186
330
1F
100
AcDbEntity
  8
Make2D visible lines - Tangent
100
AcDbSpline
210
0.0
220
0.0
230
1.0
 70
    12
 71
     2
 72
     8
 73
     5
 74
     0
 42
0.0000000001
 43
0.0000000001
 40
0.0
 40
0.0
 40
0.0
 40
0.3253370284247422
 40
0.3253370284247422
 40
9.403473663300316
 40
9.403473663300316
 40
9.403473663300316
 10
41.26036375897669
 20
6.351205542801027
 30
0.0
 41
1.0
 10
41.17967512294175
 20
6.197832513434677
 30
0.0
 41
0.9103553742893397
 10
41.0113501666971
 20
6.156574902357635
 30
0.0
 41
0.9999882185796083
 10
36.56750997750365
 20
5.231819142811508
 30
0.0
 41
0.9999882185796083
 10
32.02926671454115
 20
4.28497752956617
 30
0.0
 41
0.9999882185796083
  0
SPLINE
  5
187
330
1F
100
AcDbEntity
  8
Make2D visible lines - Tangent
100
AcDbSpline
210
0.0
220
0.0
230
1.0
 70
     8
 71
     3
 72
    13
 73
     9
 74
     0
 42
0.0000000001
 43
0.0000000001
 40
0.0
 40
0.0
 40
0.0
 40
0.0
 40
0.1566065189818115
 40
0.3091157047045195
 40
0.6293465835033908
 40
0.9251044512314791
 40
1.003042613551681
 40
1.701534992922182
 40
1.701534992922182
 40
1.701534992922182
 40
1.701534992922182
 10
32.02926671454115
 20
4.28497752956617
 30
0.0
 10
31.97912576302207
 20
4.269366604121733
 30
0.0
 10
31.88493610553407
 20
4.228651035824123
 30
0.0
 10
31.71375900475238
 20
4.101424990536445
 30
0.0
 10
31.58277517988888
 20
3.874486075735164
 30
0.0
 10
31.53895878040768
 20
3.645405860434806
 30
0.0
 10
31.51797838106987
 20
3.288771884172197
 30
0.0
 10
31.51016063997254
 20
3.029889099970676
 30
0.0
 10
31.49526191233829
 20
2.797297258530311
 30
0.0
  0
SPLINE
  5
188
330
1F
100
AcDbEntity
  8
Make2D visible lines - Tangent
100
AcDbSpline
210
0.0
220
0.0
230
1.0
 70
    12
 71
     2
 72
     8
 73
     5
 74
     0
 42
0.0000000001
 43
0.0000000001
 40
0.0
 40
0.0
 40
0.0
 40
0.0284675552628037
 40
0.0284675552628037
 40
0.0569351105256074
 40
0.0569351105256074
 40
0.0569351105256074
 10
31.49526191233829
 20
2.797297258530311
 30
0.0
 41
1.0
 10
31.49443780777759
 20
2.781980459771884
 30
0.0
 41
0.919080792879801
 10
31.50477862320187
 20
2.771022345236603
 30
0.0
 41
1.0
 10
31.51511943862616
 20
2.760064230701323
 30
0.0
 41
0.919080792879801
 10
31.53018624360358
 20
2.760000000023431
 30
0.0
 41
1.0
  0
SPLINE
  5
189
330
1F
100
AcDbEntity
  8
Make2D visible lines - Tangent
100
AcDbSpline
210
0.0
220
0.0
230
1.0
 70
    12
 71
     2
 72
     8
 73
     5
 74
     0
 42
0.0000000001
 43
0.0000000001
 40
0.0
 40
0.0
 40
0.0
 40
0.0281548017607272
 40
0.0281548017607272
 40
0.0563096035214544
 40
0.0563096035214544
 40
0.0563096035214544
 10
46.95733073402843
 20
2.760000000033036
 30
0.0
 41
1.0
 10
46.97221379424539
 20
2.760054355659916
 30
0.0
 41
0.9207353083954195
 10
46.98252601148238
 20
2.770785926449538
 30
0.0
 41
1.0
 10
46.99283822871938
 20
2.781517497239162
 30
0.0
 41
0.9207353083954195
 10
46.99229074987021
 20
2.796598376530821
 30
0.0
 41
1.0
  0
SPLINE
  5
18A
330
1F
100
AcDbEntity
  8
Make2D visible lines - Tangent
100
AcDbSpline
210
0.0
220
0.0
230
1.0
 70
     8
 71
     3
 72
    12
 73
     8
 74
     0
 42
0.0000000001
 43
0.0000000001
 40
0.0
 40
0.0
 40
0.0
 40
0.0
 40
0.7038593348424074
 40
0.8875771840295935
 40
1.044695281968214
 40
1.349887694187137
 40
1.596737400594657
 40
1.596737400594657
 40
1.596737400594657
 40
1.596737400594657
 10
46.99229074987021
 20
2.796598376530821
 30
0.0
 10
46.97807099863914
 20
3.030987480241414
 30
0.0
 10
46.97212989710464
 20
3.327017596735619
 30
0.0
 10
46.9353229179937
 20
3.673605593349178
 30
0.0
 10
46.89059098228081
 20
3.884293732777643
 30
0.0
 10
46.8081663675716
 20
4.108619079247838
 30
0.0
 10
46.67701320804596
 20
4.245611079291696
 30
0.0
 10
46.6036876377931
 20
4.283844356305368
 30
0.0
  0
SPLINE
  5
18B
330
1F
100
AcDbEntity
  8
Make2D visible lines - Tangent
100
AcDbSpline
210
0.0
220
0.0
230
1.0
 70
    12
 71
     3
 72
    15
 73
    11
 74
     0
 42
0.0000000001
 43
0.0000000001
 40
-4.541433547693557
 40
-4.541433547693557
 40
-4.541433547693557
 40
-4.541433547693557
 40
-0.7414861370963696
 40
-0.7414861370963696
 40
-0.7414861370963696
 40
-0.6324431721007214
 40
-0.4665084344538327
 40
-0.2470339465480142
 40
-0.1247233484072336
 40
0.0
 40
0.0
 40
0.0
 40
0.0
 10
46.6036876377931
 20
4.283844356305368
 30
0.0
 41
1.0
 10
45.45286137361983
 20
4.913329891125925
 30
0.0
 41
0.9999999265147085
 10
44.34160957630249
 20
5.521211126879812
 30
0.0
 41
0.9999999265147085
 10
43.23007248465569
 20
6.128570532599579
 30
0.0
 41
1.0
 10
43.19799596683734
 20
6.147219312783745
 30
0.0
 41
1.0
 10
43.14465971802119
 20
6.224084365870708
 30
0.0
 41
1.0
 10
43.09273381969665
 20
6.381173536448476
 30
0.0
 41
1.0
 10
43.06486453605228
 20
6.548509628443595
 30
0.0
 41
1.0
 10
43.05212238919944
 20
6.703489724570181
 30
0.0
 41
1.0
 10
43.04964014868564
 20
6.785854574524041
 30
0.0
 41
1.0
 10
43.04943104409698
 20
6.827417844695098
 30
0.0
 41
1.0
  0
SPLINE
  5
18C
330
1F
100
AcDbEntity
  8
Make2D visible lines
100
AcDbSpline
210
0.0
220
0.0
230
1.0
 70
    12
 71
     2
 72
     6
 73
     3
 74
     0
 42
0.0000000001
 43
0.0000000001
 40
0.0
 40
0.0
 40
0.0
 40
0.4169760767400937
 40
0.4169760767400937
 40
0.4169760767400937
 10
46.1680770374853
 20
3.208276559050868
 30
0.0
 41
1.0
 10
46.1923105534038
 20
3.001160442240106
 30
0.0
 41
0.9997052877389728
 10
46.20650878958405
 20
2.792587652478247
 30
0.0
 41
1.0
  0
SPLINE
  5
18D
330
1F
100
AcDbEntity
  8
Make2D visible lines
100
AcDbSpline
210
0.0
220
0.0
230
1.0
 70
    12
 71
     2
 72
     6
 73
     3
 74
     0
 42
0.0000000001
 43
0.0000000001
 40
0.0
 40
0.0
 40
0.0
 40
0.051971837302968
 40
0.051971837302968
 40
0.051971837302968
 10
46.20650878958405
 20
2.792587652478247
 30
0.0
 41
1.0
 10
46.20937244969211
 20
2.76013975595634
 30
0.0
 41
0.7390041367116041
 10
46.24141957536038
 20
2.760000000351793
 30
0.0
 41
1.0
  0
SPLINE
  5
18E
330
1F
100
AcDbEntity
  8
Default
100
AcDbSpline
210
0.0
220
0.0
230
1.0
 70
     8
 71
     3
 72
    11
 73
     7
 74
     0
 42
0.0000000001
 43
0.0000000001
 40
-3.23693309777242
 40
-3.23693309777242
 40
-3.23693309777242
 40
-3.23693309777242
 40
-3.132310362624433
 40
-3.011080897647895
 40
-1.234264891972177
 40
0.0
 40
0.0
 40
0.0
 40
0.0
 10
46.17236864406316
 20
3.17135933350005
 30
0.0
 10
46.14562288775758
 20
3.192067525842577
 30
0.0
 10
46.08387731399355
 20
3.240432042913576
 30
0.0
 10
45.44225781908411
 20
3.425133923439871
 30
0.0
 10
44.43607326218437
 20
3.703516645529733
 30
0.0
 10
43.46828505141367
 20
3.96984400884104
 30
0.0
 10
43.07080946496255
 20
4.076000563448354
 30
0.0
  0
ARC
  5
18F
330
1F
100
AcDbEntity
  8
Default
100
AcDbCircle
 10
42.41601257174904
 20
1.624284038744178
 30
0.0
 40
2.537651057350004
100
AcDbArc
 50
75.04663993689317
 51
84.65383226446174
  0
SPLINE
  5
190
330
1F
100
AcDbEntity
  8
Default
100
AcDbSpline
210
0.0
220
0.0
230
1.0
 70
     8
 71
     3
 72
     8
 73
     4
 74
     0
 42
0.0000000001
 43
0.0000000001
 40
0.0
 40
0.0
 40
0.0
 40
0.0
 40
1.0
 40
1.0
 40
1.0
 40
1.0
 10
42.65245285817102
 20
4.150896173565485
 30
0.0
 10
42.45571780243947
 20
4.169306634073188
 30
0.0
 10
42.25732829661943
 20
4.190528803100828
 30
0.0
 10
42.06022607298281
 20
4.176588191661652
 30
0.0
  0
ARC
  5
191
330
1F
100
AcDbEntity
  8
Default
100
AcDbCircle
 10
44.60985828464562
 20
-31.87191517326658
 30
0.0
 40
36.13855585473762
100
AcDbArc
 50
94.04566874948716
 51
96.1443254190237
  0
SPLINE
  5
192
330
1F
100
AcDbEntity
  8
Default
100
AcDbSpline
210
0.0
220
0.0
230
1.0
 70
     8
 71
     3
 72
    14
 73
    10
 74
     0
 42
0.0000000001
 43
0.0000000001
 40
-8.204530470148132
 40
-8.204530470148132
 40
-8.204530470148132
 40
-8.204530470148132
 40
-4.787868609135582
 40
-1.282026189816285
 40
-0.9685074939250532
 40
-0.751754173128408
 40
-0.3313090765086819
 40
-0.1541283884282293
 40
-0.0000000000000001
 40
-0.0000000000000001
 40
-0.0000000000000001
 40
-0.0000000000000001
 10
40.74182998480518
 20
4.059040510344508
 30
0.0
 10
39.60948821191114
 20
3.937141998620706
 30
0.0
 10
37.31524545755271
 20
3.690029071923173
 30
0.0
 10
34.91724439419822
 20
3.430629161754085
 30
0.0
 10
33.57963029266554
 20
3.28617039100558
 30
0.0
 10
33.26450171299744
 20
3.253040106642492
 30
0.0
 10
32.9957981720577
 20
3.212278789253769
 30
0.0
 10
32.75267149571809
 20
3.150567211404313
 30
0.0
 10
32.64801398022674
 20
3.11515039554157
 30
0.0
 10
32.60034066910423
 20
3.095924204151559
 30
0.0
  0
SPLINE
  5
193
330
1F
100
AcDbEntity
  8
Default
100
AcDbSpline
210
0.0
220
0.0
230
1.0
 70
    12
 71
     3
 72
    14
 73
    10
 74
     0
 42
0.0000000001
 43
0.0000000001
 40
-0.4850350027423287
 40
-0.4850350027423287
 40
-0.4850350027423287
 40
-0.4850350027423287
 40
-0.2503328357454272
 40
-0.2049997550560486
 40
-0.1554078339195929
 40
-0.0419729879099941
 40
-0.0419729879099941
 40
-0.0419729879099941
 40
0.0
 40
0.0
 40
0.0
 40
0.0
 10
32.60034066910423
 20
3.095924204151559
 30
0.0
 41
1.0
 10
32.528752551715
 20
3.06705339963289
 30
0.0
 41
1.0
 10
32.42331119647116
 20
3.016166851016364
 30
0.0
 41
1.0
 10
32.35141200148576
 20
2.932110820384092
 30
0.0
 41
1.0
 10
32.31622134300277
 20
2.872078965798318
 30
0.0
 41
1.0
 10
32.29579315024961
 20
2.821506951458777
 30
0.0
 41
1.0
 10
32.28401774542542
 20
2.78237710155552
 30
0.0
 41
1.0
 10
32.27862170323721
 20
2.768493375786194
 30
0.0
 41
0.8842711137923068
 10
32.26634481685517
 20
2.760058141746936
 30
0.0
 41
0.8842711137923068
 10
32.25144945744056
 20
2.76000000015854
 30
0.0
 41
1.0
  0
SPLINE
  5
194
330
1F
100
AcDbEntity
  8
Make2D visible lines
100
AcDbSpline
210
0.0
220
0.0
230
1.0
 70
     8
 71
     3
 72
    11
 73
     7
 74
     0
 42
0.0000000001
 43
0.0000000001
 40
0.0
 40
0.0
 40
0.0
 40
0.0
 40
7.085634484360607
 40
7.361795627002613
 40
7.606429217984398
 40
8.018050506220703
 40
8.018050506220703
 40
8.018050506220703
 40
8.018050506220703
 10
46.8877527922233
 20
3.874115775828577
 30
0.0
 10
49.24053348203658
 20
3.667069193534316
 30
0.0
 10
51.6854725752973
 20
3.456951130207616
 30
0.0
 10
54.21091831661785
 20
3.231811002775113
 30
0.0
 10
54.5170814383803
 20
3.174001529508094
 30
0.0
 10
54.73124967992756
 20
3.13160921158711
 30
0.0
 10
54.86124645485328
 20
3.08563051079437
 30
0.0
  0
SPLINE
  5
195
330
1F
100
AcDbEntity
  8
Make2D visible lines
100
AcDbSpline
210
0.0
220
0.0
230
1.0
 70
    12
 71
     3
 72
    12
 73
     8
 74
     0
 42
0.0000000001
 43
0.0000000001
 40
-1.0
 40
-1.0
 40
-1.0
 40
-1.0
 40
-0.5
 40
-0.5
 40
-0.25
 40
-0.25
 40
0.0
 40
0.0
 40
0.0
 40
0.0
 10
54.86124645485328
 20
3.08563051079437
 30
0.0
 41
1.0
 10
54.95360569284149
 20
3.054549965754353
 30
0.0
 41
1.0
 10
55.04043843381774
 20
3.018012276253865
 30
0.0
 41
1.0
 10
55.15450040350812
 20
2.947221946362584
 30
0.0
 41
1.0
 10
55.18978524161751
 20
2.920923717901369
 30
0.0
 41
1.0
 10
55.25150540159225
 20
2.85958884565809
 30
0.0
 41
1.0
 10
55.27821565778595
 20
2.824823681549516
 30
0.0
 41
1.0
 10
55.2962818742165
 20
2.781523030934368
 30
0.0
 41
1.0
  0
SPLINE
  5
196
330
1F
100
AcDbEntity
  8
Make2D visible lines
100
AcDbSpline
210
0.0
220
0.0
230
1.0
 70
    12
 71
     2
 72
     6
 73
     3
 74
     0
 42
0.0000000001
 43
0.0000000001
 40
0.0
 40
0.0
 40
0.0
 40
0.0411434641823458
 40
0.0411434641823458
 40
0.0411434641823458
 10
55.2962818742165
 20
2.781523030934368
 30
0.0
 41
1.0
 10
55.30526187167848
 20
2.759999999851287
 30
0.0
 41
0.832182746877927
 10
55.32858313282408
 20
2.760000000000002
 30
0.0
 41
1.0
  0
SPLINE
  5
197
330
1F
100
AcDbEntity
  8
Make2D visible lines
100
AcDbSpline
210
0.0
220
0.0
230
1.0
 70
    24
 71
     2
 72
     6
 73
     3
 74
     0
 42
0.0000000001
 43
0.0000000001
 40
-0.9827469620957527
 40
-0.9827469620957527
 40
-0.9827469620957527
 40
0.0
 40
0.0
 40
0.0
 10
41.22707574398305
 20
6.297402715026605
 30
0.0
 10
41.2356513936868
 20
6.788701357513297
 30
0.0
 10
41.24422704339055
 20
7.279999999999989
 30
0.0
  0
POLYLINE
  5
198
330
1F
100
AcDbEntity
  8
Make2D visible lines
100
AcDb2dPolyline
 66
     1
 10
0.0
 20
0.0
 30
0.0
  0
VERTEX
  5
199
330
198
100
AcDbEntity
  8
Make2D visible lines
100
AcDbVertex
100
AcDb2dVertex
 10
41.24422704339055
 20
7.279999999999989
 30
0.0
  0
VERTEX
  5
19A
330
198
100
AcDbEntity
  8
Make2D visible lines
100
AcDbVertex
100
AcDb2dVertex
 10
43.82422704338968
 20
7.279999999999992
 30
0.0
  0
SEQEND
  5
19B
330
198
100
AcDbEntity
  8
Make2D visible lines
  0
SPLINE
  5
19C
330
1F
100
AcDbEntity
  8
Make2D visible lines
100
AcDbSpline
210
0.0
220
0.0
230
1.0
 70
    24
 71
     2
 72
     6
 73
     3
 74
     0
 42
0.0000000001
 43
0.0000000001
 40
-0.4258449300514819
 40
-0.4258449300514819
 40
-0.4258449300514819
 40
0.0
 40
0.0
 40
0.0
 10
43.82422704338968
 20
7.279999999999992
 30
0.0
 10
43.82798730353385
 20
7.065134040521362
 30
0.0
 10
43.83174756367801
 20
6.850268081042731
 30
0.0
  0
SPLINE
  5
19D
330
1F
100
AcDbEntity
  8
Make2D visible lines
100
AcDbSpline
210
0.0
220
0.0
230
1.0
 70
    12
 71
     2
 72
     6
 73
     3
 74
     0
 42
0.0000000001
 43
0.0000000001
 40
0.0
 40
0.0
 40
0.0
 40
0.977584328121768
 40
0.977584328121768
 40
0.977584328121768
 10
43.83174756367801
 20
6.850268081042731
 30
0.0
 41
1.0
 10
43.83570005451622
 20
6.260934156416845
 30
0.0
 41
0.7698935221867936
 10
44.41393459345402
 20
6.155765846807277
 30
0.0
 41
1.0
  0
SPLINE
  5
19E
330
1F
100
AcDbEntity
  8
Make2D visible lines
100
AcDbSpline
210
0.0
220
0.0
230
1.0
 70
    24
 71
     2
 72
     6
 73
     3
 74
     0
 42
0.0000000001
 43
0.0000000001
 40
0.0
 40
0.0
 40
0.0
 40
11.14055117956391
 40
11.14055117956391
 40
11.14055117956391
 10
44.41393459345402
 20
6.155765846807277
 30
0.0
 10
49.90815904388703
 20
5.231414615036349
 30
0.0
 10
55.40238349432002
 20
4.307063383265421
 30
0.0
  0
SPLINE
  5
19F
330
1F
100
AcDbEntity
  8
Make2D visible lines
100
AcDbSpline
210
0.0
220
0.0
230
1.0
 70
     8
 71
     3
 72
    14
 73
    10
 74
     0
 42
0.0000000001
 43
0.0000000001
 40
0.0
 40
0.0
 40
0.0
 40
0.0
 40
0.2009292250050245
 40
0.3900776916751833
 40
0.738926480845994
 40
1.049164478402313
 40
1.137757166010446
 40
1.199819143043104
 40
1.855059888109911
 40
1.855059888109911
 40
1.855059888109911
 40
1.855059888109911
 10
55.40238349432002
 20
4.307063383265421
 30
0.0
 10
55.46910845621657
 20
4.296369501303224
 30
0.0
 10
55.59390528429078
 20
4.26335958837537
 30
0.0
 10
55.81816523025749
 20
4.152397479629055
 30
0.0
 10
55.99968407582755
 20
3.923038130909009
 30
0.0
 10
56.05247031095725
 20
3.67475121925238
 30
0.0
 10
56.06188503402196
 20
3.522097085215826
 30
0.0
 10
56.07069673014058
 20
3.25325305058155
 30
0.0
 10
56.08029836832762
 20
3.014683261766395
 30
0.0
 10
56.0879063832672
 20
2.796273513372244
 30
0.0
  0
SPLINE
  5
1A0
330
1F
100
AcDbEntity
  8
Make2D visible lines
100
AcDbSpline
210
0.0
220
0.0
230
1.0
 70
    12
 71
     2
 72
     8
 73
     5
 74
     0
 42
0.0000000001
 43
0.0000000001
 40
0.0
 40
0.0
 40
0.0
 40
0.0281258329950497
 40
0.0281258329950497
 40
0.0562516659900993
 40
0.0562516659900993
 40
0.0562516659900993
 10
56.0879063832672
 20
2.796273513372244
 30
0.0
 41
1.0
 10
56.08844751664589
 20
2.781411379274648
 30
0.0
 41
0.9203594822606724
 10
56.07812452944997
 20
2.770705689636832
 30
0.0
 41
1.0
 10
56.06780154225404
 20
2.759999999999016
 30
0.0
 41
0.9203594822606724
 10
56.05292956003012
 20
2.760000000000001
 30
0.0
 41
1.0
  0
SPLINE
  5
1A1
330
1F
100
AcDbEntity
  8
Make2D visible lines - Tangent
100
AcDbSpline
210
0.0
220
0.0
230
1.0
 70
    12
 71
     2
 72
     6
 73
     3
 74
     0
 42
0.0000000001
 43
0.0000000001
 40
0.0
 40
0.0
 40
0.0
 40
0.6213186892081751
 40
0.6213186892081751
 40
0.6213186892081751
 10
0.3924690982870231
 20
43.1972765193682
 30
0.0
 41
1.0
 10
0.3952203296437779
 20
42.8020493937965
 30
0.0
 41
0.7078628796196968
 10
-0.000000004334165
 20
42.798452496243
 30
0.0
 41
1.0
  0
SPLINE
  5
1A2
330
1F
100
AcDbEntity
  8
Make2D visible lines - Tangent
100
AcDbSpline
210
0.0
220
0.0
230
1.0
 70
    12
 71
     2
 72
     6
 73
     3
 74
     0
 42
0.0000000001
 43
0.0000000001
 40
0.0
 40
0.0
 40
0.0
 40
0.6213184385489916
 40
0.6213184385489916
 40
0.6213184385489916
 10
-0.000000004334165
 20
42.798452496243
 30
0.0
 41
1.0
 10
-0.3952197604127546
 20
42.80204996323747
 30
0.0
 41
0.7078638982414072
 10
-0.3924690982869414
 20
43.19727652006465
 30
0.0
 41
1.0
  0
SPLINE
  5
1A3
330
1F
100
AcDbEntity
  8
Make2D visible lines
100
AcDbSpline
210
0.0
220
0.0
230
1.0
 70
    24
 71
     2
 72
     6
 73
     3
 74
     0
 42
0.0000000001
 43
0.0000000001
 40
0.0
 40
0.0
 40
0.0
 40
0.0653749093108864
 40
0.0653749093108864
 40
0.0653749093108864
 10
0.463000000000001
 20
43.63447557658008
 30
0.0
 10
0.4303125453445578
 20
43.63447557658008
 30
0.0
 10
0.3976250906891146
 20
43.63447557658008
 30
0.0
  0
SPLINE
  5
1A4
330
1F
100
AcDbEntity
  8
Make2D visible lines
100
AcDbSpline
210
0.0
220
0.0
230
1.0
 70
    24
 71
     2
 72
     6
 73
     3
 74
     0
 42
0.0000000001
 43
0.0000000001
 40
0.0
 40
0.0
 40
0.0
 40
0.0653749093108864
 40
0.0653749093108864
 40
0.0653749093108864
 10
-0.463000000000001
 20
43.63447557658008
 30
0.0
 10
-0.4303125453445578
 20
43.63447557658008
 30
0.0
 10
-0.3976250906891146
 20
43.63447557658008
 30
0.0
  0
SPLINE
  5
1A5
330
1F
100
AcDbEntity
  8
Make2D visible lines
100
AcDbSpline
210
0.0
220
0.0
230
1.0
 70
    24
 71
     2
 72
     6
 73
     3
 74
     0
 42
0.0000000001
 43
0.0000000001
 40
0.0
 40
0.0
 40
0.0
 40
0.071889705667429
 40
0.071889705667429
 40
0.071889705667429
 10
-7.345613088967426
 20
68.07566176504008
 30
0.0
 10
-7.309668236133712
 20
68.07566176504008
 30
0.0
 10
-7.273723383299997
 20
68.07566176504008
 30
0.0
  0
SPLINE
  5
1A6
330
1F
100
AcDbEntity
  8
Make2D visible lines
100
AcDbSpline
210
0.0
220
0.0
230
1.0
 70
    24
 71
     2
 72
     6
 73
     3
 74
     0
 42
0.0000000001
 43
0.0000000001
 40
0.0
 40
0.0
 40
0.0
 40
0.0653749093108864
 40
0.0653749093108864
 40
0.0653749093108864
 10
-7.273723383299997
 20
67.44566176504009
 30
0.0
 10
-7.306410837955441
 20
67.44566176504009
 30
0.0
 10
-7.339098292610884
 20
67.44566176504009
 30
0.0
  0
SPLINE
  5
1A7
330
1F
100
AcDbEntity
  8
Make2D visible lines
100
AcDbSpline
210
0.0
220
0.0
230
1.0
 70
    24
 71
     2
 72
     6
 73
     3
 74
     0
 42
0.0000000001
 43
0.0000000001
 40
0.0
 40
0.0
 40
0.0
 40
0.071889705667429
 40
0.071889705667429
 40
0.071889705667429
 10
-8.12783367763257
 20
68.07566176504008
 30
0.0
 10
-8.163778530466285
 20
68.07566176504008
 30
0.0
 10
-8.1997233833
 20
68.07566176504008
 30
0.0
  0
SPLINE
  5
1A8
330
1F
100
AcDbEntity
  8
Make2D visible lines
100
AcDbSpline
210
0.0
220
0.0
230
1.0
 70
    24
 71
     2
 72
     6
 73
     3
 74
     0
 42
0.0000000001
 43
0.0000000001
 40
0.0
 40
0.0
 40
0.0
 40
0.0653749093108864
 40
0.0653749093108864
 40
0.0653749093108864
 10
-8.1997233833
 20
67.44566176504009
 30
0.0
 10
-8.167035928644557
 20
67.44566176504009
 30
0.0
 10
-8.134348473989114
 20
67.44566176504009
 30
0.0
  0
SPLINE
  5
1A9
330
1F
100
AcDbEntity
  8
Make2D visible lines
100
AcDbSpline
210
0.0
220
0.0
230
1.0
 70
    24
 71
     2
 72
     6
 73
     3
 74
     0
 42
0.0000000001
 43
0.0000000001
 40
0.0
 40
0.0
 40
0.0
 40
0.0653749093108864
 40
0.0653749093108864
 40
0.0653749093108864
 10
7.273723383299997
 20
67.44566176504009
 30
0.0
 10
7.306410837955441
 20
67.44566176504009
 30
0.0
 10
7.339098292610884
 20
67.44566176504009
 30
0.0
  0
SPLINE
  5
1AA
330
1F
100
AcDbEntity
  8
Make2D visible lines
100
AcDbSpline
210
0.0
220
0.0
230
1.0
 70
    24
 71
     2
 72
     6
 73
     3
 74
     0
 42
0.0000000001
 43
0.0000000001
 40
0.0
 40
0.0
 40
0.0
 40
0.071889705667429
 40
0.071889705667429
 40
0.071889705667429
 10
7.345613088967426
 20
68.07566176504008
 30
0.0
 10
7.309668236133712
 20
68.07566176504008
 30
0.0
 10
7.273723383299997
 20
68.07566176504008
 30
0.0
  0
SPLINE
  5
1AB
330
1F
100
AcDbEntity
  8
Make2D visible lines
100
AcDbSpline
210
0.0
220
0.0
230
1.0
 70
    24
 71
     2
 72
     6
 73
     3
 74
     0
 42
0.0000000001
 43
0.0000000001
 40
0.0
 40
0.0
 40
0.0
 40
0.0653749093108864
 40
0.0653749093108864
 40
0.0653749093108864
 10
8.1997233833
 20
67.44566176504009
 30
0.0
 10
8.167035928644557
 20
67.44566176504009
 30
0.0
 10
8.134348473989114
 20
67.44566176504009
 30
0.0
  0
SPLINE
  5
1AC
330
1F
100
AcDbEntity
  8
Make2D visible lines
100
AcDbSpline
210
0.0
220
0.0
230
1.0
 70
    24
 71
     2
 72
     6
 73
     3
 74
     0
 42
0.0000000001
 43
0.0000000001
 40
0.0
 40
0.0
 40
0.0
 40
0.071889705667429
 40
0.071889705667429
 40
0.071889705667429
 10
8.12783367763257
 20
68.07566176504008
 30
0.0
 10
8.163778530466285
 20
68.07566176504008
 30
0.0
 10
8.1997233833
 20
68.07566176504008
 30
0.0
  0
SPLINE
  5
1AD
330
1F
100
AcDbEntity
  8
Default
100
AcDbSpline
210
0.0
220
0.0
230
1.0
 70
    12
 71
     2
 72
     6
 73
     3
 74
     0
 42
0.0000000001
 43
0.0000000001
 40
0.0
 40
0.0
 40
0.0
 40
0.0062767111195914
 40
0.0062767111195914
 40
0.0062767111195914
 10
9.171763833785525
 20
16.93675869780075
 30
0.0
 41
1.0
 10
9.174855640030113
 20
16.93622017018368
 30
0.0
 41
0.9999998302888669
 10
9.177946816684054
 20
16.93567804036294
 30
0.0
 41
1.0
  0
SPLINE
  5
1AE
330
1F
100
AcDbEntity
  8
Default
100
AcDbSpline
210
0.0
220
0.0
230
1.0
 70
     8
 71
     3
 72
     9
 73
     5
 74
     0
 42
0.0000000001
 43
0.0000000001
 40
-2.0
 40
-2.0
 40
-2.0
 40
-2.0
 40
-1.0
 40
0.0
 40
0.0
 40
0.0
 40
0.0
 10
9.604220261287901
 20
16.70724466552762
 30
0.0
 10
9.572224153551286
 20
16.78772452100707
 30
0.0
 10
9.429293418904885
 20
16.89314584567131
 30
0.0
 10
9.26078954320536
 20
16.91964530805723
 30
0.0
 10
9.175050173684811
 20
16.93613640539182
 30
0.0
  0
SPLINE
  5
1AF
330
1F
100
AcDbEntity
  8
Default
100
AcDbSpline
210
0.0
220
0.0
230
1.0
 70
     8
 71
     3
 72
     9
 73
     5
 74
     0
 42
0.0000000001
 43
0.0000000001
 40
-2.0
 40
-2.0
 40
-2.0
 40
-2.0
 40
-1.0
 40
0.0
 40
0.0
 40
0.0
 40
0.0
 10
9.175050173684811
 20
16.93613640539182
 30
0.0
 10
7.651398293281758
 20
17.11329278483194
 30
0.0
 10
4.589326102529026
 20
17.19345608063329
 30
0.0
 10
1.530386997687233
 20
17.23409473033252
 30
0.0
 10
0.0000023151904784
 20
17.23235226834758
 30
0.0
  0
SPLINE
  5
1B0
330
1F
100
AcDbEntity
  8
Default
100
AcDbSpline
210
0.0
220
0.0
230
1.0
 70
     8
 71
     3
 72
     9
 73
     5
 74
     0
 42
0.0000000001
 43
0.0000000001
 40
0.0
 40
0.0
 40
0.0
 40
0.0
 40
1.0
 40
2.0
 40
2.0
 40
2.0
 40
2.0
 10
0.0000023151904784
 20
17.23235226834758
 30
0.0
 10
-1.530382367306276
 20
17.23409473033252
 30
0.0
 10
-4.589321472148069
 20
17.19345608063329
 30
0.0
 10
-7.651393662900801
 20
17.11329278483194
 30
0.0
 10
-9.175047858494333
 20
16.93613640539182
 30
0.0
  0
SPLINE
  5
1B1
330
1F
100
AcDbEntity
  8
Default
100
AcDbSpline
210
0.0
220
0.0
230
1.0
 70
     8
 71
     3
 72
     9
 73
     5
 74
     0
 42
0.0000000001
 43
0.0000000001
 40
0.0
 40
0.0
 40
0.0
 40
0.0
 40
1.0
 40
2.0
 40
2.0
 40
2.0
 40
2.0
 10
-9.175047858494333
 20
16.93613640539182
 30
0.0
 10
-9.26078954320536
 20
16.91964530805723
 30
0.0
 10
-9.429293418904885
 20
16.89314584567131
 30
0.0
 10
-9.572224153551286
 20
16.78772452100707
 30
0.0
 10
-9.604220261287901
 20
16.70724466552762
 30
0.0
  0
SPLINE
  5
1B2
330
1F
100
AcDbEntity
  8
Default
100
AcDbSpline
210
0.0
220
0.0
230
1.0
 70
     8
 71
     3
 72
    19
 73
    15
 74
     0
 42
0.0000000001
 43
0.0000000001
 40
0.0
 40
0.0
 40
0.0
 40
0.0
 40
1.0
 40
2.0
 40
3.0
 40
4.0
 40
5.0
 40
6.0
 40
7.0
 40
8.0
 40
9.0
 40
10.0
 40
11.0
 40
12.0
 40
12.0
 40
12.0
 40
12.0
 10
6.958906110750879
 20
15.67744501098857
 30
0.0
 10
7.307460041700423
 20
15.69329962202048
 30
0.0
 10
8.007593944657284
 20
15.7801854086934
 30
0.0
 10
8.975535226565796
 20
16.21315544762948
 30
0.0
 10
9.810092025880586
 20
16.85378770513004
 30
0.0
 10
10.54660300647908
 20
17.60304275124305
 30
0.0
 10
11.2076070372216
 20
18.41849337026528
 30
0.0
 10
11.79497661479078
 20
19.2883661732982
 30
0.0
 10
12.32974089022642
 20
20.19075151710396
 30
0.0
 10
12.83975302360539
 20
21.10729250491573
 30
0.0
 10
13.31880789449629
 20
22.04048022338406
 30
0.0
 10
13.7572771456274
 20
22.99351370894244
 30
0.0
 10
14.14649645479365
 20
23.96786941884178
 30
0.0
 10
14.36134946581475
 20
24.63379157918772
 30
0.0
 10
14.45179637492505
 20
24.97152693069524
 30
0.0
  0
SPLINE
  5
1B3
330
1F
100
AcDbEntity
  8
Default
100
AcDbSpline
210
0.0
220
0.0
230
1.0
 70
     8
 71
     3
 72
    14
 73
    10
 74
     0
 42
0.0000000001
 43
0.0000000001
 40
0.0
 40
0.0
 40
0.0
 40
0.0
 40
0.2972333945256139
 40
1.430728961340864
 40
2.536560091418389
 40
6.928776029130371
 40
11.60768023018056
 40
13.57566961102748
 40
13.88163335639197
 40
13.88163335639197
 40
13.88163335639197
 40
13.88163335639197
 10
-6.940602394879651
 20
15.67678675986489
 30
0.0
 10
-6.841535276898275
 20
15.67294314355036
 30
0.0
 10
-6.364664973253253
 20
15.67800535411385
 30
0.0
 10
-5.519279471112133
 20
15.69484871711512
 30
0.0
 10
-3.308748512948441
 20
15.70143181415884
 30
0.0
 10
0.0835012345176658
 20
15.66187950196739
 30
0.0
 10
3.76322851904016
 20
15.7084546563428
 30
0.0
 10
6.080774556591885
 20
15.68736709900593
 30
0.0
 10
6.838616313795361
 20
15.67112646782811
 30
0.0
 10
6.940611074294017
 20
15.67678669826132
 30
0.0
  0
ARC
  5
1B4
330
1F
100
AcDbEntity
  8
Default
100
AcDbCircle
 10
-15.71779764340458
 20
78.09812261244534
 30
0.0
 40
37.94682384516162
100
AcDbArc
 50
307.4872399680636
 51
311.9163693614824
  0
SPLINE
  5
1B5
330
1F
100
AcDbEntity
  8
Default
100
AcDbSpline
210
0.0
220
0.0
230
1.0
 70
     8
 71
     3
 72
    19
 73
    15
 74
     0
 42
0.0000000001
 43
0.0000000001
 40
0.0000000000000001
 40
0.0000000000000001
 40
0.0000000000000001
 40
0.0000000000000001
 40
1.0
 40
2.0
 40
3.0
 40
4.0
 40
5.0
 40
6.0
 40
7.0
 40
8.0
 40
9.0
 40
10.0
 40
11.0
 40
12.0
 40
12.0
 40
12.0
 40
12.0
 10
9.632395026518507
 20
49.86110486032597
 30
0.0
 10
9.865842596379942
 20
50.07068580567451
 30
0.0
 10
10.32880726081092
 20
50.49422431043067
 30
0.0
 10
11.00760912944689
 20
51.14634096535799
 30
0.0
 10
11.66206858020471
 20
51.8229062313874
 30
0.0
 10
12.29829202509504
 20
52.51651491607883
 30
0.0
 10
12.93221952165583
 20
53.21205297726783
 30
0.0
 10
13.53505783928043
 20
53.93611241981343
 30
0.0
 10
14.08129958365742
 20
54.7010059499928
 30
0.0
 10
14.56641453976961
 20
55.51708878984208
 30
0.0
 10
14.75595437087734
 20
56.45060494337491
 30
0.0
 10
14.72977840034397
 20
57.39509938805573
 30
0.0
 10
14.54403359836799
 20
58.32052301952642
 30
0.0
 10
14.34053479880806
 20
58.91522063956218
 30
0.0
 10
14.22301667231557
 20
59.20607531758954
 30
0.0
  0
SPLINE
  5
1B6
330
1F
100
AcDbEntity
  8
Make2D visible lines
100
AcDbSpline
210
0.0
220
0.0
230
1.0
 70
    24
 71
     2
 72
     6
 73
     3
 74
     0
 42
0.0000000001
 43
0.0000000001
 40
2.467690004424522
 40
2.467690004424522
 40
2.467690004424522
 40
4.033400170063998
 40
4.033400170063998
 40
4.033400170063998
 10
43.82422704339012
 20
8.886486537980232
 30
0.0
 10
43.82422704339012
 20
8.103243268990113
 30
0.0
 10
43.82422704339012
 20
7.319999999999991
 30
0.0
  0
POLYLINE
  5
1B7
330
1F
100
AcDbEntity
  8
Make2D visible lines
100
AcDb2dPolyline
 66
     1
 10
0.0
 20
0.0
 30
0.0
  0
VERTEX
  5
1B8
330
1B7
100
AcDbEntity
  8
Make2D visible lines
100
AcDbVertex
100
AcDb2dVertex
 10
43.82422704339012
 20
7.319999999999991
 30
0.0
  0
VERTEX
  5
1B9
330
1B7
100
AcDbEntity
  8
Make2D visible lines
100
AcDbVertex
100
AcDb2dVertex
 10
41.24422704339013
 20
7.319999999999991
 30
0.0
  0
SEQEND
  5
1BA
330
1B7
100
AcDbEntity
  8
Make2D visible lines
  0
LINE
  5
1BB
330
1F
100
AcDbEntity
  8
Make2D visible lines
100
AcDbLine
 10
41.24422704339013
 20
7.319999999999991
 30
0.0
 11
41.24422704339013
 21
11.35540017006399
 31
0.0
  0
SPLINE
  5
1BC
330
1F
100
AcDbEntity
  8
Make2D visible lines
100
AcDbSpline
210
0.0
220
0.0
230
1.0
 70
    12
 71
     2
 72
     6
 73
     3
 74
     0
 42
0.0000000001
 43
0.0000000001
 40
0.0
 40
0.0
 40
0.0
 40
0.6322767633307975
 40
0.6322767633307975
 40
0.6322767633307975
 10
41.24422704339013
 20
11.35540017006399
 30
0.0
 41
1.0
 10
41.24420632098347
 20
11.69493742103062
 30
0.0
 41
0.8997633435225391
 10
40.9775302520976
 20
11.90517132925476
 30
0.0
 41
1.0
  0
SPLINE
  5
1BD
330
1F
100
AcDbEntity
  8
Make2D visible lines
100
AcDbSpline
210
0.0
220
0.0
230
1.0
 70
    24
 71
     2
 72
     6
 73
     3
 74
     0
 42
0.0000000001
 43
0.0000000001
 40
0.0
 40
0.0
 40
0.0
 40
0.3825839084935126
 40
0.3825839084935126
 40
0.3825839084935126
 10
40.9775302520976
 20
11.90517132925476
 30
0.0
 10
40.82716110473476
 20
12.02367025876728
 30
0.0
 10
40.67679195737193
 20
12.14216918827981
 30
0.0
  0
SPLINE
  5
1BE
330
1F
100
AcDbEntity
  8
Make2D visible lines
100
AcDbSpline
210
0.0
220
0.0
230
1.0
 70
    24
 71
     2
 72
     6
 73
     3
 74
     0
 42
0.0000000001
 43
0.0000000001
 40
0.4621164385142389
 40
0.4621164385142389
 40
0.4621164385142389
 40
0.8793882784309069
 40
0.8793882784309069
 40
0.8793882784309069
 10
44.41892932257056
 20
12.16365719469478
 30
0.0
 10
44.25492657860148
 20
12.03441426197148
 30
0.0
 10
44.0909238346324
 20
11.90517132924818
 30
0.0
  0
SPLINE
  5
1BF
330
1F
100
AcDbEntity
  8
Make2D visible lines
100
AcDbSpline
210
0.0
220
0.0
230
1.0
 70
    12
 71
     2
 72
     6
 73
     3
 74
     0
 42
0.0000000001
 43
0.0000000001
 40
0.0
 40
0.0
 40
0.0
 40
0.6322790145841365
 40
0.6322790145841365
 40
0.6322790145841365
 10
44.0909238346324
 20
11.90517132924818
 30
0.0
 41
1.0
 10
43.82423984415657
 20
11.69494126350766
 30
0.0
 41
0.8997531621452598
 10
43.82422704339012
 20
11.35540017006399
 30
0.0
 41
1.0
  0
SPLINE
  5
1C0
330
1F
100
AcDbEntity
  8
Make2D visible lines
100
AcDbSpline
210
0.0
220
0.0
230
1.0
 70
    24
 71
     2
 72
     6
 73
     3
 74
     0
 42
0.0000000001
 43
0.0000000001
 40
0.0
 40
0.0
 40
0.0
 40
0.3018629644594117
 40
0.3018629644594117
 40
0.3018629644594117
 10
43.82422704339012
 20
11.35540017006399
 30
0.0
 10
43.82422704339012
 20
11.20439384701717
 30
0.0
 10
43.82422704339012
 20
11.05338752397036
 30
0.0
  0
SPLINE
  5
1C1
330
1F
100
AcDbEntity
  8
Make2D visible lines
100
AcDbSpline
210
0.0
220
0.0
230
1.0
 70
    24
 71
     2
 72
     6
 73
     3
 74
     0
 42
0.0000000001
 43
0.0000000001
 40
0.0
 40
0.0
 40
0.0
 40
0.4463586863427782
 40
0.4463586863427782
 40
0.4463586863427782
 10
-1.289999999999999
 20
10.90904148372121
 30
0.0
 10
-1.289999999999999
 20
11.1322208268926
 30
0.0
 10
-1.289999999999999
 20
11.35540017006399
 30
0.0
  0
SPLINE
  5
1C2
330
1F
100
AcDbEntity
  8
Make2D visible lines
100
AcDbSpline
210
0.0
220
0.0
230
1.0
 70
    12
 71
     2
 72
     6
 73
     3
 74
     0
 42
0.0000000001
 43
0.0000000001
 40
0.0
 40
0.0
 40
0.0
 40
0.6322767633307975
 40
0.6322767633307975
 40
0.6322767633307975
 10
-1.289999999999999
 20
11.35540017006399
 30
0.0
 41
1.0
 10
-1.290020722406662
 20
11.69493742103062
 30
0.0
 41
0.8997633435225391
 10
-1.556696791292524
 20
11.90517132925476
 30
0.0
 41
1.0
  0
SPLINE
  5
1C3
330
1F
100
AcDbEntity
  8
Make2D visible lines
100
AcDbSpline
210
0.0
220
0.0
230
1.0
 70
    24
 71
     2
 72
     6
 73
     3
 74
     0
 42
0.0000000001
 43
0.0000000001
 40
0.0
 40
0.0
 40
0.0
 40
0.3970976963416439
 40
0.3970976963416439
 40
0.3970976963416439
 10
-1.556696791292524
 20
11.90517132925476
 30
0.0
 10
-1.712649554672637
 20
12.02807044678816
 30
0.0
 10
-1.86860231805275
 20
12.15096956432155
 30
0.0
  0
SPLINE
  5
1C4
330
1F
100
AcDbEntity
  8
Make2D visible lines
100
AcDbSpline
210
0.0
220
0.0
230
1.0
 70
    24
 71
     2
 72
     6
 73
     3
 74
     0
 42
0.0000000001
 43
0.0000000001
 40
0.4822905820846372
 40
0.4822905820846372
 40
0.4822905820846372
 40
0.8793882784309069
 40
0.8793882784309069
 40
0.8793882784309069
 10
1.868602318028823
 20
12.15096956432081
 30
0.0
 10
1.712649554635548
 20
12.02807044678449
 30
0.0
 10
1.556696791242274
 20
11.90517132924818
 30
0.0
  0
SPLINE
  5
1C5
330
1F
100
AcDbEntity
  8
Make2D visible lines
100
AcDbSpline
210
0.0
220
0.0
230
1.0
 70
    12
 71
     2
 72
     6
 73
     3
 74
     0
 42
0.0000000001
 43
0.0000000001
 40
0.0
 40
0.0
 40
0.0
 40
0.6322790145841365
 40
0.6322790145841365
 40
0.6322790145841365
 10
1.556696791242274
 20
11.90517132924818
 30
0.0
 41
1.0
 10
1.290012800766439
 20
11.69494126350766
 30
0.0
 41
0.8997531621452598
 10
1.289999999999999
 20
11.35540017006399
 30
0.0
 41
1.0
  0
SPLINE
  5
1C6
330
1F
100
AcDbEntity
  8
Make2D visible lines
100
AcDbSpline
210
0.0
220
0.0
230
1.0
 70
    24
 71
     2
 72
     6
 73
     3
 74
     0
 42
0.0000000001
 43
0.0000000001
 40
0.0
 40
0.0
 40
0.0
 40
4.033400170063998
 40
4.033400170063998
 40
4.033400170063998
 10
1.289999999999999
 20
11.35540017006399
 30
0.0
 10
1.289999999999999
 20
9.33770008503199
 30
0.0
 10
1.289999999999999
 20
7.319999999999991
 30
0.0
  0
SPLINE
  5
1C7
330
1F
100
AcDbEntity
  8
Make2D visible lines
100
AcDbSpline
210
0.0
220
0.0
230
1.0
 70
    24
 71
     2
 72
     6
 73
     3
 74
     0
 42
0.0000000001
 43
0.0000000001
 40
-2.579999999999997
 40
-2.579999999999997
 40
-2.579999999999997
 40
0.0
 40
0.0
 40
0.0
 10
1.289999999999999
 20
7.319999999999991
 30
0.0
 10
0.0
 20
7.319999999999991
 30
0.0
 10
-1.289999999999999
 20
7.319999999999991
 30
0.0
  0
SPLINE
  5
1C8
330
1F
100
AcDbEntity
  8
Make2D visible lines
100
AcDbSpline
210
0.0
220
0.0
230
1.0
 70
    24
 71
     2
 72
     6
 73
     3
 74
     0
 42
0.0000000001
 43
0.0000000001
 40
0.0
 40
0.0
 40
0.0
 40
1.245843365086012
 40
1.245843365086012
 40
1.245843365086012
 10
-1.289999999999999
 20
7.319999999999991
 30
0.0
 10
-1.289999999999999
 20
7.943921682542997
 30
0.0
 10
-1.289999999999999
 20
8.567843365086002
 30
0.0
  0
ARC
  5
1C9
330
1F
100
AcDbEntity
  8
Default
100
AcDbCircle
 10
-3515557.381956695
 20
51.73939992958469
 30
0.0
 40
3515570.294238132
100
AcDbArc
 50
0.0000012526123369
 51
0.0000051312668694
  0
SPLINE
  5
1CA
330
1F
100
AcDbEntity
  8
Default
100
AcDbSpline
210
0.0
220
0.0
230
1.0
 70
    12
 71
     2
 72
     6
 73
     3
 74
     0
 42
0.0000000001
 43
0.0000000001
 40
0.0
 40
0.0
 40
0.0
 40
0.0784842030870699
 40
0.0784842030870699
 40
0.0784842030870699
 10
12.91228143624419
 20
51.81625806856267
 30
0.0
 41
1.0
 10
12.91224520993832
 20
51.76629425582779
 30
0.0
 41
0.7071217743558633
 10
12.86228139572961
 20
51.76632795081765
 30
0.0
 41
1.0
  0
POLYLINE
  5
1CB
330
1F
100
AcDbEntity
  8
Default
100
AcDb2dPolyline
 66
     1
 10
0.0
 20
0.0
 30
0.0
  0
VERTEX
  5
1CC
330
1CB
100
AcDbEntity
  8
Default
100
AcDbVertex
100
AcDb2dVertex
 10
12.86228139572961
 20
51.76632795081765
 30
0.0
  0
VERTEX
  5
1CD
330
1CB
100
AcDbEntity
  8
Default
100
AcDbVertex
100
AcDb2dVertex
 10
12.65498033950505
 20
51.76632795081765
 30
0.0
  0
SEQEND
  5
1CE
330
1CB
100
AcDbEntity
  8
Default
  0
POLYLINE
  5
1CF
330
1F
100
AcDbEntity
  8
Default
100
AcDb2dPolyline
 66
     1
 10
0.0
 20
0.0
 30
0.0
  0
VERTEX
  5
1D0
330
1CF
100
AcDbEntity
  8
Default
100
AcDbVertex
100
AcDb2dVertex
 10
7.273723383299996
 20
67.33492268610736
 30
0.0
  0
VERTEX
  5
1D1
330
1CF
100
AcDbEntity
  8
Default
100
AcDbVertex
100
AcDb2dVertex
 10
7.273723383299997
 20
68.97066176220008
 30
0.0
  0
SEQEND
  5
1D2
330
1CF
100
AcDbEntity
  8
Default
  0
SPLINE
  5
1D3
330
1F
100
AcDbEntity
  8
Default
100
AcDbSpline
210
0.0
220
0.0
230
1.0
 70
    12
 71
     2
 72
     6
 73
     3
 74
     0
 42
0.0000000001
 43
0.0000000001
 40
0.0
 40
0.0
 40
0.0
 40
0.109941564851661
 40
0.109941564851661
 40
0.109941564851661
 10
7.273723383299997
 20
68.97066176220008
 30
0.0
 41
1.0
 10
7.273690348845307
 20
69.04062872774674
 30
0.0
 41
0.7074405726109262
 10
7.203723383299997
 20
69.04066176504007
 30
0.0
 41
1.0
  0
SPLINE
  5
1D4
330
1F
100
AcDbEntity
  8
Default
100
AcDbSpline
210
0.0
220
0.0
230
1.0
 70
    24
 71
     2
 72
     6
 73
     3
 74
     0
 42
0.0000000001
 43
0.0000000001
 40
0.0
 40
0.0
 40
0.0
 40
0.3520000000000003
 40
0.3520000000000003
 40
0.3520000000000003
 10
7.203723383299997
 20
69.04066176504007
 30
0.0
 10
7.027723383299997
 20
69.04066176504008
 30
0.0
 10
6.851723383299997
 20
69.04066176504008
 30
0.0
  0
SPLINE
  5
1D5
330
1F
100
AcDbEntity
  8
Default
100
AcDbSpline
210
0.0
220
0.0
230
1.0
 70
    12
 71
     2
 72
     6
 73
     3
 74
     0
 42
0.0000000001
 43
0.0000000001
 40
0.0
 40
0.0
 40
0.0
 40
0.2356186331260159
 40
0.2356186331260159
 40
0.2356186331260159
 10
6.851723383299997
 20
69.04066176504008
 30
0.0
 41
1.0
 10
6.701725288141643
 20
69.04065985726648
 30
0.0
 41
0.7071157676638842
 10
6.701723383299997
 20
68.89066176210808
 30
0.0
 41
1.0
  0
POLYLINE
  5
1D6
330
1F
100
AcDbEntity
  8
Default
100
AcDb2dPolyline
 66
     1
 10
0.0
 20
0.0
 30
0.0
  0
VERTEX
  5
1D7
330
1D6
100
AcDbEntity
  8
Default
100
AcDbVertex
100
AcDb2dVertex
 10
6.701723383299997
 20
68.89066176210808
 30
0.0
  0
VERTEX
  5
1D8
330
1D6
100
AcDbEntity
  8
Default
100
AcDbVertex
100
AcDb2dVertex
 10
6.701723383299997
 20
67.5898997698817
 30
0.0
  0
SEQEND
  5
1D9
330
1D6
100
AcDbEntity
  8
Default
  0
ARC
  5
1DA
330
1F
100
AcDbEntity
  8
Make2D visible lines - Tangent
100
AcDbCircle
 10
-3515562.163514707
 20
66.4555223065027
 30
0.0
 40
3515570.294238132
100
AcDbArc
 50
0.000008857163335
 51
0.0000097923776537
  0
LINE
  5
1DB
330
1F
100
AcDbEntity
  8
Make2D visible lines - Tangent
100
AcDbLine
 10
8.130723372410607
 20
67.05636570393261
 30
0.0
 11
8.130723029454002
 21
68.98772125861458
 31
0.0
  0
SPLINE
  5
1DC
330
1F
100
AcDbEntity
  8
Make2D visible lines - Tangent
100
AcDbSpline
210
0.0
220
0.0
230
1.0
 70
    12
 71
     2
 72
     6
 73
     3
 74
     0
 42
0.0000000001
 43
0.0000000001
 40
0.0
 40
0.0
 40
0.0
 40
0.0784456575506041
 40
0.0784456575506041
 40
0.0784456575506041
 10
8.130723029454002
 20
68.98772125861458
 30
0.0
 41
1.0
 10
8.130663353121165
 20
69.03766122826742
 30
0.0
 41
0.7071077818591103
 10
8.080723383299668
 20
69.03760170814118
 30
0.0
 41
1.0
  0
SPLINE
  5
1DD
330
1F
100
AcDbEntity
  8
Make2D visible lines - Tangent
100
AcDbSpline
210
0.0
220
0.0
230
1.0
 70
    12
 71
     2
 72
     6
 73
     3
 74
     0
 42
0.0000000001
 43
0.0000000001
 40
0.0
 40
0.0
 40
0.0
 40
0.0351460068279919
 40
0.0351460068279919
 40
0.0351460068279919
 10
8.080723383299668
 20
69.03760170814118
 30
0.0
 41
1.0
 10
8.063347303627186
 20
69.04076911259055
 30
0.0
 41
0.9924246250463485
 10
8.045723383296234
 20
69.03960376804986
 30
0.0
 41
1.0
  0
SPLINE
  5
1DE
330
1F
100
AcDbEntity
  8
Make2D visible lines - Tangent
100
AcDbSpline
210
0.0
220
0.0
230
1.0
 70
    24
 71
     2
 72
     6
 73
     3
 74
     0
 42
0.0000000001
 43
0.0000000001
 40
-0.6179999945348698
 40
-0.6179999945348698
 40
-0.6179999945348698
 40
0.0
 40
0.0
 40
0.0
 10
8.045723383296234
 20
69.03960376804986
 30
0.0
 10
7.7367233860288
 20
69.03960376804982
 30
0.0
 10
7.427723388761365
 20
69.03960376804977
 30
0.0
  0
SPLINE
  5
1DF
330
1F
100
AcDbEntity
  8
Make2D visible lines - Tangent
100
AcDbSpline
210
0.0
220
0.0
230
1.0
 70
    12
 71
     2
 72
     6
 73
     3
 74
     0
 42
0.0000000001
 43
0.0000000001
 40
0.0
 40
0.0
 40
0.0
 40
0.0351460122197656
 40
0.0351460122197656
 40
0.0351460122197656
 10
7.427723388761365
 20
69.03960376804977
 30
0.0
 41
1.0
 10
7.410099465754602
 20
69.04076911223733
 30
0.0
 41
0.9924246303389436
 10
7.392723383300293
 20
69.03760170829011
 30
0.0
 41
1.0
  0
SPLINE
  5
1E0
330
1F
100
AcDbEntity
  8
Make2D visible lines - Tangent
100
AcDbSpline
210
0.0
220
0.0
230
1.0
 70
    12
 71
     2
 72
     6
 73
     3
 74
     0
 42
0.0000000001
 43
0.0000000001
 40
0.0
 40
0.0
 40
0.0
 40
0.0784456577816192
 40
0.0784456577816192
 40
0.0784456577816192
 10
7.392723383300293
 20
69.03760170829011
 30
0.0
 41
1.0
 10
7.342783413520244
 20
69.03766122789969
 30
0.0
 41
0.707107785543906
 10
7.342723752043508
 20
68.98772125828893
 30
0.0
 41
1.0
  0
LINE
  5
1E1
330
1F
100
AcDbEntity
  8
Make2D visible lines - Tangent
100
AcDbLine
 10
7.342723722286082
 20
68.98772125828893
 30
0.0
 11
7.342723435263581
 21
67.30247703407585
 31
0.0
  0
POLYLINE
  5
1E2
330
1F
100
AcDbEntity
  8
Default
100
AcDb2dPolyline
 66
     1
 10
0.0
 20
0.0
 30
0.0
  0
VERTEX
  5
1E3
330
1E2
100
AcDbEntity
  8
Default
100
AcDbVertex
100
AcDb2dVertex
 10
-7.273723383299996
 20
67.33492268610733
 30
0.0
  0
VERTEX
  5
1E4
330
1E2
100
AcDbEntity
  8
Default
100
AcDbVertex
100
AcDb2dVertex
 10
-7.273723383299997
 20
68.97066176220008
 30
0.0
  0
SEQEND
  5
1E5
330
1E2
100
AcDbEntity
  8
Default
  0
SPLINE
  5
1E6
330
1F
100
AcDbEntity
  8
Default
100
AcDbSpline
210
0.0
220
0.0
230
1.0
 70
    12
 71
     2
 72
     6
 73
     3
 74
     0
 42
0.0000000001
 43
0.0000000001
 40
0.0
 40
0.0
 40
0.0
 40
0.109941564851661
 40
0.109941564851661
 40
0.109941564851661
 10
-7.273723383299997
 20
68.97066176220008
 30
0.0
 41
1.0
 10
-7.273690348845307
 20
69.04062872774674
 30
0.0
 41
0.7074405726109262
 10
-7.203723383299997
 20
69.04066176504007
 30
0.0
 41
1.0
  0
SPLINE
  5
1E7
330
1F
100
AcDbEntity
  8
Default
100
AcDbSpline
210
0.0
220
0.0
230
1.0
 70
    24
 71
     2
 72
     6
 73
     3
 74
     0
 42
0.0000000001
 43
0.0000000001
 40
0.0
 40
0.0
 40
0.0
 40
0.3520000000000003
 40
0.3520000000000003
 40
0.3520000000000003
 10
-7.203723383299997
 20
69.04066176504007
 30
0.0
 10
-7.027723383299997
 20
69.04066176504008
 30
0.0
 10
-6.851723383299997
 20
69.04066176504008
 30
0.0
  0
SPLINE
  5
1E8
330
1F
100
AcDbEntity
  8
Default
100
AcDbSpline
210
0.0
220
0.0
230
1.0
 70
    12
 71
     2
 72
     6
 73
     3
 74
     0
 42
0.0000000001
 43
0.0000000001
 40
0.0
 40
0.0
 40
0.0
 40
0.2356186331260159
 40
0.2356186331260159
 40
0.2356186331260159
 10
-6.851723383299997
 20
69.04066176504008
 30
0.0
 41
1.0
 10
-6.701725288141643
 20
69.04065985726648
 30
0.0
 41
0.7071157676638842
 10
-6.701723383299997
 20
68.89066176210808
 30
0.0
 41
1.0
  0
POLYLINE
  5
1E9
330
1F
100
AcDbEntity
  8
Default
100
AcDb2dPolyline
 66
     1
 10
0.0
 20
0.0
 30
0.0
  0
VERTEX
  5
1EA
330
1E9
100
AcDbEntity
  8
Default
100
AcDbVertex
100
AcDb2dVertex
 10
-6.701723383299997
 20
68.89066176210808
 30
0.0
  0
VERTEX
  5
1EB
330
1E9
100
AcDbEntity
  8
Default
100
AcDbVertex
100
AcDb2dVertex
 10
-6.701723383299997
 20
67.58989976988167
 30
0.0
  0
SEQEND
  5
1EC
330
1E9
100
AcDbEntity
  8
Default
  0
ARC
  5
1ED
330
1F
100
AcDbEntity
  8
Default
100
AcDbCircle
 10
3515562.163514707
 20
66.4555223065027
 30
0.0
 40
3515570.294238132
100
AcDbArc
 50
179.9999902076223
 51
179.9999911428347
  0
LINE
  5
1EE
330
1F
100
AcDbEntity
  8
Default
100
AcDbLine
 10
-8.130723372410607
 20
67.05636570393261
 30
0.0
 11
-8.130723029454002
 21
68.98772125861458
 31
0.0
  0
SPLINE
  5
1EF
330
1F
100
AcDbEntity
  8
Default
100
AcDbSpline
210
0.0
220
0.0
230
1.0
 70
    12
 71
     2
 72
     6
 73
     3
 74
     0
 42
0.0000000001
 43
0.0000000001
 40
0.0
 40
0.0
 40
0.0
 40
0.0784456575506041
 40
0.0784456575506041
 40
0.0784456575506041
 10
-8.130723029454002
 20
68.98772125861458
 30
0.0
 41
1.0
 10
-8.130663353121165
 20
69.03766122826742
 30
0.0
 41
0.7071077818591103
 10
-8.080723383299668
 20
69.03760170814118
 30
0.0
 41
1.0
  0
SPLINE
  5
1F0
330
1F
100
AcDbEntity
  8
Default
100
AcDbSpline
210
0.0
220
0.0
230
1.0
 70
    12
 71
     2
 72
     6
 73
     3
 74
     0
 42
0.0000000001
 43
0.0000000001
 40
0.0
 40
0.0
 40
0.0
 40
0.0351460068279919
 40
0.0351460068279919
 40
0.0351460068279919
 10
-8.080723383299668
 20
69.03760170814118
 30
0.0
 41
1.0
 10
-8.063347303627186
 20
69.04076911259055
 30
0.0
 41
0.9924246250463485
 10
-8.045723383296234
 20
69.03960376804986
 30
0.0
 41
1.0
  0
SPLINE
  5
1F1
330
1F
100
AcDbEntity
  8
Default
100
AcDbSpline
210
0.0
220
0.0
230
1.0
 70
    24
 71
     2
 72
     6
 73
     3
 74
     0
 42
0.0000000001
 43
0.0000000001
 40
-0.6179999945348698
 40
-0.6179999945348698
 40
-0.6179999945348698
 40
0.0
 40
0.0
 40
0.0
 10
-8.045723383296234
 20
69.03960376804986
 30
0.0
 10
-7.7367233860288
 20
69.03960376804982
 30
0.0
 10
-7.427723388761365
 20
69.03960376804977
 30
0.0
  0
SPLINE
  5
1F2
330
1F
100
AcDbEntity
  8
Default
100
AcDbSpline
210
0.0
220
0.0
230
1.0
 70
    12
 71
     2
 72
     6
 73
     3
 74
     0
 42
0.0000000001
 43
0.0000000001
 40
0.0
 40
0.0
 40
0.0
 40
0.0351460122197656
 40
0.0351460122197656
 40
0.0351460122197656
 10
-7.427723388761365
 20
69.03960376804977
 30
0.0
 41
1.0
 10
-7.410099465754602
 20
69.04076911223733
 30
0.0
 41
0.9924246303389436
 10
-7.392723383300293
 20
69.03760170829011
 30
0.0
 41
1.0
  0
SPLINE
  5
1F3
330
1F
100
AcDbEntity
  8
Default
100
AcDbSpline
210
0.0
220
0.0
230
1.0
 70
    12
 71
     2
 72
     6
 73
     3
 74
     0
 42
0.0000000001
 43
0.0000000001
 40
0.0
 40
0.0
 40
0.0
 40
0.0784456577816192
 40
0.0784456577816192
 40
0.0784456577816192
 10
-7.392723383300293
 20
69.03760170829011
 30
0.0
 41
1.0
 10
-7.342783413520244
 20
69.03766122789969
 30
0.0
 41
0.707107785543906
 10
-7.342723722286082
 20
68.98772125828893
 30
0.0
 41
1.0
  0
LINE
  5
1F4
330
1F
100
AcDbEntity
  8
Default
100
AcDbLine
 10
-7.342723722286082
 20
68.98772125828893
 30
0.0
 11
-7.34272343599853
 21
67.30247703386594
 31
0.0
  0
SPLINE
  5
1F5
330
1F
100
AcDbEntity
  8
Make2D visible lines - Tangent
100
AcDbSpline
210
0.0
220
0.0
230
1.0
 70
    12
 71
     2
 72
     6
 73
     3
 74
     0
 42
0.0000000001
 43
0.0000000001
 40
0.1699723053228755
 40
0.1699723053228755
 40
0.1699723053228755
 40
0.6213186892081751
 40
0.6213186892081751
 40
0.6213186892081751
 10
-8.117361852799283
 20
66.91205868286629
 30
0.0
 41
0.8838882857041389
 10
-8.173979117383501
 20
67.16375531564465
 30
0.0
 41
0.7877819625056606
 10
-7.966652826774515
 20
67.3172887609368
 30
0.0
 41
1.0
  0
SPLINE
  5
1F6
330
1F
100
AcDbEntity
  8
Make2D visible lines - Tangent
100
AcDbSpline
210
0.0
220
0.0
230
1.0
 70
    12
 71
     2
 72
     6
 73
     3
 74
     0
 42
0.0000000001
 43
0.0000000001
 40
0.0
 40
0.0
 40
0.0
 40
0.5780956337957552
 40
0.5780956337957552
 40
0.5780956337957552
 10
-7.966652826774515
 20
67.3172887609368
 30
0.0
 41
1.0
 10
-7.675546650738441
 20
67.52476787462422
 30
0.0
 41
0.7281867164683566
 10
-7.439404312657098
 20
67.25638906676426
 30
0.0
 41
0.9621819287679231
  0
SPLINE
  5
1F7
330
1F
100
AcDbEntity
  8
Make2D visible lines - Tangent
100
AcDbSpline
210
0.0
220
0.0
230
1.0
 70
    12
 71
     2
 72
     6
 73
     3
 74
     0
 42
0.0000000001
 43
0.0000000001
 40
0.0432228048386966
 40
0.0432228048386966
 40
0.0432228048386966
 40
0.6213186892081751
 40
0.6213186892081751
 40
0.6213186892081751
 10
7.439404262201796
 20
67.25638909100812
 30
0.0
 41
0.9621818109507905
 10
7.675546565638873
 20
67.52476857346447
 30
0.0
 41
0.728185760549657
 10
7.966652833787339
 20
67.31728875584169
 30
0.0
 41
1.0
  0
SPLINE
  5
1F8
330
1F
100
AcDbEntity
  8
Make2D visible lines - Tangent
100
AcDbSpline
210
0.0
220
0.0
230
1.0
 70
    12
 71
     2
 72
     6
 73
     3
 74
     0
 42
0.0000000001
 43
0.0000000001
 40
0.0
 40
0.0
 40
0.0
 40
0.4513461501451067
 40
0.4513461501451067
 40
0.4513461501451067
 10
7.966652833787339
 20
67.31728875584169
 30
0.0
 41
1.0
 10
8.173978674229442
 20
67.16375517714516
 30
0.0
 41
0.7877827267526953
 10
8.11736168802968
 20
66.91205877117947
 30
0.0
 41
0.8838886685644927
  0
POLYLINE
  5
1F9
330
1F
100
AcDbEntity
  8
Default
100
AcDb2dPolyline
 66
     1
 10
0.0
 20
0.0
 30
0.0
  0
VERTEX
  5
1FA
330
1F9
100
AcDbEntity
  8
Default
100
AcDbVertex
100
AcDb2dVertex
 10
13.55328139573
 20
52.81656129211363
 30
0.0
  0
VERTEX
  5
1FB
330
1F9
100
AcDbEntity
  8
Default
100
AcDbVertex
100
AcDb2dVertex
 10
13.55328139573
 20
51.91453939105407
 30
0.0
  0
SEQEND
  5
1FC
330
1F9
100
AcDbEntity
  8
Default
  0
SPLINE
  5
1FD
330
1F
100
AcDbEntity
  8
Default
100
AcDbSpline
210
0.0
220
0.0
230
1.0
 70
    12
 71
     2
 72
     6
 73
     3
 74
     0
 42
0.0000000001
 43
0.0000000001
 40
0.0
 40
0.0
 40
0.0
 40
0.2355890798875016
 40
0.2355890798875016
 40
0.2355890798875016
 10
13.55328139573
 20
51.91453939105407
 30
0.0
 41
1.0
 10
13.55321064057222
 20
51.76461014621046
 30
0.0
 41
0.7074404097356639
 10
13.40328139573
 20
51.76453938812207
 30
0.0
 41
1.0
  0
SPLINE
  5
1FE
330
1F
100
AcDbEntity
  8
Default
100
AcDbSpline
210
0.0
220
0.0
230
1.0
 70
    24
 71
     2
 72
     6
 73
     3
 74
     0
 42
0.0000000001
 43
0.0000000001
 40
0.0
 40
0.0
 40
0.0
 40
0.3520000000000003
 40
0.3520000000000003
 40
0.3520000000000003
 10
13.40328139573
 20
51.76453938812207
 30
0.0
 10
13.22728139573
 20
51.76453938812207
 30
0.0
 10
13.05128139573
 20
51.76453938812207
 30
0.0
  0
SPLINE
  5
1FF
330
1F
100
AcDbEntity
  8
Default
100
AcDbSpline
210
0.0
220
0.0
230
1.0
 70
    12
 71
     2
 72
     6
 73
     3
 74
     0
 42
0.0000000001
 43
0.0000000001
 40
0.0
 40
0.0
 40
0.0
 40
0.1098876245644455
 40
0.1098876245644455
 40
0.1098876245644455
 10
13.05128139573
 20
51.76453938812207
 30
0.0
 41
1.0
 10
12.98144004752031
 20
51.76469804274595
 30
0.0
 41
0.7087112325863247
 10
12.98128139573
 20
51.83453939096207
 30
0.0
 41
1.0
  0
POLYLINE
  5
200
330
1F
100
AcDbEntity
  8
Default
100
AcDb2dPolyline
 66
     1
 10
0.0
 20
0.0
 30
0.0
  0
VERTEX
  5
201
330
200
100
AcDbEntity
  8
Default
100
AcDbVertex
100
AcDb2dVertex
 10
12.98128139573
 20
51.83453939096207
 30
0.0
  0
VERTEX
  5
202
330
200
100
AcDbEntity
  8
Default
100
AcDbVertex
100
AcDb2dVertex
 10
12.98128139573
 20
52.13321084438285
 30
0.0
  0
SEQEND
  5
203
330
200
100
AcDbEntity
  8
Default
  0
POLYLINE
  5
204
330
1F
100
AcDbEntity
  8
Default
100
AcDb2dPolyline
 66
     1
 10
0.0
 20
0.0
 30
0.0
  0
VERTEX
  5
205
330
204
100
AcDbEntity
  8
Default
100
AcDbVertex
100
AcDb2dVertex
 10
-8.1997233833
 20
66.86762530889708
 30
0.0
  0
VERTEX
  5
206
330
204
100
AcDbEntity
  8
Default
100
AcDbVertex
100
AcDb2dVertex
 10
-8.1997233833
 20
68.97066176220008
 30
0.0
  0
SEQEND
  5
207
330
204
100
AcDbEntity
  8
Default
  0
SPLINE
  5
208
330
1F
100
AcDbEntity
  8
Default
100
AcDbSpline
210
0.0
220
0.0
230
1.0
 70
    12
 71
     2
 72
     6
 73
     3
 74
     0
 42
0.0000000001
 43
0.0000000001
 40
0.0
 40
0.0
 40
0.0
 40
0.109941564851661
 40
0.109941564851661
 40
0.109941564851661
 10
-8.1997233833
 20
68.97066176220008
 30
0.0
 41
1.0
 10
-8.19975641775469
 20
69.04062872774674
 30
0.0
 41
0.7074405726109262
 10
-8.2697233833
 20
69.04066176504007
 30
0.0
 41
1.0
  0
SPLINE
  5
209
330
1F
100
AcDbEntity
  8
Default
100
AcDbSpline
210
0.0
220
0.0
230
1.0
 70
    24
 71
     2
 72
     6
 73
     3
 74
     0
 42
0.0000000001
 43
0.0000000001
 40
0.0
 40
0.0
 40
0.0
 40
0.3520000000000003
 40
0.3520000000000003
 40
0.3520000000000003
 10
-8.2697233833
 20
69.04066176504007
 30
0.0
 10
-8.4457233833
 20
69.04066176504008
 30
0.0
 10
-8.6217233833
 20
69.04066176504008
 30
0.0
  0
SPLINE
  5
20A
330
1F
100
AcDbEntity
  8
Default
100
AcDbSpline
210
0.0
220
0.0
230
1.0
 70
    12
 71
     2
 72
     6
 73
     3
 74
     0
 42
0.0000000001
 43
0.0000000001
 40
0.0
 40
0.0
 40
0.0
 40
0.2356186331260159
 40
0.2356186331260159
 40
0.2356186331260159
 10
-8.6217233833
 20
69.04066176504008
 30
0.0
 41
1.0
 10
-8.771721478458353
 20
69.04065985726648
 30
0.0
 41
0.7071157676638842
 10
-8.7717233833
 20
68.89066176210808
 30
0.0
 41
1.0
  0
POLYLINE
  5
20B
330
1F
100
AcDbEntity
  8
Default
100
AcDb2dPolyline
 66
     1
 10
0.0
 20
0.0
 30
0.0
  0
VERTEX
  5
20C
330
20B
100
AcDbEntity
  8
Default
100
AcDbVertex
100
AcDb2dVertex
 10
-8.7717233833
 20
68.89066176210808
 30
0.0
  0
VERTEX
  5
20D
330
20B
100
AcDbEntity
  8
Default
100
AcDbVertex
100
AcDb2dVertex
 10
-8.7717233833
 20
66.63066176797207
 30
0.0
  0
SEQEND
  5
20E
330
20B
100
AcDbEntity
  8
Default
  0
SPLINE
  5
20F
330
1F
100
AcDbEntity
  8
Default
100
AcDbSpline
210
0.0
220
0.0
230
1.0
 70
    12
 71
     2
 72
     6
 73
     3
 74
     0
 42
0.0000000001
 43
0.0000000001
 40
0.0
 40
0.0
 40
0.0
 40
0.0812712606071793
 40
0.0812712606071793
 40
0.0812712606071793
 10
-8.7717233833
 20
66.63066176797207
 30
0.0
 41
1.0
 10
-8.771704177447182
 20
66.58996481951498
 30
0.0
 41
0.8990755992813576
 10
-8.751126866222785
 20
66.55485333641674
 30
0.0
 41
0.8677830616044565
  0
POLYLINE
  5
210
330
1F
100
AcDbEntity
  8
Default
100
AcDb2dPolyline
 66
     1
 10
0.0
 20
0.0
 30
0.0
  0
VERTEX
  5
211
330
210
100
AcDbEntity
  8
Default
100
AcDbVertex
100
AcDb2dVertex
 10
8.1997233833
 20
66.86762530889708
 30
0.0
  0
VERTEX
  5
212
330
210
100
AcDbEntity
  8
Default
100
AcDbVertex
100
AcDb2dVertex
 10
8.1997233833
 20
68.97066176220008
 30
0.0
  0
SEQEND
  5
213
330
210
100
AcDbEntity
  8
Default
  0
SPLINE
  5
214
330
1F
100
AcDbEntity
  8
Default
100
AcDbSpline
210
0.0
220
0.0
230
1.0
 70
    12
 71
     2
 72
     6
 73
     3
 74
     0
 42
0.0000000001
 43
0.0000000001
 40
0.0
 40
0.0
 40
0.0
 40
0.109941564851661
 40
0.109941564851661
 40
0.109941564851661
 10
8.1997233833
 20
68.97066176220008
 30
0.0
 41
1.0
 10
8.19975641775469
 20
69.04062872774674
 30
0.0
 41
0.7074405726109262
 10
8.2697233833
 20
69.04066176504007
 30
0.0
 41
1.0
  0
SPLINE
  5
215
330
1F
100
AcDbEntity
  8
Default
100
AcDbSpline
210
0.0
220
0.0
230
1.0
 70
    24
 71
     2
 72
     6
 73
     3
 74
     0
 42
0.0000000001
 43
0.0000000001
 40
0.0
 40
0.0
 40
0.0
 40
0.3520000000000003
 40
0.3520000000000003
 40
0.3520000000000003
 10
8.2697233833
 20
69.04066176504007
 30
0.0
 10
8.4457233833
 20
69.04066176504008
 30
0.0
 10
8.6217233833
 20
69.04066176504008
 30
0.0
  0
SPLINE
  5
216
330
1F
100
AcDbEntity
  8
Default
100
AcDbSpline
210
0.0
220
0.0
230
1.0
 70
    12
 71
     2
 72
     6
 73
     3
 74
     0
 42
0.0000000001
 43
0.0000000001
 40
0.0
 40
0.0
 40
0.0
 40
0.2356186331260159
 40
0.2356186331260159
 40
0.2356186331260159
 10
8.6217233833
 20
69.04066176504008
 30
0.0
 41
1.0
 10
8.771721478458353
 20
69.04065985726648
 30
0.0
 41
0.7071157676638842
 10
8.7717233833
 20
68.89066176210808
 30
0.0
 41
1.0
  0
POLYLINE
  5
217
330
1F
100
AcDbEntity
  8
Default
100
AcDb2dPolyline
 66
     1
 10
0.0
 20
0.0
 30
0.0
  0
VERTEX
  5
218
330
217
100
AcDbEntity
  8
Default
100
AcDbVertex
100
AcDb2dVertex
 10
8.7717233833
 20
68.89066176210808
 30
0.0
  0
VERTEX
  5
219
330
217
100
AcDbEntity
  8
Default
100
AcDbVertex
100
AcDb2dVertex
 10
8.7717233833
 20
66.63066176797207
 30
0.0
  0
SEQEND
  5
21A
330
217
100
AcDbEntity
  8
Default
  0
SPLINE
  5
21B
330
1F
100
AcDbEntity
  8
Default
100
AcDbSpline
210
0.0
220
0.0
230
1.0
 70
    12
 71
     2
 72
     6
 73
     3
 74
     0
 42
0.0000000001
 43
0.0000000001
 40
0.0
 40
0.0
 40
0.0
 40
0.0812712606071793
 40
0.0812712606071793
 40
0.0812712606071793
 10
8.7717233833
 20
66.63066176797207
 30
0.0
 41
1.0
 10
8.771704177447182
 20
66.58996481951498
 30
0.0
 41
0.8990755992813576
 10
8.751126866222785
 20
66.55485333641674
 30
0.0
 41
0.8677830616044565
  0
LINE
  5
21C
330
1F
100
AcDbEntity
  8
Default
100
AcDbLine
 10
-0.393999840160555
 20
44.1219805283887
 30
0.0
 11
-0.3939999891106076
 21
43.24517951547261
 31
0.0
  0
ARC
  5
21D
330
1F
100
AcDbEntity
  8
Default
100
AcDbCircle
 10
3515569.900238091
 20
42.6443361180427
 30
0.0
 40
3515570.294238132
100
AcDbArc
 50
179.9999902076227
 51
179.9999987473877
  0
SPLINE
  5
21E
330
1F
100
AcDbEntity
  8
Default
100
AcDbSpline
210
0.0
220
0.0
230
1.0
 70
    12
 71
     2
 72
     6
 73
     3
 74
     0
 42
0.0000000001
 43
0.0000000001
 40
0.0
 40
0.0
 40
0.0
 40
0.0784842030870699
 40
0.0784842030870699
 40
0.0784842030870699
 10
-0.3940000405141934
 20
42.72119425702068
 30
0.0
 41
1.0
 10
-0.3939638142083186
 20
42.6712304442858
 30
0.0
 41
0.7071217743558633
 10
-0.3439999999996068
 20
42.67126413927566
 30
0.0
 41
1.0
  0
POLYLINE
  5
21F
330
1F
100
AcDbEntity
  8
Default
100
AcDb2dPolyline
 66
     1
 10
0.0
 20
0.0
 30
0.0
  0
VERTEX
  5
220
330
21F
100
AcDbEntity
  8
Default
100
AcDbVertex
100
AcDb2dVertex
 10
-0.3439999999996068
 20
42.67126413927566
 30
0.0
  0
VERTEX
  5
221
330
21F
100
AcDbEntity
  8
Default
100
AcDbVertex
100
AcDb2dVertex
 10
0.3439999999996068
 20
42.67126413927566
 30
0.0
  0
SEQEND
  5
222
330
21F
100
AcDbEntity
  8
Default
  0
SPLINE
  5
223
330
1F
100
AcDbEntity
  8
Default
100
AcDbSpline
210
0.0
220
0.0
230
1.0
 70
    12
 71
     2
 72
     6
 73
     3
 74
     0
 42
0.0000000001
 43
0.0000000001
 40
-0.0784842030870699
 40
-0.0784842030870699
 40
-0.0784842030870699
 40
0.0
 40
0.0
 40
0.0
 10
0.3439999999996068
 20
42.67126413927566
 30
0.0
 41
1.0
 10
0.3939638142083186
 20
42.6712304442858
 30
0.0
 41
0.7071217743558633
 10
0.3940000405141934
 20
42.72119425702068
 30
0.0
 41
1.0
  0
ARC
  5
224
330
1F
100
AcDbEntity
  8
Default
100
AcDbCircle
 10
-3515569.900238091
 20
42.6443361180427
 30
0.0
 40
3515570.294238132
100
AcDbArc
 50
0.0000012526124117
 51
0.0000097923773214
  0
LINE
  5
225
330
1F
100
AcDbEntity
  8
Default
100
AcDbLine
 10
0.3939999891106076
 20
43.24517951547261
 30
0.0
 11
0.393999840160555
 21
44.12198052839969
 31
0.0
  0
POLYLINE
  5
226
330
1F
100
AcDbEntity
  8
Default
100
AcDb2dPolyline
 66
     1
 10
0.0
 20
0.0
 30
0.0
  0
VERTEX
  5
227
330
226
100
AcDbEntity
  8
Default
100
AcDbVertex
100
AcDb2dVertex
 10
-1.035000000000001
 20
44.1636622612308
 30
0.0
  0
VERTEX
  5
228
330
226
100
AcDbEntity
  8
Default
100
AcDbVertex
100
AcDb2dVertex
 10
-1.035
 20
42.81947557951208
 30
0.0
  0
SEQEND
  5
229
330
226
100
AcDbEntity
  8
Default
  0
SPLINE
  5
22A
330
1F
100
AcDbEntity
  8
Default
100
AcDbSpline
210
0.0
220
0.0
230
1.0
 70
    12
 71
     2
 72
     6
 73
     3
 74
     0
 42
0.0000000001
 43
0.0000000001
 40
0.0
 40
0.0
 40
0.0
 40
0.2355890798875016
 40
0.2355890798875016
 40
0.2355890798875016
 10
-1.035
 20
42.81947557951208
 30
0.0
 41
1.0
 10
-1.034929244842217
 20
42.66954633466847
 30
0.0
 41
0.7074404097356639
 10
-0.8850000000000016
 20
42.66947557658008
 30
0.0
 41
1.0
  0
SPLINE
  5
22B
330
1F
100
AcDbEntity
  8
Default
100
AcDbSpline
210
0.0
220
0.0
230
1.0
 70
    24
 71
     2
 72
     6
 73
     3
 74
     0
 42
0.0000000001
 43
0.0000000001
 40
0.0
 40
0.0
 40
0.0
 40
0.3520000000000003
 40
0.3520000000000003
 40
0.3520000000000003
 10
-0.8850000000000016
 20
42.66947557658008
 30
0.0
 10
-0.7090000000000014
 20
42.66947557658008
 30
0.0
 10
-0.5330000000000013
 20
42.66947557658008
 30
0.0
  0
SPLINE
  5
22C
330
1F
100
AcDbEntity
  8
Default
100
AcDbSpline
210
0.0
220
0.0
230
1.0
 70
    12
 71
     2
 72
     6
 73
     3
 74
     0
 42
0.0000000001
 43
0.0000000001
 40
0.0
 40
0.0
 40
0.0
 40
0.1098876245644455
 40
0.1098876245644455
 40
0.1098876245644455
 10
-0.5330000000000013
 20
42.66947557658008
 30
0.0
 41
1.0
 10
-0.4631586517903132
 20
42.66963423120396
 30
0.0
 41
0.7087112325863247
 10
-0.4630000000000027
 20
42.73947557942008
 30
0.0
 41
1.0
  0
POLYLINE
  5
22D
330
1F
100
AcDbEntity
  8
Default
100
AcDb2dPolyline
 66
     1
 10
0.0
 20
0.0
 30
0.0
  0
VERTEX
  5
22E
330
22D
100
AcDbEntity
  8
Default
100
AcDbVertex
100
AcDb2dVertex
 10
-0.4630000000000027
 20
42.73947557942008
 30
0.0
  0
VERTEX
  5
22F
330
22D
100
AcDbEntity
  8
Default
100
AcDbVertex
100
AcDb2dVertex
 10
-0.4630000000000017
 20
44.12514805167497
 30
0.0
  0
SEQEND
  5
230
330
22D
100
AcDbEntity
  8
Default
  0
POLYLINE
  5
231
330
1F
100
AcDbEntity
  8
Default
100
AcDb2dPolyline
 66
     1
 10
0.0
 20
0.0
 30
0.0
  0
VERTEX
  5
232
330
231
100
AcDbEntity
  8
Default
100
AcDbVertex
100
AcDb2dVertex
 10
1.035000000000001
 20
44.1636622612308
 30
0.0
  0
VERTEX
  5
233
330
231
100
AcDbEntity
  8
Default
100
AcDbVertex
100
AcDb2dVertex
 10
1.035
 20
42.81947557951208
 30
0.0
  0
SEQEND
  5
234
330
231
100
AcDbEntity
  8
Default
  0
SPLINE
  5
235
330
1F
100
AcDbEntity
  8
Default
100
AcDbSpline
210
0.0
220
0.0
230
1.0
 70
    12
 71
     2
 72
     6
 73
     3
 74
     0
 42
0.0000000001
 43
0.0000000001
 40
0.0
 40
0.0
 40
0.0
 40
0.2355890798875016
 40
0.2355890798875016
 40
0.2355890798875016
 10
1.035
 20
42.81947557951208
 30
0.0
 41
1.0
 10
1.034929244842217
 20
42.66954633466847
 30
0.0
 41
0.7074404097356639
 10
0.8850000000000016
 20
42.66947557658008
 30
0.0
 41
1.0
  0
SPLINE
  5
236
330
1F
100
AcDbEntity
  8
Default
100
AcDbSpline
210
0.0
220
0.0
230
1.0
 70
    24
 71
     2
 72
     6
 73
     3
 74
     0
 42
0.0000000001
 43
0.0000000001
 40
0.0
 40
0.0
 40
0.0
 40
0.3520000000000003
 40
0.3520000000000003
 40
0.3520000000000003
 10
0.8850000000000016
 20
42.66947557658008
 30
0.0
 10
0.7090000000000014
 20
42.66947557658008
 30
0.0
 10
0.5330000000000013
 20
42.66947557658008
 30
0.0
  0
SPLINE
  5
237
330
1F
100
AcDbEntity
  8
Default
100
AcDbSpline
210
0.0
220
0.0
230
1.0
 70
    12
 71
     2
 72
     6
 73
     3
 74
     0
 42
0.0000000001
 43
0.0000000001
 40
0.0
 40
0.0
 40
0.0
 40
0.1098876245644455
 40
0.1098876245644455
 40
0.1098876245644455
 10
0.5330000000000013
 20
42.66947557658008
 30
0.0
 41
1.0
 10
0.4631586517903132
 20
42.66963423120396
 30
0.0
 41
0.7087112325863247
 10
0.4630000000000027
 20
42.73947557942008
 30
0.0
 41
1.0
  0
POLYLINE
  5
238
330
1F
100
AcDbEntity
  8
Default
100
AcDb2dPolyline
 66
     1
 10
0.0
 20
0.0
 30
0.0
  0
VERTEX
  5
239
330
238
100
AcDbEntity
  8
Default
100
AcDbVertex
100
AcDb2dVertex
 10
0.4630000000000027
 20
42.73947557942008
 30
0.0
  0
VERTEX
  5
23A
330
238
100
AcDbEntity
  8
Default
100
AcDbVertex
100
AcDb2dVertex
 10
0.4630000000000017
 20
44.12514805167497
 30
0.0
  0
SEQEND
  5
23B
330
238
100
AcDbEntity
  8
Default
  0
SPLINE
  5
23C
330
1F
100
AcDbEntity
  8
Make2D visible lines - Tangent
100
AcDbSpline
210
0.0
220
0.0
230
1.0
 70
    12
 71
     2
 72
     6
 73
     3
 74
     0
 42
0.0000000001
 43
0.0000000001
 40
-0.3669232257852178
 40
-0.3669232257852178
 40
-0.3669232257852178
 40
0.0
 40
0.0
 40
0.0
 10
0.3745592184752056
 20
44.12115439833494
 30
0.0
 41
0.9999999919992532
 10
0.3724846459449448
 20
43.93770452176864
 30
0.0
 41
0.9999999958523482
 10
0.3704163703892096
 20
43.75425457410007
 30
0.0
 41
1.0
  0
SPLINE
  5
23D
330
1F
100
AcDbEntity
  8
Make2D visible lines - Tangent
100
AcDbSpline
210
0.0
220
0.0
230
1.0
 70
     8
 71
     3
 72
    11
 73
     7
 74
     0
 42
0.0000000001
 43
0.0000000001
 40
-0.5061957594563898
 40
-0.5061957594563898
 40
-0.5061957594563898
 40
-0.5061957594563898
 40
-0.2779307972340258
 40
-0.1436576036068027
 40
-0.0724650654421722
 40
0.0
 40
0.0
 40
0.0
 40
0.0
 10
0.3704163703892096
 20
43.75425457410007
 30
0.0
 10
0.3707053948673433
 20
43.67591645015375
 30
0.0
 10
0.2953412875025805
 20
43.56821084656175
 30
0.0
 10
0.1627527847708343
 20
43.50781191824778
 30
0.0
 10
0.0720514342512679
 20
43.48707196683247
 30
0.0
 10
0.0241517138070542
 20
43.4841411392383
 30
0.0
 10
0.0
 20
43.48397538519018
 30
0.0
  0
SPLINE
  5
23E
330
1F
100
AcDbEntity
  8
Make2D visible lines - Tangent
100
AcDbSpline
210
0.0
220
0.0
230
1.0
 70
     8
 71
     3
 72
    11
 73
     7
 74
     0
 42
0.0000000001
 43
0.0000000001
 40
0.0
 40
0.0
 40
0.0
 40
0.0
 40
0.0724650654421701
 40
0.143657603606799
 40
0.2779307972340275
 40
0.5061957594563471
 40
0.5061957594563471
 40
0.5061957594563471
 40
0.5061957594563471
 10
0.0
 20
43.48397538519018
 30
0.0
 10
-0.0241517138070435
 20
43.48414113923836
 30
0.0
 10
-0.0720514342512857
 20
43.4870719668326
 30
0.0
 10
-0.1627527847708432
 20
43.50781191824779
 30
0.0
 10
-0.2953412875025379
 20
43.56821084656183
 30
0.0
 10
-0.3707053948672936
 20
43.67591645015382
 30
0.0
 10
-0.3704163703885346
 20
43.75425457410007
 30
0.0
  0
SPLINE
  5
23F
330
1F
100
AcDbEntity
  8
Make2D visible lines - Tangent
100
AcDbSpline
210
0.0
220
0.0
230
1.0
 70
    12
 71
     2
 72
     6
 73
     3
 74
     0
 42
0.0000000001
 43
0.0000000001
 40
0.0
 40
0.0
 40
0.0
 40
0.3669232203978866
 40
0.3669232203978866
 40
0.3669232203978866
 10
-0.3704163703885346
 20
43.75425457410007
 30
0.0
 41
1.0
 10
-0.3724845685791209
 20
43.93770451984658
 30
0.0
 41
0.9999999957871186
 10
-0.3745591130396878
 20
44.12115439393605
 30
0.0
 41
0.9999999918734238
  0
SPLINE
  5
240
330
1F
100
AcDbEntity
  8
Default
100
AcDbSpline
210
0.0
220
0.0
230
1.0
 70
     8
 71
     3
 72
     8
 73
     4
 74
     0
 42
0.0000000001
 43
0.0000000001
 40
-0.117222658030798
 40
-0.117222658030798
 40
-0.117222658030798
 40
-0.117222658030798
 40
0.0
 40
0.0
 40
0.0
 40
0.0
 10
-9.624229924985288
 20
53.88821557753606
 30
0.0
 10
-9.624736779213556
 20
53.92734402125341
 30
0.0
 10
-9.624989454849624
 20
53.96648099585995
 30
0.0
 10
-9.624987251133632
 20
54.0056237502268
 30
0.0
  0
SPLINE
  5
241
330
1F
100
AcDbEntity
  8
Default
100
AcDbSpline
210
0.0
220
0.0
230
1.0
 70
     8
 71
     3
 72
    12
 73
     8
 74
     0
 42
0.0000000001
 43
0.0000000001
 40
0.0
 40
0.0
 40
0.0
 40
0.0
 40
1.968953222664886
 40
3.918858638804649
 40
7.748286961365544
 40
11.50259787367827
 40
15.37794659634141
 40
15.37794659634141
 40
15.37794659634141
 40
15.37794659634141
 10
-9.624987251133632
 20
54.0056237502268
 30
0.0
 10
-9.625319652535175
 20
54.66268411205351
 30
0.0
 10
-9.506748629860635
 20
55.96950789733216
 30
0.0
 10
-8.803442642993149
 20
58.46546860572097
 30
0.0
 10
-7.062674305477225
 20
61.20163965912435
 30
0.0
 10
-3.83856050587465
 20
63.39493401190336
 30
0.0
 10
-1.291009658459505
 20
63.89069009034023
 30
0.0
 10
-0.0000029502399421
 20
63.89060284906446
 30
0.0
  0
SPLINE
  5
242
330
1F
100
AcDbEntity
  8
Default
100
AcDbSpline
210
0.0
220
0.0
230
1.0
 70
     8
 71
     3
 72
    12
 73
     8
 74
     0
 42
0.0000000001
 43
0.0000000001
 40
0.0
 40
0.0
 40
0.0
 40
0.0
 40
1.91838585290454
 40
3.787697327406727
 40
7.628973434916603
 40
11.46360448765835
 40
15.3782305416976
 40
15.3782305416976
 40
15.3782305416976
 40
15.3782305416976
 10
-0.0000029502399421
 20
63.89060284906446
 30
0.0
 10
0.6394349120476459
 20
63.89117325089443
 30
0.0
 10
1.902148228268688
 20
63.76838418218188
 30
0.0
 10
4.351140822324529
 20
63.04243468188622
 30
0.0
 10
7.048011954192523
 20
61.22606821453505
 30
0.0
 10
9.162684032518483
 20
57.8989549263092
 30
0.0
 10
9.62458676653455
 20
55.3101992880859
 30
0.0
 10
9.624985962740626
 20
54.00545829226117
 30
0.0
  0
SPLINE
  5
243
330
1F
100
AcDbEntity
  8
Default
100
AcDbSpline
210
0.0
220
0.0
230
1.0
 70
     8
 71
     3
 72
    12
 73
     8
 74
     0
 42
0.0000000001
 43
0.0000000001
 40
-14.91612104830391
 40
-14.91612104830391
 40
-14.91612104830391
 40
-14.91612104830391
 40
-11.23173116836975
 40
-7.52134715466137
 40
-3.77515601886866
 40
-1.889436739208308
 40
0.0
 40
0.0
 40
0.0
 40
0.0
 10
9.624985962740626
 20
54.00545829226117
 30
0.0
 10
9.625276613209207
 20
52.77675828290765
 30
0.0
 10
9.118809058389443
 20
50.31241923884897
 30
0.0
 10
6.968056537580358
 20
47.19451469142972
 30
0.0
 10
4.304191906264384
 20
45.47002940277177
 30
0.0
 10
1.888191900487714
 20
44.75947844815595
 30
0.0
 10
0.6297752223170097
 20
44.63797414705722
 30
0.0
 10
0.0000007784023088
 20
44.63791439683733
 30
0.0
  0
SPLINE
  5
244
330
1F
100
AcDbEntity
  8
Default
100
AcDbSpline
210
0.0
220
0.0
230
1.0
 70
     8
 71
     3
 72
     9
 73
     5
 74
     0
 42
0.0000000001
 43
0.0000000001
 40
-14.91612102967629
 40
-14.91612102967629
 40
-14.91612102967629
 40
-14.91612102967629
 40
-11.14156523886652
 40
-8.188478632248172
 40
-8.188478632248172
 40
-8.188478632248172
 40
-8.188478632248172
 10
0.0000007784023088
 20
44.63791439683733
 30
0.0
 10
-1.258175291045038
 20
44.63810902217455
 30
0.0
 10
-3.500666859138333
 20
45.07015621193257
 30
0.0
 10
-5.45326118285199
 20
46.22657478257207
 30
0.0
 10
-6.213618300506623
 20
46.851533187279
 30
0.0
  0
SPLINE
  5
245
330
1F
100
AcDbEntity
  8
Default
100
AcDbSpline
210
0.0
220
0.0
230
1.0
 70
     8
 71
     3
 72
    13
 73
     9
 74
     0
 42
0.0000000001
 43
0.0000000001
 40
11.30471372285889
 40
11.30471372285889
 40
11.30471372285889
 40
11.30471372285889
 40
12.0
 40
13.0
 40
14.0
 40
15.0
 40
16.0
 40
17.0
 40
17.0
 40
17.0
 40
17.0
 10
-6.317618373502409
 20
46.00577052079304
 30
0.0
 10
-6.10096131276568
 20
45.86586461229498
 30
0.0
 10
-5.562583881868533
 20
45.5403820072497
 30
0.0
 10
-4.670022538661413
 20
45.08769064055426
 30
0.0
 10
-3.633259113469392
 20
44.67977239882526
 30
0.0
 10
-2.561002390505569
 20
44.37703333411921
 30
0.0
 10
-1.464279931707195
 20
44.18085187889734
 30
0.0
 10
-0.3709326622801502
 20
44.11239724568085
 30
0.0
 10
0.0
 20
44.11239724568085
 30
0.0
  0
SPLINE
  5
246
330
1F
100
AcDbEntity
  8
Default
100
AcDbSpline
210
0.0
220
0.0
230
1.0
 70
     8
 71
     3
 72
    24
 73
    20
 74
     0
 42
0.0000000001
 43
0.0000000001
 40
-17.0
 40
-17.0
 40
-17.0
 40
-17.0
 40
-16.0
 40
-15.0
 40
-14.0
 40
-13.0
 40
-12.0
 40
-11.0
 40
-10.0
 40
-9.0
 40
-8.0
 40
-7.0
 40
-6.0
 40
-5.0
 40
-4.0
 40
-3.0
 40
-2.0
 40
-1.0
 40
0.0
 40
0.0
 40
0.0
 40
0.0
 10
0.0
 20
44.11239724568085
 30
0.0
 10
0.3709326622801502
 20
44.11239724568085
 30
0.0
 10
1.464279931707195
 20
44.18085187889734
 30
0.0
 10
2.561002390505569
 20
44.37703333411921
 30
0.0
 10
3.633259113469392
 20
44.67977239882526
 30
0.0
 10
4.670022538661413
 20
45.08769064055426
 30
0.0
 10
5.663491786188463
 20
45.59156071610216
 30
0.0
 10
6.608886854110513
 20
46.18049967083455
 30
0.0
 10
7.501319395413863
 20
46.84668827783715
 30
0.0
 10
8.341107512548392
 20
47.5779537739079
 30
0.0
 10
9.126217709289989
 20
48.36710262557212
 30
0.0
 10
9.924852416974574
 20
49.14193709592036
 30
0.0
 10
10.70768041775561
 20
49.93298599612061
 30
0.0
 10
11.46611702532592
 20
50.74745320395937
 30
0.0
 10
12.20262716654094
 20
51.58172058094748
 30
0.0
 10
12.93459136178658
 20
52.4197942643391
 30
0.0
 10
13.66422435095207
 20
53.26035667852047
 30
0.0
 10
14.33596375062944
 20
54.14828410820372
 30
0.0
 10
14.73926848730803
 20
54.77216684216574
 30
0.0
 10
14.9114238715884
 20
55.10099930163082
 30
0.0
  0
SPLINE
  5
247
330
1F
100
AcDbEntity
  8
Default
100
AcDbSpline
210
0.0
220
0.0
230
1.0
 70
     8
 71
     3
 72
    12
 73
     8
 74
     0
 42
0.0000000001
 43
0.0000000001
 40
0.0
 40
0.0
 40
0.0
 40
0.0
 40
1.0
 40
2.0
 40
3.0
 40
4.0
 40
5.0
 40
5.0
 40
5.0
 40
5.0
 10
14.9114238715884
 20
55.10099930163082
 30
0.0
 10
15.04891292459889
 20
55.36285452849985
 30
0.0
 10
15.24072468774116
 20
55.92897304436988
 30
0.0
 10
15.28861996143594
 20
56.82058294536638
 30
0.0
 10
15.17579086212485
 20
57.70252093518752
 30
0.0
 10
14.95366623834524
 20
58.56257795193154
 30
0.0
 10
14.7511480933662
 20
59.11871603879455
 30
0.0
 10
14.63765284564931
 20
59.39171402735642
 30
0.0
  0
SPLINE
  5
248
330
1F
100
AcDbEntity
  8
Default
100
AcDbSpline
210
0.0
220
0.0
230
1.0
 70
     8
 71
     3
 72
    12
 73
     8
 74
     0
 42
0.0000000001
 43
0.0000000001
 40
-18.23362376580278
 40
-18.23362376580278
 40
-18.23362376580278
 40
-18.23362376580278
 40
-13.89761326846572
 40
-9.309249842901858
 40
-4.66252058763445
 40
-2.315241172828346
 40
0.0
 40
0.0
 40
0.0
 40
0.0
 10
14.63765284564931
 20
59.39171402735642
 30
0.0
 10
14.08183570500198
 20
60.72739220620068
 30
0.0
 10
12.45116761403365
 20
63.25896635034347
 30
0.0
 10
8.94503651943245
 20
66.19432360324234
 30
0.0
 10
5.373824535441054
 20
67.7575094662048
 30
0.0
 10
2.326674229058357
 20
68.38468795977161
 30
0.0
 10
0.7722285830013842
 20
68.4845802371272
 30
0.0
 10
0.0
 20
68.47694620161542
 30
0.0
  0
SPLINE
  5
249
330
1F
100
AcDbEntity
  8
Default
100
AcDbSpline
210
0.0
220
0.0
230
1.0
 70
     8
 71
     3
 72
    12
 73
     8
 74
     0
 42
0.0000000001
 43
0.0000000001
 40
0.0
 40
0.0
 40
0.0
 40
0.0
 40
2.315241172828346
 40
4.66252058763445
 40
9.309249842901858
 40
13.89761326846572
 40
18.23362376580278
 40
18.23362376580278
 40
18.23362376580278
 40
18.23362376580278
 10
0.0
 20
68.47694620161542
 30
0.0
 10
-0.7722285830013842
 20
68.4845802371272
 30
0.0
 10
-2.326674229058357
 20
68.38468795977161
 30
0.0
 10
-5.373824535441054
 20
67.7575094662048
 30
0.0
 10
-8.94503651943245
 20
66.19432360324234
 30
0.0
 10
-12.45116761403365
 20
63.25896635034347
 30
0.0
 10
-14.08183570500198
 20
60.72739220620068
 30
0.0
 10
-14.63765284564931
 20
59.39171402735642
 30
0.0
  0
SPLINE
  5
24A
330
1F
100
AcDbEntity
  8
Default
100
AcDbSpline
210
0.0
220
0.0
230
1.0
 70
     8
 71
     3
 72
    12
 73
     8
 74
     0
 42
0.0000000001
 43
0.0000000001
 40
-5.0
 40
-5.0
 40
-5.0
 40
-5.0
 40
-4.0
 40
-3.0
 40
-2.0
 40
-1.0
 40
-0.1399861834852595
 40
-0.1399861834852595
 40
-0.1399861834852595
 40
-0.1399861834852595
 10
-14.63765284564931
 20
59.39171402735642
 30
0.0
 10
-14.7511480933662
 20
59.11871603879455
 30
0.0
 10
-14.95366623834524
 20
58.56257795193154
 30
0.0
 10
-15.17579086212485
 20
57.70252093518752
 30
0.0
 10
-15.28861996143594
 20
56.82058294536638
 30
0.0
 10
-15.24295957993166
 20
55.9705774001026
 30
0.0
 10
-15.07498065614623
 20
55.44224188319468
 30
0.0
 10
-14.96672339124673
 20
55.21217542732835
 30
0.0
  0
SPLINE
  5
24B
330
1F
100
AcDbEntity
  8
Default
100
AcDbSpline
210
0.0
220
0.0
230
1.0
 70
     8
 71
     3
 72
    19
 73
    15
 74
     0
 42
0.0000000001
 43
0.0000000001
 40
-12.0
 40
-12.0
 40
-12.0
 40
-12.0
 40
-11.0
 40
-10.0
 40
-9.0
 40
-8.0
 40
-7.0
 40
-6.0
 40
-5.0
 40
-4.0
 40
-3.0
 40
-2.0
 40
-1.0
 40
0.0
 40
0.0
 40
0.0
 40
0.0
 10
8.537660076427818
 20
47.77292708437783
 30
0.0
 10
9.200183962012277
 20
48.41907939178754
 30
0.0
 10
10.55285961462565
 20
49.67497043125961
 30
0.0
 10
12.57706331238557
 20
51.59142310097914
 30
0.0
 10
14.30420302611182
 20
53.7245000187085
 30
0.0
 10
15.93824345369431
 20
56.12326428352284
 30
0.0
 10
15.37086576750776
 20
58.99648289489061
 30
0.0
 10
14.15436228699789
 20
61.47384278900396
 30
0.0
 10
12.45420637145
 20
63.69154431023178
 30
0.0
 10
10.38434187433001
 20
65.55195987559341
 30
0.0
 10
8.03242714048359
 20
67.04158172417476
 30
0.0
 10
5.473223648728673
 20
68.13468383269671
 30
0.0
 10
2.773912163744229
 20
68.81221707670414
 30
0.0
 10
0.9248862476291556
 20
68.96947837535421
 30
0.0
 10
0.0
 20
68.96964504876533
 30
0.0
  0
SPLINE
  5
24C
330
1F
100
AcDbEntity
  8
Default
100
AcDbSpline
210
0.0
220
0.0
230
1.0
 70
     8
 71
     3
 72
    16
 73
    12
 74
     0
 42
0.0000000001
 43
0.0000000001
 40
0.0
 40
0.0
 40
0.0
 40
0.0
 40
1.0
 40
2.0
 40
3.0
 40
4.0
 40
5.0
 40
6.0
 40
7.0
 40
8.0
 40
8.400907109426209
 40
8.400907109426209
 40
8.400907109426209
 40
8.400907109426209
 10
0.0
 20
68.96964504876533
 30
0.0
 10
-0.9248862476291556
 20
68.96947837535421
 30
0.0
 10
-2.773912163744229
 20
68.81221707670414
 30
0.0
 10
-5.473223648728673
 20
68.13468383269671
 30
0.0
 10
-8.03242714048359
 20
67.04158172417476
 30
0.0
 10
-10.38434187433001
 20
65.55195987559341
 30
0.0
 10
-12.45420637145
 20
63.69154431023178
 30
0.0
 10
-14.15436228699789
 20
61.47384278900396
 30
0.0
 10
-15.37086576750776
 20
58.99648289489061
 30
0.0
 10
-15.82493947433945
 20
56.69703923123442
 30
0.0
 10
-15.36982516738223
 20
55.51052443458023
 30
0.0
 10
-15.20325305033308
 20
55.18143896342315
 30
0.0
  0
SPLINE
  5
24D
330
1F
100
AcDbEntity
  8
Default
100
AcDbSpline
210
0.0
220
0.0
230
1.0
 70
     8
 71
     3
 72
    12
 73
     8
 74
     0
 42
0.0000000001
 43
0.0000000001
 40
7.673324098771615
 40
7.673324098771615
 40
7.673324098771615
 40
7.673324098771615
 40
8.0
 40
9.0
 40
10.0
 40
11.0
 40
12.0
 40
12.0
 40
12.0
 40
12.0
 10
-14.39255194227842
 20
55.25676626990898
 30
0.0
 10
-14.43843627698622
 20
55.34823242412202
 30
0.0
 10
-14.60896101890348
 20
55.72660843076416
 30
0.0
 10
-14.75596027135722
 20
56.45060494337491
 30
0.0
 10
-14.72978430082385
 20
57.39509938805573
 30
0.0
 10
-14.54403949884788
 20
58.32052301952642
 30
0.0
 10
-14.34054069928794
 20
58.91522063956218
 30
0.0
 10
-14.22302257279546
 20
59.20607531758954
 30
0.0
  0
SPLINE
  5
24E
330
1F
100
AcDbEntity
  8
Default
100
AcDbSpline
210
0.0
220
0.0
230
1.0
 70
    12
 71
     2
 72
     6
 73
     3
 74
     0
 42
0.0000000001
 43
0.0000000001
 40
0.0
 40
0.0
 40
0.0
 40
0.7038513494140428
 40
0.7038513494140428
 40
0.7038513494140428
 10
54.77205237989529
 20
15.22132989508759
 30
0.0
 41
1.0
 10
54.76930577285094
 20
15.66176421094761
 30
0.0
 41
0.7240920788525397
 10
54.32925775257532
 20
15.68041438422586
 30
0.0
 41
1.0
  0
SPLINE
  5
24F
330
1F
100
AcDbEntity
  8
Default
100
AcDbSpline
210
0.0
220
0.0
230
1.0
 70
     8
 71
     3
 72
    14
 73
    10
 74
     0
 42
0.0000000001
 43
0.0000000001
 40
0.0
 40
0.0
 40
0.0
 40
0.0
 40
1.0
 40
2.0
 40
3.0
 40
4.0
 40
5.0
 40
6.0
 40
6.720541163822391
 40
6.720541163822391
 40
6.720541163822391
 40
6.720541163822391
 10
54.32925775257532
 20
15.68041438422586
 30
0.0
 10
54.13367175195291
 20
15.68884131584748
 30
0.0
 10
53.7421996590467
 20
15.69627382006001
 30
0.0
 10
53.15488712388298
 20
15.69778025789684
 30
0.0
 10
52.56779651123053
 20
15.69053457199832
 30
0.0
 10
51.9803623471758
 20
15.65874904799264
 30
0.0
 10
51.39440188338607
 20
15.71791922821015
 30
0.0
 10
50.87743898447595
 20
15.85312323451913
 30
0.0
 10
50.5668192298137
 20
15.98448889775016
 30
0.0
 10
50.44005826538658
 20
16.04643405868586
 30
0.0
  0
SPLINE
  5
250
330
1F
100
AcDbEntity
  8
Default
100
AcDbSpline
210
0.0
220
0.0
230
1.0
 70
     8
 71
     3
 72
    10
 73
     6
 74
     0
 42
0.0000000001
 43
0.0000000001
 40
9.066127876735989
 40
9.066127876735989
 40
9.066127876735989
 40
9.066127876735989
 40
10.0
 40
11.0
 40
12.0
 40
12.0
 40
12.0
 40
12.0
 10
49.32693585253542
 20
16.84757338860812
 30
0.0
 10
49.19475314901165
 20
16.97391612188665
 30
0.0
 10
48.92924016900257
 20
17.24385430252292
 30
0.0
 10
48.54406500282509
 20
17.67008684501546
 30
0.0
 10
48.29651083267947
 20
17.97357285430939
 30
0.0
 10
48.17644150739905
 20
18.12817950161722
 30
0.0
  0
SPLINE
  5
251
330
1F
100
AcDbEntity
  8
Default
100
AcDbSpline
210
0.0
220
0.0
230
1.0
 70
    24
 71
     2
 72
     6
 73
     3
 74
     0
 42
0.0000000001
 43
0.0000000001
 40
0.0
 40
0.0
 40
0.0
 40
1.314622470337779
 40
1.314622470337779
 40
1.314622470337779
 10
54.29583501597823
 20
15.68185061119047
 30
0.0
 10
54.26853892361687
 20
16.33859484087281
 30
0.0
 10
54.24124283125551
 20
16.99533907055515
 30
0.0
  0
SPLINE
  5
252
330
1F
100
AcDbEntity
  8
Default
100
AcDbSpline
210
0.0
220
0.0
230
1.0
 70
     8
 71
     3
 72
     8
 73
     4
 74
     0
 42
0.0000000001
 43
0.0000000001
 40
0.0
 40
0.0
 40
0.0
 40
0.0
 40
1.0
 40
1.0
 40
1.0
 40
1.0
 10
54.24124283125551
 20
16.99533907055515
 30
0.0
 10
54.23509822579842
 20
17.14317833356013
 30
0.0
 10
54.13826616988312
 20
17.22166369928816
 30
0.0
 10
53.98456636908409
 20
17.238185134512
 30
0.0
  0
SPLINE
  5
253
330
1F
100
AcDbEntity
  8
Default
100
AcDbSpline
210
0.0
220
0.0
230
1.0
 70
     8
 71
     3
 72
    10
 73
     6
 74
     0
 42
0.0000000001
 43
0.0000000001
 40
-3.0
 40
-3.0
 40
-3.0
 40
-3.0
 40
-2.0
 40
-1.0
 40
-0.9534235839192461
 40
-0.9534235839192461
 40
-0.9534235839192461
 40
-0.9534235839192461
 10
53.98456636908409
 20
17.238185134512
 30
0.0
 10
53.41410425615808
 20
17.29950501129365
 30
0.0
 10
52.26700966084002
 20
17.3373601948117
 30
0.0
 10
51.09351623931439
 20
17.35483592581127
 30
0.0
 10
50.4933152403172
 20
17.35895973858504
 30
0.0
 10
50.46660395300527
 20
17.3591339341117
 30
0.0
  0
SPLINE
  5
254
330
1F
100
AcDbEntity
  8
Default
100
AcDbSpline
210
0.0
220
0.0
230
1.0
 70
     8
 71
     3
 72
     8
 73
     4
 74
     0
 42
0.0000000001
 43
0.0000000001
 40
-0.2941212404618491
 40
-0.2941212404618491
 40
-0.2941212404618491
 40
-0.2941212404618491
 40
0.0
 40
0.0
 40
0.0
 40
0.0
 10
49.33222351908518
 20
17.36150020179878
 30
0.0
 10
49.16353510674323
 20
17.36118969166534
 30
0.0
 10
48.99484878817395
 20
17.36062194402372
 30
0.0
 10
48.82616875899995
 20
17.35984816006589
 30
0.0
  0
SPLINE
  5
255
330
1F
100
AcDbEntity
  8
Default
100
AcDbSpline
210
0.0
220
0.0
230
1.0
 70
     8
 71
     3
 72
     8
 73
     4
 74
     0
 42
0.0000000001
 43
0.0000000001
 40
9.050958931667408
 40
9.050958931667408
 40
9.050958931667408
 40
9.050958931667408
 40
13.0444822786923
 40
13.0444822786923
 40
13.0444822786923
 40
13.0444822786923
 10
46.52276746335711
 20
12.32101550850964
 30
0.0
 10
45.19896802825976
 20
12.18141165996962
 30
0.0
 10
43.86691545503585
 20
12.12181941038494
 30
0.0
 10
42.53605333251221
 20
12.12132613620393
 30
0.0
  0
SPLINE
  5
256
330
1F
100
AcDbEntity
  8
Default
100
AcDbSpline
210
0.0
220
0.0
230
1.0
 70
     8
 71
     3
 72
    19
 73
    15
 74
     0
 42
0.0000000001
 43
0.0000000001
 40
0.0
 40
0.0
 40
0.0
 40
0.0
 40
1.0
 40
2.0
 40
3.0
 40
4.0
 40
5.0
 40
6.0
 40
7.0
 40
8.0
 40
9.0
 40
10.0
 40
11.0
 40
12.0
 40
12.0
 40
12.0
 40
12.0
 10
42.53605333251221
 20
12.12132613620393
 30
0.0
 10
42.31703884161209
 20
12.12098026746193
 30
0.0
 10
41.87900792553541
 20
12.12260774761078
 30
0.0
 10
41.22200588794384
 20
12.13016209111598
 30
0.0
 10
40.56507654747376
 20
12.14353497430096
 30
0.0
 10
39.90844689569426
 20
12.16638405978443
 30
0.0
 10
39.252080731516
 20
12.19938103817032
 30
0.0
 10
38.59753424139441
 20
12.25359755538308
 30
0.0
 10
37.9438095373306
 20
12.33231078990419
 30
0.0
 10
37.31086658609075
 20
12.5146675587948
 30
0.0
 10
36.70026561389599
 20
12.75902790568658
 30
0.0
 10
36.11862226536245
 20
13.0667620003592
 30
0.0
 10
35.57233940390582
 20
13.43340801194341
 30
0.0
 10
35.23571012360404
 20
13.71463006732844
 30
0.0
 10
35.07521287934421
 20
13.86365148338612
 30
0.0
  0
SPLINE
  5
257
330
1F
100
AcDbEntity
  8
Default
100
AcDbSpline
210
0.0
220
0.0
230
1.0
 70
     8
 71
     3
 72
    14
 73
    10
 74
     0
 42
0.0000000001
 43
0.0000000001
 40
-16.37408178933761
 40
-16.37408178933761
 40
-16.37408178933761
 40
-16.37408178933761
 40
-14.95710752747041
 40
-13.59285564749454
 40
-11.67916133593988
 40
-9.20366561872866
 40
-4.5321021812345
 40
-1.64651626198485
 40
0.0
 40
0.0
 40
0.0
 40
0.0
 10
35.07521287934421
 20
13.86365148338612
 30
0.0
 10
34.73103798238962
 20
14.18554407319341
 30
0.0
 10
34.1052512287056
 20
14.87865971660719
 30
0.0
 10
33.29832967149907
 20
16.22280981788392
 30
0.0
 10
32.4607379271476
 20
17.94912380710254
 30
0.0
 10
31.3706905153952
 20
20.77032815827017
 30
0.0
 10
30.55941006652332
 20
24.02224332399333
 30
0.0
 10
30.06486314296702
 20
27.05028997031603
 30
0.0
 10
29.90333711645898
 20
28.55358108741015
 30
0.0
 10
29.90947888230584
 20
29.10362705909047
 30
0.0
  0
SPLINE
  5
258
330
1F
100
AcDbEntity
  8
Default
100
AcDbSpline
210
0.0
220
0.0
230
1.0
 70
     8
 71
     3
 72
     8
 73
     4
 74
     0
 42
0.0000000001
 43
0.0000000001
 40
0.0
 40
0.0
 40
0.0
 40
0.0
 40
1.0
 40
1.0
 40
1.0
 40
1.0
 10
29.90947888230584
 20
29.10362705909047
 30
0.0
 10
29.91217900206921
 20
29.3454451348562
 30
0.0
 10
30.1091313791617
 20
29.62126213921204
 30
0.0
 10
30.46338133913886
 20
29.54433689231286
 30
0.0
  0
SPLINE
  5
259
330
1F
100
AcDbEntity
  8
Default
100
AcDbSpline
210
0.0
220
0.0
230
1.0
 70
    12
 71
     3
 72
    22
 73
    18
 74
     0
 42
0.0000000001
 43
0.0000000001
 40
0.0
 40
0.0
 40
0.0
 40
0.0
 40
0.5733453317215156
 40
4.879117115964801
 40
9.234147877084636
 40
9.234147877084636
 40
9.234147877084636
 40
14.59274354194941
 40
14.59274354194941
 40
14.59274354194941
 40
15.59274354194941
 40
16.59274354194941
 40
17.59274354194941
 40
18.59274354194941
 40
19.59274354194941
 40
20.59274354194941
 40
21.55973895752022
 40
21.55973895752022
 40
21.55973895752022
 40
21.55973895752022
 10
30.46338133913886
 20
29.54433689231286
 30
0.0
 41
1.0
 10
30.64575226064111
 20
29.50473511461698
 30
0.0
 41
1.0
 10
32.23240090001901
 20
29.21695412332596
 30
0.0
 41
1.0
 10
35.21316230382215
 20
28.6724462348327
 30
0.0
 41
1.0
 10
38.05589855703904
 20
28.16905577360659
 30
0.0
 41
1.0
 10
39.48744594747893
 20
27.92807355487963
 30
0.0
 41
1.0
 10
41.30373539031488
 20
27.61475679648304
 30
0.0
 41
0.9397413184370592
 10
42.82568348202717
 20
26.57516714069497
 30
0.0
 41
0.9397413184370592
 10
43.77815846637436
 20
24.99723749358822
 30
0.0
 41
1.0
 10
44.02232647604071
 20
24.58860723127557
 30
0.0
 41
1.0
 10
44.51300377845563
 20
23.77274823712358
 30
0.0
 41
1.0
 10
45.25595072641335
 20
22.55315294977643
 30
0.0
 41
1.0
 10
46.00597054694678
 20
21.33790139510045
 30
0.0
 41
1.0
 10
46.76188458515774
 20
20.12629002441982
 30
0.0
 41
1.0
 10
47.55479146255547
 20
18.93819282610339
 30
0.0
 41
1.0
 10
48.40054187408257
 20
17.80633235000421
 30
0.0
 41
1.0
 10
49.00805138723516
 20
17.09291619009612
 30
0.0
 41
1.0
 10
49.32602446341048
 20
16.75997030833395
 30
0.0
 41
1.0
  0
SPLINE
  5
25A
330
1F
100
AcDbEntity
  8
Default
100
AcDbSpline
210
0.0
220
0.0
230
1.0
 70
     8
 71
     3
 72
     9
 73
     5
 74
     0
 42
0.0000000001
 43
0.0000000001
 40
0.854071574665241
 40
0.854071574665241
 40
0.854071574665241
 40
0.854071574665241
 40
1.0
 40
2.0
 40
2.0
 40
2.0
 40
2.0
 10
50.43581113513142
 20
15.83442953388858
 30
0.0
 10
50.50378812411439
 20
15.79264716278706
 30
0.0
 10
51.04631897817676
 20
15.47893538521726
 30
0.0
 10
51.65674208099938
 20
15.28759740675396
 30
0.0
 10
52.20198482836953
 20
15.23786127526394
 30
0.0
  0
SPLINE
  5
25B
330
1F
100
AcDbEntity
  8
Default
100
AcDbSpline
210
0.0
220
0.0
230
1.0
 70
     8
 71
     3
 72
     8
 73
     4
 74
     0
 42
0.0000000001
 43
0.0000000001
 40
0.0
 40
0.0
 40
0.0
 40
0.0
 40
1.0
 40
1.0
 40
1.0
 40
1.0
 10
52.20198482836953
 20
15.23786127526394
 30
0.0
 10
53.05501054619663
 20
15.15852750183379
 30
0.0
 10
53.91534547383981
 20
15.22132989508751
 30
0.0
 10
54.7720523798941
 20
15.22132989508751
 30
0.0
  0
SPLINE
  5
25C
330
1F
100
AcDbEntity
  8
Default
100
AcDbSpline
210
0.0
220
0.0
230
1.0
 70
     8
 71
     3
 72
    13
 73
     9
 74
     0
 42
0.0000000001
 43
0.0000000001
 40
0.0
 40
0.0
 40
0.0
 40
0.0
 40
0.286105356394717
 40
0.6323793272272145
 40
1.570242750951684
 40
2.93508711673459
 40
4.89069209457038
 40
5.758290456426645
 40
5.758290456426645
 40
5.758290456426645
 40
5.758290456426645
 10
54.7720523798941
 20
15.22132989508751
 30
0.0
 10
54.77110437442067
 20
15.12682467345979
 30
0.0
 10
54.72169277202538
 20
14.91482142758559
 30
0.0
 10
54.39327571941794
 20
14.4974963454909
 30
0.0
 10
53.63589299310873
 20
14.02479200059194
 30
0.0
 10
52.3123990557874
 20
13.51095625168414
 30
0.0
 10
50.97107619022332
 20
13.1174745128439
 30
0.0
 10
50.05495574108729
 20
12.90186021049846
 30
0.0
 10
49.7724540575967
 20
12.84009885332753
 30
0.0
  0
SPLINE
  5
25D
330
1F
100
AcDbEntity
  8
Default
100
AcDbSpline
210
0.0
220
0.0
230
1.0
 70
     8
 71
     3
 72
    10
 73
     6
 74
     0
 42
0.0000000001
 43
0.0000000001
 40
0.0
 40
0.0
 40
0.0
 40
0.0
 40
1.0
 40
2.0
 40
2.439286617078054
 40
2.439286617078054
 40
2.439286617078054
 40
2.439286617078054
 10
-13.56693002075969
 20
28.28300548433203
 30
0.0
 10
-14.03187420701042
 20
28.12266726168458
 30
0.0
 10
-15.19769998252796
 20
27.99643766113844
 30
0.0
 10
-15.69495925585959
 20
26.70498136554858
 30
0.0
 10
-15.62089184885802
 20
25.971223662383
 30
0.0
 10
-15.58062345692893
 20
25.7496467286443
 30
0.0
  0
SPLINE
  5
25E
330
1F
100
AcDbEntity
  8
Default
100
AcDbSpline
210
0.0
220
0.0
230
1.0
 70
     8
 71
     3
 72
     8
 73
     4
 74
     0
 42
0.0000000001
 43
0.0000000001
 40
2.65064337529583
 40
2.65064337529583
 40
2.65064337529583
 40
2.65064337529583
 40
3.0
 40
3.0
 40
3.0
 40
3.0
 10
-15.51207920709558
 20
25.43144068788203
 30
0.0
 10
-15.46958845325847
 20
25.25699403507171
 30
0.0
 10
-15.42096898891761
 20
25.08397047774872
 30
0.0
 10
-15.37455508948949
 20
24.91224017451558
 30
0.0
  0
SPLINE
  5
25F
330
1F
100
AcDbEntity
  8
Default
100
AcDbSpline
210
0.0
220
0.0
230
1.0
 70
     8
 71
     3
 72
     8
 73
     4
 74
     0
 42
0.0000000001
 43
0.0000000001
 40
0.0
 40
0.0
 40
0.0
 40
0.0
 40
1.0
 40
1.0
 40
1.0
 40
1.0
 10
-15.37455508948949
 20
24.91224017451558
 30
0.0
 10
-14.8648452591744
 20
23.02632615308161
 30
0.0
 10
-14.0351737795472
 20
20.74111123849049
 30
0.0
 10
-13.19813333105703
 20
18.97405757949669
 30
0.0
  0
SPLINE
  5
260
330
1F
100
AcDbEntity
  8
Default
100
AcDbSpline
210
0.0
220
0.0
230
1.0
 70
     8
 71
     3
 72
     8
 73
     4
 74
     0
 42
0.0000000001
 43
0.0000000001
 40
0.0
 40
0.0
 40
0.0
 40
0.0
 40
0.7453477255814986
 40
0.7453477255814986
 40
0.7453477255814986
 40
0.7453477255814986
 10
-13.19813333105703
 20
18.97405757949669
 30
0.0
 10
-12.89168048479744
 20
18.32603159974794
 30
0.0
 10
-12.56570895689496
 20
17.69023545593129
 30
0.0
 10
-12.20583865001673
 20
17.07145386047946
 30
0.0
  0
SPLINE
  5
261
330
1F
100
AcDbEntity
  8
Default
100
AcDbSpline
210
0.0
220
0.0
230
1.0
 70
     8
 71
     3
 72
    11
 73
     7
 74
     0
 42
0.0000000001
 43
0.0000000001
 40
1.609508241626674
 40
1.609508241626674
 40
1.609508241626674
 40
1.609508241626674
 40
2.0
 40
3.0
 40
4.0
 40
5.0
 40
5.0
 40
5.0
 40
5.0
 10
-10.78701876802987
 20
15.02115198438986
 30
0.0
 10
-10.54204749797502
 20
14.73759158621687
 30
0.0
 10
-9.608617758876164
 20
13.78775211620486
 30
0.0
 10
-7.538815646564869
 20
12.68478091587113
 30
0.0
 10
-4.655619394121377
 20
12.31774242423189
 30
0.0
 10
-2.746212410646511
 20
12.17581561238201
 30
0.0
 10
-1.784806875692651
 20
12.14847612705201
 30
0.0
  0
SPLINE
  5
262
330
1F
100
AcDbEntity
  8
Default
100
AcDbSpline
210
0.0
220
0.0
230
1.0
 70
     8
 71
     3
 72
     8
 73
     4
 74
     0
 42
0.0000000001
 43
0.0000000001
 40
0.0
 40
0.0
 40
0.0
 40
0.0
 40
1.0
 40
1.0
 40
1.0
 40
1.0
 10
-1.784806875692651
 20
12.14847612705201
 30
0.0
 10
-0.5954164359132119
 20
12.11465343590061
 30
0.0
 10
0.5954164359132119
 20
12.11465343590061
 30
0.0
 10
1.784806875692651
 20
12.14847612705201
 30
0.0
  0
SPLINE
  5
263
330
1F
100
AcDbEntity
  8
Default
100
AcDbSpline
210
0.0
220
0.0
230
1.0
 70
     8
 71
     3
 72
    12
 73
     8
 74
     0
 42
0.0000000001
 43
0.0000000001
 40
-5.0
 40
-5.0
 40
-5.0
 40
-5.0
 40
-4.0
 40
-3.0
 40
-2.0
 40
-1.0
 40
0.0
 40
0.0
 40
0.0
 40
0.0
 10
1.784806875692651
 20
12.14847612705201
 30
0.0
 10
2.746212410646511
 20
12.17581561238201
 30
0.0
 10
4.655619394121377
 20
12.31774242423189
 30
0.0
 10
7.538815646564869
 20
12.68478091587113
 30
0.0
 10
10.13635914998161
 20
14.06897878620925
 30
0.0
 10
11.8944019247495
 20
16.40980278099619
 30
0.0
 10
12.78697913316838
 20
18.10462985132703
 30
0.0
 10
13.19813333105703
 20
18.97405757949669
 30
0.0
  0
SPLINE
  5
264
330
1F
100
AcDbEntity
  8
Default
100
AcDbSpline
210
0.0
220
0.0
230
1.0
 70
     8
 71
     3
 72
     8
 73
     4
 74
     0
 42
0.0000000001
 43
0.0000000001
 40
-1.0
 40
-1.0
 40
-1.0
 40
-1.0
 40
0.0
 40
0.0
 40
0.0
 40
0.0
 10
13.19813333105703
 20
18.97405757949669
 30
0.0
 10
14.0351737795472
 20
20.74111123849049
 30
0.0
 10
14.8648452591744
 20
23.02632615308161
 30
0.0
 10
15.37455508948949
 20
24.91224017451558
 30
0.0
  0
SPLINE
  5
265
330
1F
100
AcDbEntity
  8
Default
100
AcDbSpline
210
0.0
220
0.0
230
1.0
 70
     8
 71
     3
 72
    10
 73
     6
 74
     0
 42
0.0000000001
 43
0.0000000001
 40
-3.0
 40
-3.0
 40
-3.0
 40
-3.0
 40
-2.0
 40
-1.0
 40
0.0
 40
0.0
 40
0.0
 40
0.0
 10
15.37455508948949
 20
24.91224017451558
 30
0.0
 10
15.50741044744191
 20
25.40380177973362
 30
0.0
 10
15.80926313773513
 20
26.40811718266569
 30
0.0
 10
15.19769998252796
 20
27.99643766113844
 30
0.0
 10
14.03187420701042
 20
28.12266726168458
 30
0.0
 10
13.56693002075969
 20
28.28300548433203
 30
0.0
  0
SPLINE
  5
266
330
1F
100
AcDbEntity
  8
Default
100
AcDbSpline
210
0.0
220
0.0
230
1.0
 70
     8
 71
     3
 72
    12
 73
     8
 74
     0
 42
0.0000000001
 43
0.0000000001
 40
0.0
 40
0.0
 40
0.0
 40
0.0
 40
1.0
 40
2.0
 40
3.0
 40
4.0
 40
4.570703597899961
 40
4.570703597899961
 40
4.570703597899961
 40
4.570703597899961
 10
-6.958906110750879
 20
15.67744501098857
 30
0.0
 10
-7.307460041700423
 20
15.69329962202048
 30
0.0
 10
-8.007593944657284
 20
15.7801854086934
 30
0.0
 10
-8.975535226565796
 20
16.21315544762948
 30
0.0
 10
-9.810092025880586
 20
16.85378770513004
 30
0.0
 10
-10.44120916845305
 20
17.49582525272585
 30
0.0
 10
-10.79577532826132
 20
17.91532974264091
 30
0.0
 10
-10.9205635424014
 20
18.07098221920428
 30
0.0
  0
SPLINE
  5
267
330
1F
100
AcDbEntity
  8
Default
100
AcDbSpline
210
0.0
220
0.0
230
1.0
 70
     8
 71
     3
 72
    13
 73
     9
 74
     0
 42
0.0000000001
 43
0.0000000001
 40
6.974994302125106
 40
6.974994302125106
 40
6.974994302125106
 40
6.974994302125106
 40
7.0
 40
8.0
 40
9.0
 40
10.0
 40
11.0
 40
12.0
 40
12.0
 40
12.0
 40
12.0
 10
-12.31254504044962
 20
20.17037350344492
 30
0.0
 10
-12.31690449928488
 20
20.17795109222173
 30
0.0
 10
-12.49549386491281
 20
20.48862559736416
 30
0.0
 10
-12.83975302360539
 20
21.10729250491573
 30
0.0
 10
-13.31880789449629
 20
22.04048022338406
 30
0.0
 10
-13.7572771456274
 20
22.99351370894244
 30
0.0
 10
-14.14649645479365
 20
23.96786941884178
 30
0.0
 10
-14.36134946581475
 20
24.63379157918772
 30
0.0
 10
-14.45179637492505
 20
24.97152693069524
 30
0.0
  0
SPLINE
  5
268
330
1F
100
AcDbEntity
  8
Default
100
AcDbSpline
210
0.0
220
0.0
230
1.0
 70
     8
 71
     3
 72
     8
 73
     4
 74
     0
 42
0.0000000001
 43
0.0000000001
 40
-0.7054806567143292
 40
-0.7054806567143292
 40
-0.7054806567143292
 40
-0.7054806567143292
 40
0.0
 40
0.0
 40
0.0
 40
0.0
 10
-15.04177867729635
 20
25.43144068788202
 30
0.0
 10
-15.00039986579992
 20
25.28601092211026
 30
0.0
 10
-14.95607834633313
 20
25.14144448497611
 30
0.0
 10
-14.91081277370016
 20
24.99716232440102
 30
0.0
  0
SPLINE
  5
269
330
1F
100
AcDbEntity
  8
Default
100
AcDbSpline
210
0.0
220
0.0
230
1.0
 70
     8
 71
     3
 72
    11
 73
     7
 74
     0
 42
0.0000000001
 43
0.0000000001
 40
0.0
 40
0.0
 40
0.0
 40
0.0
 40
1.000022147458375
 40
2.000044294916751
 40
3.000066442375125
 40
3.21291836639935
 40
3.21291836639935
 40
3.21291836639935
 40
3.21291836639935
 10
-14.91081277370016
 20
24.99716232440102
 30
0.0
 10
-14.71878775626089
 20
24.39160403481939
 30
0.0
 10
-14.2559505465083
 20
23.20708041712143
 30
0.0
 10
-13.42427613841357
 20
21.49179246626762
 30
0.0
 10
-12.74655477766737
 20
20.26022150639384
 30
0.0
 10
-12.35752546342827
 20
19.59516592538098
 30
0.0
 10
-12.28853844666468
 20
19.47888536298454
 30
0.0
  0
SPLINE
  5
26A
330
1F
100
AcDbEntity
  8
Default
100
AcDbSpline
210
0.0
220
0.0
230
1.0
 70
     8
 71
     3
 72
     8
 73
     4
 74
     0
 42
0.0000000001
 43
0.0000000001
 40
4.507226124043079
 40
4.507226124043079
 40
4.507226124043079
 40
4.507226124043079
 40
5.0
 40
5.0
 40
5.0
 40
5.0
 10
-10.91177229513562
 20
17.43521806969023
 30
0.0
 10
-10.71710248573021
 20
17.19021848650126
 30
0.0
 10
-10.5129657411361
 20
16.95285355625956
 30
0.0
 10
-10.29722738455031
 20
16.72586534101027
 30
0.0
  0
SPLINE
  5
26B
330
1F
100
AcDbEntity
  8
Default
100
AcDbSpline
210
0.0
220
0.0
230
1.0
 70
     8
 71
     3
 72
    23
 73
    19
 74
     0
 42
0.0000000001
 43
0.0000000001
 40
0.0
 40
0.0
 40
0.0
 40
0.0
 40
0.4723621312436707
 40
0.9040636025257058
 40
1.825165709761714
 40
3.465945693744304
 40
3.465945693744304
 40
3.465945693744304
 40
4.465969837486869
 40
4.465969837486869
 40
4.465969837486869
 40
5.465993981229434
 40
5.465993981229434
 40
5.465993981229434
 40
7.106773965212025
 40
8.027876072448032
 40
8.459577543730068
 40
8.932155330632586
 40
8.932155330632586
 40
8.932155330632586
 40
8.932155330632586
 10
-10.29722738455031
 20
16.72586534101027
 30
0.0
 10
-10.18797421712511
 20
16.61390585925075
 30
0.0
 10
-9.977190955313645
 20
16.39435247094779
 30
0.0
 10
-9.503898907781341
 20
16.01659938062799
 30
0.0
 10
-8.657993157566102
 20
15.46981106684234
 30
0.0
 10
-7.80991429249395
 20
15.27129088675147
 30
0.0
 10
-7.26453017706572
 20
15.23778522335807
 30
0.0
 10
-4.847570723230159
 20
15.08929936246695
 30
0.0
 10
-2.421516271341089
 20
15.1962162611812
 30
0.0
 10
0.0000000000000041
 20
15.19621626118117
 30
0.0
 10
2.421516271341097
 20
15.19621626118117
 30
0.0
 10
4.847570723230166
 20
15.0892993624669
 30
0.0
 10
7.264530177065728
 20
15.237785223358
 30
0.0
 10
7.809914292493959
 20
15.2712908867514
 30
0.0
 10
8.657993157566112
 20
15.46981106684226
 30
0.0
 10
9.503898907781357
 20
16.0165993806279
 30
0.0
 10
9.977246877966492
 20
16.3943971050273
 30
0.0
 10
10.18807477641028
 20
16.61401060578591
 30
0.0
 10
10.29753372347302
 20
16.72586534101022
 30
0.0
  0
SPLINE
  5
26C
330
1F
100
AcDbEntity
  8
Default
100
AcDbSpline
210
0.0
220
0.0
230
1.0
 70
     8
 71
     3
 72
    12
 73
     8
 74
     0
 42
0.0000000001
 43
0.0000000001
 40
-5.0
 40
-5.0
 40
-5.0
 40
-5.0
 40
-4.0
 40
-3.0
 40
-2.0
 40
-1.0
 40
0.0
 40
0.0
 40
0.0
 40
0.0
 10
10.29753372347302
 20
16.72586534101022
 30
0.0
 10
10.73551885983355
 20
17.18634667357648
 30
0.0
 10
11.51560425772616
 20
18.19309047978513
 30
0.0
 10
12.50608878657276
 20
19.8221277632888
 30
0.0
 10
13.42488881625897
 20
21.49179246626762
 30
0.0
 10
14.2565632243537
 20
23.20708041712143
 30
0.0
 10
14.71940043410629
 20
24.39160403481939
 30
0.0
 10
14.91142545154556
 20
24.99716232440102
 30
0.0
  0
SPLINE
  5
26D
330
1F
100
AcDbEntity
  8
Default
100
AcDbSpline
210
0.0
220
0.0
230
1.0
 70
     8
 71
     3
 72
    12
 73
     8
 74
     0
 42
0.0000000001
 43
0.0000000001
 40
0.0
 40
0.0
 40
0.0
 40
0.0
 40
1.0
 40
2.0
 40
3.0
 40
4.0
 40
5.0
 40
5.0
 40
5.0
 40
5.0
 10
14.91142545154556
 20
24.99716232440102
 30
0.0
 10
14.97558819251112
 20
25.20167843579529
 30
0.0
 10
15.10012003346457
 20
25.61185301289403
 30
0.0
 10
15.24138349035444
 20
26.24043689009901
 30
0.0
 10
15.28984085077773
 20
26.88308552182666
 30
0.0
 10
15.15935509768371
 20
27.52887930036719
 30
0.0
 10
14.83931251300163
 20
27.85062866457426
 30
0.0
 10
14.63765442560646
 20
27.92799796532164
 30
0.0
  0
SPLINE
  5
26E
330
1F
100
AcDbEntity
  8
Default
100
AcDbSpline
210
0.0
220
0.0
230
1.0
 70
     8
 71
     3
 72
    12
 73
     8
 74
     0
 42
0.0000000001
 43
0.0000000001
 40
-5.0
 40
-5.0
 40
-5.0
 40
-5.0
 40
-4.0
 40
-3.0
 40
-2.0
 40
-1.0
 40
0.0
 40
0.0
 40
0.0
 40
0.0
 10
14.63765442560646
 20
27.92799796532164
 30
0.0
 10
13.71584873979386
 20
28.2814030560323
 30
0.0
 10
11.78641623978793
 20
28.71315700107611
 30
0.0
 10
8.857655121289188
 20
29.12008156035748
 30
0.0
 10
5.911074414901415
 20
29.38139454316233
 30
0.0
 10
2.957053548376546
 20
29.51966069637295
 30
0.0
 10
0.9859597877122321
 20
29.55919239699819
 30
0.0
 10
0.0003063389227016
 20
29.56387670717542
 30
0.0
  0
SPLINE
  5
26F
330
1F
100
AcDbEntity
  8
Default
100
AcDbSpline
210
0.0
220
0.0
230
1.0
 70
     8
 71
     3
 72
    12
 73
     8
 74
     0
 42
0.0000000001
 43
0.0000000001
 40
0.0
 40
0.0
 40
0.0
 40
0.0
 40
1.0
 40
2.0
 40
3.0
 40
4.0
 40
5.0
 40
5.0
 40
5.0
 40
5.0
 10
0.0003063389227016
 20
29.56387670717542
 30
0.0
 10
-0.9853471098668289
 20
29.55919239699819
 30
0.0
 10
-2.956440870531142
 20
29.51966069637295
 30
0.0
 10
-5.910461737056012
 20
29.38139454316233
 30
0.0
 10
-8.857042443443785
 20
29.12008156035748
 30
0.0
 10
-11.78580356194253
 20
28.71315700107611
 30
0.0
 10
-13.71523606194846
 20
28.2814030560323
 30
0.0
 10
-14.63704174776106
 20
27.92799796532164
 30
0.0
  0
SPLINE
  5
270
330
1F
100
AcDbEntity
  8
Default
100
AcDbSpline
210
0.0
220
0.0
230
1.0
 70
     8
 71
     3
 72
    11
 73
     7
 74
     0
 42
0.0000000001
 43
0.0000000001
 40
-5.0
 40
-5.0
 40
-5.0
 40
-5.0
 40
-4.0
 40
-3.0
 40
-2.0
 40
-1.217482035430607
 40
-1.217482035430607
 40
-1.217482035430607
 40
-1.217482035430607
 10
-14.63704174776106
 20
27.92799796532164
 30
0.0
 10
-14.83869983515623
 20
27.85062866457426
 30
0.0
 10
-15.15874241983831
 20
27.52887930036719
 30
0.0
 10
-15.28922817293233
 20
26.88308552182666
 30
0.0
 10
-15.24428368096785
 20
26.28702506759729
 30
0.0
 10
-15.16634508680844
 20
25.91262897947928
 30
0.0
 10
-15.12643412090571
 20
25.7496467286443
 30
0.0
  0
SPLINE
  5
271
330
1F
100
AcDbEntity
  8
Default
100
AcDbSpline
210
0.0
220
0.0
230
1.0
 70
    12
 71
     2
 72
     6
 73
     3
 74
     0
 42
0.0000000001
 43
0.0000000001
 40
0.0
 40
0.0
 40
0.0
 40
0.2848297924636928
 40
0.2848297924636928
 40
0.2848297924636928
 10
-1.269417757372509
 20
8.524739291697863
 30
0.0
 41
1.0
 10
-1.327782734752471
 20
8.66372359397342
 30
0.0
 41
0.9191630720278404
 10
-1.472551539644215
 20
8.71885108985921
 30
0.0
 41
1.0
  0
SPLINE
  5
272
330
1F
100
AcDbEntity
  8
Default
100
AcDbSpline
210
0.0
220
0.0
230
1.0
 70
    12
 71
     2
 72
     6
 73
     3
 74
     0
 42
0.0000000001
 43
0.0000000001
 40
0.0
 40
0.0
 40
0.0
 40
8.55403057480208
 40
8.55403057480208
 40
8.55403057480208
 10
-1.472551539644215
 20
8.71885108985921
 30
0.0
 41
1.0
 10
-5.473122242455543
 20
10.24330644479147
 30
0.0
 41
0.9999999995230491
 10
-9.47308002427927
 20
11.76719539814216
 30
0.0
 41
1.0
  0
SPLINE
  5
273
330
1F
100
AcDbEntity
  8
Default
100
AcDbSpline
210
0.0
220
0.0
230
1.0
 70
     8
 71
     3
 72
    12
 73
     8
 74
     0
 42
0.0000000001
 43
0.0000000001
 40
0.0
 40
0.0
 40
0.0
 40
0.0
 40
0.6930437478149829
 40
1.32765868136064
 40
2.492549863782481
 40
3.645157442336307
 40
4.986886914207258
 40
4.986886914207258
 40
4.986886914207258
 40
4.986886914207258
 10
-9.47308002427927
 20
11.76719539814216
 30
0.0
 10
-9.691697883740517
 20
11.85024406426858
 30
0.0
 10
-10.09875123338559
 20
12.02967091072424
 30
0.0
 10
-10.81031599211447
 20
12.45726616118722
 30
0.0
 10
-11.53434037217971
 20
13.14952639037447
 30
0.0
 10
-12.0399228728535
 20
14.28084885399768
 30
0.0
 10
-12.1377958390344
 20
15.11284564060565
 30
0.0
 10
-12.15473555885995
 20
15.5635711897921
 30
0.0
  0
SPLINE
  5
274
330
1F
100
AcDbEntity
  8
Default
100
AcDbSpline
210
0.0
220
0.0
230
1.0
 70
    12
 71
     2
 72
     6
 73
     3
 74
     0
 42
0.0000000001
 43
0.0000000001
 40
0.0
 40
0.0
 40
0.0
 40
6.582689554136967
 40
6.582689554136967
 40
6.582689554136967
 10
-12.15473555885995
 20
15.5635711897921
 30
0.0
 41
1.0
 10
-12.26577399261657
 20
18.85719716040327
 30
0.0
 41
0.999999699257555
 10
-12.38177294557347
 20
22.14649785026952
 30
0.0
 41
1.0
  0
SPLINE
  5
275
330
1F
100
AcDbEntity
  8
Default
100
AcDbSpline
210
0.0
220
0.0
230
1.0
 70
     8
 71
     3
 72
     8
 73
     4
 74
     0
 42
0.0000000001
 43
0.0000000001
 40
-1.0
 40
-1.0
 40
-1.0
 40
-1.0
 40
0.0
 40
0.0
 40
0.0
 40
0.0
 10
-12.38177294557347
 20
22.14649785026952
 30
0.0
 10
-12.38795514194017
 20
22.32180204272538
 30
0.0
 10
-12.40581252079217
 20
22.49714855950677
 30
0.0
 10
-12.43612224210331
 20
22.66992326899447
 30
0.0
  0
SPLINE
  5
276
330
1F
100
AcDbEntity
  8
Default
100
AcDbSpline
210
0.0
220
0.0
230
1.0
 70
    12
 71
     2
 72
     6
 73
     3
 74
     0
 42
0.0000000001
 43
0.0000000001
 40
0.0
 40
0.0
 40
0.0
 40
2.806836410498757
 40
2.806836410498757
 40
2.806836410498757
 10
-12.43612224210331
 20
22.66992326899447
 30
0.0
 41
1.0
 10
-12.67862266597286
 20
24.05225007611395
 30
0.0
 41
0.9999805045748583
 10
-12.93836698962393
 20
25.43144068788197
 30
0.0
 41
1.0
  0
ENDSEC
  0
SECTION
  2
OBJECTS
  0
DICTIONARY
  5
C
330
0
100
AcDbDictionary
281
     1
  3
ACAD_GROUP
350
D
  3
ACAD_LAYOUT
350
1A
  3
ACAD_MLEADERSTYLE
350
278
  3
ACAD_MLINESTYLE
350
17
  3
ACAD_PLOTSETTINGS
350
19
  3
ACAD_PLOTSTYLENAME
350
E
  3
ACAD_TABLESTYLE
350
277
  3
ACAD_VISUALSTYLE
350
2A
  0
DICTIONARY
  5
D
102
{ACAD_REACTORS
330
C
102
}
330
C
100
AcDbDictionary
281
     1
  0
DICTIONARY
  5
1A
102
{ACAD_REACTORS
330
C
102
}
330
C
100
AcDbDictionary
281
     1
  3
Layout1
350
1E
  3
Layout2
350
26
  3
Model
350
22
  0
DICTIONARY
  5
278
102
{ACAD_REACTORS
330
C
102
}
330
C
100
AcDbDictionary
281
     1
  0
DICTIONARY
  5
17
102
{ACAD_REACTORS
330
C
102
}
330
C
100
AcDbDictionary
281
     1
  3
Standard
350
18
  0
DICTIONARY
  5
19
102
{ACAD_REACTORS
330
C
102
}
330
C
100
AcDbDictionary
281
     1
  0
ACDBDICTIONARYWDFLT
  5
E
102
{ACAD_REACTORS
330
C
102
}
330
C
100
AcDbDictionary
281
     1
  3
Normal
350
F
100
AcDbDictionaryWithDefault
340
F
  0
DICTIONARY
  5
277
102
{ACAD_REACTORS
330
C
102
}
330
C
100
AcDbDictionary
281
     1
  0
DICTIONARY
  5
2A
102
{ACAD_REACTORS
330
C
102
}
330
C
100
AcDbDictionary
281
     1
  3
2dWireframe
350
2F
  3
3D Hidden
350
31
  3
3dWireframe
350
30
  3
Basic
350
32
  3
Brighten
350
36
  3
ColorChange
350
3A
  3
Conceptual
350
34
  3
Dim
350
35
  3
Facepattern
350
39
  3
Flat
350
2B
  3
FlatWithEdges
350
2C
  3
Gouraud
350
2D
  3
GouraudWithEdges
350
2E
  3
Linepattern
350
38
  3
Realistic
350
33
  3
Thicken
350
37
  0
LAYOUT
  5
1E
102
{ACAD_REACTORS
330
1A
102
}
330
1A
100
AcDbPlotSettings
  1

  2
none_device
  4

  6

 40
0.0
 41
0.0
 42
0.0
 43
0.0
 44
0.0
 45
0.0
 46
0.0
 47
0.0
 48
0.0
 49
0.0
140
0.0
141
0.0
142
1.0
143
1.0
 70
   688
 72
     0
 73
     0
 74
     5
  7

 75
    16
 76
     0
 77
     2
 78
   300
147
1.0
148
0.0
149
0.0
100
AcDbLayout
  1
Layout1
 70
     1
 71
     1
 10
0.0
 20
0.0
 11
12.0
 21
9.0
 12
0.0
 22
0.0
 32
0.0
 14
1.000000000000000E+20
 24
1.000000000000000E+20
 34
1.000000000000000E+20
 15
-1.000000000000000E+20
 25
-1.000000000000000E+20
 35
-1.000000000000000E+20
146
0.0
 13
0.0
 23
0.0
 33
0.0
 16
1.0
 26
0.0
 36
0.0
 17
0.0
 27
1.0
 37
0.0
 76
     0
330
1B
  0
LAYOUT
  5
26
102
{ACAD_REACTORS
330
1A
102
}
330
1A
100
AcDbPlotSettings
  1

  2
none_device
  4

  6

 40
0.0
 41
0.0
 42
0.0
 43
0.0
 44
0.0
 45
0.0
 46
0.0
 47
0.0
 48
0.0
 49
0.0
140
0.0
141
0.0
142
1.0
143
1.0
 70
   688
 72
     0
 73
     0
 74
     5
  7

 75
    16
 76
     0
 77
     2
 78
   300
147
1.0
148
0.0
149
0.0
100
AcDbLayout
  1
Layout2
 70
     1
 71
     2
 10
0.0
 20
0.0
 11
0.0
 21
0.0
 12
0.0
 22
0.0
 32
0.0
 14
0.0
 24
0.0
 34
0.0
 15
0.0
 25
0.0
 35
0.0
146
0.0
 13
0.0
 23
0.0
 33
0.0
 16
1.0
 26
0.0
 36
0.0
 17
0.0
 27
1.0
 37
0.0
 76
     0
330
23
  0
LAYOUT
  5
22
102
{ACAD_REACTORS
330
1A
102
}
330
1A
100
AcDbPlotSettings
  1

  2
none_device
  4

  6

 40
0.0
 41
0.0
 42
0.0
 43
0.0
 44
0.0
 45
0.0
 46
0.0
 47
0.0
 48
0.0
 49
0.0
140
0.0
141
0.0
142
1.0
143
1.0
 70
  1712
 72
     0
 73
     0
 74
     0
  7

 75
     0
 76
     0
 77
     2
 78
   300
147
1.0
148
0.0
149
0.0
100
AcDbLayout
  1
Model
 70
     1
 71
     0
 10
0.0
 20
0.0
 11
12.0
 21
9.0
 12
0.0
 22
0.0
 32
0.0
 14
-21.94529949049637
 24
-0.0000000000000001
 34
0.0
 15
59.3776832835701
 25
69.04066176504008
 35
0.0
146
0.0
 13
0.0
 23
0.0
 33
0.0
 16
1.0
 26
0.0
 36
0.0
 17
0.0
 27
1.0
 37
0.0
 76
     0
330
1F
331
29
  0
MLINESTYLE
  5
18
102
{ACAD_REACTORS
330
17
102
}
330
17
100
AcDbMlineStyle
  2
Standard
 70
     0
  3

 62
   256
 51
90.0
 52
90.0
 71
     2
 49
0.5
 62
   256
  6
BYLAYER
 49
-0.5
 62
   256
  6
BYLAYER
  0
ACDBPLACEHOLDER
  5
F
102
{ACAD_REACTORS
330
E
102
}
330
E
  0
VISUALSTYLE
  5
2F
102
{ACAD_REACTORS
330
2A
102
}
330
2A
100
AcDbVisualStyle
  2
2dWireframe
 70
     4
 71
     0
 72
     2
 73
     0
 90
        0
 40
-0.6
 41
-30.0
 62
     5
 63
     7
421
 16777215
 74
     1
 91
        4
 64
     7
 65
   257
 75
     1
175
     1
 42
1.0
 92
        0
 66
   257
 43
1.0
 76
     1
 77
     6
 78
     2
 67
     7
 79
     5
170
     0
171
     0
290
     0
174
     0
 93
        1
 44
0.0
173
     0
291
     0
 45
0.0
1001
ACAD
1000
AcDbSavedByObjectVersion
1070
     0
  0
VISUALSTYLE
  5
31
102
{ACAD_REACTORS
330
2A
102
}
330
2A
100
AcDbVisualStyle
  2
3D Hidden
 70
     6
 71
     1
 72
     2
 73
     2
 90
        0
 40
-0.6
 41
-30.0
 62
     5
 63
     7
421
 16777215
 74
     2
 91
        2
 64
     7
 65
   257
 75
     2
175
     1
 42
40.0
 92
        0
 66
   257
 43
1.0
 76
     1
 77
     6
 78
     2
 67
     7
 79
     3
170
     0
171
     0
290
     0
174
     0
 93
        1
 44
0.0
173
     0
291
     0
 45
0.0
1001
ACAD
1000
AcDbSavedByObjectVersion
1070
     0
  0
VISUALSTYLE
  5
30
102
{ACAD_REACTORS
330
2A
102
}
330
2A
100
AcDbVisualStyle
  2
3dWireframe
 70
     5
 71
     0
 72
     2
 73
     0
 90
        0
 40
-0.6
 41
-30.0
 62
     5
 63
     7
421
 16777215
 74
     1
 91
        4
 64
     7
 65
   257
 75
     1
175
     1
 42
1.0
 92
        0
 66
   257
 43
1.0
 76
     1
 77
     6
 78
     2
 67
     7
 79
     5
170
     0
171
     0
290
     0
174
     0
 93
        1
 44
0.0
173
     0
291
     0
 45
0.0
1001
ACAD
1000
AcDbSavedByObjectVersion
1070
     0
  0
VISUALSTYLE
  5
32
102
{ACAD_REACTORS
330
2A
102
}
330
2A
100
AcDbVisualStyle
  2
Basic
 70
     7
 71
     1
 72
     0
 73
     1
 90
        0
 40
-0.6
 41
-30.0
 62
     5
 63
     7
421
 16777215
 74
     0
 91
        4
 64
     7
 65
   257
 75
     1
175
     1
 42
1.0
 92
        8
 66
     7
 43
1.0
 76
     1
 77
     6
 78
     2
 67
     7
 79
     5
170
     0
171
     0
290
     0
174
     0
 93
        1
 44
0.0
173
     0
291
     1
 45
0.0
1001
ACAD
1000
AcDbSavedByObjectVersion
1070
     0
  0
VISUALSTYLE
  5
36
102
{ACAD_REACTORS
330
2A
102
}
330
2A
100
AcDbVisualStyle
  2
Brighten
 70
    12
 71
     2
 72
     2
 73
     0
 90
        0
 40
-0.6
 41
-30.0
 62
     5
 63
     7
421
 16777215
 74
     1
 91
        4
 64
     7
 65
   257
 75
     1
175
     1
 42
1.0
 92
        8
 66
     7
 43
1.0
 76
     1
 77
     6
 78
     2
 67
     7
 79
     5
170
     0
171
     0
290
     0
174
     0
 93
        1
 44
50.0
173
     0
291
     1
 45
0.0
1001
ACAD
1000
AcDbSavedByObjectVersion
1070
     0
  0
VISUALSTYLE
  5
3A
102
{ACAD_REACTORS
330
2A
102
}
330
2A
100
AcDbVisualStyle
  2
ColorChange
 70
    16
 71
     2
 72
     2
 73
     3
 90
        0
 40
-0.6
 41
-30.0
 62
     5
 63
     8
421
  8421504
 74
     1
 91
        4
 64
     7
 65
   257
 75
     1
175
     1
 42
1.0
 92
        8
 66
     8
424
  8421504
 43
1.0
 76
     1
 77
     6
 78
     2
 67
     7
 79
     5
170
     0
171
     0
290
     0
174
     0
 93
        1
 44
0.0
173
     0
291
     1
 45
0.0
1001
ACAD
1000
AcDbSavedByObjectVersion
1070
     0
  0
VISUALSTYLE
  5
34
102
{ACAD_REACTORS
330
2A
102
}
330
2A
100
AcDbVisualStyle
  2
Conceptual
 70
     9
 71
     3
 72
     2
 73
     0
 90
        0
 40
-0.6
 41
-30.0
 62
     5
 63
     7
421
 16777215
 74
     2
 91
        2
 64
     7
 65
   257
 75
     1
175
     1
 42
40.0
 92
        8
 66
     7
 43
1.0
 76
     1
 77
     6
 78
     2
 67
     7
 79
     3
170
     0
171
     0
290
     0
174
     0
 93
        1
 44
0.0
173
     0
291
     0
 45
0.0
1001
ACAD
1000
AcDbSavedByObjectVersion
1070
     0
  0
VISUALSTYLE
  5
35
102
{ACAD_REACTORS
330
2A
102
}
330
2A
100
AcDbVisualStyle
  2
Dim
 70
    11
 71
     2
 72
     2
 73
     0
 90
        0
 40
-0.6
 41
-30.0
 62
     5
 63
     7
421
 16777215
 74
     1
 91
        4
 64
     7
 65
   257
 75
     1
175
     1
 42
1.0
 92
        8
 66
     7
 43
1.0
 76
     1
 77
     6
 78
     2
 67
     7
 79
     5
170
     0
171
     0
290
     0
174
     0
 93
        1
 44
-50.0
173
     0
291
     1
 45
0.0
1001
ACAD
1000
AcDbSavedByObjectVersion
1070
     0
  0
VISUALSTYLE
  5
39
102
{ACAD_REACTORS
330
2A
102
}
330
2A
100
AcDbVisualStyle
  2
Facepattern
 70
    15
 71
     2
 72
     2
 73
     0
 90
        0
 40
-0.6
 41
-30.0
 62
     5
 63
     7
421
 16777215
 74
     1
 91
        4
 64
     7
 65
   257
 75
     1
175
     1
 42
1.0
 92
        8
 66
     7
 43
1.0
 76
     1
 77
     6
 78
     2
 67
     7
 79
     5
170
     0
171
     0
290
     0
174
     0
 93
        1
 44
0.0
173
     0
291
     1
 45
0.0
1001
ACAD
1000
AcDbSavedByObjectVersion
1070
     0
  0
VISUALSTYLE
  5
2B
102
{ACAD_REACTORS
330
2A
102
}
330
2A
100
AcDbVisualStyle
  2
Flat
 70
     0
 71
     2
 72
     1
 73
     1
 90
        2
 40
-0.6
 41
30.0
 62
     5
 63
     7
421
 16777215
 74
     0
 91
        4
 64
     7
 65
   257
 75
     1
175
     1
 42
1.0
 92
        8
 66
     7
 43
1.0
 76
     1
 77
     6
 78
     2
 67
     7
 79
     5
170
     0
171
     0
290
     0
174
     0
 93
       13
 44
0.0
173
     0
291
     1
 45
0.0
1001
ACAD
1000
AcDbSavedByObjectVersion
1070
     0
  0
VISUALSTYLE
  5
2C
102
{ACAD_REACTORS
330
2A
102
}
330
2A
100
AcDbVisualStyle
  2
FlatWithEdges
 70
     1
 71
     2
 72
     1
 73
     1
 90
        2
 40
-0.6
 41
30.0
 62
     5
 63
     7
421
 16777215
 74
     1
 91
        4
 64
     7
 65
   257
 75
     1
175
     1
 42
1.0
 92
        0
 66
   257
 43
1.0
 76
     1
 77
     6
 78
     2
 67
     7
 79
     5
170
     0
171
     0
290
     0
174
     0
 93
       13
 44
0.0
173
     0
291
     1
 45
0.0
1001
ACAD
1000
AcDbSavedByObjectVersion
1070
     0
  0
VISUALSTYLE
  5
2D
102
{ACAD_REACTORS
330
2A
102
}
330
2A
100
AcDbVisualStyle
  2
Gouraud
 70
     2
 71
     2
 72
     2
 73
     1
 90
        2
 40
-0.6
 41
30.0
 62
     5
 63
     7
421
 16777215
 74
     0
 91
        4
 64
     7
 65
   257
 75
     1
175
     1
 42
1.0
 92
        0
 66
     7
 43
1.0
 76
     1
 77
     6
 78
     2
 67
     7
 79
     5
170
     0
171
     0
290
     0
174
     0
 93
       13
 44
0.0
173
     0
291
     1
 45
0.0
1001
ACAD
1000
AcDbSavedByObjectVersion
1070
     0
  0
VISUALSTYLE
  5
2E
102
{ACAD_REACTORS
330
2A
102
}
330
2A
100
AcDbVisualStyle
  2
GouraudWithEdges
 70
     3
 71
     2
 72
     2
 73
     1
 90
        2
 40
-0.6
 41
30.0
 62
     5
 63
     7
421
 16777215
 74
     1
 91
        4
 64
     7
 65
   257
 75
     1
175
     1
 42
1.0
 92
        0
 66
   257
 43
1.0
 76
     1
 77
     6
 78
     2
 67
     7
 79
     5
170
     0
171
     0
290
     0
174
     0
 93
       13
 44
0.0
173
     0
291
     1
 45
0.0
1001
ACAD
1000
AcDbSavedByObjectVersion
1070
     0
  0
VISUALSTYLE
  5
38
102
{ACAD_REACTORS
330
2A
102
}
330
2A
100
AcDbVisualStyle
  2
Linepattern
 70
    14
 71
     2
 72
     2
 73
     0
 90
        0
 40
-0.6
 41
-30.0
 62
     5
 63
     7
421
 16777215
 74
     1
 91
        4
 64
     7
 65
   257
 75
     7
175
     7
 42
1.0
 92
        8
 66
     7
 43
1.0
 76
     1
 77
     6
 78
     2
 67
     7
 79
     5
170
     0
171
     0
290
     0
174
     0
 93
        1
 44
0.0
173
     0
291
     1
 45
0.0
1001
ACAD
1000
AcDbSavedByObjectVersion
1070
     0
  0
VISUALSTYLE
  5
33
102
{ACAD_REACTORS
330
2A
102
}
330
2A
100
AcDbVisualStyle
  2
Realistic
 70
     8
 71
     2
 72
     2
 73
     0
 90
        0
 40
-0.6
 41
-30.0
 62
     5
 63
     7
421
 16777215
 74
     1
 91
        0
 64
     7
 65
   257
 75
     1
175
     1
 42
1.0
 92
        8
 66
     8
424
  7895160
 43
1.0
 76
     1
 77
     6
 78
     2
 67
     7
 79
     5
170
     0
171
     0
290
     0
174
     0
 93
       13
 44
0.0
173
     0
291
     0
 45
0.0
1001
ACAD
1000
AcDbSavedByObjectVersion
1070
     0
  0
VISUALSTYLE
  5
37
102
{ACAD_REACTORS
330
2A
102
}
330
2A
100
AcDbVisualStyle
  2
Thicken
 70
    13
 71
     2
 72
     2
 73
     0
 90
        0
 40
-0.6
 41
-30.0
 62
     5
 63
     7
421
 16777215
 74
     1
 91
        4
 64
     7
 65
   257
 75
     1
175
     1
 42
1.0
 92
       12
 66
     7
 43
1.0
 76
     1
 77
     6
 78
     2
 67
     7
 79
     5
170
     0
171
     0
290
     0
174
     0
 93
        1
 44
0.0
173
     0
291
     1
 45
0.0
1001
ACAD
1000
AcDbSavedByObjectVersion
1070
     0
  0
ENDSEC
  0
EOF
