  0
SECTION
  2
HEADER
  9
$ACADVER
  1
AC1018
  9
$ACADMAINTVER
 70
     0
  9
$DWGCODEPAGE
  3
ANSI_1252
  9
$INSBASE
 10
0.0
 20
0.0
 30
0.0
  9
$EXTMIN
 10
-12.26318283884851
 20
-0.0017796313076643
 30
0.0
  9
$EXTMAX
 10
47.63692345242365
 20
76.27360139964283
 30
0.0
  9
$LIMMIN
 10
0.0
 20
0.0
  9
$LIMMAX
 10
12.0
 20
9.0
  9
$ORTHOMODE
 70
     0
  9
$REGENMODE
 70
     1
  9
$FILLMODE
 70
     1
  9
$QTEXTMODE
 70
     0
  9
$MIRRTEXT
 70
     1
  9
$LTSCALE
 40
0.0393700787401575
  9
$ATTMODE
 70
     1
  9
$TEXTSIZE
 40
0.2
  9
$TRACEWID
 40
0.05
  9
$TEXTSTYLE
  7
Standard
  9
$CLAYER
  8
Default
  9
$CELTYPE
  6
ByLayer
  9
$CECOLOR
 62
   256
  9
$CELTSCALE
 40
1.0
  9
$DISPSILH
 70
     0
  9
$DIMSCALE
 40
1.0
  9
$DIMASZ
 40
0.18
  9
$DIMEXO
 40
0.0625
  9
$DIMDLI
 40
0.38
  9
$DIMRND
 40
0.0
  9
$DIMDLE
 40
0.0
  9
$DIMEXE
 40
0.18
  9
$DIMTP
 40
0.0
  9
$DIMTM
 40
0.0
  9
$DIMTXT
 40
0.18
  9
$DIMCEN
 40
0.09
  9
$DIMTSZ
 40
0.0
  9
$DIMTOL
 70
     0
  9
$DIMLIM
 70
     0
  9
$DIMTIH
 70
     1
  9
$DIMTOH
 70
     1
  9
$DIMSE1
 70
     0
  9
$DIMSE2
 70
     0
  9
$DIMTAD
 70
     0
  9
$DIMZIN
 70
     0
  9
$DIMBLK
  1

  9
$DIMASO
 70
     1
  9
$DIMSHO
 70
     1
  9
$DIMPOST
  1

  9
$DIMAPOST
  1

  9
$DIMALT
 70
     0
  9
$DIMALTD
 70
     2
  9
$DIMALTF
 40
25.4
  9
$DIMLFAC
 40
1.0
  9
$DIMTOFL
 70
     0
  9
$DIMTVP
 40
0.0
  9
$DIMTIX
 70
     0
  9
$DIMSOXD
 70
     0
  9
$DIMSAH
 70
     0
  9
$DIMBLK1
  1

  9
$DIMBLK2
  1

  9
$DIMSTYLE
  2
Standard
  9
$DIMCLRD
 70
     0
  9
$DIMCLRE
 70
     0
  9
$DIMCLRT
 70
     0
  9
$DIMTFAC
 40
1.0
  9
$DIMGAP
 40
0.09
  9
$DIMJUST
 70
     0
  9
$DIMSD1
 70
     0
  9
$DIMSD2
 70
     0
  9
$DIMTOLJ
 70
     1
  9
$DIMTZIN
 70
     0
  9
$DIMALTZ
 70
     0
  9
$DIMALTTZ
 70
     0
  9
$DIMUPT
 70
     0
  9
$DIMDEC
 70
     4
  9
$DIMTDEC
 70
     4
  9
$DIMALTU
 70
     2
  9
$DIMALTTD
 70
     2
  9
$DIMTXSTY
  7
Standard
  9
$DIMAUNIT
 70
     0
  9
$DIMADEC
 70
     0
  9
$DIMALTRND
 40
0.0
  9
$DIMAZIN
 70
     0
  9
$DIMDSEP
 70
    46
  9
$DIMATFIT
 70
     3
  9
$DIMFRAC
 70
     0
  9
$DIMLDRBLK
  1

  9
$DIMLUNIT
 70
     2
  9
$DIMLWD
 70
    -2
  9
$DIMLWE
 70
    -2
  9
$DIMTMOVE
 70
     2
  9
$LUNITS
 70
     2
  9
$LUPREC
 70
     3
  9
$SKETCHINC
 40
0.1
  9
$FILLETRAD
 40
0.5
  9
$AUNITS
 70
     0
  9
$AUPREC
 70
     0
  9
$MENU
  1
.
  9
$ELEVATION
 40
0.0
  9
$PELEVATION
 40
0.0
  9
$THICKNESS
 40
0.0
  9
$LIMCHECK
 70
     0
  9
$CHAMFERA
 40
0.5
  9
$CHAMFERB
 40
0.5
  9
$CHAMFERC
 40
1.0
  9
$CHAMFERD
 40
0.0
  9
$SKPOLY
 70
     0
  9
$TDCREATE
 40
2456338.476458195
  9
$TDUCREATE
 40
2456338.684791528
  9
$TDUPDATE
 40
2456338.476458206
  9
$TDUUPDATE
 40
2456338.684791539
  9
$TDINDWG
 40
0.0000000116
  9
$TDUSRTIMER
 40
0.0000000116
  9
$USRTIMER
 70
     1
  9
$ANGBASE
 50
0.0
  9
$ANGDIR
 70
     0
  9
$PDMODE
 70
     0
  9
$PDSIZE
 40
0.0
  9
$PLINEWID
 40
0.0
  9
$SPLFRAME
 70
     0
  9
$SPLINETYPE
 70
     6
  9
$SPLINESEGS
 70
     8
  9
$HANDSEED
  5
1A9
  9
$SURFTAB1
 70
     6
  9
$SURFTAB2
 70
     6
  9
$SURFTYPE
 70
     6
  9
$SURFU
 70
     6
  9
$SURFV
 70
     6
  9
$UCSBASE
  2

  9
$UCSNAME
  2

  9
$UCSORG
 10
0.0
 20
0.0
 30
0.0
  9
$UCSXDIR
 10
1.0
 20
0.0
 30
0.0
  9
$UCSYDIR
 10
0.0
 20
1.0
 30
0.0
  9
$UCSORTHOREF
  2

  9
$UCSORTHOVIEW
 70
     0
  9
$UCSORGTOP
 10
0.0
 20
0.0
 30
0.0
  9
$UCSORGBOTTOM
 10
0.0
 20
0.0
 30
0.0
  9
$UCSORGLEFT
 10
0.0
 20
0.0
 30
0.0
  9
$UCSORGRIGHT
 10
0.0
 20
0.0
 30
0.0
  9
$UCSORGFRONT
 10
0.0
 20
0.0
 30
0.0
  9
$UCSORGBACK
 10
0.0
 20
0.0
 30
0.0
  9
$PUCSBASE
  2

  9
$PUCSNAME
  2

  9
$PUCSORG
 10
0.0
 20
0.0
 30
0.0
  9
$PUCSXDIR
 10
1.0
 20
0.0
 30
0.0
  9
$PUCSYDIR
 10
0.0
 20
1.0
 30
0.0
  9
$PUCSORTHOREF
  2

  9
$PUCSORTHOVIEW
 70
     0
  9
$PUCSORGTOP
 10
0.0
 20
0.0
 30
0.0
  9
$PUCSORGBOTTOM
 10
0.0
 20
0.0
 30
0.0
  9
$PUCSORGLEFT
 10
0.0
 20
0.0
 30
0.0
  9
$PUCSORGRIGHT
 10
0.0
 20
0.0
 30
0.0
  9
$PUCSORGFRONT
 10
0.0
 20
0.0
 30
0.0
  9
$PUCSORGBACK
 10
0.0
 20
0.0
 30
0.0
  9
$USERI1
 70
     0
  9
$USERI2
 70
     0
  9
$USERI3
 70
     0
  9
$USERI4
 70
     0
  9
$USERI5
 70
     0
  9
$USERR1
 40
0.0
  9
$USERR2
 40
0.0
  9
$USERR3
 40
0.0
  9
$USERR4
 40
0.0
  9
$USERR5
 40
0.0
  9
$WORLDVIEW
 70
     1
  9
$SHADEDGE
 70
     3
  9
$SHADEDIF
 70
    70
  9
$TILEMODE
 70
     1
  9
$MAXACTVP
 70
    64
  9
$PINSBASE
 10
0.0
 20
0.0
 30
0.0
  9
$PLIMCHECK
 70
     0
  9
$PEXTMIN
 10
1.000000000000000E+20
 20
1.000000000000000E+20
 30
1.000000000000000E+20
  9
$PEXTMAX
 10
-1.000000000000000E+20
 20
-1.000000000000000E+20
 30
-1.000000000000000E+20
  9
$PLIMMIN
 10
0.0
 20
0.0
  9
$PLIMMAX
 10
12.0
 20
9.0
  9
$UNITMODE
 70
     0
  9
$VISRETAIN
 70
     1
  9
$PLINEGEN
 70
     0
  9
$PSLTSCALE
 70
     1
  9
$TREEDEPTH
 70
  3020
  9
$CMLSTYLE
  2
Standard
  9
$CMLJUST
 70
     0
  9
$CMLSCALE
 40
1.0
  9
$PROXYGRAPHICS
 70
     1
  9
$MEASUREMENT
 70
     0
  9
$CELWEIGHT
370
    -1
  9
$ENDCAPS
280
     0
  9
$JOINSTYLE
280
     0
  9
$LWDISPLAY
290
     0
  9
$INSUNITS
 70
     1
  9
$HYPERLINKBASE
  1

  9
$STYLESHEET
  1

  9
$XEDIT
290
     1
  9
$CEPSNTYPE
380
     0
  9
$PSTYLEMODE
290
     1
  9
$FINGERPRINTGUID
  2
{BAC7AF60-9921-4D53-8B16-8042911B7288}
  9
$VERSIONGUID
  2
{FAEB1C32-E019-11D5-929B-00C0DF256EC4}
  9
$EXTNAMES
290
     1
  9
$PSVPSCALE
 40
0.0
  9
$OLESTARTUP
290
     0
  9
$SORTENTS
280
   127
  9
$INDEXCTL
280
     0
  9
$HIDETEXT
280
     1
  9
$XCLIPFRAME
290
     0
  9
$HALOGAP
280
     0
  9
$OBSCOLOR
 70
   257
  9
$OBSLTYPE
280
     0
  9
$INTERSECTIONDISPLAY
280
     0
  9
$INTERSECTIONCOLOR
 70
   257
  9
$DIMASSOC
280
     2
  9
$PROJECTNAME
  1

  0
ENDSEC
  0
SECTION
  2
CLASSES
  0
CLASS
  1
ACDBDICTIONARYWDFLT
  2
AcDbDictionaryWithDefault
  3
ObjectDBX Classes
 90
        0
 91
        4
280
     0
281
     0
  0
CLASS
  1
VISUALSTYLE
  2
AcDbVisualStyle
  3
ObjectDBX Classes
 90
     4095
 91
        4
280
     0
281
     0
  0
ENDSEC
  0
SECTION
  2
TABLES
  0
TABLE
  2
VPORT
  5
8
330
0
100
AcDbSymbolTable
 70
     1
  0
VPORT
  5
29
330
8
100
AcDbSymbolTableRecord
100
AcDbViewportTableRecord
  2
*Active
 70
     0
 10
0.0
 20
0.0
 11
1.0
 21
1.0
 12
17.68687030678757
 22
38.13591088416758
 13
0.0
 23
0.0
 14
0.5
 24
0.5
 15
0.5
 25
0.5
 16
0.0
 26
0.0
 36
1.0
 17
0.0
 27
0.0
 37
0.0
 40
77.80088865156951
 41
0.7853137602415426
 42
50.0
 43
0.0
 44
0.0
 50
0.0
 51
0.0
 71
     0
 72
   100
 73
     1
 74
     3
 75
     0
 76
     0
 77
     0
 78
     0
281
     0
 65
     1
110
0.0
120
0.0
130
0.0
111
1.0
121
0.0
131
0.0
112
0.0
122
1.0
132
0.0
 79
     0
146
0.0
  0
ENDTAB
  0
TABLE
  2
LTYPE
  5
5
330
0
100
AcDbSymbolTable
 70
     1
  0
LTYPE
  5
14
330
5
100
AcDbSymbolTableRecord
100
AcDbLinetypeTableRecord
  2
ByBlock
 70
     0
  3

 72
    65
 73
     0
 40
0.0
  0
LTYPE
  5
15
330
5
100
AcDbSymbolTableRecord
100
AcDbLinetypeTableRecord
  2
ByLayer
 70
     0
  3

 72
    65
 73
     0
 40
0.0
  0
LTYPE
  5
16
330
5
100
AcDbSymbolTableRecord
100
AcDbLinetypeTableRecord
  2
Continuous
 70
     0
  3
Solid line
 72
    65
 73
     0
 40
0.0
  0
ENDTAB
  0
TABLE
  2
LAYER
  5
2
330
0
100
AcDbSymbolTable
 70
     3
  0
LAYER
  5
10
330
2
100
AcDbSymbolTableRecord
100
AcDbLayerTableRecord
  2
0
 70
     0
 62
     7
  6
Continuous
370
    -3
390
F
  0
LAYER
  5
3B
330
2
100
AcDbSymbolTableRecord
100
AcDbLayerTableRecord
  2
Make2D visible lines
 70
     0
 62
     7
  6
Continuous
370
    -3
390
F
  0
LAYER
  5
3D
330
2
100
AcDbSymbolTableRecord
100
AcDbLayerTableRecord
  2
Default
 70
     0
 62
     7
  6
Continuous
370
    -3
390
F
  0
ENDTAB
  0
TABLE
  2
STYLE
  5
3
330
0
100
AcDbSymbolTable
 70
     1
  0
STYLE
  5
11
330
3
100
AcDbSymbolTableRecord
100
AcDbTextStyleTableRecord
  2
Standard
 70
     0
 40
0.0
 41
1.0
 50
0.0
 71
     0
 42
0.2
  3
txt
  4

  0
ENDTAB
  0
TABLE
  2
VIEW
  5
6
330
0
100
AcDbSymbolTable
 70
     0
  0
ENDTAB
  0
TABLE
  2
UCS
  5
7
330
0
100
AcDbSymbolTable
 70
     0
  0
ENDTAB
  0
TABLE
  2
APPID
  5
9
330
0
100
AcDbSymbolTable
 70
     1
  0
APPID
  5
12
330
9
100
AcDbSymbolTableRecord
100
AcDbRegAppTableRecord
  2
ACAD
 70
     0
  0
ENDTAB
  0
TABLE
  2
DIMSTYLE
  5
A
330
0
100
AcDbSymbolTable
 70
     1
100
AcDbDimStyleTable
  0
DIMSTYLE
105
27
330
A
100
AcDbSymbolTableRecord
100
AcDbDimStyleTableRecord
  2
Standard
 70
     0
340
11
  0
ENDTAB
  0
TABLE
  2
BLOCK_RECORD
  5
1
330
0
100
AcDbSymbolTable
 70
     1
  0
BLOCK_RECORD
  5
1F
330
1
100
AcDbSymbolTableRecord
100
AcDbBlockTableRecord
  2
*Model_Space
340
22
  0
BLOCK_RECORD
  5
1B
330
1
100
AcDbSymbolTableRecord
100
AcDbBlockTableRecord
  2
*Paper_Space
340
1E
  0
BLOCK_RECORD
  5
23
330
1
100
AcDbSymbolTableRecord
100
AcDbBlockTableRecord
  2
*Paper_Space0
340
26
  0
ENDTAB
  0
ENDSEC
  0
SECTION
  2
BLOCKS
  0
BLOCK
  5
20
330
1F
100
AcDbEntity
  8
0
100
AcDbBlockBegin
  2
*Model_Space
 70
     0
 10
0.0
 20
0.0
 30
0.0
  3
*Model_Space
  1

  0
ENDBLK
  5
21
330
1F
100
AcDbEntity
  8
0
100
AcDbBlockEnd
  0
BLOCK
  5
1C
330
1B
100
AcDbEntity
 67
     1
  8
0
100
AcDbBlockBegin
  2
*Paper_Space
 70
     0
 10
0.0
 20
0.0
 30
0.0
  3
*Paper_Space
  1

  0
ENDBLK
  5
1D
330
1B
100
AcDbEntity
 67
     1
  8
0
100
AcDbBlockEnd
  0
BLOCK
  5
24
330
23
100
AcDbEntity
  8
0
100
AcDbBlockBegin
  2
*Paper_Space0
 70
     0
 10
0.0
 20
0.0
 30
0.0
  3
*Paper_Space0
  1

  0
ENDBLK
  5
25
330
23
100
AcDbEntity
  8
0
100
AcDbBlockEnd
  0
ENDSEC
  0
SECTION
  2
ENTITIES
  0
SPLINE
  5
3C
330
1F
100
AcDbEntity
  8
Make2D visible lines
100
AcDbSpline
210
0.0
220
0.0
230
1.0
 70
    12
 71
     2
 72
     6
 73
     3
 74
     0
 42
0.0000000001
 43
0.0000000001
 40
0.0
 40
0.0
 40
0.0
 40
0.0208053500132229
 40
0.0208053500132229
 40
0.0208053500132229
 10
43.27645098490225
 20
0.3863938877440814
 30
0.0
 41
1.0
 10
43.2889377985348
 20
0.3886763263770563
 30
0.0
 41
0.7500142205744408
 10
43.29276370755996
 20
0.3765729193799095
 30
0.0
 41
1.0
  0
ARC
  5
3E
330
1F
100
AcDbEntity
  8
Default
100
AcDbCircle
 10
39.40883555626839
 20
10.35738375342237
 30
0.0
 40
1.034448667275178
100
AcDbArc
 50
95.95967767913591
 51
118.7379243994009
  0
ARC
  5
3F
330
1F
100
AcDbEntity
  8
Default
100
AcDbCircle
 10
41.52932322540654
 20
-4.988971024112234
 30
0.0
 40
16.52607304946735
100
AcDbArc
 50
96.24380826290141
 51
97.74767892271223
  0
SPLINE
  5
40
330
1F
100
AcDbEntity
  8
Default
100
AcDbSpline
210
0.0
220
0.0
230
1.0
 70
     8
 71
     3
 72
     8
 73
     4
 74
     0
 42
0.0000000001
 43
0.0000000001
 40
-1.0
 40
-1.0
 40
-1.0
 40
-1.0
 40
0.0
 40
0.0
 40
0.0
 40
0.0
 10
39.7319566044887
 20
11.43907096713984
 30
0.0
 10
39.82302334945072
 20
11.44903443860878
 30
0.0
 10
39.91871716552887
 20
11.42046537509887
 30
0.0
 10
39.99993536728563
 20
11.37808582218609
 30
0.0
  0
SPLINE
  5
41
330
1F
100
AcDbEntity
  8
Default
100
AcDbSpline
210
0.0
220
0.0
230
1.0
 70
    12
 71
     2
 72
     6
 73
     3
 74
     0
 42
0.0000000001
 43
0.0000000001
 40
0.0
 40
0.0
 40
0.0
 40
0.8224495834174671
 40
0.8224495834174671
 40
0.8224495834174671
 10
39.99993536728563
 20
11.37808582218609
 30
0.0
 41
1.0
 10
40.39217829934145
 20
11.17341396619612
 30
0.0
 41
0.8974817562644566
 10
40.47017183477874
 20
10.73602372921157
 30
0.0
 41
1.0
  0
SPLINE
  5
42
330
1F
100
AcDbEntity
  8
Default
100
AcDbSpline
210
0.0
220
0.0
230
1.0
 70
    24
 71
     2
 72
     6
 73
     3
 74
     0
 42
0.0000000001
 43
0.0000000001
 40
0.0
 40
0.0
 40
0.0
 40
10.71255698384767
 40
10.71255698384767
 40
10.71255698384767
 10
40.47017183477874
 20
10.73602372921157
 30
0.0
 10
41.57538549719587
 20
5.494059981641152
 30
0.0
 10
42.68059915961299
 20
0.2520962340707317
 30
0.0
  0
SPLINE
  5
43
330
1F
100
AcDbEntity
  8
Default
100
AcDbSpline
210
0.0
220
0.0
230
1.0
 70
    24
 71
     2
 72
     6
 73
     3
 74
     0
 42
0.0000000001
 43
0.0000000001
 40
0.0
 40
0.0
 40
0.0
 40
10.70899345845929
 40
10.70899345845929
 40
10.70899345845929
 10
43.29179363349857
 20
0.3827460294363292
 30
0.0
 10
42.18683999665822
 20
5.623478572108619
 30
0.0
 10
41.08188635981787
 20
10.86421111478091
 30
0.0
  0
SPLINE
  5
44
330
1F
100
AcDbEntity
  8
Default
100
AcDbSpline
210
0.0
220
0.0
230
1.0
 70
    12
 71
     2
 72
     6
 73
     3
 74
     0
 42
0.0000000001
 43
0.0000000001
 40
0.0
 40
0.0
 40
0.0
 40
0.7441357564216832
 40
0.7441357564216832
 40
0.7441357564216832
 10
41.08188635981787
 20
10.86421111478091
 30
0.0
 41
1.0
 10
41.00400970887483
 20
11.23769618604829
 30
0.0
 41
0.9742761547969873
 10
40.77182747775763
 20
11.53675802696186
 30
0.0
 41
1.0
  0
SPLINE
  5
45
330
1F
100
AcDbEntity
  8
Default
100
AcDbSpline
210
0.0
220
0.0
230
1.0
 70
     8
 71
     3
 72
     8
 73
     4
 74
     0
 42
0.0000000001
 43
0.0000000001
 40
0.0
 40
0.0
 40
0.0
 40
0.0
 40
1.0
 40
1.0
 40
1.0
 40
1.0
 10
40.77182747775763
 20
11.53675802696186
 30
0.0
 10
40.63876442006396
 20
11.70814962226171
 30
0.0
 10
40.46063105574426
 20
11.85195149850079
 30
0.0
 10
40.26433268412374
 20
11.94440584161862
 30
0.0
  0
SPLINE
  5
46
330
1F
100
AcDbEntity
  8
Default
100
AcDbSpline
210
0.0
220
0.0
230
1.0
 70
    12
 71
     2
 72
     6
 73
     3
 74
     0
 42
0.0000000001
 43
0.0000000001
 40
0.0
 40
0.0
 40
0.0
 40
0.7311920014828095
 40
0.7311920014828095
 40
0.7311920014828095
 10
40.26433268412374
 20
11.94440584161862
 30
0.0
 41
1.0
 10
39.92388276255018
 20
12.10475395660173
 30
0.0
 41
0.9577928888427971
 10
39.55140136315063
 20
12.05113237345241
 30
0.0
 41
1.0
  0
SPLINE
  5
47
330
1F
100
AcDbEntity
  8
Default
100
AcDbSpline
210
0.0
220
0.0
230
1.0
 70
     8
 71
     3
 72
     8
 73
     4
 74
     0
 42
0.0000000001
 43
0.0000000001
 40
0.0
 40
0.0
 40
0.0
 40
0.0
 40
1.0
 40
1.0
 40
1.0
 40
1.0
 10
39.55140136315063
 20
12.05113237345241
 30
0.0
 10
39.43978833921643
 20
12.03506481396331
 30
0.0
 10
39.32782947758539
 20
12.02146449791587
 30
0.0
 10
39.21621505752057
 20
12.00540663961323
 30
0.0
  0
SPLINE
  5
48
330
1F
100
AcDbEntity
  8
Default
100
AcDbSpline
210
0.0
220
0.0
230
1.0
 70
     8
 71
     3
 72
    12
 73
     8
 74
     0
 42
0.0000000001
 43
0.0000000001
 40
0.0
 40
0.0
 40
0.0
 40
0.0
 40
0.1921023075555342
 40
0.372816422853232
 40
0.6893916895242499
 40
0.9282225167547821
 40
1.14192952017723
 40
1.14192952017723
 40
1.14192952017723
 40
1.14192952017723
 10
39.21621505752057
 20
12.00540663961323
 30
0.0
 10
39.15292962137189
 20
11.99630182532752
 30
0.0
 10
39.03005652298918
 20
11.97542820619877
 30
0.0
 10
38.80912667653349
 20
11.91212027468575
 30
0.0
 10
38.58191560201108
 20
11.81532478321378
 30
0.0
 10
38.38806641983195
 20
11.63866947703025
 30
0.0
 10
38.34140140264611
 20
11.4878599081092
 30
0.0
 10
38.34194931955988
 20
11.41693134160572
 30
0.0
  0
SPLINE
  5
49
330
1F
100
AcDbEntity
  8
Default
100
AcDbSpline
210
0.0
220
0.0
230
1.0
 70
    12
 71
     2
 72
     6
 73
     3
 74
     0
 42
0.0000000001
 43
0.0000000001
 40
0.0
 40
0.0
 40
0.0
 40
0.1562640355086327
 40
0.1562640355086327
 40
0.1562640355086327
 10
38.34194931955988
 20
11.41693134160572
 30
0.0
 41
1.0
 10
38.34194968248358
 20
11.28732918211752
 30
0.0
 41
0.9999999999998554
 10
38.34194945396511
 20
11.20902361384044
 30
0.0
 41
1.0
  0
SPLINE
  5
4A
330
1F
100
AcDbEntity
  8
Default
100
AcDbSpline
210
0.0
220
0.0
230
1.0
 70
    12
 71
     2
 72
     6
 73
     3
 74
     0
 42
0.0000000001
 43
0.0000000001
 40
0.0
 40
0.0
 40
0.0
 40
0.4908738521233666
 40
0.4908738521233666
 40
0.4908738521233666
 10
38.34194945396511
 20
11.20902361384044
 30
0.0
 41
1.0
 10
38.34194931817582
 20
10.89635006331767
 30
0.0
 41
0.7071067811866039
 10
38.65444931817578
 20
10.89635006331767
 30
0.0
 41
1.0
  0
SPLINE
  5
4B
330
1F
100
AcDbEntity
  8
Default
100
AcDbSpline
210
0.0
220
0.0
230
1.0
 70
    12
 71
     2
 72
     6
 73
     3
 74
     0
 42
0.0000000001
 43
0.0000000001
 40
0.0
 40
0.0
 40
0.0
 40
0.4908738521234364
 40
0.4908738521234364
 40
0.4908738521234364
 10
38.65444931817578
 20
10.89635006331767
 30
0.0
 41
1.0
 10
38.96694931817579
 20
10.89635006331768
 30
0.0
 41
0.7071067811865375
 10
38.96694918239133
 20
11.20902361383926
 30
0.0
 41
1.0
  0
SPLINE
  5
4C
330
1F
100
AcDbEntity
  8
Default
100
AcDbSpline
210
0.0
220
0.0
230
1.0
 70
    12
 71
     2
 72
     6
 73
     3
 74
     0
 42
0.0000000001
 43
0.0000000001
 40
0.0
 40
0.0
 40
0.0
 40
0.0869328280030571
 40
0.0869328280030571
 40
0.0869328280030571
 10
38.96694918239133
 20
11.20902361383926
 30
0.0
 41
1.0
 10
38.96694821801805
 20
11.25266357835978
 30
0.0
 41
0.999999999815881
 10
38.96694905762886
 20
11.29612999235853
 30
0.0
 41
1.0
  0
SPLINE
  5
4D
330
1F
100
AcDbEntity
  8
Make2D visible lines
100
AcDbSpline
210
0.0
220
0.0
230
1.0
 70
    24
 71
     2
 72
     6
 73
     3
 74
     0
 42
0.0000000001
 43
0.0000000001
 40
-11.72227739926365
 40
-11.72227739926365
 40
-11.72227739926365
 40
0.0
 40
0.0
 40
0.0
 10
22.66389531007122
 20
0.4252814432592197
 30
0.0
 10
24.6221227450205
 20
5.952290186917056
 30
0.0
 10
26.58035017996978
 20
11.47929893057489
 30
0.0
  0
SPLINE
  5
4E
330
1F
100
AcDbEntity
  8
Make2D visible lines
100
AcDbSpline
210
0.0
220
0.0
230
1.0
 70
     8
 71
     3
 72
    12
 73
     8
 74
     0
 42
0.0000000001
 43
0.0000000001
 40
-2.573929048860964
 40
-2.573929048860964
 40
-2.573929048860964
 40
-2.573929048860964
 40
-1.893248078869892
 40
-1.257960203361009
 40
-0.6264657551691639
 40
-0.3106905553538196
 40
0.0
 40
0.0
 40
0.0
 40
0.0
 10
26.58035017996978
 20
11.47929893057489
 30
0.0
 10
26.65909195810828
 20
11.69733736869101
 30
0.0
 10
26.89200160023858
 20
12.08102904617056
 30
0.0
 10
27.45263650760276
 20
12.44376771746394
 30
0.0
 10
27.99561422508559
 20
12.48662716058788
 30
0.0
 10
28.39900934468339
 20
12.3599667451507
 30
0.0
 10
28.57937991484181
 20
12.25248654071315
 30
0.0
 10
28.6616780202242
 20
12.18944234052404
 30
0.0
  0
ARC
  5
4F
330
1F
100
AcDbEntity
  8
Make2D visible lines
100
AcDbCircle
 10
31.85822282942988
 20
16.42255866018239
 30
0.0
 40
5.30444836839964
100
AcDbArc
 50
232.9425232885743
 51
260.0502390062414
  0
ARC
  5
50
330
1F
100
AcDbEntity
  8
Make2D visible lines
100
AcDbCircle
 10
32.33796046140415
 20
19.15730593422045
 30
0.0
 40
8.080955319298717
100
AcDbArc
 50
260.0502390062414
 51
263.6976946864867
  0
SPLINE
  5
51
330
1F
100
AcDbEntity
  8
Make2D visible lines
100
AcDbSpline
210
0.0
220
0.0
230
1.0
 70
    12
 71
     2
 72
     6
 73
     3
 74
     0
 42
0.0000000001
 43
0.0000000001
 40
-0.4908738521268115
 40
-0.4908738521268115
 40
-0.4908738521268115
 40
0.0
 40
0.0
 40
0.0
 10
31.45087922098348
 20
11.12518754954782
 30
0.0
 41
1.0
 10
31.76221670722792
 20
11.09825764674997
 30
0.0
 41
0.7071067811648746
 10
31.73528680441098
 20
10.78692016050718
 30
0.0
 41
1.0
  0
SPLINE
  5
52
330
1F
100
AcDbEntity
  8
Make2D visible lines
100
AcDbSpline
210
0.0
220
0.0
230
1.0
 70
    12
 71
     2
 72
     8
 73
     5
 74
     0
 42
0.0000000001
 43
0.0000000001
 40
0.0
 40
0.0
 40
0.0
 40
0.4908738521241969
 40
0.4908738521241969
 40
0.4983571956953172
 40
0.4983571956953172
 40
0.4983571956953172
 10
31.73528680441098
 20
10.78692016050718
 30
0.0
 41
1.0
 10
31.70835690159321
 20
10.4755826742783
 30
0.0
 41
0.7071067812025927
 10
31.3970194153631
 20
10.50251257708193
 30
0.0
 41
1.0
 10
31.39329148461295
 20
10.50283503363547
 30
0.0
 41
0.9999283203046679
 10
31.38956078895674
 20
10.50328355254479
 30
0.0
 41
1.0
  0
ARC
  5
53
330
1F
100
AcDbEntity
  8
Make2D visible lines
100
AcDbCircle
 10
32.36572950763129
 20
19.36592595631515
 30
0.0
 40
8.91624000038285
100
AcDbArc
 50
260.1139939458539
 51
263.7145379715565
  0
ARC
  5
54
330
1F
100
AcDbEntity
  8
Make2D visible lines
100
AcDbCircle
 10
31.84911821010108
 20
16.40160213501587
 30
0.0
 40
5.907236352950992
100
AcDbArc
 50
232.8608844136646
 51
260.1139939458539
  0
SPLINE
  5
55
330
1F
100
AcDbEntity
  8
Make2D visible lines
100
AcDbSpline
210
0.0
220
0.0
230
1.0
 70
     8
 71
     3
 72
    12
 73
     8
 74
     0
 42
0.0000000001
 43
0.0000000001
 40
-1.404091065260296
 40
-1.404091065260296
 40
-1.404091065260296
 40
-1.404091065260296
 40
-1.062417909018669
 40
-0.729580448501684
 40
-0.3751817481579005
 40
-0.188401197218608
 40
0.0
 40
0.0
 40
0.0
 40
0.0
 10
28.28261035455249
 20
11.69251909837955
 30
0.0
 10
28.19257142372722
 20
11.76128861832037
 30
0.0
 10
27.98045451583531
 20
11.8586636278592
 30
0.0
 10
27.62742980528707
 20
11.81786988234269
 30
0.0
 10
27.38549404203532
 20
11.64015945184879
 30
0.0
 10
27.24298155738706
 20
11.44285105996107
 30
0.0
 10
27.19001674589126
 20
11.32828778219324
 30
0.0
 10
27.16858696367592
 20
11.26812040910749
 30
0.0
  0
SPLINE
  5
56
330
1F
100
AcDbEntity
  8
Make2D visible lines
100
AcDbSpline
210
0.0
220
0.0
230
1.0
 70
    24
 71
     2
 72
     6
 73
     3
 74
     0
 42
0.0000000001
 43
0.0000000001
 40
-11.7264901888389
 40
-11.7264901888389
 40
-11.7264901888389
 40
0.0
 40
0.0
 40
0.0
 10
27.16858696367592
 20
11.26812040910749
 30
0.0
 10
25.21028733309427
 20
5.740892425624266
 30
0.0
 10
23.25198770251262
 20
0.2136644421410432
 30
0.0
  0
SPLINE
  5
57
330
1F
100
AcDbEntity
  8
Make2D visible lines
100
AcDbSpline
210
0.0
220
0.0
230
1.0
 70
    12
 71
     2
 72
     8
 73
     5
 74
     0
 42
0.0000000001
 43
0.0000000001
 40
0.0
 40
0.0
 40
0.0
 40
0.4890995006559049
 40
0.4890995006559049
 40
0.9781990013118097
 40
0.9781990013118097
 40
0.9781990013118097
 10
42.68177845640321
 20
0.2425475599930521
 30
0.0
 41
1.0
 10
42.74956139900247
 20
-0.0607025654509406
 30
0.0
 41
0.7091031950961089
 10
43.05318996715582
 20
0.0053645102400404
 30
0.0
 41
1.0
 10
43.35681853530917
 20
0.0714315859310213
 30
0.0
 41
0.7091031950961089
 10
43.29246943906685
 20
0.3754288880605129
 30
0.0
 41
1.0
  0
SPLINE
  5
58
330
1F
100
AcDbEntity
  8
Make2D visible lines
100
AcDbSpline
210
0.0
220
0.0
230
1.0
 70
    12
 71
     2
 72
     6
 73
     3
 74
     0
 42
0.0000000001
 43
0.0000000001
 40
0.0
 40
0.0
 40
0.0
 40
0.3842394126997106
 40
0.3842394126997106
 40
0.3842394126997106
 10
22.95574642333142
 20
-0.0017796313076643
 30
0.0
 41
1.0
 10
23.1763226105886
 20
-0.0016118035881994
 30
0.0
 41
0.8172584746271535
 10
23.25023904858378
 20
0.2062108196874292
 30
0.0
 41
1.0
  0
SPLINE
  5
59
330
1F
100
AcDbEntity
  8
Make2D visible lines
100
AcDbSpline
210
0.0
220
0.0
230
1.0
 70
    12
 71
     2
 72
     8
 73
     5
 74
     0
 42
0.0000000001
 43
0.0000000001
 40
0.0
 40
0.0
 40
0.0
 40
0.2959495117544358
 40
0.2959495117544358
 40
0.5918990235088717
 40
0.5918990235088717
 40
0.5918990235088717
 10
22.65947585485023
 20
0.4100944723012909
 30
0.0
 41
1.0
 10
22.60863325846411
 20
0.2582650721525375
 30
0.0
 41
0.8900445242472584
 10
22.70213184687002
 20
0.1282837260950554
 30
0.0
 41
1.0
 10
22.79563043527592
 20
-0.0016976199624266
 30
0.0
 41
0.8900445242472584
 10
22.95574642333131
 20
-0.0017796313076667
 30
0.0
 41
1.0
  0
SPLINE
  5
5A
330
1F
100
AcDbEntity
  8
Make2D visible lines
100
AcDbSpline
210
0.0
220
0.0
230
1.0
 70
    12
 71
     3
 72
    11
 73
     7
 74
     0
 42
0.0000000001
 43
0.0000000001
 40
0.0
 40
0.0
 40
0.0
 40
0.0
 40
0.3934469952921459
 40
0.3934469952921459
 40
0.3934469952921459
 40
0.7718077406171964
 40
0.7718077406171964
 40
0.7718077406171964
 40
0.7718077406171964
 10
43.27645098490225
 20
0.3863938877440814
 30
0.0
 41
1.0
 10
43.14494675561851
 20
0.3844333084350905
 30
0.0
 41
0.9943884200698394
 10
43.01480329292976
 20
0.365462665058106
 30
0.0
 41
0.9943884200698386
 10
42.88821152816594
 20
0.3298013234580369
 30
0.0
 41
1.0
 10
42.76877560505131
 20
0.2998728649363879
 30
0.0
 41
0.8106778878943465
 10
42.68657795255186
 20
0.2699827157487586
 30
0.0
 41
0.7347248930850707
 10
42.68130592531193
 20
0.2518902867095984
 30
0.0
 41
0.7625027761254605
  0
SPLINE
  5
5B
330
1F
100
AcDbEntity
  8
Make2D visible lines
100
AcDbSpline
210
0.0
220
0.0
230
1.0
 70
    12
 71
     2
 72
     6
 73
     3
 74
     0
 42
0.0000000001
 43
0.0000000001
 40
-0.4803814146146277
 40
-0.4803814146146277
 40
-0.4803814146146277
 40
-0.4711376355475253
 40
-0.4711376355475253
 40
-0.4711376355475253
 10
22.66081002204282
 20
0.4156874799685248
 30
0.0
 41
1.0
 10
22.66333227099961
 20
0.4193785458399466
 30
0.0
 41
0.9662898631946522
 10
22.66657600309023
 20
0.4224548925680525
 30
0.0
 41
0.9443287023156676
  0
SPLINE
  5
5C
330
1F
100
AcDbEntity
  8
Make2D visible lines
100
AcDbSpline
210
0.0
220
0.0
230
1.0
 70
    12
 71
     2
 72
     8
 73
     5
 74
     0
 42
0.0000000001
 43
0.0000000001
 40
-0.4711376355475253
 40
-0.4711376355475253
 40
-0.4711376355475253
 40
-0.4273369520327914
 40
-0.4273369520327914
 40
0.0
 40
0.0
 40
0.0
 10
22.66657600309023
 20
0.4224548925680525
 30
0.0
 41
0.9443287023156676
 10
22.68425126636118
 20
0.4392180643753931
 30
0.0
 41
0.8402680307771294
 10
22.70756875592718
 20
0.4321672813636136
 30
0.0
 41
1.0
 10
22.92203492070412
 20
0.4079199946575095
 30
0.0
 41
0.9850280476532692
 10
23.11551831301513
 20
0.3122756344130875
 30
0.0
 41
1.0
  0
SPLINE
  5
5D
330
1F
100
AcDbEntity
  8
Make2D visible lines
100
AcDbSpline
210
0.0
220
0.0
230
1.0
 70
    12
 71
     2
 72
     6
 73
     3
 74
     0
 42
0.0000000001
 43
0.0000000001
 40
0.0
 40
0.0
 40
0.0
 40
0.3082430371142515
 40
0.3082430371142515
 40
0.3082430371142515
 10
23.11551831301513
 20
0.3122756344130875
 30
0.0
 41
1.0
 10
23.25066147985249
 20
0.2478995681321218
 30
0.0
 41
0.8160784182602362
 10
23.25116838910477
 20
0.2136523156983464
 30
0.0
 41
0.8631430530446698
  0
SPLINE
  5
5E
330
1F
100
AcDbEntity
  8
Make2D visible lines
100
AcDbSpline
210
0.0
220
0.0
230
1.0
 70
    24
 71
     2
 72
     6
 73
     3
 74
     0
 42
0.0000000001
 43
0.0000000001
 40
0.0
 40
0.0
 40
0.0
 40
6.364943275724004
 40
6.364943275724004
 40
6.364943275724004
 10
7.983667222298562
 20
5.140433629333178
 30
0.0
 10
7.345882118572954
 20
8.258342525895387
 30
0.0
 10
6.708097014847345
 20
11.37625142245759
 30
0.0
  0
SPLINE
  5
5F
330
1F
100
AcDbEntity
  8
Make2D visible lines
100
AcDbSpline
210
0.0
220
0.0
230
1.0
 70
    24
 71
     2
 72
     6
 73
     3
 74
     0
 42
0.0000000001
 43
0.0000000001
 40
0.0
 40
0.0
 40
0.0
 40
11.19019005670523
 40
11.19019005670523
 40
11.19019005670523
 10
6.103263048612298
 20
11.21439820764473
 30
0.0
 10
7.224551364447894
 20
5.732810765209217
 30
0.0
 10
8.34583968028349
 20
0.2512233227737047
 30
0.0
  0
SPLINE
  5
60
330
1F
100
AcDbEntity
  8
Make2D visible lines
100
AcDbSpline
210
0.0
220
0.0
230
1.0
 70
    24
 71
     2
 72
     6
 73
     3
 74
     0
 42
0.0000000001
 43
0.0000000001
 40
-10.5545367849474
 40
-10.5545367849474
 40
-10.5545367849474
 40
0.0
 40
0.0
 40
0.0
 10
8.586737261788242
 20
0.2845566867776547
 30
0.0
 10
7.935598493011805
 20
5.527373087566202
 30
0.0
 10
7.284459724235369
 20
10.77018948835475
 30
0.0
  0
SPLINE
  5
61
330
1F
100
AcDbEntity
  8
Make2D visible lines
100
AcDbSpline
210
0.0
220
0.0
230
1.0
 70
     8
 71
     3
 72
    12
 73
     8
 74
     0
 42
0.0000000001
 43
0.0000000001
 40
-0.761295221738784
 40
-0.761295221738784
 40
-0.761295221738784
 40
-0.761295221738784
 40
-0.3025165941887742
 40
-0.1208941401645658
 40
-0.0477218467254063
 40
-0.0185914585234393
 40
0.0
 40
0.0
 40
0.0
 40
0.0
 10
7.284459724235369
 20
10.77018948835475
 30
0.0
 10
7.264271378432435
 20
10.92141260151411
 30
0.0
 10
7.215199285230393
 20
11.13211737762841
 30
0.0
 10
7.098007292164214
 20
11.34099243587946
 30
0.0
 10
7.032574069105944
 20
11.41041260789298
 30
0.0
 10
6.999053591767813
 20
11.43288030341617
 30
0.0
 10
6.984122661268853
 20
11.43913590989802
 30
0.0
 10
6.977865535270835
 20
11.43891987089935
 30
0.0
  0
ARC
  5
62
330
1F
100
AcDbEntity
  8
Make2D visible lines
100
AcDbCircle
 10
8.141164936491956
 20
5.781445141642664
 30
0.0
 40
5.775836373120296
100
AcDbArc
 50
101.619304580716
 51
104.8564605299103
  0
LINE
  5
63
330
1F
100
AcDbEntity
  8
Make2D visible lines
100
AcDbLine
 10
6.660249945859372
 20
11.36420222032512
 30
0.0
 11
5.855644247783827
 21
11.150767778698
 31
0.0
  0
SPLINE
  5
64
330
1F
100
AcDbEntity
  8
Make2D visible lines
100
AcDbSpline
210
0.0
220
0.0
230
1.0
 70
     8
 71
     3
 72
    10
 73
     6
 74
     0
 42
0.0000000001
 43
0.0000000001
 40
0.0
 40
0.0
 40
0.0
 40
0.0
 40
0.9999999970617786
 40
1.999999998530889
 40
3.0
 40
3.0
 40
3.0
 40
3.0
 10
5.855644247783827
 20
11.150767778698
 30
0.0
 10
5.609948440573057
 20
11.08911442616838
 30
0.0
 10
5.112428804771087
 20
10.99042672373339
 30
0.0
 10
4.355851162888508
 20
10.91241094137218
 30
0.0
 10
3.849287833836864
 20
10.89510613732732
 30
0.0
 10
3.595962466357999
 20
10.89635006331766
 30
0.0
  0
SPLINE
  5
65
330
1F
100
AcDbEntity
  8
Make2D visible lines
100
AcDbSpline
210
0.0
220
0.0
230
1.0
 70
    24
 71
     2
 72
     6
 73
     3
 74
     0
 42
0.0000000001
 43
0.0000000001
 40
0.0
 40
0.0
 40
0.0
 40
3.595962466357999
 40
3.595962466357999
 40
3.595962466357999
 10
3.595962466357999
 20
10.89635006331766
 30
0.0
 10
1.797981233179
 20
10.89635006331696
 30
0.0
 10
0.0
 20
10.89635006331626
 30
0.0
  0
SPLINE
  5
66
330
1F
100
AcDbEntity
  8
Make2D visible lines
100
AcDbSpline
210
0.0
220
0.0
230
1.0
 70
    24
 71
     2
 72
     6
 73
     3
 74
     0
 42
0.0000000001
 43
0.0000000001
 40
-3.595962466357999
 40
-3.595962466357999
 40
-3.595962466357999
 40
0.0
 40
0.0
 40
0.0
 10
0.0
 20
10.89635006331626
 30
0.0
 10
-1.797981233179
 20
10.89635006331696
 30
0.0
 10
-3.595962466357999
 20
10.89635006331766
 30
0.0
  0
SPLINE
  5
67
330
1F
100
AcDbEntity
  8
Make2D visible lines
100
AcDbSpline
210
0.0
220
0.0
230
1.0
 70
     8
 71
     3
 72
    10
 73
     6
 74
     0
 42
0.0000000001
 43
0.0000000001
 40
-3.0
 40
-3.0
 40
-3.0
 40
-3.0
 40
-1.999999998530889
 40
-0.9999999970617786
 40
0.0
 40
0.0
 40
0.0
 40
0.0
 10
-3.595962466357999
 20
10.89635006331766
 30
0.0
 10
-3.849287833836864
 20
10.89510613732732
 30
0.0
 10
-4.355851162888508
 20
10.91241094137218
 30
0.0
 10
-5.112428804771087
 20
10.99042672373339
 30
0.0
 10
-5.609948440573057
 20
11.08911442616838
 30
0.0
 10
-5.855644247783827
 20
11.150767778698
 30
0.0
  0
LINE
  5
68
330
1F
100
AcDbEntity
  8
Make2D visible lines
100
AcDbLine
 10
-5.855644247783827
 20
11.150767778698
 30
0.0
 11
-6.660249945859372
 21
11.36420222032512
 31
0.0
  0
ARC
  5
69
330
1F
100
AcDbEntity
  8
Make2D visible lines
100
AcDbCircle
 10
-8.141164936491956
 20
5.781445141642664
 30
0.0
 40
5.775836373120296
100
AcDbArc
 50
75.1435394700897
 51
78.38069541928402
  0
SPLINE
  5
6A
330
1F
100
AcDbEntity
  8
Make2D visible lines
100
AcDbSpline
210
0.0
220
0.0
230
1.0
 70
     8
 71
     3
 72
    12
 73
     8
 74
     0
 42
0.0000000001
 43
0.0000000001
 40
0.0
 40
0.0
 40
0.0
 40
0.0
 40
0.0185914585234393
 40
0.0477218467254063
 40
0.1208941401645658
 40
0.3025165941887742
 40
0.761295221738784
 40
0.761295221738784
 40
0.761295221738784
 40
0.761295221738784
 10
-6.977865535270835
 20
11.43891987089935
 30
0.0
 10
-6.984122661268853
 20
11.43913590989802
 30
0.0
 10
-6.999053591767813
 20
11.43288030341617
 30
0.0
 10
-7.032574069105944
 20
11.41041260789298
 30
0.0
 10
-7.098007292164214
 20
11.34099243587946
 30
0.0
 10
-7.215199285230393
 20
11.13211737762841
 30
0.0
 10
-7.264271378432435
 20
10.92141260151411
 30
0.0
 10
-7.284459724235369
 20
10.77018948835475
 30
0.0
  0
SPLINE
  5
6B
330
1F
100
AcDbEntity
  8
Make2D visible lines
100
AcDbSpline
210
0.0
220
0.0
230
1.0
 70
    24
 71
     2
 72
     6
 73
     3
 74
     0
 42
0.0000000001
 43
0.0000000001
 40
0.0
 40
0.0
 40
0.0
 40
10.5545367849474
 40
10.5545367849474
 40
10.5545367849474
 10
-7.284459724235369
 20
10.77018948835475
 30
0.0
 10
-7.935598493011805
 20
5.527373087566202
 30
0.0
 10
-8.586737261788242
 20
0.2845566867776547
 30
0.0
  0
SPLINE
  5
6C
330
1F
100
AcDbEntity
  8
Default
100
AcDbSpline
210
0.0
220
0.0
230
1.0
 70
    24
 71
     2
 72
     6
 73
     3
 74
     0
 42
0.0000000001
 43
0.0000000001
 40
0.0
 40
0.0
 40
0.0
 40
10.56228668149916
 40
10.56228668149916
 40
10.56228668149916
 10
9.207736920367005
 20
0.3554292163143787
 30
0.0
 10
8.556804130775093
 20
5.59669275156776
 30
0.0
 10
7.905871341183182
 20
10.83795628682114
 30
0.0
  0
SPLINE
  5
6D
330
1F
100
AcDbEntity
  8
Default
100
AcDbSpline
210
0.0
220
0.0
230
1.0
 70
     8
 71
     3
 72
    12
 73
     8
 74
     0
 42
0.0000000001
 43
0.0000000001
 40
0.0
 40
0.0
 40
0.0
 40
0.0
 40
0.2779373345813006
 40
0.5311831987203071
 40
0.9932833818794501
 40
1.381057475511472
 40
1.7316709966046
 40
1.7316709966046
 40
1.7316709966046
 40
1.7316709966046
 10
7.905871341183182
 20
10.83795628682114
 30
0.0
 10
7.893961758777585
 20
10.9304387067347
 30
0.0
 10
7.863705422584454
 20
11.10562631385517
 30
0.0
 10
7.766877012680658
 20
11.42223814247077
 30
0.0
 10
7.597499359099467
 20
11.75338468678861
 30
0.0
 10
7.288207148077664
 20
12.02303319009918
 30
0.0
 10
7.036619739278535
 20
12.07298377448418
 30
0.0
 10
6.92064638851565
 20
12.06126555793396
 30
0.0
  0
SPLINE
  5
6E
330
1F
100
AcDbEntity
  8
Default
100
AcDbSpline
210
0.0
220
0.0
230
1.0
 70
     8
 71
     3
 72
     8
 73
     4
 74
     0
 42
0.0000000001
 43
0.0000000001
 40
0.0
 40
0.0
 40
0.0
 40
0.0
 40
1.0
 40
1.0
 40
1.0
 40
1.0
 10
6.92064638851565
 20
12.06126555793396
 30
0.0
 10
6.888030306970419
 20
12.05796995334849
 30
0.0
 10
6.855528817929383
 20
12.052576051504
 30
0.0
 10
6.823701236233191
 20
12.04472271919719
 30
0.0
  0
SPLINE
  5
6F
330
1F
100
AcDbEntity
  8
Default
100
AcDbSpline
210
0.0
220
0.0
230
1.0
 70
    12
 71
     2
 72
    10
 73
     7
 74
     0
 42
0.0000000001
 43
0.0000000001
 40
-0.192093564250425
 40
-0.192093564250425
 40
-0.192093564250425
 40
-0.1279604400037003
 40
-0.1279604400037003
 40
-0.0639305869732642
 40
-0.0639305869732642
 40
0.0
 40
0.0
 40
0.0
 10
6.823701236233191
 20
12.04472271919719
 30
0.0
 41
1.0
 10
6.792568188280995
 20
12.03704076039724
 30
0.0
 41
0.9999892348847124
 10
6.761365192262653
 20
12.02964804741234
 30
0.0
 41
1.0
 10
6.730212439662554
 20
12.02226723907107
 30
0.0
 41
0.9999891656151457
 10
6.698992323148515
 20
12.01517677708448
 30
0.0
 41
1.0
 10
6.667820604850812
 20
12.00809731254347
 30
0.0
 41
0.9999890984933278
 10
6.636584133447034
 20
12.00130925729474
 30
0.0
 41
1.0
  0
SPLINE
  5
70
330
1F
100
AcDbEntity
  8
Default
100
AcDbSpline
210
0.0
220
0.0
230
1.0
 70
    12
 71
     2
 72
     6
 73
     3
 74
     0
 42
0.0000000001
 43
0.0000000001
 40
-0.1645939861043443
 40
-0.1645939861043443
 40
-0.1645939861043443
 40
0.0
 40
0.0
 40
0.0
 10
6.636584133447034
 20
12.00130925729474
 30
0.0
 41
1.0
 10
6.556257987290905
 20
11.98335902151252
 30
0.0
 41
0.999811166942512
 10
6.476690014504333
 20
11.96230102046507
 30
0.0
 41
1.0
  0
SPLINE
  5
71
330
1F
100
AcDbEntity
  8
Default
100
AcDbSpline
210
0.0
220
0.0
230
1.0
 70
    12
 71
     2
 72
     6
 73
     3
 74
     0
 42
0.0000000001
 43
0.0000000001
 40
0.0
 40
0.0
 40
0.0
 40
0.2034365546988051
 40
0.2034365546988051
 40
0.2034365546988051
 10
6.476690014504333
 20
11.96230102046507
 30
0.0
 41
1.0
 10
6.378293482813755
 20
11.93651478014979
 30
0.0
 41
0.999985612974861
 10
6.280180580476579
 20
11.9096695517467
 30
0.0
 41
1.0
  0
SPLINE
  5
72
330
1F
100
AcDbEntity
  8
Default
100
AcDbSpline
210
0.0
220
0.0
230
1.0
 70
    12
 71
     2
 72
     6
 73
     3
 74
     0
 42
0.0000000001
 43
0.0000000001
 40
-0.0715383633173021
 40
-0.0715383633173021
 40
-0.0715383633173021
 40
0.0
 40
0.0
 40
0.0
 10
6.280180580476579
 20
11.9096695517467
 30
0.0
 41
1.0
 10
6.245668150623342
 20
11.90027132734854
 30
0.0
 41
0.9999999759228646
 10
6.211157306934158
 20
11.89086728230372
 30
0.0
 41
0.9999999999999996
  0
SPLINE
  5
73
330
1F
100
AcDbEntity
  8
Default
100
AcDbSpline
210
0.0
220
0.0
230
1.0
 70
    12
 71
     2
 72
     6
 73
     3
 74
     0
 42
0.0000000001
 43
0.0000000001
 40
0.0
 40
0.0
 40
0.0
 40
0.2577599672274734
 40
0.2577599672274734
 40
0.2577599672274734
 10
6.211157306934158
 20
11.89086728230372
 30
0.0
 41
0.9999999999998186
 10
6.086842884948049
 20
11.85686600590125
 30
0.0
 41
0.9999949110065189
 10
5.962315237846548
 20
11.82365414963374
 30
0.0
 41
1.0
  0
ARC
  5
74
330
1F
100
AcDbEntity
  8
Default
100
AcDbCircle
 10
3.356575869301819
 20
21.34668683503122
 30
0.0
 40
9.8730962308656
100
AcDbArc
 50
282.8651821148426
 51
285.3029802967349
  0
ARC
  5
75
330
1F
100
AcDbEntity
  8
Default
100
AcDbCircle
 10
3.764515028239754
 20
19.56054386087505
 30
0.0
 40
8.040960569534152
100
AcDbArc
 50
268.7988925315835
 51
282.8651821148426
  0
SPLINE
  5
76
330
1F
100
AcDbEntity
  8
Default
100
AcDbSpline
210
0.0
220
0.0
230
1.0
 70
    24
 71
     2
 72
     6
 73
     3
 74
     0
 42
0.0000000001
 43
0.0000000001
 40
-3.595962466357996
 40
-3.595962466357996
 40
-3.595962466357996
 40
0.0
 40
0.0
 40
0.0
 10
3.595962466358
 20
11.52135006331761
 30
0.0
 10
1.797981233179
 20
11.52135006331831
 30
0.0
 10
0.0
 20
11.52135006331901
 30
0.0
  0
SPLINE
  5
77
330
1F
100
AcDbEntity
  8
Default
100
AcDbSpline
210
0.0
220
0.0
230
1.0
 70
    24
 71
     2
 72
     6
 73
     3
 74
     0
 42
0.0000000001
 43
0.0000000001
 40
0.0
 40
0.0
 40
0.0
 40
3.595962466357996
 40
3.595962466357996
 40
3.595962466357996
 10
0.0
 20
11.52135006331901
 30
0.0
 10
-1.797981233179
 20
11.52135006331831
 30
0.0
 10
-3.595962466358
 20
11.52135006331761
 30
0.0
  0
ARC
  5
78
330
1F
100
AcDbEntity
  8
Default
100
AcDbCircle
 10
-3.764515028239754
 20
19.56054386087505
 30
0.0
 40
8.040960569534152
100
AcDbArc
 50
257.1348178851574
 51
271.2011074684164
  0
ARC
  5
79
330
1F
100
AcDbEntity
  8
Default
100
AcDbCircle
 10
-3.356575869301819
 20
21.34668683503122
 30
0.0
 40
9.8730962308656
100
AcDbArc
 50
254.6970197032651
 51
257.1348178851573
  0
SPLINE
  5
7A
330
1F
100
AcDbEntity
  8
Default
100
AcDbSpline
210
0.0
220
0.0
230
1.0
 70
    12
 71
     2
 72
     6
 73
     3
 74
     0
 42
0.0000000001
 43
0.0000000001
 40
-0.2577599672274734
 40
-0.2577599672274734
 40
-0.2577599672274734
 40
0.0
 40
0.0
 40
0.0
 10
-5.962315237846548
 20
11.82365414963374
 30
0.0
 41
1.0
 10
-6.086842884948049
 20
11.85686600590125
 30
0.0
 41
0.9999949110065189
 10
-6.211157306934158
 20
11.89086728230372
 30
0.0
 41
0.9999999999998186
  0
SPLINE
  5
7B
330
1F
100
AcDbEntity
  8
Default
100
AcDbSpline
210
0.0
220
0.0
230
1.0
 70
    12
 71
     2
 72
     6
 73
     3
 74
     0
 42
0.0000000001
 43
0.0000000001
 40
0.0
 40
0.0
 40
0.0
 40
0.0715383633173021
 40
0.0715383633173021
 40
0.0715383633173021
 10
-6.211157306934158
 20
11.89086728230372
 30
0.0
 41
0.9999999999999996
 10
-6.245668150623342
 20
11.90027132734854
 30
0.0
 41
0.9999999759228646
 10
-6.280180580476579
 20
11.9096695517467
 30
0.0
 41
1.0
  0
SPLINE
  5
7C
330
1F
100
AcDbEntity
  8
Default
100
AcDbSpline
210
0.0
220
0.0
230
1.0
 70
    12
 71
     2
 72
     6
 73
     3
 74
     0
 42
0.0000000001
 43
0.0000000001
 40
-0.2034365546988051
 40
-0.2034365546988051
 40
-0.2034365546988051
 40
0.0
 40
0.0
 40
0.0
 10
-6.280180580476579
 20
11.9096695517467
 30
0.0
 41
1.0
 10
-6.378293482813755
 20
11.93651478014979
 30
0.0
 41
0.999985612974861
 10
-6.476690014504333
 20
11.96230102046507
 30
0.0
 41
1.0
  0
SPLINE
  5
7D
330
1F
100
AcDbEntity
  8
Default
100
AcDbSpline
210
0.0
220
0.0
230
1.0
 70
    12
 71
     2
 72
     6
 73
     3
 74
     0
 42
0.0000000001
 43
0.0000000001
 40
0.0
 40
0.0
 40
0.0
 40
0.1645939861043443
 40
0.1645939861043443
 40
0.1645939861043443
 10
-6.476690014504333
 20
11.96230102046507
 30
0.0
 41
1.0
 10
-6.556257987290905
 20
11.98335902151252
 30
0.0
 41
0.999811166942512
 10
-6.636584133447034
 20
12.00130925729474
 30
0.0
 41
1.0
  0
SPLINE
  5
7E
330
1F
100
AcDbEntity
  8
Default
100
AcDbSpline
210
0.0
220
0.0
230
1.0
 70
    12
 71
     2
 72
    10
 73
     7
 74
     0
 42
0.0000000001
 43
0.0000000001
 40
0.0
 40
0.0
 40
0.0
 40
0.0639305869732642
 40
0.0639305869732642
 40
0.1279604400037003
 40
0.1279604400037003
 40
0.192093564250425
 40
0.192093564250425
 40
0.192093564250425
 10
-6.636584133447034
 20
12.00130925729474
 30
0.0
 41
1.0
 10
-6.667820604850812
 20
12.00809731254347
 30
0.0
 41
0.9999890984933278
 10
-6.698992323148515
 20
12.01517677708448
 30
0.0
 41
1.0
 10
-6.730212439662554
 20
12.02226723907107
 30
0.0
 41
0.9999891656151457
 10
-6.761365192262653
 20
12.02964804741234
 30
0.0
 41
1.0
 10
-6.792568188280995
 20
12.03704076039724
 30
0.0
 41
0.9999892348847124
 10
-6.823701236233191
 20
12.04472271919719
 30
0.0
 41
1.0
  0
SPLINE
  5
7F
330
1F
100
AcDbEntity
  8
Default
100
AcDbSpline
210
0.0
220
0.0
230
1.0
 70
     8
 71
     3
 72
     8
 73
     4
 74
     0
 42
0.0000000001
 43
0.0000000001
 40
-1.0
 40
-1.0
 40
-1.0
 40
-1.0
 40
0.0
 40
0.0
 40
0.0
 40
0.0
 10
-6.823701236233191
 20
12.04472271919719
 30
0.0
 10
-6.855528817929383
 20
12.052576051504
 30
0.0
 10
-6.888030306970419
 20
12.05796995334849
 30
0.0
 10
-6.92064638851565
 20
12.06126555793396
 30
0.0
  0
SPLINE
  5
80
330
1F
100
AcDbEntity
  8
Default
100
AcDbSpline
210
0.0
220
0.0
230
1.0
 70
     8
 71
     3
 72
    12
 73
     8
 74
     0
 42
0.0000000001
 43
0.0000000001
 40
-1.7316709966046
 40
-1.7316709966046
 40
-1.7316709966046
 40
-1.7316709966046
 40
-1.381057475511472
 40
-0.9932833818794501
 40
-0.5311831987203071
 40
-0.2779373345813006
 40
0.0
 40
0.0
 40
0.0
 40
0.0
 10
-6.92064638851565
 20
12.06126555793396
 30
0.0
 10
-7.036619739278535
 20
12.07298377448418
 30
0.0
 10
-7.288207148077664
 20
12.02303319009918
 30
0.0
 10
-7.597499359099467
 20
11.75338468678861
 30
0.0
 10
-7.766877012680658
 20
11.42223814247077
 30
0.0
 10
-7.863705422584454
 20
11.10562631385517
 30
0.0
 10
-7.893961758777585
 20
10.9304387067347
 30
0.0
 10
-7.905871341183182
 20
10.83795628682114
 30
0.0
  0
SPLINE
  5
81
330
1F
100
AcDbEntity
  8
Default
100
AcDbSpline
210
0.0
220
0.0
230
1.0
 70
    24
 71
     2
 72
     6
 73
     3
 74
     0
 42
0.0000000001
 43
0.0000000001
 40
-10.56228668149916
 40
-10.56228668149916
 40
-10.56228668149916
 40
0.0
 40
0.0
 40
0.0
 10
-7.905871341183182
 20
10.83795628682114
 30
0.0
 10
-8.556804130775093
 20
5.59669275156776
 30
0.0
 10
-9.207736920367005
 20
0.3554292163143787
 30
0.0
  0
SPLINE
  5
82
330
1F
100
AcDbEntity
  8
Make2D visible lines
100
AcDbSpline
210
0.0
220
0.0
230
1.0
 70
    12
 71
     2
 72
     6
 73
     3
 74
     0
 42
0.0000000001
 43
0.0000000001
 40
-0.8436208550946255
 40
-0.8436208550946255
 40
-0.8436208550946255
 40
0.0
 40
0.0
 40
0.0
 10
-4.9338143594778
 20
10.97749903747302
 30
0.0
 41
1.0
 10
-4.589722410570922
 20
10.72734120170837
 30
0.0
 41
0.9873375337234498
 10
-4.162044317750794
 20
10.59066387092882
 30
0.0
 41
1.0
  0
SPLINE
  5
83
330
1F
100
AcDbEntity
  8
Make2D visible lines
100
AcDbSpline
210
0.0
220
0.0
230
1.0
 70
     8
 71
     3
 72
    11
 73
     7
 74
     0
 42
0.0000000001
 43
0.0000000001
 40
-1.168375855721459
 40
-1.168375855721459
 40
-1.168375855721459
 40
-1.168375855721459
 40
-0.9807542986841283
 40
-0.7324560601477451
 40
-0.398990183726646
 40
0.0
 40
0.0
 40
0.0
 40
0.0
 10
-4.162044317750794
 20
10.59066387092882
 30
0.0
 10
-4.102059846114321
 20
10.57279296043826
 30
0.0
 10
-3.959102880551977
 20
10.54537302104643
 30
0.0
 10
-3.703785814877286
 20
10.51993893394864
 30
0.0
 10
-3.377152142550382
 20
10.50458123486796
 30
0.0
 10
-3.132998527109332
 20
10.50153050107272
 30
0.0
 10
-3.000000719711506
 20
10.50135006421026
 30
0.0
  0
SPLINE
  5
84
330
1F
100
AcDbEntity
  8
Make2D visible lines
100
AcDbSpline
210
0.0
220
0.0
230
1.0
 70
    24
 71
     2
 72
     6
 73
     3
 74
     0
 42
0.0000000001
 43
0.0000000001
 40
-3.000000000000007
 40
-3.000000000000007
 40
-3.000000000000007
 40
0.0
 40
0.0
 40
0.0
 10
-3.000000719711506
 20
10.50135006421026
 30
0.0
 10
-1.500000359855753
 20
10.50135006376591
 30
0.0
 10
0.0
 20
10.50135006332155
 30
0.0
  0
SPLINE
  5
85
330
1F
100
AcDbEntity
  8
Make2D visible lines
100
AcDbSpline
210
0.0
220
0.0
230
1.0
 70
    24
 71
     2
 72
     6
 73
     3
 74
     0
 42
0.0000000001
 43
0.0000000001
 40
0.0
 40
0.0
 40
0.0
 40
3.000000000000007
 40
3.000000000000007
 40
3.000000000000007
 10
0.0
 20
10.50135006332155
 30
0.0
 10
1.500000359855753
 20
10.50135006376591
 30
0.0
 10
3.000000719711506
 20
10.50135006421026
 30
0.0
  0
SPLINE
  5
86
330
1F
100
AcDbEntity
  8
Make2D visible lines
100
AcDbSpline
210
0.0
220
0.0
230
1.0
 70
     8
 71
     3
 72
    11
 73
     7
 74
     0
 42
0.0000000001
 43
0.0000000001
 40
0.0
 40
0.0
 40
0.0
 40
0.0
 40
0.398990183726646
 40
0.7324560601477451
 40
0.9807542986841283
 40
1.168375855721459
 40
1.168375855721459
 40
1.168375855721459
 40
1.168375855721459
 10
3.000000719711506
 20
10.50135006421026
 30
0.0
 10
3.132998527109332
 20
10.50153050107272
 30
0.0
 10
3.377152142550382
 20
10.50458123486796
 30
0.0
 10
3.703785814877286
 20
10.51993893394864
 30
0.0
 10
3.959102880551977
 20
10.54537302104643
 30
0.0
 10
4.102059846114321
 20
10.57279296043826
 30
0.0
 10
4.162044317750794
 20
10.59066387092882
 30
0.0
  0
SPLINE
  5
87
330
1F
100
AcDbEntity
  8
Make2D visible lines
100
AcDbSpline
210
0.0
220
0.0
230
1.0
 70
    12
 71
     2
 72
     6
 73
     3
 74
     0
 42
0.0000000001
 43
0.0000000001
 40
0.0
 40
0.0
 40
0.0
 40
0.8436208550946255
 40
0.8436208550946255
 40
0.8436208550946255
 10
4.162044317750794
 20
10.59066387092882
 30
0.0
 41
1.0
 10
4.589722410570922
 20
10.72734120170837
 30
0.0
 41
0.9873375337234498
 10
4.9338143594778
 20
10.97749903747302
 30
0.0
 41
1.0
  0
SPLINE
  5
88
330
1F
100
AcDbEntity
  8
Make2D visible lines
100
AcDbSpline
210
0.0
220
0.0
230
1.0
 70
    24
 71
     2
 72
     6
 73
     3
 74
     0
 42
0.0000000001
 43
0.0000000001
 40
0.0
 40
0.0
 40
0.0
 40
6.364943275724004
 40
6.364943275724004
 40
6.364943275724004
 10
-7.983667222298562
 20
5.140433629333178
 30
0.0
 10
-7.345882118572954
 20
8.258342525895387
 30
0.0
 10
-6.708097014847345
 20
11.37625142245759
 30
0.0
  0
SPLINE
  5
89
330
1F
100
AcDbEntity
  8
Make2D visible lines
100
AcDbSpline
210
0.0
220
0.0
230
1.0
 70
    12
 71
     2
 72
     8
 73
     5
 74
     0
 42
0.0000000001
 43
0.0000000001
 40
0.0
 40
0.0
 40
0.0
 40
0.4899288290525353
 40
0.4899288290525353
 40
0.9798576581050706
 40
0.9798576581050706
 40
0.9798576581050706
 10
9.207736920367005
 20
0.3554292163143787
 30
0.0
 41
1.0
 10
9.245817935948274
 20
0.0462031591105043
 30
0.0
 41
0.7081574404104211
 10
8.93670649610173
 20
0.0072026981189982
 30
0.0
 41
1.0
 10
8.627595056255183
 20
-0.0317977628725079
 30
0.0
 41
0.7081574404104211
 10
8.587675494782276
 20
0.2771963257657144
 30
0.0
 41
1.0
  0
SPLINE
  5
8A
330
1F
100
AcDbEntity
  8
Make2D visible lines
100
AcDbSpline
210
0.0
220
0.0
230
1.0
 70
    12
 71
     2
 72
     6
 73
     3
 74
     0
 42
0.0000000001
 43
0.0000000001
 40
0.0
 40
0.0
 40
0.0
 40
0.4054849752577168
 40
0.4054849752577168
 40
0.4054849752577168
 10
8.65158158825496
 20
0.004742647422339
 30
0.0
 41
1.0
 10
8.41467826400711
 20
0.0048887412593003
 30
0.0
 41
0.7970977390766091
 10
8.350682157147546
 20
0.2329845647412546
 30
0.0
 41
1.0
  0
SPLINE
  5
8B
330
1F
100
AcDbEntity
  8
Make2D visible lines
100
AcDbSpline
210
0.0
220
0.0
230
1.0
 70
    12
 71
     2
 72
     6
 73
     3
 74
     0
 42
0.0000000001
 43
0.0000000001
 40
0.0
 40
0.0
 40
0.0
 40
0.1264146628890321
 40
0.1264146628890321
 40
0.1264146628890321
 10
8.774574541058236
 20
0.0299690987098233
 30
0.0
 41
1.0
 10
8.715666392999573
 20
0.0047363356567515
 30
0.0
 41
0.9795874100105771
 10
8.65158158825496
 20
0.004742647422339
 30
0.0
 41
1.0
  0
SPLINE
  5
8C
330
1F
100
AcDbEntity
  8
Make2D visible lines
100
AcDbSpline
210
0.0
220
0.0
230
1.0
 70
    12
 71
     3
 72
    10
 73
     6
 74
     0
 42
0.0000000001
 43
0.0000000001
 40
0.8078408789122629
 40
0.8078408789122629
 40
0.8078408789122629
 40
0.8078408789122629
 40
0.9999985439659037
 40
0.9999985439659037
 40
1.557289640677526
 40
1.557289640677526
 40
1.557289640677526
 40
1.557289640677526
 10
8.605685630742828
 20
0.2056748809510123
 30
0.0
 41
1.0
 10
8.570754026573685
 20
0.2011262291482048
 30
0.0
 41
1.0
 10
8.536140860250939
 20
0.1987334452330106
 30
0.0
 41
1.0
 10
8.408358896028098
 20
0.199482217170023
 30
0.0
 41
1.0
 10
8.352073569440362
 20
0.2216435234511657
 30
0.0
 41
1.0
 10
8.345318831729223
 20
0.2546650798978219
 30
0.0
 41
1.0
  0
SPLINE
  5
8D
330
1F
100
AcDbEntity
  8
Make2D visible lines
100
AcDbSpline
210
0.0
220
0.0
230
1.0
 70
    12
 71
     2
 72
     8
 73
     5
 74
     0
 42
0.0000000001
 43
0.0000000001
 40
0.0
 40
0.0
 40
0.0
 40
0.4899288290525353
 40
0.4899288290525353
 40
0.9798576581050706
 40
0.9798576581050706
 40
0.9798576581050706
 10
-9.207736920367005
 20
0.3554292163143787
 30
0.0
 41
1.0
 10
-9.245817935948274
 20
0.0462031591105043
 30
0.0
 41
0.7081574404104211
 10
-8.93670649610173
 20
0.0072026981189982
 30
0.0
 41
1.0
 10
-8.627595056255183
 20
-0.0317977628725079
 30
0.0
 41
0.7081574404104211
 10
-8.587675494782276
 20
0.2771963257657144
 30
0.0
 41
1.0
  0
SPLINE
  5
8E
330
1F
100
AcDbEntity
  8
Make2D visible lines
100
AcDbSpline
210
0.0
220
0.0
230
1.0
 70
    12
 71
     2
 72
     6
 73
     3
 74
     0
 42
0.0000000001
 43
0.0000000001
 40
0.0
 40
0.0
 40
0.0
 40
0.4054849752577168
 40
0.4054849752577168
 40
0.4054849752577168
 10
-8.65158158825496
 20
0.004742647422339
 30
0.0
 41
1.0
 10
-8.41467826400711
 20
0.0048887412593003
 30
0.0
 41
0.7970977390766091
 10
-8.350682157147546
 20
0.2329845647412546
 30
0.0
 41
1.0
  0
SPLINE
  5
8F
330
1F
100
AcDbEntity
  8
Make2D visible lines
100
AcDbSpline
210
0.0
220
0.0
230
1.0
 70
    12
 71
     2
 72
     6
 73
     3
 74
     0
 42
0.0000000001
 43
0.0000000001
 40
0.0
 40
0.0
 40
0.0
 40
0.1264146628890321
 40
0.1264146628890321
 40
0.1264146628890321
 10
-8.774574541058236
 20
0.0299690987098233
 30
0.0
 41
1.0
 10
-8.715666392999573
 20
0.0047363356567515
 30
0.0
 41
0.9795874100105771
 10
-8.65158158825496
 20
0.004742647422339
 30
0.0
 41
1.0
  0
SPLINE
  5
90
330
1F
100
AcDbEntity
  8
Make2D visible lines
100
AcDbSpline
210
0.0
220
0.0
230
1.0
 70
    24
 71
     2
 72
     6
 73
     3
 74
     0
 42
0.0000000001
 43
0.0000000001
 40
0.0
 40
0.0
 40
0.0
 40
11.19019005670523
 40
11.19019005670523
 40
11.19019005670523
 10
-6.103263048612298
 20
11.21439820764473
 30
0.0
 10
-7.224594808674299
 20
5.732610813899691
 30
0.0
 10
-8.3459265687363
 20
0.2508234201546527
 30
0.0
  0
SPLINE
  5
91
330
1F
100
AcDbEntity
  8
Make2D visible lines
100
AcDbSpline
210
0.0
220
0.0
230
1.0
 70
    12
 71
     2
 72
     8
 73
     5
 74
     0
 42
0.0000000001
 43
0.0000000001
 40
-0.58087817316153
 40
-0.58087817316153
 40
-0.58087817316153
 40
-0.2740820155844018
 40
-0.2740820155844018
 40
-0.1706093440027808
 40
-0.1706093440027808
 40
-0.1706093440027808
 10
-8.345926568736298
 20
0.2508234201546527
 30
0.0
 41
0.8627063036811942
 10
-8.358445493001197
 20
0.196384565553119
 30
0.0
 41
0.8169417382415922
 10
-8.50379614643217
 20
0.1955328452721709
 30
0.0
 41
1.0
 10
-8.555556928718213
 20
0.1960401402044483
 30
0.0
 41
0.9955460879863995
 10
-8.60691097264942
 20
0.2025361468949102
 30
0.0
 41
0.9944550976446503
  0
SPLINE
  5
92
330
1F
100
AcDbEntity
  8
Make2D visible lines
100
AcDbSpline
210
0.0
220
0.0
230
1.0
 70
    12
 71
     2
 72
     8
 73
     5
 74
     0
 42
0.0000000001
 43
0.0000000001
 40
-0.5202994329098187
 40
-0.5202994329098187
 40
-0.5202994329098187
 40
-0.4908660760738508
 40
-0.4908660760738508
 40
0.0
 40
0.0
 40
0.0
 10
8.588197715348175
 20
0.2736763833125623
 30
0.0
 41
1.0
 10
8.587274544253164
 20
0.2902084399416757
 30
0.0
 41
0.84093902136173
 10
8.601938086204987
 20
0.297898802656532
 30
0.0
 41
1.0
 10
8.694542781672634
 20
0.3704138886380521
 30
0.0
 41
0.7071888352815602
 10
8.990432191461906
 20
0.3880901797958438
 30
0.0
 41
0.999835932519513
  0
SPLINE
  5
93
330
1F
100
AcDbEntity
  8
Make2D visible lines
100
AcDbSpline
210
0.0
220
0.0
230
1.0
 70
    12
 71
     3
 72
     8
 73
     4
 74
     0
 42
0.0000000001
 43
0.0000000001
 40
-1.963087469356249
 40
-1.963087469356249
 40
-1.963087469356249
 40
-1.963087469356249
 40
-1.582998516805881
 40
-1.582998516805881
 40
-1.582998516805881
 40
-1.582998516805881
 10
8.990432191461906
 20
0.3880901797958438
 30
0.0
 41
1.0
 10
9.116908792850431
 20
0.3966008300486344
 30
0.0
 41
1.0
 10
9.20005216628825
 20
0.3829426317818387
 30
0.0
 41
1.0
 10
9.207357859619933
 20
0.3578284635590593
 30
0.0
 41
1.0
  0
SPLINE
  5
94
330
1F
100
AcDbEntity
  8
Make2D visible lines
100
AcDbSpline
210
0.0
220
0.0
230
1.0
 70
    12
 71
     2
 72
     8
 73
     5
 74
     0
 42
0.0000000001
 43
0.0000000001
 40
-0.5202994329098187
 40
-0.5202994329098187
 40
-0.5202994329098187
 40
-0.4908660760738508
 40
-0.4908660760738508
 40
0.0
 40
0.0
 40
0.0
 10
-8.588197715348175
 20
0.2736763833125623
 30
0.0
 41
1.0
 10
-8.587274544253164
 20
0.2902084399416757
 30
0.0
 41
0.84093902136173
 10
-8.601938086204987
 20
0.297898802656532
 30
0.0
 41
1.0
 10
-8.694542781672634
 20
0.3704138886380521
 30
0.0
 41
0.7071888352815602
 10
-8.990432191461906
 20
0.3880901797958438
 30
0.0
 41
0.999835932519513
  0
SPLINE
  5
95
330
1F
100
AcDbEntity
  8
Make2D visible lines
100
AcDbSpline
210
0.0
220
0.0
230
1.0
 70
    12
 71
     3
 72
     8
 73
     4
 74
     0
 42
0.0000000001
 43
0.0000000001
 40
-1.963087469356249
 40
-1.963087469356249
 40
-1.963087469356249
 40
-1.963087469356249
 40
-1.582998516805881
 40
-1.582998516805881
 40
-1.582998516805881
 40
-1.582998516805881
 10
-8.990432191461906
 20
0.3880901797958438
 30
0.0
 41
1.0
 10
-9.116908792850431
 20
0.3966008300486344
 30
0.0
 41
1.0
 10
-9.20005216628825
 20
0.3829426317818387
 30
0.0
 41
1.0
 10
-9.207357859619933
 20
0.3578284635590593
 30
0.0
 41
1.0
  0
SPLINE
  5
96
330
1F
100
AcDbEntity
  8
Default
100
AcDbSpline
210
0.0
220
0.0
230
1.0
 70
    27
 71
     2
 72
     6
 73
     3
 74
     0
 42
0.0000000001
 43
0.0000000001
 40
0.0
 40
0.0
 40
0.0
 40
0.0000000022395841
 40
0.0000000022395841
 40
0.0000000022395841
 10
34.40522636245741
 20
39.75444276345792
 30
0.0
 10
34.4052263631051
 20
39.75444276254444
 30
0.0
 10
34.40522636375279
 20
39.75444276163097
 30
0.0
  0
SPLINE
  5
97
330
1F
100
AcDbEntity
  8
Default
100
AcDbSpline
210
0.0
220
0.0
230
1.0
 70
    27
 71
     2
 72
     6
 73
     3
 74
     0
 42
0.0000000001
 43
0.0000000001
 40
0.0
 40
0.0
 40
0.0
 40
0.0000000246407195
 40
0.0000000246407195
 40
0.0000000246407195
 10
34.40522636655278
 20
39.75444275961826
 30
0.0
 10
34.40522637883761
 20
39.75444275868325
 30
0.0
 10
34.40522639112244
 20
39.75444275774825
 30
0.0
  0
SPLINE
  5
98
330
1F
100
AcDbEntity
  8
Default
100
AcDbSpline
210
0.0
220
0.0
230
1.0
 70
    27
 71
     2
 72
     6
 73
     3
 74
     0
 42
0.0000000001
 43
0.0000000001
 40
0.0
 40
0.0
 40
0.0
 40
0.000000004938842
 40
0.000000004938842
 40
0.000000004938842
 10
34.40522638389099
 20
39.7544427684374
 30
0.0
 10
34.40522638144148
 20
39.75444276875038
 30
0.0
 10
34.40522637899198
 20
39.75444276906335
 30
0.0
  0
SPLINE
  5
99
330
1F
100
AcDbEntity
  8
Default
100
AcDbSpline
210
0.0
220
0.0
230
1.0
 70
    27
 71
     2
 72
     6
 73
     3
 74
     0
 42
0.0000000001
 43
0.0000000001
 40
0.0
 40
0.0
 40
0.0
 40
0.0000000015093475
 40
0.0000000015093475
 40
0.0000000015093475
 10
34.40522637899198
 20
39.75444276906335
 30
0.0
 10
34.40522637824829
 20
39.75444276919168
 30
0.0
 10
34.40522637750461
 20
39.75444276932001
 30
0.0
  0
SPLINE
  5
9A
330
1F
100
AcDbEntity
  8
Default
100
AcDbSpline
210
0.0
220
0.0
230
1.0
 70
    27
 71
     2
 72
     6
 73
     3
 74
     0
 42
0.0000000001
 43
0.0000000001
 40
0.0
 40
0.0
 40
0.0
 40
0.0000000008750172
 40
0.0000000008750172
 40
0.0000000008750172
 10
34.40522637750461
 20
39.75444276932001
 30
0.0
 10
34.4052263770922
 20
39.75444276946606
 30
0.0
 10
34.40522637667979
 20
39.7544427696121
 30
0.0
  0
SPLINE
  5
9B
330
1F
100
AcDbEntity
  8
Default
100
AcDbSpline
210
0.0
220
0.0
230
1.0
 70
    15
 71
     2
 72
     8
 73
     5
 74
     0
 42
0.0000000001
 43
0.0000000001
 40
0.0
 40
0.0
 40
0.0
 40
0.0000000065196559
 40
0.0000000065196559
 40
0.0000000130393118
 40
0.0000000130393118
 40
0.0000000130393118
 10
34.40522638512832
 20
39.75444276810845
 30
0.0
 41
1.0
 10
34.40522638876855
 20
39.75444276880297
 30
0.0
 41
0.8288580018219441
 10
34.40522639077415
 20
39.7544427656867
 30
0.0
 41
1.0
 10
34.40522639277975
 20
39.75444276257043
 30
0.0
 41
0.8288580018219441
 10
34.40522639063977
 20
39.75444275954487
 30
0.0
 41
1.0
  0
SPLINE
  5
9C
330
1F
100
AcDbEntity
  8
Default
100
AcDbSpline
210
0.0
220
0.0
230
1.0
 70
    27
 71
     2
 72
     6
 73
     3
 74
     0
 42
0.0000000001
 43
0.0000000001
 40
0.0
 40
0.0
 40
0.0
 40
0.0000000155513699
 40
0.0000000155513699
 40
0.0000000155513699
 10
34.40522639063976
 20
39.75444275954488
 30
0.0
 10
34.405226384434
 20
39.75444276422994
 30
0.0
 10
34.40522637822824
 20
39.754442768915
 30
0.0
  0
SPLINE
  5
9D
330
1F
100
AcDbEntity
  8
Default
100
AcDbSpline
210
0.0
220
0.0
230
1.0
 70
    15
 71
     2
 72
    12
 73
     9
 74
     0
 42
0.0000000001
 43
0.0000000001
 40
0.0
 40
0.0
 40
0.0
 40
0.0000000003482933
 40
0.0000000003482933
 40
0.0000000006965865
 40
0.0000000006965865
 40
0.0000000010448798
 40
0.0000000010448798
 40
0.0000000013931731
 40
0.0000000013931731
 40
0.0000000013931731
 10
34.40522637822824
 20
39.754442768915
 30
0.0
 41
1.0
 10
34.40522637822892
 20
39.75444276872869
 30
0.0
 41
0.9048565134119876
 10
34.40522637837289
 20
39.75444276861043
 30
0.0
 41
1.0
 10
34.40522637851687
 20
39.75444276849217
 30
0.0
 41
0.9048565134119876
 10
34.40522637869975
 20
39.7544427685277
 30
0.0
 41
1.0
 10
34.40522637888265
 20
39.75444276856322
 30
0.0
 41
0.9048565134119876
 10
34.40522637897188
 20
39.75444276872678
 30
0.0
 41
1.0
 10
34.40522637906111
 20
39.75444276889035
 30
0.0
 41
0.9048565134119876
 10
34.40522637899199
 20
39.75444276906336
 30
0.0
 41
1.0
  0
SPLINE
  5
9E
330
1F
100
AcDbEntity
  8
Default
100
AcDbSpline
210
0.0
220
0.0
230
1.0
 70
    27
 71
     2
 72
     6
 73
     3
 74
     0
 42
0.0000000001
 43
0.0000000001
 40
0.0
 40
0.0
 40
0.0
 40
0.0000000018488907
 40
0.0000000018488907
 40
0.0000000018488907
 10
34.40522639063977
 20
39.75444275954488
 30
0.0
 10
34.40522639094026
 20
39.75444275867063
 30
0.0
 10
34.40522639124075
 20
39.75444275779639
 30
0.0
  0
SPLINE
  5
9F
330
1F
100
AcDbEntity
  8
Default
100
AcDbSpline
210
0.0
220
0.0
230
1.0
 70
    27
 71
     2
 72
     6
 73
     3
 74
     0
 42
0.0000000001
 43
0.0000000001
 40
0.0
 40
0.0
 40
0.0
 40
0.0000000001075773
 40
0.0000000001075773
 40
0.0000000001075773
 10
34.40522639122268
 20
39.75444275778731
 30
0.0
 10
34.40522639117256
 20
39.75444275776778
 30
0.0
 10
34.40522639112245
 20
39.75444275774825
 30
0.0
  0
SPLINE
  5
A0
330
1F
100
AcDbEntity
  8
Default
100
AcDbSpline
210
0.0
220
0.0
230
1.0
 70
    27
 71
     2
 72
     6
 73
     3
 74
     0
 42
0.0000000001
 43
0.0000000001
 40
0.0
 40
0.0
 40
0.0
 40
0.0000000000149601
 40
0.0000000000149601
 40
0.0000000000149601
 10
34.40522636818888
 20
39.75444276930723
 30
0.0
 10
34.40522636819617
 20
39.75444276930894
 30
0.0
 10
34.40522636820345
 20
39.75444276931064
 30
0.0
  0
SPLINE
  5
A1
330
1F
100
AcDbEntity
  8
Default
100
AcDbSpline
210
0.0
220
0.0
230
1.0
 70
    27
 71
     2
 72
     6
 73
     3
 74
     0
 42
0.0000000001
 43
0.0000000001
 40
0.0
 40
0.0
 40
0.0
 40
0.0000000000198504
 40
0.0000000000198504
 40
0.0000000000198504
 10
34.40522636820814
 20
39.75444276931155
 30
0.0
 10
34.40522636821795
 20
39.75444276931302
 30
0.0
 10
34.40522636822777
 20
39.75444276931448
 30
0.0
  0
SPLINE
  5
A2
330
1F
100
AcDbEntity
  8
Default
100
AcDbSpline
210
0.0
220
0.0
230
1.0
 70
    27
 71
     2
 72
     6
 73
     3
 74
     0
 42
0.0000000001
 43
0.0000000001
 40
0.0
 40
0.0
 40
0.0
 40
0.0000000154795982
 40
0.0000000154795982
 40
0.0000000154795982
 10
34.40522636822778
 20
39.75444276931448
 30
0.0
 10
34.40522637376292
 20
39.75444276390461
 30
0.0
 10
34.40522637929806
 20
39.75444275849474
 30
0.0
  0
SPLINE
  5
A3
330
1F
100
AcDbEntity
  8
Default
100
AcDbSpline
210
0.0
220
0.0
230
1.0
 70
    27
 71
     2
 72
     6
 73
     3
 74
     0
 42
0.0000000001
 43
0.0000000001
 40
0.0
 40
0.0
 40
0.0
 40
0.0000000017476657
 40
0.0000000017476657
 40
0.0000000017476657
 10
34.40522636995745
 20
39.7544427695646
 30
0.0
 10
34.40522636909262
 20
39.75444276943954
 30
0.0
 10
34.40522636822778
 20
39.75444276931448
 30
0.0
  0
SPLINE
  5
A4
330
1F
100
AcDbEntity
  8
Default
100
AcDbSpline
210
0.0
220
0.0
230
1.0
 70
    27
 71
     2
 72
     6
 73
     3
 74
     0
 42
0.0000000001
 43
0.0000000001
 40
0.0
 40
0.0
 40
0.0
 40
0.0000000083187045
 40
0.0000000083187045
 40
0.0000000083187045
 10
34.40522637654609
 20
39.75444276923342
 30
0.0
 10
34.40522637238693
 20
39.75444276927395
 30
0.0
 10
34.40522636822778
 20
39.75444276931448
 30
0.0
  0
SPLINE
  5
A5
330
1F
100
AcDbEntity
  8
Default
100
AcDbSpline
210
0.0
220
0.0
230
1.0
 70
    15
 71
     2
 72
     6
 73
     3
 74
     0
 42
0.0000000001
 43
0.0000000001
 40
0.0
 40
0.0
 40
0.0
 40
0.0000000009909133
 40
0.0000000009909133
 40
0.0000000009909133
 10
34.40522637750461
 20
39.75444276932001
 30
0.0
 41
1.0
 10
34.40522637700617
 20
39.7544427694891
 30
0.0
 41
0.9142490115439905
 10
34.4052263765461
 20
39.75444276923341
 30
0.0
 41
1.0
  0
SPLINE
  5
A6
330
1F
100
AcDbEntity
  8
Default
100
AcDbSpline
210
0.0
220
0.0
230
1.0
 70
    27
 71
     2
 72
     6
 73
     3
 74
     0
 42
0.0000000001
 43
0.0000000001
 40
0.0
 40
0.0
 40
0.0
 40
0.0000000017120187
 40
0.0000000017120187
 40
0.0000000017120187
 10
34.40522637822824
 20
39.754442768915
 30
0.0
 10
34.40522637738717
 20
39.75444276907421
 30
0.0
 10
34.40522637654609
 20
39.75444276923342
 30
0.0
  0
SPLINE
  5
A7
330
1F
100
AcDbEntity
  8
Default
100
AcDbSpline
210
0.0
220
0.0
230
1.0
 70
    27
 71
     2
 72
     6
 73
     3
 74
     0
 42
0.0000000001
 43
0.0000000001
 40
0.0
 40
0.0
 40
0.0
 40
0.0000000011768679
 40
0.0000000011768679
 40
0.0000000011768679
 10
34.40522637781938
 20
39.75444276916355
 30
0.0
 10
34.40522637840568
 20
39.75444276911345
 30
0.0
 10
34.40522637899198
 20
39.75444276906335
 30
0.0
  0
SPLINE
  5
A8
330
1F
100
AcDbEntity
  8
Default
100
AcDbSpline
210
0.0
220
0.0
230
1.0
 70
    27
 71
     2
 72
     6
 73
     3
 74
     0
 42
0.0000000001
 43
0.0000000001
 40
0.0
 40
0.0
 40
0.0
 40
0.0000000012752013
 40
0.0000000012752013
 40
0.0000000012752013
 10
34.4052263765461
 20
39.75444276923343
 30
0.0
 10
34.40522637718274
 20
39.75444276919849
 30
0.0
 10
34.40522637781938
 20
39.75444276916355
 30
0.0
  0
SPLINE
  5
A9
330
1F
100
AcDbEntity
  8
Default
100
AcDbSpline
210
0.0
220
0.0
230
1.0
 70
    27
 71
     2
 72
     6
 73
     3
 74
     0
 42
0.0000000001
 43
0.0000000001
 40
0.0
 40
0.0
 40
0.0
 40
0.0000000038848399
 40
0.0000000038848399
 40
0.0000000038848399
 10
34.40522635997143
 20
39.75444276047264
 30
0.0
 10
34.40522636121442
 20
39.75444276196528
 30
0.0
 10
34.40522636245741
 20
39.75444276345792
 30
0.0
  0
SPLINE
  5
AA
330
1F
100
AcDbEntity
  8
Default
100
AcDbSpline
210
0.0
220
0.0
230
1.0
 70
    27
 71
     2
 72
     6
 73
     3
 74
     0
 42
0.0000000001
 43
0.0000000001
 40
0.0
 40
0.0
 40
0.0
 40
0.000000003151571
 40
0.000000003151571
 40
0.000000003151571
 10
34.40522636071002
 20
39.75444276075243
 30
0.0
 10
34.40522636222387
 20
39.75444276118986
 30
0.0
 10
34.40522636373773
 20
39.75444276162729
 30
0.0
  0
SPLINE
  5
AB
330
1F
100
AcDbEntity
  8
Default
100
AcDbSpline
210
0.0
220
0.0
230
1.0
 70
    27
 71
     2
 72
     6
 73
     3
 74
     0
 42
0.0000000001
 43
0.0000000001
 40
0.0
 40
0.0
 40
0.0
 40
0.0000000007898042
 40
0.0000000007898042
 40
0.0000000007898042
 10
34.40522635997143
 20
39.75444276047264
 30
0.0
 10
34.40522636034072
 20
39.75444276061253
 30
0.0
 10
34.40522636071002
 20
39.75444276075243
 30
0.0
  0
SPLINE
  5
AC
330
1F
100
AcDbEntity
  8
Default
100
AcDbSpline
210
0.0
220
0.0
230
1.0
 70
    27
 71
     2
 72
     6
 73
     3
 74
     0
 42
0.0000000001
 43
0.0000000001
 40
0.0
 40
0.0
 40
0.0
 40
0.0000000005069186
 40
0.0000000005069186
 40
0.0000000005069186
 10
34.4052263764553
 20
39.75444276958924
 30
0.0
 10
34.40522637669632
 20
39.75444276966769
 30
0.0
 10
34.40522637693733
 20
39.75444276974614
 30
0.0
  0
SPLINE
  5
AD
330
1F
100
AcDbEntity
  8
Default
100
AcDbSpline
210
0.0
220
0.0
230
1.0
 70
    27
 71
     2
 72
     6
 73
     3
 74
     0
 42
0.0000000001
 43
0.0000000001
 40
0.0
 40
0.0
 40
0.0
 40
0.0000000005392088
 40
0.0000000005392088
 40
0.0000000005392088
 10
34.40522637748185
 20
39.75444276996954
 30
0.0
 10
34.40522637772165
 20
39.75444277009275
 30
0.0
 10
34.40522637796145
 20
39.75444277021597
 30
0.0
  0
SPLINE
  5
AE
330
1F
100
AcDbEntity
  8
Default
100
AcDbSpline
210
0.0
220
0.0
230
1.0
 70
    27
 71
     2
 72
     6
 73
     3
 74
     0
 42
0.0000000001
 43
0.0000000001
 40
0.0
 40
0.0
 40
0.0
 40
0.0000004395147674
 40
0.0000004395147674
 40
0.0000004395147674
 10
34.40522557130191
 20
39.75444163689638
 30
0.0
 10
34.40522570183207
 20
39.75444181368775
 30
0.0
 10
34.40522583236221
 20
39.75444199047912
 30
0.0
  0
SPLINE
  5
AF
330
1F
100
AcDbEntity
  8
Default
100
AcDbSpline
210
0.0
220
0.0
230
1.0
 70
    24
 71
     2
 72
     6
 73
     3
 74
     0
 42
0.0000000001
 43
0.0000000001
 40
0.0
 40
0.0
 40
0.0
 40
0.0000019141569096
 40
0.0000019141569096
 40
0.0000019141569096
 10
34.40522444394685
 20
39.7544400899422
 30
0.0
 10
34.40522500762438
 20
39.75444086341929
 30
0.0
 10
34.40522557130191
 20
39.75444163689638
 30
0.0
  0
SPLINE
  5
B0
330
1F
100
AcDbEntity
  8
Default
100
AcDbSpline
210
0.0
220
0.0
230
1.0
 70
    27
 71
     2
 72
     6
 73
     3
 74
     0
 42
0.0000000001
 43
0.0000000001
 40
0.0
 40
0.0
 40
0.0
 40
0.0000000000677239
 40
0.0000000000677239
 40
0.0000000000677239
 10
34.40522637865277
 20
39.75444277040639
 30
0.0
 10
34.40522637867826
 20
39.75444277042868
 30
0.0
 10
34.40522637870376
 20
39.75444277045096
 30
0.0
  0
SPLINE
  5
B1
330
1F
100
AcDbEntity
  8
Default
100
AcDbSpline
210
0.0
220
0.0
230
1.0
 70
    27
 71
     2
 72
     6
 73
     3
 74
     0
 42
0.0000000001
 43
0.0000000001
 40
0.0
 40
0.0
 40
0.0
 40
0.0000000009260014
 40
0.0000000009260014
 40
0.0000000009260014
 10
34.40522637787576
 20
39.75444276990267
 30
0.0
 10
34.40522637826427
 20
39.75444277015453
 30
0.0
 10
34.40522637865277
 20
39.75444277040639
 30
0.0
  0
SPLINE
  5
B2
330
1F
100
AcDbEntity
  8
Default
100
AcDbSpline
210
0.0
220
0.0
230
1.0
 70
    27
 71
     2
 72
     6
 73
     3
 74
     0
 42
0.0000000001
 43
0.0000000001
 40
0.0
 40
0.0
 40
0.0
 40
0.0000000003770316
 40
0.0000000003770316
 40
0.0000000003770316
 10
34.40522637753337
 20
39.7544427697448
 30
0.0
 10
34.40522637770457
 20
39.75444276982373
 30
0.0
 10
34.40522637787576
 20
39.75444276990267
 30
0.0
  0
SPLINE
  5
B3
330
1F
100
AcDbEntity
  8
Default
100
AcDbSpline
210
0.0
220
0.0
230
1.0
 70
    27
 71
     2
 72
     6
 73
     3
 74
     0
 42
0.0000000001
 43
0.0000000001
 40
0.0
 40
0.0
 40
0.0
 40
0.0000000004144293
 40
0.0000000004144293
 40
0.0000000004144293
 10
34.40522637753337
 20
39.7544427697448
 30
0.0
 10
34.40522637734072
 20
39.75444276966849
 30
0.0
 10
34.40522637714808
 20
39.75444276959217
 30
0.0
  0
SPLINE
  5
B4
330
1F
100
AcDbEntity
  8
Default
100
AcDbSpline
210
0.0
220
0.0
230
1.0
 70
    27
 71
     2
 72
     6
 73
     3
 74
     0
 42
0.0000000001
 43
0.0000000001
 40
0.0
 40
0.0
 40
0.0
 40
0.0000000012077735
 40
0.0000000012077735
 40
0.0000000012077735
 10
34.4052263759878
 20
39.75444276925678
 30
0.0
 10
34.40522637656794
 20
39.75444276942447
 30
0.0
 10
34.40522637714808
 20
39.75444276959217
 30
0.0
  0
SPLINE
  5
B5
330
1F
100
AcDbEntity
  8
Default
100
AcDbSpline
210
0.0
220
0.0
230
1.0
 70
    15
 71
     2
 72
     6
 73
     3
 74
     0
 42
0.0000000001
 43
0.0000000001
 40
0.0
 40
0.0
 40
0.0
 40
0.0000000804389863
 40
0.0000000804389863
 40
0.0000000804389863
 10
34.40522627211083
 20
39.75444290566059
 30
0.0
 41
1.0
 10
34.40522627030149
 20
39.75444285757126
 30
0.0
 41
0.7709028371855392
 10
34.40522622273379
 20
39.75444285027932
 30
0.0
 41
1.0
  0
SPLINE
  5
B6
330
1F
100
AcDbEntity
  8
Default
100
AcDbSpline
210
0.0
220
0.0
230
1.0
 70
    27
 71
     2
 72
     6
 73
     3
 74
     0
 42
0.0000000001
 43
0.0000000001
 40
0.0
 40
0.0
 40
0.0
 40
0.000000039662153
 40
0.000000039662153
 40
0.000000039662153
 10
34.40522622273379
 20
39.75444285027933
 30
0.0
 10
34.40522620341338
 20
39.75444284580798
 30
0.0
 10
34.40522618409295
 20
39.75444284133663
 30
0.0
  0
SPLINE
  5
B7
330
1F
100
AcDbEntity
  8
Default
100
AcDbSpline
210
0.0
220
0.0
230
1.0
 70
    27
 71
     2
 72
     6
 73
     3
 74
     0
 42
0.0000000001
 43
0.0000000001
 40
0.0
 40
0.0
 40
0.0
 40
0.0000000439283649
 40
0.0000000439283649
 40
0.0000000439283649
 10
34.40522618409295
 20
39.75444284133663
 30
0.0
 10
34.40522616259271
 20
39.75444283684611
 30
0.0
 10
34.40522614109246
 20
39.75444283235559
 30
0.0
  0
SPLINE
  5
B8
330
1F
100
AcDbEntity
  8
Default
100
AcDbSpline
210
0.0
220
0.0
230
1.0
 70
    27
 71
     2
 72
     6
 73
     3
 74
     0
 42
0.0000000001
 43
0.0000000001
 40
0.0
 40
0.0
 40
0.0
 40
0.0000001687646243
 40
0.0000001687646243
 40
0.0000001687646243
 10
34.40522614109246
 20
39.75444283235559
 30
0.0
 10
34.40522605895056
 20
39.75444281304025
 30
0.0
 10
34.40522597680866
 20
39.75444279372491
 30
0.0
  0
SPLINE
  5
B9
330
1F
100
AcDbEntity
  8
Default
100
AcDbSpline
210
0.0
220
0.0
230
1.0
 70
    27
 71
     2
 72
     6
 73
     3
 74
     0
 42
0.0000000001
 43
0.0000000001
 40
0.0
 40
0.0
 40
0.0
 40
0.0000000109671646
 40
0.0000000109671646
 40
0.0000000109671646
 10
34.40522597680866
 20
39.75444279372491
 30
0.0
 10
34.40522597189312
 20
39.75444279129445
 30
0.0
 10
34.40522596697758
 20
39.75444278886399
 30
0.0
  0
SPLINE
  5
BA
330
1F
100
AcDbEntity
  8
Default
100
AcDbSpline
210
0.0
220
0.0
230
1.0
 70
    15
 71
     2
 72
    12
 73
     9
 74
     0
 42
0.0000000001
 43
0.0000000001
 40
0.0
 40
0.0
 40
0.0
 40
0.0000002686586563
 40
0.0000002686586563
 40
0.0000005373173126
 40
0.0000005373173126
 40
0.0000008059759689
 40
0.0000008059759689
 40
0.0000010746346252
 40
0.0000010746346252
 40
0.0000010746346252
 10
34.40522596697758
 20
39.75444278886399
 30
0.0
 41
1.0
 10
34.40522588022525
 20
39.75444291508327
 30
0.0
 41
0.8254000662118364
 10
34.40522573114054
 20
39.7544428799973
 30
0.0
 41
1.0
 10
34.40522558205583
 20
39.7544428449113
 30
0.0
 41
0.8254000662118364
 10
34.40522556070071
 20
39.75444269324973
 30
0.0
 41
1.0
 10
34.40522553934559
 20
39.75444254158814
 30
0.0
 41
0.8254000662118364
 10
34.40522567294483
 20
39.75444246669809
 30
0.0
 41
1.0
 10
34.40522580654407
 20
39.75444239180803
 30
0.0
 41
0.8254000662118364
 10
34.40522592477748
 20
39.75444248916376
 30
0.0
 41
1.0
  0
SPLINE
  5
BB
330
1F
100
AcDbEntity
  8
Default
100
AcDbSpline
210
0.0
220
0.0
230
1.0
 70
    27
 71
     2
 72
     6
 73
     3
 74
     0
 42
0.0000000001
 43
0.0000000001
 40
0.0
 40
0.0
 40
0.0
 40
0.0000000006255262
 40
0.0000000006255262
 40
0.0000000006255262
 10
34.40522637870376
 20
39.75444277045096
 30
0.0
 10
34.40522637893716
 20
39.75444277024277
 30
0.0
 10
34.40522637917056
 20
39.75444277003457
 30
0.0
  0
SPLINE
  5
BC
330
1F
100
AcDbEntity
  8
Default
100
AcDbSpline
210
0.0
220
0.0
230
1.0
 70
    27
 71
     2
 72
     6
 73
     3
 74
     0
 42
0.0000000001
 43
0.0000000001
 40
0.0
 40
0.0
 40
0.0
 40
0.0000000022301347
 40
0.0000000022301347
 40
0.0000000022301347
 10
34.4052263779348
 20
39.75444276755109
 30
0.0
 10
34.40522637773409
 20
39.75444276864795
 30
0.0
 10
34.40522637753337
 20
39.7544427697448
 30
0.0
  0
SPLINE
  5
BD
330
1F
100
AcDbEntity
  8
Default
100
AcDbSpline
210
0.0
220
0.0
230
1.0
 70
    27
 71
     2
 72
     6
 73
     3
 74
     0
 42
0.0000000001
 43
0.0000000001
 40
0.0
 40
0.0
 40
0.0
 40
0.0000000021260172
 40
0.0000000021260172
 40
0.0000000021260172
 10
34.40522637714808
 20
39.75444276959217
 30
0.0
 10
34.40522637733938
 20
39.75444276854651
 30
0.0
 10
34.40522637753069
 20
39.75444276750086
 30
0.0
  0
SPLINE
  5
BE
330
1F
100
AcDbEntity
  8
Default
100
AcDbSpline
210
0.0
220
0.0
230
1.0
 70
    27
 71
     2
 72
     6
 73
     3
 74
     0
 42
0.0000000001
 43
0.0000000001
 40
0.0
 40
0.0
 40
0.0
 40
0.0000000069417218
 40
0.0000000069417218
 40
0.0000000069417218
 10
34.40522592477748
 20
39.75444248916375
 30
0.0
 10
34.40522592805121
 20
39.75444249031683
 30
0.0
 10
34.40522593132494
 20
39.75444249146991
 30
0.0
  0
SPLINE
  5
BF
330
1F
100
AcDbEntity
  8
Default
100
AcDbSpline
210
0.0
220
0.0
230
1.0
 70
    27
 71
     2
 72
     6
 73
     3
 74
     0
 42
0.0000000001
 43
0.0000000001
 40
0.0
 40
0.0
 40
0.0
 40
0.0000004023288212
 40
0.0000004023288212
 40
0.0000004023288212
 10
34.40522593132494
 20
39.75444249146991
 30
0.0
 10
34.40522610570289
 20
39.75444259176672
 30
0.0
 10
34.40522628008084
 20
39.75444269206353
 30
0.0
  0
SPLINE
  5
C0
330
1F
100
AcDbEntity
  8
Default
100
AcDbSpline
210
0.0
220
0.0
230
1.0
 70
    27
 71
     2
 72
     6
 73
     3
 74
     0
 42
0.0000000001
 43
0.0000000001
 40
0.0
 40
0.0
 40
0.0
 40
0.0000000315422718
 40
0.0000000315422718
 40
0.0000000315422718
 10
34.40522632682067
 20
39.75444272361346
 30
0.0
 10
34.40522633995803
 20
39.75444273233921
 30
0.0
 10
34.40522635309538
 20
39.75444274106496
 30
0.0
  0
SPLINE
  5
C1
330
1F
100
AcDbEntity
  8
Default
100
AcDbSpline
210
0.0
220
0.0
230
1.0
 70
    27
 71
     2
 72
     6
 73
     3
 74
     0
 42
0.0000000001
 43
0.0000000001
 40
0.0
 40
0.0
 40
0.0
 40
0.0000000061439925
 40
0.0000000061439925
 40
0.0000000061439925
 10
34.40522632171857
 20
39.75444272019042
 30
0.0
 10
34.40522632426962
 20
39.75444272190194
 30
0.0
 10
34.40522632682067
 20
39.75444272361346
 30
0.0
  0
SPLINE
  5
C2
330
1F
100
AcDbEntity
  8
Default
100
AcDbSpline
210
0.0
220
0.0
230
1.0
 70
    27
 71
     2
 72
     6
 73
     3
 74
     0
 42
0.0000000001
 43
0.0000000001
 40
0.0
 40
0.0
 40
0.0
 40
0.0000000340531393
 40
0.0000000340531393
 40
0.0000000340531393
 10
34.40522629348762
 20
39.75444270114759
 30
0.0
 10
34.40522630760309
 20
39.754442710669
 30
0.0
 10
34.40522632171857
 20
39.75444272019042
 30
0.0
  0
SPLINE
  5
C3
330
1F
100
AcDbEntity
  8
Default
100
AcDbSpline
210
0.0
220
0.0
230
1.0
 70
    27
 71
     2
 72
     6
 73
     3
 74
     0
 42
0.0000000001
 43
0.0000000001
 40
0.0
 40
0.0
 40
0.0
 40
0.0000000092394514
 40
0.0000000092394514
 40
0.0000000092394514
 10
34.40522628583895
 20
39.75444269596441
 30
0.0
 10
34.40522628966328
 20
39.754442698556
 30
0.0
 10
34.40522629348762
 20
39.75444270114759
 30
0.0
  0
SPLINE
  5
C4
330
1F
100
AcDbEntity
  8
Default
100
AcDbSpline
210
0.0
220
0.0
230
1.0
 70
    27
 71
     2
 72
     6
 73
     3
 74
     0
 42
0.0000000001
 43
0.0000000001
 40
0.0
 40
0.0
 40
0.0
 40
0.0000000069550484
 40
0.0000000069550484
 40
0.0000000069550484
 10
34.40522628008084
 20
39.75444269206353
 30
0.0
 10
34.40522628295989
 20
39.75444269401397
 30
0.0
 10
34.40522628583895
 20
39.75444269596441
 30
0.0
  0
SPLINE
  5
C5
330
1F
100
AcDbEntity
  8
Default
100
AcDbSpline
210
0.0
220
0.0
230
1.0
 70
    27
 71
     2
 72
     6
 73
     3
 74
     0
 42
0.0000000001
 43
0.0000000001
 40
0.0
 40
0.0
 40
0.0
 40
0.000000030385375
 40
0.000000030385375
 40
0.000000030385375
 10
34.40522635118758
 20
39.75444273651175
 30
0.0
 10
34.40522634209977
 20
39.7544427243368
 30
0.0
 10
34.40522633301195
 20
39.75444271216185
 30
0.0
  0
SPLINE
  5
C6
330
1F
100
AcDbEntity
  8
Default
100
AcDbSpline
210
0.0
220
0.0
230
1.0
 70
    15
 71
     2
 72
     8
 73
     5
 74
     0
 42
0.0000000001
 43
0.0000000001
 40
0.0
 40
0.0
 40
0.0
 40
0.0000000033128614
 40
0.0000000033128614
 40
0.0000000066257228
 40
0.0000000066257228
 40
0.0000000066257228
 10
34.40522635309538
 20
39.75444274106496
 30
0.0
 41
1.0
 10
34.40522635459954
 20
39.75444273985288
 30
0.0
 41
0.7993106871462171
 10
34.40522635385302
 20
39.75444273807121
 30
0.0
 41
1.0
 10
34.4052263531065
 20
39.75444273628954
 30
0.0
 41
0.7993106871462171
 10
34.40522635118758
 20
39.75444273651174
 30
0.0
 41
1.0
  0
SPLINE
  5
C7
330
1F
100
AcDbEntity
  8
Default
100
AcDbSpline
210
0.0
220
0.0
230
1.0
 70
    27
 71
     2
 72
     6
 73
     3
 74
     0
 42
0.0000000001
 43
0.0000000001
 40
0.0
 40
0.0
 40
0.0
 40
0.0000003636465624
 40
0.0000003636465624
 40
0.0000003636465624
 10
34.40522659467798
 20
39.75444306782249
 30
0.0
 10
34.40522649016581
 20
39.7544429190377
 30
0.0
 10
34.40522638565364
 20
39.75444277025291
 30
0.0
  0
SPLINE
  5
C8
330
1F
100
AcDbEntity
  8
Default
100
AcDbSpline
210
0.0
220
0.0
230
1.0
 70
    27
 71
     2
 72
     6
 73
     3
 74
     0
 42
0.0000000001
 43
0.0000000001
 40
0.0
 40
0.0
 40
0.0
 40
0.0000000038245811
 40
0.0000000038245811
 40
0.0000000038245811
 10
34.40522638565364
 20
39.75444277025291
 30
0.0
 10
34.40522638375728
 20
39.75444277049926
 30
0.0
 10
34.40522638186093
 20
39.75444277074561
 30
0.0
  0
SPLINE
  5
C9
330
1F
100
AcDbEntity
  8
Default
100
AcDbSpline
210
0.0
220
0.0
230
1.0
 70
    27
 71
     2
 72
     6
 73
     3
 74
     0
 42
0.0000000001
 43
0.0000000001
 40
0.0
 40
0.0
 40
0.0
 40
0.0000000024505955
 40
0.0000000024505955
 40
0.0000000024505955
 10
34.40522638186093
 20
39.75444277074561
 30
0.0
 10
34.40522638068151
 20
39.75444277107777
 30
0.0
 10
34.4052263795021
 20
39.75444277140993
 30
0.0
  0
SPLINE
  5
CA
330
1F
100
AcDbEntity
  8
Default
100
AcDbSpline
210
0.0
220
0.0
230
1.0
 70
    27
 71
     2
 72
     6
 73
     3
 74
     0
 42
0.0000000001
 43
0.0000000001
 40
0.0
 40
0.0
 40
0.0
 40
0.0000000302926258
 40
0.0000000302926258
 40
0.0000000302926258
 10
34.4052263795021
 20
39.75444277140993
 30
0.0
 10
34.40522638680135
 20
39.7544427846814
 30
0.0
 10
34.40522639410059
 20
39.75444279795286
 30
0.0
  0
SPLINE
  5
CB
330
1F
100
AcDbEntity
  8
Default
100
AcDbSpline
210
0.0
220
0.0
230
1.0
 70
    27
 71
     2
 72
     6
 73
     3
 74
     0
 42
0.0000000001
 43
0.0000000001
 40
0.0
 40
0.0
 40
0.0
 40
0.0000000047658282
 40
0.0000000047658282
 40
0.0000000047658282
 10
34.40522639410059
 20
39.75444279795286
 30
0.0
 10
34.40522639555728
 20
39.75444279983869
 30
0.0
 10
34.40522639701397
 20
39.75444280172452
 30
0.0
  0
SPLINE
  5
CC
330
1F
100
AcDbEntity
  8
Default
100
AcDbSpline
210
0.0
220
0.0
230
1.0
 70
    27
 71
     2
 72
     6
 73
     3
 74
     0
 42
0.0000000001
 43
0.0000000001
 40
0.0
 40
0.0
 40
0.0
 40
0.0000003314803008
 40
0.0000003314803008
 40
0.0000003314803008
 10
34.40522639701397
 20
39.75444280172452
 30
0.0
 10
34.40522649584597
 20
39.7544429347735
 30
0.0
 10
34.40522659467798
 20
39.75444306782249
 30
0.0
  0
SPLINE
  5
CD
330
1F
100
AcDbEntity
  8
Default
100
AcDbSpline
210
0.0
220
0.0
230
1.0
 70
    27
 71
     2
 72
     6
 73
     3
 74
     0
 42
0.0000000001
 43
0.0000000001
 40
0.0
 40
0.0
 40
0.0
 40
0.0000005606165017
 40
0.0000005606165017
 40
0.0000005606165017
 10
34.40522691506226
 20
39.75444352787115
 30
0.0
 10
34.40522675487012
 20
39.75444329784682
 30
0.0
 10
34.40522659467798
 20
39.75444306782249
 30
0.0
  0
SPLINE
  5
CE
330
1F
100
AcDbEntity
  8
Default
100
AcDbSpline
210
0.0
220
0.0
230
1.0
 70
    27
 71
     2
 72
     6
 73
     3
 74
     0
 42
0.0000000001
 43
0.0000000001
 40
0.0
 40
0.0
 40
0.0
 40
0.0000000069275006
 40
0.0000000069275006
 40
0.0000000069275006
 10
34.40522639701397
 20
39.75444280172452
 30
0.0
 10
34.40522639841555
 20
39.75444280489203
 30
0.0
 10
34.40522639981712
 20
39.75444280805954
 30
0.0
  0
SPLINE
  5
CF
330
1F
100
AcDbEntity
  8
Default
100
AcDbSpline
210
0.0
220
0.0
230
1.0
 70
    27
 71
     2
 72
     6
 73
     3
 74
     0
 42
0.0000000001
 43
0.0000000001
 40
0.0
 40
0.0
 40
0.0
 40
0.0000000442191408
 40
0.0000000442191408
 40
0.0000000442191408
 10
34.40522639981712
 20
39.75444280805954
 30
0.0
 10
34.4052264126138
 20
39.75444282608947
 30
0.0
 10
34.40522642541048
 20
39.75444284411939
 30
0.0
  0
SPLINE
  5
D0
330
1F
100
AcDbEntity
  8
Default
100
AcDbSpline
210
0.0
220
0.0
230
1.0
 70
    24
 71
     2
 72
     6
 73
     3
 74
     0
 42
0.0000000001
 43
0.0000000001
 40
0.0
 40
0.0
 40
0.0
 40
0.0000036759116903
 40
0.0000036759116903
 40
0.0000036759116903
 10
34.40522374890362
 20
39.75443898604014
 30
0.0
 10
34.40522479678017
 20
39.75444049601909
 30
0.0
 10
34.40522584465672
 20
39.75444200599803
 30
0.0
  0
SPLINE
  5
D1
330
1F
100
AcDbEntity
  8
Default
100
AcDbSpline
210
0.0
220
0.0
230
1.0
 70
    27
 71
     2
 72
     6
 73
     3
 74
     0
 42
0.0000000001
 43
0.0000000001
 40
0.0
 40
0.0
 40
0.0
 40
0.0000000087957839
 40
0.0000000087957839
 40
0.0000000087957839
 10
34.40522639441704
 20
39.75444277100699
 30
0.0
 10
34.40522639003534
 20
39.75444277062995
 30
0.0
 10
34.40522638565364
 20
39.75444277025291
 30
0.0
  0
SPLINE
  5
D2
330
1F
100
AcDbEntity
  8
Default
100
AcDbSpline
210
0.0
220
0.0
230
1.0
 70
    27
 71
     2
 72
     6
 73
     3
 74
     0
 42
0.0000000001
 43
0.0000000001
 40
0.0
 40
0.0
 40
0.0
 40
0.0000003731055782
 40
0.0000003731055782
 40
0.0000003731055782
 10
34.40522676058657
 20
39.75444284261458
 30
0.0
 10
34.40522657750181
 20
39.75444280681079
 30
0.0
 10
34.40522639441704
 20
39.75444277100699
 30
0.0
  0
SPLINE
  5
D3
330
1F
100
AcDbEntity
  8
Default
100
AcDbSpline
210
0.0
220
0.0
230
1.0
 70
    12
 71
     2
 72
     8
 73
     5
 74
     0
 42
0.0000000001
 43
0.0000000001
 40
0.0
 40
0.0
 40
0.0
 40
0.000003953100416
 40
0.000003953100416
 40
0.000007906200832
 40
0.000007906200832
 40
0.000007906200832
 10
34.40523267148575
 20
39.7544466450518
 30
0.0
 41
1.0
 10
34.40523064280512
 20
39.75444718208645
 30
0.0
 41
0.9150294851170838
 10
34.4052288778918
 20
39.75444604673091
 30
0.0
 41
1.0
 10
34.40522711297847
 20
39.75444491137537
 30
0.0
 41
0.9150294851170838
 10
34.40522676058657
 20
39.75444284261458
 30
0.0
 41
1.0
  0
SPLINE
  5
D4
330
1F
100
AcDbEntity
  8
Default
100
AcDbSpline
210
0.0
220
0.0
230
1.0
 70
    15
 71
     2
 72
    12
 73
     9
 74
     0
 42
0.0000000001
 43
0.0000000001
 40
0.0
 40
0.0
 40
0.0
 40
0.0000000023762651
 40
0.0000000023762651
 40
0.0000000047525302
 40
0.0000000047525302
 40
0.0000000071287953
 40
0.0000000071287953
 40
0.0000000095050604
 40
0.0000000095050604
 40
0.0000000095050604
 10
34.40522635285611
 20
39.75444273724708
 30
0.0
 41
1.0
 10
34.40522635400592
 20
39.7544427367437
 30
0.0
 41
0.9217846747830145
 10
34.40522635516985
 20
39.75444273721345
 30
0.0
 41
1.0
 10
34.40522635633381
 20
39.75444273768322
 30
0.0
 41
0.9217846747830145
 10
34.40522635681206
 20
39.75444273884369
 30
0.0
 41
1.0
 10
34.40522635729032
 20
39.75444274000417
 30
0.0
 41
0.9217846747830145
 10
34.40522635679535
 20
39.7544427411576
 30
0.0
 41
1.0
 10
34.4052263563004
 20
39.75444274231107
 30
0.0
 41
0.9217846747830145
 10
34.40522635512978
 20
39.75444274276396
 30
0.0
 41
1.0
  0
SPLINE
  5
D5
330
1F
100
AcDbEntity
  8
Default
100
AcDbSpline
210
0.0
220
0.0
230
1.0
 70
    15
 71
     2
 72
    12
 73
     9
 74
     0
 42
0.0000000001
 43
0.0000000001
 40
0.0
 40
0.0
 40
0.0
 40
0.0000000003809131
 40
0.0000000003809131
 40
0.0000000007618263
 40
0.0000000007618263
 40
0.0000000011427394
 40
0.0000000011427394
 40
0.0000000015236526
 40
0.0000000015236526
 40
0.0000000015236526
 10
34.4052263529226
 20
39.75444273661257
 30
0.0
 41
1.0
 10
34.4052263531152
 20
39.7544427365295
 30
0.0
 41
0.8675209608779781
 10
34.4052263532842
 20
39.75444273665376
 30
0.0
 41
1.0
 10
34.40522635345319
 20
39.75444273677802
 30
0.0
 41
0.8675209608779781
 10
34.40522635343133
 20
39.75444273698664
 30
0.0
 41
1.0
 10
34.40522635340945
 20
39.75444273719525
 30
0.0
 41
0.8675209608779781
 10
34.40522635321839
 20
39.75444273728177
 30
0.0
 41
1.0
 10
34.4052263530273
 20
39.75444273736829
 30
0.0
 41
0.8675209608779781
 10
34.4052263528561
 20
39.7544427372471
 30
0.0
 41
1.0
  0
SPLINE
  5
D6
330
1F
100
AcDbEntity
  8
Default
100
AcDbSpline
210
0.0
220
0.0
230
1.0
 70
    12
 71
     2
 72
     6
 73
     3
 74
     0
 42
0.0000000001
 43
0.0000000001
 40
0.0
 40
0.0
 40
0.0
 40
0.0000036584498953
 40
0.0000036584498953
 40
0.0000036584498953
 10
34.40522374890362
 20
39.75443898604014
 30
0.0
 41
1.0
 10
34.4052248829616
 20
39.75444042423337
 30
0.0
 41
0.9981165753317136
 10
34.40522583236221
 20
39.75444199047912
 30
0.0
 41
1.0
  0
SPLINE
  5
D7
330
1F
100
AcDbEntity
  8
Default
100
AcDbSpline
210
0.0
220
0.0
230
1.0
 70
    27
 71
     2
 72
     6
 73
     3
 74
     0
 42
0.0000000001
 43
0.0000000001
 40
0.0
 40
0.0
 40
0.0
 40
0.0000009102616626
 40
0.0000009102616626
 40
0.0000009102616626
 10
34.40522583236221
 20
39.75444199047912
 30
0.0
 10
34.40522609260916
 20
39.7544423638631
 30
0.0
 10
34.40522635285611
 20
39.75444273724708
 30
0.0
  0
SPLINE
  5
D8
330
1F
100
AcDbEntity
  8
Default
100
AcDbSpline
210
0.0
220
0.0
230
1.0
 70
    27
 71
     2
 72
     6
 73
     3
 74
     0
 42
0.0000000001
 43
0.0000000001
 40
0.0
 40
0.0
 40
0.0
 40
0.00000000193261
 40
0.00000000193261
 40
0.00000000193261
 10
34.40522639981712
 20
39.75444280805954
 30
0.0
 10
34.40522640026626
 20
39.75444280891513
 30
0.0
 10
34.40522640071539
 20
39.75444280977072
 30
0.0
  0
SPLINE
  5
D9
330
1F
100
AcDbEntity
  8
Default
100
AcDbSpline
210
0.0
220
0.0
230
1.0
 70
    27
 71
     2
 72
     6
 73
     3
 74
     0
 42
0.0000000001
 43
0.0000000001
 40
0.0
 40
0.0
 40
0.0
 40
0.0000000116113619
 40
0.0000000116113619
 40
0.0000000116113619
 10
34.40522639410059
 20
39.75444279795286
 30
0.0
 10
34.40522639695886
 20
39.7544428030062
 30
0.0
 10
34.40522639981712
 20
39.75444280805954
 30
0.0
  0
SPLINE
  5
DA
330
1F
100
AcDbEntity
  8
Default
100
AcDbSpline
210
0.0
220
0.0
230
1.0
 70
    27
 71
     2
 72
     6
 73
     3
 74
     0
 42
0.0000000001
 43
0.0000000001
 40
0.0
 40
0.0
 40
0.0
 40
0.0000000026928211
 40
0.0000000026928211
 40
0.0000000026928211
 10
34.40522639410059
 20
39.75444279795286
 30
0.0
 10
34.40522639342543
 20
39.75444279678797
 30
0.0
 10
34.40522639275027
 20
39.75444279562308
 30
0.0
  0
SPLINE
  5
DB
330
1F
100
AcDbEntity
  8
Default
100
AcDbSpline
210
0.0
220
0.0
230
1.0
 70
    27
 71
     2
 72
     6
 73
     3
 74
     0
 42
0.0000000001
 43
0.0000000001
 40
0.0
 40
0.0
 40
0.0
 40
0.0000000001350529
 40
0.0000000001350529
 40
0.0000000001350529
 10
34.4052263795021
 20
39.75444277140993
 30
0.0
 10
34.40522637943472
 20
39.75444277141442
 30
0.0
 10
34.40522637936734
 20
39.75444277141891
 30
0.0
  0
SPLINE
  5
DC
330
1F
100
AcDbEntity
  8
Default
100
AcDbSpline
210
0.0
220
0.0
230
1.0
 70
    15
 71
     2
 72
     8
 73
     5
 74
     0
 42
0.0000000001
 43
0.0000000001
 40
0.0
 40
0.0
 40
0.0
 40
0.0000000469904248
 40
0.0000000469904248
 40
0.0000000939808497
 40
0.0000000939808497
 40
0.0000000939808497
 10
34.40522620546331
 20
39.75444265802697
 30
0.0
 41
1.0
 10
34.40522618028737
 20
39.75444266166249
 30
0.0
 41
0.8893267413907875
 10
34.40522616859678
 20
39.75444268425397
 30
0.0
 41
1.0
 10
34.40522615690617
 20
39.75444270684545
 30
0.0
 41
0.8893267413907875
 10
34.40522616847884
 20
39.75444272949757
 30
0.0
 41
1.0
  0
SPLINE
  5
DD
330
1F
100
AcDbEntity
  8
Default
100
AcDbSpline
210
0.0
220
0.0
230
1.0
 70
    27
 71
     2
 72
     6
 73
     3
 74
     0
 42
0.0000000001
 43
0.0000000001
 40
0.0
 40
0.0
 40
0.0
 40
0.0000000069953406
 40
0.0000000069953406
 40
0.0000000069953406
 10
34.40522638881032
 20
39.75444276682375
 30
0.0
 10
34.40522639161368
 20
39.75444276891537
 30
0.0
 10
34.40522639441704
 20
39.75444277100699
 30
0.0
  0
SPLINE
  5
DE
330
1F
100
AcDbEntity
  8
Default
100
AcDbSpline
210
0.0
220
0.0
230
1.0
 70
    27
 71
     2
 72
     6
 73
     3
 74
     0
 42
0.0000000001
 43
0.0000000001
 40
0.0
 40
0.0
 40
0.0
 40
0.0000003754546778
 40
0.0000003754546778
 40
0.0000003754546778
 10
34.40522676058657
 20
39.75444284261458
 30
0.0
 10
34.40522657706915
 20
39.75444280308093
 30
0.0
 10
34.40522639355173
 20
39.75444276354727
 30
0.0
  0
SPLINE
  5
DF
330
1F
100
AcDbEntity
  8
Default
100
AcDbSpline
210
0.0
220
0.0
230
1.0
 70
    27
 71
     2
 72
     6
 73
     3
 74
     0
 42
0.0000000001
 43
0.0000000001
 40
0.0
 40
0.0
 40
0.0
 40
0.0000000020282047
 40
0.0000000020282047
 40
0.0000000020282047
 10
34.40522638436691
 20
39.75444276868514
 30
0.0
 10
34.40522638501027
 20
39.75444276946902
 30
0.0
 10
34.40522638565364
 20
39.75444277025291
 30
0.0
  0
SPLINE
  5
E0
330
1F
100
AcDbEntity
  8
Default
100
AcDbSpline
210
0.0
220
0.0
230
1.0
 70
    27
 71
     2
 72
     6
 73
     3
 74
     0
 42
0.0000000001
 43
0.0000000001
 40
0.0
 40
0.0
 40
0.0
 40
0.0000000003976364
 40
0.0000000003976364
 40
0.0000000003976364
 10
34.40522638410923
 20
39.75444276838229
 30
0.0
 10
34.40522638423806
 20
39.75444276853371
 30
0.0
 10
34.40522638436691
 20
39.75444276868514
 30
0.0
  0
SPLINE
  5
E1
330
1F
100
AcDbEntity
  8
Default
100
AcDbSpline
210
0.0
220
0.0
230
1.0
 70
    27
 71
     2
 72
     6
 73
     3
 74
     0
 42
0.0000000001
 43
0.0000000001
 40
0.0
 40
0.0
 40
0.0
 40
0.0000000019345187
 40
0.0000000019345187
 40
0.0000000019345187
 10
34.40522638088294
 20
39.7544427690765
 30
0.0
 10
34.40522638137193
 20
39.75444276991105
 30
0.0
 10
34.40522638186093
 20
39.75444277074561
 30
0.0
  0
SPLINE
  5
E2
330
1F
100
AcDbEntity
  8
Default
100
AcDbSpline
210
0.0
220
0.0
230
1.0
 70
    27
 71
     2
 72
     6
 73
     3
 74
     0
 42
0.0000000001
 43
0.0000000001
 40
0.0
 40
0.0
 40
0.0
 40
0.0000000021052757
 40
0.0000000021052757
 40
0.0000000021052757
 10
34.4052263789984
 20
39.7544427693658
 30
0.0
 10
34.40522637925025
 20
39.75444277038787
 30
0.0
 10
34.4052263795021
 20
39.75444277140993
 30
0.0
  0
SPLINE
  5
E3
330
1F
100
AcDbEntity
  8
Default
100
AcDbSpline
210
0.0
220
0.0
230
1.0
 70
    27
 71
     2
 72
     6
 73
     3
 74
     0
 42
0.0000000001
 43
0.0000000001
 40
0.0
 40
0.0
 40
0.0
 40
0.00000001642598
 40
0.00000001642598
 40
0.00000001642598
 10
34.40522639419432
 20
39.75444276084696
 30
0.0
 10
34.40522639708895
 20
39.75444275316098
 30
0.0
 10
34.40522639998358
 20
39.754442745475
 30
0.0
  0
SPLINE
  5
E4
330
1F
100
AcDbEntity
  8
Default
100
AcDbSpline
210
0.0
220
0.0
230
1.0
 70
    27
 71
     2
 72
     6
 73
     3
 74
     0
 42
0.0000000001
 43
0.0000000001
 40
0.0
 40
0.0
 40
0.0
 40
0.0000000172123441
 40
0.0000000172123441
 40
0.0000000172123441
 10
34.40522639998358
 20
39.754442745475
 30
0.0
 10
34.40522639324154
 20
39.75444275082394
 30
0.0
 10
34.40522638649951
 20
39.75444275617288
 30
0.0
  0
SPLINE
  5
E5
330
1F
100
AcDbEntity
  8
Default
100
AcDbSpline
210
0.0
220
0.0
230
1.0
 70
    27
 71
     2
 72
     6
 73
     3
 74
     0
 42
0.0000000001
 43
0.0000000001
 40
0.0
 40
0.0
 40
0.0
 40
0.000000363299367
 40
0.000000363299367
 40
0.000000363299367
 10
34.40522668358857
 20
39.75444251841853
 30
0.0
 10
34.40522654178607
 20
39.75444263194676
 30
0.0
 10
34.40522639998358
 20
39.754442745475
 30
0.0
  0
SPLINE
  5
E6
330
1F
100
AcDbEntity
  8
Default
100
AcDbSpline
210
0.0
220
0.0
230
1.0
 70
    15
 71
     2
 72
     8
 73
     5
 74
     0
 42
0.0000000001
 43
0.0000000001
 40
0.0
 40
0.0
 40
0.0
 40
0.0000000485219584
 40
0.0000000485219584
 40
0.0000000970439168
 40
0.0000000970439168
 40
0.0000000970439168
 10
34.40522676058657
 20
39.75444284261458
 30
0.0
 41
1.0
 10
34.40522678828044
 20
39.75444284439802
 30
0.0
 41
0.8215952639109158
 10
34.40522679964496
 20
39.75444281908045
 30
0.0
 41
1.0
 10
34.40522681100947
 20
39.75444279376287
 30
0.0
 41
0.8215952639109158
 10
34.40522679127159
 20
39.75444277425523
 30
0.0
 41
1.0
  0
SPLINE
  5
E7
330
1F
100
AcDbEntity
  8
Default
100
AcDbSpline
210
0.0
220
0.0
230
1.0
 70
    15
 71
     2
 72
     6
 73
     3
 74
     0
 42
0.0000000001
 43
0.0000000001
 40
0.0
 40
0.0
 40
0.0
 40
0.0000002888530099
 40
0.0000002888530099
 40
0.0000002888530099
 10
34.40522679127158
 20
39.75444277425525
 30
0.0
 41
1.0
 10
34.40522666971177
 20
39.75444267483987
 30
0.0
 41
0.8837970304273054
 10
34.40522668358856
 20
39.75444251841853
 30
0.0
 41
1.0
  0
SPLINE
  5
E8
330
1F
100
AcDbEntity
  8
Default
100
AcDbSpline
210
0.0
220
0.0
230
1.0
 70
    27
 71
     2
 72
     6
 73
     3
 74
     0
 42
0.0000000001
 43
0.0000000001
 40
0.0
 40
0.0
 40
0.0
 40
0.0000000011565245
 40
0.0000000011565245
 40
0.0000000011565245
 10
34.40522637864162
 20
39.75444277063719
 30
0.0
 10
34.40522637907186
 20
39.75444277102356
 30
0.0
 10
34.4052263795021
 20
39.75444277140993
 30
0.0
  0
SPLINE
  5
E9
330
1F
100
AcDbEntity
  8
Default
100
AcDbSpline
210
0.0
220
0.0
230
1.0
 70
    27
 71
     2
 72
     6
 73
     3
 74
     0
 42
0.0000000001
 43
0.0000000001
 40
0.0
 40
0.0
 40
0.0
 40
0.0000000021933348
 40
0.0000000021933348
 40
0.0000000021933348
 10
34.40522637670361
 20
39.75444276961014
 30
0.0
 10
34.40522637767262
 20
39.75444277012367
 30
0.0
 10
34.40522637864162
 20
39.75444277063719
 30
0.0
  0
SPLINE
  5
EA
330
1F
100
AcDbEntity
  8
Default
100
AcDbSpline
210
0.0
220
0.0
230
1.0
 70
    27
 71
     2
 72
     6
 73
     3
 74
     0
 42
0.0000000001
 43
0.0000000001
 40
0.0
 40
0.0
 40
0.0
 40
0.0000000090474064
 40
0.0000000090474064
 40
0.0000000090474064
 10
34.40522635844628
 20
39.75444275538377
 30
0.0
 10
34.4052263624547
 20
39.75444275748056
 30
0.0
 10
34.40522636646311
 20
39.75444275957734
 30
0.0
  0
SPLINE
  5
EB
330
1F
100
AcDbEntity
  8
Default
100
AcDbSpline
210
0.0
220
0.0
230
1.0
 70
    15
 71
     2
 72
     8
 73
     5
 74
     0
 42
0.0000000001
 43
0.0000000001
 40
0.0
 40
0.0
 40
0.0
 40
0.0000002247303342
 40
0.0000002247303342
 40
0.0000004494606684
 40
0.0000004494606684
 40
0.0000004494606684
 10
34.40522668358857
 20
39.75444251841853
 30
0.0
 41
1.0
 10
34.40522656655867
 20
39.75444249755792
 30
0.0
 41
0.9198502992282049
 10
34.40522647049058
 20
39.75444256757279
 30
0.0
 41
1.0
 10
34.40522637442248
 20
39.75444263758767
 30
0.0
 41
0.9198502992282049
 10
34.40522635844628
 20
39.75444275538376
 30
0.0
 41
1.0
  0
SPLINE
  5
EC
330
1F
100
AcDbEntity
  8
Default
100
AcDbSpline
210
0.0
220
0.0
230
1.0
 70
    27
 71
     2
 72
     6
 73
     3
 74
     0
 42
0.0000000001
 43
0.0000000001
 40
0.0
 40
0.0
 40
0.0
 40
0.0000000073478005
 40
0.0000000073478005
 40
0.0000000073478005
 10
34.40522635279163
 20
39.75444275069175
 30
0.0
 10
34.40522635561896
 20
39.75444275303776
 30
0.0
 10
34.40522635844628
 20
39.75444275538377
 30
0.0
  0
SPLINE
  5
ED
330
1F
100
AcDbEntity
  8
Default
100
AcDbSpline
210
0.0
220
0.0
230
1.0
 70
    27
 71
     2
 72
     6
 73
     3
 74
     0
 42
0.0000000001
 43
0.0000000001
 40
0.0
 40
0.0
 40
0.0
 40
0.0000000058264002
 40
0.0000000058264002
 40
0.0000000058264002
 10
34.40522635844628
 20
39.75444275538377
 30
0.0
 10
34.40522635957815
 20
39.75444275806809
 30
0.0
 10
34.40522636071002
 20
39.75444276075243
 30
0.0
  0
SPLINE
  5
EE
330
1F
100
AcDbEntity
  8
Default
100
AcDbSpline
210
0.0
220
0.0
230
1.0
 70
    27
 71
     2
 72
     6
 73
     3
 74
     0
 42
0.0000000001
 43
0.0000000001
 40
0.0
 40
0.0
 40
0.0
 40
0.00000000412916
 40
0.00000000412916
 40
0.00000000412916
 10
34.40522636861845
 20
39.75444275809623
 30
0.0
 10
34.4052263669169
 20
39.75444275926552
 30
0.0
 10
34.40522636521535
 20
39.75444276043479
 30
0.0
  0
SPLINE
  5
EF
330
1F
100
AcDbEntity
  8
Default
100
AcDbSpline
210
0.0
220
0.0
230
1.0
 70
    27
 71
     2
 72
     6
 73
     3
 74
     0
 42
0.0000000001
 43
0.0000000001
 40
0.0
 40
0.0
 40
0.0
 40
0.0000000045578421
 40
0.0000000045578421
 40
0.0000000045578421
 10
34.40522638898756
 20
39.75444275690744
 30
0.0
 10
34.4052263868019
 20
39.75444275626216
 30
0.0
 10
34.40522638461624
 20
39.75444275561689
 30
0.0
  0
SPLINE
  5
F0
330
1F
100
AcDbEntity
  8
Default
100
AcDbSpline
210
0.0
220
0.0
230
1.0
 70
    27
 71
     2
 72
     6
 73
     3
 74
     0
 42
0.0000000001
 43
0.0000000001
 40
0.0
 40
0.0
 40
0.0
 40
0.0000000072694284
 40
0.0000000072694284
 40
0.0000000072694284
 10
34.40522637668101
 20
39.75444276961199
 30
0.0
 10
34.40522638026867
 20
39.75444276902902
 30
0.0
 10
34.40522638385632
 20
39.75444276844605
 30
0.0
  0
SPLINE
  5
F1
330
1F
100
AcDbEntity
  8
Default
100
AcDbSpline
210
0.0
220
0.0
230
1.0
 70
    27
 71
     2
 72
     6
 73
     3
 74
     0
 42
0.0000000001
 43
0.0000000001
 40
0.0
 40
0.0
 40
0.0
 40
0.0000000012803044
 40
0.0000000012803044
 40
0.0000000012803044
 10
34.405226383891
 20
39.7544427684374
 30
0.0
 10
34.40522638450966
 20
39.75444276827291
 30
0.0
 10
34.40522638512832
 20
39.75444276810843
 30
0.0
  0
SPLINE
  5
F2
330
1F
100
AcDbEntity
  8
Default
100
AcDbSpline
210
0.0
220
0.0
230
1.0
 70
    27
 71
     2
 72
     6
 73
     3
 74
     0
 42
0.0000000001
 43
0.0000000001
 40
0.0
 40
0.0
 40
0.0
 40
0.0000000104012795
 40
0.0000000104012795
 40
0.0000000104012795
 10
34.40522638729308
 20
39.75444276742007
 30
0.0
 10
34.40522638926952
 20
39.75444276260963
 30
0.0
 10
34.40522639124597
 20
39.75444275779919
 30
0.0
  0
SPLINE
  5
F3
330
1F
100
AcDbEntity
  8
Default
100
AcDbSpline
210
0.0
220
0.0
230
1.0
 70
    27
 71
     2
 72
     6
 73
     3
 74
     0
 42
0.0000000001
 43
0.0000000001
 40
0.0
 40
0.0
 40
0.0
 40
0.000000009367788
 40
0.000000009367788
 40
0.000000009367788
 10
34.40522636521529
 20
39.75444276043471
 30
0.0
 10
34.40522636671172
 20
39.75444276487313
 30
0.0
 10
34.40522636820815
 20
39.75444276931155
 30
0.0
  0
SPLINE
  5
F4
330
1F
100
AcDbEntity
  8
Default
100
AcDbSpline
210
0.0
220
0.0
230
1.0
 70
    27
 71
     2
 72
     6
 73
     3
 74
     0
 42
0.0000000001
 43
0.0000000001
 40
0.0
 40
0.0
 40
0.0
 40
0.000000002422223
 40
0.000000002422223
 40
0.000000002422223
 10
34.40522639124077
 20
39.75444275779634
 30
0.0
 10
34.40522639011417
 20
39.75444275735189
 30
0.0
 10
34.40522638898755
 20
39.75444275690744
 30
0.0
  0
SPLINE
  5
F5
330
1F
100
AcDbEntity
  8
Default
100
AcDbSpline
210
0.0
220
0.0
230
1.0
 70
    27
 71
     2
 72
     6
 73
     3
 74
     0
 42
0.0000000001
 43
0.0000000001
 40
0.0
 40
0.0
 40
0.0
 40
0.000000000381647
 40
0.000000000381647
 40
0.000000000381647
 10
34.40522636821551
 20
39.75444276931292
 30
0.0
 10
34.40522636840346
 20
39.75444276934587
 30
0.0
 10
34.40522636859142
 20
39.75444276937883
 30
0.0
  0
SPLINE
  5
F6
330
1F
100
AcDbEntity
  8
Default
100
AcDbSpline
210
0.0
220
0.0
230
1.0
 70
    27
 71
     2
 72
     6
 73
     3
 74
     0
 42
0.0000000001
 43
0.0000000001
 40
0.0
 40
0.0
 40
0.0
 40
0.0000000067224984
 40
0.0000000067224984
 40
0.0000000067224984
 10
34.40522636995745
 20
39.75444276956467
 30
0.0
 10
34.40522637331862
 20
39.75444276958838
 30
0.0
 10
34.40522637667979
 20
39.7544427696121
 30
0.0
  0
SPLINE
  5
F7
330
1F
100
AcDbEntity
  8
Default
100
AcDbSpline
210
0.0
220
0.0
230
1.0
 70
    27
 71
     2
 72
     6
 73
     3
 74
     0
 42
0.0000000001
 43
0.0000000001
 40
0.0
 40
0.0
 40
0.0
 40
0.0000000063878262
 40
0.0000000063878262
 40
0.0000000063878262
 10
34.40522635786626
 20
39.75444275909956
 30
0.0
 10
34.4052263600617
 20
39.75444276141928
 30
0.0
 10
34.40522636225715
 20
39.75444276373901
 30
0.0
  0
SPLINE
  5
F8
330
1F
100
AcDbEntity
  8
Default
100
AcDbSpline
210
0.0
220
0.0
230
1.0
 70
    27
 71
     2
 72
     6
 73
     3
 74
     0
 42
0.0000000001
 43
0.0000000001
 40
0.0
 40
0.0
 40
0.0
 40
0.0000000161613979
 40
0.0000000161613979
 40
0.0000000161613979
 10
34.40522639277652
 20
39.75444279569364
 30
0.0
 10
34.40522639674584
 20
39.75444280273226
 30
0.0
 10
34.40522640071516
 20
39.75444280977089
 30
0.0
  0
SPLINE
  5
F9
330
1F
100
AcDbEntity
  8
Default
100
AcDbSpline
210
0.0
220
0.0
230
1.0
 70
    27
 71
     2
 72
     6
 73
     3
 74
     0
 42
0.0000000001
 43
0.0000000001
 40
0.0
 40
0.0
 40
0.0
 40
0.0000000276573787
 40
0.0000000276573787
 40
0.0000000276573787
 10
34.40522637936738
 20
39.75444277141895
 30
0.0
 10
34.40522638605876
 20
39.75444278352094
 30
0.0
 10
34.40522639275013
 20
39.75444279562293
 30
0.0
  0
SPLINE
  5
FA
330
1F
100
AcDbEntity
  8
Default
100
AcDbSpline
210
0.0
220
0.0
230
1.0
 70
    27
 71
     2
 72
     6
 73
     3
 74
     0
 42
0.0000000001
 43
0.0000000001
 40
0.0
 40
0.0
 40
0.0
 40
0.0000000033490042
 40
0.0000000033490042
 40
0.0000000033490042
 10
34.40522637654042
 20
39.75444276962325
 30
0.0
 10
34.40522637795388
 20
39.75444277052107
 30
0.0
 10
34.40522637936733
 20
39.7544427714189
 30
0.0
  0
SPLINE
  5
FB
330
1F
100
AcDbEntity
  8
Default
100
AcDbSpline
210
0.0
220
0.0
230
1.0
 70
    27
 71
     2
 72
     6
 73
     3
 74
     0
 42
0.0000000001
 43
0.0000000001
 40
0.0
 40
0.0
 40
0.0
 40
0.000000009832142
 40
0.000000009832142
 40
0.000000009832142
 10
34.40522635279172
 20
39.75444275069171
 30
0.0
 10
34.40522635532923
 20
39.75444275490227
 30
0.0
 10
34.40522635786674
 20
39.75444275911283
 30
0.0
  0
SPLINE
  5
FC
330
1F
100
AcDbEntity
  8
Default
100
AcDbSpline
210
0.0
220
0.0
230
1.0
 70
    27
 71
     2
 72
     6
 73
     3
 74
     0
 42
0.0000000001
 43
0.0000000001
 40
0.0
 40
0.0
 40
0.0
 40
0.0000000180608892
 40
0.0000000180608892
 40
0.0000000180608892
 10
47.63518312493851
 20
64.84809082479373
 30
0.0
 10
47.6351831335008
 20
64.84809082766361
 30
0.0
 10
47.63518314206308
 20
64.84809083053351
 30
0.0
  0
SPLINE
  5
FD
330
1F
100
AcDbEntity
  8
Default
100
AcDbSpline
210
0.0
220
0.0
230
1.0
 70
    27
 71
     2
 72
     6
 73
     3
 74
     0
 42
0.0000000001
 43
0.0000000001
 40
0.0
 40
0.0
 40
0.0
 40
0.0000000549956813
 40
0.0000000549956813
 40
0.0000000549956813
 10
47.63518318101375
 20
64.84809085014916
 30
0.0
 10
47.63518320162673
 20
64.84809086834906
 30
0.0
 10
47.63518322223971
 20
64.84809088654896
 30
0.0
  0
SPLINE
  5
FE
330
1F
100
AcDbEntity
  8
Default
100
AcDbSpline
210
0.0
220
0.0
230
1.0
 70
    27
 71
     2
 72
     6
 73
     3
 74
     0
 42
0.0000000001
 43
0.0000000001
 40
0.0
 40
0.0
 40
0.0
 40
0.0000000066634391
 40
0.0000000066634391
 40
0.0000000066634391
 10
47.63518314212104
 20
64.84809083055461
 30
0.0
 10
47.63518314520849
 20
64.84809083180683
 30
0.0
 10
47.63518314829593
 20
64.84809083305905
 30
0.0
  0
SPLINE
  5
FF
330
1F
100
AcDbEntity
  8
Default
100
AcDbSpline
210
0.0
220
0.0
230
1.0
 70
    15
 71
     2
 72
     6
 73
     3
 74
     0
 42
0.0000000001
 43
0.0000000001
 40
0.0
 40
0.0
 40
0.0
 40
0.0000006977681522
 40
0.0000006977681522
 40
0.0000006977681522
 10
47.63518322228382
 20
64.84809088659391
 30
0.0
 41
1.0
 10
47.63518347880162
 20
64.84809114116385
 30
0.0
 41
0.9488673807672824
 10
47.63518353169051
 20
64.84809149866912
 30
0.0
 41
1.0
  0
SPLINE
  5
100
330
1F
100
AcDbEntity
  8
Default
100
AcDbSpline
210
0.0
220
0.0
230
1.0
 70
    27
 71
     2
 72
     6
 73
     3
 74
     0
 42
0.0000000001
 43
0.0000000001
 40
0.0
 40
0.0
 40
0.0
 40
0.0000002956245997
 40
0.0000002956245997
 40
0.0000002956245997
 10
47.63518353203758
 20
64.8480914997919
 30
0.0
 10
47.63518360280802
 20
64.84809162956101
 30
0.0
 10
47.63518367357846
 20
64.84809175933012
 30
0.0
  0
SPLINE
  5
101
330
1F
100
AcDbEntity
  8
Default
100
AcDbSpline
210
0.0
220
0.0
230
1.0
 70
    24
 71
     2
 72
     6
 73
     3
 74
     0
 42
0.0000000001
 43
0.0000000001
 40
0.0
 40
0.0
 40
0.0
 40
0.0000022420427366
 40
0.0000022420427366
 40
0.0000022420427366
 10
47.63518367391351
 20
64.84809175974446
 30
0.0
 10
47.6351843553958
 20
64.84809264984041
 30
0.0
 10
47.63518503687809
 20
64.84809353993636
 30
0.0
  0
SPLINE
  5
102
330
1F
100
AcDbEntity
  8
Default
100
AcDbSpline
210
0.0
220
0.0
230
1.0
 70
    15
 71
     2
 72
     6
 73
     3
 74
     0
 42
0.0000000001
 43
0.0000000001
 40
0.0
 40
0.0
 40
0.0
 40
0.0000001433740262
 40
0.0000001433740262
 40
0.0000001433740262
 10
47.63518299617736
 20
64.8480905641497
 30
0.0
 41
1.0
 10
47.63518294959825
 20
64.84809062602851
 30
0.0
 41
0.8920237471500205
 10
47.63518297194789
 20
64.84809070018431
 30
0.0
 41
1.0
  0
SPLINE
  5
103
330
1F
100
AcDbEntity
  8
Default
100
AcDbSpline
210
0.0
220
0.0
230
1.0
 70
    27
 71
     2
 72
     6
 73
     3
 74
     0
 42
0.0000000001
 43
0.0000000001
 40
0.0
 40
0.0
 40
0.0
 40
0.0000000028650753
 40
0.0000000028650753
 40
0.0000000028650753
 10
47.63518313366578
 20
64.84809082550312
 30
0.0
 10
47.63518313509534
 20
64.8480908255955
 30
0.0
 10
47.63518313652489
 20
64.8480908256879
 30
0.0
  0
SPLINE
  5
104
330
1F
100
AcDbEntity
  8
Default
100
AcDbSpline
210
0.0
220
0.0
230
1.0
 70
    27
 71
     2
 72
     6
 73
     3
 74
     0
 42
0.0000000001
 43
0.0000000001
 40
0.0
 40
0.0
 40
0.0
 40
0.0000000029722194
 40
0.0000000029722194
 40
0.0000000029722194
 10
47.63518312848726
 20
64.84809082511522
 30
0.0
 10
47.6351831299689
 20
64.84809082523043
 30
0.0
 10
47.63518313145054
 20
64.84809082534562
 30
0.0
  0
SPLINE
  5
105
330
1F
100
AcDbEntity
  8
Default
100
AcDbSpline
210
0.0
220
0.0
230
1.0
 70
    15
 71
     2
 72
     6
 73
     3
 74
     0
 42
0.0000000001
 43
0.0000000001
 40
0.0
 40
0.0
 40
0.0
 40
0.0000001685333376
 40
0.0000001685333376
 40
0.0000001685333376
 10
47.63518297854143
 20
64.84809075881485
 30
0.0
 41
1.0
 10
47.63518303813681
 20
64.84809082601018
 30
0.0
 41
0.9098544833249961
 10
47.63518312794741
 20
64.84809082507081
 30
0.0
 41
1.0
  0
SPLINE
  5
106
330
1F
100
AcDbEntity
  8
Default
100
AcDbSpline
210
0.0
220
0.0
230
1.0
 70
    27
 71
     2
 72
     6
 73
     3
 74
     0
 42
0.0000000001
 43
0.0000000001
 40
0.0
 40
0.0
 40
0.0
 40
0.0000000706727527
 40
0.0000000706727527
 40
0.0000000706727527
 10
47.63518297718634
 20
64.84809068783191
 30
0.0
 10
47.635182977765
 20
64.84809072316355
 30
0.0
 10
47.63518297834366
 20
64.84809075849519
 30
0.0
  0
SPLINE
  5
107
330
1F
100
AcDbEntity
  8
Default
100
AcDbSpline
210
0.0
220
0.0
230
1.0
 70
    15
 71
     2
 72
     8
 73
     5
 74
     0
 42
0.0000000001
 43
0.0000000001
 40
0.0
 40
0.0
 40
0.0
 40
0.0000001009071865
 40
0.0000001009071865
 40
0.0000002018143731
 40
0.0000002018143731
 40
0.0000002018143731
 10
47.63518334190277
 20
64.84809079041035
 30
0.0
 41
1.0
 10
47.63518339763218
 20
64.8480907851994
 30
0.0
 41
0.8584544219507765
 10
47.63518341945299
 20
64.84809073365552
 30
0.0
 41
1.0
 10
47.63518344127382
 20
64.84809068211162
 30
0.0
 41
0.8584544219507765
 10
47.63518340622566
 20
64.8480906384705
 30
0.0
 41
1.0
  0
SPLINE
  5
108
330
1F
100
AcDbEntity
  8
Default
100
AcDbSpline
210
0.0
220
0.0
230
1.0
 70
    27
 71
     2
 72
     6
 73
     3
 74
     0
 42
0.0000000001
 43
0.0000000001
 40
0.0
 40
0.0
 40
0.0
 40
0.0000001124615042
 40
0.0000001124615042
 40
0.0000001124615042
 10
47.63518323381678
 20
64.84809082157064
 30
0.0
 10
47.63518328784763
 20
64.84809080599615
 30
0.0
 10
47.63518334187848
 20
64.84809079042165
 30
0.0
  0
SPLINE
  5
109
330
1F
100
AcDbEntity
  8
Default
100
AcDbSpline
210
0.0
220
0.0
230
1.0
 70
    27
 71
     2
 72
     6
 73
     3
 74
     0
 42
0.0000000001
 43
0.0000000001
 40
0.0
 40
0.0
 40
0.0
 40
0.0000000150557025
 40
0.0000000150557025
 40
0.0000000150557025
 10
47.63518321586985
 20
64.84809082381713
 30
0.0
 10
47.63518322334243
 20
64.84809082290658
 30
0.0
 10
47.63518323081501
 20
64.84809082199602
 30
0.0
  0
SPLINE
  5
10A
330
1F
100
AcDbEntity
  8
Default
100
AcDbSpline
210
0.0
220
0.0
230
1.0
 70
    27
 71
     2
 72
     6
 73
     3
 74
     0
 42
0.0000000001
 43
0.0000000001
 40
0.0
 40
0.0
 40
0.0
 40
0.0000000029869199
 40
0.0000000029869199
 40
0.0000000029869199
 10
47.63518320991965
 20
64.84809082440756
 30
0.0
 10
47.63518321140627
 20
64.84809082426477
 30
0.0
 10
47.63518321289289
 20
64.848090824122
 30
0.0
  0
SPLINE
  5
10B
330
1F
100
AcDbEntity
  8
Default
100
AcDbSpline
210
0.0
220
0.0
230
1.0
 70
    27
 71
     2
 72
     6
 73
     3
 74
     0
 42
0.0000000001
 43
0.0000000001
 40
0.0
 40
0.0
 40
0.0
 40
0.0000000318624644
 40
0.0000000318624644
 40
0.0000000318624644
 10
47.63518299224419
 20
64.84809065893312
 30
0.0
 10
47.6351829848827
 20
64.84809067306155
 30
0.0
 10
47.6351829775212
 20
64.84809068718998
 30
0.0
  0
SPLINE
  5
10C
330
1F
100
AcDbEntity
  8
Default
100
AcDbSpline
210
0.0
220
0.0
230
1.0
 70
    27
 71
     2
 72
     6
 73
     3
 74
     0
 42
0.0000000001
 43
0.0000000001
 40
0.0
 40
0.0
 40
0.0
 40
0.0000000456318074
 40
0.0000000456318074
 40
0.0000000456318074
 10
47.63518340585988
 20
64.84809063811579
 30
0.0
 10
47.63518338947799
 20
64.84809062223502
 30
0.0
 10
47.6351833730961
 20
64.84809060635423
 30
0.0
  0
SPLINE
  5
10D
330
1F
100
AcDbEntity
  8
Default
100
AcDbSpline
210
0.0
220
0.0
230
1.0
 70
    27
 71
     2
 72
     6
 73
     3
 74
     0
 42
0.0000000001
 43
0.0000000001
 40
0.0
 40
0.0
 40
0.0
 40
0.0000000605957833
 40
0.0000000605957833
 40
0.0000000605957833
 10
47.63518303720615
 20
64.84809051873788
 30
0.0
 10
47.63518301687294
 20
64.84809054119947
 30
0.0
 10
47.63518299653973
 20
64.84809056366105
 30
0.0
  0
SPLINE
  5
10E
330
1F
100
AcDbEntity
  8
Default
100
AcDbSpline
210
0.0
220
0.0
230
1.0
 70
    27
 71
     2
 72
     6
 73
     3
 74
     0
 42
0.0000000001
 43
0.0000000001
 40
0.0
 40
0.0
 40
0.0
 40
0.0000000548713458
 40
0.0000000548713458
 40
0.0000000548713458
 10
47.63518305045843
 20
64.84809055431266
 30
0.0
 10
47.63518303070478
 20
64.84809057335235
 30
0.0
 10
47.63518301095113
 20
64.84809059239203
 30
0.0
  0
SPLINE
  5
10F
330
1F
100
AcDbEntity
  8
Default
100
AcDbSpline
210
0.0
220
0.0
230
1.0
 70
    15
 71
     2
 72
     6
 73
     3
 74
     0
 42
0.0000000001
 43
0.0000000001
 40
0.0
 40
0.0
 40
0.0
 40
0.0000004147366404
 40
0.0000004147366404
 40
0.0000004147366404
 10
47.6351834306675
 20
64.84809046914494
 30
0.0
 41
1.0
 10
47.63518321987011
 20
64.84809038233855
 30
0.0
 41
0.8697904640919343
 10
47.63518303720615
 20
64.84809051873788
 30
0.0
 41
1.0
  0
SPLINE
  5
110
330
1F
100
AcDbEntity
  8
Default
100
AcDbSpline
210
0.0
220
0.0
230
1.0
 70
    27
 71
     2
 72
     6
 73
     3
 74
     0
 42
0.0000000001
 43
0.0000000001
 40
0.0
 40
0.0
 40
0.0
 40
0.0000000379629845
 40
0.0000000379629845
 40
0.0000000379629845
 10
47.63518303720615
 20
64.84809051873788
 30
0.0
 10
47.63518304383229
 20
64.84809053652526
 30
0.0
 10
47.63518305045843
 20
64.84809055431266
 30
0.0
  0
SPLINE
  5
111
330
1F
100
AcDbEntity
  8
Default
100
AcDbSpline
210
0.0
220
0.0
230
1.0
 70
    15
 71
     2
 72
     6
 73
     3
 74
     0
 42
0.0000000001
 43
0.0000000001
 40
0.0
 40
0.0
 40
0.0
 40
0.0000003675327834
 40
0.0000003675327834
 40
0.0000003675327834
 10
47.6351834026411
 20
64.84809050362348
 30
0.0
 41
1.0
 10
47.63518321463196
 20
64.8480904461645
 30
0.0
 41
0.9049433005237255
 10
47.63518305045843
 20
64.84809055431266
 30
0.0
 41
1.0
  0
SPLINE
  5
112
330
1F
100
AcDbEntity
  8
Default
100
AcDbSpline
210
0.0
220
0.0
230
1.0
 70
    27
 71
     2
 72
     6
 73
     3
 74
     0
 42
0.0000000001
 43
0.0000000001
 40
0.0
 40
0.0
 40
0.0
 40
0.0000000413976919
 40
0.0000000413976919
 40
0.0000000413976919
 10
47.63518305045843
 20
64.84809055431266
 30
0.0
 10
47.635183064335
 20
64.84809056967114
 30
0.0
 10
47.63518307821156
 20
64.84809058502964
 30
0.0
  0
SPLINE
  5
113
330
1F
100
AcDbEntity
  8
Default
100
AcDbSpline
210
0.0
220
0.0
230
1.0
 70
    27
 71
     2
 72
     6
 73
     3
 74
     0
 42
0.0000000001
 43
0.0000000001
 40
0.0
 40
0.0
 40
0.0
 40
0.0000000120584759
 40
0.0000000120584759
 40
0.0000000120584759
 10
47.63518314298081
 20
64.84809082886464
 30
0.0
 10
47.63518313721622
 20
64.84809082709795
 30
0.0
 10
47.63518313145163
 20
64.84809082533125
 30
0.0
  0
SPLINE
  5
114
330
1F
100
AcDbEntity
  8
Default
100
AcDbSpline
210
0.0
220
0.0
230
1.0
 70
    27
 71
     2
 72
     6
 73
     3
 74
     0
 42
0.0000000001
 43
0.0000000001
 40
0.0
 40
0.0
 40
0.0
 40
0.0000000019091346
 40
0.0000000019091346
 40
0.0000000019091346
 10
47.63518314298081
 20
64.84809082886464
 30
0.0
 10
47.63518314252113
 20
64.84809082970123
 30
0.0
 10
47.63518314206144
 20
64.84809083053783
 30
0.0
  0
SPLINE
  5
115
330
1F
100
AcDbEntity
  8
Default
100
AcDbSpline
210
0.0
220
0.0
230
1.0
 70
    27
 71
     2
 72
     6
 73
     3
 74
     0
 42
0.0000000001
 43
0.0000000001
 40
0.0
 40
0.0
 40
0.0
 40
0.0000000028909951
 40
0.0000000028909951
 40
0.0000000028909951
 10
47.63518314363487
 20
64.8480908260486
 30
0.0
 10
47.63518314330784
 20
64.84809082745662
 30
0.0
 10
47.63518314298081
 20
64.84809082886464
 30
0.0
  0
SPLINE
  5
116
330
1F
100
AcDbEntity
  8
Default
100
AcDbSpline
210
0.0
220
0.0
230
1.0
 70
    27
 71
     2
 72
     6
 73
     3
 74
     0
 42
0.0000000001
 43
0.0000000001
 40
0.0
 40
0.0
 40
0.0
 40
0.000000069366819
 40
0.000000069366819
 40
0.000000069366819
 10
47.63518314298081
 20
64.84809082886464
 30
0.0
 10
47.63518317296391
 20
64.84809084629887
 30
0.0
 10
47.63518320294701
 20
64.84809086373312
 30
0.0
  0
SPLINE
  5
117
330
1F
100
AcDbEntity
  8
Default
100
AcDbSpline
210
0.0
220
0.0
230
1.0
 70
    27
 71
     2
 72
     6
 73
     3
 74
     0
 42
0.0000000001
 43
0.0000000001
 40
0.0
 40
0.0
 40
0.0
 40
0.0000000318748181
 40
0.0000000318748181
 40
0.0000000318748181
 10
47.63518320294701
 20
64.84809086373312
 30
0.0
 10
47.63518321458434
 20
64.84809087462227
 30
0.0
 10
47.63518322622168
 20
64.84809088551141
 30
0.0
  0
SPLINE
  5
118
330
1F
100
AcDbEntity
  8
Default
100
AcDbSpline
210
0.0
220
0.0
230
1.0
 70
    27
 71
     2
 72
     6
 73
     3
 74
     0
 42
0.0000000001
 43
0.0000000001
 40
0.0
 40
0.0
 40
0.0
 40
0.0000000444325285
 40
0.0000000444325285
 40
0.0000000444325285
 10
47.6351834306675
 20
64.84809046914494
 30
0.0
 10
47.6351834166543
 20
64.84809048638421
 30
0.0
 10
47.6351834026411
 20
64.84809050362348
 30
0.0
  0
SPLINE
  5
119
330
1F
100
AcDbEntity
  8
Default
100
AcDbSpline
210
0.0
220
0.0
230
1.0
 70
    15
 71
     2
 72
     6
 73
     3
 74
     0
 42
0.0000000001
 43
0.0000000001
 40
0.0
 40
0.0
 40
0.0
 40
0.0000003693536241
 40
0.0000003693536241
 40
0.0000003693536241
 10
47.63518374760296
 20
64.84809065192007
 30
0.0
 41
1.0
 10
47.63518361135468
 20
64.84809052200356
 30
0.0
 41
0.9716919074201894
 10
47.6351834306675
 20
64.84809046914494
 30
0.0
 41
1.0
  0
SPLINE
  5
11A
330
1F
100
AcDbEntity
  8
Default
100
AcDbSpline
210
0.0
220
0.0
230
1.0
 70
    27
 71
     2
 72
     6
 73
     3
 74
     0
 42
0.0000000001
 43
0.0000000001
 40
0.0
 40
0.0
 40
0.0
 40
0.0000000107499377
 40
0.0000000107499377
 40
0.0000000107499377
 10
47.63518375498308
 20
64.8480906597364
 30
0.0
 10
47.63518375129302
 20
64.84809065582823
 30
0.0
 10
47.63518374760296
 20
64.84809065192007
 30
0.0
  0
SPLINE
  5
11B
330
1F
100
AcDbEntity
  8
Default
100
AcDbSpline
210
0.0
220
0.0
230
1.0
 70
    27
 71
     2
 72
     6
 73
     3
 74
     0
 42
0.0000000001
 43
0.0000000001
 40
0.0
 40
0.0
 40
0.0
 40
0.0000001450775595
 40
0.0000001450775595
 40
0.0000001450775595
 10
47.63518385485688
 20
64.8480907649634
 30
0.0
 10
47.63518380491998
 20
64.8480907123499
 30
0.0
 10
47.63518375498308
 20
64.8480906597364
 30
0.0
  0
SPLINE
  5
11C
330
1F
100
AcDbEntity
  8
Default
100
AcDbSpline
210
0.0
220
0.0
230
1.0
 70
    15
 71
     2
 72
     6
 73
     3
 74
     0
 42
0.0000000001
 43
0.0000000001
 40
0.0
 40
0.0
 40
0.0
 40
0.000000330853941
 40
0.000000330853941
 40
0.000000330853941
 10
47.63518368055393
 20
64.84809067429157
 30
0.0
 41
1.0
 10
47.63518356736076
 20
64.84809054700513
 30
0.0
 41
0.9573214298844219
 10
47.6351834026411
 20
64.84809050362348
 30
0.0
 41
1.0
  0
SPLINE
  5
11D
330
1F
100
AcDbEntity
  8
Default
100
AcDbSpline
210
0.0
220
0.0
230
1.0
 70
    27
 71
     2
 72
     6
 73
     3
 74
     0
 42
0.0000000001
 43
0.0000000001
 40
0.0
 40
0.0
 40
0.0
 40
0.0000001374195381
 40
0.0000001374195381
 40
0.0000001374195381
 10
47.635183766358
 20
64.84809078163117
 30
0.0
 10
47.63518372345597
 20
64.84809072796136
 30
0.0
 10
47.63518368055393
 20
64.84809067429157
 30
0.0
  0
SPLINE
  5
11E
330
1F
100
AcDbEntity
  8
Default
100
AcDbSpline
210
0.0
220
0.0
230
1.0
 70
    27
 71
     2
 72
     6
 73
     3
 74
     0
 42
0.0000000001
 43
0.0000000001
 40
0.0
 40
0.0
 40
0.0
 40
0.0000000596825818
 40
0.0000000596825818
 40
0.0000000596825818
 10
47.6351834026411
 20
64.84809050362348
 30
0.0
 10
47.63518337833655
 20
64.84809052093797
 30
0.0
 10
47.635183354032
 20
64.84809053825246
 30
0.0
  0
SPLINE
  5
11F
330
1F
100
AcDbEntity
  8
Default
100
AcDbSpline
210
0.0
220
0.0
230
1.0
 70
    27
 71
     2
 72
     6
 73
     3
 74
     0
 42
0.0000000001
 43
0.0000000001
 40
0.0
 40
0.0
 40
0.0
 40
0.0000000549588403
 40
0.0000000549588403
 40
0.0000000549588403
 10
47.635183354032
 20
64.84809053825246
 30
0.0
 10
47.63518333143729
 20
64.84809055389208
 30
0.0
 10
47.63518330884258
 20
64.84809056953169
 30
0.0
  0
SPLINE
  5
120
330
1F
100
AcDbEntity
  8
Default
100
AcDbSpline
210
0.0
220
0.0
230
1.0
 70
    15
 71
     2
 72
     6
 73
     3
 74
     0
 42
0.0000000001
 43
0.0000000001
 40
0.0
 40
0.0
 40
0.0
 40
0.0000001497293773
 40
0.0000001497293773
 40
0.0000001497293773
 10
47.6351834283593
 20
64.8480906606725
 30
0.0
 41
1.0
 10
47.63518342577421
 20
64.84809057846812
 30
0.0
 41
0.870674974017403
 10
47.635183354032
 20
64.84809053825248
 30
0.0
 41
1.0
  0
SPLINE
  5
121
330
1F
100
AcDbEntity
  8
Default
100
AcDbSpline
210
0.0
220
0.0
230
1.0
 70
    27
 71
     2
 72
     6
 73
     3
 74
     0
 42
0.0000000001
 43
0.0000000001
 40
0.0
 40
0.0
 40
0.0
 40
0.0000000626336377
 40
0.0000000626336377
 40
0.0000000626336377
 10
47.63518321494632
 20
64.84809082390103
 30
0.0
 10
47.635183220584
 20
64.84809085470621
 30
0.0
 10
47.63518322622168
 20
64.84809088551141
 30
0.0
  0
SPLINE
  5
122
330
1F
100
AcDbEntity
  8
Default
100
AcDbSpline
210
0.0
220
0.0
230
1.0
 70
    27
 71
     2
 72
     6
 73
     3
 74
     0
 42
0.0000000001
 43
0.0000000001
 40
0.0
 40
0.0
 40
0.0
 40
0.000000052562603
 40
0.000000052562603
 40
0.000000052562603
 10
47.63518326685629
 20
64.84809081547364
 30
0.0
 10
47.63518327905305
 20
64.84809083875336
 30
0.0
 10
47.63518329124981
 20
64.8480908620331
 30
0.0
  0
SPLINE
  5
123
330
1F
100
AcDbEntity
  8
Default
100
AcDbSpline
210
0.0
220
0.0
230
1.0
 70
    27
 71
     2
 72
     6
 73
     3
 74
     0
 42
0.0000000001
 43
0.0000000001
 40
0.0
 40
0.0
 40
0.0
 40
0.000000010927172
 40
0.000000010927172
 40
0.000000010927172
 10
47.63518334461272
 20
64.84809078900791
 30
0.0
 10
47.63518334792613
 20
64.84809079335211
 30
0.0
 10
47.63518335123954
 20
64.84809079769632
 30
0.0
  0
SPLINE
  5
124
330
1F
100
AcDbEntity
  8
Default
100
AcDbSpline
210
0.0
220
0.0
230
1.0
 70
    27
 71
     2
 72
     6
 73
     3
 74
     0
 42
0.0000000001
 43
0.0000000001
 40
0.0
 40
0.0
 40
0.0
 40
0.0000000467565444
 40
0.0000000467565444
 40
0.0000000467565444
 10
47.63518335123954
 20
64.84809079769632
 30
0.0
 10
47.63518336506126
 20
64.84809081655112
 30
0.0
 10
47.63518337888298
 20
64.84809083540593
 30
0.0
  0
SPLINE
  5
125
330
1F
100
AcDbEntity
  8
Default
100
AcDbSpline
210
0.0
220
0.0
230
1.0
 70
    27
 71
     2
 72
     6
 73
     3
 74
     0
 42
0.0000000001
 43
0.0000000001
 40
0.0
 40
0.0
 40
0.0
 40
0.0000003589904199
 40
0.0000003589904199
 40
0.0000003589904199
 10
47.635183766358
 20
64.84809078163117
 30
0.0
 10
47.63518359735865
 20
64.84809072115183
 30
0.0
 10
47.6351834283593
 20
64.8480906606725
 30
0.0
  0
SPLINE
  5
126
330
1F
100
AcDbEntity
  8
Default
100
AcDbSpline
210
0.0
220
0.0
230
1.0
 70
    27
 71
     2
 72
     6
 73
     3
 74
     0
 42
0.0000000001
 43
0.0000000001
 40
0.0
 40
0.0
 40
0.0
 40
0.0000001153895722
 40
0.0000001153895722
 40
0.0000001153895722
 10
47.63518341714603
 20
64.84809073342306
 30
0.0
 10
47.63518346003112
 20
64.84809077201785
 30
0.0
 10
47.6351835029162
 20
64.84809081061265
 30
0.0
  0
SPLINE
  5
127
330
1F
100
AcDbEntity
  8
Default
100
AcDbSpline
210
0.0
220
0.0
230
1.0
 70
    27
 71
     2
 72
     6
 73
     3
 74
     0
 42
0.0000000001
 43
0.0000000001
 40
0.0
 40
0.0
 40
0.0
 40
0.0000000090292677
 40
0.0000000090292677
 40
0.0000000090292677
 10
47.6351834283593
 20
64.8480906606725
 30
0.0
 10
47.63518342791115
 20
64.84809066516483
 30
0.0
 10
47.635183427463
 20
64.84809066965717
 30
0.0
  0
SPLINE
  5
128
330
1F
100
AcDbEntity
  8
Default
100
AcDbSpline
210
0.0
220
0.0
230
1.0
 70
     8
 71
     3
 72
     9
 73
     5
 74
     0
 42
0.0000000001
 43
0.0000000001
 40
0.0
 40
0.0
 40
0.0
 40
0.0
 40
0.0026623167133318
 40
0.0049292168974535
 40
0.0049292168974535
 40
0.0049292168974535
 40
0.0049292168974535
 10
47.63512759198365
 20
64.84804392529142
 30
0.0
 10
47.63426504421953
 20
64.84732138131939
 30
0.0
 10
47.63876483367152
 20
64.85109084189207
 30
0.0
 10
47.63571504518521
 20
64.84853592818516
 30
0.0
 10
47.63518576251546
 20
64.84809266482074
 30
0.0
  0
SPLINE
  5
129
330
1F
100
AcDbEntity
  8
Default
100
AcDbSpline
210
0.0
220
0.0
230
1.0
 70
    12
 71
     2
 72
     6
 73
     3
 74
     0
 42
0.0000000001
 43
0.0000000001
 40
0.0
 40
0.0
 40
0.0
 40
0.0000016824361692
 40
0.0000016824361692
 40
0.0000016824361692
 10
47.63518576251546
 20
64.84809266482074
 30
0.0
 41
1.0
 10
47.63518509021785
 20
64.84809215548522
 30
0.0
 41
0.9960367065633574
 10
47.6351845188019
 20
64.84809153508978
 30
0.0
 41
1.0
  0
SPLINE
  5
12A
330
1F
100
AcDbEntity
  8
Default
100
AcDbSpline
210
0.0
220
0.0
230
1.0
 70
    27
 71
     2
 72
     6
 73
     3
 74
     0
 42
0.0000000001
 43
0.0000000001
 40
0.0
 40
0.0
 40
0.0
 40
0.0000000559305874
 40
0.0000000559305874
 40
0.0000000559305874
 10
47.6351845188019
 20
64.84809153508978
 30
0.0
 10
47.63518450098089
 20
64.84809151353824
 30
0.0
 10
47.63518448315988
 20
64.84809149198668
 30
0.0
  0
SPLINE
  5
12B
330
1F
100
AcDbEntity
  8
Default
100
AcDbSpline
210
0.0
220
0.0
230
1.0
 70
    27
 71
     2
 72
     6
 73
     3
 74
     0
 42
0.0000000001
 43
0.0000000001
 40
0.0
 40
0.0
 40
0.0
 40
0.0000009608993204
 40
0.0000009608993204
 40
0.0000009608993204
 10
47.63518448315988
 20
64.84809149198668
 30
0.0
 10
47.63518416900838
 20
64.84809112847503
 30
0.0
 10
47.63518385485688
 20
64.8480907649634
 30
0.0
  0
SPLINE
  5
12C
330
1F
100
AcDbEntity
  8
Default
100
AcDbSpline
210
0.0
220
0.0
230
1.0
 70
    27
 71
     2
 72
     6
 73
     3
 74
     0
 42
0.0000000001
 43
0.0000000001
 40
0.0
 40
0.0
 40
0.0
 40
0.0000000900547954
 40
0.0000000900547954
 40
0.0000000900547954
 10
47.63518385485688
 20
64.8480907649634
 30
0.0
 10
47.63518381060744
 20
64.84809077329729
 30
0.0
 10
47.635183766358
 20
64.84809078163117
 30
0.0
  0
SPLINE
  5
12D
330
1F
100
AcDbEntity
  8
Default
100
AcDbSpline
210
0.0
220
0.0
230
1.0
 70
    27
 71
     2
 72
     6
 73
     3
 74
     0
 42
0.0000000001
 43
0.0000000001
 40
0.0
 40
0.0
 40
0.0
 40
0.000000004110967
 40
0.000000004110967
 40
0.000000004110967
 10
47.63518322622168
 20
64.84809088551141
 30
0.0
 10
47.63518322423347
 20
64.84809088603296
 30
0.0
 10
47.63518322224525
 20
64.84809088655453
 30
0.0
  0
SPLINE
  5
12E
330
1F
100
AcDbEntity
  8
Default
100
AcDbSpline
210
0.0
220
0.0
230
1.0
 70
    27
 71
     2
 72
     6
 73
     3
 74
     0
 42
0.0000000001
 43
0.0000000001
 40
0.0
 40
0.0
 40
0.0
 40
0.0000000436934595
 40
0.0000000436934595
 40
0.0000000436934595
 10
47.63518355436883
 20
64.84809153601903
 30
0.0
 10
47.63518354303083
 20
64.84809151734473
 30
0.0
 10
47.63518353169284
 20
64.84809149867043
 30
0.0
  0
SPLINE
  5
12F
330
1F
100
AcDbEntity
  8
Default
100
AcDbSpline
210
0.0
220
0.0
230
1.0
 70
    27
 71
     2
 72
     6
 73
     3
 74
     0
 42
0.0000000001
 43
0.0000000001
 40
0.0
 40
0.0
 40
0.0
 40
0.0000002082742529
 40
0.0000002082742529
 40
0.0000002082742529
 10
47.63518355436883
 20
64.84809153601903
 30
0.0
 10
47.63518360393635
 20
64.84809162760288
 30
0.0
 10
47.63518365350388
 20
64.84809171918673
 30
0.0
  0
SPLINE
  5
130
330
1F
100
AcDbEntity
  8
Default
100
AcDbSpline
210
0.0
220
0.0
230
1.0
 70
    27
 71
     2
 72
     6
 73
     3
 74
     0
 42
0.0000000001
 43
0.0000000001
 40
0.0
 40
0.0
 40
0.0
 40
0.0000000454036011
 40
0.0000000454036011
 40
0.0000000454036011
 10
47.63518365350388
 20
64.84809171918673
 30
0.0
 10
47.63518366370864
 20
64.84809173946564
 30
0.0
 10
47.63518367391341
 20
64.84809175974456
 30
0.0
  0
SPLINE
  5
131
330
1F
100
AcDbEntity
  8
Default
100
AcDbSpline
210
0.0
220
0.0
230
1.0
 70
    24
 71
     2
 72
     6
 73
     3
 74
     0
 42
0.0000000001
 43
0.0000000001
 40
0.0
 40
0.0
 40
0.0
 40
0.0000165154282889
 40
0.0000165154282889
 40
0.0000165154282889
 10
47.63517170459645
 20
64.84807571385119
 30
0.0
 10
47.63517666466472
 20
64.84808231593917
 30
0.0
 10
47.63518162473299
 20
64.84808891802714
 30
0.0
  0
SPLINE
  5
132
330
1F
100
AcDbEntity
  8
Default
100
AcDbSpline
210
0.0
220
0.0
230
1.0
 70
    27
 71
     2
 72
     6
 73
     3
 74
     0
 42
0.0000000001
 43
0.0000000001
 40
0.0
 40
0.0
 40
0.0
 40
0.0000003302508124
 40
0.0000003302508124
 40
0.0000003302508124
 10
47.63518485806738
 20
64.84809326228122
 30
0.0
 10
47.63518494747299
 20
64.8480934011086
 30
0.0
 10
47.63518503687859
 20
64.84809353993596
 30
0.0
  0
SPLINE
  5
133
330
1F
100
AcDbEntity
  8
Default
100
AcDbSpline
210
0.0
220
0.0
230
1.0
 70
    15
 71
     2
 72
     8
 73
     5
 74
     0
 42
0.0000000001
 43
0.0000000001
 40
0.0
 40
0.0
 40
0.0
 40
0.0000001310181924
 40
0.0000001310181924
 40
0.0000002620363847
 40
0.0000002620363847
 40
0.0000002620363847
 10
47.63518152861804
 20
64.84808876703956
 30
0.0
 41
1.0
 10
47.63518160078932
 20
64.84808873216454
 30
0.0
 41
0.7471533818915604
 10
47.63518164383319
 20
64.84808879978245
 30
0.0
 41
1.0
 10
47.63518168687705
 20
64.84808886740034
 30
0.0
 41
0.7471533818915604
 10
47.63518162473299
 20
64.84808891802714
 30
0.0
 41
1.0
  0
SPLINE
  5
134
330
1F
100
AcDbEntity
  8
Default
100
AcDbSpline
210
0.0
220
0.0
230
1.0
 70
    27
 71
     2
 72
     6
 73
     3
 74
     0
 42
0.0000000001
 43
0.0000000001
 40
0.0
 40
0.0
 40
0.0
 40
0.0000004701792944
 40
0.0000004701792944
 40
0.0000004701792944
 10
47.63518162473299
 20
64.84808891802714
 30
0.0
 10
47.63518176009077
 20
64.84808911023904
 30
0.0
 10
47.63518189544856
 20
64.84808930245093
 30
0.0
  0
SPLINE
  5
135
330
1F
100
AcDbEntity
  8
Default
100
AcDbSpline
210
0.0
220
0.0
230
1.0
 70
     8
 71
     3
 72
     9
 73
     5
 74
     0
 42
0.0000000001
 43
0.0000000001
 40
0.0
 40
0.0
 40
0.0
 40
0.0
 40
0.0003360584697344
 40
0.0075017635842097
 40
0.0075017635842097
 40
0.0075017635842097
 40
0.0075017635842097
 10
47.6351512567452
 20
64.84806129687524
 30
0.0
 10
47.63475194653493
 20
64.84769660493605
 30
0.0
 10
47.63930884174857
 20
64.85185552194594
 30
0.0
 10
47.63777264819408
 20
64.8504627644559
 30
0.0
 10
47.635183766358
 20
64.84809078163117
 30
0.0
  0
SPLINE
  5
136
330
1F
100
AcDbEntity
  8
Default
100
AcDbSpline
210
0.0
220
0.0
230
1.0
 70
    27
 71
     2
 72
     6
 73
     3
 74
     0
 42
0.0000000001
 43
0.0000000001
 40
0.0
 40
0.0
 40
0.0
 40
0.0000002650311503
 40
0.0000002650311503
 40
0.0000002650311503
 10
47.635183766358
 20
64.84809078163117
 30
0.0
 10
47.6351836346371
 20
64.84809079612191
 30
0.0
 10
47.6351835029162
 20
64.84809081061265
 30
0.0
  0
SPLINE
  5
137
330
1F
100
AcDbEntity
  8
Default
100
AcDbSpline
210
0.0
220
0.0
230
1.0
 70
    27
 71
     2
 72
     6
 73
     3
 74
     0
 42
0.0000000001
 43
0.0000000001
 40
0.0
 40
0.0
 40
0.0
 40
0.0000001264869427
 40
0.0000001264869427
 40
0.0000001264869427
 10
47.6351835029162
 20
64.84809081061265
 30
0.0
 10
47.63518344089959
 20
64.84809082300929
 30
0.0
 10
47.63518337888298
 20
64.84809083540593
 30
0.0
  0
SPLINE
  5
138
330
1F
100
AcDbEntity
  8
Default
100
AcDbSpline
210
0.0
220
0.0
230
1.0
 70
    24
 71
     2
 72
     6
 73
     3
 74
     0
 42
0.0000000001
 43
0.0000000001
 40
0.0
 40
0.0
 40
0.0
 40
0.0000072983899289
 40
0.0000072983899289
 40
0.0000072983899289
 10
47.63518905897771
 20
64.84809827680623
 30
0.0
 10
47.63518676300249
 20
64.84809544041386
 30
0.0
 10
47.63518446702727
 20
64.84809260402149
 30
0.0
  0
SPLINE
  5
139
330
1F
100
AcDbEntity
  8
Default
100
AcDbSpline
210
0.0
220
0.0
230
1.0
 70
    24
 71
     2
 72
     6
 73
     3
 74
     0
 42
0.0000000001
 43
0.0000000001
 40
0.0
 40
0.0
 40
0.0
 40
0.0000019575785716
 40
0.0000019575785716
 40
0.0000019575785716
 10
47.63518365350388
 20
64.84809171918673
 30
0.0
 10
47.63518425578563
 20
64.84809249073398
 30
0.0
 10
47.63518485806738
 20
64.84809326228122
 30
0.0
  0
SPLINE
  5
13A
330
1F
100
AcDbEntity
  8
Default
100
AcDbSpline
210
0.0
220
0.0
230
1.0
 70
    27
 71
     2
 72
     6
 73
     3
 74
     0
 42
0.0000000001
 43
0.0000000001
 40
0.0
 40
0.0
 40
0.0
 40
0.0000001346127909
 40
0.0000001346127909
 40
0.0000001346127909
 10
47.63518360592828
 20
64.84809159326149
 30
0.0
 10
47.63518362971608
 20
64.84809165622411
 30
0.0
 10
47.63518365350388
 20
64.84809171918673
 30
0.0
  0
SPLINE
  5
13B
330
1F
100
AcDbEntity
  8
Default
100
AcDbSpline
210
0.0
220
0.0
230
1.0
 70
    27
 71
     2
 72
     6
 73
     3
 74
     0
 42
0.0000000001
 43
0.0000000001
 40
0.0
 40
0.0
 40
0.0
 40
0.0000003690216964
 40
0.0000003690216964
 40
0.0000003690216964
 10
47.63518465474831
 20
64.84809292172862
 30
0.0
 10
47.63518456088779
 20
64.84809276287505
 30
0.0
 10
47.63518446702727
 20
64.84809260402149
 30
0.0
  0
SPLINE
  5
13C
330
1F
100
AcDbEntity
  8
Default
100
AcDbSpline
210
0.0
220
0.0
230
1.0
 70
    27
 71
     2
 72
     6
 73
     3
 74
     0
 42
0.0000000001
 43
0.0000000001
 40
0.0
 40
0.0
 40
0.0
 40
0.0000003966291994
 40
0.0000003966291994
 40
0.0000003966291994
 10
47.63518485806738
 20
64.84809326228122
 30
0.0
 10
47.63518475640785
 20
64.84809309200492
 30
0.0
 10
47.63518465474831
 20
64.84809292172862
 30
0.0
  0
SPLINE
  5
13D
330
1F
100
AcDbEntity
  8
Default
100
AcDbSpline
210
0.0
220
0.0
230
1.0
 70
    24
 71
     2
 72
     6
 73
     3
 74
     0
 42
0.0000000001
 43
0.0000000001
 40
0.0
 40
0.0
 40
0.0
 40
0.0000013278280155
 40
0.0000013278280155
 40
0.0000013278280155
 10
47.63518360592828
 20
64.84809159326149
 30
0.0
 10
47.63518403647777
 20
64.84809209864149
 30
0.0
 10
47.63518446702727
 20
64.84809260402149
 30
0.0
  0
SPLINE
  5
13E
330
1F
100
AcDbEntity
  8
Default
100
AcDbSpline
210
0.0
220
0.0
230
1.0
 70
    27
 71
     2
 72
     6
 73
     3
 74
     0
 42
0.0000000001
 43
0.0000000001
 40
0.0
 40
0.0
 40
0.0
 40
0.0000000770394473
 40
0.0000000770394473
 40
0.0000000770394473
 10
47.63518355436883
 20
64.84809153601903
 30
0.0
 10
47.63518358014856
 20
64.84809156464026
 30
0.0
 10
47.63518360592828
 20
64.84809159326149
 30
0.0
  0
SPLINE
  5
13F
330
1F
100
AcDbEntity
  8
Default
100
AcDbSpline
210
0.0
220
0.0
230
1.0
 70
    15
 71
     2
 72
     6
 73
     3
 74
     0
 42
0.0000000001
 43
0.0000000001
 40
0.0
 40
0.0
 40
0.0
 40
0.0000007438363181
 40
0.0000007438363181
 40
0.0000007438363181
 10
47.63518322622168
 20
64.84809088551141
 30
0.0
 41
1.0
 10
47.63518350968417
 20
64.84809115053974
 30
0.0
 41
0.9387557477064578
 10
47.63518355436883
 20
64.84809153601903
 30
0.0
 41
1.0
  0
SPLINE
  5
140
330
1F
100
AcDbEntity
  8
Default
100
AcDbSpline
210
0.0
220
0.0
230
1.0
 70
    27
 71
     2
 72
     6
 73
     3
 74
     0
 42
0.0000000001
 43
0.0000000001
 40
0.0
 40
0.0
 40
0.0
 40
0.0000000691367405
 40
0.0000000691367405
 40
0.0000000691367405
 10
47.63518329124981
 20
64.8480908620331
 30
0.0
 10
47.63518325873574
 20
64.84809087377226
 30
0.0
 10
47.63518322622168
 20
64.84809088551141
 30
0.0
  0
SPLINE
  5
141
330
1F
100
AcDbEntity
  8
Default
100
AcDbSpline
210
0.0
220
0.0
230
1.0
 70
    27
 71
     2
 72
     6
 73
     3
 74
     0
 42
0.0000000001
 43
0.0000000001
 40
0.0
 40
0.0
 40
0.0
 40
0.0000000915891846
 40
0.0000000915891846
 40
0.0000000915891846
 10
47.63518337888298
 20
64.84809083540593
 30
0.0
 10
47.63518333506639
 20
64.84809084871952
 30
0.0
 10
47.63518329124981
 20
64.8480908620331
 30
0.0
  0
SPLINE
  5
142
330
1F
100
AcDbEntity
  8
Default
100
AcDbSpline
210
0.0
220
0.0
230
1.0
 70
    12
 71
     2
 72
     6
 73
     3
 74
     0
 42
0.0000000001
 43
0.0000000001
 40
0.0
 40
0.0
 40
0.0
 40
0.000002077305657
 40
0.000002077305657
 40
0.000002077305657
 10
47.63518446702727
 20
64.84809260402149
 30
0.0
 41
1.0
 10
47.63518396430688
 20
64.84809169427196
 30
0.0
 41
0.9989084602833137
 10
47.63518337888298
 20
64.84809083540593
 30
0.0
 41
1.0
  0
SPLINE
  5
143
330
1F
100
AcDbEntity
  8
Default
100
AcDbSpline
210
0.0
220
0.0
230
1.0
 70
    11
 71
     3
 72
     8
 73
     4
 74
     0
 42
0.0000000001
 43
0.0000000001
 40
0.0
 40
0.0
 40
0.0
 40
0.0
 40
0.0000007392687721
 40
0.0000007392687721
 40
0.0000007392687721
 40
0.0000007392687721
 10
47.6351815569166
 20
64.84808909826484
 30
0.0
 10
47.63518188806992
 20
64.84808936751243
 30
0.0
 10
47.63518153111085
 20
64.84808887822366
 30
0.0
 10
47.63518142346573
 20
64.84808876406089
 30
0.0
  0
SPLINE
  5
144
330
1F
100
AcDbEntity
  8
Default
100
AcDbSpline
210
0.0
220
0.0
230
1.0
 70
    24
 71
     2
 72
     6
 73
     3
 74
     0
 42
0.0000000001
 43
0.0000000001
 40
0.0
 40
0.0
 40
0.0
 40
0.0000110889526099
 40
0.0000110889526099
 40
0.0000110889526099
 10
47.63518142346572
 20
64.84808876406089
 30
0.0
 10
47.63517798408796
 20
64.84808441527966
 30
0.0
 10
47.6351745447102
 20
64.84808006649844
 30
0.0
  0
SPLINE
  5
145
330
1F
100
AcDbEntity
  8
Default
100
AcDbSpline
210
0.0
220
0.0
230
1.0
 70
    24
 71
     2
 72
     6
 73
     3
 74
     0
 42
0.0000000001
 43
0.0000000001
 40
0.0
 40
0.0
 40
0.0
 40
0.0000027241939214
 40
0.0000027241939214
 40
0.0000027241939214
 10
47.63517947731682
 20
64.84808733857814
 30
0.0
 10
47.63518051711671
 20
64.84808821842148
 30
0.0
 10
47.6351815569166
 20
64.84808909826484
 30
0.0
  0
SPLINE
  5
146
330
1F
100
AcDbEntity
  8
Default
100
AcDbSpline
210
0.0
220
0.0
230
1.0
 70
    27
 71
     2
 72
     6
 73
     3
 74
     0
 42
0.0000000001
 43
0.0000000001
 40
0.0
 40
0.0
 40
0.0
 40
0.00000003691215
 40
0.00000003691215
 40
0.00000003691215
 10
47.63518314829546
 20
64.84809083306016
 30
0.0
 10
47.63518316465407
 20
64.84809084160548
 30
0.0
 10
47.63518318101269
 20
64.8480908501508
 30
0.0
  0
SPLINE
  5
147
330
1F
100
AcDbEntity
  8
Default
100
AcDbSpline
210
0.0
220
0.0
230
1.0
 70
    27
 71
     2
 72
     6
 73
     3
 74
     0
 42
0.0000000001
 43
0.0000000001
 40
0.0
 40
0.0
 40
0.0
 40
0.0000000278010996
 40
0.0000000278010996
 40
0.0000000278010996
 10
47.63518299653973
 20
64.84809056366105
 30
0.0
 10
47.63518300193931
 20
64.84809057647001
 30
0.0
 10
47.63518300733889
 20
64.848090589279
 30
0.0
  0
SPLINE
  5
148
330
1F
100
AcDbEntity
  8
Default
100
AcDbSpline
210
0.0
220
0.0
230
1.0
 70
    27
 71
     2
 72
     6
 73
     3
 74
     0
 42
0.0000000001
 43
0.0000000001
 40
0.0
 40
0.0
 40
0.0
 40
0.0000000047685694
 40
0.0000000047685694
 40
0.0000000047685694
 10
47.63518300733889
 20
64.848090589279
 30
0.0
 10
47.63518300914501
 20
64.84809059083551
 30
0.0
 10
47.63518301095113
 20
64.84809059239203
 30
0.0
  0
SPLINE
  5
149
330
1F
100
AcDbEntity
  8
Default
100
AcDbSpline
210
0.0
220
0.0
230
1.0
 70
    27
 71
     2
 72
     6
 73
     3
 74
     0
 42
0.0000000001
 43
0.0000000001
 40
0.0
 40
0.0
 40
0.0
 40
0.000000031031426
 40
0.000000031031426
 40
0.000000031031426
 10
47.63518301095113
 20
64.84809059239203
 30
0.0
 10
47.63518302412195
 20
64.84809060059366
 30
0.0
 10
47.63518303729277
 20
64.8480906087953
 30
0.0
  0
SPLINE
  5
14A
330
1F
100
AcDbEntity
  8
Default
100
AcDbSpline
210
0.0
220
0.0
230
1.0
 70
    27
 71
     2
 72
     6
 73
     3
 74
     0
 42
0.0000000001
 43
0.0000000001
 40
0.0
 40
0.0
 40
0.0
 40
0.0000000998889983
 40
0.0000000998889983
 40
0.0000000998889983
 10
47.63518300733889
 20
64.848090589279
 30
0.0
 10
47.63518299304387
 20
64.84809063713405
 30
0.0
 10
47.63518297874885
 20
64.84809068498909
 30
0.0
  0
SPLINE
  5
14B
330
1F
100
AcDbEntity
  8
Default
100
AcDbSpline
210
0.0
220
0.0
230
1.0
 70
    27
 71
     2
 72
     6
 73
     3
 74
     0
 42
0.0000000001
 43
0.0000000001
 40
0.0
 40
0.0
 40
0.0
 40
0.0000000294948288
 40
0.0000000294948288
 40
0.0000000294948288
 10
47.63518315961085
 20
64.84809078343027
 30
0.0
 10
47.63518317430149
 20
64.84809078472313
 30
0.0
 10
47.63518318899212
 20
64.84809078601599
 30
0.0
  0
SPLINE
  5
14C
330
1F
100
AcDbEntity
  8
Default
100
AcDbSpline
210
0.0
220
0.0
230
1.0
 70
    27
 71
     2
 72
     6
 73
     3
 74
     0
 42
0.0000000001
 43
0.0000000001
 40
0.0
 40
0.0
 40
0.0
 40
0.000000027730432
 40
0.000000027730432
 40
0.000000027730432
 10
47.63518318899211
 20
64.84809078601597
 30
0.0
 10
47.63518320283151
 20
64.8480907868616
 30
0.0
 10
47.63518321667092
 20
64.84809078770725
 30
0.0
  0
SPLINE
  5
14D
330
1F
100
AcDbEntity
  8
Default
100
AcDbSpline
210
0.0
220
0.0
230
1.0
 70
    27
 71
     2
 72
     6
 73
     3
 74
     0
 42
0.0000000001
 43
0.0000000001
 40
0.0
 40
0.0
 40
0.0
 40
0.0000000418417779
 40
0.0000000418417779
 40
0.0000000418417779
 10
47.63518320013888
 20
64.84809077302768
 30
0.0
 10
47.63518317987486
 20
64.84809077822896
 30
0.0
 10
47.63518315961085
 20
64.84809078343027
 30
0.0
  0
SPLINE
  5
14E
330
1F
100
AcDbEntity
  8
Default
100
AcDbSpline
210
0.0
220
0.0
230
1.0
 70
    27
 71
     2
 72
     6
 73
     3
 74
     0
 42
0.0000000001
 43
0.0000000001
 40
0.0
 40
0.0
 40
0.0
 40
0.0000000237097287
 40
0.0000000237097287
 40
0.0000000237097287
 10
47.63518317960489
 20
64.8480907961735
 30
0.0
 10
47.63518316960787
 20
64.84809078980189
 30
0.0
 10
47.63518315961085
 20
64.84809078343027
 30
0.0
  0
SPLINE
  5
14F
330
1F
100
AcDbEntity
  8
Default
100
AcDbSpline
210
0.0
220
0.0
230
1.0
 70
    27
 71
     2
 72
     6
 73
     3
 74
     0
 42
0.0000000001
 43
0.0000000001
 40
0.0
 40
0.0
 40
0.0
 40
0.0000001795610088
 40
0.0000001795610088
 40
0.0000001795610088
 10
47.63518315961085
 20
64.84809078343027
 30
0.0
 10
47.63518307055948
 20
64.84809077201136
 30
0.0
 10
47.6351829815081
 20
64.84809076059246
 30
0.0
  0
SPLINE
  5
150
330
1F
100
AcDbEntity
  8
Default
100
AcDbSpline
210
0.0
220
0.0
230
1.0
 70
    15
 71
     2
 72
     6
 73
     3
 74
     0
 42
0.0000000001
 43
0.0000000001
 40
0.0
 40
0.0
 40
0.0
 40
0.0000001846209816
 40
0.0000001846209816
 40
0.0000001846209816
 10
47.63518314796227
 20
64.8480908262138
 30
0.0
 41
1.0
 10
47.63518304959327
 20
64.8480908318119
 30
0.0
 41
0.9079749162034079
 10
47.6351829815081
 20
64.84809076059246
 30
0.0
 41
1.0
  0
SPLINE
  5
151
330
1F
100
AcDbEntity
  8
Default
100
AcDbSpline
210
0.0
220
0.0
230
1.0
 70
    15
 71
     2
 72
     8
 73
     5
 74
     0
 42
0.0000000001
 43
0.0000000001
 40
0.0
 40
0.0
 40
0.0
 40
0.0000002256664537
 40
0.0000002256664537
 40
0.0000004513329074
 40
0.0000004513329074
 40
0.0000004513329074
 10
47.6351829815081
 20
64.84809076059246
 30
0.0
 41
1.0
 10
47.63518299803382
 20
64.84809063773397
 30
0.0
 41
0.8705900445734804
 10
47.63518311180864
 20
64.84809058851413
 30
0.0
 41
1.0
 10
47.63518322558347
 20
64.84809053929428
 30
0.0
 41
0.8705900445734804
 10
47.63518332644018
 20
64.84809061137223
 30
0.0
 41
1.0
  0
SPLINE
  5
152
330
1F
100
AcDbEntity
  8
Default
100
AcDbSpline
210
0.0
220
0.0
230
1.0
 70
    27
 71
     2
 72
     6
 73
     3
 74
     0
 42
0.0000000001
 43
0.0000000001
 40
0.0
 40
0.0
 40
0.0
 40
0.000000003796357
 40
0.000000003796357
 40
0.000000003796357
 10
47.63518297834364
 20
64.84809075849519
 30
0.0
 10
47.63518297992587
 20
64.84809075954382
 30
0.0
 10
47.6351829815081
 20
64.84809076059246
 30
0.0
  0
SPLINE
  5
153
330
1F
100
AcDbEntity
  8
Default
100
AcDbSpline
210
0.0
220
0.0
230
1.0
 70
    27
 71
     2
 72
     6
 73
     3
 74
     0
 42
0.0000000001
 43
0.0000000001
 40
0.0
 40
0.0
 40
0.0
 40
0.0000000144552935
 40
0.0000000144552935
 40
0.0000000144552935
 10
47.63518332644018
 20
64.84809061137221
 30
0.0
 10
47.63518332769727
 20
64.84809060425474
 30
0.0
 10
47.63518332895436
 20
64.84809059713724
 30
0.0
  0
SPLINE
  5
154
330
1F
100
AcDbEntity
  8
Default
100
AcDbSpline
210
0.0
220
0.0
230
1.0
 70
    15
 71
     2
 72
     8
 73
     5
 74
     0
 42
0.0000000001
 43
0.0000000001
 40
0.0
 40
0.0
 40
0.0
 40
0.0000000153995155
 40
0.0000000153995155
 40
0.0000000307990309
 40
0.0000000307990309
 40
0.0000000307990309
 10
47.63518320013889
 20
64.84809077302769
 30
0.0
 41
1.0
 10
47.63518320750624
 20
64.84809076757631
 30
0.0
 41
0.7765827171639976
 10
47.63518321435939
 20
64.84809077366154
 30
0.0
 41
1.0
 10
47.63518322121252
 20
64.84809077974676
 30
0.0
 41
0.7765827171639976
 10
47.63518321667087
 20
64.8480907877072
 30
0.0
 41
1.0
  0
SPLINE
  5
155
330
1F
100
AcDbEntity
  8
Default
100
AcDbSpline
210
0.0
220
0.0
230
1.0
 70
    27
 71
     2
 72
     6
 73
     3
 74
     0
 42
0.0000000001
 43
0.0000000001
 40
0.0
 40
0.0
 40
0.0
 40
0.0000002051450924
 40
0.0000002051450924
 40
0.0000002051450924
 10
47.63518332644018
 20
64.84809061137221
 30
0.0
 10
47.63518326328953
 20
64.84809069219995
 30
0.0
 10
47.63518320013889
 20
64.84809077302769
 30
0.0
  0
SPLINE
  5
156
330
1F
100
AcDbEntity
  8
Default
100
AcDbSpline
210
0.0
220
0.0
230
1.0
 70
    15
 71
     2
 72
    12
 73
     9
 74
     0
 42
0.0000000001
 43
0.0000000001
 40
0.0
 40
0.0
 40
0.0
 40
0.0000000712439595
 40
0.0000000712439595
 40
0.000000142487919
 40
0.000000142487919
 40
0.0000002137318785
 40
0.0000002137318785
 40
0.000000284975838
 40
0.000000284975838
 40
0.000000284975838
 10
47.63518334130645
 20
64.84809079056903
 30
0.0
 41
1.0
 10
47.63518337882789
 20
64.84809078798084
 30
0.0
 41
0.9225440334964967
 10
47.63518340333169
 20
64.84809075944804
 30
0.0
 41
1.0
 10
47.6351834278355
 20
64.84809073091525
 30
0.0
 41
0.9225440334964967
 10
47.63518342472599
 20
64.84809069343342
 30
0.0
 41
1.0
 10
47.63518342161646
 20
64.84809065595161
 30
0.0
 41
0.9225440334964967
 10
47.63518339274581
 20
64.84809063184677
 30
0.0
 41
1.0
 10
47.63518336387518
 20
64.84809060774197
 30
0.0
 41
0.9225440334964967
 10
47.63518332644018
 20
64.84809061137219
 30
0.0
 41
1.0
  0
SPLINE
  5
157
330
1F
100
AcDbEntity
  8
Default
100
AcDbSpline
210
0.0
220
0.0
230
1.0
 70
    27
 71
     2
 72
     6
 73
     3
 74
     0
 42
0.0000000001
 43
0.0000000001
 40
0.0
 40
0.0
 40
0.0
 40
0.000000043631128
 40
0.000000043631128
 40
0.000000043631128
 10
47.63518317960489
 20
64.8480907961735
 30
0.0
 10
47.63518316378358
 20
64.84809081119366
 30
0.0
 10
47.63518314796227
 20
64.8480908262138
 30
0.0
  0
SPLINE
  5
158
330
1F
100
AcDbEntity
  8
Default
100
AcDbSpline
210
0.0
220
0.0
230
1.0
 70
    27
 71
     2
 72
     6
 73
     3
 74
     0
 42
0.0000000001
 43
0.0000000001
 40
0.0
 40
0.0
 40
0.0
 40
0.0000000380206278
 40
0.0000000380206278
 40
0.0000000380206278
 10
47.63518321667092
 20
64.84809078770724
 30
0.0
 10
47.6351831981379
 20
64.84809079194036
 30
0.0
 10
47.63518317960489
 20
64.8480907961735
 30
0.0
  0
SPLINE
  5
159
330
1F
100
AcDbEntity
  8
Default
100
AcDbSpline
210
0.0
220
0.0
230
1.0
 70
    27
 71
     2
 72
     6
 73
     3
 74
     0
 42
0.0000000001
 43
0.0000000001
 40
0.0
 40
0.0
 40
0.0
 40
0.0000001246683849
 40
0.0000001246683849
 40
0.0000001246683849
 10
47.63518334130645
 20
64.84809079056903
 30
0.0
 10
47.63518327898868
 20
64.84809078913813
 30
0.0
 10
47.63518321667092
 20
64.84809078770724
 30
0.0
  0
SPLINE
  5
15A
330
1F
100
AcDbEntity
  8
Default
100
AcDbSpline
210
0.0
220
0.0
230
1.0
 70
    27
 71
     2
 72
     6
 73
     3
 74
     0
 42
0.0000000001
 43
0.0000000001
 40
0.0
 40
0.0
 40
0.0
 40
0.0000001966024443
 40
0.0000001966024443
 40
0.0000001966024443
 10
47.63518334130645
 20
64.84809079056903
 30
0.0
 10
47.63518324463436
 20
64.84809080839142
 30
0.0
 10
47.63518314796227
 20
64.8480908262138
 30
0.0
  0
SPLINE
  5
15B
330
1F
100
AcDbEntity
  8
Default
100
AcDbSpline
210
0.0
220
0.0
230
1.0
 70
    27
 71
     2
 72
     6
 73
     3
 74
     0
 42
0.0000000001
 43
0.0000000001
 40
0.0
 40
0.0
 40
0.0
 40
0.0000000006170705
 40
0.0000000006170705
 40
0.0000000006170705
 10
47.63518334190277
 20
64.84809079041035
 30
0.0
 10
47.63518334160461
 20
64.84809079048969
 30
0.0
 10
47.63518334130645
 20
64.84809079056905
 30
0.0
  0
SPLINE
  5
15C
330
1F
100
AcDbEntity
  8
Default
100
AcDbSpline
210
0.0
220
0.0
230
1.0
 70
    27
 71
     2
 72
     6
 73
     3
 74
     0
 42
0.0000000001
 43
0.0000000001
 40
0.0
 40
0.0
 40
0.0
 40
0.0000000004627549
 40
0.0000000004627549
 40
0.0000000004627549
 10
47.63518334237428
 20
64.84809079006993
 30
0.0
 10
47.6351833421922
 20
64.8480907902127
 30
0.0
 10
47.63518334201012
 20
64.84809079035546
 30
0.0
  0
SPLINE
  5
15D
330
1F
100
AcDbEntity
  8
Default
100
AcDbSpline
210
0.0
220
0.0
230
1.0
 70
    15
 71
     2
 72
     6
 73
     3
 74
     0
 42
0.0000000001
 43
0.0000000001
 40
0.0
 40
0.0
 40
0.0
 40
0.0000003841021791
 40
0.0000003841021791
 40
0.0000003841021791
 10
47.63518297719661
 20
64.84809068783726
 30
0.0
 41
1.0
 10
47.63518312366791
 20
64.84809052843714
 30
0.0
 41
0.8390341761397414
 10
47.63518332895436
 20
64.84809059713726
 30
0.0
 41
1.0
  0
SPLINE
  5
15E
330
1F
100
AcDbEntity
  8
Default
100
AcDbSpline
210
0.0
220
0.0
230
1.0
 70
    27
 71
     2
 72
     6
 73
     3
 74
     0
 42
0.0000000001
 43
0.0000000001
 40
0.0
 40
0.0
 40
0.0
 40
0.0000000045738347
 40
0.0000000045738347
 40
0.0000000045738347
 10
47.63518297327202
 20
64.84809069647872
 30
0.0
 10
47.63518297415644
 20
64.84809069436974
 30
0.0
 10
47.63518297504087
 20
64.84809069226077
 30
0.0
  0
SPLINE
  5
15F
330
1F
100
AcDbEntity
  8
Default
100
AcDbSpline
210
0.0
220
0.0
230
1.0
 70
    27
 71
     2
 72
     6
 73
     3
 74
     0
 42
0.0000000001
 43
0.0000000001
 40
0.0
 40
0.0
 40
0.0
 40
0.0000000876304285
 40
0.0000000876304285
 40
0.0000000876304285
 10
47.63518332895436
 20
64.84809059713724
 30
0.0
 10
47.63518336759007
 20
64.84809061780254
 30
0.0
 10
47.63518340622579
 20
64.84809063846785
 30
0.0
  0
SPLINE
  5
160
330
1F
100
AcDbEntity
  8
Default
100
AcDbSpline
210
0.0
220
0.0
230
1.0
 70
    27
 71
     2
 72
     6
 73
     3
 74
     0
 42
0.0000000001
 43
0.0000000001
 40
0.0
 40
0.0
 40
0.0
 40
0.0000000341548081
 40
0.0000000341548081
 40
0.0000000341548081
 10
47.63518330884256
 20
64.84809056953169
 30
0.0
 10
47.63518331889846
 20
64.84809058333447
 30
0.0
 10
47.63518332895436
 20
64.84809059713724
 30
0.0
  0
SPLINE
  5
161
330
1F
100
AcDbEntity
  8
Default
100
AcDbSpline
210
0.0
220
0.0
230
1.0
 70
    12
 71
     2
 72
     6
 73
     3
 74
     0
 42
0.0000000001
 43
0.0000000001
 40
0.0
 40
0.0
 40
0.0
 40
1.583110905188138
 40
1.583110905188138
 40
1.583110905188138
 10
-10.41277801465863
 20
19.40334032497245
 30
0.0
 41
1.0
 10
-10.76221052831808
 20
18.69239154593856
 30
0.0
 41
0.9988153325166107
 10
-11.04087862523597
 20
17.95084226249726
 30
0.0
 41
1.0
  0
SPLINE
  5
162
330
1F
100
AcDbEntity
  8
Default
100
AcDbSpline
210
0.0
220
0.0
230
1.0
 70
     8
 71
     3
 72
    12
 73
     8
 74
     0
 42
0.0000000001
 43
0.0000000001
 40
0.0
 40
0.0
 40
0.0
 40
0.0
 40
0.4529530672337769
 40
0.8989806355331963
 40
1.574670328680222
 40
2.014302469462591
 40
2.291222462139759
 40
2.291222462139759
 40
2.291222462139759
 40
2.291222462139759
 10
-11.04087862523597
 20
17.95084226249726
 30
0.0
 10
-11.09384621473467
 20
17.8092533966872
 30
0.0
 10
-11.19386053312597
 20
17.52728268633781
 30
0.0
 10
-11.35199695100016
 20
17.02584966916665
 30
0.0
 10
-11.47788749242265
 20
16.52148282633893
 30
0.0
 10
-11.52709756576974
 20
16.05613315027437
 30
0.0
 10
-11.45119995933915
 20
15.82052868857892
 30
0.0
 10
-11.37792791927435
 20
15.75868065497548
 30
0.0
  0
SPLINE
  5
163
330
1F
100
AcDbEntity
  8
Default
100
AcDbSpline
210
0.0
220
0.0
230
1.0
 70
     8
 71
     3
 72
    14
 73
    10
 74
     0
 42
0.0000000001
 43
0.0000000001
 40
-7.0
 40
-7.0
 40
-7.0
 40
-7.0
 40
-6.0
 40
-5.0
 40
-4.0
 40
-3.0
 40
-2.0
 40
-1.0
 40
0.0
 40
0.0
 40
0.0
 40
0.0
 10
-11.37792791927435
 20
15.75868065497548
 30
0.0
 10
-11.22588198079126
 20
15.63213286901498
 30
0.0
 10
-10.84517691873138
 20
15.5209419643977
 30
0.0
 10
-10.26737070841726
 20
15.44116210598075
 30
0.0
 10
-9.682730642033784
 20
15.41190540660264
 30
0.0
 10
-9.098288857125747
 20
15.40780287608274
 30
0.0
 10
-8.513841950257692
 20
15.42090791191894
 30
0.0
 10
-7.92944883466665
 20
15.43280295359353
 30
0.0
 10
-7.539783737372597
 20
15.43766264215116
 30
0.0
 10
-7.344951142437504
 20
15.43960801997323
 30
0.0
  0
SPLINE
  5
164
330
1F
100
AcDbEntity
  8
Default
100
AcDbSpline
210
0.0
220
0.0
230
1.0
 70
    12
 71
     2
 72
     6
 73
     3
 74
     0
 42
0.0000000001
 43
0.0000000001
 40
0.0
 40
0.0
 40
0.0
 40
1.583110905188138
 40
1.583110905188138
 40
1.583110905188138
 10
10.41277801465863
 20
19.40334032497245
 30
0.0
 41
1.0
 10
10.76221052831808
 20
18.69239154593856
 30
0.0
 41
0.9988153325166107
 10
11.04087862523597
 20
17.95084226249726
 30
0.0
 41
1.0
  0
SPLINE
  5
165
330
1F
100
AcDbEntity
  8
Default
100
AcDbSpline
210
0.0
220
0.0
230
1.0
 70
     8
 71
     3
 72
    12
 73
     8
 74
     0
 42
0.0000000001
 43
0.0000000001
 40
0.0
 40
0.0
 40
0.0
 40
0.0
 40
0.4529530672337769
 40
0.8989806355331963
 40
1.574670328680222
 40
2.014302469462591
 40
2.291222462139759
 40
2.291222462139759
 40
2.291222462139759
 40
2.291222462139759
 10
11.04087862523597
 20
17.95084226249726
 30
0.0
 10
11.09384621473467
 20
17.8092533966872
 30
0.0
 10
11.19386053312597
 20
17.52728268633781
 30
0.0
 10
11.35199695100016
 20
17.02584966916665
 30
0.0
 10
11.47788749242265
 20
16.52148282633893
 30
0.0
 10
11.52709756576974
 20
16.05613315027437
 30
0.0
 10
11.45119995933915
 20
15.82052868857892
 30
0.0
 10
11.37792791927435
 20
15.75868065497548
 30
0.0
  0
SPLINE
  5
166
330
1F
100
AcDbEntity
  8
Default
100
AcDbSpline
210
0.0
220
0.0
230
1.0
 70
     8
 71
     3
 72
    14
 73
    10
 74
     0
 42
0.0000000001
 43
0.0000000001
 40
-7.0
 40
-7.0
 40
-7.0
 40
-7.0
 40
-6.0
 40
-5.0
 40
-4.0
 40
-3.0
 40
-2.0
 40
-1.0
 40
0.0
 40
0.0
 40
0.0
 40
0.0
 10
11.37792791927435
 20
15.75868065497548
 30
0.0
 10
11.22588198079126
 20
15.63213286901498
 30
0.0
 10
10.84517691873138
 20
15.5209419643977
 30
0.0
 10
10.26737070841726
 20
15.44116210598075
 30
0.0
 10
9.682730642033784
 20
15.41190540660264
 30
0.0
 10
9.098288857125747
 20
15.40780287608274
 30
0.0
 10
8.513841950257692
 20
15.42090791191894
 30
0.0
 10
7.92944883466665
 20
15.43280295359353
 30
0.0
 10
7.539783737372597
 20
15.43766264215116
 30
0.0
 10
7.344951142437504
 20
15.43960801997323
 30
0.0
  0
SPLINE
  5
167
330
1F
100
AcDbEntity
  8
Default
100
AcDbSpline
210
0.0
220
0.0
230
1.0
 70
     8
 71
     3
 72
    14
 73
    10
 74
     0
 42
0.0000000001
 43
0.0000000001
 40
0.0
 40
0.0
 40
0.0
 40
0.0
 40
0.7751197434126851
 40
1.699404317797073
 40
5.441373487204848
 40
7.276929656206133
 40
9.1912374263063
 40
12.91240060869158
 40
14.63159141267424
 40
14.63159141267424
 40
14.63159141267424
 40
14.63159141267424
 10
-7.314767038716764
 20
15.4377186881239
 30
0.0
 10
-7.056452585090113
 20
15.44273795725418
 30
0.0
 10
-6.489984429317805
 20
15.44991321666694
 30
0.0
 10
-4.676182271147655
 20
15.43464843010135
 30
0.0
 10
-2.509898151041316
 20
15.41235633526336
 30
0.0
 10
-0.0126383240748034
 20
15.3881660715177
 30
0.0
 10
2.477703162479687
 20
15.41234373304113
 30
0.0
 10
4.928151105144414
 20
15.44291482619512
 30
0.0
 10
6.74175292663549
 20
15.45118260344658
 30
0.0
 10
7.314732379838334
 20
15.43771776272894
 30
0.0
  0
SPLINE
  5
168
330
1F
100
AcDbEntity
  8
Default
100
AcDbSpline
210
0.0
220
0.0
230
1.0
 70
    12
 71
     2
 72
    12
 73
     9
 74
     0
 42
0.0000000001
 43
0.0000000001
 40
-1.979652464604932
 40
-1.979652464604932
 40
-1.979652464604932
 40
0.0
 40
0.0
 40
4.924641608380323
 40
4.924641608380323
 40
9.849283216760647
 40
9.849283216760647
 40
11.82893568136558
 40
11.82893568136558
 40
11.82893568136558
 10
6.923633760784574
 20
40.1578708097933
 30
0.0
 41
1.0
 10
5.934109130810739
 20
40.13337833914845
 30
0.0
 41
0.9999977732910779
 10
4.923890630330106
 20
40.09709393914088
 30
0.0
 41
0.9999999999999896
 10
2.46245150261173
 20
40.02566693404239
 30
0.0
 41
0.999905916170127
 10
-0.0000206958959144
 20
40.02178517041023
 30
0.0
 41
1.000000000000237
 10
-2.462492894403558
 20
40.02566693404239
 30
0.0
 41
0.999905916170127
 10
-4.923932022121935
 20
40.09709393914087
 30
0.0
 41
0.9999999999999896
 10
-5.934150522602569
 20
40.13337833914845
 30
0.0
 41
0.9999977732910779
 10
-6.923675152576402
 20
40.1578708097933
 30
0.0
 41
1.0
  0
SPLINE
  5
169
330
1F
100
AcDbEntity
  8
Default
100
AcDbSpline
210
0.0
220
0.0
230
1.0
 70
    12
 71
     2
 72
     6
 73
     3
 74
     0
 42
0.0000000001
 43
0.0000000001
 40
0.0
 40
0.0
 40
0.0
 40
0.3785634867430925
 40
0.3785634867430925
 40
0.3785634867430925
 10
-6.923675152576402
 20
40.1578708097933
 30
0.0
 41
1.0
 10
-7.113413209992612
 20
40.16256715959673
 30
0.0
 41
0.9959393302338803
 10
-7.300928071738008
 20
40.1331641926292
 30
0.0
 41
1.0
  0
SPLINE
  5
16A
330
1F
100
AcDbEntity
  8
Default
100
AcDbSpline
210
0.0
220
0.0
230
1.0
 70
     8
 71
     3
 72
    11
 73
     7
 74
     0
 42
0.0000000001
 43
0.0000000001
 40
0.0
 40
0.0
 40
0.0
 40
0.0
 40
0.3325467378781747
 40
0.682399112458213
 40
1.339748098685043
 40
2.743097143419929
 40
2.743097143419929
 40
2.743097143419929
 40
2.743097143419929
 10
-7.300928071738008
 20
40.1331641926292
 30
0.0
 10
-7.41021284097585
 20
40.11579958090322
 30
0.0
 10
-7.631907932974697
 20
40.05789464569428
 30
0.0
 10
-8.035836681786849
 20
39.86553095547931
 30
0.0
 10
-8.646901808576809
 20
39.31654239562246
 30
0.0
 10
-8.828808196779546
 20
38.60174497072619
 30
0.0
 10
-8.77873952437084
 20
38.13769314920237
 30
0.0
  0
SPLINE
  5
16B
330
1F
100
AcDbEntity
  8
Default
100
AcDbSpline
210
0.0
220
0.0
230
1.0
 70
    12
 71
     3
 72
    28
 73
    24
 74
     0
 42
0.0000000001
 43
0.0000000001
 40
0.0
 40
0.0
 40
0.0
 40
0.0
 40
7.972644806918767
 40
7.972644806918767
 40
7.972644806918767
 40
8.389323015618313
 40
8.774887042536383
 40
9.635609129923907
 40
11.45866901066649
 40
11.45866901066649
 40
11.45866901066649
 40
12.45866901066649
 40
13.45866901066649
 40
14.45866901066649
 40
15.45866901066649
 40
16.45866901066649
 40
17.45866901066649
 40
18.45866901066649
 40
19.45866901066649
 40
20.45866901066649
 40
21.45866901066649
 40
22.45866901066649
 40
23.45866901066649
 40
23.45866901066649
 40
23.45866901066649
 40
23.45866901066649
 10
-8.77873952437084
 20
38.13769314920237
 30
0.0
 41
1.0
 10
-8.493656231439335
 20
35.495453700731
 30
0.0
 41
0.9999803213218016
 10
-8.117720400403462
 20
32.80957668143603
 30
0.0
 41
0.9999803213218016
 10
-7.759708428091139
 20
30.17622725254364
 30
0.0
 41
1.0
 10
-7.742801399043371
 20
30.03847690898821
 30
0.0
 41
1.0
 10
-7.713829933901527
 20
29.77222149863369
 30
0.0
 41
1.0
 10
-7.700131161497216
 20
29.21794921593505
 30
0.0
 41
1.0
 10
-7.780912660593623
 20
28.19512693441515
 30
0.0
 41
1.0
 10
-8.025215205266148
 20
27.32795963698648
 30
0.0
 41
1.0
 10
-8.244211938214406
 20
26.7615113887669
 30
0.0
 41
1.0
 10
-8.359738300275524
 20
26.4584600897506
 30
0.0
 41
1.0
 10
-8.600736416541954
 20
25.85624942343112
 30
0.0
 41
1.0
 10
-8.955753604807255
 20
24.95038798415227
 30
0.0
 41
1.0
 10
-9.309569388367724
 20
24.04405703402093
 30
0.0
 41
1.0
 10
-9.660791279369255
 20
23.13671558865818
 30
0.0
 41
1.0
 10
-10.00969719216663
 20
22.22848615275599
 30
0.0
 41
1.0
 10
-10.35655401664515
 20
21.31945569737699
 30
0.0
 41
1.0
 10
-10.70000274757743
 20
20.40918905119666
 30
0.0
 41
1.0
 10
-11.04519866490448
 20
19.4993762603822
 30
0.0
 41
1.0
 10
-11.37286674313303
 20
18.58372643122568
 30
0.0
 41
1.0
 10
-11.73246277104857
 20
17.67744169990333
 30
0.0
 41
1.0
 10
-11.97089805120574
 20
16.7355455981656
 30
0.0
 41
1.0
 10
-11.97263764270287
 20
16.07017883376187
 30
0.0
 41
1.0
 10
-11.84461442079466
 20
15.76853074768413
 30
0.0
 41
1.0
  0
SPLINE
  5
16C
330
1F
100
AcDbEntity
  8
Default
100
AcDbSpline
210
0.0
220
0.0
230
1.0
 70
     8
 71
     3
 72
    18
 73
    14
 74
     0
 42
0.0000000001
 43
0.0000000001
 40
0.0
 40
0.0
 40
0.0
 40
0.0
 40
1.0
 40
2.0
 40
3.0
 40
4.0
 40
5.0
 40
6.0
 40
7.0
 40
8.0
 40
9.0
 40
10.0
 40
11.0
 40
11.0
 40
11.0
 40
11.0
 10
-11.84461442079466
 20
15.76853074768413
 30
0.0
 10
-11.67021377752894
 20
15.42965104941648
 30
0.0
 10
-10.96681776878795
 20
15.11414048956135
 30
0.0
 10
-9.880127326827745
 20
14.99095300302088
 30
0.0
 10
-8.780176980807859
 20
14.99090268688254
 30
0.0
 10
-7.68317170238778
 20
14.99666432034267
 30
0.0
 10
-6.585374508111108
 20
14.99052303649476
 30
0.0
 10
-5.487839905903898
 20
14.97965238474545
 30
0.0
 10
-4.390288092325658
 20
14.96513729716611
 30
0.0
 10
-3.29276616839454
 20
14.94969315121302
 30
0.0
 10
-2.195220754752082
 20
14.93559800049966
 30
0.0
 10
-1.097632734437661
 20
14.9252474919175
 30
0.0
 10
-0.3658782512492879
 20
14.92241988002462
 30
0.0
 10
0.000000000000002
 20
14.92241994332391
 30
0.0
  0
SPLINE
  5
16D
330
1F
100
AcDbEntity
  8
Default
100
AcDbSpline
210
0.0
220
0.0
230
1.0
 70
     8
 71
     3
 72
    18
 73
    14
 74
     0
 42
0.0000000001
 43
0.0000000001
 40
-11.0
 40
-11.0
 40
-11.0
 40
-11.0
 40
-10.0
 40
-9.0
 40
-8.0
 40
-7.0
 40
-6.0
 40
-5.0
 40
-4.0
 40
-3.0
 40
-2.0
 40
-1.0
 40
0.0
 40
0.0
 40
0.0
 40
0.0
 10
0.000000000000002
 20
14.92241994332391
 30
0.0
 10
0.365878251249292
 20
14.92241988002462
 30
0.0
 10
1.097632734437665
 20
14.9252474919175
 30
0.0
 10
2.195220754752086
 20
14.93559800049965
 30
0.0
 10
3.292766168394544
 20
14.949693151213
 30
0.0
 10
4.390288092325663
 20
14.96513729716608
 30
0.0
 10
5.487839905903902
 20
14.97965238474542
 30
0.0
 10
6.585374508111112
 20
14.99052303649472
 30
0.0
 10
7.683171702387784
 20
14.99666432034263
 30
0.0
 10
8.780176980807864
 20
14.99090268688249
 30
0.0
 10
9.88012732682775
 20
14.99095300302083
 30
0.0
 10
10.96681776878795
 20
15.11414048956129
 30
0.0
 10
11.67021377752894
 20
15.42965104941641
 30
0.0
 10
11.84459372489875
 20
15.7685307476841
 30
0.0
  0
SPLINE
  5
16E
330
1F
100
AcDbEntity
  8
Default
100
AcDbSpline
210
0.0
220
0.0
230
1.0
 70
    12
 71
     3
 72
    28
 73
    24
 74
     0
 42
0.0000000001
 43
0.0000000001
 40
-23.45866901066649
 40
-23.45866901066649
 40
-23.45866901066649
 40
-23.45866901066649
 40
-22.45866901066649
 40
-21.45866901066649
 40
-20.45866901066649
 40
-19.45866901066649
 40
-18.45866901066649
 40
-17.45866901066649
 40
-16.45866901066649
 40
-15.45866901066649
 40
-14.45866901066649
 40
-13.45866901066649
 40
-12.45866901066649
 40
-11.45866901066649
 40
-11.45866901066649
 40
-11.45866901066649
 40
-9.635609129923907
 40
-8.774887042536383
 40
-8.389323015618313
 40
-7.972644806918767
 40
-7.972644806918767
 40
-7.972644806918767
 40
0.0
 40
0.0
 40
0.0
 40
0.0
 10
11.84459372489875
 20
15.7685307476841
 30
0.0
 41
1.0
 10
11.97259625091104
 20
16.07017883376187
 30
0.0
 41
1.0
 10
11.97085665941391
 20
16.7355455981656
 30
0.0
 41
1.0
 10
11.73242137925674
 20
17.67744169990333
 30
0.0
 41
1.0
 10
11.37282535134121
 20
18.58372643122568
 30
0.0
 41
1.0
 10
11.04515727311265
 20
19.4993762603822
 30
0.0
 41
1.0
 10
10.6999613557856
 20
20.40918905119666
 30
0.0
 41
1.0
 10
10.35651262485333
 20
21.31945569737699
 30
0.0
 41
1.0
 10
10.0096558003748
 20
22.22848615275599
 30
0.0
 41
1.0
 10
9.660749887577426
 20
23.13671558865818
 30
0.0
 41
1.0
 10
9.309527996575895
 20
24.04405703402093
 30
0.0
 41
1.0
 10
8.955712213015426
 20
24.95038798415227
 30
0.0
 41
1.0
 10
8.600695024750125
 20
25.85624942343112
 30
0.0
 41
1.0
 10
8.359696908483695
 20
26.4584600897506
 30
0.0
 41
1.0
 10
8.244170546422577
 20
26.7615113887669
 30
0.0
 41
1.0
 10
8.02517381347432
 20
27.32795963698648
 30
0.0
 41
1.0
 10
7.780871268801794
 20
28.19512693441515
 30
0.0
 41
1.0
 10
7.700089769705388
 20
29.21794921593505
 30
0.0
 41
1.0
 10
7.713788542109699
 20
29.77222149863369
 30
0.0
 41
1.0
 10
7.742760007251542
 20
30.03847690898821
 30
0.0
 41
1.0
 10
7.759667036299311
 20
30.17622725254364
 30
0.0
 41
1.0
 10
8.117679008611633
 20
32.80957668143603
 30
0.0
 41
0.9999803213218016
 10
8.493614839647508
 20
35.495453700731
 30
0.0
 41
0.9999803213218016
 10
8.778698132579011
 20
38.13769314920237
 30
0.0
 41
1.0
  0
SPLINE
  5
16F
330
1F
100
AcDbEntity
  8
Default
100
AcDbSpline
210
0.0
220
0.0
230
1.0
 70
     8
 71
     3
 72
    11
 73
     7
 74
     0
 42
0.0000000001
 43
0.0000000001
 40
-2.743097143419929
 40
-2.743097143419929
 40
-2.743097143419929
 40
-2.743097143419929
 40
-1.339748098685043
 40
-0.682399112458213
 40
-0.3325467378781747
 40
0.0
 40
0.0
 40
0.0
 40
0.0
 10
8.778698132579011
 20
38.13769314920237
 30
0.0
 10
8.828766804987717
 20
38.60174497072619
 30
0.0
 10
8.64686041678498
 20
39.31654239562246
 30
0.0
 10
8.03579528999502
 20
39.86553095547931
 30
0.0
 10
7.631866541182868
 20
40.05789464569428
 30
0.0
 10
7.410171449184022
 20
40.11579958090322
 30
0.0
 10
7.30088667994618
 20
40.1331641926292
 30
0.0
  0
SPLINE
  5
170
330
1F
100
AcDbEntity
  8
Default
100
AcDbSpline
210
0.0
220
0.0
230
1.0
 70
    12
 71
     2
 72
     6
 73
     3
 74
     0
 42
0.0000000001
 43
0.0000000001
 40
-0.3785634867430925
 40
-0.3785634867430925
 40
-0.3785634867430925
 40
0.0
 40
0.0
 40
0.0
 10
7.30088667994618
 20
40.1331641926292
 30
0.0
 41
1.0
 10
7.113371818200783
 20
40.16256715959673
 30
0.0
 41
0.9959393302338803
 10
6.923633760784574
 20
40.1578708097933
 30
0.0
 41
1.0
  0
SPLINE
  5
171
330
1F
100
AcDbEntity
  8
Default
100
AcDbSpline
210
0.0
220
0.0
230
1.0
 70
    24
 71
     2
 72
     6
 73
     3
 74
     0
 42
0.0000000001
 43
0.0000000001
 40
0.0
 40
0.0
 40
0.0
 40
0.3709331610280567
 40
0.3709331610280567
 40
0.3709331610280567
 10
9.624992430832208
 20
15.41454757293585
 30
0.0
 10
9.624952259960521
 20
15.60255265855038
 30
0.0
 10
9.624912089088834
 20
15.79055774416491
 30
0.0
  0
SPLINE
  5
172
330
1F
100
AcDbEntity
  8
Default
100
AcDbSpline
210
0.0
220
0.0
230
1.0
 70
     8
 71
     3
 72
    12
 73
     8
 74
     0
 42
0.0000000001
 43
0.0000000001
 40
0.0
 40
0.0
 40
0.0
 40
0.0
 40
0.1195530801918726
 40
0.2452458973806048
 40
0.5491896479788391
 40
1.036657499911663
 40
1.758696564887424
 40
1.758696564887424
 40
1.758696564887424
 40
1.758696564887424
 10
9.624912089088834
 20
15.79055774416491
 30
0.0
 10
9.623146479844486
 20
15.83580206113932
 30
0.0
 10
9.606766045556464
 20
15.91607222777728
 30
0.0
 10
9.503805018400927
 20
16.07402530322086
 30
0.0
 10
9.2318493406793
 20
16.22530481114619
 30
0.0
 10
8.74525585508102
 20
16.35935086130833
 30
0.0
 10
8.347935012153089
 20
16.43183790083946
 30
0.0
 10
8.110143422735884
 20
16.4679626628828
 30
0.0
  0
SPLINE
  5
173
330
1F
100
AcDbEntity
  8
Default
100
AcDbSpline
210
0.0
220
0.0
230
1.0
 70
    12
 71
     3
 72
    12
 73
     8
 74
     0
 42
0.0000000001
 43
0.0000000001
 40
0.3359610780357872
 40
0.3359610780357872
 40
0.3359610780357872
 40
0.3359610780357872
 40
0.4999999989962435
 40
0.4999999989962435
 40
0.74999999982478
 40
0.74999999982478
 40
1.0
 40
1.0
 40
1.0
 40
1.0
 10
8.110143422735884
 20
16.4679626628828
 30
0.0
 41
1.0
 10
7.695923563261617
 20
16.5319881770325
 30
0.0
 41
1.0
 10
7.192477162061444
 20
16.59099819496145
 30
0.0
 41
1.0
 10
5.739409628439899
 20
16.72224878600226
 30
0.0
 41
1.0
 10
4.69561260935621
 20
16.78515703063243
 30
0.0
 41
1.0
 10
2.434116903581726
 20
16.86987858849744
 30
0.0
 41
1.0
 10
1.216462043473545
 20
16.89176835741761
 30
0.0
 41
1.0
 10
-0.0000000058993148
 20
16.89176668550008
 30
0.0
 41
1.0
  0
SPLINE
  5
174
330
1F
100
AcDbEntity
  8
Default
100
AcDbSpline
210
0.0
220
0.0
230
1.0
 70
    12
 71
     3
 72
    12
 73
     8
 74
     0
 42
0.0000000001
 43
0.0000000001
 40
-1.0
 40
-1.0
 40
-1.0
 40
-1.0
 40
-0.74999999982478
 40
-0.74999999982478
 40
-0.4999999989962435
 40
-0.4999999989962435
 40
-0.3359610780357872
 40
-0.3359610780357872
 40
-0.3359610780357872
 40
-0.3359610780357872
 10
-0.0000000058993148
 20
16.89176668550008
 30
0.0
 41
1.0
 10
-1.216462055272174
 20
16.89176835741761
 30
0.0
 41
1.0
 10
-2.434116915380356
 20
16.86987858849744
 30
0.0
 41
1.0
 10
-4.69561262115484
 20
16.78515703063243
 30
0.0
 41
1.0
 10
-5.739409640238529
 20
16.72224878600226
 30
0.0
 41
1.0
 10
-7.192477173860073
 20
16.59099819496145
 30
0.0
 41
1.0
 10
-7.695923575060247
 20
16.5319881770325
 30
0.0
 41
1.0
 10
-8.110143434534514
 20
16.4679626628828
 30
0.0
 41
1.0
  0
SPLINE
  5
175
330
1F
100
AcDbEntity
  8
Default
100
AcDbSpline
210
0.0
220
0.0
230
1.0
 70
     8
 71
     3
 72
    12
 73
     8
 74
     0
 42
0.0000000001
 43
0.0000000001
 40
-1.758696564887424
 40
-1.758696564887424
 40
-1.758696564887424
 40
-1.758696564887424
 40
-1.036657499911663
 40
-0.5491896479788391
 40
-0.2452458973806048
 40
-0.1195530801918726
 40
0.0
 40
0.0
 40
0.0
 40
0.0
 10
-8.110143434534514
 20
16.4679626628828
 30
0.0
 10
-8.347935023951718
 20
16.43183790083946
 30
0.0
 10
-8.74525586687965
 20
16.35935086130833
 30
0.0
 10
-9.23184935247793
 20
16.22530481114619
 30
0.0
 10
-9.503805030199556
 20
16.07402530322086
 30
0.0
 10
-9.606766057355093
 20
15.91607222777728
 30
0.0
 10
-9.623146491643116
 20
15.83580206113932
 30
0.0
 10
-9.624912094988149
 20
15.79055774416491
 30
0.0
  0
SPLINE
  5
176
330
1F
100
AcDbEntity
  8
Default
100
AcDbSpline
210
0.0
220
0.0
230
1.0
 70
    24
 71
     2
 72
     6
 73
     3
 74
     0
 42
0.0000000001
 43
0.0000000001
 40
-0.3709331610280567
 40
-0.3709331610280567
 40
-0.3709331610280567
 40
0.0
 40
0.0
 40
0.0
 10
-9.624912094988149
 20
15.79055774416491
 30
0.0
 10
-9.624952262910178
 20
15.60255265855038
 30
0.0
 10
-9.624992430832208
 20
15.41454757293585
 30
0.0
  0
SPLINE
  5
177
330
1F
100
AcDbEntity
  8
Default
100
AcDbSpline
210
0.0
220
0.0
230
1.0
 70
     8
 71
     3
 72
    34
 73
    30
 74
     0
 42
0.0000000001
 43
0.0000000001
 40
0.0
 40
0.0
 40
0.0
 40
0.0
 40
1.0
 40
2.0
 40
3.0
 40
4.0
 40
5.0
 40
6.0
 40
7.0
 40
8.0
 40
9.0
 40
10.0
 40
11.0
 40
12.0
 40
13.0
 40
14.0
 40
15.0
 40
16.0
 40
17.0
 40
18.0
 40
19.0
 40
20.0
 40
21.0
 40
22.0
 40
23.0
 40
24.0
 40
25.0
 40
26.0
 40
27.0
 40
27.0
 40
27.0
 40
27.0
 10
19.03831855742583
 20
40.15762517514111
 30
0.0
 10
19.28288037995421
 20
39.95509364880516
 30
0.0
 10
19.45390067081332
 20
39.29933935966481
 30
0.0
 10
19.6777696406221
 20
38.36684026490148
 30
0.0
 10
19.77167201375381
 20
37.39582071593856
 30
0.0
 10
19.90571827248157
 20
36.43571997030628
 30
0.0
 10
20.05019902006131
 20
35.47563556021664
 30
0.0
 10
20.21856599792716
 20
34.5198050992874
 30
0.0
 10
20.4062202541846
 20
33.56750010969826
 30
0.0
 10
20.61462266437172
 20
32.61952540533304
 30
0.0
 10
20.84991720912748
 20
31.67776553613468
 30
0.0
 10
21.11936124208506
 20
30.74526880252325
 30
0.0
 10
21.42377966445313
 20
29.82323116988805
 30
0.0
 10
21.79752773724491
 20
28.9266537701558
 30
0.0
 10
22.23897496303265
 20
28.06163775031914
 30
0.0
 10
22.74327331614212
 20
27.23131222485035
 30
0.0
 10
23.31606664493467
 20
26.44723083815718
 30
0.0
 10
23.91831624477067
 20
25.68607950621234
 30
0.0
 10
24.53508872124295
 20
24.93663708202662
 30
0.0
 10
25.16861461166534
 20
24.20129140153585
 30
0.0
 10
25.81740214402088
 20
23.47939276465179
 30
0.0
 10
26.47981642327998
 20
22.76998843467763
 30
0.0
 10
27.15446393572682
 20
22.07221532942573
 30
0.0
 10
27.84030624576483
 20
21.38544970980593
 30
0.0
 10
28.53629568902995
 20
20.70897592552654
 30
0.0
 10
29.24144247770521
 20
20.04205935767852
 30
0.0
 10
29.95476966200439
 20
19.38390508931218
 30
0.0
 10
30.67549959335607
 20
18.73387110743572
 30
0.0
 10
31.21598814931082
 20
18.25223391862819
 30
0.0
 10
31.46174181314296
 20
18.04183292255843
 30
0.0
  0
SPLINE
  5
178
330
1F
100
AcDbEntity
  8
Default
100
AcDbSpline
210
0.0
220
0.0
230
1.0
 70
     8
 71
     3
 72
    22
 73
    18
 74
     0
 42
0.0000000001
 43
0.0000000001
 40
0.0
 40
0.0
 40
0.0
 40
0.0
 40
1.0
 40
2.0
 40
3.0
 40
4.0
 40
5.0
 40
6.0
 40
7.0
 40
8.0
 40
9.0
 40
10.0
 40
11.0
 40
12.0
 40
13.0
 40
14.0
 40
15.0
 40
15.0
 40
15.0
 40
15.0
 10
31.46174181314296
 20
18.04183292255843
 30
0.0
 10
31.7280550121674
 20
17.81382996436228
 30
0.0
 10
32.36705781988407
 20
17.36599127723196
 30
0.0
 10
33.30319302962368
 20
16.88368495019369
 30
0.0
 10
34.27966366675908
 20
16.49050301278074
 30
0.0
 10
35.27638349798065
 20
16.15363115099922
 30
0.0
 10
36.29096890939109
 20
15.87444502169544
 30
0.0
 10
37.31901781453865
 20
15.65074012491432
 30
0.0
 10
38.35531590639456
 20
15.47010750651981
 30
0.0
 10
39.39453842398543
 20
15.30764697477602
 30
0.0
 10
40.43677404982991
 20
15.16555018827772
 30
0.0
 10
41.48279096136951
 20
15.05351466846968
 30
0.0
 10
42.53324387128924
 20
14.99186639740702
 30
0.0
 10
43.58523840489797
 20
14.98972363350129
 30
0.0
 10
44.63701671907128
 20
14.99910618194941
 30
0.0
 10
45.68876216061829
 20
14.97827202957067
 30
0.0
 10
46.3892151689076
 20
14.94437614803137
 30
0.0
 10
46.73913366119657
 20
14.92241973108309
 30
0.0
  0
SPLINE
  5
179
330
1F
100
AcDbEntity
  8
Default
100
AcDbSpline
210
0.0
220
0.0
230
1.0
 70
    24
 71
     2
 72
     6
 73
     3
 74
     0
 42
0.0000000001
 43
0.0000000001
 40
0.0
 40
0.0
 40
0.0
 40
1.314822148069673
 40
1.314822148069673
 40
1.314822148069673
 10
46.23947735733282
 20
15.3571887303431
 30
0.0
 10
46.17783797507888
 20
16.01170374683928
 30
0.0
 10
46.11619859282494
 20
16.66621876333545
 30
0.0
  0
SPLINE
  5
17A
330
1F
100
AcDbEntity
  8
Default
100
AcDbSpline
210
0.0
220
0.0
230
1.0
 70
    12
 71
     2
 72
     6
 73
     3
 74
     0
 42
0.0000000001
 43
0.0000000001
 40
0.0
 40
0.0
 40
0.0
 40
0.3467243252475387
 40
0.3467243252475387
 40
0.3467243252475387
 10
46.11619859282494
 20
16.66621876333545
 30
0.0
 41
1.0
 10
46.07570112159296
 20
16.87676150149761
 30
0.0
 41
0.7690462387954616
 10
45.86859067020884
 20
16.8935232388505
 30
0.0
 41
1.0
  0
SPLINE
  5
17B
330
1F
100
AcDbEntity
  8
Default
100
AcDbSpline
210
0.0
220
0.0
230
1.0
 70
    12
 71
     3
 72
    16
 73
    12
 74
     0
 42
0.0000000001
 43
0.0000000001
 40
-7.642831826985982
 40
-7.642831826985982
 40
-7.642831826985982
 40
-7.642831826985982
 40
-7.207258297971308
 40
-6.573307433294788
 40
-4.800874885716957
 40
-2.543891929489456
 40
-1.298549380639849
 40
0.0
 40
0.0
 40
0.0
 40
3.292290231706387
 40
3.292290231706387
 40
3.292290231706387
 40
3.292290231706387
 10
45.86859067020884
 20
16.8935232388505
 30
0.0
 41
1.0
 10
45.72385386844419
 20
16.90523698984791
 30
0.0
 41
1.0
 10
45.34612910438513
 20
16.91627742396895
 30
0.0
 41
1.0
 10
44.39874493456136
 20
16.91157928020097
 30
0.0
 41
1.0
 10
42.84499304369145
 20
16.86049153973378
 30
0.0
 41
1.0
 10
41.08894052055488
 20
16.7723536391448
 30
0.0
 41
1.0
 10
39.4915405675199
 20
16.67563031337307
 30
0.0
 41
1.0
 10
38.64548184371144
 20
16.61900258798496
 30
0.0
 41
1.0
 10
38.21369793789052
 20
16.58855510853043
 30
0.0
 41
1.0
 10
37.1188661532564
 20
16.5113524434486
 30
0.0
 41
0.999780755992405
 10
36.02637422047683
 20
16.40609910643513
 30
0.0
 41
0.999780755992405
 10
34.93694070648063
 20
16.27286432598029
 30
0.0
 41
1.0
  0
SPLINE
  5
17C
330
1F
100
AcDbEntity
  8
Default
100
AcDbSpline
210
0.0
220
0.0
230
1.0
 70
     8
 71
     3
 72
    89
 73
    85
 74
     0
 42
0.0000000001
 43
0.0000000001
 40
0.0
 40
0.0
 40
0.0
 40
0.0
 40
1.0
 40
2.0
 40
3.0
 40
4.0
 40
5.0
 40
6.0
 40
7.0
 40
8.0
 40
9.0
 40
10.0
 40
11.0
 40
12.0
 40
12.0
 40
12.0
 40
13.0
 40
14.0
 40
15.0
 40
16.0
 40
17.0
 40
18.0
 40
19.0
 40
19.0
 40
19.0
 40
20.0
 40
21.0
 40
22.0
 40
23.0
 40
24.0
 40
25.0
 40
26.0
 40
27.0
 40
28.0
 40
29.0
 40
30.0
 40
31.0
 40
32.0
 40
33.0
 40
34.0
 40
35.0
 40
36.0
 40
36.0
 40
36.0
 40
37.0
 40
38.0
 40
39.0
 40
40.0
 40
41.0
 40
42.0
 40
43.0
 40
44.0
 40
45.0
 40
46.0
 40
47.0
 40
48.0
 40
49.0
 40
50.0
 40
51.0
 40
52.0
 40
53.0
 40
53.0
 40
53.0
 40
54.0
 40
55.0
 40
56.0
 40
57.0
 40
58.0
 40
59.0
 40
60.0
 40
60.0
 40
60.0
 40
61.0
 40
62.0
 40
63.0
 40
64.0
 40
65.0
 40
66.0
 40
67.0
 40
68.0
 40
69.0
 40
70.0
 40
71.0
 40
72.0
 40
72.0
 40
72.0
 40
72.0
 10
-8.582894441029696
 20
74.10571181774287
 30
0.0
 10
-8.526885897806586
 20
74.03685270743873
 30
0.0
 10
-8.263460678336374
 20
73.76276564868854
 30
0.0
 10
-8.107529235381481
 20
73.54674602941871
 30
0.0
 10
-7.971523899510987
 20
73.31731373275022
 30
0.0
 10
-7.85572510276911
 20
73.07789417803043
 30
0.0
 10
-7.739495189785395
 20
72.83680047204555
 30
0.0
 10
-7.694305121165928
 20
72.57142509343393
 30
0.0
 10
-7.731024903056562
 20
72.30554072122386
 30
0.0
 10
-7.802939067946713
 20
72.04909462986583
 30
0.0
 10
-7.897435918084935
 20
71.79989247563154
 30
0.0
 10
-8.005669434203222
 20
71.55656407767225
 30
0.0
 10
-8.122302875907584
 20
71.31716285220463
 30
0.0
 10
-8.20339478523296
 20
71.15924832286237
 30
0.0
 10
-8.244144912653132
 20
71.08039876821536
 30
0.0
 10
-8.443518953937858
 20
70.69646417846569
 30
0.0
 10
-8.831207597944534
 20
69.92273770561977
 30
0.0
 10
-9.364226749754511
 20
68.7391190959732
 30
0.0
 10
-9.865312114053559
 20
67.54178229315612
 30
0.0
 10
-10.33542681116139
 20
66.33192807614031
 30
0.0
 10
-10.77861499824691
 20
65.11199344043118
 30
0.0
 10
-11.19799005101643
 20
63.88368077244648
 30
0.0
 10
-11.46382230328635
 20
63.0602532338143
 30
0.0
 10
-11.59473278130785
 20
62.64790328516382
 30
0.0
 10
-11.72887957956652
 20
62.22814010303658
 30
0.0
 10
-11.90045932570775
 20
61.36066649678759
 30
0.0
 10
-11.9545651037303
 20
60.0386505170272
 30
0.0
 10
-11.95165463725578
 20
58.71760788108504
 30
0.0
 10
-11.86235639782207
 20
57.39849176421522
 30
0.0
 10
-11.67678713716179
 20
56.0895219822887
 30
0.0
 10
-11.37476038590565
 20
54.80155813341227
 30
0.0
 10
-10.91515157881255
 20
53.55934287508801
 30
0.0
 10
-10.27193368893729
 20
52.40112897991061
 30
0.0
 10
-9.476146345905015
 20
51.34317435985706
 30
0.0
 10
-8.55250059985981
 20
50.39465400672766
 30
0.0
 10
-7.512416347765498
 20
49.57589947679053
 30
0.0
 10
-6.384294816984409
 20
48.88400996470286
 30
0.0
 10
-5.179716948167003
 20
48.33582397597556
 30
0.0
 10
-3.923664864162556
 20
47.92088964691132
 30
0.0
 10
-2.632818662937363
 20
47.63263929205946
 30
0.0
 10
-1.321215367187266
 20
47.46405661387066
 30
0.0
 10
-0.4403921754284024
 20
47.42801318049867
 30
0.0
 10
-0.0000245600192397
 20
47.42875899938893
 30
0.0
 10
0.4403430553899231
 20
47.42801318049867
 30
0.0
 10
1.321166247148786
 20
47.46405661387066
 30
0.0
 10
2.632769542898884
 20
47.63263929205946
 30
0.0
 10
3.923615744124076
 20
47.92088964691132
 30
0.0
 10
5.179667828128523
 20
48.33582397597556
 30
0.0
 10
6.384245696945929
 20
48.88400996470286
 30
0.0
 10
7.512367227727019
 20
49.57589947679053
 30
0.0
 10
8.55245147982133
 20
50.39465400672766
 30
0.0
 10
9.476097225866535
 20
51.34317435985706
 30
0.0
 10
10.27188456889881
 20
52.40112897991061
 30
0.0
 10
10.91510245877407
 20
53.55934287508801
 30
0.0
 10
11.37471126586717
 20
54.80155813341227
 30
0.0
 10
11.67673801712331
 20
56.0895219822887
 30
0.0
 10
11.86230727778359
 20
57.39849176421522
 30
0.0
 10
11.9516055172173
 20
58.71760788108504
 30
0.0
 10
11.95451598369182
 20
60.0386505170272
 30
0.0
 10
11.90041020566927
 20
61.36066649678759
 30
0.0
 10
11.72883045952804
 20
62.22814010303658
 30
0.0
 10
11.59470822128861
 20
62.64790328516382
 30
0.0
 10
11.46382230328635
 20
63.0602532338143
 30
0.0
 10
11.19799005101643
 20
63.88368077244648
 30
0.0
 10
10.77861499824691
 20
65.11199344043118
 30
0.0
 10
10.33542681116139
 20
66.33192807614031
 30
0.0
 10
9.865312114053559
 20
67.54178229315612
 30
0.0
 10
9.364226749754511
 20
68.7391190959732
 30
0.0
 10
8.831207597944534
 20
69.92273770561977
 30
0.0
 10
8.443518953937858
 20
70.69646417846569
 30
0.0
 10
8.244144912653132
 20
71.08039876821536
 30
0.0
 10
8.20339478523296
 20
71.15924832286237
 30
0.0
 10
8.122302875907584
 20
71.31716285220463
 30
0.0
 10
8.005669434203222
 20
71.55656407767225
 30
0.0
 10
7.897435918084935
 20
71.79989247563154
 30
0.0
 10
7.802939067946713
 20
72.04909462986583
 30
0.0
 10
7.731024903056562
 20
72.30554072122386
 30
0.0
 10
7.694305121165928
 20
72.57142509343393
 30
0.0
 10
7.739495189785395
 20
72.83680047204555
 30
0.0
 10
7.85572510276911
 20
73.07789417803043
 30
0.0
 10
7.971523899510987
 20
73.31731373275022
 30
0.0
 10
8.107529235381481
 20
73.54674602941871
 30
0.0
 10
8.263460678336374
 20
73.76276564868854
 30
0.0
 10
8.526885897806586
 20
74.03685270743873
 30
0.0
 10
8.582894441029696
 20
74.10571181774287
 30
0.0
  0
SPLINE
  5
17D
330
1F
100
AcDbEntity
  8
Default
100
AcDbSpline
210
0.0
220
0.0
230
1.0
 70
    12
 71
     2
 72
     6
 73
     3
 74
     0
 42
0.0000000001
 43
0.0000000001
 40
-5.654573080352873
 40
-5.654573080352873
 40
-5.654573080352873
 40
0.0
 40
0.0
 40
0.0
 10
5.629202549667257
 20
75.80764103700956
 30
0.0
 41
1.0
 10
2.833364854538139
 20
76.26745732841917
 30
0.0
 41
0.9967681786255456
 10
-0.000046329665361
 20
76.27360139964283
 30
0.0
 41
1.0
  0
SPLINE
  5
17E
330
1F
100
AcDbEntity
  8
Default
100
AcDbSpline
210
0.0
220
0.0
230
1.0
 70
    12
 71
     2
 72
     6
 73
     3
 74
     0
 42
0.0000000001
 43
0.0000000001
 40
0.0
 40
0.0
 40
0.0
 40
5.654573080352873
 40
5.654573080352873
 40
5.654573080352873
 10
-0.000046329665361
 20
76.27360139964283
 30
0.0
 41
1.0
 10
-2.833457513868861
 20
76.26745732841917
 30
0.0
 41
0.9967681786255456
 10
-5.629295208997979
 20
75.80764103700956
 30
0.0
 41
1.0
  0
SPLINE
  5
17F
330
1F
100
AcDbEntity
  8
Default
100
AcDbSpline
210
0.0
220
0.0
230
1.0
 70
    12
 71
     2
 72
     6
 73
     3
 74
     0
 42
0.0000000001
 43
0.0000000001
 40
-0.443505275079806
 40
-0.443505275079806
 40
-0.443505275079806
 40
0.0
 40
0.0
 40
0.0
 10
-8.582894441029696
 20
74.10571181774287
 30
0.0
 41
1.0
 10
-8.724724101751852
 20
74.28008279206306
 30
0.0
 41
0.9799943751373794
 10
-8.78871967185789
 20
74.50158306494845
 30
0.0
 41
1.0
  0
SPLINE
  5
180
330
1F
100
AcDbEntity
  8
Default
100
AcDbSpline
210
0.0
220
0.0
230
1.0
 70
     8
 71
     3
 72
    12
 73
     8
 74
     0
 42
0.0000000001
 43
0.0000000001
 40
-3.111933853859594
 40
-3.111933853859594
 40
-3.111933853859594
 40
-3.111933853859594
 40
-2.689379093202719
 40
-2.191051374651839
 40
-1.391396900347014
 40
-0.849548742313125
 40
0.0
 40
0.0
 40
0.0
 40
0.0
 10
-8.78871967185789
 20
74.50158306494845
 30
0.0
 10
-8.832470502994807
 20
74.64004493216082
 30
0.0
 10
-8.756768352961382
 20
74.9785337689183
 30
0.0
 10
-8.251291638064417
 20
75.28337888192944
 30
0.0
 10
-7.660728971798841
 20
75.44295475051133
 30
0.0
 10
-6.943864453578437
 20
75.59437043110071
 30
0.0
 10
-6.487447063648447
 20
75.66432832187817
 30
0.0
 10
-6.20767494519759
 20
75.71440796500487
 30
0.0
  0
SPLINE
  5
181
330
1F
100
AcDbEntity
  8
Default
100
AcDbSpline
210
0.0
220
0.0
230
1.0
 70
    12
 71
     2
 72
     6
 73
     3
 74
     0
 42
0.0000000001
 43
0.0000000001
 40
0.0
 40
0.0
 40
0.0
 40
6.233889429224448
 40
6.233889429224448
 40
6.233889429224448
 10
-6.20767494519759
 20
75.71440796500485
 30
0.0
 41
0.9999999519924593
 10
-3.123795064056283
 20
76.21182214780028
 30
0.0
 41
0.9967303545933507
 10
-0.000046329665361
 20
76.20601964649849
 30
0.0
 41
1.0
  0
SPLINE
  5
182
330
1F
100
AcDbEntity
  8
Default
100
AcDbSpline
210
0.0
220
0.0
230
1.0
 70
    12
 71
     2
 72
     6
 73
     3
 74
     0
 42
0.0000000001
 43
0.0000000001
 40
-6.233889429224448
 40
-6.233889429224448
 40
-6.233889429224448
 40
0.0
 40
0.0
 40
0.0
 10
-0.000046329665361
 20
76.20601964649849
 30
0.0
 41
1.0
 10
3.123725412685075
 20
76.21182219053881
 30
0.0
 41
0.9967303305894041
 10
6.207628615532229
 20
75.71440796500487
 30
0.0
 41
1.0
  0
SPLINE
  5
183
330
1F
100
AcDbEntity
  8
Default
100
AcDbSpline
210
0.0
220
0.0
230
1.0
 70
     8
 71
     3
 72
    12
 73
     8
 74
     0
 42
0.0000000001
 43
0.0000000001
 40
0.0
 40
0.0
 40
0.0
 40
0.0
 40
0.8495817757806479
 40
1.391422022197969
 40
2.191064820612614
 40
2.689385262996222
 40
3.111933853859594
 40
3.111933853859594
 40
3.111933853859594
 40
3.111933853859594
 10
6.207628615532229
 20
75.71440796500487
 30
0.0
 10
6.487417253406978
 20
75.66433289104846
 30
0.0
 10
6.943849587074414
 20
75.59437357119451
 30
0.0
 10
7.660728971798841
 20
75.44295475051133
 30
0.0
 10
8.251291638064417
 20
75.28337888192944
 30
0.0
 10
8.756768352961382
 20
74.9785337689183
 30
0.0
 10
8.832470502994807
 20
74.64004493216082
 30
0.0
 10
8.78871967185789
 20
74.50158306494845
 30
0.0
  0
SPLINE
  5
184
330
1F
100
AcDbEntity
  8
Default
100
AcDbSpline
210
0.0
220
0.0
230
1.0
 70
    12
 71
     2
 72
     6
 73
     3
 74
     0
 42
0.0000000001
 43
0.0000000001
 40
0.0
 40
0.0
 40
0.0
 40
0.443505275079806
 40
0.443505275079806
 40
0.443505275079806
 10
8.78871967185789
 20
74.50158306494845
 30
0.0
 41
1.0
 10
8.724724101751852
 20
74.28008279206306
 30
0.0
 41
0.9799943751373794
 10
8.582894441029696
 20
74.10571181774287
 30
0.0
 41
1.0
  0
SPLINE
  5
185
330
1F
100
AcDbEntity
  8
Default
100
AcDbSpline
210
0.0
220
0.0
230
1.0
 70
     8
 71
     3
 72
    19
 73
    15
 74
     0
 42
0.0000000001
 43
0.0000000001
 40
-12.0
 40
-12.0
 40
-12.0
 40
-12.0
 40
-11.0
 40
-10.0
 40
-9.0
 40
-8.0
 40
-7.0
 40
-6.0
 40
-5.0
 40
-4.0
 40
-3.0
 40
-2.0
 40
-1.0
 40
0.0
 40
0.0
 40
0.0
 40
0.0
 10
8.78721279497089
 20
74.49608718373723
 30
0.0
 10
8.661423392593013
 20
74.7072572699523
 30
0.0
 10
8.156632669625598
 20
74.86739753503119
 30
0.0
 10
7.443427472215244
 20
75.04796778280523
 30
0.0
 10
6.703866481803606
 20
75.18204499816096
 30
0.0
 10
5.966831429895556
 20
75.30369634498878
 30
0.0
 10
5.225192795538666
 20
75.40323433824858
 30
0.0
 10
4.481798839904291
 20
75.48533081190408
 30
0.0
 10
3.736652124927164
 20
75.55068169758464
 30
0.0
 10
2.990375136963259
 20
75.60099146049113
 30
0.0
 10
2.243300882576015
 20
75.63763094919886
 30
0.0
 10
1.495734056177277
 20
75.6620174516534
 30
0.0
 10
0.747897206514126
 20
75.67556069405636
 30
0.0
 10
0.2492675112203118
 20
75.67830095986427
 30
0.0
 10
-0.000046329665361
 20
75.6783331462105
 30
0.0
  0
SPLINE
  5
186
330
1F
100
AcDbEntity
  8
Default
100
AcDbSpline
210
0.0
220
0.0
230
1.0
 70
     8
 71
     3
 72
    19
 73
    15
 74
     0
 42
0.0000000001
 43
0.0000000001
 40
0.0
 40
0.0
 40
0.0
 40
0.0
 40
1.0
 40
2.0
 40
3.0
 40
4.0
 40
5.0
 40
6.0
 40
7.0
 40
8.0
 40
9.0
 40
10.0
 40
11.0
 40
12.0
 40
12.0
 40
12.0
 40
12.0
 10
-0.000046329665361
 20
75.6783331462105
 30
0.0
 10
-0.2493601705510338
 20
75.67830095986427
 30
0.0
 10
-0.747989865844848
 20
75.67556069405636
 30
0.0
 10
-1.495826715507999
 20
75.6620174516534
 30
0.0
 10
-2.243393541906737
 20
75.63763094919886
 30
0.0
 10
-2.990467796293981
 20
75.60099146049113
 30
0.0
 10
-3.736744784257886
 20
75.55068169758464
 30
0.0
 10
-4.481891499235013
 20
75.48533081190408
 30
0.0
 10
-5.225285454869388
 20
75.40323433824858
 30
0.0
 10
-5.966924089226278
 20
75.30369634498878
 30
0.0
 10
-6.703959141134328
 20
75.18204499816096
 30
0.0
 10
-7.443520131545966
 20
75.04796778280523
 30
0.0
 10
-8.15672532895632
 20
74.86739753503119
 30
0.0
 10
-8.661516051923735
 20
74.7072572699523
 30
0.0
 10
-8.787305454301611
 20
74.49608718373723
 30
0.0
  0
SPLINE
  5
187
330
1F
100
AcDbEntity
  8
Default
100
AcDbSpline
210
0.0
220
0.0
230
1.0
 70
     8
 71
     3
 72
    22
 73
    18
 74
     0
 42
0.0000000001
 43
0.0000000001
 40
0.0
 40
0.0
 40
0.0
 40
0.0
 40
0.2588469591229587
 40
0.6477254461891114
 40
1.024641027840087
 40
1.817983982162573
 40
2.582167143679938
 40
4.062052734317923
 40
7.850412104674001
 40
9.497260537102543
 40
10.543391206404
 40
10.8432833113025
 40
12.15829953678302
 40
13.34949093133962
 40
14.77372714428499
 40
17.25709974516987
 40
21.82793658798906
 40
21.82793658798906
 40
21.82793658798906
 40
21.82793658798906
 10
-7.738659199868907
 20
72.7741914340998
 30
0.0
 10
-7.73065493575375
 20
72.68766454458162
 30
0.0
 10
-7.769388367956926
 20
72.47320761588938
 30
0.0
 10
-7.893901614861795
 20
72.15466454214584
 30
0.0
 10
-8.118215525380597
 20
71.6856649232833
 30
0.0
 10
-8.426194354485657
 20
71.1189568782448
 30
0.0
 10
-8.86962229986685
 20
70.20855935646503
 30
0.0
 10
-9.720950479180198
 20
68.38678383643406
 30
0.0
 10
-10.59999034327064
 20
66.25480576475846
 30
0.0
 10
-11.37982406824582
 20
64.24041427861191
 30
0.0
 10
-11.72994354373518
 20
63.30618071090254
 30
0.0
 10
-12.03133390033755
 20
62.47143503629007
 30
0.0
 10
-12.20984886998471
 20
61.54801846877476
 30
0.0
 10
-12.27869577924427
 20
60.23951914788469
 30
0.0
 10
-12.26057782717808
 20
58.53828182945888
 30
0.0
 10
-11.90102821158352
 20
55.72710095222511
 30
0.0
 10
-11.00730110771214
 20
53.51007529523715
 30
0.0
 10
-10.14114177719025
 20
52.25243070696612
 30
0.0
  0
SPLINE
  5
188
330
1F
100
AcDbEntity
  8
Default
100
AcDbSpline
210
0.0
220
0.0
230
1.0
 70
     8
 71
     3
 72
    12
 73
     8
 74
     0
 42
0.0000000001
 43
0.0000000001
 40
-14.89017236839833
 40
-14.89017236839833
 40
-14.89017236839833
 40
-14.89017236839833
 40
-11.21816917573749
 40
-7.516682162771168
 40
-3.774519558109396
 40
-1.889355098273271
 40
0.0
 40
0.0
 40
0.0
 40
0.0
 10
9.62496141688334
 20
57.38553283996929
 30
0.0
 10
9.625289477807906
 20
56.16136762243165
 30
0.0
 10
9.118136483111828
 20
53.70417218030904
 30
0.0
 10
6.966130616604181
 20
50.59734955333646
 30
0.0
 10
4.303022178647707
 20
48.88047559028227
 30
0.0
 10
1.887955315331952
 20
48.17277525725872
 30
0.0
 10
0.6297070974156416
 20
48.05176183465966
 30
0.0
 10
-0.0000256397261049
 20
48.05169406775936
 30
0.0
  0
SPLINE
  5
189
330
1F
100
AcDbEntity
  8
Default
100
AcDbSpline
210
0.0
220
0.0
230
1.0
 70
     8
 71
     3
 72
    12
 73
     8
 74
     0
 42
0.0000000001
 43
0.0000000001
 40
-14.89017233013332
 40
-14.89017233013332
 40
-14.89017233013332
 40
-14.89017233013332
 40
-11.11625270517792
 40
-7.371880431677226
 40
-3.66957874387039
 40
-1.832654236799996
 40
0.0
 40
0.0
 40
0.0
 40
0.0
 10
-0.0000256397261049
 20
48.05169406775936
 30
0.0
 10
-1.257999158227516
 20
48.0519141604651
 30
0.0
 10
-3.764054832158015
 20
48.53272916424016
 30
0.0
 10
-6.967204852942301
 20
50.59811039772157
 30
0.0
 10
-8.763895421073308
 20
53.19306193273074
 30
0.0
 10
-9.49947180607704
 20
55.55167768554308
 30
0.0
 10
-9.62504977691833
 20
56.77412582869383
 30
0.0
 10
-9.625007191603338
 20
57.38531812537462
 30
0.0
  0
SPLINE
  5
18A
330
1F
100
AcDbEntity
  8
Default
100
AcDbSpline
210
0.0
220
0.0
230
1.0
 70
     8
 71
     3
 72
    12
 73
     8
 74
     0
 42
0.0000000001
 43
0.0000000001
 40
0.0
 40
0.0
 40
0.0
 40
0.0
 40
1.974863560414597
 40
3.940395698505355
 40
7.777415887162894
 40
11.58776424105037
 40
15.35286584350305
 40
15.35286584350305
 40
15.35286584350305
 40
15.35286584350305
 10
-9.625007191603338
 20
57.38531812537462
 30
0.0
 10
-9.625476826550972
 20
58.04353595197043
 30
0.0
 10
-9.505559120448584
 20
59.35764630416458
 30
0.0
 10
-8.791107370193078
 20
61.86111766468118
 30
0.0
 10
-7.019292613518878
 20
64.61008302851369
 30
0.0
 10
-3.783437491155089
 20
66.76210578889635
 30
0.0
 10
-1.254446040489956
 20
67.23718531473398
 30
0.0
 10
-0.0000255985163973
 20
67.23748907245584
 30
0.0
  0
SPLINE
  5
18B
330
1F
100
AcDbEntity
  8
Default
100
AcDbSpline
210
0.0
220
0.0
230
1.0
 70
     8
 71
     3
 72
    12
 73
     8
 74
     0
 42
0.0000000001
 43
0.0000000001
 40
0.0
 40
0.0
 40
0.0
 40
0.0
 40
1.918305221504867
 40
3.868777778011242
 40
7.624449324857684
 40
11.42846767657462
 40
15.35241906764609
 40
15.35241906764609
 40
15.35241906764609
 40
15.35241906764609
 10
-0.0000255985163973
 20
67.23748907245584
 30
0.0
 10
0.6393474785945443
 20
67.23801975710947
 30
0.0
 10
1.929199776513023
 20
67.11320948825355
 30
0.0
 10
4.375128356070713
 20
66.3791244612649
 30
0.0
 10
7.055036185232291
 20
64.56441809581716
 30
0.0
 10
9.159516322280039
 20
61.27472235872273
 30
0.0
 10
9.624982769621747
 20
58.69291550349844
 30
0.0
 10
9.62496141688334
 20
57.38553283996929
 30
0.0
  0
SPLINE
  5
18C
330
1F
100
AcDbEntity
  8
Default
100
AcDbSpline
210
0.0
220
0.0
230
1.0
 70
     8
 71
     3
 72
    22
 73
    18
 74
     0
 42
0.0000000001
 43
0.0000000001
 40
0.0
 40
0.0
 40
0.0
 40
0.0
 40
0.2588469591229587
 40
0.6477254461891114
 40
1.024641027840087
 40
1.817983982162573
 40
2.582167143679938
 40
4.062052734317923
 40
7.850412104674001
 40
9.497260537102543
 40
10.543391206404
 40
10.8432833113025
 40
12.15829953678302
 40
13.34949093133962
 40
14.77372714428499
 40
17.25709974516987
 40
21.82793658798906
 40
21.82793658798906
 40
21.82793658798906
 40
21.82793658798906
 10
7.738659199868907
 20
72.7741914340998
 30
0.0
 10
7.73065493575375
 20
72.68766454458162
 30
0.0
 10
7.769388367956926
 20
72.47320761588938
 30
0.0
 10
7.893901614861795
 20
72.15466454214584
 30
0.0
 10
8.118215525380597
 20
71.6856649232833
 30
0.0
 10
8.426194354485657
 20
71.1189568782448
 30
0.0
 10
8.86962229986685
 20
70.20855935646503
 30
0.0
 10
9.720950479180198
 20
68.38678383643406
 30
0.0
 10
10.59999034327064
 20
66.25480576475846
 30
0.0
 10
11.37982406824582
 20
64.24041427861191
 30
0.0
 10
11.72994354373518
 20
63.30618071090254
 30
0.0
 10
12.03133390033755
 20
62.47143503629007
 30
0.0
 10
12.20984886998471
 20
61.54801846877476
 30
0.0
 10
12.27869577924427
 20
60.23951914788469
 30
0.0
 10
12.26057782717808
 20
58.53828182945888
 30
0.0
 10
11.90102821158352
 20
55.72710095222511
 30
0.0
 10
11.00730110771214
 20
53.51007529523715
 30
0.0
 10
10.14114177719025
 20
52.25243070696612
 30
0.0
  0
SPLINE
  5
18D
330
1F
100
AcDbEntity
  8
Make2D visible lines
100
AcDbSpline
210
0.0
220
0.0
230
1.0
 70
    24
 71
     2
 72
     6
 73
     3
 74
     0
 42
0.0000000001
 43
0.0000000001
 40
4.423416426071132
 40
4.423416426071132
 40
4.423416426071132
 40
4.523710136401242
 40
4.523710136401242
 40
4.523710136401242
 10
-8.333168372174832
 20
71.285189587565
 30
0.0
 10
-8.358241799757364
 20
71.32861803805784
 30
0.0
 10
-8.383315227339896
 20
71.37204648855067
 30
0.0
  0
SPLINE
  5
18E
330
1F
100
AcDbEntity
  8
Make2D visible lines
100
AcDbSpline
210
0.0
220
0.0
230
1.0
 70
    12
 71
     2
 72
     8
 73
     5
 74
     0
 42
0.0000000001
 43
0.0000000001
 40
0.0
 40
0.0
 40
0.0
 40
0.4730574302815958
 40
0.4730574302815958
 40
0.9455180233888372
 40
0.9455180233888372
 40
0.9455180233888372
 10
-8.383315227339896
 20
71.37204648855067
 30
0.0
 41
1.0
 10
-8.547614644315502
 20
71.62367195819685
 30
0.0
 41
0.7091869777201398
 10
-8.800203853567828
 20
71.46085805595729
 30
0.0
 41
1.0
 10
-9.06440268401518
 20
71.31711889124469
 30
0.0
 41
0.7071352214376396
 10
-8.920696751456523
 20
71.05290158291069
 30
0.0
 41
1.0
  0
SPLINE
  5
18F
330
1F
100
AcDbEntity
  8
Make2D visible lines
100
AcDbSpline
210
0.0
220
0.0
230
1.0
 70
    24
 71
     2
 72
     6
 73
     3
 74
     0
 42
0.0000000001
 43
0.0000000001
 40
-4.466989253625452
 40
-4.466989253625452
 40
-4.466989253625452
 40
-3.964674208741182
 40
-3.964674208741182
 40
-3.964674208741182
 10
-8.920696751456523
 20
71.05290158291069
 30
0.0
 10
-8.795118663746166
 20
70.83539239927265
 30
0.0
 10
-8.669540576035807
 20
70.61788321563462
 30
0.0
  0
SPLINE
  5
190
330
1F
100
AcDbEntity
  8
Make2D visible lines
100
AcDbSpline
210
0.0
220
0.0
230
1.0
 70
    24
 71
     2
 72
     6
 73
     3
 74
     0
 42
0.0000000001
 43
0.0000000001
 40
4.423416426071132
 40
4.423416426071132
 40
4.423416426071132
 40
4.523710136401242
 40
4.523710136401242
 40
4.523710136401242
 10
8.333168372174832
 20
71.285189587565
 30
0.0
 10
8.358241799757364
 20
71.32861803805784
 30
0.0
 10
8.383315227339896
 20
71.37204648855067
 30
0.0
  0
SPLINE
  5
191
330
1F
100
AcDbEntity
  8
Make2D visible lines
100
AcDbSpline
210
0.0
220
0.0
230
1.0
 70
    12
 71
     2
 72
     8
 73
     5
 74
     0
 42
0.0000000001
 43
0.0000000001
 40
0.0
 40
0.0
 40
0.0
 40
0.4730574302815958
 40
0.4730574302815958
 40
0.9455180233888372
 40
0.9455180233888372
 40
0.9455180233888372
 10
8.383315227339896
 20
71.37204648855067
 30
0.0
 41
1.0
 10
8.547614644315502
 20
71.62367195819685
 30
0.0
 41
0.7091869777201398
 10
8.800203853567828
 20
71.46085805595729
 30
0.0
 41
1.0
 10
9.06440268401518
 20
71.31711889124469
 30
0.0
 41
0.7071352214376396
 10
8.920696751456523
 20
71.05290158291069
 30
0.0
 41
1.0
  0
SPLINE
  5
192
330
1F
100
AcDbEntity
  8
Make2D visible lines
100
AcDbSpline
210
0.0
220
0.0
230
1.0
 70
    24
 71
     2
 72
     6
 73
     3
 74
     0
 42
0.0000000001
 43
0.0000000001
 40
-4.466989253625452
 40
-4.466989253625452
 40
-4.466989253625452
 40
-3.964674208741182
 40
-3.964674208741182
 40
-3.964674208741182
 10
8.920696751456523
 20
71.05290158291069
 30
0.0
 10
8.795118663746166
 20
70.83539239927265
 30
0.0
 10
8.669540576035807
 20
70.61788321563462
 30
0.0
  0
SPLINE
  5
193
330
1F
100
AcDbEntity
  8
Default
100
AcDbSpline
210
0.0
220
0.0
230
1.0
 70
     8
 71
     3
 72
    13
 73
     9
 74
     0
 42
0.0000000001
 43
0.0000000001
 40
11.72368406782611
 40
11.72368406782611
 40
11.72368406782611
 40
11.72368406782611
 40
12.0
 40
13.0
 40
14.0
 40
15.0
 40
16.0
 40
17.0
 40
17.0
 40
17.0
 40
17.0
 10
38.36659742093148
 20
11.55046425859046
 30
0.0
 10
38.29401200070313
 20
11.53966681100925
 30
0.0
 10
37.95858366549375
 20
11.49081173037814
 30
0.0
 10
37.35926086019042
 20
11.4113225271031
 30
0.0
 10
36.5671817974962
 20
11.32482643934466
 30
0.0
 10
35.77343156703423
 20
11.25540227640466
 30
0.0
 10
34.97850093363082
 20
11.20142857912129
 30
0.0
 10
34.4480787918397
 20
11.17325302568069
 30
0.0
 10
34.18278697213662
 20
11.16092645158079
 30
0.0
  0
SPLINE
  5
194
330
1F
100
AcDbEntity
  8
Default
100
AcDbSpline
210
0.0
220
0.0
230
1.0
 70
     8
 71
     3
 72
     9
 73
     5
 74
     0
 42
0.0000000001
 43
0.0000000001
 40
-27.0
 40
-27.0
 40
-27.0
 40
-27.0
 40
-26.0
 40
-25.05521025985325
 40
-25.05521025985325
 40
-25.05521025985325
 40
-25.05521025985325
 10
34.18278697213662
 20
11.16092645158079
 30
0.0
 10
33.7331209187418
 20
11.14207954527744
 30
0.0
 10
32.85797363477009
 20
11.10148471381134
 30
0.0
 10
31.98344966682565
 20
11.09503123444753
 30
0.0
 10
31.5576139050469
 20
11.0963213507367
 30
0.0
  0
SPLINE
  5
195
330
1F
100
AcDbEntity
  8
Default
100
AcDbSpline
210
0.0
220
0.0
230
1.0
 70
     8
 71
     3
 72
    29
 73
    25
 74
     0
 42
0.0000000001
 43
0.0000000001
 40
-21.75124450619539
 40
-21.75124450619539
 40
-21.75124450619539
 40
-21.75124450619539
 40
-21.0
 40
-20.0
 40
-19.0
 40
-18.0
 40
-17.0
 40
-16.0
 40
-15.0
 40
-14.0
 40
-13.0
 40
-12.0
 40
-11.0
 40
-10.0
 40
-9.0
 40
-8.0
 40
-7.0
 40
-6.0
 40
-5.0
 40
-4.0
 40
-3.0
 40
-2.0
 40
-1.0
 40
0.0
 40
0.0
 40
0.0
 40
0.0
 10
27.37430004438835
 20
12.35653513535736
 30
0.0
 10
27.10427895582193
 20
12.56011572864189
 30
0.0
 10
26.50993662392948
 20
13.08156220287744
 30
0.0
 10
25.71815433737009
 20
14.03874272599058
 30
0.0
 10
24.99491351249352
 20
15.18106778695566
 30
0.0
 10
24.35065594676409
 20
16.3683278553712
 30
0.0
 10
23.75113221863379
 20
17.57866788929478
 30
0.0
 10
23.19168673540987
 20
18.80800072745965
 30
0.0
 10
22.66545296381438
 20
20.05185597397575
 30
0.0
 10
22.16828906993577
 20
21.30759397342369
 30
0.0
 10
21.69769077772374
 20
22.57350859981617
 30
0.0
 10
21.2508441758001
 20
23.84799119433119
 30
0.0
 10
20.82704536622389
 20
25.13031584178184
 30
0.0
 10
20.4249708610588
 20
26.4196127248896
 30
0.0
 10
20.04489593040102
 20
27.7155776396902
 30
0.0
 10
19.68972469507909
 20
29.01858825040917
 30
0.0
 10
19.35739727439779
 20
30.3276073293388
 30
0.0
 10
19.0499763973358
 20
31.64270453176779
 30
0.0
 10
18.76564080229878
 20
32.96296522020004
 30
0.0
 10
18.51357834142612
 20
34.28990725293981
 30
0.0
 10
18.31212581628959
 20
35.62556453581479
 30
0.0
 10
18.06584622758533
 20
36.95322623176132
 30
0.0
 10
17.87256044698663
 20
38.29147369597952
 30
0.0
 10
17.88968977870098
 20
39.19646466669662
 30
0.0
 10
17.96187301406815
 20
39.64132890905041
 30
0.0
  0
SPLINE
  5
196
330
1F
100
AcDbEntity
  8
Default
100
AcDbSpline
210
0.0
220
0.0
230
1.0
 70
    12
 71
     2
 72
     6
 73
     3
 74
     0
 42
0.0000000001
 43
0.0000000001
 40
0.0
 40
0.0
 40
0.0
 40
0.4209017355309934
 40
0.4209017355309934
 40
0.4209017355309934
 10
17.96187301406815
 20
39.64132890905041
 30
0.0
 41
1.0
 10
17.99811674916189
 20
39.8648869971348
 30
0.0
 41
0.8971587373399337
 10
18.19740201779579
 20
39.97248443570571
 30
0.0
 41
1.0
  0
SPLINE
  5
197
330
1F
100
AcDbEntity
  8
Default
100
AcDbSpline
210
0.0
220
0.0
230
1.0
 70
    12
 71
     2
 72
     6
 73
     3
 74
     0
 42
0.0000000001
 43
0.0000000001
 40
0.0
 40
0.0
 40
0.0
 40
0.1234961689395858
 40
0.1234961689395858
 40
0.1234961689395858
 10
18.19740201779579
 20
39.97248443570571
 30
0.0
 41
1.0
 10
18.25205082008259
 20
40.00202222986763
 30
0.0
 41
0.9910177399897298
 10
18.31258273975665
 20
40.01598149256309
 30
0.0
 41
0.9999998701185537
  0
LINE
  5
198
330
1F
100
AcDbEntity
  8
Default
100
AcDbLine
 10
18.31258273975666
 20
40.01598149256309
 30
0.0
 11
18.93648289994217
 21
40.14513280602171
 31
0.0
  0
ARC
  5
199
330
1F
100
AcDbEntity
  8
Default
100
AcDbCircle
 10
19.08164620580822
 20
39.36196575063462
 30
0.0
 40
0.796506762063976
100
AcDbArc
 50
91.13259797477671
 51
100.5008396838767
  0
SPLINE
  5
19A
330
1F
100
AcDbEntity
  8
Default
100
AcDbSpline
210
0.0
220
0.0
230
1.0
 70
     8
 71
     3
 72
    12
 73
     8
 74
     0
 42
0.0000000001
 43
0.0000000001
 40
-2.606006201869095
 40
-2.606006201869095
 40
-2.606006201869095
 40
-2.606006201869095
 40
-2.062103506473873
 40
-1.535302400419122
 40
-0.9140405444755764
 40
-0.4920948819900433
 40
0.0
 40
0.0
 40
0.0
 40
0.0
 10
19.06590223299307
 20
40.15831689763802
 30
0.0
 10
19.24492492308368
 20
40.15791477464478
 30
0.0
 10
19.6104915610391
 20
40.08528460866606
 30
0.0
 10
20.03482546292226
 20
39.68454990559058
 30
0.0
 10
20.19933950388764
 20
39.17543017801674
 30
0.0
 10
20.29648674621092
 20
38.67734796766896
 30
0.0
 10
20.32856299534479
 20
38.37148887430263
 30
0.0
 10
20.34282907910721
 20
38.2088363282303
 30
0.0
  0
SPLINE
  5
19B
330
1F
100
AcDbEntity
  8
Default
100
AcDbSpline
210
0.0
220
0.0
230
1.0
 70
     8
 71
     3
 72
    15
 73
    11
 74
     0
 42
0.0000000001
 43
0.0000000001
 40
-21.83709541928446
 40
-21.83709541928446
 40
-21.83709541928446
 40
-21.83709541928446
 40
-15.86097707733612
 40
-13.51735338496346
 40
-11.52407042396374
 40
-10.56956849323673
 40
-9.591457002415686
 40
-6.705726068325542
 40
-3.609035176853501
 40
0.0
 40
0.0
 40
0.0
 40
0.0
 10
20.34282907910721
 20
38.2088363282303
 30
0.0
 10
20.50003551912408
 20
36.22336032453476
 30
0.0
 10
20.85416929699726
 20
33.46611664138997
 30
0.0
 10
21.72202724375577
 20
30.13349405455415
 30
0.0
 10
22.40452680875428
 20
28.50205629314152
 30
0.0
 10
23.04977094725452
 20
27.36147117034538
 30
0.0
 10
23.96361029578733
 20
26.04003844593915
 30
0.0
 10
25.40832946140817
 20
24.22201798338066
 30
0.0
 10
27.56554555697419
 20
21.86069488791483
 30
0.0
 10
29.15784089692544
 20
20.29096768966557
 30
0.0
 10
30.02754244106941
 20
19.45842045157401
 30
0.0
  0
SPLINE
  5
19C
330
1F
100
AcDbEntity
  8
Default
100
AcDbSpline
210
0.0
220
0.0
230
1.0
 70
     8
 71
     3
 72
    12
 73
     8
 74
     0
 42
0.0000000001
 43
0.0000000001
 40
-5.412612014507102
 40
-5.412612014507102
 40
-5.412612014507102
 40
-5.412612014507102
 40
-3.494198309793693
 40
-2.478600565121187
 40
-1.284359084682002
 40
-0.6842630651034578
 40
0.0
 40
0.0
 40
0.0
 40
0.0
 10
30.02754244106941
 20
19.45842045157401
 30
0.0
 10
30.49498508364886
 20
19.02114516060558
 30
0.0
 10
31.19788938453853
 20
18.33892759535846
 30
0.0
 10
32.28020611562203
 20
17.48671499341415
 30
0.0
 10
33.09581193977805
 20
17.01876639547498
 30
0.0
 10
33.84532852870996
 20
16.67339506710234
 30
0.0
 10
34.24743530355739
 20
16.52314664672657
 30
0.0
 10
34.46118406718892
 20
16.44460176296018
 30
0.0
  0
SPLINE
  5
19D
330
1F
100
AcDbEntity
  8
Default
100
AcDbSpline
210
0.0
220
0.0
230
1.0
 70
     8
 71
     3
 72
     8
 73
     4
 74
     0
 42
0.0000000001
 43
0.0000000001
 40
-1.0
 40
-1.0
 40
-1.0
 40
-1.0
 40
0.0
 40
0.0
 40
0.0
 40
0.0
 10
34.46118406718892
 20
16.44460176296018
 30
0.0
 10
34.68849608465427
 20
16.36107287751925
 30
0.0
 10
34.9185945420035
 20
16.2852005337301
 30
0.0
 10
35.14906025444952
 20
16.21081381869353
 30
0.0
  0
SPLINE
  5
19E
330
1F
100
AcDbEntity
  8
Default
100
AcDbSpline
210
0.0
220
0.0
230
1.0
 70
    12
 71
     2
 72
     6
 73
     3
 74
     0
 42
0.0000000001
 43
0.0000000001
 40
-1.676263070515252
 40
-1.676263070515252
 40
-1.676263070515252
 40
0.0
 40
0.0
 40
0.0
 10
35.14906025444952
 20
16.21081381869353
 30
0.0
 41
1.0
 10
35.94832777186673
 20
15.95283668003335
 30
0.0
 41
0.9968989068340275
 10
36.77863217731805
 20
15.82340405361022
 30
0.0
 41
1.0
  0
SPLINE
  5
19F
330
1F
100
AcDbEntity
  8
Default
100
AcDbSpline
210
0.0
220
0.0
230
1.0
 70
     8
 71
     3
 72
    12
 73
     8
 74
     0
 42
0.0000000001
 43
0.0000000001
 40
-6.331181159550773
 40
-6.331181159550773
 40
-6.331181159550773
 40
-6.331181159550773
 40
-4.733676321125997
 40
-2.795445328871188
 40
-1.366340297010643
 40
-0.6888967342434948
 40
0.0
 40
0.0
 40
0.0
 40
0.0
 10
36.77863217731805
 20
15.82340405361022
 30
0.0
 10
37.30594680567904
 20
15.74529402316541
 30
0.0
 10
38.47763941107402
 20
15.61682609472777
 30
0.0
 10
40.12708193478581
 20
15.47955588906122
 30
0.0
 10
41.47408230708788
 20
15.41547281708769
 30
0.0
 10
42.40603502371972
 20
15.40820885233712
 30
0.0
 10
42.86139813470013
 20
15.41386203844412
 30
0.0
 10
43.09098137517181
 20
15.41979141805387
 30
0.0
  0
SPLINE
  5
1A0
330
1F
100
AcDbEntity
  8
Default
100
AcDbSpline
210
0.0
220
0.0
230
1.0
 70
     8
 71
     3
 72
     8
 73
     4
 74
     0
 42
0.0000000001
 43
0.0000000001
 40
-1.0
 40
-1.0
 40
-1.0
 40
-1.0
 40
0.0
 40
0.0
 40
0.0
 40
0.0
 10
43.09098137517181
 20
15.41979141805387
 30
0.0
 10
43.45114213074717
 20
15.42909318518615
 30
0.0
 10
43.81154569269159
 20
15.4277655134701
 30
0.0
 10
44.17165575249965
 20
15.43885774288656
 30
0.0
  0
SPLINE
  5
1A1
330
1F
100
AcDbEntity
  8
Default
100
AcDbSpline
210
0.0
220
0.0
230
1.0
 70
     8
 71
     3
 72
    14
 73
    10
 74
     0
 42
0.0000000001
 43
0.0000000001
 40
-7.0
 40
-7.0
 40
-7.0
 40
-7.0
 40
-6.0
 40
-5.0
 40
-4.0
 40
-3.0
 40
-2.0
 40
-1.0
 40
0.0
 40
0.0
 40
0.0
 40
0.0
 10
44.17165575249965
 20
15.43885774288656
 30
0.0
 10
44.30520857651201
 20
15.44297148123631
 30
0.0
 10
44.5723545558051
 20
15.44837522095171
 30
0.0
 10
44.97334570413465
 20
15.44679032096438
 30
0.0
 10
45.37355032376616
 20
15.43362111167734
 30
0.0
 10
45.77534410358665
 20
15.40907790803973
 30
0.0
 10
46.16784792656758
 20
15.36560450377796
 30
0.0
 10
46.58894572749119
 20
15.32470334298809
 30
0.0
 10
46.73368681781036
 20
15.05402096440057
 30
0.0
 10
46.73913391404765
 20
14.92241994332391
 30
0.0
  0
SPLINE
  5
1A2
330
1F
100
AcDbEntity
  8
Default
100
AcDbSpline
210
0.0
220
0.0
230
1.0
 70
     8
 71
     3
 72
    17
 73
    13
 74
     0
 42
0.0000000001
 43
0.0000000001
 40
0.0
 40
0.0
 40
0.0
 40
0.0
 40
1.0
 40
2.0
 40
3.0
 40
4.0
 40
5.0
 40
6.0
 40
7.0
 40
8.0
 40
9.0
 40
9.211604090803995
 40
9.211604090803995
 40
9.211604090803995
 40
9.211604090803995
 10
46.73913391404765
 20
14.92241994332391
 30
0.0
 10
46.75082924903668
 20
14.64523602504126
 30
0.0
 10
46.4223739236115
 20
14.19229798378595
 30
0.0
 10
45.76429032143022
 20
13.74474960776262
 30
0.0
 10
45.04966246103691
 20
13.38802975651108
 30
0.0
 10
44.31483933670435
 20
13.08033414048886
 30
0.0
 10
43.56671296667339
 20
12.80563016950029
 30
0.0
 10
42.81088646498386
 20
12.55342904701745
 30
0.0
 10
42.04701947076509
 20
12.3265126911907
 30
0.0
 10
41.27639191809123
 20
12.12391725987363
 30
0.0
 10
40.70470308693454
 20
11.988967849872
 30
0.0
 10
40.39038025520068
 20
11.92011576458571
 30
0.0
 10
40.33545102023343
 20
11.90824518261538
 30
0.0
  0
SPLINE
  5
1A3
330
1F
100
AcDbEntity
  8
Default
100
AcDbSpline
210
0.0
220
0.0
230
1.0
 70
     8
 71
     3
 72
    32
 73
    28
 74
     0
 42
0.0000000001
 43
0.0000000001
 40
0.0
 40
0.0
 40
0.0
 40
0.0
 40
0.6424106210978217
 40
1.298318980594535
 40
1.468720655577004
 40
1.876899736031634
 40
4.922730948266024
 40
7.518234996431048
 40
9.414146423882848
 40
9.650465074221067
 40
10.16737509444177
 40
11.17511187797939
 40
12.27047498261846
 40
12.79407765966534
 40
13.06111085975148
 40
13.75139800275023
 40
17.85756791929135
 40
19.73368215550339
 40
20.71077241959481
 40
21.313976935579
 40
21.94927503485069
 40
22.40261661001096
 40
22.4631788319427
 40
22.81476421675537
 40
23.12397591297002
 40
24.03366187863583
 40
24.83721965664489
 40
24.83721965664489
 40
24.83721965664489
 40
24.83721965664489
 10
8.449831579929866
 20
39.4336471782269
 30
0.0
 10
8.577051968411725
 20
39.26118259981579
 30
0.0
 10
8.768140081120931
 20
38.86571718890065
 30
0.0
 10
8.822353621409734
 20
38.37198004836259
 30
0.0
 10
8.779995385131828
 20
37.96249166534538
 30
0.0
 10
8.627800300787724
 20
36.7640337218878
 30
0.0
 10
8.391799301892467
 20
34.76130798482792
 30
0.0
 10
8.071300827207208
 20
32.2694171180953
 30
0.0
 10
7.867906857596415
 20
30.70669723652711
 30
0.0
 10
7.746569814725005
 20
29.83198692942842
 30
0.0
 10
7.722643675223042
 20
29.24432385731114
 30
0.0
 10
7.792442883691896
 20
28.37169314736209
 30
0.0
 10
8.000061796427103
 20
27.51789852389818
 30
0.0
 10
8.201188386114014
 20
26.92274751110617
 30
0.0
 10
8.383180143152826
 20
26.4634629088112
 30
0.0
 10
8.989289199736357
 20
24.88853216927499
 30
0.0
 10
9.804252954030476
 20
22.81864059362456
 30
0.0
 10
10.66343113982082
 20
20.6640583580473
 30
0.0
 10
11.095456779335
 20
19.59588662320378
 30
0.0
 10
11.37303393804173
 20
18.91155301990482
 30
0.0
 10
11.58676694029363
 20
18.38964536452502
 30
0.0
 10
11.73272140948807
 20
18.03548845064274
 30
0.0
 10
11.8426905758851
 20
17.76876760648542
 30
0.0
 10
11.93757348974656
 20
17.54813461327323
 30
0.0
 10
12.12721863800258
 20
17.05902206657599
 30
0.0
 10
12.27914715764935
 20
16.39941675081837
 30
0.0
 10
12.26850423649409
 20
15.76119408004288
 30
0.0
 10
12.2069573416295
 20
15.49983406078165
 30
0.0
  0
SPLINE
  5
1A4
330
1F
100
AcDbEntity
  8
Default
100
AcDbSpline
210
0.0
220
0.0
230
1.0
 70
     8
 71
     3
 72
    13
 73
     9
 74
     0
 42
0.0000000001
 43
0.0000000001
 40
-24.0
 40
-24.0
 40
-24.0
 40
-24.0
 40
-23.0
 40
-22.0
 40
-21.0
 40
-20.0
 40
-19.0
 40
-18.56609433129516
 40
-18.56609433129516
 40
-18.56609433129516
 40
-18.56609433129516
 10
12.2069573416295
 20
15.49983406078165
 30
0.0
 10
12.11998345337332
 20
15.13049784715348
 30
0.0
 10
11.79214251257317
 20
14.3583267779215
 30
0.0
 10
10.95577255845214
 20
13.55913253501983
 30
0.0
 10
9.98438956080137
 20
12.95799938740487
 30
0.0
 10
8.959272776780995
 20
12.45453369630879
 30
0.0
 10
8.097910732256436
 20
12.11366857894708
 30
0.0
 10
7.579128243378927
 20
11.94541313439558
 30
0.0
 10
7.421254578517276
 20
11.8973886018033
 30
0.0
  0
SPLINE
  5
1A5
330
1F
100
AcDbEntity
  8
Default
100
AcDbSpline
210
0.0
220
0.0
230
1.0
 70
     8
 71
     3
 72
    13
 73
     9
 74
     0
 42
0.0000000001
 43
0.0000000001
 40
-5.433905668704385
 40
-5.433905668704385
 40
-5.433905668704385
 40
-5.433905668704385
 40
-5.0
 40
-4.0
 40
-3.0
 40
-2.0
 40
-1.0
 40
0.0
 40
0.0
 40
0.0
 40
0.0
 10
-7.421254578517939
 20
11.89738860180276
 30
0.0
 10
-7.579128243379427
 20
11.94541313439497
 30
0.0
 10
-8.097910732256784
 20
12.11366857894638
 30
0.0
 10
-8.959272776781216
 20
12.45453369630795
 30
0.0
 10
-9.984389560801636
 20
12.95799938740393
 30
0.0
 10
-10.95577255845246
 20
13.5591325350188
 30
0.0
 10
-11.79214251257357
 20
14.3583267779204
 30
0.0
 10
-12.11998345337355
 20
15.13049784715292
 30
0.0
 10
-12.20695734162975
 20
15.49983406078108
 30
0.0
  0
SPLINE
  5
1A6
330
1F
100
AcDbEntity
  8
Default
100
AcDbSpline
210
0.0
220
0.0
230
1.0
 70
     8
 71
     3
 72
    32
 73
    28
 74
     0
 42
0.0000000001
 43
0.0000000001
 40
-24.83721965664489
 40
-24.83721965664489
 40
-24.83721965664489
 40
-24.83721965664489
 40
-24.03366187863583
 40
-23.12397591297002
 40
-22.81476421675537
 40
-22.4631788319427
 40
-22.40261661001096
 40
-21.94927503485069
 40
-21.313976935579
 40
-20.71077241959481
 40
-19.73368215550339
 40
-17.85756791929135
 40
-13.75139800275023
 40
-13.06111085975148
 40
-12.79407765966534
 40
-12.27047498261846
 40
-11.17511187797939
 40
-10.16737509444177
 40
-9.650465074221067
 40
-9.414146423882848
 40
-7.518234996431048
 40
-4.922730948266024
 40
-1.876899736031634
 40
-1.468720655577004
 40
-1.298318980594535
 40
-0.6424106210978217
 40
0.0
 40
0.0
 40
0.0
 40
0.0
 10
-12.20695734162975
 20
15.49983406078108
 30
0.0
 10
-12.26850423649435
 20
15.7611940800423
 30
0.0
 10
-12.27914715764935
 20
16.39941675081837
 30
0.0
 10
-12.12721863800258
 20
17.05902206657599
 30
0.0
 10
-11.93757348974656
 20
17.54813461327323
 30
0.0
 10
-11.8426905758851
 20
17.76876760648542
 30
0.0
 10
-11.73272140948807
 20
18.03548845064274
 30
0.0
 10
-11.58676694029363
 20
18.38964536452502
 30
0.0
 10
-11.37303393804173
 20
18.91155301990482
 30
0.0
 10
-11.095456779335
 20
19.59588662320378
 30
0.0
 10
-10.66343113982082
 20
20.6640583580473
 30
0.0
 10
-9.804252954030476
 20
22.81864059362456
 30
0.0
 10
-8.989289199736357
 20
24.88853216927499
 30
0.0
 10
-8.383180143152826
 20
26.4634629088112
 30
0.0
 10
-8.201188386114014
 20
26.92274751110617
 30
0.0
 10
-8.000061796427103
 20
27.51789852389818
 30
0.0
 10
-7.792442883691896
 20
28.37169314736209
 30
0.0
 10
-7.722643675223042
 20
29.24432385731114
 30
0.0
 10
-7.746569814725005
 20
29.83198692942842
 30
0.0
 10
-7.867906857596415
 20
30.70669723652711
 30
0.0
 10
-8.071300827207208
 20
32.2694171180953
 30
0.0
 10
-8.391799301892467
 20
34.76130798482792
 30
0.0
 10
-8.627800300787724
 20
36.7640337218878
 30
0.0
 10
-8.779995385131828
 20
37.96249166534538
 30
0.0
 10
-8.822353621409734
 20
38.37198004836259
 30
0.0
 10
-8.768140081120931
 20
38.86571718890065
 30
0.0
 10
-8.577051968411725
 20
39.26118259981579
 30
0.0
 10
-8.449831579929866
 20
39.4336471782269
 30
0.0
  0
ENDSEC
  0
SECTION
  2
OBJECTS
  0
DICTIONARY
  5
C
330
0
100
AcDbDictionary
281
     1
  3
ACAD_GROUP
350
D
  3
ACAD_LAYOUT
350
1A
  3
ACAD_MLEADERSTYLE
350
1A8
  3
ACAD_MLINESTYLE
350
17
  3
ACAD_PLOTSETTINGS
350
19
  3
ACAD_PLOTSTYLENAME
350
E
  3
ACAD_TABLESTYLE
350
1A7
  3
ACAD_VISUALSTYLE
350
2A
  0
DICTIONARY
  5
D
102
{ACAD_REACTORS
330
C
102
}
330
C
100
AcDbDictionary
281
     1
  0
DICTIONARY
  5
1A
102
{ACAD_REACTORS
330
C
102
}
330
C
100
AcDbDictionary
281
     1
  3
Layout1
350
1E
  3
Layout2
350
26
  3
Model
350
22
  0
DICTIONARY
  5
1A8
102
{ACAD_REACTORS
330
C
102
}
330
C
100
AcDbDictionary
281
     1
  0
DICTIONARY
  5
17
102
{ACAD_REACTORS
330
C
102
}
330
C
100
AcDbDictionary
281
     1
  3
Standard
350
18
  0
DICTIONARY
  5
19
102
{ACAD_REACTORS
330
C
102
}
330
C
100
AcDbDictionary
281
     1
  0
ACDBDICTIONARYWDFLT
  5
E
102
{ACAD_REACTORS
330
C
102
}
330
C
100
AcDbDictionary
281
     1
  3
Normal
350
F
100
AcDbDictionaryWithDefault
340
F
  0
DICTIONARY
  5
1A7
102
{ACAD_REACTORS
330
C
102
}
330
C
100
AcDbDictionary
281
     1
  0
DICTIONARY
  5
2A
102
{ACAD_REACTORS
330
C
102
}
330
C
100
AcDbDictionary
281
     1
  3
2dWireframe
350
2F
  3
3D Hidden
350
31
  3
3dWireframe
350
30
  3
Basic
350
32
  3
Brighten
350
36
  3
ColorChange
350
3A
  3
Conceptual
350
34
  3
Dim
350
35
  3
Facepattern
350
39
  3
Flat
350
2B
  3
FlatWithEdges
350
2C
  3
Gouraud
350
2D
  3
GouraudWithEdges
350
2E
  3
Linepattern
350
38
  3
Realistic
350
33
  3
Thicken
350
37
  0
LAYOUT
  5
1E
102
{ACAD_REACTORS
330
1A
102
}
330
1A
100
AcDbPlotSettings
  1

  2
none_device
  4

  6

 40
0.0
 41
0.0
 42
0.0
 43
0.0
 44
0.0
 45
0.0
 46
0.0
 47
0.0
 48
0.0
 49
0.0
140
0.0
141
0.0
142
1.0
143
1.0
 70
   688
 72
     0
 73
     0
 74
     5
  7

 75
    16
 76
     0
 77
     2
 78
   300
147
1.0
148
0.0
149
0.0
100
AcDbLayout
  1
Layout1
 70
     1
 71
     1
 10
0.0
 20
0.0
 11
12.0
 21
9.0
 12
0.0
 22
0.0
 32
0.0
 14
1.000000000000000E+20
 24
1.000000000000000E+20
 34
1.000000000000000E+20
 15
-1.000000000000000E+20
 25
-1.000000000000000E+20
 35
-1.000000000000000E+20
146
0.0
 13
0.0
 23
0.0
 33
0.0
 16
1.0
 26
0.0
 36
0.0
 17
0.0
 27
1.0
 37
0.0
 76
     0
330
1B
  0
LAYOUT
  5
26
102
{ACAD_REACTORS
330
1A
102
}
330
1A
100
AcDbPlotSettings
  1

  2
none_device
  4

  6

 40
0.0
 41
0.0
 42
0.0
 43
0.0
 44
0.0
 45
0.0
 46
0.0
 47
0.0
 48
0.0
 49
0.0
140
0.0
141
0.0
142
1.0
143
1.0
 70
   688
 72
     0
 73
     0
 74
     5
  7

 75
    16
 76
     0
 77
     2
 78
   300
147
1.0
148
0.0
149
0.0
100
AcDbLayout
  1
Layout2
 70
     1
 71
     2
 10
0.0
 20
0.0
 11
0.0
 21
0.0
 12
0.0
 22
0.0
 32
0.0
 14
0.0
 24
0.0
 34
0.0
 15
0.0
 25
0.0
 35
0.0
146
0.0
 13
0.0
 23
0.0
 33
0.0
 16
1.0
 26
0.0
 36
0.0
 17
0.0
 27
1.0
 37
0.0
 76
     0
330
23
  0
LAYOUT
  5
22
102
{ACAD_REACTORS
330
1A
102
}
330
1A
100
AcDbPlotSettings
  1

  2
none_device
  4

  6

 40
0.0
 41
0.0
 42
0.0
 43
0.0
 44
0.0
 45
0.0
 46
0.0
 47
0.0
 48
0.0
 49
0.0
140
0.0
141
0.0
142
1.0
143
1.0
 70
  1712
 72
     0
 73
     0
 74
     0
  7

 75
     0
 76
     0
 77
     2
 78
   300
147
1.0
148
0.0
149
0.0
100
AcDbLayout
  1
Model
 70
     1
 71
     0
 10
0.0
 20
0.0
 11
12.0
 21
9.0
 12
0.0
 22
0.0
 32
0.0
 14
-12.26318283884851
 24
-0.0017796313076643
 34
0.0
 15
47.63692345242365
 25
76.27360139964283
 35
0.0
146
0.0
 13
0.0
 23
0.0
 33
0.0
 16
1.0
 26
0.0
 36
0.0
 17
0.0
 27
1.0
 37
0.0
 76
     0
330
1F
331
29
  0
MLINESTYLE
  5
18
102
{ACAD_REACTORS
330
17
102
}
330
17
100
AcDbMlineStyle
  2
Standard
 70
     0
  3

 62
   256
 51
90.0
 52
90.0
 71
     2
 49
0.5
 62
   256
  6
BYLAYER
 49
-0.5
 62
   256
  6
BYLAYER
  0
ACDBPLACEHOLDER
  5
F
102
{ACAD_REACTORS
330
E
102
}
330
E
  0
VISUALSTYLE
  5
2F
102
{ACAD_REACTORS
330
2A
102
}
330
2A
100
AcDbVisualStyle
  2
2dWireframe
 70
     4
 71
     0
 72
     2
 73
     0
 90
        0
 40
-0.6
 41
-30.0
 62
     5
 63
     7
421
 16777215
 74
     1
 91
        4
 64
     7
 65
   257
 75
     1
175
     1
 42
1.0
 92
        0
 66
   257
 43
1.0
 76
     1
 77
     6
 78
     2
 67
     7
 79
     5
170
     0
171
     0
290
     0
174
     0
 93
        1
 44
0.0
173
     0
291
     0
 45
0.0
1001
ACAD
1000
AcDbSavedByObjectVersion
1070
     0
  0
VISUALSTYLE
  5
31
102
{ACAD_REACTORS
330
2A
102
}
330
2A
100
AcDbVisualStyle
  2
3D Hidden
 70
     6
 71
     1
 72
     2
 73
     2
 90
        0
 40
-0.6
 41
-30.0
 62
     5
 63
     7
421
 16777215
 74
     2
 91
        2
 64
     7
 65
   257
 75
     2
175
     1
 42
40.0
 92
        0
 66
   257
 43
1.0
 76
     1
 77
     6
 78
     2
 67
     7
 79
     3
170
     0
171
     0
290
     0
174
     0
 93
        1
 44
0.0
173
     0
291
     0
 45
0.0
1001
ACAD
1000
AcDbSavedByObjectVersion
1070
     0
  0
VISUALSTYLE
  5
30
102
{ACAD_REACTORS
330
2A
102
}
330
2A
100
AcDbVisualStyle
  2
3dWireframe
 70
     5
 71
     0
 72
     2
 73
     0
 90
        0
 40
-0.6
 41
-30.0
 62
     5
 63
     7
421
 16777215
 74
     1
 91
        4
 64
     7
 65
   257
 75
     1
175
     1
 42
1.0
 92
        0
 66
   257
 43
1.0
 76
     1
 77
     6
 78
     2
 67
     7
 79
     5
170
     0
171
     0
290
     0
174
     0
 93
        1
 44
0.0
173
     0
291
     0
 45
0.0
1001
ACAD
1000
AcDbSavedByObjectVersion
1070
     0
  0
VISUALSTYLE
  5
32
102
{ACAD_REACTORS
330
2A
102
}
330
2A
100
AcDbVisualStyle
  2
Basic
 70
     7
 71
     1
 72
     0
 73
     1
 90
        0
 40
-0.6
 41
-30.0
 62
     5
 63
     7
421
 16777215
 74
     0
 91
        4
 64
     7
 65
   257
 75
     1
175
     1
 42
1.0
 92
        8
 66
     7
 43
1.0
 76
     1
 77
     6
 78
     2
 67
     7
 79
     5
170
     0
171
     0
290
     0
174
     0
 93
        1
 44
0.0
173
     0
291
     1
 45
0.0
1001
ACAD
1000
AcDbSavedByObjectVersion
1070
     0
  0
VISUALSTYLE
  5
36
102
{ACAD_REACTORS
330
2A
102
}
330
2A
100
AcDbVisualStyle
  2
Brighten
 70
    12
 71
     2
 72
     2
 73
     0
 90
        0
 40
-0.6
 41
-30.0
 62
     5
 63
     7
421
 16777215
 74
     1
 91
        4
 64
     7
 65
   257
 75
     1
175
     1
 42
1.0
 92
        8
 66
     7
 43
1.0
 76
     1
 77
     6
 78
     2
 67
     7
 79
     5
170
     0
171
     0
290
     0
174
     0
 93
        1
 44
50.0
173
     0
291
     1
 45
0.0
1001
ACAD
1000
AcDbSavedByObjectVersion
1070
     0
  0
VISUALSTYLE
  5
3A
102
{ACAD_REACTORS
330
2A
102
}
330
2A
100
AcDbVisualStyle
  2
ColorChange
 70
    16
 71
     2
 72
     2
 73
     3
 90
        0
 40
-0.6
 41
-30.0
 62
     5
 63
     8
421
  8421504
 74
     1
 91
        4
 64
     7
 65
   257
 75
     1
175
     1
 42
1.0
 92
        8
 66
     8
424
  8421504
 43
1.0
 76
     1
 77
     6
 78
     2
 67
     7
 79
     5
170
     0
171
     0
290
     0
174
     0
 93
        1
 44
0.0
173
     0
291
     1
 45
0.0
1001
ACAD
1000
AcDbSavedByObjectVersion
1070
     0
  0
VISUALSTYLE
  5
34
102
{ACAD_REACTORS
330
2A
102
}
330
2A
100
AcDbVisualStyle
  2
Conceptual
 70
     9
 71
     3
 72
     2
 73
     0
 90
        0
 40
-0.6
 41
-30.0
 62
     5
 63
     7
421
 16777215
 74
     2
 91
        2
 64
     7
 65
   257
 75
     1
175
     1
 42
40.0
 92
        8
 66
     7
 43
1.0
 76
     1
 77
     6
 78
     2
 67
     7
 79
     3
170
     0
171
     0
290
     0
174
     0
 93
        1
 44
0.0
173
     0
291
     0
 45
0.0
1001
ACAD
1000
AcDbSavedByObjectVersion
1070
     0
  0
VISUALSTYLE
  5
35
102
{ACAD_REACTORS
330
2A
102
}
330
2A
100
AcDbVisualStyle
  2
Dim
 70
    11
 71
     2
 72
     2
 73
     0
 90
        0
 40
-0.6
 41
-30.0
 62
     5
 63
     7
421
 16777215
 74
     1
 91
        4
 64
     7
 65
   257
 75
     1
175
     1
 42
1.0
 92
        8
 66
     7
 43
1.0
 76
     1
 77
     6
 78
     2
 67
     7
 79
     5
170
     0
171
     0
290
     0
174
     0
 93
        1
 44
-50.0
173
     0
291
     1
 45
0.0
1001
ACAD
1000
AcDbSavedByObjectVersion
1070
     0
  0
VISUALSTYLE
  5
39
102
{ACAD_REACTORS
330
2A
102
}
330
2A
100
AcDbVisualStyle
  2
Facepattern
 70
    15
 71
     2
 72
     2
 73
     0
 90
        0
 40
-0.6
 41
-30.0
 62
     5
 63
     7
421
 16777215
 74
     1
 91
        4
 64
     7
 65
   257
 75
     1
175
     1
 42
1.0
 92
        8
 66
     7
 43
1.0
 76
     1
 77
     6
 78
     2
 67
     7
 79
     5
170
     0
171
     0
290
     0
174
     0
 93
        1
 44
0.0
173
     0
291
     1
 45
0.0
1001
ACAD
1000
AcDbSavedByObjectVersion
1070
     0
  0
VISUALSTYLE
  5
2B
102
{ACAD_REACTORS
330
2A
102
}
330
2A
100
AcDbVisualStyle
  2
Flat
 70
     0
 71
     2
 72
     1
 73
     1
 90
        2
 40
-0.6
 41
30.0
 62
     5
 63
     7
421
 16777215
 74
     0
 91
        4
 64
     7
 65
   257
 75
     1
175
     1
 42
1.0
 92
        8
 66
     7
 43
1.0
 76
     1
 77
     6
 78
     2
 67
     7
 79
     5
170
     0
171
     0
290
     0
174
     0
 93
       13
 44
0.0
173
     0
291
     1
 45
0.0
1001
ACAD
1000
AcDbSavedByObjectVersion
1070
     0
  0
VISUALSTYLE
  5
2C
102
{ACAD_REACTORS
330
2A
102
}
330
2A
100
AcDbVisualStyle
  2
FlatWithEdges
 70
     1
 71
     2
 72
     1
 73
     1
 90
        2
 40
-0.6
 41
30.0
 62
     5
 63
     7
421
 16777215
 74
     1
 91
        4
 64
     7
 65
   257
 75
     1
175
     1
 42
1.0
 92
        0
 66
   257
 43
1.0
 76
     1
 77
     6
 78
     2
 67
     7
 79
     5
170
     0
171
     0
290
     0
174
     0
 93
       13
 44
0.0
173
     0
291
     1
 45
0.0
1001
ACAD
1000
AcDbSavedByObjectVersion
1070
     0
  0
VISUALSTYLE
  5
2D
102
{ACAD_REACTORS
330
2A
102
}
330
2A
100
AcDbVisualStyle
  2
Gouraud
 70
     2
 71
     2
 72
     2
 73
     1
 90
        2
 40
-0.6
 41
30.0
 62
     5
 63
     7
421
 16777215
 74
     0
 91
        4
 64
     7
 65
   257
 75
     1
175
     1
 42
1.0
 92
        0
 66
     7
 43
1.0
 76
     1
 77
     6
 78
     2
 67
     7
 79
     5
170
     0
171
     0
290
     0
174
     0
 93
       13
 44
0.0
173
     0
291
     1
 45
0.0
1001
ACAD
1000
AcDbSavedByObjectVersion
1070
     0
  0
VISUALSTYLE
  5
2E
102
{ACAD_REACTORS
330
2A
102
}
330
2A
100
AcDbVisualStyle
  2
GouraudWithEdges
 70
     3
 71
     2
 72
     2
 73
     1
 90
        2
 40
-0.6
 41
30.0
 62
     5
 63
     7
421
 16777215
 74
     1
 91
        4
 64
     7
 65
   257
 75
     1
175
     1
 42
1.0
 92
        0
 66
   257
 43
1.0
 76
     1
 77
     6
 78
     2
 67
     7
 79
     5
170
     0
171
     0
290
     0
174
     0
 93
       13
 44
0.0
173
     0
291
     1
 45
0.0
1001
ACAD
1000
AcDbSavedByObjectVersion
1070
     0
  0
VISUALSTYLE
  5
38
102
{ACAD_REACTORS
330
2A
102
}
330
2A
100
AcDbVisualStyle
  2
Linepattern
 70
    14
 71
     2
 72
     2
 73
     0
 90
        0
 40
-0.6
 41
-30.0
 62
     5
 63
     7
421
 16777215
 74
     1
 91
        4
 64
     7
 65
   257
 75
     7
175
     7
 42
1.0
 92
        8
 66
     7
 43
1.0
 76
     1
 77
     6
 78
     2
 67
     7
 79
     5
170
     0
171
     0
290
     0
174
     0
 93
        1
 44
0.0
173
     0
291
     1
 45
0.0
1001
ACAD
1000
AcDbSavedByObjectVersion
1070
     0
  0
VISUALSTYLE
  5
33
102
{ACAD_REACTORS
330
2A
102
}
330
2A
100
AcDbVisualStyle
  2
Realistic
 70
     8
 71
     2
 72
     2
 73
     0
 90
        0
 40
-0.6
 41
-30.0
 62
     5
 63
     7
421
 16777215
 74
     1
 91
        0
 64
     7
 65
   257
 75
     1
175
     1
 42
1.0
 92
        8
 66
     8
424
  7895160
 43
1.0
 76
     1
 77
     6
 78
     2
 67
     7
 79
     5
170
     0
171
     0
290
     0
174
     0
 93
       13
 44
0.0
173
     0
291
     0
 45
0.0
1001
ACAD
1000
AcDbSavedByObjectVersion
1070
     0
  0
VISUALSTYLE
  5
37
102
{ACAD_REACTORS
330
2A
102
}
330
2A
100
AcDbVisualStyle
  2
Thicken
 70
    13
 71
     2
 72
     2
 73
     0
 90
        0
 40
-0.6
 41
-30.0
 62
     5
 63
     7
421
 16777215
 74
     1
 91
        4
 64
     7
 65
   257
 75
     1
175
     1
 42
1.0
 92
       12
 66
     7
 43
1.0
 76
     1
 77
     6
 78
     2
 67
     7
 79
     5
170
     0
171
     0
290
     0
174
     0
 93
        1
 44
0.0
173
     0
291
     1
 45
0.0
1001
ACAD
1000
AcDbSavedByObjectVersion
1070
     0
  0
ENDSEC
  0
EOF
