  0
SECTION
  2
HEADER
  9
$ACADVER
  1
AC1018
  9
$ACADMAINTVER
 70
     0
  9
$DWGCODEPAGE
  3
ANSI_1252
  9
$INSBASE
 10
0.0
 20
0.0
 30
0.0
  9
$EXTMIN
 10
-12.26322613536956
 20
-0.0002651114711827
 30
0.0
  9
$EXTMAX
 10
46.13691708304736
 20
75.78326064178327
 30
0.0
  9
$LIMMIN
 10
0.0
 20
0.0
  9
$LIMMAX
 10
12.0
 20
9.0
  9
$ORTHOMODE
 70
     0
  9
$REGENMODE
 70
     1
  9
$FILLMODE
 70
     1
  9
$QTEXTMODE
 70
     0
  9
$MIRRTEXT
 70
     1
  9
$LTSCALE
 40
0.0393700787401575
  9
$ATTMODE
 70
     1
  9
$TEXTSIZE
 40
0.2
  9
$TRACEWID
 40
0.05
  9
$TEXTSTYLE
  7
Standard
  9
$CLAYER
  8
Default
  9
$CELTYPE
  6
ByLayer
  9
$CECOLOR
 62
   256
  9
$CELTSCALE
 40
1.0
  9
$DISPSILH
 70
     0
  9
$DIMSCALE
 40
1.0
  9
$DIMASZ
 40
0.18
  9
$DIMEXO
 40
0.0625
  9
$DIMDLI
 40
0.38
  9
$DIMRND
 40
0.0
  9
$DIMDLE
 40
0.0
  9
$DIMEXE
 40
0.18
  9
$DIMTP
 40
0.0
  9
$DIMTM
 40
0.0
  9
$DIMTXT
 40
0.18
  9
$DIMCEN
 40
0.09
  9
$DIMTSZ
 40
0.0
  9
$DIMTOL
 70
     0
  9
$DIMLIM
 70
     0
  9
$DIMTIH
 70
     1
  9
$DIMTOH
 70
     1
  9
$DIMSE1
 70
     0
  9
$DIMSE2
 70
     0
  9
$DIMTAD
 70
     0
  9
$DIMZIN
 70
     0
  9
$DIMBLK
  1

  9
$DIMASO
 70
     1
  9
$DIMSHO
 70
     1
  9
$DIMPOST
  1

  9
$DIMAPOST
  1

  9
$DIMALT
 70
     0
  9
$DIMALTD
 70
     2
  9
$DIMALTF
 40
25.4
  9
$DIMLFAC
 40
1.0
  9
$DIMTOFL
 70
     0
  9
$DIMTVP
 40
0.0
  9
$DIMTIX
 70
     0
  9
$DIMSOXD
 70
     0
  9
$DIMSAH
 70
     0
  9
$DIMBLK1
  1

  9
$DIMBLK2
  1

  9
$DIMSTYLE
  2
Standard
  9
$DIMCLRD
 70
     0
  9
$DIMCLRE
 70
     0
  9
$DIMCLRT
 70
     0
  9
$DIMTFAC
 40
1.0
  9
$DIMGAP
 40
0.09
  9
$DIMJUST
 70
     0
  9
$DIMSD1
 70
     0
  9
$DIMSD2
 70
     0
  9
$DIMTOLJ
 70
     1
  9
$DIMTZIN
 70
     0
  9
$DIMALTZ
 70
     0
  9
$DIMALTTZ
 70
     0
  9
$DIMUPT
 70
     0
  9
$DIMDEC
 70
     4
  9
$DIMTDEC
 70
     4
  9
$DIMALTU
 70
     2
  9
$DIMALTTD
 70
     2
  9
$DIMTXSTY
  7
Standard
  9
$DIMAUNIT
 70
     0
  9
$DIMADEC
 70
     0
  9
$DIMALTRND
 40
0.0
  9
$DIMAZIN
 70
     0
  9
$DIMDSEP
 70
    46
  9
$DIMATFIT
 70
     3
  9
$DIMFRAC
 70
     0
  9
$DIMLDRBLK
  1

  9
$DIMLUNIT
 70
     2
  9
$DIMLWD
 70
    -2
  9
$DIMLWE
 70
    -2
  9
$DIMTMOVE
 70
     2
  9
$LUNITS
 70
     2
  9
$LUPREC
 70
     3
  9
$SKETCHINC
 40
0.1
  9
$FILLETRAD
 40
0.5
  9
$AUNITS
 70
     0
  9
$AUPREC
 70
     0
  9
$MENU
  1
.
  9
$ELEVATION
 40
0.0
  9
$PELEVATION
 40
0.0
  9
$THICKNESS
 40
0.0
  9
$LIMCHECK
 70
     0
  9
$CHAMFERA
 40
0.5
  9
$CHAMFERB
 40
0.5
  9
$CHAMFERC
 40
1.0
  9
$CHAMFERD
 40
0.0
  9
$SKPOLY
 70
     0
  9
$TDCREATE
 40
2456338.477186019
  9
$TDUCREATE
 40
2456338.685519352
  9
$TDUPDATE
 40
2456338.47718603
  9
$TDUUPDATE
 40
2456338.685519363
  9
$TDINDWG
 40
0.0000000116
  9
$TDUSRTIMER
 40
0.0000000116
  9
$USRTIMER
 70
     1
  9
$ANGBASE
 50
0.0
  9
$ANGDIR
 70
     0
  9
$PDMODE
 70
     0
  9
$PDSIZE
 40
0.0
  9
$PLINEWID
 40
0.0
  9
$SPLFRAME
 70
     0
  9
$SPLINETYPE
 70
     6
  9
$SPLINESEGS
 70
     8
  9
$HANDSEED
  5
10E
  9
$SURFTAB1
 70
     6
  9
$SURFTAB2
 70
     6
  9
$SURFTYPE
 70
     6
  9
$SURFU
 70
     6
  9
$SURFV
 70
     6
  9
$UCSBASE
  2

  9
$UCSNAME
  2

  9
$UCSORG
 10
0.0
 20
0.0
 30
0.0
  9
$UCSXDIR
 10
1.0
 20
0.0
 30
0.0
  9
$UCSYDIR
 10
0.0
 20
1.0
 30
0.0
  9
$UCSORTHOREF
  2

  9
$UCSORTHOVIEW
 70
     0
  9
$UCSORGTOP
 10
0.0
 20
0.0
 30
0.0
  9
$UCSORGBOTTOM
 10
0.0
 20
0.0
 30
0.0
  9
$UCSORGLEFT
 10
0.0
 20
0.0
 30
0.0
  9
$UCSORGRIGHT
 10
0.0
 20
0.0
 30
0.0
  9
$UCSORGFRONT
 10
0.0
 20
0.0
 30
0.0
  9
$UCSORGBACK
 10
0.0
 20
0.0
 30
0.0
  9
$PUCSBASE
  2

  9
$PUCSNAME
  2

  9
$PUCSORG
 10
0.0
 20
0.0
 30
0.0
  9
$PUCSXDIR
 10
1.0
 20
0.0
 30
0.0
  9
$PUCSYDIR
 10
0.0
 20
1.0
 30
0.0
  9
$PUCSORTHOREF
  2

  9
$PUCSORTHOVIEW
 70
     0
  9
$PUCSORGTOP
 10
0.0
 20
0.0
 30
0.0
  9
$PUCSORGBOTTOM
 10
0.0
 20
0.0
 30
0.0
  9
$PUCSORGLEFT
 10
0.0
 20
0.0
 30
0.0
  9
$PUCSORGRIGHT
 10
0.0
 20
0.0
 30
0.0
  9
$PUCSORGFRONT
 10
0.0
 20
0.0
 30
0.0
  9
$PUCSORGBACK
 10
0.0
 20
0.0
 30
0.0
  9
$USERI1
 70
     0
  9
$USERI2
 70
     0
  9
$USERI3
 70
     0
  9
$USERI4
 70
     0
  9
$USERI5
 70
     0
  9
$USERR1
 40
0.0
  9
$USERR2
 40
0.0
  9
$USERR3
 40
0.0
  9
$USERR4
 40
0.0
  9
$USERR5
 40
0.0
  9
$WORLDVIEW
 70
     1
  9
$SHADEDGE
 70
     3
  9
$SHADEDIF
 70
    70
  9
$TILEMODE
 70
     1
  9
$MAXACTVP
 70
    64
  9
$PINSBASE
 10
0.0
 20
0.0
 30
0.0
  9
$PLIMCHECK
 70
     0
  9
$PEXTMIN
 10
1.000000000000000E+20
 20
1.000000000000000E+20
 30
1.000000000000000E+20
  9
$PEXTMAX
 10
-1.000000000000000E+20
 20
-1.000000000000000E+20
 30
-1.000000000000000E+20
  9
$PLIMMIN
 10
0.0
 20
0.0
  9
$PLIMMAX
 10
12.0
 20
9.0
  9
$UNITMODE
 70
     0
  9
$VISRETAIN
 70
     1
  9
$PLINEGEN
 70
     0
  9
$PSLTSCALE
 70
     1
  9
$TREEDEPTH
 70
  3020
  9
$CMLSTYLE
  2
Standard
  9
$CMLJUST
 70
     0
  9
$CMLSCALE
 40
1.0
  9
$PROXYGRAPHICS
 70
     1
  9
$MEASUREMENT
 70
     0
  9
$CELWEIGHT
370
    -1
  9
$ENDCAPS
280
     0
  9
$JOINSTYLE
280
     0
  9
$LWDISPLAY
290
     0
  9
$INSUNITS
 70
     1
  9
$HYPERLINKBASE
  1

  9
$STYLESHEET
  1

  9
$XEDIT
290
     1
  9
$CEPSNTYPE
380
     0
  9
$PSTYLEMODE
290
     1
  9
$FINGERPRINTGUID
  2
{F54DFEB0-E189-4AE7-83AD-25270F8E48BD}
  9
$VERSIONGUID
  2
{FAEB1C32-E019-11D5-929B-00C0DF256EC4}
  9
$EXTNAMES
290
     1
  9
$PSVPSCALE
 40
0.0
  9
$OLESTARTUP
290
     0
  9
$SORTENTS
280
   127
  9
$INDEXCTL
280
     0
  9
$HIDETEXT
280
     1
  9
$XCLIPFRAME
290
     0
  9
$HALOGAP
280
     0
  9
$OBSCOLOR
 70
   257
  9
$OBSLTYPE
280
     0
  9
$INTERSECTIONDISPLAY
280
     0
  9
$INTERSECTIONCOLOR
 70
   257
  9
$DIMASSOC
280
     2
  9
$PROJECTNAME
  1

  0
ENDSEC
  0
SECTION
  2
CLASSES
  0
CLASS
  1
ACDBDICTIONARYWDFLT
  2
AcDbDictionaryWithDefault
  3
ObjectDBX Classes
 90
        0
 91
        4
280
     0
281
     0
  0
CLASS
  1
VISUALSTYLE
  2
AcDbVisualStyle
  3
ObjectDBX Classes
 90
     4095
 91
        4
280
     0
281
     0
  0
ENDSEC
  0
SECTION
  2
TABLES
  0
TABLE
  2
VPORT
  5
8
330
0
100
AcDbSymbolTable
 70
     1
  0
VPORT
  5
29
330
8
100
AcDbSymbolTableRecord
100
AcDbViewportTableRecord
  2
*Active
 70
     0
 10
0.0
 20
0.0
 11
1.0
 21
1.0
 12
16.9368454738389
 22
37.89149776515605
 13
0.0
 23
0.0
 14
0.5
 24
0.5
 15
0.5
 25
0.5
 16
0.0
 26
0.0
 36
1.0
 17
0.0
 27
0.0
 37
0.0
 40
77.29919626831955
 41
0.7706179230636941
 42
50.0
 43
0.0
 44
0.0
 50
0.0
 51
0.0
 71
     0
 72
   100
 73
     1
 74
     3
 75
     0
 76
     0
 77
     0
 78
     0
281
     0
 65
     1
110
0.0
120
0.0
130
0.0
111
1.0
121
0.0
131
0.0
112
0.0
122
1.0
132
0.0
 79
     0
146
0.0
  0
ENDTAB
  0
TABLE
  2
LTYPE
  5
5
330
0
100
AcDbSymbolTable
 70
     1
  0
LTYPE
  5
14
330
5
100
AcDbSymbolTableRecord
100
AcDbLinetypeTableRecord
  2
ByBlock
 70
     0
  3

 72
    65
 73
     0
 40
0.0
  0
LTYPE
  5
15
330
5
100
AcDbSymbolTableRecord
100
AcDbLinetypeTableRecord
  2
ByLayer
 70
     0
  3

 72
    65
 73
     0
 40
0.0
  0
LTYPE
  5
16
330
5
100
AcDbSymbolTableRecord
100
AcDbLinetypeTableRecord
  2
Continuous
 70
     0
  3
Solid line
 72
    65
 73
     0
 40
0.0
  0
ENDTAB
  0
TABLE
  2
LAYER
  5
2
330
0
100
AcDbSymbolTable
 70
     3
  0
LAYER
  5
10
330
2
100
AcDbSymbolTableRecord
100
AcDbLayerTableRecord
  2
0
 70
     0
 62
     7
  6
Continuous
370
    -3
390
F
  0
LAYER
  5
3B
330
2
100
AcDbSymbolTableRecord
100
AcDbLayerTableRecord
  2
Make2D visible lines
 70
     0
 62
     7
  6
Continuous
370
    -3
390
F
  0
LAYER
  5
4A
330
2
100
AcDbSymbolTableRecord
100
AcDbLayerTableRecord
  2
Default
 70
     0
 62
     7
  6
Continuous
370
    -3
390
F
  0
ENDTAB
  0
TABLE
  2
STYLE
  5
3
330
0
100
AcDbSymbolTable
 70
     1
  0
STYLE
  5
11
330
3
100
AcDbSymbolTableRecord
100
AcDbTextStyleTableRecord
  2
Standard
 70
     0
 40
0.0
 41
1.0
 50
0.0
 71
     0
 42
0.2
  3
txt
  4

  0
ENDTAB
  0
TABLE
  2
VIEW
  5
6
330
0
100
AcDbSymbolTable
 70
     0
  0
ENDTAB
  0
TABLE
  2
UCS
  5
7
330
0
100
AcDbSymbolTable
 70
     0
  0
ENDTAB
  0
TABLE
  2
APPID
  5
9
330
0
100
AcDbSymbolTable
 70
     1
  0
APPID
  5
12
330
9
100
AcDbSymbolTableRecord
100
AcDbRegAppTableRecord
  2
ACAD
 70
     0
  0
ENDTAB
  0
TABLE
  2
DIMSTYLE
  5
A
330
0
100
AcDbSymbolTable
 70
     1
100
AcDbDimStyleTable
  0
DIMSTYLE
105
27
330
A
100
AcDbSymbolTableRecord
100
AcDbDimStyleTableRecord
  2
Standard
 70
     0
340
11
  0
ENDTAB
  0
TABLE
  2
BLOCK_RECORD
  5
1
330
0
100
AcDbSymbolTable
 70
     1
  0
BLOCK_RECORD
  5
1F
330
1
100
AcDbSymbolTableRecord
100
AcDbBlockTableRecord
  2
*Model_Space
340
22
  0
BLOCK_RECORD
  5
1B
330
1
100
AcDbSymbolTableRecord
100
AcDbBlockTableRecord
  2
*Paper_Space
340
1E
  0
BLOCK_RECORD
  5
23
330
1
100
AcDbSymbolTableRecord
100
AcDbBlockTableRecord
  2
*Paper_Space0
340
26
  0
ENDTAB
  0
ENDSEC
  0
SECTION
  2
BLOCKS
  0
BLOCK
  5
20
330
1F
100
AcDbEntity
  8
0
100
AcDbBlockBegin
  2
*Model_Space
 70
     0
 10
0.0
 20
0.0
 30
0.0
  3
*Model_Space
  1

  0
ENDBLK
  5
21
330
1F
100
AcDbEntity
  8
0
100
AcDbBlockEnd
  0
BLOCK
  5
1C
330
1B
100
AcDbEntity
 67
     1
  8
0
100
AcDbBlockBegin
  2
*Paper_Space
 70
     0
 10
0.0
 20
0.0
 30
0.0
  3
*Paper_Space
  1

  0
ENDBLK
  5
1D
330
1B
100
AcDbEntity
 67
     1
  8
0
100
AcDbBlockEnd
  0
BLOCK
  5
24
330
23
100
AcDbEntity
  8
0
100
AcDbBlockBegin
  2
*Paper_Space0
 70
     0
 10
0.0
 20
0.0
 30
0.0
  3
*Paper_Space0
  1

  0
ENDBLK
  5
25
330
23
100
AcDbEntity
  8
0
100
AcDbBlockEnd
  0
ENDSEC
  0
SECTION
  2
ENTITIES
  0
SPLINE
  5
3C
330
1F
100
AcDbEntity
  8
Make2D visible lines
100
AcDbSpline
210
0.0
220
0.0
230
1.0
 70
    12
 71
     2
 72
     6
 73
     3
 74
     0
 42
0.0000000001
 43
0.0000000001
 40
0.0
 40
0.0
 40
0.0
 40
1.946494377530773
 40
1.946494377530773
 40
1.946494377530773
 10
28.35358922280542
 20
11.85866470256931
 30
0.0
 41
1.0
 10
29.12352559925922
 20
11.23950279041793
 30
0.0
 41
0.9777372131974623
 10
30.08289646411841
 20
10.98997997939098
 30
0.0
 41
1.0
  0
SPLINE
  5
3D
330
1F
100
AcDbEntity
  8
Make2D visible lines
100
AcDbSpline
210
0.0
220
0.0
230
1.0
 70
     8
 71
     3
 72
    11
 73
     7
 74
     0
 42
0.0000000001
 43
0.0000000001
 40
0.0
 40
0.0
 40
0.0
 40
0.0
 40
0.4196919291784062
 40
0.6976150775001599
 40
0.7467532413215971
 40
1.039467887128562
 40
1.039467887128562
 40
1.039467887128562
 40
1.039467887128562
 10
30.08289646411841
 20
10.98997997939098
 30
0.0
 10
30.22121535733476
 20
10.95343768147915
 30
0.0
 10
30.45013709958683
 20
10.90875905493618
 30
0.0
 10
30.69273234406143
 20
10.8566789603242
 30
0.0
 10
30.89863401919823
 20
10.82857634371156
 30
0.0
 10
31.00851654040603
 20
10.92239357313235
 30
0.0
 10
31.02574089910702
 20
11.02086743248052
 30
0.0
  0
SPLINE
  5
3E
330
1F
100
AcDbEntity
  8
Make2D visible lines
100
AcDbSpline
210
0.0
220
0.0
230
1.0
 70
     8
 71
     3
 72
    12
 73
     8
 74
     0
 42
0.0000000001
 43
0.0000000001
 40
0.0
 40
0.0
 40
0.0
 40
0.0
 40
0.0705042199092246
 40
0.1431282627150424
 40
0.2852659170048956
 40
0.3344757646873034
 40
1.017718419022621
 40
1.017718419022621
 40
1.017718419022621
 40
1.017718419022621
 10
31.02574089910702
 20
11.02086743248052
 30
0.0
 10
31.02984261672133
 20
11.04495042244621
 30
0.0
 10
31.03130831507702
 20
11.10018216559762
 30
0.0
 10
30.99935793217686
 20
11.18139982255883
 30
0.0
 10
30.93472355086843
 20
11.25818641318619
 30
0.0
 10
30.64911299779771
 20
11.31596622329378
 30
0.0
 10
30.40804955386503
 20
11.35652108466264
 30
0.0
 10
30.18452453983445
 20
11.41556346743971
 30
0.0
  0
SPLINE
  5
3F
330
1F
100
AcDbEntity
  8
Make2D visible lines
100
AcDbSpline
210
0.0
220
0.0
230
1.0
 70
    12
 71
     2
 72
     6
 73
     3
 74
     0
 42
0.0000000001
 43
0.0000000001
 40
0.0
 40
0.0
 40
0.0
 40
1.772140572908841
 40
1.772140572908841
 40
1.772140572908841
 10
30.18452453983445
 20
11.41556346743971
 30
0.0
 41
1.0
 10
29.31114600965506
 20
11.64473868553964
 30
0.0
 41
0.9774902787265793
 10
28.60967265203003
 20
12.21405154153193
 30
0.0
 41
1.0
  0
SPLINE
  5
40
330
1F
100
AcDbEntity
  8
Make2D visible lines
100
AcDbSpline
210
0.0
220
0.0
230
1.0
 70
     8
 71
     3
 72
    12
 73
     8
 74
     0
 42
0.0000000001
 43
0.0000000001
 40
0.0
 40
0.0
 40
0.0
 40
0.0
 40
0.2156803412029633
 40
0.4368707080375416
 40
0.8635677051415032
 40
1.293573178904501
 40
1.758188522809053
 40
1.758188522809053
 40
1.758188522809053
 40
1.758188522809053
 10
28.60967265203003
 20
12.21405154153193
 30
0.0
 10
28.55074838134057
 20
12.26162128860347
 30
0.0
 10
28.42700010338601
 20
12.33987208957403
 30
0.0
 10
28.15237097604061
 20
12.43389784776257
 30
0.0
 10
27.78195214722444
 20
12.41392740928093
 30
0.0
 10
27.39527250366473
 20
12.17848143615861
 30
0.0
 10
27.22768747333417
 20
11.92399001174881
 30
0.0
 10
27.16647421645179
 20
11.7761097914318
 30
0.0
  0
SPLINE
  5
41
330
1F
100
AcDbEntity
  8
Make2D visible lines
100
AcDbSpline
210
0.0
220
0.0
230
1.0
 70
    24
 71
     2
 72
     6
 73
     3
 74
     0
 42
0.0000000001
 43
0.0000000001
 40
0.0
 40
0.0
 40
0.0
 40
10.66170904135123
 40
10.66170904135123
 40
10.66170904135123
 10
27.16647421645179
 20
11.7761097914318
 30
0.0
 10
25.17257402825248
 20
6.82838917488401
 30
0.0
 10
23.17867384005316
 20
1.880668558336224
 30
0.0
  0
SPLINE
  5
42
330
1F
100
AcDbEntity
  8
Make2D visible lines
100
AcDbSpline
210
0.0
220
0.0
230
1.0
 70
     8
 71
     3
 72
    12
 73
     8
 74
     0
 42
0.0000000001
 43
0.0000000001
 40
0.0
 40
0.0
 40
0.0
 40
0.0
 40
0.3467521753746221
 40
0.6716705991412102
 40
1.245376892639522
 40
1.774064081213415
 40
2.318726595427466
 40
2.318726595427466
 40
2.318726595427466
 40
2.318726595427466
 10
23.17867384005316
 20
1.880668558336224
 30
0.0
 10
23.13480062593128
 20
1.772263020368184
 30
0.0
 10
23.06621824537299
 20
1.556958937189357
 30
0.0
 10
23.01092369696179
 20
1.146194563389029
 30
0.0
 10
23.08673410377297
 20
0.6605528456990877
 30
0.0
 10
23.47121074612046
 20
0.2328403624388516
 30
0.0
 10
23.83662414142578
 20
0.1509524442178886
 30
0.0
 10
24.0172344009443
 20
0.1512501707452093
 30
0.0
  0
SPLINE
  5
43
330
1F
100
AcDbEntity
  8
Make2D visible lines
100
AcDbSpline
210
0.0
220
0.0
230
1.0
 70
    24
 71
     2
 72
     6
 73
     3
 74
     0
 42
0.0000000001
 43
0.0000000001
 40
0.0
 40
0.0
 40
0.0
 40
0.4220655206783377
 40
0.4220655206783377
 40
0.4220655206783377
 10
24.0172344009443
 20
0.1512501707452093
 30
0.0
 10
24.228508617324
 20
0.1512500853726069
 30
0.0
 10
24.43978283370371
 20
0.1512500000000045
 30
0.0
  0
SPLINE
  5
44
330
1F
100
AcDbEntity
  8
Make2D visible lines
100
AcDbSpline
210
0.0
220
0.0
230
1.0
 70
     8
 71
     3
 72
    13
 73
     9
 74
     0
 42
0.0000000001
 43
0.0000000001
 40
0.0
 40
0.0
 40
0.0
 40
0.0
 40
0.0669909275443719
 40
0.1332575209594614
 40
0.2649155669711206
 40
0.332668664327405
 40
0.3376075390522567
 40
0.7481878552349414
 40
0.7481878552349414
 40
0.7481878552349414
 40
0.7481878552349414
 10
33.1794203401633
 20
0.3752139673553216
 30
0.0
 10
33.1789052405889
 20
0.3976565949571415
 30
0.0
 10
33.17078809839137
 20
0.4415435685432696
 30
0.0
 10
33.12973916199058
 20
0.5213084423103875
 30
0.0
 10
33.05521558382394
 20
0.5757883745338983
 30
0.0
 10
32.98734828015553
 20
0.5886361654697606
 30
0.0
 10
32.82627176027417
 20
0.5890248407860289
 30
0.0
 10
32.68774586911727
 20
0.5885352940958735
 30
0.0
 10
32.55041175445899
 20
0.5887500186223245
 30
0.0
  0
SPLINE
  5
45
330
1F
100
AcDbEntity
  8
Make2D visible lines
100
AcDbSpline
210
0.0
220
0.0
230
1.0
 70
    24
 71
     2
 72
     6
 73
     3
 74
     0
 42
0.0000000001
 43
0.0000000001
 40
0.0
 40
0.0
 40
0.0
 40
8.531245711461779
 40
8.531245711461779
 40
8.531245711461779
 10
32.55041175445899
 20
0.5887500186223245
 30
0.0
 10
28.28430598875202
 20
0.5887500093111787
 30
0.0
 10
24.01820022304506
 20
0.588750000000033
 30
0.0
  0
SPLINE
  5
46
330
1F
100
AcDbEntity
  8
Make2D visible lines
100
AcDbSpline
210
0.0
220
0.0
230
1.0
 70
     8
 71
     3
 72
    12
 73
     8
 74
     0
 42
0.0000000001
 43
0.0000000001
 40
0.0
 40
0.0
 40
0.0
 40
0.0
 40
0.1693085055607524
 40
0.3260743370091164
 40
0.6324790294380792
 40
1.006716325339112
 40
1.461314524040565
 40
1.461314524040565
 40
1.461314524040565
 40
1.461314524040565
 10
24.01820022304506
 20
0.588750000000033
 30
0.0
 10
23.96051596321968
 20
0.5881722851479865
 30
0.0
 10
23.85389314588895
 20
0.6006958467837804
 30
0.0
 10
23.65148077141981
 20
0.6784579728153245
 30
0.0
 10
23.47858290580406
 20
0.915523100227029
 30
0.0
 10
23.45409327072694
 20
1.303334086639778
 30
0.0
 10
23.52561508263959
 20
1.571017573668503
 30
0.0
 10
23.58440402860816
 20
1.716989753589089
 30
0.0
  0
SPLINE
  5
47
330
1F
100
AcDbEntity
  8
Make2D visible lines
100
AcDbSpline
210
0.0
220
0.0
230
1.0
 70
    24
 71
     2
 72
     6
 73
     3
 74
     0
 42
0.0000000001
 43
0.0000000001
 40
0.0
 40
0.0
 40
0.0
 40
10.6548645082842
 40
10.6548645082842
 40
10.6548645082842
 10
23.58440402860816
 20
1.716989753589089
 30
0.0
 10
25.57765120310633
 20
6.663102504123819
 30
0.0
 10
27.57089837760452
 20
11.60921525465855
 30
0.0
  0
SPLINE
  5
48
330
1F
100
AcDbEntity
  8
Make2D visible lines
100
AcDbSpline
210
0.0
220
0.0
230
1.0
 70
     8
 71
     3
 72
    12
 73
     8
 74
     0
 42
0.0000000001
 43
0.0000000001
 40
0.0
 40
0.0
 40
0.0
 40
0.0
 40
0.1320490318873899
 40
0.2557655710982562
 40
0.4930712698847956
 40
0.7139044511273421
 40
0.9457968106286055
 40
0.9457968106286055
 40
0.9457968106286055
 40
0.9457968106286055
 10
27.57089837760452
 20
11.60921525465855
 30
0.0
 10
27.58959322447066
 20
11.65452546615029
 30
0.0
 10
27.62924205375858
 20
11.73104089310783
 30
0.0
 10
27.73065886320771
 20
11.86016550873743
 30
0.0
 10
27.89493635014199
 20
11.97414392652546
 30
0.0
 10
28.13248064387356
 20
11.99403633134802
 30
0.0
 10
28.27253214418768
 20
11.92360786310596
 30
0.0
 10
28.33243869976675
 20
11.87557508212785
 30
0.0
  0
LINE
  5
49
330
1F
100
AcDbEntity
  8
Make2D visible lines
100
AcDbLine
 10
26.15365552279232
 20
0.1512499999999968
 30
0.0
 11
32.54896302448273
 21
0.1512500000000099
 31
0.0
  0
LINE
  5
4B
330
1F
100
AcDbEntity
  8
Default
100
AcDbLine
 10
24.43978283370371
 20
0.1512500000000045
 30
0.0
 11
24.46441166211811
 21
0.188123512817642
 31
0.0
  0
ARC
  5
4C
330
1F
100
AcDbEntity
  8
Default
100
AcDbCircle
 10
24.21273433282577
 20
0.3562256892923373
 30
0.0
 40
0.3026546213347083
100
AcDbArc
 50
326.2599541458921
 51
358.8735934699181
  0
SPLINE
  5
4D
330
1F
100
AcDbEntity
  8
Default
100
AcDbSpline
210
0.0
220
0.0
230
1.0
 70
    12
 71
     2
 72
     6
 73
     3
 74
     0
 42
0.0000000001
 43
0.0000000001
 40
-0.1396938593169805
 40
-0.1396938593169805
 40
-0.1396938593169805
 40
0.0
 40
0.0
 40
0.0
 10
24.51533046863713
 20
0.3502760332277354
 30
0.0
 41
1.0
 10
24.51658912879536
 20
0.4214375658324525
 30
0.0
 41
0.977942097569061
 10
24.54668520822148
 20
0.4856289278781711
 30
0.0
 41
1.0
  0
SPLINE
  5
4E
330
1F
100
AcDbEntity
  8
Default
100
AcDbSpline
210
0.0
220
0.0
230
1.0
 70
    12
 71
     2
 72
     6
 73
     3
 74
     0
 42
0.0000000001
 43
0.0000000001
 40
-0.1043707694466919
 40
-0.1043707694466919
 40
-0.1043707694466919
 40
0.0
 40
0.0
 40
0.0
 10
24.54668520822148
 20
0.4856289278781711
 30
0.0
 41
1.0
 10
24.57993476906117
 20
0.5296435445783652
 30
0.0
 41
0.9209949828452051
 10
24.63467642089603
 20
0.5364384937091395
 30
0.0
 41
1.0
  0
SPLINE
  5
4F
330
1F
100
AcDbEntity
  8
Default
100
AcDbSpline
210
0.0
220
0.0
230
1.0
 70
     8
 71
     3
 72
     8
 73
     4
 74
     0
 42
0.0000000001
 43
0.0000000001
 40
0.0
 40
0.0
 40
0.0
 40
0.0
 40
1.0
 40
1.0
 40
1.0
 40
1.0
 10
24.63467642089603
 20
0.5364384937091395
 30
0.0
 10
24.64747948978857
 20
0.5380277077523163
 30
0.0
 10
24.66031485820851
 20
0.5400000000000158
 30
0.0
 10
24.67321618272742
 20
0.5400000000000158
 30
0.0
  0
SPLINE
  5
50
330
1F
100
AcDbEntity
  8
Default
100
AcDbSpline
210
0.0
220
0.0
230
1.0
 70
    24
 71
     2
 72
     6
 73
     3
 74
     0
 42
0.0000000001
 43
0.0000000001
 40
0.0
 40
0.0
 40
0.0
 40
1.324002867092183
 40
1.324002867092183
 40
1.324002867092183
 10
24.67321618272742
 20
0.5400000000000158
 30
0.0
 10
25.33521761627351
 20
0.5400000000000167
 30
0.0
 10
25.99721904981961
 20
0.5400000000000176
 30
0.0
  0
SPLINE
  5
51
330
1F
100
AcDbEntity
  8
Default
100
AcDbSpline
210
0.0
220
0.0
230
1.0
 70
     8
 71
     3
 72
     8
 73
     4
 74
     0
 42
0.0000000001
 43
0.0000000001
 40
-1.0
 40
-1.0
 40
-1.0
 40
-1.0
 40
0.0
 40
0.0
 40
0.0
 40
0.0
 10
25.99721904981961
 20
0.5400000000000176
 30
0.0
 10
26.08461268821428
 20
0.5400000000000176
 30
0.0
 10
26.17562560534302
 20
0.4319284955974853
 30
0.0
 10
26.17203619184987
 20
0.3446086001404169
 30
0.0
  0
SPLINE
  5
52
330
1F
100
AcDbEntity
  8
Default
100
AcDbSpline
210
0.0
220
0.0
230
1.0
 70
    12
 71
     2
 72
     6
 73
     3
 74
     0
 42
0.0000000001
 43
0.0000000001
 40
0.0
 40
0.0
 40
0.0
 40
0.1715427106131254
 40
0.1715427106131254
 40
0.1715427106131254
 10
26.17203619184987
 20
0.3446086001404169
 30
0.0
 41
1.0
 10
26.16851165547135
 20
0.258866974469895
 30
0.0
 41
0.9992541276325925
 10
26.15838058815415
 20
0.1736530659553708
 30
0.0
 41
1.0
  0
SPLINE
  5
53
330
1F
100
AcDbEntity
  8
Default
100
AcDbSpline
210
0.0
220
0.0
230
1.0
 70
     8
 71
     3
 72
     8
 73
     4
 74
     0
 42
0.0000000001
 43
0.0000000001
 40
0.0
 40
0.0
 40
0.0
 40
0.0
 40
1.0
 40
1.0
 40
1.0
 40
1.0
 10
26.15838058815415
 20
0.1736530659553708
 30
0.0
 10
26.14723086187222
 20
0.0798710659348325
 30
0.0
 10
26.02895025383948
 20
0.0000000000000241
 30
0.0
 10
25.93450778498137
 20
0.0000000000000237
 30
0.0
  0
LINE
  5
54
330
1F
100
AcDbEntity
  8
Default
100
AcDbLine
 10
25.93450778498137
 20
0.0000000000000237
 30
0.0
 11
24.46663500854736
 21
0.0000000000000122
 31
0.0
  0
SPLINE
  5
55
330
1F
100
AcDbEntity
  8
Default
100
AcDbSpline
210
0.0
220
0.0
230
1.0
 70
    12
 71
     2
 72
     6
 73
     3
 74
     0
 42
0.0000000001
 43
0.0000000001
 40
-0.2660416618951972
 40
-0.2660416618951972
 40
-0.2660416618951972
 40
0.0
 40
0.0
 40
0.0
 10
24.46663500854736
 20
0.0000000000000122
 30
0.0
 41
1.0
 10
24.31500744482154
 20
0.0071679241737854
 30
0.0
 41
0.8243825005637507
 10
24.26723035593614
 20
0.151250008403655
 30
0.0
 41
1.0
  0
LINE
  5
56
330
1F
100
AcDbEntity
  8
Default
100
AcDbLine
 10
43.18652998651714
 20
0.1512499999999969
 30
0.0
 11
43.16190115810274
 21
0.1881235128176343
 31
0.0
  0
ARC
  5
57
330
1F
100
AcDbEntity
  8
Default
100
AcDbCircle
 10
43.41357848739509
 20
0.3562256892923296
 30
0.0
 40
0.3026546213347083
100
AcDbArc
 50
181.1264065300817
 51
213.7400458541078
  0
SPLINE
  5
58
330
1F
100
AcDbEntity
  8
Default
100
AcDbSpline
210
0.0
220
0.0
230
1.0
 70
    12
 71
     2
 72
     6
 73
     3
 74
     0
 42
0.0000000001
 43
0.0000000001
 40
-0.1396938593169805
 40
-0.1396938593169805
 40
-0.1396938593169805
 40
0.0
 40
0.0
 40
0.0
 10
43.11098235158372
 20
0.3502760332277277
 30
0.0
 41
1.0
 10
43.10972369142549
 20
0.4214375658324448
 30
0.0
 41
0.977942097569061
 10
43.07962761199938
 20
0.4856289278781634
 30
0.0
 41
1.0
  0
SPLINE
  5
59
330
1F
100
AcDbEntity
  8
Default
100
AcDbSpline
210
0.0
220
0.0
230
1.0
 70
    12
 71
     2
 72
     6
 73
     3
 74
     0
 42
0.0000000001
 43
0.0000000001
 40
-0.1043707694466919
 40
-0.1043707694466919
 40
-0.1043707694466919
 40
0.0
 40
0.0
 40
0.0
 10
43.07962761199938
 20
0.4856289278781634
 30
0.0
 41
1.0
 10
43.04637805115967
 20
0.5296435445783575
 30
0.0
 41
0.9209949828452051
 10
42.99163639932483
 20
0.5364384937091319
 30
0.0
 41
1.0
  0
SPLINE
  5
5A
330
1F
100
AcDbEntity
  8
Default
100
AcDbSpline
210
0.0
220
0.0
230
1.0
 70
     8
 71
     3
 72
     8
 73
     4
 74
     0
 42
0.0000000001
 43
0.0000000001
 40
0.0
 40
0.0
 40
0.0
 40
0.0
 40
1.0
 40
1.0
 40
1.0
 40
1.0
 10
42.99163639932483
 20
0.5364384937091319
 30
0.0
 10
42.97883333043228
 20
0.5380277077523087
 30
0.0
 10
42.96599796201235
 20
0.540000000000008
 30
0.0
 10
42.95309663749343
 20
0.540000000000008
 30
0.0
  0
SPLINE
  5
5B
330
1F
100
AcDbEntity
  8
Default
100
AcDbSpline
210
0.0
220
0.0
230
1.0
 70
    24
 71
     2
 72
     6
 73
     3
 74
     0
 42
0.0000000001
 43
0.0000000001
 40
0.0
 40
0.0
 40
0.0
 40
1.324002867092183
 40
1.324002867092183
 40
1.324002867092183
 10
42.95309663749343
 20
0.540000000000008
 30
0.0
 10
42.29109520394734
 20
0.5400000000000089
 30
0.0
 10
41.62909377040125
 20
0.5400000000000098
 30
0.0
  0
SPLINE
  5
5C
330
1F
100
AcDbEntity
  8
Default
100
AcDbSpline
210
0.0
220
0.0
230
1.0
 70
     8
 71
     3
 72
     8
 73
     4
 74
     0
 42
0.0000000001
 43
0.0000000001
 40
-1.0
 40
-1.0
 40
-1.0
 40
-1.0
 40
0.0
 40
0.0
 40
0.0
 40
0.0
 10
41.62909377040125
 20
0.5400000000000098
 30
0.0
 10
41.54170013200658
 20
0.5400000000000099
 30
0.0
 10
41.45068721487783
 20
0.4319284955974776
 30
0.0
 10
41.45427662837098
 20
0.3446086001404092
 30
0.0
  0
SPLINE
  5
5D
330
1F
100
AcDbEntity
  8
Default
100
AcDbSpline
210
0.0
220
0.0
230
1.0
 70
    12
 71
     2
 72
     6
 73
     3
 74
     0
 42
0.0000000001
 43
0.0000000001
 40
0.0
 40
0.0
 40
0.0
 40
0.1715427106131254
 40
0.1715427106131254
 40
0.1715427106131254
 10
41.45427662837098
 20
0.3446086001404092
 30
0.0
 41
1.0
 10
41.4578011647495
 20
0.2588669744698873
 30
0.0
 41
0.9992541276325925
 10
41.46793223206671
 20
0.1736530659553631
 30
0.0
 41
1.0
  0
SPLINE
  5
5E
330
1F
100
AcDbEntity
  8
Default
100
AcDbSpline
210
0.0
220
0.0
230
1.0
 70
     8
 71
     3
 72
     8
 73
     4
 74
     0
 42
0.0000000001
 43
0.0000000001
 40
0.0
 40
0.0
 40
0.0
 40
0.0
 40
1.0
 40
1.0
 40
1.0
 40
1.0
 10
41.46793223206671
 20
0.1736530659553631
 30
0.0
 10
41.47908195834864
 20
0.0798710659348248
 30
0.0
 10
41.59736256638138
 20
0.0000000000000164
 30
0.0
 10
41.69180503523948
 20
0.000000000000016
 30
0.0
  0
LINE
  5
5F
330
1F
100
AcDbEntity
  8
Default
100
AcDbLine
 10
41.69180503523948
 20
0.000000000000016
 30
0.0
 11
43.1596778116735
 21
0.0000000000000045
 31
0.0
  0
SPLINE
  5
60
330
1F
100
AcDbEntity
  8
Default
100
AcDbSpline
210
0.0
220
0.0
230
1.0
 70
    12
 71
     2
 72
     6
 73
     3
 74
     0
 42
0.0000000001
 43
0.0000000001
 40
-0.2660416618951972
 40
-0.2660416618951972
 40
-0.2660416618951972
 40
0.0
 40
0.0
 40
0.0
 10
43.1596778116735
 20
0.0000000000000045
 30
0.0
 41
1.0
 10
43.31130537539932
 20
0.0071679241737777
 30
0.0
 41
0.8243825005637507
 10
43.35908246428471
 20
0.1512500084036474
 30
0.0
 41
1.0
  0
SPLINE
  5
61
330
1F
100
AcDbEntity
  8
Default
100
AcDbSpline
210
0.0
220
0.0
230
1.0
 70
    12
 71
     2
 72
     6
 73
     3
 74
     0
 42
0.0000000001
 43
0.0000000001
 40
0.0
 40
0.0
 40
0.0
 40
0.3211240945390638
 40
0.3211240945390638
 40
0.3211240945390638
 10
33.17998860083163
 20
0.3683646126931484
 30
0.0
 41
1.0
 10
33.17851324765715
 20
0.5657029229883656
 30
0.0
 41
0.7425023569909016
 10
33.37465834654735
 20
0.5874212460938948
 30
0.0
 41
1.0
  0
SPLINE
  5
62
330
1F
100
AcDbEntity
  8
Default
100
AcDbSpline
210
0.0
220
0.0
230
1.0
 70
    24
 71
     2
 72
     6
 73
     3
 74
     0
 42
0.0000000001
 43
0.0000000001
 40
0.0
 40
0.0
 40
0.0
 40
0.4188446961876835
 40
0.4188446961876835
 40
0.4188446961876835
 10
33.37465834654735
 20
0.5874212460938948
 30
0.0
 10
33.58408069464119
 20
0.5874212460490408
 30
0.0
 10
33.79350304273503
 20
0.5874212460041868
 30
0.0
  0
SPLINE
  5
63
330
1F
100
AcDbEntity
  8
Default
100
AcDbSpline
210
0.0
220
0.0
230
1.0
 70
    24
 71
     2
 72
     6
 73
     3
 74
     0
 42
0.0000000001
 43
0.0000000001
 40
0.0
 40
0.0
 40
0.0
 40
9.878551154483567
 40
9.878551154483567
 40
9.878551154483567
 10
33.79350304273503
 20
0.5874212460041868
 30
0.0
 10
38.73277861997681
 20
0.5874212460041415
 30
0.0
 10
43.6720541972186
 20
0.5874212460040962
 30
0.0
  0
SPLINE
  5
64
330
1F
100
AcDbEntity
  8
Default
100
AcDbSpline
210
0.0
220
0.0
230
1.0
 70
     8
 71
     3
 72
     8
 73
     4
 74
     0
 42
0.0000000001
 43
0.0000000001
 40
-1.0
 40
-1.0
 40
-1.0
 40
-1.0
 40
0.0
 40
0.0
 40
0.0
 40
0.0
 10
43.6720541972186
 20
0.5874212460040962
 30
0.0
 10
43.70569949483879
 20
0.5874212460040958
 30
0.0
 10
43.73946699539535
 20
0.5908637538263873
 30
0.0
 10
43.77252047441872
 20
0.5971465538712157
 30
0.0
  0
SPLINE
  5
65
330
1F
100
AcDbEntity
  8
Default
100
AcDbSpline
210
0.0
220
0.0
230
1.0
 70
     8
 71
     3
 72
    12
 73
     8
 74
     0
 42
0.0000000001
 43
0.0000000001
 40
-1.256367916518869
 40
-1.256367916518869
 40
-1.256367916518869
 40
-1.256367916518869
 40
-0.9823984631797978
 40
-0.6757000851809867
 40
-0.3400530620765876
 40
-0.1710042736780821
 40
0.0
 40
0.0
 40
0.0
 40
0.0
 10
43.77252047441872
 20
0.5971465538712157
 30
0.0
 10
43.86256192958238
 20
0.6142616193727569
 30
0.0
 10
44.0382011811454
 20
0.7095271891638906
 30
0.0
 10
44.21814511196626
 20
0.9643176976111016
 30
0.0
 10
44.28566802119072
 20
1.230088982482319
 30
0.0
 10
44.28560043449956
 20
1.456238959567053
 30
0.0
 10
44.26625328707544
 20
1.568271903875915
 30
0.0
 10
44.25057058893833
 20
1.627411950362194
 30
0.0
  0
SPLINE
  5
66
330
1F
100
AcDbEntity
  8
Default
100
AcDbSpline
210
0.0
220
0.0
230
1.0
 70
    24
 71
     2
 72
     6
 73
     3
 74
     0
 42
0.0000000001
 43
0.0000000001
 40
-10.41363611845926
 40
-10.41363611845926
 40
-10.41363611845926
 40
0.0
 40
0.0
 40
0.0
 10
44.25057058893833
 20
1.627411950362194
 30
0.0
 10
42.89554589415707
 20
6.659117063976371
 30
0.0
 10
41.5405211993758
 20
11.69082217759055
 30
0.0
  0
SPLINE
  5
67
330
1F
100
AcDbEntity
  8
Default
100
AcDbSpline
210
0.0
220
0.0
230
1.0
 70
    12
 71
     3
 72
    10
 73
     6
 74
     0
 42
0.0000000001
 43
0.0000000001
 40
-0.7432422403753207
 40
-0.7432422403753207
 40
-0.7432422403753207
 40
-0.7432422403753207
 40
-0.4087616417526939
 40
-0.2886660316447319
 40
-0.0000142522616549
 40
-0.0000142522616549
 40
-0.0000142522616549
 40
-0.0000142522616549
 10
41.5405211993758
 20
11.69082217759055
 30
0.0
 41
1.0
 10
41.51049517765259
 20
11.79928719277445
 30
0.0
 41
1.0
 10
41.4430166832617
 20
11.92649302819422
 30
0.0
 41
1.0
 10
41.29758389829827
 20
12.06741682048352
 30
0.0
 41
1.0
 10
41.20725522745563
 20
12.10953404820672
 30
0.0
 41
1.0
 10
41.14353723887558
 20
12.12193617116669
 30
0.0
 41
1.0
  0
SPLINE
  5
68
330
1F
100
AcDbEntity
  8
Default
100
AcDbSpline
210
0.0
220
0.0
230
1.0
 70
    12
 71
     2
 72
     6
 73
     3
 74
     0
 42
0.0000000001
 43
0.0000000001
 40
-0.0190705034318554
 40
-0.0190705034318554
 40
-0.0190705034318554
 40
0.0
 40
0.0
 40
0.0
 10
41.14353723887558
 20
12.12193617116669
 30
0.0
 41
1.0
 10
41.13417296236354
 20
12.12375946719421
 30
0.0
 41
0.999683517008335
 10
41.12473860489474
 20
12.12514386983682
 30
0.0
 41
0.999999871234565
  0
SPLINE
  5
69
330
1F
100
AcDbEntity
  8
Default
100
AcDbSpline
210
0.0
220
0.0
230
1.0
 70
    12
 71
     2
 72
     8
 73
     5
 74
     0
 42
0.0000000001
 43
0.0000000001
 40
0.0
 40
0.0
 40
0.0
 40
0.0924484761156222
 40
0.0924484761156222
 40
0.2336560678843569
 40
0.2336560678843569
 40
0.2336560678843569
 10
41.12473860489474
 20
12.12514386983682
 30
0.0
 41
0.9999995706939798
 10
41.07886958011058
 20
12.13210265331877
 30
0.0
 41
0.9945014947976099
 10
41.03255927374724
 20
12.12931942295961
 30
0.0
 41
1.0
 10
40.9615109453424
 20
12.12491311002677
 30
0.0
 41
0.9877784638459917
 10
40.8952714587092
 20
12.09884376071856
 30
0.0
 41
1.0
  0
ARC
  5
6A
330
1F
100
AcDbEntity
  8
Default
100
AcDbCircle
 10
35.4044347418718
 20
26.07033683217787
 30
0.0
 40
15.01172563354411
100
AcDbArc
 50
281.4277668771628
 51
291.4549686071013
  0
ARC
  5
6B
330
1F
100
AcDbEntity
  8
Default
100
AcDbCircle
 10
38.75738691568976
 20
9.483038932934294
 30
0.0
 40
1.911061958284869
100
AcDbArc
 50
101.4277668771631
 51
111.0178002976082
  0
SPLINE
  5
6C
330
1F
100
AcDbEntity
  8
Default
100
AcDbSpline
210
0.0
220
0.0
230
1.0
 70
    12
 71
     2
 72
     6
 73
     3
 74
     0
 42
0.0000000001
 43
0.0000000001
 40
-0.1178533984600588
 40
-0.1178533984600588
 40
-0.1178533984600588
 40
0.0
 40
0.0
 40
0.0
 10
38.07196931084442
 20
11.26695611581349
 30
0.0
 41
1.0
 10
38.02012650316907
 20
11.2359761148388
 30
0.0
 41
0.9639516831847292
 10
37.95973248717549
 20
11.23597658348235
 30
0.0
 41
1.0
  0
SPLINE
  5
6D
330
1F
100
AcDbEntity
  8
Default
100
AcDbSpline
210
0.0
220
0.0
230
1.0
 70
    12
 71
     2
 72
     8
 73
     5
 74
     0
 42
0.0000000001
 43
0.0000000001
 40
0.0
 40
0.0
 40
0.0
 40
0.1717819738134855
 40
0.1717819738134855
 40
0.343563947626971
 40
0.343563947626971
 40
0.343563947626971
 10
37.95973248717549
 20
11.23597658348235
 30
0.0
 41
1.0
 10
37.86913574983345
 20
11.23596297250521
 30
0.0
 41
0.9238778425203193
 10
37.80506512381794
 20
11.30001548131055
 30
0.0
 41
1.0
 10
37.74099449780243
 20
11.36406799011588
 30
0.0
 41
0.9238778425203193
 10
37.74098249552122
 20
11.45470744358629
 30
0.0
 41
1.0
  0
SPLINE
  5
6E
330
1F
100
AcDbEntity
  8
Default
100
AcDbSpline
210
0.0
220
0.0
230
1.0
 70
     8
 71
     3
 72
    11
 73
     7
 74
     0
 42
0.0000000001
 43
0.0000000001
 40
-0.6923244433759334
 40
-0.6923244433759334
 40
-0.6923244433759334
 40
-0.6923244433759334
 40
-0.4552812475966863
 40
-0.384497341986419
 40
-0.2824629699385423
 40
0.0
 40
0.0
 40
0.0
 40
0.0
 10
37.74098249552122
 20
11.45470744358629
 30
0.0
 10
37.73910580844365
 20
11.53584121994334
 30
0.0
 10
37.80277598080038
 20
11.63113167107209
 30
0.0
 10
37.92963516543102
 20
11.68428107348924
 30
0.0
 10
38.07329231350668
 20
11.73198281140984
 30
0.0
 10
38.19915900631919
 20
11.75950213171444
 30
0.0
 10
38.2910287500121
 20
11.77914463824212
 30
0.0
  0
SPLINE
  5
6F
330
1F
100
AcDbEntity
  8
Default
100
AcDbSpline
210
0.0
220
0.0
230
1.0
 70
    12
 71
     2
 72
     6
 73
     3
 74
     0
 42
0.0000000001
 43
0.0000000001
 40
-2.549388596132513
 40
-2.549388596132513
 40
-2.549388596132513
 40
0.0
 40
0.0
 40
0.0
 10
38.2910287500121
 20
11.77914463824212
 30
0.0
 41
1.0
 10
39.57549706711364
 20
12.03994323602687
 30
0.0
 41
0.9962671304741558
 10
40.76543980359667
 20
12.50578481718578
 30
0.0
 41
1.0
  0
SPLINE
  5
70
330
1F
100
AcDbEntity
  8
Default
100
AcDbSpline
210
0.0
220
0.0
230
1.0
 70
     8
 71
     3
 72
     8
 73
     4
 74
     0
 42
0.0000000001
 43
0.0000000001
 40
0.0
 40
0.0
 40
0.0
 40
0.0
 40
1.0
 40
1.0
 40
1.0
 40
1.0
 10
40.76543980359667
 20
12.50578481718578
 30
0.0
 10
41.02629125841867
 20
12.60790355822792
 30
0.0
 10
41.37938040314893
 20
12.55670018904231
 30
0.0
 10
41.59626771310887
 20
12.37941055727236
 30
0.0
  0
SPLINE
  5
71
330
1F
100
AcDbEntity
  8
Default
100
AcDbSpline
210
0.0
220
0.0
230
1.0
 70
    12
 71
     2
 72
     6
 73
     3
 74
     0
 42
0.0000000001
 43
0.0000000001
 40
-0.6920571584047958
 40
-0.6920571584047958
 40
-0.6920571584047958
 40
0.0
 40
0.0
 40
0.0
 10
41.59626771310887
 20
12.37941055727236
 30
0.0
 41
1.0
 10
41.87353129342193
 20
12.15276770727804
 30
0.0
 41
0.9501587101388346
 10
41.96298022630035
 20
11.80458501807744
 30
0.0
 41
1.0
  0
SPLINE
  5
72
330
1F
100
AcDbEntity
  8
Default
100
AcDbSpline
210
0.0
220
0.0
230
1.0
 70
    24
 71
     2
 72
     6
 73
     3
 74
     0
 42
0.0000000001
 43
0.0000000001
 40
-10.4191782813946
 40
-10.4191782813946
 40
-10.4191782813946
 40
0.0
 40
0.0
 40
0.0
 10
41.96298022630035
 20
11.80458501807744
 30
0.0
 10
43.31800305035672
 20
6.77287462359081
 30
0.0
 10
44.67302587441309
 20
1.741164229104183
 30
0.0
  0
SPLINE
  5
73
330
1F
100
AcDbEntity
  8
Default
100
AcDbSpline
210
0.0
220
0.0
230
1.0
 70
     8
 71
     3
 72
    11
 73
     7
 74
     0
 42
0.0000000001
 43
0.0000000001
 40
-1.726404297546127
 40
-1.726404297546127
 40
-1.726404297546127
 40
-1.726404297546127
 40
-0.838716792329123
 40
-0.4044932505427863
 40
-0.1969251035520202
 40
0.0
 40
0.0
 40
0.0
 40
0.0
 10
44.67302587441309
 20
1.741164229104183
 30
0.0
 10
44.75007625534623
 20
1.454201412764787
 30
0.0
 10
44.7293352381817
 20
0.9921833407259197
 30
0.0
 10
44.46936479935962
 20
0.5445698325663991
 30
0.0
 10
44.2657245966715
 20
0.3506491829157447
 30
0.0
 10
44.15158129724674
 20
0.2779617928821737
 30
0.0
 10
44.09280869150779
 20
0.2486095729242301
 30
0.0
  0
SPLINE
  5
74
330
1F
100
AcDbEntity
  8
Default
100
AcDbSpline
210
0.0
220
0.0
230
1.0
 70
     8
 71
     3
 72
     8
 73
     4
 74
     0
 42
0.0000000001
 43
0.0000000001
 40
-1.0
 40
-1.0
 40
-1.0
 40
-1.0
 40
0.0
 40
0.0
 40
0.0
 40
0.0
 10
44.09280869150779
 20
0.2486095729242301
 30
0.0
 10
43.96471572768859
 20
0.1846373736008588
 30
0.0
 10
43.81762984046973
 20
0.1512500000000062
 30
0.0
 10
43.67445075796724
 20
0.1512500000000063
 30
0.0
  0
LINE
  5
75
330
1F
100
AcDbEntity
  8
Default
100
AcDbLine
 10
43.67445075796724
 20
0.1512500000000063
 30
0.0
 11
43.18652998651714
 21
0.1512499999999969
 31
0.0
  0
SPLINE
  5
76
330
1F
100
AcDbEntity
  8
Make2D visible lines
100
AcDbSpline
210
0.0
220
0.0
230
1.0
 70
     8
 71
     3
 72
    13
 73
     9
 74
     0
 42
0.0000000001
 43
0.0000000001
 40
0.0
 40
0.0
 40
0.0
 40
0.0
 40
0.0645918922571933
 40
0.127569144864081
 40
0.2513808316523651
 40
0.3175277900059248
 40
0.3207867867362607
 40
0.7170587281926446
 40
0.7170587281926446
 40
0.7170587281926446
 40
0.7170587281926446
 10
33.18128655285277
 20
0.346385892231618
 30
0.0
 10
33.18365885360276
 20
0.3249450831641772
 30
0.0
 10
33.19458878339043
 20
0.2834954290521402
 30
0.0
 10
33.23845690141292
 20
0.210892073592651
 30
0.0
 10
33.31105246087122
 20
0.1618325785058019
 30
0.0
 10
33.37540902038351
 20
0.1512648036215163
 30
0.0
 10
33.53062396627021
 20
0.1512126780757154
 30
0.0
 10
33.66381553373562
 20
0.1512801696995873
 30
0.0
 10
33.8016374762534
 20
0.1512499974492805
 30
0.0
  0
SPLINE
  5
77
330
1F
100
AcDbEntity
  8
Make2D visible lines
100
AcDbSpline
210
0.0
220
0.0
230
1.0
 70
    24
 71
     2
 72
     6
 73
     3
 74
     0
 42
0.0000000001
 43
0.0000000001
 40
0.0
 40
0.0
 40
0.0
 40
7.66562781082844
 40
7.66562781082844
 40
7.66562781082844
 10
33.8016374762534
 20
0.1512499974492805
 30
0.0
 10
37.63732031785993
 20
0.1512499987246438
 30
0.0
 10
41.47300315946647
 20
0.151250000000007
 30
0.0
  0
SPLINE
  5
78
330
1F
100
AcDbEntity
  8
Make2D visible lines
100
AcDbSpline
210
0.0
220
0.0
230
1.0
 70
     8
 71
     3
 72
    11
 73
     7
 74
     0
 42
0.0000000001
 43
0.0000000001
 40
0.0
 40
0.0
 40
0.0
 40
0.0
 40
0.4159378345350481
 40
0.4818392722098486
 40
0.61768497100472
 40
0.752773533095209
 40
0.752773533095209
 40
0.752773533095209
 40
0.752773533095209
 10
32.5499259367829
 20
0.1512500000556773
 30
0.0
 10
32.6884717204269
 20
0.1583451110739899
 30
0.0
 10
32.84932489694478
 20
0.1414917295164001
 30
0.0
 10
33.05496984067634
 20
0.1588010538891932
 30
0.0
 10
33.14960087711021
 20
0.237433514730164
 30
0.0
 10
33.17927625463201
 20
0.3215601154978443
 30
0.0
 10
33.17947634530914
 20
0.3683607840883141
 30
0.0
  0
POLYLINE
  5
79
330
1F
100
AcDbEntity
  8
Default
100
AcDb2dPolyline
 66
     1
 10
0.0
 20
0.0
 30
0.0
  0
VERTEX
  5
7A
330
79
100
AcDbEntity
  8
Default
100
AcDbVertex
100
AcDb2dVertex
 10
1.923810503571637
 20
0.1525787539957797
 30
0.0
  0
VERTEX
  5
7B
330
79
100
AcDbEntity
  8
Default
100
AcDbVertex
100
AcDb2dVertex
 10
-1.923810503566337
 20
0.1525787539957797
 30
0.0
  0
SEQEND
  5
7C
330
79
100
AcDbEntity
  8
Default
  0
POLYLINE
  5
7D
330
1F
100
AcDbEntity
  8
Default
100
AcDb2dPolyline
 66
     1
 10
0.0
 20
0.0
 30
0.0
  0
VERTEX
  5
7E
330
7D
100
AcDbEntity
  8
Default
100
AcDbVertex
100
AcDb2dVertex
 10
-1.943490577741672
 20
0.588749999963412
 30
0.0
  0
VERTEX
  5
7F
330
7D
100
AcDbEntity
  8
Default
100
AcDbVertex
100
AcDb2dVertex
 10
1.943490577746973
 20
0.588749999963412
 30
0.0
  0
SEQEND
  5
80
330
7D
100
AcDbEntity
  8
Default
  0
SPLINE
  5
81
330
1F
100
AcDbEntity
  8
Make2D visible lines
100
AcDbSpline
210
0.0
220
0.0
230
1.0
 70
     8
 71
     3
 72
    12
 73
     8
 74
     0
 42
0.0000000001
 43
0.0000000001
 40
0.0
 40
0.0
 40
0.0
 40
0.0
 40
0.1045449495724591
 40
0.2148937681762403
 40
0.5007879948566512
 40
0.8561420073208538
 40
1.264081239529036
 40
1.264081239529036
 40
1.264081239529036
 40
1.264081239529036
 10
8.246604095512172
 20
0.5946423465464109
 30
0.0
 10
8.280550316408924
 20
0.6020719707281382
 30
0.0
 10
8.34784910936541
 20
0.6310631011182968
 30
0.0
 10
8.463624316938333
 20
0.7555571056216934
 30
0.0
 10
8.547639076535454
 20
0.9968449928249623
 30
0.0
 10
8.563302174806221
 20
1.348128394503139
 30
0.0
 10
8.521299246645253
 20
1.600551821673184
 30
0.0
 10
8.487381968543758
 20
1.732138477176544
 30
0.0
  0
SPLINE
  5
82
330
1F
100
AcDbEntity
  8
Make2D visible lines
100
AcDbSpline
210
0.0
220
0.0
230
1.0
 70
    24
 71
     2
 72
     6
 73
     3
 74
     0
 42
0.0000000001
 43
0.0000000001
 40
0.0
 40
0.0
 40
0.0
 40
10.18306939563208
 40
10.18306939563208
 40
10.18306939563208
 10
8.487381968543758
 20
1.732138477176544
 30
0.0
 10
7.196624356160446
 20
6.664279276977405
 30
0.0
 10
5.905866743777134
 20
11.59642007677827
 30
0.0
  0
LINE
  5
83
330
1F
100
AcDbEntity
  8
Make2D visible lines
100
AcDbLine
 10
6.313222426886018
 20
11.76790423380818
 30
0.0
 11
8.908927380989105
 21
1.849471051043777
 31
0.0
  0
SPLINE
  5
84
330
1F
100
AcDbEntity
  8
Make2D visible lines
100
AcDbSpline
210
0.0
220
0.0
230
1.0
 70
     8
 71
     3
 72
    11
 73
     7
 74
     0
 42
0.0000000001
 43
0.0000000001
 40
0.0
 40
0.0
 40
0.0
 40
0.0
 40
0.1808079666173053
 40
0.3573749741682617
 40
0.6971779454963127
 40
1.284847912810405
 40
1.284847912810405
 40
1.284847912810405
 40
1.284847912810405
 10
8.908927380989105
 20
1.849471051043777
 30
0.0
 10
8.924896261509293
 20
1.787942529339398
 30
0.0
 10
8.951101138419556
 20
1.671789227455212
 30
0.0
 10
8.98617775955389
 20
1.441694512673601
 30
0.0
 10
9.002700310660767
 20
1.073539047268699
 30
0.0
 10
8.941866848536339
 20
0.7646989773466698
 30
0.0
 10
8.85377659937533
 20
0.5887500000162448
 30
0.0
  0
SPLINE
  5
85
330
1F
100
AcDbEntity
  8
Default
100
AcDbSpline
210
0.0
220
0.0
230
1.0
 70
    12
 71
     2
 72
     6
 73
     3
 74
     0
 42
0.0000000001
 43
0.0000000001
 40
-0.211553587540477
 40
-0.211553587540477
 40
-0.211553587540477
 40
0.0
 40
0.0
 40
0.0
 10
6.502477518359122
 20
0.1525787539958214
 30
0.0
 41
1.0
 10
6.539067175211725
 20
0.0438962250914205
 30
0.0
 41
0.8875534162529749
 10
6.649005203126084
 20
0.0112722293835135
 30
0.0
 41
1.0
  0
SPLINE
  5
86
330
1F
100
AcDbEntity
  8
Default
100
AcDbSpline
210
0.0
220
0.0
230
1.0
 70
     8
 71
     3
 72
     8
 73
     4
 74
     0
 42
0.0000000001
 43
0.0000000001
 40
0.0
 40
0.0
 40
0.0
 40
0.0
 40
1.0
 40
1.0
 40
1.0
 40
1.0
 10
6.649005203126084
 20
0.0112722293835135
 30
0.0
 10
6.672607570326388
 20
0.0042682514074945
 30
0.0
 10
6.697379272188556
 20
0.0000000000000027
 30
0.0
 10
6.721998927851185
 20
0.0000000000000036
 30
0.0
  0
LINE
  5
87
330
1F
100
AcDbEntity
  8
Default
100
AcDbLine
 10
6.721998927851185
 20
0.0000000000000036
 30
0.0
 11
7.452311446704272
 21
0.0000000000000299
 31
0.0
  0
ARC
  5
88
330
1F
100
AcDbEntity
  8
Default
100
AcDbCircle
 10
-8.59618659594
 20
0.2238598264421936
 30
0.0
 40
0.2224166428770481
100
AcDbArc
 50
198.6922236255341
 51
258.2725353600697
  0
ARC
  5
89
330
1F
100
AcDbEntity
  8
Default
100
AcDbCircle
 10
-8.575820583580455
 20
0.3219667312215891
 30
0.0
 40
0.3226151419916679
100
AcDbArc
 50
258.2725353600695
 51
267.206766273397
  0
SPLINE
  5
8A
330
1F
100
AcDbEntity
  8
Default
100
AcDbSpline
210
0.0
220
0.0
230
1.0
 70
    12
 71
     3
 72
    35
 73
    31
 74
     0
 42
0.0000000001
 43
0.0000000001
 40
0.0
 40
0.0
 40
0.0
 40
0.0
 40
0.9122513769519713
 40
0.9122513769519713
 40
0.9122513769519713
 40
1.912251376951971
 40
1.912251376951971
 40
1.912251376951971
 40
2.082430706518049
 40
2.082430706518049
 40
2.082430706518049
 40
2.245705597085521
 40
2.245705597085521
 40
2.245705597085521
 40
3.245705597085521
 40
3.245705597085521
 40
3.245705597085521
 40
4.168715527706236
 40
4.168715527706236
 40
4.168715527706236
 40
5.168715527706236
 40
5.168715527706236
 40
5.168715527706236
 40
5.304502684826552
 40
5.304502684826552
 40
5.304502684826552
 40
5.485477739033714
 40
5.485477739033714
 40
5.485477739033714
 40
5.546420283634844
 40
5.546420283634844
 40
5.546420283634844
 40
5.546420283634844
 10
-8.591542205542737
 20
-0.0002651114711826
 30
0.0
 41
1.0
 10
-8.060479031333617
 20
0.0000000000000023
 30
0.0
 41
1.0
 10
-7.756395239016296
 20
0.0000000000000012
 30
0.0
 41
1.0
 10
-7.452311446698971
 20
0.0
 30
0.0
 41
1.0
 10
-7.35746656496072
 20
-0.0000000000000004
 30
0.0
 41
1.0
 10
-7.238438515071365
 20
0.0810182739360133
 30
0.0
 41
1.0
 10
-7.228198027044499
 20
0.1753086976115603
 30
0.0
 41
1.0
 10
-7.222072356984127
 20
0.2317114807381092
 30
0.0
 41
0.9997177881689924
 10
-7.217160811103144
 20
0.2964983093396986
 30
0.0
 41
0.9997177881689924
 10
-7.213467547690616
 20
0.3696143325877538
 30
0.0
 41
1.0
 10
-7.213431922112052
 20
0.4260478234631951
 30
0.0
 41
0.9308066682344033
 10
-7.238435587153829
 20
0.4766398870310019
 30
0.0
 41
0.9308066682344033
 10
-7.28328828214417
 20
0.5108886229737142
 30
0.0
 41
1.0
 10
-7.305571695375434
 20
0.5279038488330348
 30
0.0
 41
1.0
 10
-7.334163622205661
 20
0.5400000000000098
 30
0.0
 41
1.0
 10
-7.362200533880788
 20
0.5400000000000098
 30
0.0
 41
1.0
 10
-7.669870510754361
 20
0.5400000000000102
 30
0.0
 41
1.0
 10
-7.977540487627934
 20
0.5400000000000108
 30
0.0
 41
1.0
 10
-8.285210464501503
 20
0.5400000000000112
 30
0.0
 41
1.0
 10
-8.326839319245622
 20
0.5400000000000114
 30
0.0
 41
1.0
 10
-8.392541108511754
 20
0.526877196620711
 30
0.0
 41
1.0
 10
-8.397605637993095
 20
0.4855575634127614
 30
0.0
 41
1.0
 10
-8.40311360714462
 20
0.4406200690413195
 30
0.0
 41
0.9994962782114493
 10
-8.406873931081783
 20
0.3954569479266211
 30
0.0
 41
0.9994962782114493
 10
-8.408880927333279
 20
0.3501364490130996
 30
0.0
 41
1.0
 10
-8.41217014042476
 20
0.2884254997444136
 30
0.0
 41
0.955925473531078
 10
-8.437334393463482
 20
0.2319459535361545
 30
0.0
 41
0.955925473531078
 10
-8.481046378839565
 20
0.188165738151248
 30
0.0
 41
1.0
 10
-8.494124661709257
 20
0.1733188843989754
 30
0.0
 41
0.9572798549558303
 10
-8.51005888699122
 20
0.1610610832498368
 30
0.0
 41
0.9278642387305256
 10
-8.528524440888326
 20
0.1523791424077525
 30
0.0
 41
0.9117531513240855
  0
SPLINE
  5
8B
330
1F
100
AcDbEntity
  8
Default
100
AcDbSpline
210
0.0
220
0.0
230
1.0
 70
    24
 71
     2
 72
     6
 73
     3
 74
     0
 42
0.0000000001
 43
0.0000000001
 40
-0.3601265109904084
 40
-0.3601265109904084
 40
-0.3601265109904084
 40
0.0
 40
0.0
 40
0.0
 10
-8.528524440888326
 20
0.1523791424077525
 30
0.0
 10
-8.708635953144636
 20
0.1524789482018744
 30
0.0
 10
-8.888747465400947
 20
0.1525787539959964
 30
0.0
  0
SPLINE
  5
8C
330
1F
100
AcDbEntity
  8
Default
100
AcDbSpline
210
0.0
220
0.0
230
1.0
 70
     8
 71
     3
 72
     8
 73
     4
 74
     0
 42
0.0000000001
 43
0.0000000001
 40
-1.0
 40
-1.0
 40
-1.0
 40
-1.0
 40
0.0
 40
0.0
 40
0.0
 40
0.0
 10
-8.888747465400947
 20
0.1525787539959964
 30
0.0
 10
-8.920978778481324
 20
0.1525787539960002
 30
0.0
 10
-8.953390982860348
 20
0.1525183932655625
 30
0.0
 10
-8.985355302735641
 20
0.1566584171538156
 30
0.0
  0
SPLINE
  5
8D
330
1F
100
AcDbEntity
  8
Default
100
AcDbSpline
210
0.0
220
0.0
230
1.0
 70
     8
 71
     3
 72
    12
 73
     8
 74
     0
 42
0.0000000001
 43
0.0000000001
 40
-1.882643585528527
 40
-1.882643585528527
 40
-1.882643585528527
 40
-1.882643585528527
 40
-1.503763677712677
 40
-1.061032220590192
 40
-0.5456832805761264
 40
-0.2765128888932682
 40
0.0
 40
0.0
 40
0.0
 40
0.0
 10
-8.985355302735641
 20
0.1566584171538156
 30
0.0
 10
-9.111465104168264
 20
0.1729921790643102
 30
0.0
 10
-9.361862337321163
 20
0.3099004743505681
 30
0.0
 10
-9.604676447760212
 20
0.6956934905061424
 30
0.0
 10
-9.697526439842513
 20
1.09725276203288
 30
0.0
 10
-9.708375353893171
 20
1.452224519479913
 30
0.0
 10
-9.687618172947843
 20
1.633030989492872
 30
0.0
 10
-9.670621564679742
 20
1.72375537629401
 30
0.0
  0
SPLINE
  5
8E
330
1F
100
AcDbEntity
  8
Default
100
AcDbSpline
210
0.0
220
0.0
230
1.0
 70
    12
 71
     3
 72
    26
 73
    22
 74
     0
 42
0.0000000001
 43
0.0000000001
 40
-23.82068071894498
 40
-23.82068071894498
 40
-23.82068071894498
 40
-23.82068071894498
 40
-13.58928802782913
 40
-13.58928802782913
 40
-13.58928802782913
 40
-12.58928802782913
 40
-11.58928802782913
 40
-10.58928802782913
 40
-9.589288027829125
 40
-8.589288027829125
 40
-8.589288027829125
 40
-8.589288027829125
 40
-6.749838568985957
 40
-6.749838568985957
 40
-6.749838568985957
 40
-5.749838568985957
 40
-4.749838568985957
 40
-3.749838568985957
 40
-3.749838568985957
 40
-3.749838568985957
 40
0.0
 40
0.0
 40
0.0
 40
0.0
 10
-9.670621564679742
 20
1.72375537629401
 30
0.0
 41
1.0
 10
-9.031489312747638
 20
5.089847101776663
 30
0.0
 41
1.0
 10
-8.394561247918322
 20
8.444329854237838
 30
0.0
 41
1.0
 10
-7.757633183089009
 20
11.79881260669901
 30
0.0
 41
1.0
 10
-7.739396228434174
 20
11.89090412116827
 30
0.0
 41
1.0
 10
-7.686826324959398
 20
12.07212813714344
 30
0.0
 41
1.0
 10
-7.549800235371851
 20
12.32091656899396
 30
0.0
 41
1.0
 10
-7.338972542431033
 20
12.51593629715272
 30
0.0
 41
1.0
 10
-7.056989612822196
 20
12.59432727921582
 30
0.0
 41
1.0
 10
-6.871231658240543
 20
12.53303486293809
 30
0.0
 41
1.0
 10
-6.789607031626787
 20
12.48794463682504
 30
0.0
 41
1.0
 10
-6.252824357134526
 20
12.18891135282014
 30
0.0
 41
0.9957547492158003
 10
-5.677372023588524
 20
11.95000960403209
 30
0.0
 41
0.9957547492158003
 10
-5.070578849399547
 20
11.77428198397008
 30
0.0
 41
1.0
 10
-4.926042872780684
 20
11.74510412946222
 30
0.0
 41
1.0
 10
-4.634383387331349
 20
11.69846325933713
 30
0.0
 41
1.0
 10
-4.192447621785901
 20
11.67189710402615
 30
0.0
 41
1.0
 10
-3.89747405444658
 20
11.66911360858841
 30
0.0
 41
1.0
 10
-3.749919284490332
 20
11.66874999999746
 30
0.0
 41
1.0
 10
-2.499946189659338
 20
11.66874999999737
 30
0.0
 41
1.0
 10
-1.249973094828343
 20
11.66874999999728
 30
0.0
 41
1.0
 10
0.0000000000026503
 20
11.66874999999719
 30
0.0
 41
1.0
  0
SPLINE
  5
8F
330
1F
100
AcDbEntity
  8
Default
100
AcDbSpline
210
0.0
220
0.0
230
1.0
 70
    12
 71
     3
 72
    26
 73
    22
 74
     0
 42
0.0000000001
 43
0.0000000001
 40
0.0
 40
0.0
 40
0.0
 40
0.0
 40
3.749838568985957
 40
3.749838568985957
 40
3.749838568985957
 40
4.749838568985957
 40
5.749838568985957
 40
6.749838568985957
 40
6.749838568985957
 40
6.749838568985957
 40
8.589288027829125
 40
8.589288027829125
 40
8.589288027829125
 40
9.589288027829125
 40
10.58928802782913
 40
11.58928802782913
 40
12.58928802782913
 40
13.58928802782913
 40
13.58928802782913
 40
13.58928802782913
 40
23.82068071894498
 40
23.82068071894498
 40
23.82068071894498
 40
23.82068071894498
 10
0.0000000000026503
 20
11.66874999999719
 30
0.0
 41
1.0
 10
1.249973094833644
 20
11.66874999999728
 30
0.0
 41
1.0
 10
2.499946189664639
 20
11.66874999999737
 30
0.0
 41
1.0
 10
3.749919284495633
 20
11.66874999999746
 30
0.0
 41
1.0
 10
3.89747405445188
 20
11.66911360858841
 30
0.0
 41
1.0
 10
4.192447621791201
 20
11.67189710402615
 30
0.0
 41
1.0
 10
4.63438338733665
 20
11.69846325933713
 30
0.0
 41
1.0
 10
4.926042872785985
 20
11.74510412946222
 30
0.0
 41
1.0
 10
5.070578849404848
 20
11.77428198397008
 30
0.0
 41
1.0
 10
5.677372023593824
 20
11.95000960403209
 30
0.0
 41
0.9957547492158003
 10
6.252824357139827
 20
12.18891135282014
 30
0.0
 41
0.9957547492158003
 10
6.789607031632087
 20
12.48794463682504
 30
0.0
 41
1.0
 10
6.871231658245843
 20
12.53303486293809
 30
0.0
 41
1.0
 10
7.056989612827497
 20
12.59432727921582
 30
0.0
 41
1.0
 10
7.338972542436334
 20
12.51593629715272
 30
0.0
 41
1.0
 10
7.549800235377152
 20
12.32091656899396
 30
0.0
 41
1.0
 10
7.686826324964699
 20
12.07212813714344
 30
0.0
 41
1.0
 10
7.739396228439475
 20
11.89090412116827
 30
0.0
 41
1.0
 10
7.75763318309431
 20
11.79881260669901
 30
0.0
 41
1.0
 10
8.394561247923622
 20
8.444329854237838
 30
0.0
 41
1.0
 10
9.031489312752939
 20
5.089847101776663
 30
0.0
 41
1.0
 10
9.670621564685042
 20
1.72375537629401
 30
0.0
 41
1.0
  0
SPLINE
  5
90
330
1F
100
AcDbEntity
  8
Default
100
AcDbSpline
210
0.0
220
0.0
230
1.0
 70
     8
 71
     3
 72
    12
 73
     8
 74
     0
 42
0.0000000001
 43
0.0000000001
 40
0.0
 40
0.0
 40
0.0
 40
0.0
 40
0.2765128888932682
 40
0.5456832805761264
 40
1.061032220590192
 40
1.503763677712677
 40
1.882643585528527
 40
1.882643585528527
 40
1.882643585528527
 40
1.882643585528527
 10
9.670621564685042
 20
1.72375537629401
 30
0.0
 10
9.687618172953144
 20
1.633030989492872
 30
0.0
 10
9.708375353898472
 20
1.452224519479913
 30
0.0
 10
9.697526439847813
 20
1.09725276203288
 30
0.0
 10
9.604676447765513
 20
0.6956934905061424
 30
0.0
 10
9.361862337326464
 20
0.3099004743505681
 30
0.0
 10
9.111465104173565
 20
0.1729921790643102
 30
0.0
 10
8.985355302740942
 20
0.1566584171538156
 30
0.0
  0
SPLINE
  5
91
330
1F
100
AcDbEntity
  8
Default
100
AcDbSpline
210
0.0
220
0.0
230
1.0
 70
     8
 71
     3
 72
     8
 73
     4
 74
     0
 42
0.0000000001
 43
0.0000000001
 40
0.0
 40
0.0
 40
0.0
 40
0.0
 40
1.0
 40
1.0
 40
1.0
 40
1.0
 10
8.985355302740942
 20
0.1566584171538156
 30
0.0
 10
8.953390982865649
 20
0.1525183932655625
 30
0.0
 10
8.920978778486624
 20
0.1525787539960002
 30
0.0
 10
8.888747465406247
 20
0.1525787539959964
 30
0.0
  0
SPLINE
  5
92
330
1F
100
AcDbEntity
  8
Default
100
AcDbSpline
210
0.0
220
0.0
230
1.0
 70
    24
 71
     2
 72
     6
 73
     3
 74
     0
 42
0.0000000001
 43
0.0000000001
 40
0.0
 40
0.0
 40
0.0
 40
0.3601265109904084
 40
0.3601265109904084
 40
0.3601265109904084
 10
8.888747465406247
 20
0.1525787539959964
 30
0.0
 10
8.708635953149937
 20
0.1524789482018744
 30
0.0
 10
8.528524440893626
 20
0.1523791424077525
 30
0.0
  0
SPLINE
  5
93
330
1F
100
AcDbEntity
  8
Default
100
AcDbSpline
210
0.0
220
0.0
230
1.0
 70
    12
 71
     3
 72
    35
 73
    31
 74
     0
 42
0.0000000001
 43
0.0000000001
 40
-5.546420283634844
 40
-5.546420283634844
 40
-5.546420283634844
 40
-5.546420283634844
 40
-5.485477739033714
 40
-5.485477739033714
 40
-5.485477739033714
 40
-5.304502684826552
 40
-5.304502684826552
 40
-5.304502684826552
 40
-5.168715527706236
 40
-5.168715527706236
 40
-5.168715527706236
 40
-4.168715527706236
 40
-4.168715527706236
 40
-4.168715527706236
 40
-3.245705597085521
 40
-3.245705597085521
 40
-3.245705597085521
 40
-2.245705597085521
 40
-2.245705597085521
 40
-2.245705597085521
 40
-2.082430706518049
 40
-2.082430706518049
 40
-2.082430706518049
 40
-1.912251376951971
 40
-1.912251376951971
 40
-1.912251376951971
 40
-0.9122513769519713
 40
-0.9122513769519713
 40
-0.9122513769519713
 40
0.0
 40
0.0
 40
0.0
 40
0.0
 10
8.528524440893626
 20
0.1523791424077525
 30
0.0
 41
0.9117531513240855
 10
8.510058886996521
 20
0.1610610832498368
 30
0.0
 41
0.9278642387305256
 10
8.49412466171456
 20
0.1733188843989754
 30
0.0
 41
0.9572798549558303
 10
8.481046378844866
 20
0.188165738151248
 30
0.0
 41
1.0
 10
8.437334393468781
 20
0.2319459535361545
 30
0.0
 41
0.955925473531078
 10
8.412170140430058
 20
0.2884254997444136
 30
0.0
 41
0.955925473531078
 10
8.40888092733858
 20
0.3501364490130996
 30
0.0
 41
1.0
 10
8.406873931087084
 20
0.3954569479266211
 30
0.0
 41
0.9994962782114493
 10
8.40311360714992
 20
0.4406200690413195
 30
0.0
 41
0.9994962782114493
 10
8.397605637998396
 20
0.4855575634127614
 30
0.0
 41
1.0
 10
8.392541108517054
 20
0.526877196620711
 30
0.0
 41
1.0
 10
8.326839319250922
 20
0.5400000000000114
 30
0.0
 41
1.0
 10
8.285210464506804
 20
0.5400000000000112
 30
0.0
 41
1.0
 10
7.977540487633235
 20
0.5400000000000108
 30
0.0
 41
1.0
 10
7.669870510759662
 20
0.5400000000000102
 30
0.0
 41
1.0
 10
7.362200533886089
 20
0.5400000000000098
 30
0.0
 41
1.0
 10
7.334163622210962
 20
0.5400000000000098
 30
0.0
 41
1.0
 10
7.305571695380735
 20
0.5279038488330348
 30
0.0
 41
1.0
 10
7.283288282149471
 20
0.5108886229737142
 30
0.0
 41
1.0
 10
7.238435587159128
 20
0.4766398870310019
 30
0.0
 41
0.9308066682344033
 10
7.213431922117351
 20
0.4260478234631951
 30
0.0
 41
0.9308066682344033
 10
7.213467547695917
 20
0.3696143325877538
 30
0.0
 41
1.0
 10
7.217160811108446
 20
0.2964983093396986
 30
0.0
 41
0.9997177881689924
 10
7.222072356989427
 20
0.2317114807381092
 30
0.0
 41
0.9997177881689924
 10
7.2281980270498
 20
0.1753086976115603
 30
0.0
 41
1.0
 10
7.238438515076666
 20
0.0810182739360133
 30
0.0
 41
1.0
 10
7.357466564966021
 20
-0.0000000000000004
 30
0.0
 41
1.0
 10
7.452311446704272
 20
0.0
 30
0.0
 41
1.0
 10
7.756395239021597
 20
0.0000000000000012
 30
0.0
 41
1.0
 10
8.060479031338918
 20
0.0000000000000023
 30
0.0
 41
1.0
 10
8.591542205548038
 20
-0.0002651114711826
 30
0.0
 41
1.0
  0
ARC
  5
94
330
1F
100
AcDbEntity
  8
Default
100
AcDbCircle
 10
8.575820583585756
 20
0.3219667312215891
 30
0.0
 40
0.3226151419916679
100
AcDbArc
 50
272.7932337266029
 51
281.7274646399305
  0
ARC
  5
95
330
1F
100
AcDbEntity
  8
Default
100
AcDbCircle
 10
8.596186595945301
 20
0.2238598264421936
 30
0.0
 40
0.2224166428770481
100
AcDbArc
 50
281.7274646399303
 51
341.3077763744659
  0
SPLINE
  5
96
330
1F
100
AcDbEntity
  8
Default
100
AcDbSpline
210
0.0
220
0.0
230
1.0
 70
    24
 71
     2
 72
     6
 73
     3
 74
     0
 42
0.0000000001
 43
0.0000000001
 40
0.0
 40
0.0
 40
0.0
 40
5.309158539051804
 40
5.309158539051804
 40
5.309158539051804
 10
-7.232969042618141
 20
0.1525787539958415
 30
0.0
 10
-4.578389773092239
 20
0.1525787539958106
 30
0.0
 10
-1.923810503566337
 20
0.1525787539957797
 30
0.0
  0
SPLINE
  5
97
330
1F
100
AcDbEntity
  8
Default
100
AcDbSpline
210
0.0
220
0.0
230
1.0
 70
    12
 71
     2
 72
     8
 73
     5
 74
     0
 42
0.0000000001
 43
0.0000000001
 40
0.0
 40
0.0
 40
0.0
 40
0.3167097645631024
 40
0.3167097645631024
 40
0.605160883947577
 40
0.605160883947577
 40
0.605160883947577
 10
-1.923810503566337
 20
0.1525787539957797
 30
0.0
 41
1.0
 10
-1.73459107258021
 20
0.2012120727525021
 30
0.0
 41
0.7386023741328179
 10
-1.765790675435264
 20
0.3940741414381114
 30
0.0
 41
1.0
 10
-1.767734106779069
 20
0.5707402431660344
 30
0.0
 41
0.7459465885243229
 10
-1.943490577741672
 20
0.588749999963412
 30
0.0
 41
0.9999999930443638
  0
POLYLINE
  5
98
330
1F
100
AcDbEntity
  8
Default
100
AcDb2dPolyline
 66
     1
 10
0.0
 20
0.0
 30
0.0
  0
VERTEX
  5
99
330
98
100
AcDbEntity
  8
Default
100
AcDbVertex
100
AcDb2dVertex
 10
-1.943490577741672
 20
0.588749999963412
 30
0.0
  0
VERTEX
  5
9A
330
98
100
AcDbEntity
  8
Default
100
AcDbVertex
100
AcDb2dVertex
 10
-8.908422971651042
 20
0.5887499999999743
 30
0.0
  0
SEQEND
  5
9B
330
98
100
AcDbEntity
  8
Default
  0
SPLINE
  5
9C
330
1F
100
AcDbEntity
  8
Default
100
AcDbSpline
210
0.0
220
0.0
230
1.0
 70
     8
 71
     3
 72
    11
 73
     7
 74
     0
 42
0.0000000001
 43
0.0000000001
 40
0.0
 40
0.0
 40
0.0
 40
0.0
 40
0.0845988574993078
 40
0.1984421163829465
 40
0.4958697716758607
 40
1.189939830360232
 40
1.189939830360232
 40
1.189939830360232
 40
1.189939830360232
 10
-8.908422971651042
 20
0.5887499999999743
 30
0.0
 10
-8.937015453675482
 20
0.5888436509776955
 30
0.0
 10
-8.999875571346163
 20
0.6144104622495807
 30
0.0
 10
-9.11814638788088
 20
0.7336114840239678
 30
0.0
 10
-9.271114683673744
 20
1.07437291399231
 30
0.0
 10
-9.281919128889207
 20
1.414252175010208
 30
0.0
 10
-9.240907669108385
 20
1.641580709923929
 30
0.0
  0
SPLINE
  5
9D
330
1F
100
AcDbEntity
  8
Default
100
AcDbSpline
210
0.0
220
0.0
230
1.0
 70
    12
 71
     3
 72
    30
 73
    26
 74
     0
 42
0.0000000001
 43
0.0000000001
 40
-17.8484931894299
 40
-17.8484931894299
 40
-17.8484931894299
 40
-17.8484931894299
 40
-7.615999840475066
 40
-7.615999840475066
 40
-7.615999840475066
 40
-7.52816003568542
 40
-7.445381776445632
 40
-7.297640003543176
 40
-7.1738051283902
 40
-7.091305656952183
 40
-7.091305656952183
 40
-7.091305656952183
 40
-7.0
 40
-7.0
 40
-7.0
 40
-6.0
 40
-5.0
 40
-4.0
 40
-3.0
 40
-2.0
 40
-1.0
 40
0.0
 40
0.0
 40
0.0
 40
3.750000000000004
 40
3.750000000000004
 40
3.750000000000004
 40
3.750000000000004
 10
-9.240907669108385
 20
1.641580709923929
 30
0.0
 41
1.0
 10
-8.601984642009985
 20
5.006568753598065
 30
0.0
 41
1.0
 10
-7.965060421862091
 20
8.361028736880007
 30
0.0
 41
1.0
 10
-7.328136201714198
 20
11.71548872016195
 30
0.0
 41
1.0
 10
-7.322454667446028
 20
11.74420403768131
 30
0.0
 41
1.0
 10
-7.309094107101156
 20
11.79956150224595
 30
0.0
 41
1.0
 10
-7.275956267619204
 20
11.90041419925976
 30
0.0
 41
1.0
 10
-7.224034486267982
 20
12.00722081597929
 30
0.0
 41
1.0
 10
-7.148360556766725
 20
12.09931539010405
 30
0.0
 41
1.0
 10
-7.084624204310717
 20
12.13165304371249
 30
0.0
 41
1.0
 10
-7.056236441000898
 20
12.12811585097298
 30
0.0
 41
1.0
 10
-7.02593021550299
 20
12.12379047909632
 30
0.0
 41
0.9884316066092852
 10
-6.996952262405774
 20
12.11391891757107
 30
0.0
 41
0.9884316066092852
 10
-6.970308266792511
 20
12.09884376071855
 30
0.0
 41
1.0
 10
-6.829531128729148
 20
12.02055637818338
 30
0.0
 41
1.0
 10
-6.543712945106325
 20
11.8718701943614
 30
0.0
 41
1.0
 10
-6.103851757783982
 20
11.67092569413197
 30
0.0
 41
1.0
 10
-5.652272386472159
 20
11.49982142631847
 30
0.0
 41
1.0
 10
-5.194561240719295
 20
11.34014150444726
 30
0.0
 41
1.0
 10
-4.715395276231874
 20
11.26881073540698
 30
0.0
 41
1.0
 10
-4.233343930663601
 20
11.23421136461893
 30
0.0
 41
1.0
 10
-3.911039945280974
 20
11.23178641422753
 30
0.0
 41
1.0
 10
-3.749999999997353
 20
11.23125000000139
 30
0.0
 41
1.0
 10
-2.499999999997351
 20
11.23125000000187
 30
0.0
 41
1.0
 10
-1.249999999997351
 20
11.23125000000235
 30
0.0
 41
1.0
 10
0.0000000000026503
 20
11.23125000000283
 30
0.0
 41
1.0
  0
SPLINE
  5
9E
330
1F
100
AcDbEntity
  8
Default
100
AcDbSpline
210
0.0
220
0.0
230
1.0
 70
    12
 71
     3
 72
    30
 73
    26
 74
     0
 42
0.0000000001
 43
0.0000000001
 40
-3.750000000000004
 40
-3.750000000000004
 40
-3.750000000000004
 40
-3.750000000000004
 40
0.0
 40
0.0
 40
0.0
 40
1.0
 40
2.0
 40
3.0
 40
4.0
 40
5.0
 40
6.0
 40
7.0
 40
7.0
 40
7.0
 40
7.091305656952183
 40
7.091305656952183
 40
7.091305656952183
 40
7.1738051283902
 40
7.297640003543176
 40
7.445381776445632
 40
7.52816003568542
 40
7.615999840475066
 40
7.615999840475066
 40
7.615999840475066
 40
17.8484931894299
 40
17.8484931894299
 40
17.8484931894299
 40
17.8484931894299
 10
0.0000000000026503
 20
11.23125000000283
 30
0.0
 41
1.0
 10
1.250000000002652
 20
11.23125000000235
 30
0.0
 41
1.0
 10
2.500000000002652
 20
11.23125000000187
 30
0.0
 41
1.0
 10
3.750000000002654
 20
11.23125000000139
 30
0.0
 41
1.0
 10
3.911039945286275
 20
11.23178641422753
 30
0.0
 41
1.0
 10
4.233343930668902
 20
11.23421136461893
 30
0.0
 41
1.0
 10
4.715395276237174
 20
11.26881073540698
 30
0.0
 41
1.0
 10
5.194561240724596
 20
11.34014150444726
 30
0.0
 41
1.0
 10
5.65227238647746
 20
11.49982142631847
 30
0.0
 41
1.0
 10
6.103851757789283
 20
11.67092569413197
 30
0.0
 41
1.0
 10
6.543712945111626
 20
11.8718701943614
 30
0.0
 41
1.0
 10
6.829531128734448
 20
12.02055637818338
 30
0.0
 41
1.0
 10
6.970308266797812
 20
12.09884376071855
 30
0.0
 41
1.0
 10
6.996952262411074
 20
12.11391891757107
 30
0.0
 41
0.9884316066092852
 10
7.025930215508291
 20
12.12379047909632
 30
0.0
 41
0.9884316066092852
 10
7.056236441006199
 20
12.12811585097298
 30
0.0
 41
1.0
 10
7.084624204316018
 20
12.13165304371249
 30
0.0
 41
1.0
 10
7.148360556772026
 20
12.09931539010405
 30
0.0
 41
1.0
 10
7.224034486273283
 20
12.00722081597929
 30
0.0
 41
1.0
 10
7.275956267624505
 20
11.90041419925976
 30
0.0
 41
1.0
 10
7.309094107106457
 20
11.79956150224595
 30
0.0
 41
1.0
 10
7.322454667451328
 20
11.74420403768131
 30
0.0
 41
1.0
 10
7.328136201719499
 20
11.71548872016195
 30
0.0
 41
1.0
 10
7.965060421867392
 20
8.361028736880007
 30
0.0
 41
1.0
 10
8.601984642015285
 20
5.006568753598065
 30
0.0
 41
1.0
 10
9.240907669113685
 20
1.641580709923929
 30
0.0
 41
1.0
  0
SPLINE
  5
9F
330
1F
100
AcDbEntity
  8
Default
100
AcDbSpline
210
0.0
220
0.0
230
1.0
 70
     8
 71
     3
 72
    11
 73
     7
 74
     0
 42
0.0000000001
 43
0.0000000001
 40
-1.189939830360232
 40
-1.189939830360232
 40
-1.189939830360232
 40
-1.189939830360232
 40
-0.4958697716758607
 40
-0.1984421163829465
 40
-0.0845988574993078
 40
0.0
 40
0.0
 40
0.0
 40
0.0
 10
9.240907669113685
 20
1.641580709923929
 30
0.0
 10
9.281919128894508
 20
1.414252175010208
 30
0.0
 10
9.271114683679045
 20
1.07437291399231
 30
0.0
 10
9.118146387886181
 20
0.7336114840239678
 30
0.0
 10
8.999875571351463
 20
0.6144104622495807
 30
0.0
 10
8.937015453680782
 20
0.5888436509776955
 30
0.0
 10
8.908422971656343
 20
0.5887499999999743
 30
0.0
  0
POLYLINE
  5
A0
330
1F
100
AcDbEntity
  8
Default
100
AcDb2dPolyline
 66
     1
 10
0.0
 20
0.0
 30
0.0
  0
VERTEX
  5
A1
330
A0
100
AcDbEntity
  8
Default
100
AcDbVertex
100
AcDb2dVertex
 10
8.908422971656343
 20
0.5887499999999743
 30
0.0
  0
VERTEX
  5
A2
330
A0
100
AcDbEntity
  8
Default
100
AcDbVertex
100
AcDb2dVertex
 10
1.943490577746973
 20
0.588749999963412
 30
0.0
  0
SEQEND
  5
A3
330
A0
100
AcDbEntity
  8
Default
  0
SPLINE
  5
A4
330
1F
100
AcDbEntity
  8
Default
100
AcDbSpline
210
0.0
220
0.0
230
1.0
 70
    12
 71
     2
 72
     8
 73
     5
 74
     0
 42
0.0000000001
 43
0.0000000001
 40
-0.605160883947577
 40
-0.605160883947577
 40
-0.605160883947577
 40
-0.3167097645631024
 40
-0.3167097645631024
 40
0.0
 40
0.0
 40
0.0
 10
1.943490577746973
 20
0.588749999963412
 30
0.0
 41
0.9999999930443638
 10
1.76773410678437
 20
0.5707402431660344
 30
0.0
 41
0.7459465885243229
 10
1.765790675440565
 20
0.3940741414381114
 30
0.0
 41
1.0
 10
1.734591072585511
 20
0.2012120727525021
 30
0.0
 41
0.7386023741328179
 10
1.923810503571637
 20
0.1525787539957797
 30
0.0
 41
1.0
  0
SPLINE
  5
A5
330
1F
100
AcDbEntity
  8
Default
100
AcDbSpline
210
0.0
220
0.0
230
1.0
 70
    24
 71
     2
 72
     6
 73
     3
 74
     0
 42
0.0000000001
 43
0.0000000001
 40
-5.309158539051804
 40
-5.309158539051804
 40
-5.309158539051804
 40
0.0
 40
0.0
 40
0.0
 10
1.923810503571637
 20
0.1525787539957797
 30
0.0
 10
4.578389773097539
 20
0.1525787539958106
 30
0.0
 10
7.232969042623441
 20
0.1525787539958415
 30
0.0
  0
SPLINE
  5
A6
330
1F
100
AcDbEntity
  8
Make2D visible lines
100
AcDbSpline
210
0.0
220
0.0
230
1.0
 70
    12
 71
     2
 72
     6
 73
     3
 74
     0
 42
0.0000000001
 43
0.0000000001
 40
0.0
 40
0.0
 40
0.0
 40
0.6012576679582256
 40
0.6012576679582256
 40
0.6012576679582256
 10
4.938078286857392
 20
11.30375263810943
 30
0.0
 41
1.0
 10
4.685904875097432
 20
11.11119152789185
 30
0.0
 41
0.9924518525083379
 10
4.403383683492304
 20
11.00405581872977
 30
0.0
 41
1.0
  0
SPLINE
  5
A7
330
1F
100
AcDbEntity
  8
Make2D visible lines
100
AcDbSpline
210
0.0
220
0.0
230
1.0
 70
    12
 71
     2
 72
     6
 73
     3
 74
     0
 42
0.0000000001
 43
0.0000000001
 40
0.0
 40
0.0
 40
0.0
 40
1.008606465763914
 40
1.008606465763914
 40
1.008606465763914
 10
4.403383683492304
 20
11.00405581872977
 30
0.0
 41
1.0
 10
3.926853414400399
 20
10.82334934490279
 30
0.0
 41
0.9843578174881131
 10
3.400000000002606
 20
10.84224999999912
 30
0.0
 41
1.0
  0
SPLINE
  5
A8
330
1F
100
AcDbEntity
  8
Make2D visible lines
100
AcDbSpline
210
0.0
220
0.0
230
1.0
 70
    24
 71
     2
 72
     6
 73
     3
 74
     0
 42
0.0000000001
 43
0.0000000001
 40
0.0
 40
0.0
 40
0.0
 40
3.399999999999999
 40
3.399999999999999
 40
3.399999999999999
 10
3.400000000002606
 20
10.84224999999912
 30
0.0
 10
1.700000000002628
 20
10.84224999999748
 30
0.0
 10
0.0000000000026503
 20
10.84224999999585
 30
0.0
  0
SPLINE
  5
A9
330
1F
100
AcDbEntity
  8
Make2D visible lines
100
AcDbSpline
210
0.0
220
0.0
230
1.0
 70
    24
 71
     2
 72
     6
 73
     3
 74
     0
 42
0.0000000001
 43
0.0000000001
 40
-3.399999999999999
 40
-3.399999999999999
 40
-3.399999999999999
 40
0.0
 40
0.0
 40
0.0
 10
0.0000000000026503
 20
10.84224999999585
 30
0.0
 10
-1.699999999997328
 20
10.84224999999748
 30
0.0
 10
-3.399999999997306
 20
10.84224999999912
 30
0.0
  0
SPLINE
  5
AA
330
1F
100
AcDbEntity
  8
Make2D visible lines
100
AcDbSpline
210
0.0
220
0.0
230
1.0
 70
    12
 71
     2
 72
     6
 73
     3
 74
     0
 42
0.0000000001
 43
0.0000000001
 40
-1.008606465763914
 40
-1.008606465763914
 40
-1.008606465763914
 40
0.0
 40
0.0
 40
0.0
 10
-3.399999999997306
 20
10.84224999999912
 30
0.0
 41
1.0
 10
-3.926853414395099
 20
10.82334934490279
 30
0.0
 41
0.9843578174881131
 10
-4.403383683487004
 20
11.00405581872977
 30
0.0
 41
1.0
  0
SPLINE
  5
AB
330
1F
100
AcDbEntity
  8
Make2D visible lines
100
AcDbSpline
210
0.0
220
0.0
230
1.0
 70
    12
 71
     2
 72
     6
 73
     3
 74
     0
 42
0.0000000001
 43
0.0000000001
 40
-0.6012576679582256
 40
-0.6012576679582256
 40
-0.6012576679582256
 40
0.0
 40
0.0
 40
0.0
 10
-4.403383683487004
 20
11.00405581872977
 30
0.0
 41
1.0
 10
-4.685904875092131
 20
11.11119152789185
 30
0.0
 41
0.9924518525083379
 10
-4.938078286852091
 20
11.30375263810943
 30
0.0
 41
1.0
  0
SPLINE
  5
AC
330
1F
100
AcDbEntity
  8
Default
100
AcDbSpline
210
0.0
220
0.0
230
1.0
 70
    12
 71
     2
 72
     6
 73
     3
 74
     0
 42
0.0000000001
 43
0.0000000001
 40
-0.211553587540477
 40
-0.211553587540477
 40
-0.211553587540477
 40
0.0
 40
0.0
 40
0.0
 10
-6.502477518353821
 20
0.1525787539958214
 30
0.0
 41
1.0
 10
-6.539067175206425
 20
0.0438962250914205
 30
0.0
 41
0.8875534162529749
 10
-6.649005203120783
 20
0.0112722293835135
 30
0.0
 41
1.0
  0
SPLINE
  5
AD
330
1F
100
AcDbEntity
  8
Default
100
AcDbSpline
210
0.0
220
0.0
230
1.0
 70
     8
 71
     3
 72
     8
 73
     4
 74
     0
 42
0.0000000001
 43
0.0000000001
 40
0.0
 40
0.0
 40
0.0
 40
0.0
 40
1.0
 40
1.0
 40
1.0
 40
1.0
 10
-6.649005203120783
 20
0.0112722293835135
 30
0.0
 10
-6.672607570321087
 20
0.0042682514074945
 30
0.0
 10
-6.697379272183255
 20
0.0000000000000027
 30
0.0
 10
-6.721998927845885
 20
0.0000000000000036
 30
0.0
  0
LINE
  5
AE
330
1F
100
AcDbEntity
  8
Default
100
AcDbLine
 10
-6.721998927845885
 20
0.0000000000000036
 30
0.0
 11
-7.452311446698971
 21
0.0000000000000299
 31
0.0
  0
LINE
  5
AF
330
1F
100
AcDbEntity
  8
Make2D visible lines
100
AcDbLine
 10
-6.313222426880717
 20
11.76790423380818
 30
0.0
 11
-8.908927380983805
 21
1.849471051043777
 31
0.0
  0
SPLINE
  5
B0
330
1F
100
AcDbEntity
  8
Make2D visible lines
100
AcDbSpline
210
0.0
220
0.0
230
1.0
 70
     8
 71
     3
 72
    11
 73
     7
 74
     0
 42
0.0000000001
 43
0.0000000001
 40
0.0
 40
0.0
 40
0.0
 40
0.0
 40
0.1808079666173053
 40
0.3573749741682617
 40
0.6971779454963127
 40
1.284847912810405
 40
1.284847912810405
 40
1.284847912810405
 40
1.284847912810405
 10
-8.908927380983805
 20
1.849471051043777
 30
0.0
 10
-8.924896261503992
 20
1.787942529339398
 30
0.0
 10
-8.951101138414256
 20
1.671789227455212
 30
0.0
 10
-8.986177759548589
 20
1.441694512673601
 30
0.0
 10
-9.002700310655467
 20
1.073539047268699
 30
0.0
 10
-8.941866848531038
 20
0.7646989773466698
 30
0.0
 10
-8.853776599370029
 20
0.5887500000162448
 30
0.0
  0
SPLINE
  5
B1
330
1F
100
AcDbEntity
  8
Make2D visible lines
100
AcDbSpline
210
0.0
220
0.0
230
1.0
 70
     8
 71
     3
 72
    12
 73
     8
 74
     0
 42
0.0000000001
 43
0.0000000001
 40
0.0
 40
0.0
 40
0.0
 40
0.0
 40
0.1045449495724591
 40
0.2148937681762403
 40
0.5007879948566512
 40
0.8561420073208538
 40
1.264081239529036
 40
1.264081239529036
 40
1.264081239529036
 40
1.264081239529036
 10
-8.246604095506871
 20
0.5946423465464109
 30
0.0
 10
-8.280550316403623
 20
0.6020719707281382
 30
0.0
 10
-8.347849109360109
 20
0.6310631011182968
 30
0.0
 10
-8.463624316933032
 20
0.7555571056216934
 30
0.0
 10
-8.547639076530153
 20
0.9968449928249623
 30
0.0
 10
-8.56330217480092
 20
1.348128394503139
 30
0.0
 10
-8.521299246639952
 20
1.600551821673184
 30
0.0
 10
-8.487381968538457
 20
1.732138477176544
 30
0.0
  0
SPLINE
  5
B2
330
1F
100
AcDbEntity
  8
Make2D visible lines
100
AcDbSpline
210
0.0
220
0.0
230
1.0
 70
    24
 71
     2
 72
     6
 73
     3
 74
     0
 42
0.0000000001
 43
0.0000000001
 40
0.0
 40
0.0
 40
0.0
 40
10.18306939563208
 40
10.18306939563208
 40
10.18306939563208
 10
-8.487381968538457
 20
1.732138477176544
 30
0.0
 10
-7.196624356155145
 20
6.664279276977405
 30
0.0
 10
-5.905866743771833
 20
11.59642007677827
 30
0.0
  0
SPLINE
  5
B3
330
1F
100
AcDbEntity
  8
Default
100
AcDbSpline
210
0.0
220
0.0
230
1.0
 70
    12
 71
     2
 72
     6
 73
     3
 74
     0
 42
0.0000000001
 43
0.0000000001
 40
0.0
 40
0.0
 40
0.0
 40
1.583110905188138
 40
1.583110905188138
 40
1.583110905188138
 10
-10.41277801465863
 20
19.53078064073213
 30
0.0
 41
1.0
 10
-10.76221052831808
 20
18.81983186169824
 30
0.0
 41
0.9988153325166107
 10
-11.04087862523597
 20
18.07828257825695
 30
0.0
 41
1.0
  0
SPLINE
  5
B4
330
1F
100
AcDbEntity
  8
Default
100
AcDbSpline
210
0.0
220
0.0
230
1.0
 70
     8
 71
     3
 72
    12
 73
     8
 74
     0
 42
0.0000000001
 43
0.0000000001
 40
0.0
 40
0.0
 40
0.0
 40
0.0
 40
0.4529530672337769
 40
0.8989806355331963
 40
1.574670328680222
 40
2.014302469462591
 40
2.291222462139759
 40
2.291222462139759
 40
2.291222462139759
 40
2.291222462139759
 10
-11.04087862523597
 20
18.07828257825695
 30
0.0
 10
-11.09384621473467
 20
17.93669371244688
 30
0.0
 10
-11.19386053312597
 20
17.65472300209749
 30
0.0
 10
-11.35199695100016
 20
17.15328998492634
 30
0.0
 10
-11.47788749242265
 20
16.64892314209861
 30
0.0
 10
-11.52709756576974
 20
16.18357346603405
 30
0.0
 10
-11.45119995933915
 20
15.94796900433861
 30
0.0
 10
-11.37792791927435
 20
15.88612097073516
 30
0.0
  0
SPLINE
  5
B5
330
1F
100
AcDbEntity
  8
Default
100
AcDbSpline
210
0.0
220
0.0
230
1.0
 70
     8
 71
     3
 72
    14
 73
    10
 74
     0
 42
0.0000000001
 43
0.0000000001
 40
-7.0
 40
-7.0
 40
-7.0
 40
-7.0
 40
-6.0
 40
-5.0
 40
-4.0
 40
-3.0
 40
-2.0
 40
-1.0
 40
0.0
 40
0.0
 40
0.0
 40
0.0
 10
-11.37792791927435
 20
15.88612097073516
 30
0.0
 10
-11.22588198079126
 20
15.75957318477466
 30
0.0
 10
-10.84517691873138
 20
15.64838228015738
 30
0.0
 10
-10.26737070841726
 20
15.56860242174043
 30
0.0
 10
-9.682730642033784
 20
15.53934572236232
 30
0.0
 10
-9.098288857125747
 20
15.53524319184242
 30
0.0
 10
-8.513841950257692
 20
15.54834822767862
 30
0.0
 10
-7.92944883466665
 20
15.56024326935321
 30
0.0
 10
-7.539783737372597
 20
15.56510295791084
 30
0.0
 10
-7.344951142437504
 20
15.56704833573291
 30
0.0
  0
SPLINE
  5
B6
330
1F
100
AcDbEntity
  8
Default
100
AcDbSpline
210
0.0
220
0.0
230
1.0
 70
    12
 71
     2
 72
     6
 73
     3
 74
     0
 42
0.0000000001
 43
0.0000000001
 40
0.0
 40
0.0
 40
0.0
 40
1.583110905188138
 40
1.583110905188138
 40
1.583110905188138
 10
10.41277801465863
 20
19.53078064073213
 30
0.0
 41
1.0
 10
10.76221052831808
 20
18.81983186169824
 30
0.0
 41
0.9988153325166107
 10
11.04087862523597
 20
18.07828257825695
 30
0.0
 41
1.0
  0
SPLINE
  5
B7
330
1F
100
AcDbEntity
  8
Default
100
AcDbSpline
210
0.0
220
0.0
230
1.0
 70
     8
 71
     3
 72
    12
 73
     8
 74
     0
 42
0.0000000001
 43
0.0000000001
 40
0.0
 40
0.0
 40
0.0
 40
0.0
 40
0.4529530672337769
 40
0.8989806355331963
 40
1.574670328680222
 40
2.014302469462591
 40
2.291222462139759
 40
2.291222462139759
 40
2.291222462139759
 40
2.291222462139759
 10
11.04087862523597
 20
18.07828257825695
 30
0.0
 10
11.09384621473467
 20
17.93669371244688
 30
0.0
 10
11.19386053312597
 20
17.65472300209749
 30
0.0
 10
11.35199695100016
 20
17.15328998492634
 30
0.0
 10
11.47788749242265
 20
16.64892314209861
 30
0.0
 10
11.52709756576974
 20
16.18357346603405
 30
0.0
 10
11.45119995933915
 20
15.94796900433861
 30
0.0
 10
11.37792791927435
 20
15.88612097073516
 30
0.0
  0
SPLINE
  5
B8
330
1F
100
AcDbEntity
  8
Default
100
AcDbSpline
210
0.0
220
0.0
230
1.0
 70
     8
 71
     3
 72
    14
 73
    10
 74
     0
 42
0.0000000001
 43
0.0000000001
 40
-7.0
 40
-7.0
 40
-7.0
 40
-7.0
 40
-6.0
 40
-5.0
 40
-4.0
 40
-3.0
 40
-2.0
 40
-1.0
 40
0.0
 40
0.0
 40
0.0
 40
0.0
 10
11.37792791927435
 20
15.88612097073516
 30
0.0
 10
11.22588198079126
 20
15.75957318477466
 30
0.0
 10
10.84517691873138
 20
15.64838228015738
 30
0.0
 10
10.26737070841726
 20
15.56860242174043
 30
0.0
 10
9.682730642033784
 20
15.53934572236232
 30
0.0
 10
9.098288857125747
 20
15.53524319184242
 30
0.0
 10
8.513841950257692
 20
15.54834822767862
 30
0.0
 10
7.92944883466665
 20
15.56024326935321
 30
0.0
 10
7.539783737372597
 20
15.56510295791084
 30
0.0
 10
7.344951142437504
 20
15.56704833573291
 30
0.0
  0
SPLINE
  5
B9
330
1F
100
AcDbEntity
  8
Default
100
AcDbSpline
210
0.0
220
0.0
230
1.0
 70
     8
 71
     3
 72
    14
 73
    10
 74
     0
 42
0.0000000001
 43
0.0000000001
 40
0.0
 40
0.0
 40
0.0
 40
0.0
 40
0.7751197434126851
 40
1.699404317797073
 40
5.441373487204848
 40
7.276929656206133
 40
9.1912374263063
 40
12.91240060869158
 40
14.63159141267424
 40
14.63159141267424
 40
14.63159141267424
 40
14.63159141267424
 10
-7.314767038716764
 20
15.56515900388359
 30
0.0
 10
-7.056452585090113
 20
15.57017827301386
 30
0.0
 10
-6.489984429317805
 20
15.57735353242662
 30
0.0
 10
-4.676182271147655
 20
15.56208874586103
 30
0.0
 10
-2.509898151041316
 20
15.53979665102305
 30
0.0
 10
-0.0126383240748034
 20
15.51560638727738
 30
0.0
 10
2.477703162479687
 20
15.53978404880081
 30
0.0
 10
4.928151105144414
 20
15.57035514195481
 30
0.0
 10
6.74175292663549
 20
15.57862291920626
 30
0.0
 10
7.314732379838334
 20
15.56515807848862
 30
0.0
  0
SPLINE
  5
BA
330
1F
100
AcDbEntity
  8
Default
100
AcDbSpline
210
0.0
220
0.0
230
1.0
 70
    12
 71
     2
 72
    12
 73
     9
 74
     0
 42
0.0000000001
 43
0.0000000001
 40
-1.979652464604932
 40
-1.979652464604932
 40
-1.979652464604932
 40
0.0
 40
0.0
 40
4.924641608380323
 40
4.924641608380323
 40
9.849283216760647
 40
9.849283216760647
 40
11.82893568136558
 40
11.82893568136558
 40
11.82893568136558
 10
6.923633760784574
 20
40.28531112555298
 30
0.0
 41
1.0
 10
5.934109130810739
 20
40.26081865490813
 30
0.0
 41
0.9999977732910779
 10
4.923890630330106
 20
40.22453425490055
 30
0.0
 41
0.9999999999999896
 10
2.46245150261173
 20
40.15310724980208
 30
0.0
 41
0.999905916170127
 10
-0.0000206958959144
 20
40.14922548616992
 30
0.0
 41
1.000000000000237
 10
-2.462492894403558
 20
40.15310724980208
 30
0.0
 41
0.999905916170127
 10
-4.923932022121935
 20
40.22453425490055
 30
0.0
 41
0.9999999999999896
 10
-5.934150522602569
 20
40.26081865490813
 30
0.0
 41
0.9999977732910779
 10
-6.923675152576402
 20
40.28531112555298
 30
0.0
 41
1.0
  0
SPLINE
  5
BB
330
1F
100
AcDbEntity
  8
Default
100
AcDbSpline
210
0.0
220
0.0
230
1.0
 70
    12
 71
     2
 72
     6
 73
     3
 74
     0
 42
0.0000000001
 43
0.0000000001
 40
0.0
 40
0.0
 40
0.0
 40
0.3785634867430925
 40
0.3785634867430925
 40
0.3785634867430925
 10
-6.923675152576402
 20
40.28531112555298
 30
0.0
 41
1.0
 10
-7.113413209992612
 20
40.29000747535642
 30
0.0
 41
0.9959393302338803
 10
-7.300928071738008
 20
40.26060450838888
 30
0.0
 41
1.0
  0
SPLINE
  5
BC
330
1F
100
AcDbEntity
  8
Default
100
AcDbSpline
210
0.0
220
0.0
230
1.0
 70
     8
 71
     3
 72
    11
 73
     7
 74
     0
 42
0.0000000001
 43
0.0000000001
 40
0.0
 40
0.0
 40
0.0
 40
0.0
 40
0.3325467378781747
 40
0.682399112458213
 40
1.339748098685043
 40
2.743097143419929
 40
2.743097143419929
 40
2.743097143419929
 40
2.743097143419929
 10
-7.300928071738008
 20
40.26060450838888
 30
0.0
 10
-7.41021284097585
 20
40.2432398966629
 30
0.0
 10
-7.631907932974697
 20
40.18533496145396
 30
0.0
 10
-8.035836681786849
 20
39.99297127123899
 30
0.0
 10
-8.646901808576809
 20
39.44398271138213
 30
0.0
 10
-8.828808196779546
 20
38.72918528648587
 30
0.0
 10
-8.77873952437084
 20
38.26513346496205
 30
0.0
  0
SPLINE
  5
BD
330
1F
100
AcDbEntity
  8
Default
100
AcDbSpline
210
0.0
220
0.0
230
1.0
 70
    12
 71
     3
 72
    28
 73
    24
 74
     0
 42
0.0000000001
 43
0.0000000001
 40
0.0
 40
0.0
 40
0.0
 40
0.0
 40
7.972644806918767
 40
7.972644806918767
 40
7.972644806918767
 40
8.389323015618313
 40
8.774887042536383
 40
9.635609129923907
 40
11.45866901066649
 40
11.45866901066649
 40
11.45866901066649
 40
12.45866901066649
 40
13.45866901066649
 40
14.45866901066649
 40
15.45866901066649
 40
16.45866901066649
 40
17.45866901066649
 40
18.45866901066649
 40
19.45866901066649
 40
20.45866901066649
 40
21.45866901066649
 40
22.45866901066649
 40
23.45866901066649
 40
23.45866901066649
 40
23.45866901066649
 40
23.45866901066649
 10
-8.77873952437084
 20
38.26513346496205
 30
0.0
 41
1.0
 10
-8.493656231439335
 20
35.62289401649068
 30
0.0
 41
0.9999803213218016
 10
-8.117720400403462
 20
32.93701699719571
 30
0.0
 41
0.9999803213218016
 10
-7.759708428091139
 20
30.30366756830332
 30
0.0
 41
1.0
 10
-7.742801399043371
 20
30.16591722474789
 30
0.0
 41
1.0
 10
-7.713829933901527
 20
29.89966181439337
 30
0.0
 41
1.0
 10
-7.700131161497216
 20
29.34538953169473
 30
0.0
 41
1.0
 10
-7.780912660593623
 20
28.32256725017483
 30
0.0
 41
1.0
 10
-8.025215205266148
 20
27.45539995274616
 30
0.0
 41
1.0
 10
-8.244211938214406
 20
26.88895170452658
 30
0.0
 41
1.0
 10
-8.359738300275524
 20
26.58590040551028
 30
0.0
 41
1.0
 10
-8.600736416541954
 20
25.9836897391908
 30
0.0
 41
1.0
 10
-8.955753604807255
 20
25.07782829991196
 30
0.0
 41
1.0
 10
-9.309569388367724
 20
24.17149734978061
 30
0.0
 41
1.0
 10
-9.660791279369255
 20
23.26415590441786
 30
0.0
 41
1.0
 10
-10.00969719216663
 20
22.35592646851567
 30
0.0
 41
1.0
 10
-10.35655401664515
 20
21.44689601313667
 30
0.0
 41
1.0
 10
-10.70000274757743
 20
20.53662936695634
 30
0.0
 41
1.0
 10
-11.04519866490448
 20
19.62681657614188
 30
0.0
 41
1.0
 10
-11.37286674313303
 20
18.71116674698537
 30
0.0
 41
1.0
 10
-11.73246277104857
 20
17.80488201566301
 30
0.0
 41
1.0
 10
-11.97089805120574
 20
16.86298591392528
 30
0.0
 41
1.0
 10
-11.97263764270287
 20
16.19761914952154
 30
0.0
 41
1.0
 10
-11.84461442079466
 20
15.89597106344381
 30
0.0
 41
1.0
  0
SPLINE
  5
BE
330
1F
100
AcDbEntity
  8
Default
100
AcDbSpline
210
0.0
220
0.0
230
1.0
 70
     8
 71
     3
 72
    18
 73
    14
 74
     0
 42
0.0000000001
 43
0.0000000001
 40
0.0
 40
0.0
 40
0.0
 40
0.0
 40
1.0
 40
2.0
 40
3.0
 40
4.0
 40
5.0
 40
6.0
 40
7.0
 40
8.0
 40
9.0
 40
10.0
 40
11.0
 40
11.0
 40
11.0
 40
11.0
 10
-11.84461442079466
 20
15.89597106344381
 30
0.0
 10
-11.67021377752894
 20
15.55709136517616
 30
0.0
 10
-10.96681776878795
 20
15.24158080532104
 30
0.0
 10
-9.880127326827745
 20
15.11839331878057
 30
0.0
 10
-8.780176980807859
 20
15.11834300264222
 30
0.0
 10
-7.68317170238778
 20
15.12410463610236
 30
0.0
 10
-6.585374508111108
 20
15.11796335225444
 30
0.0
 10
-5.487839905903898
 20
15.10709270050513
 30
0.0
 10
-4.390288092325658
 20
15.09257761292579
 30
0.0
 10
-3.29276616839454
 20
15.0771334669727
 30
0.0
 10
-2.195220754752082
 20
15.06303831625935
 30
0.0
 10
-1.097632734437661
 20
15.05268780767718
 30
0.0
 10
-0.3658782512492879
 20
15.0498601957843
 30
0.0
 10
0.000000000000002
 20
15.04986025908359
 30
0.0
  0
SPLINE
  5
BF
330
1F
100
AcDbEntity
  8
Default
100
AcDbSpline
210
0.0
220
0.0
230
1.0
 70
     8
 71
     3
 72
    18
 73
    14
 74
     0
 42
0.0000000001
 43
0.0000000001
 40
-11.0
 40
-11.0
 40
-11.0
 40
-11.0
 40
-10.0
 40
-9.0
 40
-8.0
 40
-7.0
 40
-6.0
 40
-5.0
 40
-4.0
 40
-3.0
 40
-2.0
 40
-1.0
 40
0.0
 40
0.0
 40
0.0
 40
0.0
 10
0.000000000000002
 20
15.04986025908359
 30
0.0
 10
0.365878251249292
 20
15.0498601957843
 30
0.0
 10
1.097632734437665
 20
15.05268780767718
 30
0.0
 10
2.195220754752086
 20
15.06303831625933
 30
0.0
 10
3.292766168394544
 20
15.07713346697268
 30
0.0
 10
4.390288092325663
 20
15.09257761292576
 30
0.0
 10
5.487839905903902
 20
15.1070927005051
 30
0.0
 10
6.585374508111112
 20
15.1179633522544
 30
0.0
 10
7.683171702387784
 20
15.12410463610231
 30
0.0
 10
8.780176980807864
 20
15.11834300264217
 30
0.0
 10
9.88012732682775
 20
15.11839331878051
 30
0.0
 10
10.96681776878795
 20
15.24158080532098
 30
0.0
 10
11.67021377752894
 20
15.55709136517609
 30
0.0
 10
11.84459372489875
 20
15.89597106344378
 30
0.0
  0
SPLINE
  5
C0
330
1F
100
AcDbEntity
  8
Default
100
AcDbSpline
210
0.0
220
0.0
230
1.0
 70
    12
 71
     3
 72
    28
 73
    24
 74
     0
 42
0.0000000001
 43
0.0000000001
 40
-23.45866901066649
 40
-23.45866901066649
 40
-23.45866901066649
 40
-23.45866901066649
 40
-22.45866901066649
 40
-21.45866901066649
 40
-20.45866901066649
 40
-19.45866901066649
 40
-18.45866901066649
 40
-17.45866901066649
 40
-16.45866901066649
 40
-15.45866901066649
 40
-14.45866901066649
 40
-13.45866901066649
 40
-12.45866901066649
 40
-11.45866901066649
 40
-11.45866901066649
 40
-11.45866901066649
 40
-9.635609129923907
 40
-8.774887042536383
 40
-8.389323015618313
 40
-7.972644806918767
 40
-7.972644806918767
 40
-7.972644806918767
 40
0.0
 40
0.0
 40
0.0
 40
0.0
 10
11.84459372489875
 20
15.89597106344378
 30
0.0
 41
1.0
 10
11.97259625091104
 20
16.19761914952154
 30
0.0
 41
1.0
 10
11.97085665941391
 20
16.86298591392528
 30
0.0
 41
1.0
 10
11.73242137925674
 20
17.80488201566301
 30
0.0
 41
1.0
 10
11.37282535134121
 20
18.71116674698537
 30
0.0
 41
1.0
 10
11.04515727311265
 20
19.62681657614188
 30
0.0
 41
1.0
 10
10.6999613557856
 20
20.53662936695634
 30
0.0
 41
1.0
 10
10.35651262485333
 20
21.44689601313667
 30
0.0
 41
1.0
 10
10.0096558003748
 20
22.35592646851567
 30
0.0
 41
1.0
 10
9.660749887577426
 20
23.26415590441786
 30
0.0
 41
1.0
 10
9.309527996575895
 20
24.17149734978061
 30
0.0
 41
1.0
 10
8.955712213015426
 20
25.07782829991196
 30
0.0
 41
1.0
 10
8.600695024750125
 20
25.9836897391908
 30
0.0
 41
1.0
 10
8.359696908483695
 20
26.58590040551028
 30
0.0
 41
1.0
 10
8.244170546422577
 20
26.88895170452658
 30
0.0
 41
1.0
 10
8.02517381347432
 20
27.45539995274616
 30
0.0
 41
1.0
 10
7.780871268801794
 20
28.32256725017483
 30
0.0
 41
1.0
 10
7.700089769705388
 20
29.34538953169473
 30
0.0
 41
1.0
 10
7.713788542109699
 20
29.89966181439337
 30
0.0
 41
1.0
 10
7.742760007251542
 20
30.16591722474789
 30
0.0
 41
1.0
 10
7.759667036299311
 20
30.30366756830332
 30
0.0
 41
1.0
 10
8.117679008611633
 20
32.93701699719571
 30
0.0
 41
0.9999803213218016
 10
8.493614839647508
 20
35.62289401649068
 30
0.0
 41
0.9999803213218016
 10
8.778698132579011
 20
38.26513346496205
 30
0.0
 41
1.0
  0
SPLINE
  5
C1
330
1F
100
AcDbEntity
  8
Default
100
AcDbSpline
210
0.0
220
0.0
230
1.0
 70
     8
 71
     3
 72
    11
 73
     7
 74
     0
 42
0.0000000001
 43
0.0000000001
 40
-2.743097143419929
 40
-2.743097143419929
 40
-2.743097143419929
 40
-2.743097143419929
 40
-1.339748098685043
 40
-0.682399112458213
 40
-0.3325467378781747
 40
0.0
 40
0.0
 40
0.0
 40
0.0
 10
8.778698132579011
 20
38.26513346496205
 30
0.0
 10
8.828766804987717
 20
38.72918528648587
 30
0.0
 10
8.64686041678498
 20
39.44398271138213
 30
0.0
 10
8.03579528999502
 20
39.99297127123899
 30
0.0
 10
7.631866541182868
 20
40.18533496145396
 30
0.0
 10
7.410171449184022
 20
40.2432398966629
 30
0.0
 10
7.30088667994618
 20
40.26060450838888
 30
0.0
  0
SPLINE
  5
C2
330
1F
100
AcDbEntity
  8
Default
100
AcDbSpline
210
0.0
220
0.0
230
1.0
 70
    12
 71
     2
 72
     6
 73
     3
 74
     0
 42
0.0000000001
 43
0.0000000001
 40
-0.3785634867430925
 40
-0.3785634867430925
 40
-0.3785634867430925
 40
0.0
 40
0.0
 40
0.0
 10
7.30088667994618
 20
40.26060450838888
 30
0.0
 41
1.0
 10
7.113371818200783
 20
40.29000747535642
 30
0.0
 41
0.9959393302338803
 10
6.923633760784574
 20
40.28531112555298
 30
0.0
 41
1.0
  0
SPLINE
  5
C3
330
1F
100
AcDbEntity
  8
Default
100
AcDbSpline
210
0.0
220
0.0
230
1.0
 70
    24
 71
     2
 72
     6
 73
     3
 74
     0
 42
0.0000000001
 43
0.0000000001
 40
0.0
 40
0.0
 40
0.0
 40
0.3709331610280567
 40
0.3709331610280567
 40
0.3709331610280567
 10
9.624992430832208
 20
15.54198788869554
 30
0.0
 10
9.624952259960521
 20
15.72999297431006
 30
0.0
 10
9.624912089088834
 20
15.91799805992459
 30
0.0
  0
SPLINE
  5
C4
330
1F
100
AcDbEntity
  8
Default
100
AcDbSpline
210
0.0
220
0.0
230
1.0
 70
     8
 71
     3
 72
    12
 73
     8
 74
     0
 42
0.0000000001
 43
0.0000000001
 40
0.0
 40
0.0
 40
0.0
 40
0.0
 40
0.1195530801918726
 40
0.2452458973806048
 40
0.5491896479788391
 40
1.036657499911663
 40
1.758696564887424
 40
1.758696564887424
 40
1.758696564887424
 40
1.758696564887424
 10
9.624912089088834
 20
15.91799805992459
 30
0.0
 10
9.623146479844486
 20
15.963242376899
 30
0.0
 10
9.606766045556464
 20
16.04351254353697
 30
0.0
 10
9.503805018400927
 20
16.20146561898054
 30
0.0
 10
9.2318493406793
 20
16.35274512690587
 30
0.0
 10
8.74525585508102
 20
16.48679117706801
 30
0.0
 10
8.347935012153089
 20
16.55927821659914
 30
0.0
 10
8.110143422735884
 20
16.59540297864248
 30
0.0
  0
SPLINE
  5
C5
330
1F
100
AcDbEntity
  8
Default
100
AcDbSpline
210
0.0
220
0.0
230
1.0
 70
    12
 71
     3
 72
    12
 73
     8
 74
     0
 42
0.0000000001
 43
0.0000000001
 40
0.3359610780357872
 40
0.3359610780357872
 40
0.3359610780357872
 40
0.3359610780357872
 40
0.4999999989962435
 40
0.4999999989962435
 40
0.74999999982478
 40
0.74999999982478
 40
1.0
 40
1.0
 40
1.0
 40
1.0
 10
8.110143422735884
 20
16.59540297864248
 30
0.0
 41
1.0
 10
7.695923563261617
 20
16.65942849279218
 30
0.0
 41
1.0
 10
7.192477162061444
 20
16.71843851072113
 30
0.0
 41
1.0
 10
5.739409628439899
 20
16.84968910176195
 30
0.0
 41
1.0
 10
4.69561260935621
 20
16.91259734639211
 30
0.0
 41
1.0
 10
2.434116903581726
 20
16.99731890425712
 30
0.0
 41
1.0
 10
1.216462043473545
 20
17.01920867317729
 30
0.0
 41
1.0
 10
-0.0000000058993148
 20
17.01920700125976
 30
0.0
 41
1.0
  0
SPLINE
  5
C6
330
1F
100
AcDbEntity
  8
Default
100
AcDbSpline
210
0.0
220
0.0
230
1.0
 70
    12
 71
     3
 72
    12
 73
     8
 74
     0
 42
0.0000000001
 43
0.0000000001
 40
-1.0
 40
-1.0
 40
-1.0
 40
-1.0
 40
-0.74999999982478
 40
-0.74999999982478
 40
-0.4999999989962435
 40
-0.4999999989962435
 40
-0.3359610780357872
 40
-0.3359610780357872
 40
-0.3359610780357872
 40
-0.3359610780357872
 10
-0.0000000058993148
 20
17.01920700125976
 30
0.0
 41
1.0
 10
-1.216462055272174
 20
17.01920867317729
 30
0.0
 41
1.0
 10
-2.434116915380356
 20
16.99731890425712
 30
0.0
 41
1.0
 10
-4.69561262115484
 20
16.91259734639211
 30
0.0
 41
1.0
 10
-5.739409640238529
 20
16.84968910176195
 30
0.0
 41
1.0
 10
-7.192477173860073
 20
16.71843851072113
 30
0.0
 41
1.0
 10
-7.695923575060247
 20
16.65942849279218
 30
0.0
 41
1.0
 10
-8.110143434534514
 20
16.59540297864248
 30
0.0
 41
1.0
  0
SPLINE
  5
C7
330
1F
100
AcDbEntity
  8
Default
100
AcDbSpline
210
0.0
220
0.0
230
1.0
 70
     8
 71
     3
 72
    12
 73
     8
 74
     0
 42
0.0000000001
 43
0.0000000001
 40
-1.758696564887424
 40
-1.758696564887424
 40
-1.758696564887424
 40
-1.758696564887424
 40
-1.036657499911663
 40
-0.5491896479788391
 40
-0.2452458973806048
 40
-0.1195530801918726
 40
0.0
 40
0.0
 40
0.0
 40
0.0
 10
-8.110143434534514
 20
16.59540297864248
 30
0.0
 10
-8.347935023951718
 20
16.55927821659914
 30
0.0
 10
-8.74525586687965
 20
16.48679117706801
 30
0.0
 10
-9.23184935247793
 20
16.35274512690587
 30
0.0
 10
-9.503805030199556
 20
16.20146561898054
 30
0.0
 10
-9.606766057355093
 20
16.04351254353697
 30
0.0
 10
-9.623146491643116
 20
15.963242376899
 30
0.0
 10
-9.624912094988149
 20
15.91799805992459
 30
0.0
  0
SPLINE
  5
C8
330
1F
100
AcDbEntity
  8
Default
100
AcDbSpline
210
0.0
220
0.0
230
1.0
 70
    24
 71
     2
 72
     6
 73
     3
 74
     0
 42
0.0000000001
 43
0.0000000001
 40
-0.3709331610280567
 40
-0.3709331610280567
 40
-0.3709331610280567
 40
0.0
 40
0.0
 40
0.0
 10
-9.624912094988149
 20
15.91799805992459
 30
0.0
 10
-9.624952262910178
 20
15.72999297431006
 30
0.0
 10
-9.624992430832208
 20
15.54198788869554
 30
0.0
  0
SPLINE
  5
C9
330
1F
100
AcDbEntity
  8
Default
100
AcDbSpline
210
0.0
220
0.0
230
1.0
 70
     8
 71
     3
 72
    34
 73
    30
 74
     0
 42
0.0000000001
 43
0.0000000001
 40
0.0
 40
0.0
 40
0.0
 40
0.0
 40
1.0
 40
2.0
 40
3.0
 40
4.0
 40
5.0
 40
6.0
 40
7.0
 40
8.0
 40
9.0
 40
10.0
 40
11.0
 40
12.0
 40
13.0
 40
14.0
 40
15.0
 40
16.0
 40
17.0
 40
18.0
 40
19.0
 40
20.0
 40
21.0
 40
22.0
 40
23.0
 40
24.0
 40
25.0
 40
26.0
 40
27.0
 40
27.0
 40
27.0
 40
27.0
 10
18.43610172642555
 20
40.28506549090084
 30
0.0
 10
18.68066354895393
 20
40.08253396456489
 30
0.0
 10
18.85168383981303
 20
39.42677967542453
 30
0.0
 10
19.07555280962181
 20
38.49428058066121
 30
0.0
 10
19.16945518275352
 20
37.52326103169829
 30
0.0
 10
19.30350144148129
 20
36.56316028606601
 30
0.0
 10
19.44798218906102
 20
35.60307587597637
 30
0.0
 10
19.61634916692688
 20
34.64724541504712
 30
0.0
 10
19.80400342318431
 20
33.69494042545799
 30
0.0
 10
20.01240583337143
 20
32.74696572109277
 30
0.0
 10
20.24770037812719
 20
31.80520585189441
 30
0.0
 10
20.51714441108477
 20
30.87270911828298
 30
0.0
 10
20.82156283345284
 20
29.95067148564777
 30
0.0
 10
21.19531090624463
 20
29.05409408591552
 30
0.0
 10
21.63675813203237
 20
28.18907806607887
 30
0.0
 10
22.14105648514183
 20
27.35875254061008
 30
0.0
 10
22.71384981393439
 20
26.5746711539169
 30
0.0
 10
23.31609941377039
 20
25.81351982197207
 30
0.0
 10
23.93287189024267
 20
25.06407739778635
 30
0.0
 10
24.56639778066506
 20
24.32873171729558
 30
0.0
 10
25.2151853130206
 20
23.60683308041152
 30
0.0
 10
25.87759959227969
 20
22.89742875043736
 30
0.0
 10
26.55224710472653
 20
22.19965564518546
 30
0.0
 10
27.23808941476454
 20
21.51289002556565
 30
0.0
 10
27.93407885802966
 20
20.83641624128627
 30
0.0
 10
28.63922564670493
 20
20.16949967343825
 30
0.0
 10
29.3525528310041
 20
19.51134540507191
 30
0.0
 10
30.07328276235579
 20
18.86131142319545
 30
0.0
 10
30.61377131831054
 20
18.37967423438791
 30
0.0
 10
30.85952498214267
 20
18.16927323831816
 30
0.0
  0
SPLINE
  5
CA
330
1F
100
AcDbEntity
  8
Default
100
AcDbSpline
210
0.0
220
0.0
230
1.0
 70
     8
 71
     3
 72
    22
 73
    18
 74
     0
 42
0.0000000001
 43
0.0000000001
 40
0.0
 40
0.0
 40
0.0
 40
0.0
 40
1.0
 40
2.0
 40
3.0
 40
4.0
 40
5.0
 40
6.0
 40
7.0
 40
8.0
 40
9.0
 40
10.0
 40
11.0
 40
12.0
 40
13.0
 40
14.0
 40
15.0
 40
15.0
 40
15.0
 40
15.0
 10
30.85952498214267
 20
18.16927323831816
 30
0.0
 10
31.12583818116711
 20
17.94127028012201
 30
0.0
 10
31.76484098888379
 20
17.49343159299169
 30
0.0
 10
32.70097619862339
 20
17.01112526595342
 30
0.0
 10
33.6774468357588
 20
16.61794332854047
 30
0.0
 10
34.67416666698037
 20
16.28107146675895
 30
0.0
 10
35.68875207839081
 20
16.00188533745517
 30
0.0
 10
36.71680098353836
 20
15.77818044067405
 30
0.0
 10
37.75309907539427
 20
15.59754782227954
 30
0.0
 10
38.79232159298515
 20
15.43508729053575
 30
0.0
 10
39.83455721882963
 20
15.29299050403745
 30
0.0
 10
40.88057413036923
 20
15.18095498422941
 30
0.0
 10
41.93102704028895
 20
15.11930671316675
 30
0.0
 10
42.98302157389769
 20
15.11716394926102
 30
0.0
 10
44.03479988807099
 20
15.12654649770914
 30
0.0
 10
45.086545329618
 20
15.1057123453304
 30
0.0
 10
45.78699833790732
 20
15.0718164637911
 30
0.0
 10
46.13691683019628
 20
15.04986004684282
 30
0.0
  0
SPLINE
  5
CB
330
1F
100
AcDbEntity
  8
Default
100
AcDbSpline
210
0.0
220
0.0
230
1.0
 70
    24
 71
     2
 72
     6
 73
     3
 74
     0
 42
0.0000000001
 43
0.0000000001
 40
0.0
 40
0.0
 40
0.0
 40
1.314822148069673
 40
1.314822148069673
 40
1.314822148069673
 10
45.63726052633254
 20
15.48462904610283
 30
0.0
 10
45.5756211440786
 20
16.13914406259901
 30
0.0
 10
45.51398176182465
 20
16.79365907909519
 30
0.0
  0
SPLINE
  5
CC
330
1F
100
AcDbEntity
  8
Default
100
AcDbSpline
210
0.0
220
0.0
230
1.0
 70
    12
 71
     2
 72
     6
 73
     3
 74
     0
 42
0.0000000001
 43
0.0000000001
 40
0.0
 40
0.0
 40
0.0
 40
0.3467243252475387
 40
0.3467243252475387
 40
0.3467243252475387
 10
45.51398176182465
 20
16.79365907909519
 30
0.0
 41
1.0
 10
45.47348429059267
 20
17.00420181725734
 30
0.0
 41
0.7690462387954616
 10
45.26637383920855
 20
17.02096355461023
 30
0.0
 41
1.0
  0
SPLINE
  5
CD
330
1F
100
AcDbEntity
  8
Default
100
AcDbSpline
210
0.0
220
0.0
230
1.0
 70
    12
 71
     3
 72
    16
 73
    12
 74
     0
 42
0.0000000001
 43
0.0000000001
 40
-7.642831826985982
 40
-7.642831826985982
 40
-7.642831826985982
 40
-7.642831826985982
 40
-7.207258297971308
 40
-6.573307433294788
 40
-4.800874885716957
 40
-2.543891929489456
 40
-1.298549380639849
 40
0.0
 40
0.0
 40
0.0
 40
3.292290231706387
 40
3.292290231706387
 40
3.292290231706387
 40
3.292290231706387
 10
45.26637383920855
 20
17.02096355461023
 30
0.0
 41
1.0
 10
45.1216370374439
 20
17.03267730560764
 30
0.0
 41
1.0
 10
44.74391227338485
 20
17.04371773972868
 30
0.0
 41
1.0
 10
43.79652810356107
 20
17.0390195959607
 30
0.0
 41
1.0
 10
42.24277621269117
 20
16.98793185549351
 30
0.0
 41
1.0
 10
40.48672368955459
 20
16.89979395490453
 30
0.0
 41
1.0
 10
38.88932373651961
 20
16.8030706291328
 30
0.0
 41
1.0
 10
38.04326501271116
 20
16.74644290374469
 30
0.0
 41
1.0
 10
37.61148110689024
 20
16.71599542429016
 30
0.0
 41
1.0
 10
36.51664932225611
 20
16.63879275920833
 30
0.0
 41
0.999780755992405
 10
35.42415738947656
 20
16.53353942219486
 30
0.0
 41
0.999780755992405
 10
34.33472387548035
 20
16.40030464174001
 30
0.0
 41
1.0
  0
SPLINE
  5
CE
330
1F
100
AcDbEntity
  8
Default
100
AcDbSpline
210
0.0
220
0.0
230
1.0
 70
    12
 71
     2
 72
     6
 73
     3
 74
     0
 42
0.0000000001
 43
0.0000000001
 40
-0.443505275079806
 40
-0.443505275079806
 40
-0.443505275079806
 40
0.0
 40
0.0
 40
0.0
 10
-8.582937737550745
 20
73.61537105988333
 30
0.0
 41
1.0
 10
-8.7247673982729
 20
73.7897420342035
 30
0.0
 41
0.9799943751373794
 10
-8.78876296837894
 20
74.0112423070889
 30
0.0
 41
1.0
  0
SPLINE
  5
CF
330
1F
100
AcDbEntity
  8
Default
100
AcDbSpline
210
0.0
220
0.0
230
1.0
 70
     8
 71
     3
 72
    12
 73
     8
 74
     0
 42
0.0000000001
 43
0.0000000001
 40
-3.111933853859594
 40
-3.111933853859594
 40
-3.111933853859594
 40
-3.111933853859594
 40
-2.689379093202719
 40
-2.191051374651839
 40
-1.391396900347014
 40
-0.849548742313125
 40
0.0
 40
0.0
 40
0.0
 40
0.0
 10
-8.78876296837894
 20
74.0112423070889
 30
0.0
 10
-8.832513799515857
 20
74.14970417430126
 30
0.0
 10
-8.756811649482431
 20
74.48819301105874
 30
0.0
 10
-8.251334934585467
 20
74.79303812406988
 30
0.0
 10
-7.66077226831989
 20
74.95261399265178
 30
0.0
 10
-6.943907750099486
 20
75.10402967324117
 30
0.0
 10
-6.487490360169496
 20
75.17398756401863
 30
0.0
 10
-6.20771824171864
 20
75.22406720714531
 30
0.0
  0
SPLINE
  5
D0
330
1F
100
AcDbEntity
  8
Default
100
AcDbSpline
210
0.0
220
0.0
230
1.0
 70
    12
 71
     2
 72
     6
 73
     3
 74
     0
 42
0.0000000001
 43
0.0000000001
 40
0.0
 40
0.0
 40
0.0
 40
6.233889429224448
 40
6.233889429224448
 40
6.233889429224448
 10
-6.20771824171864
 20
75.22406720714531
 30
0.0
 41
0.9999999519924593
 10
-3.123838360577332
 20
75.72148138994073
 30
0.0
 41
0.9967303545933507
 10
-0.0000896261864103
 20
75.71567888863893
 30
0.0
 41
1.0
  0
SPLINE
  5
D1
330
1F
100
AcDbEntity
  8
Default
100
AcDbSpline
210
0.0
220
0.0
230
1.0
 70
    12
 71
     2
 72
     6
 73
     3
 74
     0
 42
0.0000000001
 43
0.0000000001
 40
-6.233889429224448
 40
-6.233889429224448
 40
-6.233889429224448
 40
0.0
 40
0.0
 40
0.0
 10
-0.0000896261864103
 20
75.71567888863893
 30
0.0
 41
1.0
 10
3.123682116164026
 20
75.72148143267925
 30
0.0
 41
0.9967303305894041
 10
6.20758531901118
 20
75.22406720714531
 30
0.0
 41
1.0
  0
SPLINE
  5
D2
330
1F
100
AcDbEntity
  8
Default
100
AcDbSpline
210
0.0
220
0.0
230
1.0
 70
     8
 71
     3
 72
    12
 73
     8
 74
     0
 42
0.0000000001
 43
0.0000000001
 40
0.0
 40
0.0
 40
0.0
 40
0.0
 40
0.8495817757806479
 40
1.391422022197969
 40
2.191064820612614
 40
2.689385262996222
 40
3.111933853859594
 40
3.111933853859594
 40
3.111933853859594
 40
3.111933853859594
 10
6.20758531901118
 20
75.22406720714531
 30
0.0
 10
6.487373956885929
 20
75.1739921331889
 30
0.0
 10
6.943806290553365
 20
75.10403281333495
 30
0.0
 10
7.660685675277792
 20
74.95261399265178
 30
0.0
 10
8.251248341543368
 20
74.79303812406988
 30
0.0
 10
8.756725056440333
 20
74.48819301105874
 30
0.0
 10
8.832427206473758
 20
74.14970417430126
 30
0.0
 10
8.788676375336841
 20
74.0112423070889
 30
0.0
  0
SPLINE
  5
D3
330
1F
100
AcDbEntity
  8
Default
100
AcDbSpline
210
0.0
220
0.0
230
1.0
 70
    12
 71
     2
 72
     6
 73
     3
 74
     0
 42
0.0000000001
 43
0.0000000001
 40
0.0
 40
0.0
 40
0.0
 40
0.443505275079806
 40
0.443505275079806
 40
0.443505275079806
 10
8.788676375336841
 20
74.0112423070889
 30
0.0
 41
1.0
 10
8.724680805230802
 20
73.7897420342035
 30
0.0
 41
0.9799943751373794
 10
8.582851144508647
 20
73.61537105988333
 30
0.0
 41
1.0
  0
SPLINE
  5
D4
330
1F
100
AcDbEntity
  8
Default
100
AcDbSpline
210
0.0
220
0.0
230
1.0
 70
     8
 71
     3
 72
    89
 73
    85
 74
     0
 42
0.0000000001
 43
0.0000000001
 40
0.0
 40
0.0
 40
0.0
 40
0.0
 40
1.0
 40
2.0
 40
3.0
 40
4.0
 40
5.0
 40
6.0
 40
7.0
 40
8.0
 40
9.0
 40
10.0
 40
11.0
 40
12.0
 40
12.0
 40
12.0
 40
13.0
 40
14.0
 40
15.0
 40
16.0
 40
17.0
 40
18.0
 40
19.0
 40
19.0
 40
19.0
 40
20.0
 40
21.0
 40
22.0
 40
23.0
 40
24.0
 40
25.0
 40
26.0
 40
27.0
 40
28.0
 40
29.0
 40
30.0
 40
31.0
 40
32.0
 40
33.0
 40
34.0
 40
35.0
 40
36.0
 40
36.0
 40
36.0
 40
37.0
 40
38.0
 40
39.0
 40
40.0
 40
41.0
 40
42.0
 40
43.0
 40
44.0
 40
45.0
 40
46.0
 40
47.0
 40
48.0
 40
49.0
 40
50.0
 40
51.0
 40
52.0
 40
53.0
 40
53.0
 40
53.0
 40
54.0
 40
55.0
 40
56.0
 40
57.0
 40
58.0
 40
59.0
 40
60.0
 40
60.0
 40
60.0
 40
61.0
 40
62.0
 40
63.0
 40
64.0
 40
65.0
 40
66.0
 40
67.0
 40
68.0
 40
69.0
 40
70.0
 40
71.0
 40
72.0
 40
72.0
 40
72.0
 40
72.0
 10
-8.582937737550745
 20
73.61537105988333
 30
0.0
 10
-8.526929194327636
 20
73.54651194957918
 30
0.0
 10
-8.263503974857423
 20
73.272424890829
 30
0.0
 10
-8.10757253190253
 20
73.05640527155916
 30
0.0
 10
-7.971567196032036
 20
72.82697297489065
 30
0.0
 10
-7.855768399290159
 20
72.58755342017088
 30
0.0
 10
-7.739538486306444
 20
72.346459714186
 30
0.0
 10
-7.694348417686977
 20
72.08108433557439
 30
0.0
 10
-7.731068199577611
 20
71.81519996336431
 30
0.0
 10
-7.802982364467762
 20
71.55875387200629
 30
0.0
 10
-7.897479214605984
 20
71.309551717772
 30
0.0
 10
-8.005712730724271
 20
71.0662233198127
 30
0.0
 10
-8.122346172428633
 20
70.82682209434509
 30
0.0
 10
-8.20343808175401
 20
70.66890756500283
 30
0.0
 10
-8.244188209174181
 20
70.5900580103558
 30
0.0
 10
-8.443562250458907
 20
70.20612342060613
 30
0.0
 10
-8.831250894465583
 20
69.43239694776022
 30
0.0
 10
-9.36427004627556
 20
68.24877833811365
 30
0.0
 10
-9.865355410574608
 20
67.05144153529656
 30
0.0
 10
-10.33547010768244
 20
65.84158731828077
 30
0.0
 10
-10.77865829476796
 20
64.62165268257162
 30
0.0
 10
-11.19803334753748
 20
63.39334001458693
 30
0.0
 10
-11.4638655998074
 20
62.56991247595475
 30
0.0
 10
-11.5947760778289
 20
62.15756252730427
 30
0.0
 10
-11.72892287608757
 20
61.73779934517703
 30
0.0
 10
-11.9005026222288
 20
60.87032573892805
 30
0.0
 10
-11.95460840025135
 20
59.54830975916765
 30
0.0
 10
-11.95169793377683
 20
58.2272671232255
 30
0.0
 10
-11.86239969434311
 20
56.90815100635567
 30
0.0
 10
-11.67683043368283
 20
55.59918122442915
 30
0.0
 10
-11.3748036824267
 20
54.31121737555272
 30
0.0
 10
-10.9151948753336
 20
53.06900211722846
 30
0.0
 10
-10.27197698545834
 20
51.91078822205106
 30
0.0
 10
-9.476189642426064
 20
50.85283360199751
 30
0.0
 10
-8.55254389638086
 20
49.90431324886811
 30
0.0
 10
-7.512459644286547
 20
49.08555871893098
 30
0.0
 10
-6.384338113505458
 20
48.39366920684331
 30
0.0
 10
-5.179760244688052
 20
47.84548321811601
 30
0.0
 10
-3.923708160683605
 20
47.43054888905177
 30
0.0
 10
-2.632861959458412
 20
47.14229853419991
 30
0.0
 10
-1.321258663708315
 20
46.97371585601111
 30
0.0
 10
-0.4404354719494517
 20
46.93767242263912
 30
0.0
 10
-0.000067856540289
 20
46.93841824152938
 30
0.0
 10
0.4402997588688738
 20
46.93767242263912
 30
0.0
 10
1.321122950627737
 20
46.97371585601111
 30
0.0
 10
2.632726246377834
 20
47.14229853419991
 30
0.0
 10
3.923572447603027
 20
47.43054888905177
 30
0.0
 10
5.179624531607474
 20
47.84548321811601
 30
0.0
 10
6.38420240042488
 20
48.39366920684331
 30
0.0
 10
7.51232393120597
 20
49.08555871893098
 30
0.0
 10
8.552408183300281
 20
49.90431324886811
 30
0.0
 10
9.476053929345486
 20
50.85283360199751
 30
0.0
 10
10.27184127237776
 20
51.91078822205106
 30
0.0
 10
10.91505916225302
 20
53.06900211722846
 30
0.0
 10
11.37466796934612
 20
54.31121737555272
 30
0.0
 10
11.67669472060226
 20
55.59918122442915
 30
0.0
 10
11.86226398126254
 20
56.90815100635567
 30
0.0
 10
11.95156222069625
 20
58.2272671232255
 30
0.0
 10
11.95447268717077
 20
59.54830975916765
 30
0.0
 10
11.90036690914822
 20
60.87032573892805
 30
0.0
 10
11.72878716300699
 20
61.73779934517703
 30
0.0
 10
11.59466492476756
 20
62.15756252730427
 30
0.0
 10
11.4637790067653
 20
62.56991247595475
 30
0.0
 10
11.19794675449538
 20
63.39334001458693
 30
0.0
 10
10.77857170172586
 20
64.62165268257162
 30
0.0
 10
10.33538351464034
 20
65.84158731828077
 30
0.0
 10
9.86526881753251
 20
67.05144153529656
 30
0.0
 10
9.364183453233462
 20
68.24877833811365
 30
0.0
 10
8.831164301423485
 20
69.43239694776022
 30
0.0
 10
8.443475657416808
 20
70.20612342060613
 30
0.0
 10
8.244101616132083
 20
70.5900580103558
 30
0.0
 10
8.203351488711911
 20
70.66890756500283
 30
0.0
 10
8.122259579386535
 20
70.82682209434509
 30
0.0
 10
8.005626137682173
 20
71.0662233198127
 30
0.0
 10
7.897392621563886
 20
71.309551717772
 30
0.0
 10
7.802895771425663
 20
71.55875387200629
 30
0.0
 10
7.730981606535512
 20
71.81519996336431
 30
0.0
 10
7.694261824644879
 20
72.08108433557439
 30
0.0
 10
7.739451893264346
 20
72.346459714186
 30
0.0
 10
7.855681806248061
 20
72.58755342017088
 30
0.0
 10
7.971480602989938
 20
72.82697297489065
 30
0.0
 10
8.107485938860432
 20
73.05640527155916
 30
0.0
 10
8.263417381815325
 20
73.272424890829
 30
0.0
 10
8.526842601285537
 20
73.54651194957918
 30
0.0
 10
8.582851144508647
 20
73.61537105988333
 30
0.0
  0
SPLINE
  5
D5
330
1F
100
AcDbEntity
  8
Default
100
AcDbSpline
210
0.0
220
0.0
230
1.0
 70
    12
 71
     2
 72
     6
 73
     3
 74
     0
 42
0.0000000001
 43
0.0000000001
 40
-5.654573080352873
 40
-5.654573080352873
 40
-5.654573080352873
 40
0.0
 40
0.0
 40
0.0
 10
5.629159253146208
 20
75.31730027915
 30
0.0
 41
1.0
 10
2.833321558017091
 20
75.77711657055963
 30
0.0
 41
0.9967681786255456
 10
-0.0000896261864103
 20
75.78326064178327
 30
0.0
 41
1.0
  0
SPLINE
  5
D6
330
1F
100
AcDbEntity
  8
Default
100
AcDbSpline
210
0.0
220
0.0
230
1.0
 70
    12
 71
     2
 72
     6
 73
     3
 74
     0
 42
0.0000000001
 43
0.0000000001
 40
0.0
 40
0.0
 40
0.0
 40
5.654573080352873
 40
5.654573080352873
 40
5.654573080352873
 10
-0.0000896261864103
 20
75.78326064178327
 30
0.0
 41
1.0
 10
-2.833500810389911
 20
75.77711657055963
 30
0.0
 41
0.9967681786255456
 10
-5.629338505519028
 20
75.31730027915
 30
0.0
 41
1.0
  0
SPLINE
  5
D7
330
1F
100
AcDbEntity
  8
Default
100
AcDbSpline
210
0.0
220
0.0
230
1.0
 70
     8
 71
     3
 72
    19
 73
    15
 74
     0
 42
0.0000000001
 43
0.0000000001
 40
-12.0
 40
-12.0
 40
-12.0
 40
-12.0
 40
-11.0
 40
-10.0
 40
-9.0
 40
-8.0
 40
-7.0
 40
-6.0
 40
-5.0
 40
-4.0
 40
-3.0
 40
-2.0
 40
-1.0
 40
0.0
 40
0.0
 40
0.0
 40
0.0
 10
8.78716949844984
 20
74.00574642587767
 30
0.0
 10
8.661380096071964
 20
74.21691651209275
 30
0.0
 10
8.156589373104548
 20
74.37705677717165
 30
0.0
 10
7.443384175694195
 20
74.55762702494567
 30
0.0
 10
6.703823185282556
 20
74.69170424030142
 30
0.0
 10
5.966788133374506
 20
74.81335558712922
 30
0.0
 10
5.225149499017617
 20
74.91289358038904
 30
0.0
 10
4.481755543383241
 20
74.99499005404454
 30
0.0
 10
3.736608828406114
 20
75.06034093972508
 30
0.0
 10
2.990331840442209
 20
75.11065070263157
 30
0.0
 10
2.243257586054966
 20
75.14729019133932
 30
0.0
 10
1.495690759656227
 20
75.17167669379384
 30
0.0
 10
0.7478539099930767
 20
75.1852199361968
 30
0.0
 10
0.2492242146992625
 20
75.18796020200472
 30
0.0
 10
-0.0000896261864103
 20
75.18799238835095
 30
0.0
  0
SPLINE
  5
D8
330
1F
100
AcDbEntity
  8
Default
100
AcDbSpline
210
0.0
220
0.0
230
1.0
 70
     8
 71
     3
 72
    19
 73
    15
 74
     0
 42
0.0000000001
 43
0.0000000001
 40
0.0
 40
0.0
 40
0.0
 40
0.0
 40
1.0
 40
2.0
 40
3.0
 40
4.0
 40
5.0
 40
6.0
 40
7.0
 40
8.0
 40
9.0
 40
10.0
 40
11.0
 40
12.0
 40
12.0
 40
12.0
 40
12.0
 10
-0.0000896261864103
 20
75.18799238835095
 30
0.0
 10
-0.2494034670720831
 20
75.18796020200472
 30
0.0
 10
-0.7480331623658972
 20
75.1852199361968
 30
0.0
 10
-1.495870012029048
 20
75.17167669379384
 30
0.0
 10
-2.243436838427786
 20
75.14729019133932
 30
0.0
 10
-2.99051109281503
 20
75.11065070263157
 30
0.0
 10
-3.736788080778935
 20
75.06034093972508
 30
0.0
 10
-4.481934795756062
 20
74.99499005404454
 30
0.0
 10
-5.225328751390437
 20
74.91289358038904
 30
0.0
 10
-5.966967385747327
 20
74.81335558712922
 30
0.0
 10
-6.704002437655377
 20
74.69170424030142
 30
0.0
 10
-7.443563428067016
 20
74.55762702494567
 30
0.0
 10
-8.156768625477369
 20
74.37705677717165
 30
0.0
 10
-8.661559348444785
 20
74.21691651209275
 30
0.0
 10
-8.78734875082266
 20
74.00574642587767
 30
0.0
  0
SPLINE
  5
D9
330
1F
100
AcDbEntity
  8
Default
100
AcDbSpline
210
0.0
220
0.0
230
1.0
 70
     8
 71
     3
 72
    22
 73
    18
 74
     0
 42
0.0000000001
 43
0.0000000001
 40
0.0
 40
0.0
 40
0.0
 40
0.0
 40
0.2588469591229587
 40
0.6477254461891114
 40
1.024641027840087
 40
1.817983982162573
 40
2.582167143679938
 40
4.062052734317923
 40
7.850412104674001
 40
9.497260537102543
 40
10.543391206404
 40
10.8432833113025
 40
12.15829953678302
 40
13.34949093133962
 40
14.77372714428499
 40
17.25709974516987
 40
21.82793658798906
 40
21.82793658798906
 40
21.82793658798906
 40
21.82793658798906
 10
7.738615903347858
 20
72.28385067624026
 30
0.0
 10
7.7306116392327
 20
72.19732378672207
 30
0.0
 10
7.769345071435877
 20
71.98286685802982
 30
0.0
 10
7.893858318340746
 20
71.66432378428628
 30
0.0
 10
8.118172228859548
 20
71.19532416542374
 30
0.0
 10
8.426151057964608
 20
70.62861612038526
 30
0.0
 10
8.8695790033458
 20
69.71821859860547
 30
0.0
 10
9.720907182659149
 20
67.89644307857452
 30
0.0
 10
10.59994704674959
 20
65.7644650068989
 30
0.0
 10
11.37978077172477
 20
63.75007352075236
 30
0.0
 10
11.72990024721413
 20
62.81583995304299
 30
0.0
 10
12.0312906038165
 20
61.98109427843052
 30
0.0
 10
12.20980557346366
 20
61.05767771091521
 30
0.0
 10
12.27865248272322
 20
59.74917839002514
 30
0.0
 10
12.26053453065703
 20
58.04794107159933
 30
0.0
 10
11.90098491506247
 20
55.23676019436556
 30
0.0
 10
11.00725781119109
 20
53.0197345373776
 30
0.0
 10
10.14109848066921
 20
51.76208994910657
 30
0.0
  0
SPLINE
  5
DA
330
1F
100
AcDbEntity
  8
Default
100
AcDbSpline
210
0.0
220
0.0
230
1.0
 70
     8
 71
     3
 72
    22
 73
    18
 74
     0
 42
0.0000000001
 43
0.0000000001
 40
0.0
 40
0.0
 40
0.0
 40
0.0
 40
0.2588469591229587
 40
0.6477254461891114
 40
1.024641027840087
 40
1.817983982162573
 40
2.582167143679938
 40
4.062052734317923
 40
7.850412104674001
 40
9.497260537102543
 40
10.543391206404
 40
10.8432833113025
 40
12.15829953678302
 40
13.34949093133962
 40
14.77372714428499
 40
17.25709974516987
 40
21.82793658798906
 40
21.82793658798906
 40
21.82793658798906
 40
21.82793658798906
 10
-7.738702496389957
 20
72.28385067624026
 30
0.0
 10
-7.730698232274799
 20
72.19732378672207
 30
0.0
 10
-7.769431664477976
 20
71.98286685802982
 30
0.0
 10
-7.893944911382844
 20
71.66432378428628
 30
0.0
 10
-8.118258821901646
 20
71.19532416542374
 30
0.0
 10
-8.426237651006707
 20
70.62861612038526
 30
0.0
 10
-8.869665596387899
 20
69.71821859860547
 30
0.0
 10
-9.720993775701247
 20
67.89644307857452
 30
0.0
 10
-10.60003363979169
 20
65.7644650068989
 30
0.0
 10
-11.37986736476686
 20
63.75007352075236
 30
0.0
 10
-11.72998684025623
 20
62.81583995304299
 30
0.0
 10
-12.0313771968586
 20
61.98109427843052
 30
0.0
 10
-12.20989216650576
 20
61.05767771091521
 30
0.0
 10
-12.27873907576532
 20
59.74917839002514
 30
0.0
 10
-12.26062112369913
 20
58.04794107159933
 30
0.0
 10
-11.90107150810457
 20
55.23676019436556
 30
0.0
 10
-11.00734440423319
 20
53.0197345373776
 30
0.0
 10
-10.1411850737113
 20
51.76208994910657
 30
0.0
  0
SPLINE
  5
DB
330
1F
100
AcDbEntity
  8
Default
100
AcDbSpline
210
0.0
220
0.0
230
1.0
 70
     8
 71
     3
 72
    12
 73
     8
 74
     0
 42
0.0000000001
 43
0.0000000001
 40
-14.89017236839833
 40
-14.89017236839833
 40
-14.89017236839833
 40
-14.89017236839833
 40
-11.21816917573749
 40
-7.516682162771168
 40
-3.774519558109396
 40
-1.889355098273271
 40
0.0
 40
0.0
 40
0.0
 40
0.0
 10
9.62491812036229
 20
56.89519208210974
 30
0.0
 10
9.625246181286856
 20
55.6710268645721
 30
0.0
 10
9.118093186590778
 20
53.21383142244949
 30
0.0
 10
6.966087320083131
 20
50.10700879547691
 30
0.0
 10
4.302978882126657
 20
48.39013483242272
 30
0.0
 10
1.887912018810903
 20
47.68243449939917
 30
0.0
 10
0.6296638008945923
 20
47.56142107680011
 30
0.0
 10
-0.0000689362471542
 20
47.56135330989981
 30
0.0
  0
SPLINE
  5
DC
330
1F
100
AcDbEntity
  8
Default
100
AcDbSpline
210
0.0
220
0.0
230
1.0
 70
     8
 71
     3
 72
    12
 73
     8
 74
     0
 42
0.0000000001
 43
0.0000000001
 40
-14.89017233013332
 40
-14.89017233013332
 40
-14.89017233013332
 40
-14.89017233013332
 40
-11.11625270517792
 40
-7.371880431677226
 40
-3.66957874387039
 40
-1.832654236799996
 40
0.0
 40
0.0
 40
0.0
 40
0.0
 10
-0.0000689362471542
 20
47.56135330989981
 30
0.0
 10
-1.258042454748566
 20
47.56157340260555
 30
0.0
 10
-3.764098128679064
 20
48.04238840638061
 30
0.0
 10
-6.96724814946335
 20
50.10776963986202
 30
0.0
 10
-8.763938717594357
 20
52.70272117487119
 30
0.0
 10
-9.499515102598089
 20
55.06133692768353
 30
0.0
 10
-9.625093073439379
 20
56.28378507083428
 30
0.0
 10
-9.625050488124387
 20
56.89497736751508
 30
0.0
  0
SPLINE
  5
DD
330
1F
100
AcDbEntity
  8
Default
100
AcDbSpline
210
0.0
220
0.0
230
1.0
 70
     8
 71
     3
 72
    12
 73
     8
 74
     0
 42
0.0000000001
 43
0.0000000001
 40
0.0
 40
0.0
 40
0.0
 40
0.0
 40
1.974863560414597
 40
3.940395698505355
 40
7.777415887162894
 40
11.58776424105037
 40
15.35286584350305
 40
15.35286584350305
 40
15.35286584350305
 40
15.35286584350305
 10
-9.625050488124387
 20
56.89497736751508
 30
0.0
 10
-9.625520123072022
 20
57.55319519411088
 30
0.0
 10
-9.505602416969634
 20
58.86730554630503
 30
0.0
 10
-8.791150666714127
 20
61.37077690682163
 30
0.0
 10
-7.019335910039928
 20
64.11974227065413
 30
0.0
 10
-3.783480787676138
 20
66.27176503103681
 30
0.0
 10
-1.254489337011005
 20
66.74684455687444
 30
0.0
 10
-0.0000688950374466
 20
66.7471483145963
 30
0.0
  0
SPLINE
  5
DE
330
1F
100
AcDbEntity
  8
Default
100
AcDbSpline
210
0.0
220
0.0
230
1.0
 70
     8
 71
     3
 72
    12
 73
     8
 74
     0
 42
0.0000000001
 43
0.0000000001
 40
0.0
 40
0.0
 40
0.0
 40
0.0
 40
1.918305221504867
 40
3.868777778011242
 40
7.624449324857684
 40
11.42846767657462
 40
15.35241906764609
 40
15.35241906764609
 40
15.35241906764609
 40
15.35241906764609
 10
-0.0000688950374466
 20
66.7471483145963
 30
0.0
 10
0.639304182073495
 20
66.74767899924991
 30
0.0
 10
1.929156479991974
 20
66.62286873039399
 30
0.0
 10
4.375085059549663
 20
65.88878370340534
 30
0.0
 10
7.054992888711242
 20
64.0740773379576
 30
0.0
 10
9.15947302575899
 20
60.78438160086318
 30
0.0
 10
9.624939473100698
 20
58.20257474563889
 30
0.0
 10
9.62491812036229
 20
56.89519208210974
 30
0.0
  0
SPLINE
  5
DF
330
1F
100
AcDbEntity
  8
Make2D visible lines
100
AcDbSpline
210
0.0
220
0.0
230
1.0
 70
     8
 71
     3
 72
    12
 73
     8
 74
     0
 42
0.0000000001
 43
0.0000000001
 40
0.144186019114506
 40
0.144186019114506
 40
0.144186019114506
 40
0.144186019114506
 40
0.2637725671860835
 40
0.4383102277194185
 40
0.594898321062516
 40
0.6670859698705948
 40
0.7647313943800165
 40
0.7647313943800165
 40
0.7647313943800165
 40
0.7647313943800165
 10
-8.71410712105381
 20
70.03559427096624
 30
0.0
 10
-8.752723879311038
 20
70.04575563949918
 30
0.0
 10
-8.85460218121058
 20
70.04554340351031
 30
0.0
 10
-8.980761553111247
 20
69.9435046915811
 30
0.0
 10
-9.000583075894184
 20
69.80104087384797
 30
0.0
 10
-8.95905462980181
 20
69.69942648767933
 30
0.0
 10
-8.928290875832957
 20
69.65185086656489
 30
0.0
 10
-8.910786291638594
 20
69.62440001068204
 30
0.0
  0
LINE
  5
E0
330
1F
100
AcDbEntity
  8
Make2D visible lines
100
AcDbLine
 10
-8.773267857487715
 20
49.9611981027848
 30
0.0
 11
-8.801985246994732
 21
49.98062241651935
 31
0.0
  0
ARC
  5
E1
330
1F
100
AcDbEntity
  8
Make2D visible lines
100
AcDbCircle
 10
-8.770884598342427
 20
50.02660239055984
 30
0.0
 40
0.0555104346889764
100
AcDbArc
 50
144.3533666786394
 51
235.9257554298866
  0
SPLINE
  5
E2
330
1F
100
AcDbEntity
  8
Make2D visible lines
100
AcDbSpline
210
0.0
220
0.0
230
1.0
 70
    24
 71
     2
 72
     6
 73
     3
 74
     0
 42
0.0000000001
 43
0.0000000001
 40
0.0
 40
0.0
 40
0.0
 40
0.0957084500940441
 40
0.0957084500940441
 40
0.0957084500940441
 10
-8.815993859643125
 20
50.05895301504012
 30
0.0
 10
-8.78838512539754
 20
50.0981112005413
 30
0.0
 10
-8.760776391151953
 20
50.13726938604249
 30
0.0
  0
LINE
  5
E3
330
1F
100
AcDbEntity
  8
Make2D visible lines
100
AcDbLine
 10
-8.415693977754518
 20
49.70911049005417
 30
0.0
 11
-8.387761448674247
 21
49.68857122429763
 31
0.0
  0
ARC
  5
E4
330
1F
100
AcDbEntity
  8
Make2D visible lines
100
AcDbCircle
 10
-8.354902686531934
 20
49.73325774522593
 30
0.0
 40
0.0554669577514513
100
AcDbArc
 50
233.6723200580443
 51
323.4367134050225
  0
SPLINE
  5
E5
330
1F
100
AcDbEntity
  8
Make2D visible lines
100
AcDbSpline
210
0.0
220
0.0
230
1.0
 70
    24
 71
     2
 72
     6
 73
     3
 74
     0
 42
0.0000000001
 43
0.0000000001
 40
0.0
 40
0.0
 40
0.0
 40
0.0237259078491521
 40
0.0237259078491521
 40
0.0237259078491521
 10
-8.310351661939531
 20
49.70021550544156
 30
0.0
 10
-8.30349653545743
 20
49.70993798555992
 30
0.0
 10
-8.296641408975328
 20
49.71966046567827
 30
0.0
  0
SPLINE
  5
E6
330
1F
100
AcDbEntity
  8
Make2D visible lines
100
AcDbSpline
210
0.0
220
0.0
230
1.0
 70
    24
 71
     2
 72
     6
 73
     3
 74
     0
 42
0.0000000001
 43
0.0000000001
 40
1.649313723029542
 40
1.649313723029542
 40
1.649313723029542
 40
3.293043573786101
 40
3.293043573786101
 40
3.293043573786101
 10
-8.69387781909044
 20
50.07379891477356
 30
0.0
 10
-9.17075178812259
 20
49.3974370284041
 30
0.0
 10
-9.647625757154742
 20
48.72107514203464
 30
0.0
  0
SPLINE
  5
E7
330
1F
100
AcDbEntity
  8
Make2D visible lines
100
AcDbSpline
210
0.0
220
0.0
230
1.0
 70
    12
 71
     2
 72
     8
 73
     5
 74
     0
 42
0.0000000001
 43
0.0000000001
 40
0.0
 40
0.0
 40
0.0
 40
0.197163615910639
 40
0.197163615910639
 40
0.3943272318212779
 40
0.3943272318212779
 40
0.3943272318212779
 10
-9.647625757154742
 20
48.72107514203464
 30
0.0
 41
1.0
 10
-9.717082928954984
 20
48.64157299353428
 30
0.0
 41
0.903610101610362
 10
-9.699505604083093
 20
48.53747723002294
 30
0.0
 41
1.0
 10
-9.681928279211201
 20
48.43338146651159
 30
0.0
 41
0.903610101610362
 10
-9.59014942179822
 20
48.38105625146878
 30
0.0
 41
1.0
  0
SPLINE
  5
E8
330
1F
100
AcDbEntity
  8
Make2D visible lines
100
AcDbSpline
210
0.0
220
0.0
230
1.0
 70
    12
 71
     2
 72
     6
 73
     3
 74
     0
 42
0.0000000001
 43
0.0000000001
 40
0.0
 40
0.0
 40
0.0
 40
0.3210187875113308
 40
0.3210187875113308
 40
0.3210187875113308
 10
-9.59014942179822
 20
48.38105625146878
 30
0.0
 41
1.0
 10
-9.41727787729478
 20
48.28593941545522
 30
0.0
 41
0.7427400324777469
 10
-9.304852387233758
 20
48.44799391620438
 30
0.0
 41
1.0
  0
SPLINE
  5
E9
330
1F
100
AcDbEntity
  8
Make2D visible lines
100
AcDbSpline
210
0.0
220
0.0
230
1.0
 70
    24
 71
     2
 72
     6
 73
     3
 74
     0
 42
0.0000000001
 43
0.0000000001
 40
0.0
 40
0.0
 40
0.0
 40
1.604831990513649
 40
1.604831990513649
 40
1.604831990513649
 10
-9.304852387233758
 20
48.44799391620438
 30
0.0
 10
-8.835592711457958
 20
49.11355715921172
 30
0.0
 10
-8.366333035682157
 20
49.77912040221905
 30
0.0
  0
SPLINE
  5
EA
330
1F
100
AcDbEntity
  8
Make2D visible lines
100
AcDbSpline
210
0.0
220
0.0
230
1.0
 70
     8
 71
     3
 72
    12
 73
     8
 74
     0
 42
0.0000000001
 43
0.0000000001
 40
0.1441067114168992
 40
0.1441067114168992
 40
0.1441067114168992
 40
0.1441067114168992
 40
0.2637725671860835
 40
0.4383102277194185
 40
0.594898321062516
 40
0.6670859698705948
 40
0.7648237420289001
 40
0.7648237420289001
 40
0.7648237420289001
 40
0.7648237420289001
 10
8.714030294890375
 20
70.03557404092211
 30
0.0
 10
8.752668936927149
 20
70.04575574912795
 30
0.0
 10
8.854579982106465
 20
70.04556135832378
 30
0.0
 10
8.980761553111247
 20
69.9435046915811
 30
0.0
 10
9.000583075894184
 20
69.80104087384797
 30
0.0
 10
8.959042881009912
 20
69.6993977400042
 30
0.0
 10
8.928257417211483
 20
69.65179912912917
 30
0.0
 10
8.910736627525898
 20
69.62432212590986
 30
0.0
  0
LINE
  5
EB
330
1F
100
AcDbEntity
  8
Make2D visible lines
100
AcDbLine
 10
8.773267857487715
 20
49.9611981027848
 30
0.0
 11
8.801985246994732
 21
49.98062241651935
 31
0.0
  0
ARC
  5
EC
330
1F
100
AcDbEntity
  8
Make2D visible lines
100
AcDbCircle
 10
8.770884598342427
 20
50.02660239055984
 30
0.0
 40
0.0555104346889764
100
AcDbArc
 50
304.0742445701134
 51
35.6466333213606
  0
SPLINE
  5
ED
330
1F
100
AcDbEntity
  8
Make2D visible lines
100
AcDbSpline
210
0.0
220
0.0
230
1.0
 70
    24
 71
     2
 72
     6
 73
     3
 74
     0
 42
0.0000000001
 43
0.0000000001
 40
0.0
 40
0.0
 40
0.0
 40
0.0958032514901664
 40
0.0958032514901664
 40
0.0958032514901664
 10
8.815993859643125
 20
50.05895301504012
 30
0.0
 10
8.788357778318478
 20
50.09814998761446
 30
0.0
 10
8.760721696993828
 20
50.1373469601888
 30
0.0
  0
LINE
  5
EE
330
1F
100
AcDbEntity
  8
Make2D visible lines
100
AcDbLine
 10
8.415693977754518
 20
49.70911049005417
 30
0.0
 11
8.387761448674247
 21
49.68857122429763
 31
0.0
  0
ARC
  5
EF
330
1F
100
AcDbEntity
  8
Make2D visible lines
100
AcDbCircle
 10
8.354902686531934
 20
49.73325774522593
 30
0.0
 40
0.0554669577514513
100
AcDbArc
 50
216.5632865949774
 51
306.3276799419556
  0
SPLINE
  5
F0
330
1F
100
AcDbEntity
  8
Make2D visible lines
100
AcDbSpline
210
0.0
220
0.0
230
1.0
 70
    24
 71
     2
 72
     6
 73
     3
 74
     0
 42
0.0000000001
 43
0.0000000001
 40
0.0
 40
0.0
 40
0.0
 40
0.0238136251082466
 40
0.0238136251082466
 40
0.0238136251082466
 10
8.310351661939531
 20
49.70021550544156
 30
0.0
 10
8.303471191310027
 20
49.70997393062524
 30
0.0
 10
8.296590720680525
 20
49.71973235580892
 30
0.0
  0
SPLINE
  5
F1
330
1F
100
AcDbEntity
  8
Make2D visible lines
100
AcDbSpline
210
0.0
220
0.0
230
1.0
 70
    24
 71
     2
 72
     6
 73
     3
 74
     0
 42
0.0000000001
 43
0.0000000001
 40
1.649220488632312
 40
1.649220488632312
 40
1.649220488632312
 40
3.293043573786101
 40
3.293043573786101
 40
3.293043573786101
 10
8.693823721323662
 20
50.07387564294487
 30
0.0
 10
9.170724739239201
 20
49.39747539248975
 30
0.0
 10
9.647625757154742
 20
48.72107514203464
 30
0.0
  0
SPLINE
  5
F2
330
1F
100
AcDbEntity
  8
Make2D visible lines
100
AcDbSpline
210
0.0
220
0.0
230
1.0
 70
    12
 71
     2
 72
     8
 73
     5
 74
     0
 42
0.0000000001
 43
0.0000000001
 40
0.0
 40
0.0
 40
0.0
 40
0.197163615910639
 40
0.197163615910639
 40
0.3943272318212779
 40
0.3943272318212779
 40
0.3943272318212779
 10
9.647625757154742
 20
48.72107514203464
 30
0.0
 41
1.0
 10
9.717082928954984
 20
48.64157299353428
 30
0.0
 41
0.903610101610362
 10
9.699505604083093
 20
48.53747723002294
 30
0.0
 41
1.0
 10
9.681928279211201
 20
48.43338146651159
 30
0.0
 41
0.903610101610362
 10
9.59014942179822
 20
48.38105625146878
 30
0.0
 41
1.0
  0
SPLINE
  5
F3
330
1F
100
AcDbEntity
  8
Make2D visible lines
100
AcDbSpline
210
0.0
220
0.0
230
1.0
 70
    12
 71
     2
 72
     6
 73
     3
 74
     0
 42
0.0000000001
 43
0.0000000001
 40
0.0
 40
0.0
 40
0.0
 40
0.3210187875113308
 40
0.3210187875113308
 40
0.3210187875113308
 10
9.59014942179822
 20
48.38105625146878
 30
0.0
 41
1.0
 10
9.41727787729478
 20
48.28593941545522
 30
0.0
 41
0.7427400324777469
 10
9.304852387233758
 20
48.44799391620438
 30
0.0
 41
1.0
  0
SPLINE
  5
F4
330
1F
100
AcDbEntity
  8
Make2D visible lines
100
AcDbSpline
210
0.0
220
0.0
230
1.0
 70
    24
 71
     2
 72
     6
 73
     3
 74
     0
 42
0.0000000001
 43
0.0000000001
 40
0.0
 40
0.0
 40
0.0
 40
1.604919648141
 40
1.604919648141
 40
1.604919648141
 10
9.304852387233758
 20
48.44799391620438
 30
0.0
 10
8.835567079996203
 20
49.11359351298275
 30
0.0
 10
8.366281772758645
 20
49.77919310976112
 30
0.0
  0
SPLINE
  5
F5
330
1F
100
AcDbEntity
  8
Default
100
AcDbSpline
210
0.0
220
0.0
230
1.0
 70
     8
 71
     3
 72
    13
 73
     9
 74
     0
 42
0.0000000001
 43
0.0000000001
 40
11.36384458723428
 40
11.36384458723428
 40
11.36384458723428
 40
11.36384458723428
 40
12.0
 40
13.0
 40
14.0
 40
15.0
 40
16.0
 40
17.0
 40
17.0
 40
17.0
 40
17.0
 10
38.04778058149028
 20
11.72125401623733
 30
0.0
 10
37.88088551176411
 20
11.6949958286257
 30
0.0
 10
37.45110764086353
 20
11.63081768046607
 30
0.0
 10
36.75704402919014
 20
11.53876284286283
 30
0.0
 10
35.96496496649591
 20
11.45226675510439
 30
0.0
 10
35.17121473603395
 20
11.38284259216439
 30
0.0
 10
34.37628410263054
 20
11.32886889488102
 30
0.0
 10
33.84586196083941
 20
11.30069334144042
 30
0.0
 10
33.58057014113633
 20
11.28836676734052
 30
0.0
  0
SPLINE
  5
F6
330
1F
100
AcDbEntity
  8
Default
100
AcDbSpline
210
0.0
220
0.0
230
1.0
 70
     8
 71
     3
 72
     9
 73
     5
 74
     0
 42
0.0000000001
 43
0.0000000001
 40
-27.0
 40
-27.0
 40
-27.0
 40
-27.0
 40
-26.0
 40
-25.05724835857065
 40
-25.05724835857065
 40
-25.05724835857065
 40
-25.05724835857065
 10
33.58057014113633
 20
11.28836676734052
 30
0.0
 10
33.13090408774151
 20
11.26951986103717
 30
0.0
 10
32.25667393970495
 20
11.22896757210008
 30
0.0
 10
31.38306580193607
 20
11.22248511392444
 30
0.0
 10
30.95815289668091
 20
11.22375337920212
 30
0.0
  0
SPLINE
  5
F7
330
1F
100
AcDbEntity
  8
Default
100
AcDbSpline
210
0.0
220
0.0
230
1.0
 70
     8
 71
     3
 72
     9
 73
     5
 74
     0
 42
0.0000000001
 43
0.0000000001
 40
-23.65032838156799
 40
-23.65032838156799
 40
-23.65032838156799
 40
-23.65032838156799
 40
-23.0
 40
-22.61125749975896
 40
-22.61125749975896
 40
-22.61125749975896
 40
-22.61125749975896
 10
29.07006062993482
 20
11.3854487255396
 30
0.0
 10
28.78524019023534
 20
11.45279068044644
 30
0.0
 10
28.33802254573378
 20
11.59673532771009
 30
0.0
 10
27.91183883726976
 20
11.7905389305037
 30
0.0
 10
27.75570629921731
 20
11.86954068541936
 30
0.0
  0
SPLINE
  5
F8
330
1F
100
AcDbEntity
  8
Default
100
AcDbSpline
210
0.0
220
0.0
230
1.0
 70
     8
 71
     3
 72
    30
 73
    26
 74
     0
 42
0.0000000001
 43
0.0000000001
 40
-22.27412969638345
 40
-22.27412969638345
 40
-22.27412969638345
 40
-22.27412969638345
 40
-22.0
 40
-21.0
 40
-20.0
 40
-19.0
 40
-18.0
 40
-17.0
 40
-16.0
 40
-15.0
 40
-14.0
 40
-13.0
 40
-12.0
 40
-11.0
 40
-10.0
 40
-9.0
 40
-8.0
 40
-7.0
 40
-6.0
 40
-5.0
 40
-4.0
 40
-3.0
 40
-2.0
 40
-1.0
 40
0.0
 40
0.0
 40
0.0
 40
0.0
 10
27.35721642112136
 20
12.08941663332232
 30
0.0
 10
27.2513649502553
 20
12.15281365259023
 30
0.0
 10
26.76777565278127
 20
12.46151895805084
 30
0.0
 10
25.97930928387967
 20
13.12245844261958
 30
0.0
 10
25.1159375063698
 20
14.16618304175032
 30
0.0
 10
24.39269668149323
 20
15.30850810271539
 30
0.0
 10
23.7484391157638
 20
16.49576817113092
 30
0.0
 10
23.14891538763351
 20
17.70610820505451
 30
0.0
 10
22.58946990440958
 20
18.93544104321937
 30
0.0
 10
22.0632361328141
 20
20.17929628973548
 30
0.0
 10
21.56607223893549
 20
21.43503428918342
 30
0.0
 10
21.09547394672346
 20
22.7009489155759
 30
0.0
 10
20.64862734479982
 20
23.97543151009092
 30
0.0
 10
20.22482853522361
 20
25.25775615754157
 30
0.0
 10
19.82275403005852
 20
26.54705304064933
 30
0.0
 10
19.44267909940073
 20
27.84301795544992
 30
0.0
 10
19.0875078640788
 20
29.14602856616889
 30
0.0
 10
18.75518044339751
 20
30.45504764509853
 30
0.0
 10
18.44775956633552
 20
31.77014484752752
 30
0.0
 10
18.1634239712985
 20
33.09040553595977
 30
0.0
 10
17.91136151042583
 20
34.41734756869953
 30
0.0
 10
17.7099089852893
 20
35.75300485157452
 30
0.0
 10
17.46362939658505
 20
37.08066654752105
 30
0.0
 10
17.27034361598635
 20
38.41891401173925
 30
0.0
 10
17.28747294770069
 20
39.32390498245635
 30
0.0
 10
17.35965618306787
 20
39.76876922481014
 30
0.0
  0
SPLINE
  5
F9
330
1F
100
AcDbEntity
  8
Default
100
AcDbSpline
210
0.0
220
0.0
230
1.0
 70
    12
 71
     2
 72
     6
 73
     3
 74
     0
 42
0.0000000001
 43
0.0000000001
 40
0.0
 40
0.0
 40
0.0
 40
0.4209017355309934
 40
0.4209017355309934
 40
0.4209017355309934
 10
17.35965618306787
 20
39.76876922481014
 30
0.0
 41
1.0
 10
17.3958999181616
 20
39.99232731289452
 30
0.0
 41
0.8971587373399337
 10
17.5951851867955
 20
40.09992475146544
 30
0.0
 41
1.0
  0
SPLINE
  5
FA
330
1F
100
AcDbEntity
  8
Default
100
AcDbSpline
210
0.0
220
0.0
230
1.0
 70
    12
 71
     2
 72
     6
 73
     3
 74
     0
 42
0.0000000001
 43
0.0000000001
 40
0.0
 40
0.0
 40
0.0
 40
0.1234961689395858
 40
0.1234961689395858
 40
0.1234961689395858
 10
17.5951851867955
 20
40.09992475146544
 30
0.0
 41
1.0
 10
17.6498339890823
 20
40.12946254562736
 30
0.0
 41
0.9910177399897298
 10
17.71036590875637
 20
40.14342180832283
 30
0.0
 41
0.9999998701185537
  0
LINE
  5
FB
330
1F
100
AcDbEntity
  8
Default
100
AcDbLine
 10
17.71036590875637
 20
40.14342180832282
 30
0.0
 11
18.33426606894189
 21
40.27257312178143
 31
0.0
  0
ARC
  5
FC
330
1F
100
AcDbEntity
  8
Default
100
AcDbCircle
 10
18.47942937480794
 20
39.48940606639434
 30
0.0
 40
0.796506762063976
100
AcDbArc
 50
91.13259797477671
 51
100.5008396838767
  0
SPLINE
  5
FD
330
1F
100
AcDbEntity
  8
Default
100
AcDbSpline
210
0.0
220
0.0
230
1.0
 70
     8
 71
     3
 72
    12
 73
     8
 74
     0
 42
0.0000000001
 43
0.0000000001
 40
-2.606006201869095
 40
-2.606006201869095
 40
-2.606006201869095
 40
-2.606006201869095
 40
-2.062103506473873
 40
-1.535302400419122
 40
-0.9140405444755764
 40
-0.4920948819900433
 40
0.0
 40
0.0
 40
0.0
 40
0.0
 10
18.46368540199279
 20
40.28575721339775
 30
0.0
 10
18.6427080920834
 20
40.28535509040451
 30
0.0
 10
19.00827473003882
 20
40.21272492442579
 30
0.0
 10
19.43260863192198
 20
39.81199022135031
 30
0.0
 10
19.59712267288735
 20
39.30287049377647
 30
0.0
 10
19.69426991521064
 20
38.80478828342869
 30
0.0
 10
19.72634616434451
 20
38.49892919006236
 30
0.0
 10
19.74061224810693
 20
38.33627664399003
 30
0.0
  0
SPLINE
  5
FE
330
1F
100
AcDbEntity
  8
Default
100
AcDbSpline
210
0.0
220
0.0
230
1.0
 70
     8
 71
     3
 72
    15
 73
    11
 74
     0
 42
0.0000000001
 43
0.0000000001
 40
-21.83709541928446
 40
-21.83709541928446
 40
-21.83709541928446
 40
-21.83709541928446
 40
-15.86097707733612
 40
-13.51735338496346
 40
-11.52407042396374
 40
-10.56956849323673
 40
-9.591457002415686
 40
-6.705726068325542
 40
-3.609035176853501
 40
0.0
 40
0.0
 40
0.0
 40
0.0
 10
19.74061224810693
 20
38.33627664399003
 30
0.0
 10
19.89781868812379
 20
36.35080064029449
 30
0.0
 10
20.25195246599698
 20
33.5935569571497
 30
0.0
 10
21.11981041275548
 20
30.26093437031388
 30
0.0
 10
21.80230997775399
 20
28.62949660890125
 30
0.0
 10
22.44755411625424
 20
27.48891148610511
 30
0.0
 10
23.36139346478704
 20
26.16747876169888
 30
0.0
 10
24.80611263040788
 20
24.34945829914039
 30
0.0
 10
26.96332872597391
 20
21.98813520367456
 30
0.0
 10
28.55562406592516
 20
20.4184080054253
 30
0.0
 10
29.42532561006912
 20
19.58586076733375
 30
0.0
  0
SPLINE
  5
FF
330
1F
100
AcDbEntity
  8
Default
100
AcDbSpline
210
0.0
220
0.0
230
1.0
 70
     8
 71
     3
 72
    12
 73
     8
 74
     0
 42
0.0000000001
 43
0.0000000001
 40
-5.412612014507102
 40
-5.412612014507102
 40
-5.412612014507102
 40
-5.412612014507102
 40
-3.494198309793693
 40
-2.478600565121187
 40
-1.284359084682002
 40
-0.6842630651034578
 40
0.0
 40
0.0
 40
0.0
 40
0.0
 10
29.42532561006912
 20
19.58586076733375
 30
0.0
 10
29.89276825264858
 20
19.14858547636531
 30
0.0
 10
30.59567255353825
 20
18.46636791111819
 30
0.0
 10
31.67798928462175
 20
17.61415530917388
 30
0.0
 10
32.49359510877777
 20
17.14620671123471
 30
0.0
 10
33.24311169770968
 20
16.80083538286207
 30
0.0
 10
33.6452184725571
 20
16.65058696248629
 30
0.0
 10
33.85896723618863
 20
16.57204207871991
 30
0.0
  0
SPLINE
  5
100
330
1F
100
AcDbEntity
  8
Default
100
AcDbSpline
210
0.0
220
0.0
230
1.0
 70
     8
 71
     3
 72
     8
 73
     4
 74
     0
 42
0.0000000001
 43
0.0000000001
 40
-1.0
 40
-1.0
 40
-1.0
 40
-1.0
 40
0.0
 40
0.0
 40
0.0
 40
0.0
 10
33.85896723618863
 20
16.57204207871991
 30
0.0
 10
34.08627925365398
 20
16.48851319327898
 30
0.0
 10
34.31637771100321
 20
16.41264084948983
 30
0.0
 10
34.54684342344923
 20
16.33825413445326
 30
0.0
  0
SPLINE
  5
101
330
1F
100
AcDbEntity
  8
Default
100
AcDbSpline
210
0.0
220
0.0
230
1.0
 70
    12
 71
     2
 72
     6
 73
     3
 74
     0
 42
0.0000000001
 43
0.0000000001
 40
-1.676263070515252
 40
-1.676263070515252
 40
-1.676263070515252
 40
0.0
 40
0.0
 40
0.0
 10
34.54684342344923
 20
16.33825413445326
 30
0.0
 41
1.0
 10
35.34611094086645
 20
16.08027699579308
 30
0.0
 41
0.9968989068340275
 10
36.17641534631777
 20
15.95084436936995
 30
0.0
 41
1.0
  0
SPLINE
  5
102
330
1F
100
AcDbEntity
  8
Default
100
AcDbSpline
210
0.0
220
0.0
230
1.0
 70
     8
 71
     3
 72
    12
 73
     8
 74
     0
 42
0.0000000001
 43
0.0000000001
 40
-6.331181159550773
 40
-6.331181159550773
 40
-6.331181159550773
 40
-6.331181159550773
 40
-4.733676321125997
 40
-2.795445328871188
 40
-1.366340297010643
 40
-0.6888967342434948
 40
0.0
 40
0.0
 40
0.0
 40
0.0
 10
36.17641534631777
 20
15.95084436936995
 30
0.0
 10
36.70372997467875
 20
15.87273433892513
 30
0.0
 10
37.87542258007373
 20
15.7442664104875
 30
0.0
 10
39.52486510378553
 20
15.60699620482094
 30
0.0
 10
40.87186547608759
 20
15.54291313284742
 30
0.0
 10
41.80381819271943
 20
15.53564916809685
 30
0.0
 10
42.25918130369985
 20
15.54130235420385
 30
0.0
 10
42.48876454417153
 20
15.5472317338136
 30
0.0
  0
SPLINE
  5
103
330
1F
100
AcDbEntity
  8
Default
100
AcDbSpline
210
0.0
220
0.0
230
1.0
 70
     8
 71
     3
 72
     8
 73
     4
 74
     0
 42
0.0000000001
 43
0.0000000001
 40
-1.0
 40
-1.0
 40
-1.0
 40
-1.0
 40
0.0
 40
0.0
 40
0.0
 40
0.0
 10
42.48876454417153
 20
15.5472317338136
 30
0.0
 10
42.84892529974688
 20
15.55653350094588
 30
0.0
 10
43.2093288616913
 20
15.55520582922983
 30
0.0
 10
43.56943892149937
 20
15.56629805864629
 30
0.0
  0
SPLINE
  5
104
330
1F
100
AcDbEntity
  8
Default
100
AcDbSpline
210
0.0
220
0.0
230
1.0
 70
     8
 71
     3
 72
    14
 73
    10
 74
     0
 42
0.0000000001
 43
0.0000000001
 40
-7.0
 40
-7.0
 40
-7.0
 40
-7.0
 40
-6.0
 40
-5.0
 40
-4.0
 40
-3.0
 40
-2.0
 40
-1.0
 40
0.0
 40
0.0
 40
0.0
 40
0.0
 10
43.56943892149937
 20
15.56629805864629
 30
0.0
 10
43.70299174551172
 20
15.57041179699604
 30
0.0
 10
43.97013772480481
 20
15.57581553671144
 30
0.0
 10
44.37112887313437
 20
15.57423063672411
 30
0.0
 10
44.77133349276588
 20
15.56106142743706
 30
0.0
 10
45.17312727258637
 20
15.53651822379946
 30
0.0
 10
45.5656310955673
 20
15.49304481953769
 30
0.0
 10
45.9867288964909
 20
15.45214365874782
 30
0.0
 10
46.13146998681007
 20
15.1814612801603
 30
0.0
 10
46.13691708304736
 20
15.04986025908364
 30
0.0
  0
SPLINE
  5
105
330
1F
100
AcDbEntity
  8
Default
100
AcDbSpline
210
0.0
220
0.0
230
1.0
 70
     8
 71
     3
 72
    14
 73
    10
 74
     0
 42
0.0000000001
 43
0.0000000001
 40
0.0
 40
0.0
 40
0.0
 40
0.0
 40
1.0
 40
2.0
 40
3.0
 40
4.0
 40
5.0
 40
6.0
 40
6.972404976530202
 40
6.972404976530202
 40
6.972404976530202
 40
6.972404976530202
 10
46.13691708304736
 20
15.04986025908364
 30
0.0
 10
46.14861241803639
 20
14.77267634080099
 30
0.0
 10
45.82015709261121
 20
14.31973829954568
 30
0.0
 10
45.16207349042993
 20
13.87218992352235
 30
0.0
 10
44.44744563003663
 20
13.51547007227081
 30
0.0
 10
43.71262250570406
 20
13.20777445624859
 30
0.0
 10
42.9644961356731
 20
12.93307048526002
 30
0.0
 10
42.21562198400132
 20
12.68318919474185
 30
0.0
 10
41.7134765691404
 20
12.53376950933227
 30
0.0
 10
41.46484550802458
 20
12.46394195168117
 30
0.0
  0
SPLINE
  5
106
330
1F
100
AcDbEntity
  8
Default
100
AcDbSpline
210
0.0
220
0.0
230
1.0
 70
     8
 71
     3
 72
    32
 73
    28
 74
     0
 42
0.0000000001
 43
0.0000000001
 40
0.0
 40
0.0
 40
0.0
 40
0.0
 40
0.6424106210978217
 40
1.298318980594535
 40
1.468720655577004
 40
1.876899736031634
 40
4.922730948266024
 40
7.518234996431048
 40
9.414146423882848
 40
9.650465074221067
 40
10.16737509444177
 40
11.17511187797939
 40
12.27047498261846
 40
12.79407765966534
 40
13.06111085975148
 40
13.75139800275023
 40
17.85756791929135
 40
19.73368215550339
 40
20.71077241959481
 40
21.313976935579
 40
21.94927503485069
 40
22.40261661001096
 40
22.4631788319427
 40
22.81476421675537
 40
23.12397591297002
 40
24.03366187863583
 40
24.83721965664489
 40
24.83721965664489
 40
24.83721965664489
 40
24.83721965664489
 10
8.449831579929866
 20
39.56108749398658
 30
0.0
 10
8.577051968411725
 20
39.38862291557547
 30
0.0
 10
8.768140081120931
 20
38.99315750466033
 30
0.0
 10
8.822353621409734
 20
38.49942036412227
 30
0.0
 10
8.779995385131828
 20
38.08993198110505
 30
0.0
 10
8.627800300787724
 20
36.89147403764748
 30
0.0
 10
8.391799301892467
 20
34.88874830058759
 30
0.0
 10
8.071300827207208
 20
32.39685743385499
 30
0.0
 10
7.867906857596415
 20
30.83413755228679
 30
0.0
 10
7.746569814725005
 20
29.95942724518811
 30
0.0
 10
7.722643675223042
 20
29.37176417307083
 30
0.0
 10
7.792442883691896
 20
28.49913346312178
 30
0.0
 10
8.000061796427103
 20
27.64533883965786
 30
0.0
 10
8.201188386114014
 20
27.05018782686586
 30
0.0
 10
8.383180143152826
 20
26.59090322457087
 30
0.0
 10
8.989289199736357
 20
25.01597248503467
 30
0.0
 10
9.804252954030476
 20
22.94608090938424
 30
0.0
 10
10.66343113982082
 20
20.79149867380698
 30
0.0
 10
11.095456779335
 20
19.72332693896347
 30
0.0
 10
11.37303393804173
 20
19.03899333566451
 30
0.0
 10
11.58676694029363
 20
18.5170856802847
 30
0.0
 10
11.73272140948807
 20
18.16292876640242
 30
0.0
 10
11.8426905758851
 20
17.8962079222451
 30
0.0
 10
11.93757348974656
 20
17.67557492903291
 30
0.0
 10
12.12721863800258
 20
17.18646238233567
 30
0.0
 10
12.27914715764935
 20
16.52685706657805
 30
0.0
 10
12.26850423649409
 20
15.88863439580256
 30
0.0
 10
12.2069573416295
 20
15.62727437654133
 30
0.0
  0
SPLINE
  5
107
330
1F
100
AcDbEntity
  8
Default
100
AcDbSpline
210
0.0
220
0.0
230
1.0
 70
     8
 71
     3
 72
    13
 73
     9
 74
     0
 42
0.0000000001
 43
0.0000000001
 40
-24.0
 40
-24.0
 40
-24.0
 40
-24.0
 40
-23.0
 40
-22.0
 40
-21.0
 40
-20.0
 40
-19.0
 40
-18.78828566796474
 40
-18.78828566796474
 40
-18.78828566796474
 40
-18.78828566796474
 10
12.2069573416295
 20
15.62727437654133
 30
0.0
 10
12.11998345337332
 20
15.25793816291316
 30
0.0
 10
11.79214251257317
 20
14.48576709368118
 30
0.0
 10
10.95577255845214
 20
13.68657285077951
 30
0.0
 10
9.98438956080137
 20
13.08543970316455
 30
0.0
 10
8.959272776780995
 20
12.58197401206847
 30
0.0
 10
8.176544504505792
 20
12.27222648361929
 30
0.0
 10
7.739632629699148
 20
12.12577943717261
 30
0.0
 10
7.663064551619261
 20
12.10089099873716
 30
0.0
  0
SPLINE
  5
108
330
1F
100
AcDbEntity
  8
Default
100
AcDbSpline
210
0.0
220
0.0
230
1.0
 70
     8
 71
     3
 72
     9
 73
     5
 74
     0
 42
0.0000000001
 43
0.0000000001
 40
-18.3997717752161
 40
-18.3997717752161
 40
-18.3997717752161
 40
-18.3997717752161
 40
-18.0
 40
-17.56929946346186
 40
-17.56929946346186
 40
-17.56929946346186
 40
-17.56929946346186
 10
7.239325504471836
 20
11.97087219581276
 30
0.0
 10
7.093264161509512
 20
11.92865467026539
 30
0.0
 10
6.788375968782461
 20
11.84598828673502
 30
0.0
 10
6.480945740837266
 20
11.77347288644066
 30
0.0
 10
6.320949616074535
 20
11.73837791590533
 30
0.0
  0
SPLINE
  5
109
330
1F
100
AcDbEntity
  8
Default
100
AcDbSpline
210
0.0
220
0.0
230
1.0
 70
     8
 71
     3
 72
     9
 73
     5
 74
     0
 42
0.0000000001
 43
0.0000000001
 40
-6.430700536542632
 40
-6.430700536542632
 40
-6.430700536542632
 40
-6.430700536542632
 40
-6.0
 40
-5.600228224787913
 40
-5.600228224787913
 40
-5.600228224787913
 40
-5.600228224787913
 10
-6.320949616069674
 20
11.73837791590364
 30
0.0
 10
-6.480945740834088
 20
11.77347288643927
 30
0.0
 10
-6.78837596877948
 20
11.84598828673359
 30
0.0
 10
-7.093264161506727
 20
11.92865467026393
 30
0.0
 10
-7.239325504467605
 20
11.97087219581081
 30
0.0
  0
SPLINE
  5
10A
330
1F
100
AcDbEntity
  8
Default
100
AcDbSpline
210
0.0
220
0.0
230
1.0
 70
     8
 71
     3
 72
    13
 73
     9
 74
     0
 42
0.0000000001
 43
0.0000000001
 40
-5.211714332039407
 40
-5.211714332039407
 40
-5.211714332039407
 40
-5.211714332039407
 40
-5.0
 40
-4.0
 40
-3.0
 40
-2.0
 40
-1.0
 40
0.0
 40
0.0
 40
0.0
 40
0.0
 10
-7.663064551614935
 20
12.10089099873498
 30
0.0
 10
-7.739632629696334
 20
12.12577943717088
 30
0.0
 10
-8.176544504504516
 20
12.27222648361794
 30
0.0
 10
-8.959272776781216
 20
12.58197401206763
 30
0.0
 10
-9.984389560801636
 20
13.08543970316362
 30
0.0
 10
-10.95577255845246
 20
13.68657285077849
 30
0.0
 10
-11.79214251257357
 20
14.48576709368008
 30
0.0
 10
-12.11998345337355
 20
15.2579381629126
 30
0.0
 10
-12.20695734162975
 20
15.62727437654076
 30
0.0
  0
SPLINE
  5
10B
330
1F
100
AcDbEntity
  8
Default
100
AcDbSpline
210
0.0
220
0.0
230
1.0
 70
     8
 71
     3
 72
    32
 73
    28
 74
     0
 42
0.0000000001
 43
0.0000000001
 40
-24.83721965664489
 40
-24.83721965664489
 40
-24.83721965664489
 40
-24.83721965664489
 40
-24.03366187863583
 40
-23.12397591297002
 40
-22.81476421675537
 40
-22.4631788319427
 40
-22.40261661001096
 40
-21.94927503485069
 40
-21.313976935579
 40
-20.71077241959481
 40
-19.73368215550339
 40
-17.85756791929135
 40
-13.75139800275023
 40
-13.06111085975148
 40
-12.79407765966534
 40
-12.27047498261846
 40
-11.17511187797939
 40
-10.16737509444177
 40
-9.650465074221067
 40
-9.414146423882848
 40
-7.518234996431048
 40
-4.922730948266024
 40
-1.876899736031634
 40
-1.468720655577004
 40
-1.298318980594535
 40
-0.6424106210978217
 40
0.0
 40
0.0
 40
0.0
 40
0.0
 10
-12.20695734162975
 20
15.62727437654076
 30
0.0
 10
-12.26850423649435
 20
15.88863439580199
 30
0.0
 10
-12.27914715764935
 20
16.52685706657805
 30
0.0
 10
-12.12721863800258
 20
17.18646238233567
 30
0.0
 10
-11.93757348974656
 20
17.67557492903291
 30
0.0
 10
-11.8426905758851
 20
17.8962079222451
 30
0.0
 10
-11.73272140948807
 20
18.16292876640242
 30
0.0
 10
-11.58676694029363
 20
18.5170856802847
 30
0.0
 10
-11.37303393804173
 20
19.03899333566451
 30
0.0
 10
-11.095456779335
 20
19.72332693896347
 30
0.0
 10
-10.66343113982082
 20
20.79149867380698
 30
0.0
 10
-9.804252954030476
 20
22.94608090938424
 30
0.0
 10
-8.989289199736357
 20
25.01597248503467
 30
0.0
 10
-8.383180143152826
 20
26.59090322457087
 30
0.0
 10
-8.201188386114014
 20
27.05018782686586
 30
0.0
 10
-8.000061796427103
 20
27.64533883965786
 30
0.0
 10
-7.792442883691896
 20
28.49913346312178
 30
0.0
 10
-7.722643675223042
 20
29.37176417307083
 30
0.0
 10
-7.746569814725005
 20
29.95942724518811
 30
0.0
 10
-7.867906857596415
 20
30.83413755228679
 30
0.0
 10
-8.071300827207208
 20
32.39685743385499
 30
0.0
 10
-8.391799301892467
 20
34.88874830058759
 30
0.0
 10
-8.627800300787724
 20
36.89147403764748
 30
0.0
 10
-8.779995385131828
 20
38.08993198110505
 30
0.0
 10
-8.822353621409734
 20
38.49942036412227
 30
0.0
 10
-8.768140081120931
 20
38.99315750466033
 30
0.0
 10
-8.577051968411725
 20
39.38862291557547
 30
0.0
 10
-8.449831579929866
 20
39.56108749398658
 30
0.0
  0
ENDSEC
  0
SECTION
  2
OBJECTS
  0
DICTIONARY
  5
C
330
0
100
AcDbDictionary
281
     1
  3
ACAD_GROUP
350
D
  3
ACAD_LAYOUT
350
1A
  3
ACAD_MLEADERSTYLE
350
10D
  3
ACAD_MLINESTYLE
350
17
  3
ACAD_PLOTSETTINGS
350
19
  3
ACAD_PLOTSTYLENAME
350
E
  3
ACAD_TABLESTYLE
350
10C
  3
ACAD_VISUALSTYLE
350
2A
  0
DICTIONARY
  5
D
102
{ACAD_REACTORS
330
C
102
}
330
C
100
AcDbDictionary
281
     1
  0
DICTIONARY
  5
1A
102
{ACAD_REACTORS
330
C
102
}
330
C
100
AcDbDictionary
281
     1
  3
Layout1
350
1E
  3
Layout2
350
26
  3
Model
350
22
  0
DICTIONARY
  5
10D
102
{ACAD_REACTORS
330
C
102
}
330
C
100
AcDbDictionary
281
     1
  0
DICTIONARY
  5
17
102
{ACAD_REACTORS
330
C
102
}
330
C
100
AcDbDictionary
281
     1
  3
Standard
350
18
  0
DICTIONARY
  5
19
102
{ACAD_REACTORS
330
C
102
}
330
C
100
AcDbDictionary
281
     1
  0
ACDBDICTIONARYWDFLT
  5
E
102
{ACAD_REACTORS
330
C
102
}
330
C
100
AcDbDictionary
281
     1
  3
Normal
350
F
100
AcDbDictionaryWithDefault
340
F
  0
DICTIONARY
  5
10C
102
{ACAD_REACTORS
330
C
102
}
330
C
100
AcDbDictionary
281
     1
  0
DICTIONARY
  5
2A
102
{ACAD_REACTORS
330
C
102
}
330
C
100
AcDbDictionary
281
     1
  3
2dWireframe
350
2F
  3
3D Hidden
350
31
  3
3dWireframe
350
30
  3
Basic
350
32
  3
Brighten
350
36
  3
ColorChange
350
3A
  3
Conceptual
350
34
  3
Dim
350
35
  3
Facepattern
350
39
  3
Flat
350
2B
  3
FlatWithEdges
350
2C
  3
Gouraud
350
2D
  3
GouraudWithEdges
350
2E
  3
Linepattern
350
38
  3
Realistic
350
33
  3
Thicken
350
37
  0
LAYOUT
  5
1E
102
{ACAD_REACTORS
330
1A
102
}
330
1A
100
AcDbPlotSettings
  1

  2
none_device
  4

  6

 40
0.0
 41
0.0
 42
0.0
 43
0.0
 44
0.0
 45
0.0
 46
0.0
 47
0.0
 48
0.0
 49
0.0
140
0.0
141
0.0
142
1.0
143
1.0
 70
   688
 72
     0
 73
     0
 74
     5
  7

 75
    16
 76
     0
 77
     2
 78
   300
147
1.0
148
0.0
149
0.0
100
AcDbLayout
  1
Layout1
 70
     1
 71
     1
 10
0.0
 20
0.0
 11
12.0
 21
9.0
 12
0.0
 22
0.0
 32
0.0
 14
1.000000000000000E+20
 24
1.000000000000000E+20
 34
1.000000000000000E+20
 15
-1.000000000000000E+20
 25
-1.000000000000000E+20
 35
-1.000000000000000E+20
146
0.0
 13
0.0
 23
0.0
 33
0.0
 16
1.0
 26
0.0
 36
0.0
 17
0.0
 27
1.0
 37
0.0
 76
     0
330
1B
  0
LAYOUT
  5
26
102
{ACAD_REACTORS
330
1A
102
}
330
1A
100
AcDbPlotSettings
  1

  2
none_device
  4

  6

 40
0.0
 41
0.0
 42
0.0
 43
0.0
 44
0.0
 45
0.0
 46
0.0
 47
0.0
 48
0.0
 49
0.0
140
0.0
141
0.0
142
1.0
143
1.0
 70
   688
 72
     0
 73
     0
 74
     5
  7

 75
    16
 76
     0
 77
     2
 78
   300
147
1.0
148
0.0
149
0.0
100
AcDbLayout
  1
Layout2
 70
     1
 71
     2
 10
0.0
 20
0.0
 11
0.0
 21
0.0
 12
0.0
 22
0.0
 32
0.0
 14
0.0
 24
0.0
 34
0.0
 15
0.0
 25
0.0
 35
0.0
146
0.0
 13
0.0
 23
0.0
 33
0.0
 16
1.0
 26
0.0
 36
0.0
 17
0.0
 27
1.0
 37
0.0
 76
     0
330
23
  0
LAYOUT
  5
22
102
{ACAD_REACTORS
330
1A
102
}
330
1A
100
AcDbPlotSettings
  1

  2
none_device
  4

  6

 40
0.0
 41
0.0
 42
0.0
 43
0.0
 44
0.0
 45
0.0
 46
0.0
 47
0.0
 48
0.0
 49
0.0
140
0.0
141
0.0
142
1.0
143
1.0
 70
  1712
 72
     0
 73
     0
 74
     0
  7

 75
     0
 76
     0
 77
     2
 78
   300
147
1.0
148
0.0
149
0.0
100
AcDbLayout
  1
Model
 70
     1
 71
     0
 10
0.0
 20
0.0
 11
12.0
 21
9.0
 12
0.0
 22
0.0
 32
0.0
 14
-12.26322613536956
 24
-0.0002651114711827
 34
0.0
 15
46.13691708304736
 25
75.78326064178327
 35
0.0
146
0.0
 13
0.0
 23
0.0
 33
0.0
 16
1.0
 26
0.0
 36
0.0
 17
0.0
 27
1.0
 37
0.0
 76
     0
330
1F
331
29
  0
MLINESTYLE
  5
18
102
{ACAD_REACTORS
330
17
102
}
330
17
100
AcDbMlineStyle
  2
Standard
 70
     0
  3

 62
   256
 51
90.0
 52
90.0
 71
     2
 49
0.5
 62
   256
  6
BYLAYER
 49
-0.5
 62
   256
  6
BYLAYER
  0
ACDBPLACEHOLDER
  5
F
102
{ACAD_REACTORS
330
E
102
}
330
E
  0
VISUALSTYLE
  5
2F
102
{ACAD_REACTORS
330
2A
102
}
330
2A
100
AcDbVisualStyle
  2
2dWireframe
 70
     4
 71
     0
 72
     2
 73
     0
 90
        0
 40
-0.6
 41
-30.0
 62
     5
 63
     7
421
 16777215
 74
     1
 91
        4
 64
     7
 65
   257
 75
     1
175
     1
 42
1.0
 92
        0
 66
   257
 43
1.0
 76
     1
 77
     6
 78
     2
 67
     7
 79
     5
170
     0
171
     0
290
     0
174
     0
 93
        1
 44
0.0
173
     0
291
     0
 45
0.0
1001
ACAD
1000
AcDbSavedByObjectVersion
1070
     0
  0
VISUALSTYLE
  5
31
102
{ACAD_REACTORS
330
2A
102
}
330
2A
100
AcDbVisualStyle
  2
3D Hidden
 70
     6
 71
     1
 72
     2
 73
     2
 90
        0
 40
-0.6
 41
-30.0
 62
     5
 63
     7
421
 16777215
 74
     2
 91
        2
 64
     7
 65
   257
 75
     2
175
     1
 42
40.0
 92
        0
 66
   257
 43
1.0
 76
     1
 77
     6
 78
     2
 67
     7
 79
     3
170
     0
171
     0
290
     0
174
     0
 93
        1
 44
0.0
173
     0
291
     0
 45
0.0
1001
ACAD
1000
AcDbSavedByObjectVersion
1070
     0
  0
VISUALSTYLE
  5
30
102
{ACAD_REACTORS
330
2A
102
}
330
2A
100
AcDbVisualStyle
  2
3dWireframe
 70
     5
 71
     0
 72
     2
 73
     0
 90
        0
 40
-0.6
 41
-30.0
 62
     5
 63
     7
421
 16777215
 74
     1
 91
        4
 64
     7
 65
   257
 75
     1
175
     1
 42
1.0
 92
        0
 66
   257
 43
1.0
 76
     1
 77
     6
 78
     2
 67
     7
 79
     5
170
     0
171
     0
290
     0
174
     0
 93
        1
 44
0.0
173
     0
291
     0
 45
0.0
1001
ACAD
1000
AcDbSavedByObjectVersion
1070
     0
  0
VISUALSTYLE
  5
32
102
{ACAD_REACTORS
330
2A
102
}
330
2A
100
AcDbVisualStyle
  2
Basic
 70
     7
 71
     1
 72
     0
 73
     1
 90
        0
 40
-0.6
 41
-30.0
 62
     5
 63
     7
421
 16777215
 74
     0
 91
        4
 64
     7
 65
   257
 75
     1
175
     1
 42
1.0
 92
        8
 66
     7
 43
1.0
 76
     1
 77
     6
 78
     2
 67
     7
 79
     5
170
     0
171
     0
290
     0
174
     0
 93
        1
 44
0.0
173
     0
291
     1
 45
0.0
1001
ACAD
1000
AcDbSavedByObjectVersion
1070
     0
  0
VISUALSTYLE
  5
36
102
{ACAD_REACTORS
330
2A
102
}
330
2A
100
AcDbVisualStyle
  2
Brighten
 70
    12
 71
     2
 72
     2
 73
     0
 90
        0
 40
-0.6
 41
-30.0
 62
     5
 63
     7
421
 16777215
 74
     1
 91
        4
 64
     7
 65
   257
 75
     1
175
     1
 42
1.0
 92
        8
 66
     7
 43
1.0
 76
     1
 77
     6
 78
     2
 67
     7
 79
     5
170
     0
171
     0
290
     0
174
     0
 93
        1
 44
50.0
173
     0
291
     1
 45
0.0
1001
ACAD
1000
AcDbSavedByObjectVersion
1070
     0
  0
VISUALSTYLE
  5
3A
102
{ACAD_REACTORS
330
2A
102
}
330
2A
100
AcDbVisualStyle
  2
ColorChange
 70
    16
 71
     2
 72
     2
 73
     3
 90
        0
 40
-0.6
 41
-30.0
 62
     5
 63
     8
421
  8421504
 74
     1
 91
        4
 64
     7
 65
   257
 75
     1
175
     1
 42
1.0
 92
        8
 66
     8
424
  8421504
 43
1.0
 76
     1
 77
     6
 78
     2
 67
     7
 79
     5
170
     0
171
     0
290
     0
174
     0
 93
        1
 44
0.0
173
     0
291
     1
 45
0.0
1001
ACAD
1000
AcDbSavedByObjectVersion
1070
     0
  0
VISUALSTYLE
  5
34
102
{ACAD_REACTORS
330
2A
102
}
330
2A
100
AcDbVisualStyle
  2
Conceptual
 70
     9
 71
     3
 72
     2
 73
     0
 90
        0
 40
-0.6
 41
-30.0
 62
     5
 63
     7
421
 16777215
 74
     2
 91
        2
 64
     7
 65
   257
 75
     1
175
     1
 42
40.0
 92
        8
 66
     7
 43
1.0
 76
     1
 77
     6
 78
     2
 67
     7
 79
     3
170
     0
171
     0
290
     0
174
     0
 93
        1
 44
0.0
173
     0
291
     0
 45
0.0
1001
ACAD
1000
AcDbSavedByObjectVersion
1070
     0
  0
VISUALSTYLE
  5
35
102
{ACAD_REACTORS
330
2A
102
}
330
2A
100
AcDbVisualStyle
  2
Dim
 70
    11
 71
     2
 72
     2
 73
     0
 90
        0
 40
-0.6
 41
-30.0
 62
     5
 63
     7
421
 16777215
 74
     1
 91
        4
 64
     7
 65
   257
 75
     1
175
     1
 42
1.0
 92
        8
 66
     7
 43
1.0
 76
     1
 77
     6
 78
     2
 67
     7
 79
     5
170
     0
171
     0
290
     0
174
     0
 93
        1
 44
-50.0
173
     0
291
     1
 45
0.0
1001
ACAD
1000
AcDbSavedByObjectVersion
1070
     0
  0
VISUALSTYLE
  5
39
102
{ACAD_REACTORS
330
2A
102
}
330
2A
100
AcDbVisualStyle
  2
Facepattern
 70
    15
 71
     2
 72
     2
 73
     0
 90
        0
 40
-0.6
 41
-30.0
 62
     5
 63
     7
421
 16777215
 74
     1
 91
        4
 64
     7
 65
   257
 75
     1
175
     1
 42
1.0
 92
        8
 66
     7
 43
1.0
 76
     1
 77
     6
 78
     2
 67
     7
 79
     5
170
     0
171
     0
290
     0
174
     0
 93
        1
 44
0.0
173
     0
291
     1
 45
0.0
1001
ACAD
1000
AcDbSavedByObjectVersion
1070
     0
  0
VISUALSTYLE
  5
2B
102
{ACAD_REACTORS
330
2A
102
}
330
2A
100
AcDbVisualStyle
  2
Flat
 70
     0
 71
     2
 72
     1
 73
     1
 90
        2
 40
-0.6
 41
30.0
 62
     5
 63
     7
421
 16777215
 74
     0
 91
        4
 64
     7
 65
   257
 75
     1
175
     1
 42
1.0
 92
        8
 66
     7
 43
1.0
 76
     1
 77
     6
 78
     2
 67
     7
 79
     5
170
     0
171
     0
290
     0
174
     0
 93
       13
 44
0.0
173
     0
291
     1
 45
0.0
1001
ACAD
1000
AcDbSavedByObjectVersion
1070
     0
  0
VISUALSTYLE
  5
2C
102
{ACAD_REACTORS
330
2A
102
}
330
2A
100
AcDbVisualStyle
  2
FlatWithEdges
 70
     1
 71
     2
 72
     1
 73
     1
 90
        2
 40
-0.6
 41
30.0
 62
     5
 63
     7
421
 16777215
 74
     1
 91
        4
 64
     7
 65
   257
 75
     1
175
     1
 42
1.0
 92
        0
 66
   257
 43
1.0
 76
     1
 77
     6
 78
     2
 67
     7
 79
     5
170
     0
171
     0
290
     0
174
     0
 93
       13
 44
0.0
173
     0
291
     1
 45
0.0
1001
ACAD
1000
AcDbSavedByObjectVersion
1070
     0
  0
VISUALSTYLE
  5
2D
102
{ACAD_REACTORS
330
2A
102
}
330
2A
100
AcDbVisualStyle
  2
Gouraud
 70
     2
 71
     2
 72
     2
 73
     1
 90
        2
 40
-0.6
 41
30.0
 62
     5
 63
     7
421
 16777215
 74
     0
 91
        4
 64
     7
 65
   257
 75
     1
175
     1
 42
1.0
 92
        0
 66
     7
 43
1.0
 76
     1
 77
     6
 78
     2
 67
     7
 79
     5
170
     0
171
     0
290
     0
174
     0
 93
       13
 44
0.0
173
     0
291
     1
 45
0.0
1001
ACAD
1000
AcDbSavedByObjectVersion
1070
     0
  0
VISUALSTYLE
  5
2E
102
{ACAD_REACTORS
330
2A
102
}
330
2A
100
AcDbVisualStyle
  2
GouraudWithEdges
 70
     3
 71
     2
 72
     2
 73
     1
 90
        2
 40
-0.6
 41
30.0
 62
     5
 63
     7
421
 16777215
 74
     1
 91
        4
 64
     7
 65
   257
 75
     1
175
     1
 42
1.0
 92
        0
 66
   257
 43
1.0
 76
     1
 77
     6
 78
     2
 67
     7
 79
     5
170
     0
171
     0
290
     0
174
     0
 93
       13
 44
0.0
173
     0
291
     1
 45
0.0
1001
ACAD
1000
AcDbSavedByObjectVersion
1070
     0
  0
VISUALSTYLE
  5
38
102
{ACAD_REACTORS
330
2A
102
}
330
2A
100
AcDbVisualStyle
  2
Linepattern
 70
    14
 71
     2
 72
     2
 73
     0
 90
        0
 40
-0.6
 41
-30.0
 62
     5
 63
     7
421
 16777215
 74
     1
 91
        4
 64
     7
 65
   257
 75
     7
175
     7
 42
1.0
 92
        8
 66
     7
 43
1.0
 76
     1
 77
     6
 78
     2
 67
     7
 79
     5
170
     0
171
     0
290
     0
174
     0
 93
        1
 44
0.0
173
     0
291
     1
 45
0.0
1001
ACAD
1000
AcDbSavedByObjectVersion
1070
     0
  0
VISUALSTYLE
  5
33
102
{ACAD_REACTORS
330
2A
102
}
330
2A
100
AcDbVisualStyle
  2
Realistic
 70
     8
 71
     2
 72
     2
 73
     0
 90
        0
 40
-0.6
 41
-30.0
 62
     5
 63
     7
421
 16777215
 74
     1
 91
        0
 64
     7
 65
   257
 75
     1
175
     1
 42
1.0
 92
        8
 66
     8
424
  7895160
 43
1.0
 76
     1
 77
     6
 78
     2
 67
     7
 79
     5
170
     0
171
     0
290
     0
174
     0
 93
       13
 44
0.0
173
     0
291
     0
 45
0.0
1001
ACAD
1000
AcDbSavedByObjectVersion
1070
     0
  0
VISUALSTYLE
  5
37
102
{ACAD_REACTORS
330
2A
102
}
330
2A
100
AcDbVisualStyle
  2
Thicken
 70
    13
 71
     2
 72
     2
 73
     0
 90
        0
 40
-0.6
 41
-30.0
 62
     5
 63
     7
421
 16777215
 74
     1
 91
        4
 64
     7
 65
   257
 75
     1
175
     1
 42
1.0
 92
       12
 66
     7
 43
1.0
 76
     1
 77
     6
 78
     2
 67
     7
 79
     5
170
     0
171
     0
290
     0
174
     0
 93
        1
 44
0.0
173
     0
291
     1
 45
0.0
1001
ACAD
1000
AcDbSavedByObjectVersion
1070
     0
  0
ENDSEC
  0
EOF
