  0
SECTION
  2
HEADER
  9
$ACADVER
  1
AC1018
  9
$ACADMAINTVER
 70
     0
  9
$DWGCODEPAGE
  3
ANSI_1252
  9
$INSBASE
 10
0.0
 20
0.0
 30
0.0
  9
$EXTMIN
 10
-14.64960402052019
 20
0.0000000000000034
 30
0.0
  9
$EXTMAX
 10
57.26436956481862
 20
78.23751051168077
 30
0.0
  9
$LIMMIN
 10
0.0
 20
0.0
  9
$LIMMAX
 10
12.0
 20
9.0
  9
$ORTHOMODE
 70
     0
  9
$REGENMODE
 70
     1
  9
$FILLMODE
 70
     1
  9
$QTEXTMODE
 70
     0
  9
$MIRRTEXT
 70
     1
  9
$LTSCALE
 40
0.0393700787401575
  9
$ATTMODE
 70
     1
  9
$TEXTSIZE
 40
0.2
  9
$TRACEWID
 40
0.05
  9
$TEXTSTYLE
  7
Standard
  9
$CLAYER
  8
Default
  9
$CELTYPE
  6
ByLayer
  9
$CECOLOR
 62
   256
  9
$CELTSCALE
 40
1.0
  9
$DISPSILH
 70
     0
  9
$DIMSCALE
 40
1.0
  9
$DIMASZ
 40
0.18
  9
$DIMEXO
 40
0.0625
  9
$DIMDLI
 40
0.38
  9
$DIMRND
 40
0.0
  9
$DIMDLE
 40
0.0
  9
$DIMEXE
 40
0.18
  9
$DIMTP
 40
0.0
  9
$DIMTM
 40
0.0
  9
$DIMTXT
 40
0.18
  9
$DIMCEN
 40
0.09
  9
$DIMTSZ
 40
0.0
  9
$DIMTOL
 70
     0
  9
$DIMLIM
 70
     0
  9
$DIMTIH
 70
     1
  9
$DIMTOH
 70
     1
  9
$DIMSE1
 70
     0
  9
$DIMSE2
 70
     0
  9
$DIMTAD
 70
     0
  9
$DIMZIN
 70
     0
  9
$DIMBLK
  1

  9
$DIMASO
 70
     1
  9
$DIMSHO
 70
     1
  9
$DIMPOST
  1

  9
$DIMAPOST
  1

  9
$DIMALT
 70
     0
  9
$DIMALTD
 70
     2
  9
$DIMALTF
 40
25.4
  9
$DIMLFAC
 40
1.0
  9
$DIMTOFL
 70
     0
  9
$DIMTVP
 40
0.0
  9
$DIMTIX
 70
     0
  9
$DIMSOXD
 70
     0
  9
$DIMSAH
 70
     0
  9
$DIMBLK1
  1

  9
$DIMBLK2
  1

  9
$DIMSTYLE
  2
Standard
  9
$DIMCLRD
 70
     0
  9
$DIMCLRE
 70
     0
  9
$DIMCLRT
 70
     0
  9
$DIMTFAC
 40
1.0
  9
$DIMGAP
 40
0.09
  9
$DIMJUST
 70
     0
  9
$DIMSD1
 70
     0
  9
$DIMSD2
 70
     0
  9
$DIMTOLJ
 70
     1
  9
$DIMTZIN
 70
     0
  9
$DIMALTZ
 70
     0
  9
$DIMALTTZ
 70
     0
  9
$DIMUPT
 70
     0
  9
$DIMDEC
 70
     4
  9
$DIMTDEC
 70
     4
  9
$DIMALTU
 70
     2
  9
$DIMALTTD
 70
     2
  9
$DIMTXSTY
  7
Standard
  9
$DIMAUNIT
 70
     0
  9
$DIMADEC
 70
     0
  9
$DIMALTRND
 40
0.0
  9
$DIMAZIN
 70
     0
  9
$DIMDSEP
 70
    46
  9
$DIMATFIT
 70
     3
  9
$DIMFRAC
 70
     0
  9
$DIMLDRBLK
  1

  9
$DIMLUNIT
 70
     2
  9
$DIMLWD
 70
    -2
  9
$DIMLWE
 70
    -2
  9
$DIMTMOVE
 70
     2
  9
$LUNITS
 70
     2
  9
$LUPREC
 70
     3
  9
$SKETCHINC
 40
0.1
  9
$FILLETRAD
 40
0.5
  9
$AUNITS
 70
     0
  9
$AUPREC
 70
     0
  9
$MENU
  1
.
  9
$ELEVATION
 40
0.0
  9
$PELEVATION
 40
0.0
  9
$THICKNESS
 40
0.0
  9
$LIMCHECK
 70
     0
  9
$CHAMFERA
 40
0.5
  9
$CHAMFERB
 40
0.5
  9
$CHAMFERC
 40
1.0
  9
$CHAMFERD
 40
0.0
  9
$SKPOLY
 70
     0
  9
$TDCREATE
 40
2456338.477790694
  9
$TDUCREATE
 40
2456338.686124028
  9
$TDUPDATE
 40
2456338.477790706
  9
$TDUUPDATE
 40
2456338.686124039
  9
$TDINDWG
 40
0.0000000116
  9
$TDUSRTIMER
 40
0.0000000116
  9
$USRTIMER
 70
     1
  9
$ANGBASE
 50
0.0
  9
$ANGDIR
 70
     0
  9
$PDMODE
 70
     0
  9
$PDSIZE
 40
0.0
  9
$PLINEWID
 40
0.0
  9
$SPLFRAME
 70
     0
  9
$SPLINETYPE
 70
     6
  9
$SPLINESEGS
 70
     8
  9
$HANDSEED
  5
1D6
  9
$SURFTAB1
 70
     6
  9
$SURFTAB2
 70
     6
  9
$SURFTYPE
 70
     6
  9
$SURFU
 70
     6
  9
$SURFV
 70
     6
  9
$UCSBASE
  2

  9
$UCSNAME
  2

  9
$UCSORG
 10
0.0
 20
0.0
 30
0.0
  9
$UCSXDIR
 10
1.0
 20
0.0
 30
0.0
  9
$UCSYDIR
 10
0.0
 20
1.0
 30
0.0
  9
$UCSORTHOREF
  2

  9
$UCSORTHOVIEW
 70
     0
  9
$UCSORGTOP
 10
0.0
 20
0.0
 30
0.0
  9
$UCSORGBOTTOM
 10
0.0
 20
0.0
 30
0.0
  9
$UCSORGLEFT
 10
0.0
 20
0.0
 30
0.0
  9
$UCSORGRIGHT
 10
0.0
 20
0.0
 30
0.0
  9
$UCSORGFRONT
 10
0.0
 20
0.0
 30
0.0
  9
$UCSORGBACK
 10
0.0
 20
0.0
 30
0.0
  9
$PUCSBASE
  2

  9
$PUCSNAME
  2

  9
$PUCSORG
 10
0.0
 20
0.0
 30
0.0
  9
$PUCSXDIR
 10
1.0
 20
0.0
 30
0.0
  9
$PUCSYDIR
 10
0.0
 20
1.0
 30
0.0
  9
$PUCSORTHOREF
  2

  9
$PUCSORTHOVIEW
 70
     0
  9
$PUCSORGTOP
 10
0.0
 20
0.0
 30
0.0
  9
$PUCSORGBOTTOM
 10
0.0
 20
0.0
 30
0.0
  9
$PUCSORGLEFT
 10
0.0
 20
0.0
 30
0.0
  9
$PUCSORGRIGHT
 10
0.0
 20
0.0
 30
0.0
  9
$PUCSORGFRONT
 10
0.0
 20
0.0
 30
0.0
  9
$PUCSORGBACK
 10
0.0
 20
0.0
 30
0.0
  9
$USERI1
 70
     0
  9
$USERI2
 70
     0
  9
$USERI3
 70
     0
  9
$USERI4
 70
     0
  9
$USERI5
 70
     0
  9
$USERR1
 40
0.0
  9
$USERR2
 40
0.0
  9
$USERR3
 40
0.0
  9
$USERR4
 40
0.0
  9
$USERR5
 40
0.0
  9
$WORLDVIEW
 70
     1
  9
$SHADEDGE
 70
     3
  9
$SHADEDIF
 70
    70
  9
$TILEMODE
 70
     1
  9
$MAXACTVP
 70
    64
  9
$PINSBASE
 10
0.0
 20
0.0
 30
0.0
  9
$PLIMCHECK
 70
     0
  9
$PEXTMIN
 10
1.000000000000000E+20
 20
1.000000000000000E+20
 30
1.000000000000000E+20
  9
$PEXTMAX
 10
-1.000000000000000E+20
 20
-1.000000000000000E+20
 30
-1.000000000000000E+20
  9
$PLIMMIN
 10
0.0
 20
0.0
  9
$PLIMMAX
 10
12.0
 20
9.0
  9
$UNITMODE
 70
     0
  9
$VISRETAIN
 70
     1
  9
$PLINEGEN
 70
     0
  9
$PSLTSCALE
 70
     1
  9
$TREEDEPTH
 70
  3020
  9
$CMLSTYLE
  2
Standard
  9
$CMLJUST
 70
     0
  9
$CMLSCALE
 40
1.0
  9
$PROXYGRAPHICS
 70
     1
  9
$MEASUREMENT
 70
     0
  9
$CELWEIGHT
370
    -1
  9
$ENDCAPS
280
     0
  9
$JOINSTYLE
280
     0
  9
$LWDISPLAY
290
     0
  9
$INSUNITS
 70
     1
  9
$HYPERLINKBASE
  1

  9
$STYLESHEET
  1

  9
$XEDIT
290
     1
  9
$CEPSNTYPE
380
     0
  9
$PSTYLEMODE
290
     1
  9
$FINGERPRINTGUID
  2
{C0CC7E89-0802-41A6-A1E1-2EAE39E47CFC}
  9
$VERSIONGUID
  2
{FAEB1C32-E019-11D5-929B-00C0DF256EC4}
  9
$EXTNAMES
290
     1
  9
$PSVPSCALE
 40
0.0
  9
$OLESTARTUP
290
     0
  9
$SORTENTS
280
   127
  9
$INDEXCTL
280
     0
  9
$HIDETEXT
280
     1
  9
$XCLIPFRAME
290
     0
  9
$HALOGAP
280
     0
  9
$OBSCOLOR
 70
   257
  9
$OBSLTYPE
280
     0
  9
$INTERSECTIONDISPLAY
280
     0
  9
$INTERSECTIONCOLOR
 70
   257
  9
$DIMASSOC
280
     2
  9
$PROJECTNAME
  1

  0
ENDSEC
  0
SECTION
  2
CLASSES
  0
CLASS
  1
ACDBDICTIONARYWDFLT
  2
AcDbDictionaryWithDefault
  3
ObjectDBX Classes
 90
        0
 91
        4
280
     0
281
     0
  0
CLASS
  1
VISUALSTYLE
  2
AcDbVisualStyle
  3
ObjectDBX Classes
 90
     4095
 91
        4
280
     0
281
     0
  0
ENDSEC
  0
SECTION
  2
TABLES
  0
TABLE
  2
VPORT
  5
8
330
0
100
AcDbSymbolTable
 70
     1
  0
VPORT
  5
29
330
8
100
AcDbSymbolTableRecord
100
AcDbViewportTableRecord
  2
*Active
 70
     0
 10
0.0
 20
0.0
 11
1.0
 21
1.0
 12
21.30738277214921
 22
39.11875525584038
 13
0.0
 23
0.0
 14
0.5
 24
0.5
 15
0.5
 25
0.5
 16
0.0
 26
0.0
 36
1.0
 17
0.0
 27
0.0
 37
0.0
 40
79.80226072191438
 41
0.919175126036278
 42
50.0
 43
0.0
 44
0.0
 50
0.0
 51
0.0
 71
     0
 72
   100
 73
     1
 74
     3
 75
     0
 76
     0
 77
     0
 78
     0
281
     0
 65
     1
110
0.0
120
0.0
130
0.0
111
1.0
121
0.0
131
0.0
112
0.0
122
1.0
132
0.0
 79
     0
146
0.0
  0
ENDTAB
  0
TABLE
  2
LTYPE
  5
5
330
0
100
AcDbSymbolTable
 70
     1
  0
LTYPE
  5
14
330
5
100
AcDbSymbolTableRecord
100
AcDbLinetypeTableRecord
  2
ByBlock
 70
     0
  3

 72
    65
 73
     0
 40
0.0
  0
LTYPE
  5
15
330
5
100
AcDbSymbolTableRecord
100
AcDbLinetypeTableRecord
  2
ByLayer
 70
     0
  3

 72
    65
 73
     0
 40
0.0
  0
LTYPE
  5
16
330
5
100
AcDbSymbolTableRecord
100
AcDbLinetypeTableRecord
  2
Continuous
 70
     0
  3
Solid line
 72
    65
 73
     0
 40
0.0
  0
ENDTAB
  0
TABLE
  2
LAYER
  5
2
330
0
100
AcDbSymbolTable
 70
     4
  0
LAYER
  5
10
330
2
100
AcDbSymbolTableRecord
100
AcDbLayerTableRecord
  2
0
 70
     0
 62
     7
  6
Continuous
370
    -3
390
F
  0
LAYER
  5
3B
330
2
100
AcDbSymbolTableRecord
100
AcDbLayerTableRecord
  2
Make2D visible lines
 70
     0
 62
     7
  6
Continuous
370
    -3
390
F
  0
LAYER
  5
62
330
2
100
AcDbSymbolTableRecord
100
AcDbLayerTableRecord
  2
Make2D visible lines - Tangent
 70
     0
 62
     7
  6
Continuous
370
    -3
390
F
  0
LAYER
  5
A3
330
2
100
AcDbSymbolTableRecord
100
AcDbLayerTableRecord
  2
Default
 70
     0
 62
     7
  6
Continuous
370
    -3
390
F
  0
ENDTAB
  0
TABLE
  2
STYLE
  5
3
330
0
100
AcDbSymbolTable
 70
     1
  0
STYLE
  5
11
330
3
100
AcDbSymbolTableRecord
100
AcDbTextStyleTableRecord
  2
Standard
 70
     0
 40
0.0
 41
1.0
 50
0.0
 71
     0
 42
0.2
  3
txt
  4

  0
ENDTAB
  0
TABLE
  2
VIEW
  5
6
330
0
100
AcDbSymbolTable
 70
     0
  0
ENDTAB
  0
TABLE
  2
UCS
  5
7
330
0
100
AcDbSymbolTable
 70
     0
  0
ENDTAB
  0
TABLE
  2
APPID
  5
9
330
0
100
AcDbSymbolTable
 70
     1
  0
APPID
  5
12
330
9
100
AcDbSymbolTableRecord
100
AcDbRegAppTableRecord
  2
ACAD
 70
     0
  0
ENDTAB
  0
TABLE
  2
DIMSTYLE
  5
A
330
0
100
AcDbSymbolTable
 70
     1
100
AcDbDimStyleTable
  0
DIMSTYLE
105
27
330
A
100
AcDbSymbolTableRecord
100
AcDbDimStyleTableRecord
  2
Standard
 70
     0
340
11
  0
ENDTAB
  0
TABLE
  2
BLOCK_RECORD
  5
1
330
0
100
AcDbSymbolTable
 70
     1
  0
BLOCK_RECORD
  5
1F
330
1
100
AcDbSymbolTableRecord
100
AcDbBlockTableRecord
  2
*Model_Space
340
22
  0
BLOCK_RECORD
  5
1B
330
1
100
AcDbSymbolTableRecord
100
AcDbBlockTableRecord
  2
*Paper_Space
340
1E
  0
BLOCK_RECORD
  5
23
330
1
100
AcDbSymbolTableRecord
100
AcDbBlockTableRecord
  2
*Paper_Space0
340
26
  0
ENDTAB
  0
ENDSEC
  0
SECTION
  2
BLOCKS
  0
BLOCK
  5
20
330
1F
100
AcDbEntity
  8
0
100
AcDbBlockBegin
  2
*Model_Space
 70
     0
 10
0.0
 20
0.0
 30
0.0
  3
*Model_Space
  1

  0
ENDBLK
  5
21
330
1F
100
AcDbEntity
  8
0
100
AcDbBlockEnd
  0
BLOCK
  5
1C
330
1B
100
AcDbEntity
 67
     1
  8
0
100
AcDbBlockBegin
  2
*Paper_Space
 70
     0
 10
0.0
 20
0.0
 30
0.0
  3
*Paper_Space
  1

  0
ENDBLK
  5
1D
330
1B
100
AcDbEntity
 67
     1
  8
0
100
AcDbBlockEnd
  0
BLOCK
  5
24
330
23
100
AcDbEntity
  8
0
100
AcDbBlockBegin
  2
*Paper_Space0
 70
     0
 10
0.0
 20
0.0
 30
0.0
  3
*Paper_Space0
  1

  0
ENDBLK
  5
25
330
23
100
AcDbEntity
  8
0
100
AcDbBlockEnd
  0
ENDSEC
  0
SECTION
  2
ENTITIES
  0
SPLINE
  5
3C
330
1F
100
AcDbEntity
  8
Make2D visible lines
100
AcDbSpline
210
0.0
220
0.0
230
1.0
 70
     8
 71
     3
 72
     8
 73
     4
 74
     0
 42
0.0000000001
 43
0.0000000001
 40
0.6950384688492743
 40
0.6950384688492743
 40
0.6950384688492743
 40
0.6950384688492743
 40
1.0
 40
1.0
 40
1.0
 40
1.0
 10
43.09182545515017
 20
3.673125576136301
 30
0.0
 10
43.34032008411272
 20
3.670158211529776
 30
0.0
 10
43.58877314422623
 20
3.664870965980719
 30
0.0
 10
43.83711963857024
 20
3.65726383948913
 30
0.0
  0
SPLINE
  5
3D
330
1F
100
AcDbEntity
  8
Make2D visible lines
100
AcDbSpline
210
0.0
220
0.0
230
1.0
 70
    12
 71
     3
 72
     8
 73
     4
 74
     0
 42
0.0000000001
 43
0.0000000001
 40
-0.9983344876344831
 40
-0.9983344876344831
 40
-0.9983344876344831
 40
-0.9983344876344831
 40
0.0
 40
0.0
 40
0.0
 40
0.0
 10
43.83711963857024
 20
3.65726383948913
 30
0.0
 41
1.0
 10
44.29178237733986
 20
3.64333701932616
 30
0.0
 41
1.0
 10
44.7441651531161
 20
3.574404695741988
 30
0.0
 41
1.0
 10
45.19501644368707
 20
3.511811827671384
 30
0.0
 41
1.0
  0
SPLINE
  5
3E
330
1F
100
AcDbEntity
  8
Make2D visible lines
100
AcDbSpline
210
0.0
220
0.0
230
1.0
 70
    24
 71
     2
 72
     6
 73
     3
 74
     0
 42
0.0000000001
 43
0.0000000001
 40
0.0
 40
0.0
 40
0.0
 40
10.36850216633574
 40
10.36850216633574
 40
10.36850216633574
 10
45.19501644368707
 20
3.511811827671384
 30
0.0
 10
50.33001644368707
 20
2.798906298637399
 30
0.0
 10
55.46501644368707
 20
2.086000769603414
 30
0.0
  0
SPLINE
  5
3F
330
1F
100
AcDbEntity
  8
Make2D visible lines
100
AcDbSpline
210
0.0
220
0.0
230
1.0
 70
     8
 71
     3
 72
    13
 73
     9
 74
     0
 42
0.0000000001
 43
0.0000000001
 40
0.0
 40
0.0
 40
0.0
 40
0.0
 40
0.1163337939371243
 40
0.2443108918713642
 40
0.4828690280123605
 40
0.5672189493277444
 40
0.750510233115731
 40
1.83258135608072
 40
1.83258135608072
 40
1.83258135608072
 40
1.83258135608072
 10
55.46501644368707
 20
2.086000769603414
 30
0.0
 10
55.50269536726016
 20
2.080693221901958
 30
0.0
 10
55.58363136125955
 20
2.057218183732865
 30
0.0
 10
55.71601298950972
 20
1.966768126584214
 30
0.0
 10
55.79839677042408
 20
1.830020096093349
 30
0.0
 10
55.80945238927565
 20
1.661268225296924
 30
0.0
 10
55.81752561026681
 20
1.211528658082631
 30
0.0
 10
55.8303508440803
 20
0.7898405850234216
 30
0.0
 10
55.83830116723628
 20
0.429267031622143
 30
0.0
  0
SPLINE
  5
40
330
1F
100
AcDbEntity
  8
Make2D visible lines
100
AcDbSpline
210
0.0
220
0.0
230
1.0
 70
     8
 71
     3
 72
    13
 73
     9
 74
     0
 42
0.0000000001
 43
0.0000000001
 40
-1.83258135608072
 40
-1.83258135608072
 40
-1.83258135608072
 40
-1.83258135608072
 40
-0.750510233115731
 40
-0.5672189493277444
 40
-0.4828690280123605
 40
-0.2443108918713642
 40
-0.1163337939371243
 40
0.0
 40
0.0
 40
0.0
 40
0.0
 10
29.39173172013774
 20
0.429267031622143
 30
0.0
 10
29.39968204329372
 20
0.7898405850234216
 30
0.0
 10
29.41250727710721
 20
1.211528658082631
 30
0.0
 10
29.42058049809838
 20
1.661268225296924
 30
0.0
 10
29.43163611694994
 20
1.830020096093349
 30
0.0
 10
29.5140198978643
 20
1.966768126584214
 30
0.0
 10
29.64640152611447
 20
2.057218183732865
 30
0.0
 10
29.72733752011387
 20
2.080693221901958
 30
0.0
 10
29.76501644368695
 20
2.086000769603414
 30
0.0
  0
SPLINE
  5
41
330
1F
100
AcDbEntity
  8
Make2D visible lines
100
AcDbSpline
210
0.0
220
0.0
230
1.0
 70
    24
 71
     2
 72
     6
 73
     3
 74
     0
 42
0.0000000001
 43
0.0000000001
 40
-10.36850216633574
 40
-10.36850216633574
 40
-10.36850216633574
 40
0.0
 40
0.0
 40
0.0
 10
29.76501644368695
 20
2.086000769603414
 30
0.0
 10
34.90001644368695
 20
2.798906298637399
 30
0.0
 10
40.03501644368696
 20
3.511811827671384
 30
0.0
  0
SPLINE
  5
42
330
1F
100
AcDbEntity
  8
Make2D visible lines
100
AcDbSpline
210
0.0
220
0.0
230
1.0
 70
    12
 71
     3
 72
     8
 73
     4
 74
     0
 42
0.0000000001
 43
0.0000000001
 40
0.0
 40
0.0
 40
0.0
 40
0.0
 40
0.9983344876344831
 40
0.9983344876344831
 40
0.9983344876344831
 40
0.9983344876344831
 10
40.03501644368696
 20
3.511811827671384
 30
0.0
 41
1.0
 10
40.48586773425792
 20
3.574404695741988
 30
0.0
 41
1.0
 10
40.93825051003416
 20
3.64333701932616
 30
0.0
 41
1.0
 10
41.39291324880378
 20
3.65726383948913
 30
0.0
 41
1.0
  0
SPLINE
  5
43
330
1F
100
AcDbEntity
  8
Make2D visible lines
100
AcDbSpline
210
0.0
220
0.0
230
1.0
 70
     8
 71
     3
 72
     8
 73
     4
 74
     0
 42
0.0000000001
 43
0.0000000001
 40
0.0
 40
0.0
 40
0.0
 40
0.0
 40
0.3051876163662417
 40
0.3051876163662417
 40
0.3051876163662417
 40
0.3051876163662417
 10
41.39291324880378
 20
3.65726383948913
 30
0.0
 10
41.64144385643738
 20
3.664876605573444
 30
0.0
 10
41.89008118790549
 20
3.670166049722532
 30
0.0
 10
42.1387601016228
 20
3.673132171936395
 30
0.0
  0
SPLINE
  5
44
330
1F
100
AcDbEntity
  8
Make2D visible lines
100
AcDbSpline
210
0.0
220
0.0
230
1.0
 70
     8
 71
     3
 72
     8
 73
     4
 74
     0
 42
0.0000000001
 43
0.0000000001
 40
0.6950384688492743
 40
0.6950384688492743
 40
0.6950384688492743
 40
0.6950384688492743
 40
1.0
 40
1.0
 40
1.0
 40
1.0
 10
0.4768090114631614
 20
3.673125576136301
 30
0.0
 10
0.7253036404257046
 20
3.670158211529776
 30
0.0
 10
0.9737567005392187
 20
3.664870965980719
 30
0.0
 10
1.222103194883235
 20
3.65726383948913
 30
0.0
  0
SPLINE
  5
45
330
1F
100
AcDbEntity
  8
Make2D visible lines
100
AcDbSpline
210
0.0
220
0.0
230
1.0
 70
    12
 71
     3
 72
     8
 73
     4
 74
     0
 42
0.0000000001
 43
0.0000000001
 40
-0.9983344876344831
 40
-0.9983344876344831
 40
-0.9983344876344831
 40
-0.9983344876344831
 40
0.0
 40
0.0
 40
0.0
 40
0.0
 10
1.222103194883235
 20
3.65726383948913
 30
0.0
 41
1.0
 10
1.676765933652849
 20
3.64333701932616
 30
0.0
 41
1.0
 10
2.129148709429085
 20
3.574404695741988
 30
0.0
 41
1.0
 10
2.580000000000052
 20
3.511811827671384
 30
0.0
 41
1.0
  0
SPLINE
  5
46
330
1F
100
AcDbEntity
  8
Make2D visible lines
100
AcDbSpline
210
0.0
220
0.0
230
1.0
 70
    24
 71
     2
 72
     6
 73
     3
 74
     0
 42
0.0000000001
 43
0.0000000001
 40
0.0
 40
0.0
 40
0.0
 40
10.36850216633574
 40
10.36850216633574
 40
10.36850216633574
 10
2.580000000000052
 20
3.511811827671384
 30
0.0
 10
7.715000000000055
 20
2.798906298637399
 30
0.0
 10
12.85000000000006
 20
2.086000769603414
 30
0.0
  0
SPLINE
  5
47
330
1F
100
AcDbEntity
  8
Make2D visible lines
100
AcDbSpline
210
0.0
220
0.0
230
1.0
 70
     8
 71
     3
 72
    13
 73
     9
 74
     0
 42
0.0000000001
 43
0.0000000001
 40
0.0
 40
0.0
 40
0.0
 40
0.0
 40
0.1163337939371243
 40
0.2443108918713642
 40
0.4828690280123605
 40
0.5672189493277444
 40
0.750510233115731
 40
1.83258135608072
 40
1.83258135608072
 40
1.83258135608072
 40
1.83258135608072
 10
12.85000000000006
 20
2.086000769603414
 30
0.0
 10
12.88767892357314
 20
2.080693221901958
 30
0.0
 10
12.96861491757254
 20
2.057218183732865
 30
0.0
 10
13.10099654582271
 20
1.966768126584214
 30
0.0
 10
13.18338032673707
 20
1.830020096093349
 30
0.0
 10
13.19443594558863
 20
1.661268225296924
 30
0.0
 10
13.2025091665798
 20
1.211528658082631
 30
0.0
 10
13.21533440039329
 20
0.7898405850234216
 30
0.0
 10
13.22328472354927
 20
0.429267031622143
 30
0.0
  0
SPLINE
  5
48
330
1F
100
AcDbEntity
  8
Make2D visible lines
100
AcDbSpline
210
0.0
220
0.0
230
1.0
 70
     8
 71
     3
 72
    13
 73
     9
 74
     0
 42
0.0000000001
 43
0.0000000001
 40
-1.83258135608072
 40
-1.83258135608072
 40
-1.83258135608072
 40
-1.83258135608072
 40
-0.750510233115731
 40
-0.5672189493277444
 40
-0.4828690280123605
 40
-0.2443108918713642
 40
-0.1163337939371243
 40
0.0
 40
0.0
 40
0.0
 40
0.0
 10
-13.22328472354927
 20
0.429267031622143
 30
0.0
 10
-13.21533440039329
 20
0.7898405850234216
 30
0.0
 10
-13.2025091665798
 20
1.211528658082631
 30
0.0
 10
-13.19443594558863
 20
1.661268225296924
 30
0.0
 10
-13.18338032673707
 20
1.830020096093349
 30
0.0
 10
-13.10099654582271
 20
1.966768126584214
 30
0.0
 10
-12.96861491757254
 20
2.057218183732865
 30
0.0
 10
-12.88767892357314
 20
2.080693221901958
 30
0.0
 10
-12.85000000000006
 20
2.086000769603414
 30
0.0
  0
SPLINE
  5
49
330
1F
100
AcDbEntity
  8
Make2D visible lines
100
AcDbSpline
210
0.0
220
0.0
230
1.0
 70
    24
 71
     2
 72
     6
 73
     3
 74
     0
 42
0.0000000001
 43
0.0000000001
 40
-10.36850216633574
 40
-10.36850216633574
 40
-10.36850216633574
 40
0.0
 40
0.0
 40
0.0
 10
-12.85000000000006
 20
2.086000769603414
 30
0.0
 10
-7.715000000000055
 20
2.798906298637399
 30
0.0
 10
-2.580000000000052
 20
3.511811827671384
 30
0.0
  0
SPLINE
  5
4A
330
1F
100
AcDbEntity
  8
Make2D visible lines
100
AcDbSpline
210
0.0
220
0.0
230
1.0
 70
    12
 71
     3
 72
     8
 73
     4
 74
     0
 42
0.0000000001
 43
0.0000000001
 40
0.0
 40
0.0
 40
0.0
 40
0.0
 40
0.9983344876344831
 40
0.9983344876344831
 40
0.9983344876344831
 40
0.9983344876344831
 10
-2.580000000000052
 20
3.511811827671384
 30
0.0
 41
1.0
 10
-2.129148709429085
 20
3.574404695741988
 30
0.0
 41
1.0
 10
-1.676765933652849
 20
3.64333701932616
 30
0.0
 41
1.0
 10
-1.222103194883235
 20
3.65726383948913
 30
0.0
 41
1.0
  0
SPLINE
  5
4B
330
1F
100
AcDbEntity
  8
Make2D visible lines
100
AcDbSpline
210
0.0
220
0.0
230
1.0
 70
     8
 71
     3
 72
     8
 73
     4
 74
     0
 42
0.0000000001
 43
0.0000000001
 40
0.0
 40
0.0
 40
0.0
 40
0.0
 40
0.3051876163662417
 40
0.3051876163662417
 40
0.3051876163662417
 40
0.3051876163662417
 10
-1.222103194883235
 20
3.65726383948913
 30
0.0
 10
-0.9735725872496357
 20
3.664876605573444
 30
0.0
 10
-0.7249352557815157
 20
3.670166049722532
 30
0.0
 10
-0.4762563420642089
 20
3.673132171936395
 30
0.0
  0
SPLINE
  5
4C
330
1F
100
AcDbEntity
  8
Make2D visible lines
100
AcDbSpline
210
0.0
220
0.0
230
1.0
 70
    12
 71
     2
 72
     6
 73
     3
 74
     0
 42
0.0000000001
 43
0.0000000001
 40
-0.0352706514985427
 40
-0.0352706514985427
 40
-0.0352706514985427
 40
0.0
 40
0.0
 40
0.0
 10
-13.24240847747864
 20
0.4020374895150737
 30
0.0
 41
1.0
 10
-13.22377320145242
 20
0.4092798636229074
 30
0.0
 41
0.8321381552760684
 10
-13.22328472354927
 20
0.429267031622143
 30
0.0
 41
1.0
  0
SPLINE
  5
4D
330
1F
100
AcDbEntity
  8
Make2D visible lines
100
AcDbSpline
210
0.0
220
0.0
230
1.0
 70
    12
 71
     2
 72
     6
 73
     3
 74
     0
 42
0.0000000001
 43
0.0000000001
 40
-0.0352706514985427
 40
-0.0352706514985427
 40
-0.0352706514985427
 40
0.0
 40
0.0
 40
0.0
 10
13.24240847747864
 20
0.4020374895150737
 30
0.0
 41
1.0
 10
13.22377320145242
 20
0.4092798636229074
 30
0.0
 41
0.8321381552760684
 10
13.22328472354927
 20
0.429267031622143
 30
0.0
 41
1.0
  0
SPLINE
  5
4E
330
1F
100
AcDbEntity
  8
Make2D visible lines
100
AcDbSpline
210
0.0
220
0.0
230
1.0
 70
    24
 71
     2
 72
     6
 73
     3
 74
     0
 42
0.0000000001
 43
0.0000000001
 40
0.0
 40
0.0
 40
0.0
 40
1.107594207465098
 40
1.107594207465098
 40
1.107594207465098
 10
29.22900663063301
 20
0.0000000000000036
 30
0.0
 10
28.67520952690046
 20
0.0000000000000036
 30
0.0
 10
28.12141242316791
 20
0.0000000000000036
 30
0.0
  0
SPLINE
  5
4F
330
1F
100
AcDbEntity
  8
Make2D visible lines
100
AcDbSpline
210
0.0
220
0.0
230
1.0
 70
    12
 71
     2
 72
     8
 73
     5
 74
     0
 42
0.0000000001
 43
0.0000000001
 40
0.0
 40
0.0
 40
0.0
 40
0.1269465231438366
 40
0.1269465231438366
 40
0.2538930462876731
 40
0.2538930462876731
 40
0.2538930462876731
 10
28.12141242316792
 20
0.0000000000000036
 30
0.0
 41
1.0
 10
28.05418785883256
 20
0.000000000000002
 30
0.0
 41
0.918360064844369
 10
28.00802001672429
 20
0.0488638148853193
 30
0.0
 41
1.0
 10
27.96185217461602
 20
0.0977276297706366
 30
0.0
 41
0.918360064844369
 10
27.96566332256091
 20
0.1648440748599159
 30
0.0
 41
1.0
  0
SPLINE
  5
50
330
1F
100
AcDbEntity
  8
Make2D visible lines
100
AcDbSpline
210
0.0
220
0.0
230
1.0
 70
    12
 71
     2
 72
     6
 73
     3
 74
     0
 42
0.0000000001
 43
0.0000000001
 40
0.0
 40
0.0
 40
0.0
 40
0.2412324278936833
 40
0.2412324278936833
 40
0.2412324278936833
 10
29.38496006303888
 20
0.1521885802082181
 30
0.0
 41
1.0
 10
29.38124065425295
 20
-0.0000000000000105
 30
0.0
 41
0.7156927337036098
 10
29.22900663063302
 20
0.0000000000000034
 30
0.0
 41
1.0
  0
SPLINE
  5
51
330
1F
100
AcDbEntity
  8
Make2D visible lines
100
AcDbSpline
210
0.0
220
0.0
230
1.0
 70
    24
 71
     2
 72
     6
 73
     3
 74
     0
 42
0.0000000001
 43
0.0000000001
 40
0.0
 40
0.0
 40
0.0
 40
0.2325105046476637
 40
0.2325105046476637
 40
0.2325105046476637
 10
29.38496015686773
 20
0.1521924194416825
 30
0.0
 10
29.38780052590369
 20
0.2684129683847045
 30
0.0
 10
29.39064089493965
 20
0.3846335173277264
 30
0.0
  0
SPLINE
  5
52
330
1F
100
AcDbEntity
  8
Make2D visible lines
100
AcDbSpline
210
0.0
220
0.0
230
1.0
 70
    24
 71
     2
 72
     6
 73
     3
 74
     0
 42
0.0000000001
 43
0.0000000001
 40
0.0
 40
0.0
 40
0.0
 40
0.2213623405233084
 40
0.2213623405233084
 40
0.2213623405233084
 10
27.97821297070673
 20
0.3858503918134666
 30
0.0
 10
27.97193814663382
 20
0.2753472333366913
 30
0.0
 10
27.96566332256091
 20
0.164844074859916
 30
0.0
  0
SPLINE
  5
53
330
1F
100
AcDbEntity
  8
Make2D visible lines
100
AcDbSpline
210
0.0
220
0.0
230
1.0
 70
    12
 71
     2
 72
     6
 73
     3
 74
     0
 42
0.0000000001
 43
0.0000000001
 40
0.0
 40
0.0
 40
0.0
 40
0.0224671519842366
 40
0.0224671519842366
 40
0.0224671519842366
 10
27.97822878041718
 20
0.3860938211857499
 30
0.0
 41
1.0
 10
27.97924554556131
 20
0.4000000000000348
 30
0.0
 41
0.7324347794791691
 10
27.99318884576511
 20
0.4000000000000183
 30
0.0
 41
1.0
  0
SPLINE
  5
54
330
1F
100
AcDbEntity
  8
Make2D visible lines
100
AcDbSpline
210
0.0
220
0.0
230
1.0
 70
    24
 71
     2
 72
     6
 73
     3
 74
     0
 42
0.0000000001
 43
0.0000000001
 40
0.0
 40
0.0
 40
0.0
 40
1.379419120443295
 40
1.379419120443295
 40
1.379419120443295
 10
27.99318884576511
 20
0.4000000000000163
 30
0.0
 10
28.68289840598676
 20
0.4000000000000162
 30
0.0
 10
29.37260796620841
 20
0.4000000000000161
 30
0.0
  0
SPLINE
  5
55
330
1F
100
AcDbEntity
  8
Make2D visible lines
100
AcDbSpline
210
0.0
220
0.0
230
1.0
 70
    12
 71
     2
 72
     8
 73
     5
 74
     0
 42
0.0000000001
 43
0.0000000001
 40
0.0
 40
0.0
 40
0.0
 40
0.0119642320224294
 40
0.0119642320224294
 40
0.0239284640448587
 40
0.0239284640448587
 40
0.0239284640448587
 10
29.37564537259291
 20
0.4000000000000163
 30
0.0
 41
1.0
 10
29.38196620065991
 20
0.4000000000000209
 30
0.0
 41
0.9215246294676533
 10
29.38638076359848
 20
0.3954762292814858
 30
0.0
 41
1.0
 10
29.39079532653706
 20
0.3909524585629509
 30
0.0
 41
0.9215246294676533
 10
29.39064089493965
 20
0.3846335173277264
 30
0.0
 41
1.0
  0
SPLINE
  5
56
330
1F
100
AcDbEntity
  8
Make2D visible lines
100
AcDbSpline
210
0.0
220
0.0
230
1.0
 70
    12
 71
     2
 72
     6
 73
     3
 74
     0
 42
0.0000000001
 43
0.0000000001
 40
-0.0371380794388858
 40
-0.0371380794388858
 40
-0.0371380794388858
 40
0.0
 40
0.0
 40
0.0
 10
57.23066002358576
 20
0.4022441987256987
 30
0.0
 41
1.0
 10
57.25043192870287
 20
0.4103542426935238
 30
0.0
 41
0.8144776561050845
 10
57.24922745668005
 20
0.4316908378358253
 30
0.0
 41
1.0
  0
SPLINE
  5
57
330
1F
100
AcDbEntity
  8
Make2D visible lines
100
AcDbSpline
210
0.0
220
0.0
230
1.0
 70
     8
 71
     3
 72
    12
 73
     8
 74
     0
 42
0.0000000001
 43
0.0000000001
 40
0.0
 40
0.0
 40
0.0
 40
0.0
 40
2.024931116884056
 40
2.121300252943487
 40
2.208073208949396
 40
2.641991453438839
 40
3.085460819895622
 40
3.085460819895622
 40
3.085460819895622
 40
3.085460819895622
 10
57.24922745668005
 20
0.4316908378358253
 30
0.0
 10
57.21052358467963
 20
1.105574847750693
 30
0.0
 10
57.17222092501552
 20
1.811593362411049
 30
0.0
 10
57.12939895821921
 20
2.546414843142783
 30
0.0
 10
57.08456473938336
 20
2.747953191239763
 30
0.0
 10
56.91600606378838
 20
3.034556781920432
 30
0.0
 10
56.64534071727383
 20
3.175838551528641
 30
0.0
 10
56.50101644368696
 20
3.205665827232744
 30
0.0
  0
SPLINE
  5
58
330
1F
100
AcDbEntity
  8
Make2D visible lines
100
AcDbSpline
210
0.0
220
0.0
230
1.0
 70
    24
 71
     2
 72
     6
 73
     3
 74
     0
 42
0.0000000001
 43
0.0000000001
 40
-12.2902709571203
 40
-12.2902709571203
 40
-12.2902709571203
 40
0.0
 40
0.0
 40
0.0
 10
56.50101644368696
 20
3.205665827232744
 30
0.0
 10
50.48301644368696
 20
4.449195501128249
 30
0.0
 10
44.46501644368696
 20
5.692725175023753
 30
0.0
  0
SPLINE
  5
59
330
1F
100
AcDbEntity
  8
Make2D visible lines
100
AcDbSpline
210
0.0
220
0.0
230
1.0
 70
    12
 71
     3
 72
    11
 73
     7
 74
     0
 42
0.0000000001
 43
0.0000000001
 40
0.0
 40
0.0
 40
0.0
 40
0.0
 40
0.2500000000000077
 40
0.500000000000056
 40
0.7500000000001044
 40
0.9903549301730069
 40
0.9903549301730069
 40
0.9903549301730069
 40
0.9903549301730069
 10
44.46501644368696
 20
5.692725175023753
 30
0.0
 41
1.0
 10
44.39254870271482
 20
5.707699549616471
 30
0.0
 41
1.0
 10
44.25090124203709
 20
5.771964450750453
 30
0.0
 41
1.0
 10
44.07005319011219
 20
5.941965920377697
 30
0.0
 41
1.0
 10
43.94422657511014
 20
6.15347175039408
 30
0.0
 41
1.0
 10
43.90906875830196
 20
6.303120864095799
 30
0.0
 41
1.0
 10
43.90652355600684
 20
6.378712134379271
 30
0.0
 41
1.0
  0
SPLINE
  5
5A
330
1F
100
AcDbEntity
  8
Make2D visible lines
100
AcDbSpline
210
0.0
220
0.0
230
1.0
 70
    24
 71
     2
 72
     6
 73
     3
 74
     0
 42
0.0000000001
 43
0.0000000001
 40
0.0
 40
0.0
 40
0.0
 40
0.080013140622857
 40
0.080013140622857
 40
0.080013140622857
 10
43.90652355600684
 20
6.378712134379271
 30
0.0
 10
43.90576999984695
 20
6.420856067189643
 30
0.0
 10
43.90501644368706
 20
6.463000000000015
 30
0.0
  0
SPLINE
  5
5B
330
1F
100
AcDbEntity
  8
Make2D visible lines
100
AcDbSpline
210
0.0
220
0.0
230
1.0
 70
    24
 71
     2
 72
     6
 73
     3
 74
     0
 42
0.0000000001
 43
0.0000000001
 40
0.0
 40
0.0
 40
0.0
 40
1.290000000000045
 40
1.290000000000045
 40
1.290000000000045
 10
43.90501644368706
 20
6.463000000000015
 30
0.0
 10
43.26001644368704
 20
6.463000000000015
 30
0.0
 10
42.61501644368701
 20
6.463000000000015
 30
0.0
  0
SPLINE
  5
5C
330
1F
100
AcDbEntity
  8
Make2D visible lines
100
AcDbSpline
210
0.0
220
0.0
230
1.0
 70
    24
 71
     2
 72
     6
 73
     3
 74
     0
 42
0.0000000001
 43
0.0000000001
 40
0.0
 40
0.0
 40
0.0
 40
1.289412297652113
 40
1.289412297652113
 40
1.289412297652113
 10
42.61501644368701
 20
6.463000000000015
 30
0.0
 10
41.97016336927398
 20
6.463000000000015
 30
0.0
 10
41.32531029486093
 20
6.463000000000015
 30
0.0
  0
SPLINE
  5
5D
330
1F
100
AcDbEntity
  8
Make2D visible lines
100
AcDbSpline
210
0.0
220
0.0
230
1.0
 70
    24
 71
     2
 72
     6
 73
     3
 74
     0
 42
0.0000000001
 43
0.0000000001
 40
-0.080013140622857
 40
-0.080013140622857
 40
-0.080013140622857
 40
0.0
 40
0.0
 40
0.0
 10
41.32531029486093
 20
6.463000000000015
 30
0.0
 10
41.32440981311406
 20
6.420856067189643
 30
0.0
 10
41.32350933136718
 20
6.378712134379271
 30
0.0
  0
SPLINE
  5
5E
330
1F
100
AcDbEntity
  8
Make2D visible lines
100
AcDbSpline
210
0.0
220
0.0
230
1.0
 70
    12
 71
     3
 72
    11
 73
     7
 74
     0
 42
0.0000000001
 43
0.0000000001
 40
-0.9903549301730069
 40
-0.9903549301730069
 40
-0.9903549301730069
 40
-0.9903549301730069
 40
-0.7500000000001044
 40
-0.500000000000056
 40
-0.2500000000000077
 40
0.0
 40
0.0
 40
0.0
 40
0.0
 10
41.32350933136718
 20
6.378712134379271
 30
0.0
 41
1.0
 10
41.32096412907207
 20
6.303120864095799
 30
0.0
 41
1.0
 10
41.28580631226389
 20
6.15347175039408
 30
0.0
 41
1.0
 10
41.15997969726183
 20
5.941965920377697
 30
0.0
 41
1.0
 10
40.97913164533693
 20
5.771964450750453
 30
0.0
 41
1.0
 10
40.8374841846592
 20
5.707699549616471
 30
0.0
 41
1.0
 10
40.76501644368707
 20
5.692725175023753
 30
0.0
 41
1.0
  0
SPLINE
  5
5F
330
1F
100
AcDbEntity
  8
Make2D visible lines
100
AcDbSpline
210
0.0
220
0.0
230
1.0
 70
    24
 71
     2
 72
     6
 73
     3
 74
     0
 42
0.0000000001
 43
0.0000000001
 40
0.0
 40
0.0
 40
0.0
 40
12.2902709571203
 40
12.2902709571203
 40
12.2902709571203
 10
40.76501644368707
 20
5.692725175023753
 30
0.0
 10
34.74701644368707
 20
4.449195501128249
 30
0.0
 10
28.72901644368707
 20
3.205665827232744
 30
0.0
  0
SPLINE
  5
60
330
1F
100
AcDbEntity
  8
Make2D visible lines
100
AcDbSpline
210
0.0
220
0.0
230
1.0
 70
     8
 71
     3
 72
    12
 73
     8
 74
     0
 42
0.0000000001
 43
0.0000000001
 40
-3.085460819895622
 40
-3.085460819895622
 40
-3.085460819895622
 40
-3.085460819895622
 40
-2.641991453438839
 40
-2.208073208949396
 40
-2.121300252943487
 40
-2.024931116884056
 40
0.0
 40
0.0
 40
0.0
 40
0.0
 10
28.72901644368707
 20
3.205665827232744
 30
0.0
 10
28.5846921701002
 20
3.175838551528641
 30
0.0
 10
28.31402682358564
 20
3.034556781920432
 30
0.0
 10
28.14546814799066
 20
2.747953191239763
 30
0.0
 10
28.10063392915482
 20
2.546414843142783
 30
0.0
 10
28.0578119623585
 20
1.811593362411049
 30
0.0
 10
28.0195093026944
 20
1.105574847750693
 30
0.0
 10
27.98080543069397
 20
0.4316908378358253
 30
0.0
  0
SPLINE
  5
61
330
1F
100
AcDbEntity
  8
Make2D visible lines
100
AcDbSpline
210
0.0
220
0.0
230
1.0
 70
    12
 71
     2
 72
     6
 73
     3
 74
     0
 42
0.0000000001
 43
0.0000000001
 40
0.0
 40
0.0
 40
0.0
 40
0.0371380794388858
 40
0.0371380794388858
 40
0.0371380794388858
 10
27.98080543069397
 20
0.4316908378358253
 30
0.0
 41
1.0
 10
27.97960095867115
 20
0.4103542426935238
 30
0.0
 41
0.8144776561050845
 10
27.99937286378827
 20
0.4022441987256987
 30
0.0
 41
1.0
  0
SPLINE
  5
63
330
1F
100
AcDbEntity
  8
Make2D visible lines - Tangent
100
AcDbSpline
210
0.0
220
0.0
230
1.0
 70
     8
 71
     3
 72
    54
 73
    50
 74
     0
 42
0.0000000001
 43
0.0000000001
 40
0.0
 40
0.0
 40
0.0
 40
0.0
 40
1.0
 40
2.0
 40
3.0
 40
4.0
 40
5.0
 40
6.0
 40
7.0
 40
8.0
 40
9.0
 40
10.0
 40
11.0
 40
12.0
 40
13.0
 40
14.0
 40
15.0
 40
16.0
 40
17.0
 40
18.0
 40
19.0
 40
20.0
 40
21.0
 40
22.0
 40
23.0
 40
24.0
 40
25.0
 40
26.0
 40
27.0
 40
28.0
 40
29.0
 40
30.0
 40
31.0
 40
32.0
 40
33.0
 40
34.0
 40
35.0
 40
36.0
 40
37.0
 40
38.0
 40
39.0
 40
40.0
 40
41.0
 40
42.0
 40
43.0
 40
44.0
 40
45.0
 40
46.0
 40
47.0
 40
47.0
 40
47.0
 40
47.0
 10
43.00059048277018
 20
0.403329261439214
 30
0.0
 10
43.02586076211671
 20
0.471691761030031
 30
0.0
 10
43.00782364649061
 20
0.6333535261625483
 30
0.0
 10
43.00859470873916
 20
0.8657327374605353
 30
0.0
 10
43.00201707161306
 20
1.100824691898526
 30
0.0
 10
42.99722308779433
 20
1.335184942048012
 30
0.0
 10
42.99193671666011
 20
1.569741898107297
 30
0.0
 10
42.98682619228469
 20
1.804245165096962
 30
0.0
 10
42.9821911742717
 20
2.038780643129261
 30
0.0
 10
42.97686129189375
 20
2.27327054669982
 30
0.0
 10
42.97617445746255
 20
2.50795635439968
 30
0.0
 10
42.99142153070245
 20
2.742035110000107
 30
0.0
 10
43.01659103232997
 20
2.975291767990851
 30
0.0
 10
43.04121813127318
 20
3.208581524431251
 30
0.0
 10
43.06545061147957
 20
3.44180444554645
 30
0.0
 10
43.09601005834661
 20
3.674811437325082
 30
0.0
 10
43.10233314267312
 20
3.908675454710889
 30
0.0
 10
43.08778008622586
 20
4.14316108458999
 30
0.0
 10
43.07723910236287
 20
4.377402299909646
 30
0.0
 10
43.0668766105384
 20
4.611784456659724
 30
0.0
 10
43.0547705111597
 20
4.845964675118837
 30
0.0
 10
43.04302050256182
 20
5.080512320442788
 30
0.0
 10
43.00467764996926
 20
5.312100872344999
 30
0.0
 10
42.92138089225633
 20
5.534912960303022
 30
0.0
 10
42.74117151460975
 20
5.701053020982688
 30
0.0
 10
42.48596175737421
 20
5.700046595423096
 30
0.0
 10
42.30727598235828
 20
5.532266007601516
 30
0.0
 10
42.22464075739712
 20
5.309372210240867
 30
0.0
 10
42.18679935921073
 20
5.077673675160892
 30
0.0
 10
42.17509508673621
 20
4.843140061617282
 30
0.0
 10
42.16306479157247
 20
4.608952622806954
 30
0.0
 10
42.15261953623322
 20
4.374572197465292
 30
0.0
 10
42.14221087605507
 20
4.140337130437424
 30
0.0
 10
42.1272616275431
 20
3.905822607503123
 30
0.0
 10
42.13508572594923
 20
3.67206586450394
 30
0.0
 10
42.16541743624275
 20
3.439049497872843
 30
0.0
 10
42.18906286066223
 20
3.205758678338231
 30
0.0
 10
42.21305976033802
 20
2.972405099167784
 30
0.0
 10
42.23844135696391
 20
2.739167888374083
 30
0.0
 10
42.2540274179712
 20
2.505129568181835
 30
0.0
 10
42.25300358640477
 20
2.270431807711549
 30
0.0
 10
42.24785067199891
 20
2.035943620623493
 30
0.0
 10
42.243108798633
 20
1.801408320125761
 30
0.0
 10
42.23793633349188
 20
1.566909832637999
 30
0.0
 10
42.23259495414857
 20
1.332342661516703
 30
0.0
 10
42.22816908606394
 20
1.098016778736779
 30
0.0
 10
42.22117917199742
 20
0.8627750502036662
 30
0.0
 10
42.22286909087921
 20
0.6309690073439601
 30
0.0
 10
42.20255676793687
 20
0.4678802044313225
 30
0.0
 10
42.23202258852131
 20
0.4021512543515627
 30
0.0
  0
SPLINE
  5
64
330
1F
100
AcDbEntity
  8
Make2D visible lines
100
AcDbSpline
210
0.0
220
0.0
230
1.0
 70
    24
 71
     2
 72
     6
 73
     3
 74
     0
 42
0.0000000001
 43
0.0000000001
 40
0.0
 40
0.0
 40
0.0
 40
2.579999999999997
 40
2.579999999999997
 40
2.579999999999997
 10
41.32501644368702
 20
6.503000000000016
 30
0.0
 10
42.61501644368701
 20
6.503000000000016
 30
0.0
 10
43.90501644368701
 20
6.503000000000016
 30
0.0
  0
SPLINE
  5
65
330
1F
100
AcDbEntity
  8
Make2D visible lines
100
AcDbSpline
210
0.0
220
0.0
230
1.0
 70
    24
 71
     2
 72
     6
 73
     3
 74
     0
 42
0.0000000001
 43
0.0000000001
 40
0.0
 40
0.0
 40
0.0
 40
0.0400060931217547
 40
0.0400060931217547
 40
0.0400060931217547
 10
41.41431824108963
 20
6.463000000000022
 30
0.0
 10
41.41466734238818
 20
6.483000000000022
 30
0.0
 10
41.41501644368672
 20
6.503000000000021
 30
0.0
  0
SPLINE
  5
66
330
1F
100
AcDbEntity
  8
Make2D visible lines
100
AcDbSpline
210
0.0
220
0.0
230
1.0
 70
    24
 71
     2
 72
     6
 73
     3
 74
     0
 42
0.0000000001
 43
0.0000000001
 40
0.0
 40
0.0
 40
0.0
 40
0.0400060931217547
 40
0.0400060931217547
 40
0.0400060931217547
 10
43.8150164436873
 20
6.503000000000021
 30
0.0
 10
43.81536554498584
 20
6.483000000000022
 30
0.0
 10
43.81571464628439
 20
6.463000000000022
 30
0.0
  0
SPLINE
  5
67
330
1F
100
AcDbEntity
  8
Make2D visible lines
100
AcDbSpline
210
0.0
220
0.0
230
1.0
 70
    24
 71
     2
 72
     6
 73
     3
 74
     0
 42
0.0000000001
 43
0.0000000001
 40
0.0
 40
0.0
 40
0.0
 40
1.107594207465098
 40
1.107594207465098
 40
1.107594207465098
 10
56.00102625674101
 20
0.0000000000000036
 30
0.0
 10
56.55482336047356
 20
0.0000000000000036
 30
0.0
 10
57.10862046420611
 20
0.0000000000000036
 30
0.0
  0
SPLINE
  5
68
330
1F
100
AcDbEntity
  8
Make2D visible lines
100
AcDbSpline
210
0.0
220
0.0
230
1.0
 70
    12
 71
     2
 72
     8
 73
     5
 74
     0
 42
0.0000000001
 43
0.0000000001
 40
0.0
 40
0.0
 40
0.0
 40
0.1269465231438366
 40
0.1269465231438366
 40
0.2538930462876731
 40
0.2538930462876731
 40
0.2538930462876731
 10
57.1086204642061
 20
0.0000000000000036
 30
0.0
 41
1.0
 10
57.17584502854147
 20
0.000000000000002
 30
0.0
 41
0.918360064844369
 10
57.22201287064973
 20
0.0488638148853193
 30
0.0
 41
1.0
 10
57.268180712758
 20
0.0977276297706366
 30
0.0
 41
0.918360064844369
 10
57.26436956481311
 20
0.1648440748599159
 30
0.0
 41
1.0
  0
SPLINE
  5
69
330
1F
100
AcDbEntity
  8
Make2D visible lines
100
AcDbSpline
210
0.0
220
0.0
230
1.0
 70
    12
 71
     2
 72
     6
 73
     3
 74
     0
 42
0.0000000001
 43
0.0000000001
 40
0.0
 40
0.0
 40
0.0
 40
0.2412324278936833
 40
0.2412324278936833
 40
0.2412324278936833
 10
55.84507282433514
 20
0.1521885802082181
 30
0.0
 41
1.0
 10
55.84879223312107
 20
-0.0000000000000105
 30
0.0
 41
0.7156927337036098
 10
56.00102625674101
 20
0.0000000000000034
 30
0.0
 41
1.0
  0
SPLINE
  5
6A
330
1F
100
AcDbEntity
  8
Make2D visible lines
100
AcDbSpline
210
0.0
220
0.0
230
1.0
 70
    24
 71
     2
 72
     6
 73
     3
 74
     0
 42
0.0000000001
 43
0.0000000001
 40
0.0
 40
0.0
 40
0.0
 40
0.2325105046476637
 40
0.2325105046476637
 40
0.2325105046476637
 10
55.84507273050629
 20
0.1521924194416825
 30
0.0
 10
55.84223236147033
 20
0.2684129683847045
 30
0.0
 10
55.83939199243437
 20
0.3846335173277264
 30
0.0
  0
SPLINE
  5
6B
330
1F
100
AcDbEntity
  8
Make2D visible lines
100
AcDbSpline
210
0.0
220
0.0
230
1.0
 70
    24
 71
     2
 72
     6
 73
     3
 74
     0
 42
0.0000000001
 43
0.0000000001
 40
0.0
 40
0.0
 40
0.0
 40
0.2213623405233084
 40
0.2213623405233084
 40
0.2213623405233084
 10
57.25181991666729
 20
0.3858503918134666
 30
0.0
 10
57.2580947407402
 20
0.2753472333366913
 30
0.0
 10
57.26436956481312
 20
0.164844074859916
 30
0.0
  0
SPLINE
  5
6C
330
1F
100
AcDbEntity
  8
Make2D visible lines
100
AcDbSpline
210
0.0
220
0.0
230
1.0
 70
    12
 71
     2
 72
     6
 73
     3
 74
     0
 42
0.0000000001
 43
0.0000000001
 40
0.0
 40
0.0
 40
0.0
 40
0.0224671519842366
 40
0.0224671519842366
 40
0.0224671519842366
 10
57.25180410695684
 20
0.3860938211857499
 30
0.0
 41
1.0
 10
57.25078734181271
 20
0.4000000000000348
 30
0.0
 41
0.7324347794791691
 10
57.23684404160891
 20
0.4000000000000183
 30
0.0
 41
1.0
  0
SPLINE
  5
6D
330
1F
100
AcDbEntity
  8
Make2D visible lines
100
AcDbSpline
210
0.0
220
0.0
230
1.0
 70
    24
 71
     2
 72
     6
 73
     3
 74
     0
 42
0.0000000001
 43
0.0000000001
 40
0.0
 40
0.0
 40
0.0
 40
1.379419120443295
 40
1.379419120443295
 40
1.379419120443295
 10
57.23684404160891
 20
0.4000000000000163
 30
0.0
 10
56.54713448138726
 20
0.4000000000000162
 30
0.0
 10
55.85742492116562
 20
0.4000000000000161
 30
0.0
  0
SPLINE
  5
6E
330
1F
100
AcDbEntity
  8
Make2D visible lines
100
AcDbSpline
210
0.0
220
0.0
230
1.0
 70
    12
 71
     2
 72
     8
 73
     5
 74
     0
 42
0.0000000001
 43
0.0000000001
 40
0.0
 40
0.0
 40
0.0
 40
0.0119642320224294
 40
0.0119642320224294
 40
0.0239284640448587
 40
0.0239284640448587
 40
0.0239284640448587
 10
55.85438751478111
 20
0.4000000000000163
 30
0.0
 41
1.0
 10
55.84806668671413
 20
0.4000000000000209
 30
0.0
 41
0.9215246294676533
 10
55.84365212377554
 20
0.3954762292814858
 30
0.0
 41
1.0
 10
55.83923756083698
 20
0.3909524585629509
 30
0.0
 41
0.9215246294676533
 10
55.83939199243437
 20
0.3846335173277264
 30
0.0
 41
1.0
  0
SPLINE
  5
6F
330
1F
100
AcDbEntity
  8
Make2D visible lines
100
AcDbSpline
210
0.0
220
0.0
230
1.0
 70
    24
 71
     3
 72
     9
 73
     5
 74
     0
 42
0.0000000001
 43
0.0000000001
 40
0.0
 40
0.0
 40
0.0
 40
0.0
 40
0.0000682360840525
 40
0.251869451330915
 40
0.251869451330915
 40
0.251869451330915
 40
0.251869451330915
 10
42.36328346702261
 20
0.0000000000000036
 30
0.0
 10
42.36317398704254
 20
0.0000000000000036
 30
0.0
 10
42.44712013153413
 20
0.0000000000000036
 30
0.0
 10
42.53108562855708
 20
0.0000000000000036
 30
0.0
 10
42.61501644618542
 20
0.0000000000000036
 30
0.0
  0
SPLINE
  5
70
330
1F
100
AcDbEntity
  8
Make2D visible lines
100
AcDbSpline
210
0.0
220
0.0
230
1.0
 70
    24
 71
     2
 72
     6
 73
     3
 74
     0
 42
0.0000000001
 43
0.0000000001
 40
0.0
 40
0.0
 40
0.0
 40
0.2517559204860955
 40
0.2517559204860955
 40
0.2517559204860955
 10
42.61501644618542
 20
0.0000000000000036
 30
0.0
 10
42.74089440642847
 20
0.0000000000000036
 30
0.0
 10
42.86677236667152
 20
0.0000000000000036
 30
0.0
  0
SPLINE
  5
71
330
1F
100
AcDbEntity
  8
Make2D visible lines
100
AcDbSpline
210
0.0
220
0.0
230
1.0
 70
    24
 71
     2
 72
     6
 73
     3
 74
     0
 42
0.0000000001
 43
0.0000000001
 40
0.0
 40
0.0
 40
0.0
 40
0.3876534637036499
 40
0.3876534637036499
 40
0.3876534637036499
 10
42.61501644379415
 20
0.4000000000000163
 30
0.0
 10
42.42118971194232
 20
0.4000000000000162
 30
0.0
 10
42.2273629800905
 20
0.4000000000000161
 30
0.0
  0
SPLINE
  5
72
330
1F
100
AcDbEntity
  8
Make2D visible lines
100
AcDbSpline
210
0.0
220
0.0
230
1.0
 70
    24
 71
     2
 72
     6
 73
     3
 74
     0
 42
0.0000000001
 43
0.0000000001
 40
0.0
 40
0.0
 40
0.0
 40
0.3863627208447955
 40
0.3863627208447955
 40
0.3863627208447955
 10
43.00137947410477
 20
0.4000000000000166
 30
0.0
 10
42.80819811368237
 20
0.4000000000000165
 30
0.0
 10
42.61501675325997
 20
0.4000000000000163
 30
0.0
  0
SPLINE
  5
73
330
1F
100
AcDbEntity
  8
Make2D visible lines
100
AcDbSpline
210
0.0
220
0.0
230
1.0
 70
    12
 71
     2
 72
     8
 73
     5
 74
     0
 42
0.0000000001
 43
0.0000000001
 40
0.0
 40
0.0
 40
0.0
 40
0.1240063772075993
 40
0.1240063772075993
 40
0.2480127544151987
 40
0.2480127544151987
 40
0.2480127544151987
 10
42.36321470484675
 20
0.000000000001096
 30
0.0
 41
1.0
 10
42.29772477079248
 20
-0.0000119099018914
 30
0.0
 41
0.9220189045496352
 10
42.25185774604606
 20
0.0467336529376692
 30
0.0
 41
1.0
 10
42.20599072129961
 20
0.0934792157772298
 30
0.0
 41
0.9220189045496352
 10
42.20724501362697
 20
0.1589571384308644
 30
0.0
 41
1.0
  0
SPLINE
  5
74
330
1F
100
AcDbEntity
  8
Make2D visible lines
100
AcDbSpline
210
0.0
220
0.0
230
1.0
 70
    12
 71
     2
 72
     8
 73
     5
 74
     0
 42
0.0000000001
 43
0.0000000001
 40
0.0
 40
0.0
 40
0.0
 40
0.1242318577480881
 40
0.1242318577480881
 40
0.2484637154961761
 40
0.2484637154961761
 40
0.2484637154961761
 10
43.02277802222789
 20
0.1594215907425355
 30
0.0
 41
1.0
 10
43.0242176128818
 20
0.0938162002370285
 30
0.0
 41
0.9217678869813357
 10
42.97832852070015
 20
0.0469085153295885
 30
0.0
 41
1.0
 10
42.93243942851851
 20
0.0000008304221485
 30
0.0
 41
0.9217678869813357
 10
42.86681824532329
 20
0.0000000000011417
 30
0.0
 41
1.0
  0
SPLINE
  5
75
330
1F
100
AcDbEntity
  8
Make2D visible lines
100
AcDbSpline
210
0.0
220
0.0
230
1.0
 70
    12
 71
     2
 72
     6
 73
     3
 74
     0
 42
0.0000000001
 43
0.0000000001
 40
0.0
 40
0.0
 40
0.0
 40
0.2253642768281202
 40
0.2253642768281202
 40
0.2253642768281202
 10
43.01783672021335
 20
0.385325058594006
 30
0.0
 41
1.0
 10
43.02029582951432
 20
0.2726697563467351
 30
0.0
 41
0.9999999984988344
 10
43.02276728436502
 20
0.1600147242624911
 30
0.0
 41
1.0
  0
SPLINE
  5
76
330
1F
100
AcDbEntity
  8
Make2D visible lines
100
AcDbSpline
210
0.0
220
0.0
230
1.0
 70
    12
 71
     2
 72
     6
 73
     3
 74
     0
 42
0.0000000001
 43
0.0000000001
 40
0.0
 40
0.0
 40
0.0
 40
0.2259576718196235
 40
0.2259576718196235
 40
0.2259576718196235
 10
42.20725259171238
 20
0.1594216323489093
 30
0.0
 41
1.0
 10
42.20973058622484
 20
0.2723732898507527
 30
0.0
 41
0.9999999984910576
 10
42.21219617065994
 20
0.3853252189294936
 30
0.0
 41
1.0
  0
SPLINE
  5
77
330
1F
100
AcDbEntity
  8
Make2D visible lines
100
AcDbSpline
210
0.0
220
0.0
230
1.0
 70
    12
 71
     2
 72
     6
 73
     3
 74
     0
 42
0.0000000001
 43
0.0000000001
 40
0.0
 40
0.0
 40
0.0
 40
0.0232125536774005
 40
0.0232125536774005
 40
0.0232125536774005
 10
42.21219807522409
 20
0.3853269610145591
 30
0.0
 41
1.0
 10
42.21256458756184
 20
0.3999502926109969
 30
0.0
 41
0.7170957278319929
 10
42.22719242702815
 20
0.3999999999617776
 30
0.0
 41
1.0
  0
SPLINE
  5
78
330
1F
100
AcDbEntity
  8
Make2D visible lines
100
AcDbSpline
210
0.0
220
0.0
230
1.0
 70
    12
 71
     2
 72
     6
 73
     3
 74
     0
 42
0.0000000001
 43
0.0000000001
 40
0.0
 40
0.0
 40
0.0
 40
0.0232077921390905
 40
0.0232077921390905
 40
0.0232077921390905
 10
43.00284082610177
 20
0.3999999999470365
 30
0.0
 41
1.0
 10
43.0174580003221
 20
0.3999392744149043
 30
0.0
 41
0.7176120634141828
 10
43.01783485464624
 20
0.3853268327778507
 30
0.0
 41
1.0
  0
SPLINE
  5
79
330
1F
100
AcDbEntity
  8
Make2D visible lines
100
AcDbSpline
210
0.0
220
0.0
230
1.0
 70
    24
 71
     2
 72
     6
 73
     3
 74
     0
 42
0.0000000001
 43
0.0000000001
 40
0.0
 40
0.0
 40
0.0
 40
1.107594207465098
 40
1.107594207465098
 40
1.107594207465098
 10
-13.386009813054
 20
0.0000000000000036
 30
0.0
 10
-13.93980691678655
 20
0.0000000000000036
 30
0.0
 10
-14.4936040205191
 20
0.0000000000000036
 30
0.0
  0
SPLINE
  5
7A
330
1F
100
AcDbEntity
  8
Make2D visible lines
100
AcDbSpline
210
0.0
220
0.0
230
1.0
 70
    12
 71
     2
 72
     8
 73
     5
 74
     0
 42
0.0000000001
 43
0.0000000001
 40
0.0
 40
0.0
 40
0.0
 40
0.1269465231438366
 40
0.1269465231438366
 40
0.2538930462876731
 40
0.2538930462876731
 40
0.2538930462876731
 10
-14.49360402051909
 20
0.0000000000000036
 30
0.0
 41
1.0
 10
-14.56082858485446
 20
0.000000000000002
 30
0.0
 41
0.918360064844369
 10
-14.60699642696272
 20
0.0488638148853193
 30
0.0
 41
1.0
 10
-14.65316426907099
 20
0.0977276297706366
 30
0.0
 41
0.918360064844369
 10
-14.6493531211261
 20
0.1648440748599159
 30
0.0
 41
1.0
  0
SPLINE
  5
7B
330
1F
100
AcDbEntity
  8
Make2D visible lines
100
AcDbSpline
210
0.0
220
0.0
230
1.0
 70
    12
 71
     2
 72
     6
 73
     3
 74
     0
 42
0.0000000001
 43
0.0000000001
 40
0.0
 40
0.0
 40
0.0
 40
0.2412324278936833
 40
0.2412324278936833
 40
0.2412324278936833
 10
-13.23005638064813
 20
0.1521885802082181
 30
0.0
 41
1.0
 10
-13.23377578943406
 20
-0.0000000000000105
 30
0.0
 41
0.7156927337036098
 10
-13.386009813054
 20
0.0000000000000034
 30
0.0
 41
1.0
  0
SPLINE
  5
7C
330
1F
100
AcDbEntity
  8
Make2D visible lines
100
AcDbSpline
210
0.0
220
0.0
230
1.0
 70
    24
 71
     2
 72
     6
 73
     3
 74
     0
 42
0.0000000001
 43
0.0000000001
 40
0.0
 40
0.0
 40
0.0
 40
0.2325105046476637
 40
0.2325105046476637
 40
0.2325105046476637
 10
-13.23005628681928
 20
0.1521924194416825
 30
0.0
 10
-13.22721591778332
 20
0.2684129683847045
 30
0.0
 10
-13.22437554874736
 20
0.3846335173277264
 30
0.0
  0
SPLINE
  5
7D
330
1F
100
AcDbEntity
  8
Make2D visible lines
100
AcDbSpline
210
0.0
220
0.0
230
1.0
 70
    24
 71
     2
 72
     6
 73
     3
 74
     0
 42
0.0000000001
 43
0.0000000001
 40
0.0
 40
0.0
 40
0.0
 40
0.2213623405233084
 40
0.2213623405233084
 40
0.2213623405233084
 10
-14.63680347298028
 20
0.3858503918134666
 30
0.0
 10
-14.64307829705319
 20
0.2753472333366913
 30
0.0
 10
-14.6493531211261
 20
0.164844074859916
 30
0.0
  0
SPLINE
  5
7E
330
1F
100
AcDbEntity
  8
Make2D visible lines
100
AcDbSpline
210
0.0
220
0.0
230
1.0
 70
    12
 71
     2
 72
     6
 73
     3
 74
     0
 42
0.0000000001
 43
0.0000000001
 40
0.0
 40
0.0
 40
0.0
 40
0.0224671519842366
 40
0.0224671519842366
 40
0.0224671519842366
 10
-14.63678766326983
 20
0.3860938211857499
 30
0.0
 41
1.0
 10
-14.6357708981257
 20
0.4000000000000348
 30
0.0
 41
0.7324347794791691
 10
-14.6218275979219
 20
0.4000000000000183
 30
0.0
 41
1.0
  0
SPLINE
  5
7F
330
1F
100
AcDbEntity
  8
Make2D visible lines
100
AcDbSpline
210
0.0
220
0.0
230
1.0
 70
    24
 71
     2
 72
     6
 73
     3
 74
     0
 42
0.0000000001
 43
0.0000000001
 40
0.0
 40
0.0
 40
0.0
 40
1.379419120443295
 40
1.379419120443295
 40
1.379419120443295
 10
-14.6218275979219
 20
0.4000000000000163
 30
0.0
 10
-13.93211803770025
 20
0.4000000000000162
 30
0.0
 10
-13.24240847747861
 20
0.4000000000000161
 30
0.0
  0
SPLINE
  5
80
330
1F
100
AcDbEntity
  8
Make2D visible lines
100
AcDbSpline
210
0.0
220
0.0
230
1.0
 70
    12
 71
     2
 72
     8
 73
     5
 74
     0
 42
0.0000000001
 43
0.0000000001
 40
0.0
 40
0.0
 40
0.0
 40
0.0119642320224294
 40
0.0119642320224294
 40
0.0239284640448587
 40
0.0239284640448587
 40
0.0239284640448587
 10
-13.2393710710941
 20
0.4000000000000163
 30
0.0
 41
1.0
 10
-13.23305024302711
 20
0.4000000000000209
 30
0.0
 41
0.9215246294676533
 10
-13.22863568008853
 20
0.3954762292814858
 30
0.0
 41
1.0
 10
-13.22422111714996
 20
0.3909524585629509
 30
0.0
 41
0.9215246294676533
 10
-13.22437554874736
 20
0.3846335173277264
 30
0.0
 41
1.0
  0
SPLINE
  5
81
330
1F
100
AcDbEntity
  8
Make2D visible lines
100
AcDbSpline
210
0.0
220
0.0
230
1.0
 70
    12
 71
     2
 72
     6
 73
     3
 74
     0
 42
0.0000000001
 43
0.0000000001
 40
-0.0371380794388858
 40
-0.0371380794388858
 40
-0.0371380794388858
 40
0.0
 40
0.0
 40
0.0
 10
14.61564357989874
 20
0.4022441987256987
 30
0.0
 41
1.0
 10
14.63541548501586
 20
0.4103542426935238
 30
0.0
 41
0.8144776561050845
 10
14.63421101299304
 20
0.4316908378358253
 30
0.0
 41
1.0
  0
SPLINE
  5
82
330
1F
100
AcDbEntity
  8
Make2D visible lines
100
AcDbSpline
210
0.0
220
0.0
230
1.0
 70
     8
 71
     3
 72
    12
 73
     8
 74
     0
 42
0.0000000001
 43
0.0000000001
 40
0.0
 40
0.0
 40
0.0
 40
0.0
 40
2.024931116884056
 40
2.121300252943487
 40
2.208073208949396
 40
2.641991453438839
 40
3.085460819895622
 40
3.085460819895622
 40
3.085460819895622
 40
3.085460819895622
 10
14.63421101299304
 20
0.4316908378358253
 30
0.0
 10
14.59550714099262
 20
1.105574847750693
 30
0.0
 10
14.55720448132851
 20
1.811593362411049
 30
0.0
 10
14.51438251453219
 20
2.546414843142783
 30
0.0
 10
14.46954829569635
 20
2.747953191239763
 30
0.0
 10
14.30098962010137
 20
3.034556781920432
 30
0.0
 10
14.03032427358681
 20
3.175838551528641
 30
0.0
 10
13.88599999999995
 20
3.205665827232744
 30
0.0
  0
SPLINE
  5
83
330
1F
100
AcDbEntity
  8
Make2D visible lines
100
AcDbSpline
210
0.0
220
0.0
230
1.0
 70
    24
 71
     2
 72
     6
 73
     3
 74
     0
 42
0.0000000001
 43
0.0000000001
 40
-12.2902709571203
 40
-12.2902709571203
 40
-12.2902709571203
 40
0.0
 40
0.0
 40
0.0
 10
13.88599999999995
 20
3.205665827232744
 30
0.0
 10
7.867999999999946
 20
4.449195501128249
 30
0.0
 10
1.849999999999945
 20
5.692725175023753
 30
0.0
  0
SPLINE
  5
84
330
1F
100
AcDbEntity
  8
Make2D visible lines
100
AcDbSpline
210
0.0
220
0.0
230
1.0
 70
    12
 71
     3
 72
    11
 73
     7
 74
     0
 42
0.0000000001
 43
0.0000000001
 40
0.0
 40
0.0
 40
0.0
 40
0.0
 40
0.2500000000000077
 40
0.500000000000056
 40
0.7500000000001044
 40
0.9903549301730069
 40
0.9903549301730069
 40
0.9903549301730069
 40
0.9903549301730069
 10
1.849999999999945
 20
5.692725175023753
 30
0.0
 41
1.0
 10
1.777532259027804
 20
5.707699549616471
 30
0.0
 41
1.0
 10
1.635884798350073
 20
5.771964450750453
 30
0.0
 41
1.0
 10
1.455036746425176
 20
5.941965920377697
 30
0.0
 41
1.0
 10
1.329210131423126
 20
6.15347175039408
 30
0.0
 41
1.0
 10
1.294052314614946
 20
6.303120864095799
 30
0.0
 41
1.0
 10
1.291507112319829
 20
6.378712134379271
 30
0.0
 41
1.0
  0
SPLINE
  5
85
330
1F
100
AcDbEntity
  8
Make2D visible lines
100
AcDbSpline
210
0.0
220
0.0
230
1.0
 70
    24
 71
     2
 72
     6
 73
     3
 74
     0
 42
0.0000000001
 43
0.0000000001
 40
0.0
 40
0.0
 40
0.0
 40
0.080013140622857
 40
0.080013140622857
 40
0.080013140622857
 10
1.291507112319829
 20
6.378712134379271
 30
0.0
 10
1.290753556159937
 20
6.420856067189643
 30
0.0
 10
1.290000000000045
 20
6.463000000000015
 30
0.0
  0
SPLINE
  5
86
330
1F
100
AcDbEntity
  8
Make2D visible lines
100
AcDbSpline
210
0.0
220
0.0
230
1.0
 70
    24
 71
     2
 72
     6
 73
     3
 74
     0
 42
0.0000000001
 43
0.0000000001
 40
0.0
 40
0.0
 40
0.0
 40
1.290000000000045
 40
1.290000000000045
 40
1.290000000000045
 10
1.290000000000045
 20
6.463000000000015
 30
0.0
 10
0.6450000000000227
 20
6.463000000000015
 30
0.0
 10
0.0
 20
6.463000000000015
 30
0.0
  0
SPLINE
  5
87
330
1F
100
AcDbEntity
  8
Make2D visible lines
100
AcDbSpline
210
0.0
220
0.0
230
1.0
 70
    24
 71
     2
 72
     6
 73
     3
 74
     0
 42
0.0000000001
 43
0.0000000001
 40
0.0
 40
0.0
 40
0.0
 40
1.289412297652113
 40
1.289412297652113
 40
1.289412297652113
 10
0.0
 20
6.463000000000015
 30
0.0
 10
-0.6448530744130396
 20
6.463000000000015
 30
0.0
 10
-1.289706148826079
 20
6.463000000000015
 30
0.0
  0
SPLINE
  5
88
330
1F
100
AcDbEntity
  8
Make2D visible lines
100
AcDbSpline
210
0.0
220
0.0
230
1.0
 70
    24
 71
     2
 72
     6
 73
     3
 74
     0
 42
0.0000000001
 43
0.0000000001
 40
-0.080013140622857
 40
-0.080013140622857
 40
-0.080013140622857
 40
0.0
 40
0.0
 40
0.0
 10
-1.289706148826079
 20
6.463000000000015
 30
0.0
 10
-1.290606630572954
 20
6.420856067189643
 30
0.0
 10
-1.291507112319829
 20
6.378712134379271
 30
0.0
  0
SPLINE
  5
89
330
1F
100
AcDbEntity
  8
Make2D visible lines
100
AcDbSpline
210
0.0
220
0.0
230
1.0
 70
    12
 71
     3
 72
    11
 73
     7
 74
     0
 42
0.0000000001
 43
0.0000000001
 40
-0.9903549301730069
 40
-0.9903549301730069
 40
-0.9903549301730069
 40
-0.9903549301730069
 40
-0.7500000000001044
 40
-0.500000000000056
 40
-0.2500000000000077
 40
0.0
 40
0.0
 40
0.0
 40
0.0
 10
-1.291507112319829
 20
6.378712134379271
 30
0.0
 41
1.0
 10
-1.294052314614946
 20
6.303120864095799
 30
0.0
 41
1.0
 10
-1.329210131423126
 20
6.15347175039408
 30
0.0
 41
1.0
 10
-1.455036746425176
 20
5.941965920377697
 30
0.0
 41
1.0
 10
-1.635884798350073
 20
5.771964450750453
 30
0.0
 41
1.0
 10
-1.777532259027804
 20
5.707699549616471
 30
0.0
 41
1.0
 10
-1.849999999999945
 20
5.692725175023753
 30
0.0
 41
1.0
  0
SPLINE
  5
8A
330
1F
100
AcDbEntity
  8
Make2D visible lines
100
AcDbSpline
210
0.0
220
0.0
230
1.0
 70
    24
 71
     2
 72
     6
 73
     3
 74
     0
 42
0.0000000001
 43
0.0000000001
 40
0.0
 40
0.0
 40
0.0
 40
12.2902709571203
 40
12.2902709571203
 40
12.2902709571203
 10
-1.849999999999945
 20
5.692725175023753
 30
0.0
 10
-7.867999999999946
 20
4.449195501128249
 30
0.0
 10
-13.88599999999995
 20
3.205665827232744
 30
0.0
  0
SPLINE
  5
8B
330
1F
100
AcDbEntity
  8
Make2D visible lines
100
AcDbSpline
210
0.0
220
0.0
230
1.0
 70
     8
 71
     3
 72
    12
 73
     8
 74
     0
 42
0.0000000001
 43
0.0000000001
 40
-3.085460819895622
 40
-3.085460819895622
 40
-3.085460819895622
 40
-3.085460819895622
 40
-2.641991453438839
 40
-2.208073208949396
 40
-2.121300252943487
 40
-2.024931116884056
 40
0.0
 40
0.0
 40
0.0
 40
0.0
 10
-13.88599999999995
 20
3.205665827232744
 30
0.0
 10
-14.03032427358681
 20
3.175838551528641
 30
0.0
 10
-14.30098962010137
 20
3.034556781920432
 30
0.0
 10
-14.46954829569635
 20
2.747953191239763
 30
0.0
 10
-14.51438251453219
 20
2.546414843142783
 30
0.0
 10
-14.55720448132851
 20
1.811593362411049
 30
0.0
 10
-14.59550714099262
 20
1.105574847750693
 30
0.0
 10
-14.63421101299304
 20
0.4316908378358253
 30
0.0
  0
SPLINE
  5
8C
330
1F
100
AcDbEntity
  8
Make2D visible lines
100
AcDbSpline
210
0.0
220
0.0
230
1.0
 70
    12
 71
     2
 72
     6
 73
     3
 74
     0
 42
0.0000000001
 43
0.0000000001
 40
0.0
 40
0.0
 40
0.0
 40
0.0371380794388858
 40
0.0371380794388858
 40
0.0371380794388858
 10
-14.63421101299304
 20
0.4316908378358253
 30
0.0
 41
1.0
 10
-14.63541548501586
 20
0.4103542426935238
 30
0.0
 41
0.8144776561050845
 10
-14.61564357989874
 20
0.4022441987256987
 30
0.0
 41
1.0
  0
SPLINE
  5
8D
330
1F
100
AcDbEntity
  8
Make2D visible lines - Tangent
100
AcDbSpline
210
0.0
220
0.0
230
1.0
 70
     8
 71
     3
 72
    54
 73
    50
 74
     0
 42
0.0000000001
 43
0.0000000001
 40
0.0
 40
0.0
 40
0.0
 40
0.0
 40
1.0
 40
2.0
 40
3.0
 40
4.0
 40
5.0
 40
6.0
 40
7.0
 40
8.0
 40
9.0
 40
10.0
 40
11.0
 40
12.0
 40
13.0
 40
14.0
 40
15.0
 40
16.0
 40
17.0
 40
18.0
 40
19.0
 40
20.0
 40
21.0
 40
22.0
 40
23.0
 40
24.0
 40
25.0
 40
26.0
 40
27.0
 40
28.0
 40
29.0
 40
30.0
 40
31.0
 40
32.0
 40
33.0
 40
34.0
 40
35.0
 40
36.0
 40
37.0
 40
38.0
 40
39.0
 40
40.0
 40
41.0
 40
42.0
 40
43.0
 40
44.0
 40
45.0
 40
46.0
 40
47.0
 40
47.0
 40
47.0
 40
47.0
 10
0.3855740390831688
 20
0.403329261439214
 30
0.0
 10
0.4108443184297055
 20
0.471691761030031
 30
0.0
 10
0.3928072028035972
 20
0.6333535261625483
 30
0.0
 10
0.3935782650521504
 20
0.8657327374605353
 30
0.0
 10
0.3870006279260478
 20
1.100824691898526
 30
0.0
 10
0.3822066441073212
 20
1.335184942048012
 30
0.0
 10
0.376920272973096
 20
1.569741898107297
 30
0.0
 10
0.3718097485976801
 20
1.804245165096962
 30
0.0
 10
0.367174730584694
 20
2.038780643129261
 30
0.0
 10
0.3618448482067402
 20
2.27327054669982
 30
0.0
 10
0.3611580137755363
 20
2.50795635439968
 30
0.0
 10
0.376405087015441
 20
2.742035110000107
 30
0.0
 10
0.4015745886429593
 20
2.975291767990851
 30
0.0
 10
0.4262016875861679
 20
3.208581524431251
 30
0.0
 10
0.4504341677925552
 20
3.44180444554645
 30
0.0
 10
0.4809936146595975
 20
3.674811437325082
 30
0.0
 10
0.4873166989861086
 20
3.908675454710889
 30
0.0
 10
0.4727636425388441
 20
4.14316108458999
 30
0.0
 10
0.4622226586758619
 20
4.377402299909646
 30
0.0
 10
0.4518601668513925
 20
4.611784456659724
 30
0.0
 10
0.4397540674726934
 20
4.845964675118837
 30
0.0
 10
0.4280040588748157
 20
5.080512320442788
 30
0.0
 10
0.3896612062822467
 20
5.312100872344999
 30
0.0
 10
0.306364448569322
 20
5.534912960303022
 30
0.0
 10
0.1261550709227438
 20
5.701053020982688
 30
0.0
 10
-0.1290546863127963
 20
5.700046595423096
 30
0.0
 10
-0.3077404613287302
 20
5.532266007601516
 30
0.0
 10
-0.3903756862898934
 20
5.309372210240867
 30
0.0
 10
-0.428217084476282
 20
5.077673675160892
 30
0.0
 10
-0.4399213569507985
 20
4.843140061617282
 30
0.0
 10
-0.4519516521145414
 20
4.608952622806954
 30
0.0
 10
-0.4623969074537961
 20
4.374572197465292
 30
0.0
 10
-0.4728055676319354
 20
4.140337130437424
 30
0.0
 10
-0.4877548161439153
 20
3.905822607503123
 30
0.0
 10
-0.4799307177377822
 20
3.67206586450394
 30
0.0
 10
-0.4495990074442647
 20
3.439049497872843
 30
0.0
 10
-0.4259535830247766
 20
3.205758678338231
 30
0.0
 10
-0.4019566833489902
 20
2.972405099167784
 30
0.0
 10
-0.3765750867231028
 20
2.739167888374083
 30
0.0
 10
-0.3609890257158116
 20
2.505129568181835
 30
0.0
 10
-0.362012857282243
 20
2.270431807711549
 30
0.0
 10
-0.3671657716880983
 20
2.035943620623493
 30
0.0
 10
-0.3719076450540077
 20
1.801408320125761
 30
0.0
 10
-0.3770801101951297
 20
1.566909832637999
 30
0.0
 10
-0.3824214895384378
 20
1.332342661516703
 30
0.0
 10
-0.386847357623071
 20
1.098016778736779
 30
0.0
 10
-0.39383727168959
 20
0.8627750502036662
 30
0.0
 10
-0.3921473528078007
 20
0.6309690073439601
 30
0.0
 10
-0.412459675750142
 20
0.4678802044313225
 30
0.0
 10
-0.3829938551656991
 20
0.4021512543515627
 30
0.0
  0
SPLINE
  5
8E
330
1F
100
AcDbEntity
  8
Make2D visible lines
100
AcDbSpline
210
0.0
220
0.0
230
1.0
 70
    24
 71
     2
 72
     6
 73
     3
 74
     0
 42
0.0000000001
 43
0.0000000001
 40
0.0
 40
0.0
 40
0.0
 40
2.579999999999997
 40
2.579999999999997
 40
2.579999999999997
 10
-1.289999999999996
 20
6.503000000000016
 30
0.0
 10
0.0000000000000027
 20
6.503000000000016
 30
0.0
 10
1.290000000000001
 20
6.503000000000016
 30
0.0
  0
SPLINE
  5
8F
330
1F
100
AcDbEntity
  8
Make2D visible lines
100
AcDbSpline
210
0.0
220
0.0
230
1.0
 70
    24
 71
     2
 72
     6
 73
     3
 74
     0
 42
0.0000000001
 43
0.0000000001
 40
0.0
 40
0.0
 40
0.0
 40
0.0400060931217547
 40
0.0400060931217547
 40
0.0400060931217547
 10
-1.200698202597376
 20
6.463000000000022
 30
0.0
 10
-1.200349101298833
 20
6.483000000000022
 30
0.0
 10
-1.200000000000291
 20
6.503000000000021
 30
0.0
  0
SPLINE
  5
90
330
1F
100
AcDbEntity
  8
Make2D visible lines
100
AcDbSpline
210
0.0
220
0.0
230
1.0
 70
    24
 71
     2
 72
     6
 73
     3
 74
     0
 42
0.0000000001
 43
0.0000000001
 40
0.0
 40
0.0
 40
0.0
 40
0.0400060931217547
 40
0.0400060931217547
 40
0.0400060931217547
 10
1.200000000000291
 20
6.503000000000021
 30
0.0
 10
1.200349101298833
 20
6.483000000000022
 30
0.0
 10
1.200698202597376
 20
6.463000000000022
 30
0.0
  0
SPLINE
  5
91
330
1F
100
AcDbEntity
  8
Make2D visible lines
100
AcDbSpline
210
0.0
220
0.0
230
1.0
 70
    24
 71
     2
 72
     6
 73
     3
 74
     0
 42
0.0000000001
 43
0.0000000001
 40
0.0
 40
0.0
 40
0.0
 40
1.107594207465098
 40
1.107594207465098
 40
1.107594207465098
 10
13.386009813054
 20
0.0000000000000036
 30
0.0
 10
13.93980691678655
 20
0.0000000000000036
 30
0.0
 10
14.4936040205191
 20
0.0000000000000036
 30
0.0
  0
SPLINE
  5
92
330
1F
100
AcDbEntity
  8
Make2D visible lines
100
AcDbSpline
210
0.0
220
0.0
230
1.0
 70
    12
 71
     2
 72
     8
 73
     5
 74
     0
 42
0.0000000001
 43
0.0000000001
 40
0.0
 40
0.0
 40
0.0
 40
0.1269465231438366
 40
0.1269465231438366
 40
0.2538930462876731
 40
0.2538930462876731
 40
0.2538930462876731
 10
14.49360402051909
 20
0.0000000000000036
 30
0.0
 41
1.0
 10
14.56082858485446
 20
0.000000000000002
 30
0.0
 41
0.918360064844369
 10
14.60699642696272
 20
0.0488638148853193
 30
0.0
 41
1.0
 10
14.65316426907099
 20
0.0977276297706366
 30
0.0
 41
0.918360064844369
 10
14.6493531211261
 20
0.1648440748599159
 30
0.0
 41
1.0
  0
SPLINE
  5
93
330
1F
100
AcDbEntity
  8
Make2D visible lines
100
AcDbSpline
210
0.0
220
0.0
230
1.0
 70
    12
 71
     2
 72
     6
 73
     3
 74
     0
 42
0.0000000001
 43
0.0000000001
 40
0.0
 40
0.0
 40
0.0
 40
0.2412324278936833
 40
0.2412324278936833
 40
0.2412324278936833
 10
13.23005638064813
 20
0.1521885802082181
 30
0.0
 41
1.0
 10
13.23377578943406
 20
-0.0000000000000105
 30
0.0
 41
0.7156927337036098
 10
13.386009813054
 20
0.0000000000000034
 30
0.0
 41
1.0
  0
SPLINE
  5
94
330
1F
100
AcDbEntity
  8
Make2D visible lines
100
AcDbSpline
210
0.0
220
0.0
230
1.0
 70
    24
 71
     2
 72
     6
 73
     3
 74
     0
 42
0.0000000001
 43
0.0000000001
 40
0.0
 40
0.0
 40
0.0
 40
0.2325105046476637
 40
0.2325105046476637
 40
0.2325105046476637
 10
13.23005628681928
 20
0.1521924194416825
 30
0.0
 10
13.22721591778332
 20
0.2684129683847045
 30
0.0
 10
13.22437554874736
 20
0.3846335173277264
 30
0.0
  0
SPLINE
  5
95
330
1F
100
AcDbEntity
  8
Make2D visible lines
100
AcDbSpline
210
0.0
220
0.0
230
1.0
 70
    24
 71
     2
 72
     6
 73
     3
 74
     0
 42
0.0000000001
 43
0.0000000001
 40
0.0
 40
0.0
 40
0.0
 40
0.2213623405233084
 40
0.2213623405233084
 40
0.2213623405233084
 10
14.63680347298028
 20
0.3858503918134666
 30
0.0
 10
14.64307829705319
 20
0.2753472333366913
 30
0.0
 10
14.6493531211261
 20
0.164844074859916
 30
0.0
  0
SPLINE
  5
96
330
1F
100
AcDbEntity
  8
Make2D visible lines
100
AcDbSpline
210
0.0
220
0.0
230
1.0
 70
    12
 71
     2
 72
     6
 73
     3
 74
     0
 42
0.0000000001
 43
0.0000000001
 40
0.0
 40
0.0
 40
0.0
 40
0.0224671519842366
 40
0.0224671519842366
 40
0.0224671519842366
 10
14.63678766326983
 20
0.3860938211857499
 30
0.0
 41
1.0
 10
14.6357708981257
 20
0.4000000000000348
 30
0.0
 41
0.7324347794791691
 10
14.6218275979219
 20
0.4000000000000183
 30
0.0
 41
1.0
  0
SPLINE
  5
97
330
1F
100
AcDbEntity
  8
Make2D visible lines
100
AcDbSpline
210
0.0
220
0.0
230
1.0
 70
    24
 71
     2
 72
     6
 73
     3
 74
     0
 42
0.0000000001
 43
0.0000000001
 40
0.0
 40
0.0
 40
0.0
 40
1.379419120443295
 40
1.379419120443295
 40
1.379419120443295
 10
14.6218275979219
 20
0.4000000000000163
 30
0.0
 10
13.93211803770025
 20
0.4000000000000162
 30
0.0
 10
13.24240847747861
 20
0.4000000000000161
 30
0.0
  0
SPLINE
  5
98
330
1F
100
AcDbEntity
  8
Make2D visible lines
100
AcDbSpline
210
0.0
220
0.0
230
1.0
 70
    12
 71
     2
 72
     8
 73
     5
 74
     0
 42
0.0000000001
 43
0.0000000001
 40
0.0
 40
0.0
 40
0.0
 40
0.0119642320224294
 40
0.0119642320224294
 40
0.0239284640448587
 40
0.0239284640448587
 40
0.0239284640448587
 10
13.2393710710941
 20
0.4000000000000163
 30
0.0
 41
1.0
 10
13.23305024302711
 20
0.4000000000000209
 30
0.0
 41
0.9215246294676533
 10
13.22863568008853
 20
0.3954762292814858
 30
0.0
 41
1.0
 10
13.22422111714996
 20
0.3909524585629509
 30
0.0
 41
0.9215246294676533
 10
13.22437554874736
 20
0.3846335173277264
 30
0.0
 41
1.0
  0
SPLINE
  5
99
330
1F
100
AcDbEntity
  8
Make2D visible lines
100
AcDbSpline
210
0.0
220
0.0
230
1.0
 70
    24
 71
     3
 72
     9
 73
     5
 74
     0
 42
0.0000000001
 43
0.0000000001
 40
0.0
 40
0.0
 40
0.0
 40
0.0
 40
0.0000682360840525
 40
0.251869451330915
 40
0.251869451330915
 40
0.251869451330915
 40
0.251869451330915
 10
-0.2517329766643961
 20
0.0000000000000036
 30
0.0
 10
-0.2518424566444732
 20
0.0000000000000036
 30
0.0
 10
-0.1678963121528749
 20
0.0000000000000036
 30
0.0
 10
-0.0839308151299303
 20
0.0000000000000036
 30
0.0
 10
0.0000000024984139
 20
0.0000000000000036
 30
0.0
  0
SPLINE
  5
9A
330
1F
100
AcDbEntity
  8
Make2D visible lines
100
AcDbSpline
210
0.0
220
0.0
230
1.0
 70
    24
 71
     2
 72
     6
 73
     3
 74
     0
 42
0.0000000001
 43
0.0000000001
 40
0.0
 40
0.0
 40
0.0
 40
0.2517559204860955
 40
0.2517559204860955
 40
0.2517559204860955
 10
0.0000000024984139
 20
0.0000000000000036
 30
0.0
 10
0.1258779627414617
 20
0.0000000000000036
 30
0.0
 10
0.2517559229845094
 20
0.0000000000000036
 30
0.0
  0
SPLINE
  5
9B
330
1F
100
AcDbEntity
  8
Make2D visible lines
100
AcDbSpline
210
0.0
220
0.0
230
1.0
 70
    24
 71
     2
 72
     6
 73
     3
 74
     0
 42
0.0000000001
 43
0.0000000001
 40
0.0
 40
0.0
 40
0.0
 40
0.3876534637036499
 40
0.3876534637036499
 40
0.3876534637036499
 10
0.0000000001071356
 20
0.4000000000000163
 30
0.0
 10
-0.1938267317446893
 20
0.4000000000000162
 30
0.0
 10
-0.3876534635965143
 20
0.4000000000000161
 30
0.0
  0
SPLINE
  5
9C
330
1F
100
AcDbEntity
  8
Make2D visible lines
100
AcDbSpline
210
0.0
220
0.0
230
1.0
 70
    24
 71
     2
 72
     6
 73
     3
 74
     0
 42
0.0000000001
 43
0.0000000001
 40
0.0
 40
0.0
 40
0.0
 40
0.3863627208447955
 40
0.3863627208447955
 40
0.3863627208447955
 10
0.3863630304177565
 20
0.4000000000000166
 30
0.0
 10
0.1931816699953588
 20
0.4000000000000165
 30
0.0
 10
0.000000309572961
 20
0.4000000000000163
 30
0.0
  0
SPLINE
  5
9D
330
1F
100
AcDbEntity
  8
Make2D visible lines
100
AcDbSpline
210
0.0
220
0.0
230
1.0
 70
    12
 71
     2
 72
     8
 73
     5
 74
     0
 42
0.0000000001
 43
0.0000000001
 40
0.0
 40
0.0
 40
0.0
 40
0.1240063772075993
 40
0.1240063772075993
 40
0.2480127544151987
 40
0.2480127544151987
 40
0.2480127544151987
 10
-0.2518017388402534
 20
0.000000000001096
 30
0.0
 41
1.0
 10
-0.3172916728945204
 20
-0.0000119099018914
 30
0.0
 41
0.9220189045496352
 10
-0.3631586976409586
 20
0.0467336529376692
 30
0.0
 41
1.0
 10
-0.4090257223873984
 20
0.0934792157772298
 30
0.0
 41
0.9220189045496352
 10
-0.4077714300600412
 20
0.1589571384308644
 30
0.0
 41
1.0
  0
SPLINE
  5
9E
330
1F
100
AcDbEntity
  8
Make2D visible lines
100
AcDbSpline
210
0.0
220
0.0
230
1.0
 70
    12
 71
     2
 72
     8
 73
     5
 74
     0
 42
0.0000000001
 43
0.0000000001
 40
0.0
 40
0.0
 40
0.0
 40
0.1242318577480881
 40
0.1242318577480881
 40
0.2484637154961761
 40
0.2484637154961761
 40
0.2484637154961761
 10
0.4077615785408764
 20
0.1594215907425355
 30
0.0
 41
1.0
 10
0.4092011691947805
 20
0.0938162002370285
 30
0.0
 41
0.9217678869813357
 10
0.3633120770131395
 20
0.0469085153295885
 30
0.0
 41
1.0
 10
0.3174229848314968
 20
0.0000008304221485
 30
0.0
 41
0.9217678869813357
 10
0.2518018016362724
 20
0.0000000000011417
 30
0.0
 41
1.0
  0
SPLINE
  5
9F
330
1F
100
AcDbEntity
  8
Make2D visible lines
100
AcDbSpline
210
0.0
220
0.0
230
1.0
 70
    12
 71
     2
 72
     6
 73
     3
 74
     0
 42
0.0000000001
 43
0.0000000001
 40
0.0
 40
0.0
 40
0.0
 40
0.2253642768281202
 40
0.2253642768281202
 40
0.2253642768281202
 10
0.4028202765263416
 20
0.385325058594006
 30
0.0
 41
1.0
 10
0.4052793858273148
 20
0.2726697563467351
 30
0.0
 41
0.9999999984988344
 10
0.4077508406780019
 20
0.1600147242624911
 30
0.0
 41
1.0
  0
SPLINE
  5
A0
330
1F
100
AcDbEntity
  8
Make2D visible lines
100
AcDbSpline
210
0.0
220
0.0
230
1.0
 70
    12
 71
     2
 72
     6
 73
     3
 74
     0
 42
0.0000000001
 43
0.0000000001
 40
0.0
 40
0.0
 40
0.0
 40
0.2259576718196235
 40
0.2259576718196235
 40
0.2259576718196235
 10
-0.4077638519746358
 20
0.1594216323489093
 30
0.0
 41
1.0
 10
-0.4052858574621696
 20
0.2723732898507527
 30
0.0
 41
0.9999999984910576
 10
-0.4028202730270731
 20
0.3853252189294936
 30
0.0
 41
1.0
  0
SPLINE
  5
A1
330
1F
100
AcDbEntity
  8
Make2D visible lines
100
AcDbSpline
210
0.0
220
0.0
230
1.0
 70
    12
 71
     2
 72
     6
 73
     3
 74
     0
 42
0.0000000001
 43
0.0000000001
 40
0.0
 40
0.0
 40
0.0
 40
0.0232125536774005
 40
0.0232125536774005
 40
0.0232125536774005
 10
-0.4028183684629205
 20
0.3853269610145591
 30
0.0
 41
1.0
 10
-0.4024518561251791
 20
0.3999502926109969
 30
0.0
 41
0.7170957278319929
 10
-0.3878240166588611
 20
0.3999999999617776
 30
0.0
 41
1.0
  0
SPLINE
  5
A2
330
1F
100
AcDbEntity
  8
Make2D visible lines
100
AcDbSpline
210
0.0
220
0.0
230
1.0
 70
    12
 71
     2
 72
     6
 73
     3
 74
     0
 42
0.0000000001
 43
0.0000000001
 40
0.0
 40
0.0
 40
0.0
 40
0.0232077921390905
 40
0.0232077921390905
 40
0.0232077921390905
 10
0.387824382414756
 20
0.3999999999470365
 30
0.0
 41
1.0
 10
0.4024415566350914
 20
0.3999392744149043
 30
0.0
 41
0.7176120634141828
 10
0.4028184109592292
 20
0.3853268327778507
 30
0.0
 41
1.0
  0
SPLINE
  5
A4
330
1F
100
AcDbEntity
  8
Default
100
AcDbSpline
210
0.0
220
0.0
230
1.0
 70
    27
 71
     2
 72
     6
 73
     3
 74
     0
 42
0.0000000001
 43
0.0000000001
 40
0.0
 40
0.0
 40
0.0
 40
0.0000000022395841
 40
0.0000000022395841
 40
0.0000000022395841
 10
34.40497546306531
 20
51.1700219524614
 30
0.0
 10
34.40497546371299
 20
51.17002195154792
 30
0.0
 10
34.40497546436068
 20
51.17002195063445
 30
0.0
  0
SPLINE
  5
A5
330
1F
100
AcDbEntity
  8
Default
100
AcDbSpline
210
0.0
220
0.0
230
1.0
 70
    27
 71
     2
 72
     6
 73
     3
 74
     0
 42
0.0000000001
 43
0.0000000001
 40
0.0
 40
0.0
 40
0.0
 40
0.0000000246407195
 40
0.0000000246407195
 40
0.0000000246407195
 10
34.40497546716067
 20
51.17002194862174
 30
0.0
 10
34.4049754794455
 20
51.17002194768673
 30
0.0
 10
34.40497549173033
 20
51.17002194675173
 30
0.0
  0
SPLINE
  5
A6
330
1F
100
AcDbEntity
  8
Default
100
AcDbSpline
210
0.0
220
0.0
230
1.0
 70
    27
 71
     2
 72
     6
 73
     3
 74
     0
 42
0.0000000001
 43
0.0000000001
 40
0.0
 40
0.0
 40
0.0
 40
0.000000004938842
 40
0.000000004938842
 40
0.000000004938842
 10
34.40497548449888
 20
51.17002195744088
 30
0.0
 10
34.40497548204938
 20
51.17002195775386
 30
0.0
 10
34.40497547959987
 20
51.17002195806683
 30
0.0
  0
SPLINE
  5
A7
330
1F
100
AcDbEntity
  8
Default
100
AcDbSpline
210
0.0
220
0.0
230
1.0
 70
    27
 71
     2
 72
     6
 73
     3
 74
     0
 42
0.0000000001
 43
0.0000000001
 40
0.0
 40
0.0
 40
0.0
 40
0.0000000015093475
 40
0.0000000015093475
 40
0.0000000015093475
 10
34.40497547959987
 20
51.17002195806683
 30
0.0
 10
34.40497547885619
 20
51.17002195819516
 30
0.0
 10
34.4049754781125
 20
51.1700219583235
 30
0.0
  0
SPLINE
  5
A8
330
1F
100
AcDbEntity
  8
Default
100
AcDbSpline
210
0.0
220
0.0
230
1.0
 70
    27
 71
     2
 72
     6
 73
     3
 74
     0
 42
0.0000000001
 43
0.0000000001
 40
0.0
 40
0.0
 40
0.0
 40
0.0000000008750172
 40
0.0000000008750172
 40
0.0000000008750172
 10
34.4049754781125
 20
51.1700219583235
 30
0.0
 10
34.40497547770009
 20
51.17002195846954
 30
0.0
 10
34.40497547728768
 20
51.17002195861559
 30
0.0
  0
SPLINE
  5
A9
330
1F
100
AcDbEntity
  8
Default
100
AcDbSpline
210
0.0
220
0.0
230
1.0
 70
    15
 71
     2
 72
     8
 73
     5
 74
     0
 42
0.0000000001
 43
0.0000000001
 40
0.0
 40
0.0
 40
0.0
 40
0.0000000065196559
 40
0.0000000065196559
 40
0.0000000130393118
 40
0.0000000130393118
 40
0.0000000130393118
 10
34.40497548573622
 20
51.17002195711193
 30
0.0
 41
1.0
 10
34.40497548937644
 20
51.17002195780645
 30
0.0
 41
0.8288580018219441
 10
34.40497549138204
 20
51.17002195469018
 30
0.0
 41
1.0
 10
34.40497549338765
 20
51.17002195157391
 30
0.0
 41
0.8288580018219441
 10
34.40497549124766
 20
51.17002194854835
 30
0.0
 41
1.0
  0
SPLINE
  5
AA
330
1F
100
AcDbEntity
  8
Default
100
AcDbSpline
210
0.0
220
0.0
230
1.0
 70
    27
 71
     2
 72
     6
 73
     3
 74
     0
 42
0.0000000001
 43
0.0000000001
 40
0.0
 40
0.0
 40
0.0
 40
0.0000000155513699
 40
0.0000000155513699
 40
0.0000000155513699
 10
34.40497549124765
 20
51.17002194854836
 30
0.0
 10
34.40497548504189
 20
51.17002195323342
 30
0.0
 10
34.40497547883613
 20
51.17002195791848
 30
0.0
  0
SPLINE
  5
AB
330
1F
100
AcDbEntity
  8
Default
100
AcDbSpline
210
0.0
220
0.0
230
1.0
 70
    15
 71
     2
 72
    12
 73
     9
 74
     0
 42
0.0000000001
 43
0.0000000001
 40
0.0
 40
0.0
 40
0.0
 40
0.0000000003482933
 40
0.0000000003482933
 40
0.0000000006965865
 40
0.0000000006965865
 40
0.0000000010448798
 40
0.0000000010448798
 40
0.0000000013931731
 40
0.0000000013931731
 40
0.0000000013931731
 10
34.40497547883613
 20
51.17002195791848
 30
0.0
 41
1.0
 10
34.40497547883681
 20
51.17002195773217
 30
0.0
 41
0.9048565134119876
 10
34.40497547898078
 20
51.17002195761391
 30
0.0
 41
1.0
 10
34.40497547912477
 20
51.17002195749565
 30
0.0
 41
0.9048565134119876
 10
34.40497547930764
 20
51.17002195753118
 30
0.0
 41
1.0
 10
34.40497547949055
 20
51.1700219575667
 30
0.0
 41
0.9048565134119876
 10
34.40497547957978
 20
51.17002195773026
 30
0.0
 41
1.0
 10
34.40497547966901
 20
51.17002195789383
 30
0.0
 41
0.9048565134119876
 10
34.40497547959988
 20
51.17002195806684
 30
0.0
 41
1.0
  0
SPLINE
  5
AC
330
1F
100
AcDbEntity
  8
Default
100
AcDbSpline
210
0.0
220
0.0
230
1.0
 70
    27
 71
     2
 72
     6
 73
     3
 74
     0
 42
0.0000000001
 43
0.0000000001
 40
0.0
 40
0.0
 40
0.0
 40
0.0000000018488907
 40
0.0000000018488907
 40
0.0000000018488907
 10
34.40497549124766
 20
51.17002194854836
 30
0.0
 10
34.40497549154816
 20
51.17002194767412
 30
0.0
 10
34.40497549184865
 20
51.17002194679987
 30
0.0
  0
SPLINE
  5
AD
330
1F
100
AcDbEntity
  8
Default
100
AcDbSpline
210
0.0
220
0.0
230
1.0
 70
    27
 71
     2
 72
     6
 73
     3
 74
     0
 42
0.0000000001
 43
0.0000000001
 40
0.0
 40
0.0
 40
0.0
 40
0.0000000001075773
 40
0.0000000001075773
 40
0.0000000001075773
 10
34.40497549183058
 20
51.17002194679079
 30
0.0
 10
34.40497549178046
 20
51.17002194677126
 30
0.0
 10
34.40497549173034
 20
51.17002194675173
 30
0.0
  0
SPLINE
  5
AE
330
1F
100
AcDbEntity
  8
Default
100
AcDbSpline
210
0.0
220
0.0
230
1.0
 70
    27
 71
     2
 72
     6
 73
     3
 74
     0
 42
0.0000000001
 43
0.0000000001
 40
0.0
 40
0.0
 40
0.0
 40
0.0000000000149601
 40
0.0000000000149601
 40
0.0000000000149601
 10
34.40497546879678
 20
51.17002195831071
 30
0.0
 10
34.40497546880406
 20
51.17002195831242
 30
0.0
 10
34.40497546881134
 20
51.17002195831412
 30
0.0
  0
SPLINE
  5
AF
330
1F
100
AcDbEntity
  8
Default
100
AcDbSpline
210
0.0
220
0.0
230
1.0
 70
    27
 71
     2
 72
     6
 73
     3
 74
     0
 42
0.0000000001
 43
0.0000000001
 40
0.0
 40
0.0
 40
0.0
 40
0.0000000000198504
 40
0.0000000000198504
 40
0.0000000000198504
 10
34.40497546881603
 20
51.17002195831503
 30
0.0
 10
34.40497546882585
 20
51.1700219583165
 30
0.0
 10
34.40497546883567
 20
51.17002195831796
 30
0.0
  0
SPLINE
  5
B0
330
1F
100
AcDbEntity
  8
Default
100
AcDbSpline
210
0.0
220
0.0
230
1.0
 70
    27
 71
     2
 72
     6
 73
     3
 74
     0
 42
0.0000000001
 43
0.0000000001
 40
0.0
 40
0.0
 40
0.0
 40
0.0000000154795982
 40
0.0000000154795982
 40
0.0000000154795982
 10
34.40497546883567
 20
51.17002195831796
 30
0.0
 10
34.40497547437081
 20
51.17002195290809
 30
0.0
 10
34.40497547990596
 20
51.17002194749822
 30
0.0
  0
SPLINE
  5
B1
330
1F
100
AcDbEntity
  8
Default
100
AcDbSpline
210
0.0
220
0.0
230
1.0
 70
    27
 71
     2
 72
     6
 73
     3
 74
     0
 42
0.0000000001
 43
0.0000000001
 40
0.0
 40
0.0
 40
0.0
 40
0.0000000017476657
 40
0.0000000017476657
 40
0.0000000017476657
 10
34.40497547056535
 20
51.17002195856809
 30
0.0
 10
34.40497546970051
 20
51.17002195844302
 30
0.0
 10
34.40497546883567
 20
51.17002195831796
 30
0.0
  0
SPLINE
  5
B2
330
1F
100
AcDbEntity
  8
Default
100
AcDbSpline
210
0.0
220
0.0
230
1.0
 70
    27
 71
     2
 72
     6
 73
     3
 74
     0
 42
0.0000000001
 43
0.0000000001
 40
0.0
 40
0.0
 40
0.0
 40
0.0000000083187045
 40
0.0000000083187045
 40
0.0000000083187045
 10
34.40497547715398
 20
51.1700219582369
 30
0.0
 10
34.40497547299483
 20
51.17002195827743
 30
0.0
 10
34.40497546883567
 20
51.17002195831796
 30
0.0
  0
SPLINE
  5
B3
330
1F
100
AcDbEntity
  8
Default
100
AcDbSpline
210
0.0
220
0.0
230
1.0
 70
    15
 71
     2
 72
     6
 73
     3
 74
     0
 42
0.0000000001
 43
0.0000000001
 40
0.0
 40
0.0
 40
0.0
 40
0.0000000009909133
 40
0.0000000009909133
 40
0.0000000009909133
 10
34.4049754781125
 20
51.1700219583235
 30
0.0
 41
1.0
 10
34.40497547761406
 20
51.17002195849258
 30
0.0
 41
0.9142490115439905
 10
34.40497547715399
 20
51.17002195823689
 30
0.0
 41
1.0
  0
SPLINE
  5
B4
330
1F
100
AcDbEntity
  8
Default
100
AcDbSpline
210
0.0
220
0.0
230
1.0
 70
    27
 71
     2
 72
     6
 73
     3
 74
     0
 42
0.0000000001
 43
0.0000000001
 40
0.0
 40
0.0
 40
0.0
 40
0.0000000017120187
 40
0.0000000017120187
 40
0.0000000017120187
 10
34.40497547883613
 20
51.17002195791848
 30
0.0
 10
34.40497547799505
 20
51.17002195807769
 30
0.0
 10
34.40497547715398
 20
51.1700219582369
 30
0.0
  0
SPLINE
  5
B5
330
1F
100
AcDbEntity
  8
Default
100
AcDbSpline
210
0.0
220
0.0
230
1.0
 70
    27
 71
     2
 72
     6
 73
     3
 74
     0
 42
0.0000000001
 43
0.0000000001
 40
0.0
 40
0.0
 40
0.0
 40
0.0000000011768679
 40
0.0000000011768679
 40
0.0000000011768679
 10
34.40497547842727
 20
51.17002195816703
 30
0.0
 10
34.40497547901357
 20
51.17002195811693
 30
0.0
 10
34.40497547959987
 20
51.17002195806683
 30
0.0
  0
SPLINE
  5
B6
330
1F
100
AcDbEntity
  8
Default
100
AcDbSpline
210
0.0
220
0.0
230
1.0
 70
    27
 71
     2
 72
     6
 73
     3
 74
     0
 42
0.0000000001
 43
0.0000000001
 40
0.0
 40
0.0
 40
0.0
 40
0.0000000012752013
 40
0.0000000012752013
 40
0.0000000012752013
 10
34.40497547715399
 20
51.17002195823691
 30
0.0
 10
34.40497547779063
 20
51.17002195820197
 30
0.0
 10
34.40497547842727
 20
51.17002195816703
 30
0.0
  0
SPLINE
  5
B7
330
1F
100
AcDbEntity
  8
Default
100
AcDbSpline
210
0.0
220
0.0
230
1.0
 70
    27
 71
     2
 72
     6
 73
     3
 74
     0
 42
0.0000000001
 43
0.0000000001
 40
0.0
 40
0.0
 40
0.0
 40
0.0000000038848399
 40
0.0000000038848399
 40
0.0000000038848399
 10
34.40497546057932
 20
51.17002194947612
 30
0.0
 10
34.40497546182231
 20
51.17002195096876
 30
0.0
 10
34.4049754630653
 20
51.1700219524614
 30
0.0
  0
SPLINE
  5
B8
330
1F
100
AcDbEntity
  8
Default
100
AcDbSpline
210
0.0
220
0.0
230
1.0
 70
    27
 71
     2
 72
     6
 73
     3
 74
     0
 42
0.0000000001
 43
0.0000000001
 40
0.0
 40
0.0
 40
0.0
 40
0.000000003151571
 40
0.000000003151571
 40
0.000000003151571
 10
34.40497546131791
 20
51.17002194975591
 30
0.0
 10
34.40497546283176
 20
51.17002195019334
 30
0.0
 10
34.40497546434562
 20
51.17002195063077
 30
0.0
  0
SPLINE
  5
B9
330
1F
100
AcDbEntity
  8
Default
100
AcDbSpline
210
0.0
220
0.0
230
1.0
 70
    27
 71
     2
 72
     6
 73
     3
 74
     0
 42
0.0000000001
 43
0.0000000001
 40
0.0
 40
0.0
 40
0.0
 40
0.0000000007898042
 40
0.0000000007898042
 40
0.0000000007898042
 10
34.40497546057932
 20
51.17002194947612
 30
0.0
 10
34.40497546094862
 20
51.17002194961601
 30
0.0
 10
34.40497546131791
 20
51.17002194975591
 30
0.0
  0
SPLINE
  5
BA
330
1F
100
AcDbEntity
  8
Default
100
AcDbSpline
210
0.0
220
0.0
230
1.0
 70
    27
 71
     2
 72
     6
 73
     3
 74
     0
 42
0.0000000001
 43
0.0000000001
 40
0.0
 40
0.0
 40
0.0
 40
0.0000000005069186
 40
0.0000000005069186
 40
0.0000000005069186
 10
34.4049754770632
 20
51.17002195859272
 30
0.0
 10
34.40497547730421
 20
51.17002195867117
 30
0.0
 10
34.40497547754522
 20
51.17002195874962
 30
0.0
  0
SPLINE
  5
BB
330
1F
100
AcDbEntity
  8
Default
100
AcDbSpline
210
0.0
220
0.0
230
1.0
 70
    27
 71
     2
 72
     6
 73
     3
 74
     0
 42
0.0000000001
 43
0.0000000001
 40
0.0
 40
0.0
 40
0.0
 40
0.0000000005392088
 40
0.0000000005392088
 40
0.0000000005392088
 10
34.40497547808975
 20
51.17002195897302
 30
0.0
 10
34.40497547832955
 20
51.17002195909623
 30
0.0
 10
34.40497547856935
 20
51.17002195921945
 30
0.0
  0
SPLINE
  5
BC
330
1F
100
AcDbEntity
  8
Default
100
AcDbSpline
210
0.0
220
0.0
230
1.0
 70
    27
 71
     2
 72
     6
 73
     3
 74
     0
 42
0.0000000001
 43
0.0000000001
 40
0.0
 40
0.0
 40
0.0
 40
0.0000004395147674
 40
0.0000004395147674
 40
0.0000004395147674
 10
34.40497467190981
 20
51.17002082589986
 30
0.0
 10
34.40497480243995
 20
51.17002100269123
 30
0.0
 10
34.40497493297011
 20
51.1700211794826
 30
0.0
  0
SPLINE
  5
BD
330
1F
100
AcDbEntity
  8
Default
100
AcDbSpline
210
0.0
220
0.0
230
1.0
 70
    24
 71
     2
 72
     6
 73
     3
 74
     0
 42
0.0000000001
 43
0.0000000001
 40
0.0
 40
0.0
 40
0.0
 40
0.0000019141569096
 40
0.0000019141569096
 40
0.0000019141569096
 10
34.40497354455474
 20
51.17001927894568
 30
0.0
 10
34.40497410823227
 20
51.17002005242277
 30
0.0
 10
34.40497467190981
 20
51.17002082589986
 30
0.0
  0
SPLINE
  5
BE
330
1F
100
AcDbEntity
  8
Default
100
AcDbSpline
210
0.0
220
0.0
230
1.0
 70
    27
 71
     2
 72
     6
 73
     3
 74
     0
 42
0.0000000001
 43
0.0000000001
 40
0.0
 40
0.0
 40
0.0
 40
0.0000000000677239
 40
0.0000000000677239
 40
0.0000000000677239
 10
34.40497547926066
 20
51.17002195940987
 30
0.0
 10
34.40497547928616
 20
51.17002195943216
 30
0.0
 10
34.40497547931165
 20
51.17002195945444
 30
0.0
  0
SPLINE
  5
BF
330
1F
100
AcDbEntity
  8
Default
100
AcDbSpline
210
0.0
220
0.0
230
1.0
 70
    27
 71
     2
 72
     6
 73
     3
 74
     0
 42
0.0000000001
 43
0.0000000001
 40
0.0
 40
0.0
 40
0.0
 40
0.0000000009260014
 40
0.0000000009260014
 40
0.0000000009260014
 10
34.40497547848366
 20
51.17002195890615
 30
0.0
 10
34.40497547887216
 20
51.17002195915801
 30
0.0
 10
34.40497547926066
 20
51.17002195940987
 30
0.0
  0
SPLINE
  5
C0
330
1F
100
AcDbEntity
  8
Default
100
AcDbSpline
210
0.0
220
0.0
230
1.0
 70
    27
 71
     2
 72
     6
 73
     3
 74
     0
 42
0.0000000001
 43
0.0000000001
 40
0.0
 40
0.0
 40
0.0
 40
0.0000000003770316
 40
0.0000000003770316
 40
0.0000000003770316
 10
34.40497547814127
 20
51.17002195874828
 30
0.0
 10
34.40497547831247
 20
51.17002195882721
 30
0.0
 10
34.40497547848366
 20
51.17002195890615
 30
0.0
  0
SPLINE
  5
C1
330
1F
100
AcDbEntity
  8
Default
100
AcDbSpline
210
0.0
220
0.0
230
1.0
 70
    27
 71
     2
 72
     6
 73
     3
 74
     0
 42
0.0000000001
 43
0.0000000001
 40
0.0
 40
0.0
 40
0.0
 40
0.0000000004144293
 40
0.0000000004144293
 40
0.0000000004144293
 10
34.40497547814127
 20
51.17002195874828
 30
0.0
 10
34.40497547794862
 20
51.17002195867197
 30
0.0
 10
34.40497547775597
 20
51.17002195859565
 30
0.0
  0
SPLINE
  5
C2
330
1F
100
AcDbEntity
  8
Default
100
AcDbSpline
210
0.0
220
0.0
230
1.0
 70
    27
 71
     2
 72
     6
 73
     3
 74
     0
 42
0.0000000001
 43
0.0000000001
 40
0.0
 40
0.0
 40
0.0
 40
0.0000000012077735
 40
0.0000000012077735
 40
0.0000000012077735
 10
34.40497547659569
 20
51.17002195826026
 30
0.0
 10
34.40497547717583
 20
51.17002195842795
 30
0.0
 10
34.40497547775597
 20
51.17002195859565
 30
0.0
  0
SPLINE
  5
C3
330
1F
100
AcDbEntity
  8
Default
100
AcDbSpline
210
0.0
220
0.0
230
1.0
 70
    15
 71
     2
 72
     6
 73
     3
 74
     0
 42
0.0000000001
 43
0.0000000001
 40
0.0
 40
0.0
 40
0.0
 40
0.0000000804389863
 40
0.0000000804389863
 40
0.0000000804389863
 10
34.40497537271872
 20
51.17002209466407
 30
0.0
 41
1.0
 10
34.40497537090938
 20
51.17002204657475
 30
0.0
 41
0.7709028371855392
 10
34.40497532334169
 20
51.1700220392828
 30
0.0
 41
1.0
  0
SPLINE
  5
C4
330
1F
100
AcDbEntity
  8
Default
100
AcDbSpline
210
0.0
220
0.0
230
1.0
 70
    27
 71
     2
 72
     6
 73
     3
 74
     0
 42
0.0000000001
 43
0.0000000001
 40
0.0
 40
0.0
 40
0.0
 40
0.000000039662153
 40
0.000000039662153
 40
0.000000039662153
 10
34.40497532334169
 20
51.17002203928281
 30
0.0
 10
34.40497530402126
 20
51.17002203481146
 30
0.0
 10
34.40497528470085
 20
51.17002203034011
 30
0.0
  0
SPLINE
  5
C5
330
1F
100
AcDbEntity
  8
Default
100
AcDbSpline
210
0.0
220
0.0
230
1.0
 70
    27
 71
     2
 72
     6
 73
     3
 74
     0
 42
0.0000000001
 43
0.0000000001
 40
0.0
 40
0.0
 40
0.0
 40
0.0000000439283649
 40
0.0000000439283649
 40
0.0000000439283649
 10
34.40497528470085
 20
51.17002203034011
 30
0.0
 10
34.4049752632006
 20
51.17002202584959
 30
0.0
 10
34.40497524170036
 20
51.17002202135907
 30
0.0
  0
SPLINE
  5
C6
330
1F
100
AcDbEntity
  8
Default
100
AcDbSpline
210
0.0
220
0.0
230
1.0
 70
    27
 71
     2
 72
     6
 73
     3
 74
     0
 42
0.0000000001
 43
0.0000000001
 40
0.0
 40
0.0
 40
0.0
 40
0.0000001687646243
 40
0.0000001687646243
 40
0.0000001687646243
 10
34.40497524170036
 20
51.17002202135907
 30
0.0
 10
34.40497515955845
 20
51.17002200204373
 30
0.0
 10
34.40497507741655
 20
51.17002198272839
 30
0.0
  0
SPLINE
  5
C7
330
1F
100
AcDbEntity
  8
Default
100
AcDbSpline
210
0.0
220
0.0
230
1.0
 70
    27
 71
     2
 72
     6
 73
     3
 74
     0
 42
0.0000000001
 43
0.0000000001
 40
0.0
 40
0.0
 40
0.0
 40
0.0000000109671646
 40
0.0000000109671646
 40
0.0000000109671646
 10
34.40497507741655
 20
51.17002198272839
 30
0.0
 10
34.40497507250101
 20
51.17002198029793
 30
0.0
 10
34.40497506758547
 20
51.17002197786747
 30
0.0
  0
SPLINE
  5
C8
330
1F
100
AcDbEntity
  8
Default
100
AcDbSpline
210
0.0
220
0.0
230
1.0
 70
    15
 71
     2
 72
    12
 73
     9
 74
     0
 42
0.0000000001
 43
0.0000000001
 40
0.0
 40
0.0
 40
0.0
 40
0.0000002686586563
 40
0.0000002686586563
 40
0.0000005373173126
 40
0.0000005373173126
 40
0.0000008059759689
 40
0.0000008059759689
 40
0.0000010746346252
 40
0.0000010746346252
 40
0.0000010746346252
 10
34.40497506758547
 20
51.17002197786747
 30
0.0
 41
1.0
 10
34.40497498083315
 20
51.17002210408676
 30
0.0
 41
0.8254000662118364
 10
34.40497483174843
 20
51.17002206900078
 30
0.0
 41
1.0
 10
34.40497468266372
 20
51.17002203391479
 30
0.0
 41
0.8254000662118364
 10
34.40497466130861
 20
51.17002188225321
 30
0.0
 41
1.0
 10
34.40497463995349
 20
51.17002173059163
 30
0.0
 41
0.8254000662118364
 10
34.40497477355272
 20
51.17002165570157
 30
0.0
 41
1.0
 10
34.40497490715196
 20
51.17002158081151
 30
0.0
 41
0.8254000662118364
 10
34.40497502538538
 20
51.17002167816724
 30
0.0
 41
1.0
  0
SPLINE
  5
C9
330
1F
100
AcDbEntity
  8
Default
100
AcDbSpline
210
0.0
220
0.0
230
1.0
 70
    27
 71
     2
 72
     6
 73
     3
 74
     0
 42
0.0000000001
 43
0.0000000001
 40
0.0
 40
0.0
 40
0.0
 40
0.0000000006255262
 40
0.0000000006255262
 40
0.0000000006255262
 10
34.40497547931165
 20
51.17002195945444
 30
0.0
 10
34.40497547954505
 20
51.17002195924625
 30
0.0
 10
34.40497547977845
 20
51.17002195903805
 30
0.0
  0
SPLINE
  5
CA
330
1F
100
AcDbEntity
  8
Default
100
AcDbSpline
210
0.0
220
0.0
230
1.0
 70
    27
 71
     2
 72
     6
 73
     3
 74
     0
 42
0.0000000001
 43
0.0000000001
 40
0.0
 40
0.0
 40
0.0
 40
0.0000000022301347
 40
0.0000000022301347
 40
0.0000000022301347
 10
34.4049754785427
 20
51.17002195655457
 30
0.0
 10
34.40497547834198
 20
51.17002195765143
 30
0.0
 10
34.40497547814127
 20
51.17002195874828
 30
0.0
  0
SPLINE
  5
CB
330
1F
100
AcDbEntity
  8
Default
100
AcDbSpline
210
0.0
220
0.0
230
1.0
 70
    27
 71
     2
 72
     6
 73
     3
 74
     0
 42
0.0000000001
 43
0.0000000001
 40
0.0
 40
0.0
 40
0.0
 40
0.0000000021260172
 40
0.0000000021260172
 40
0.0000000021260172
 10
34.40497547775597
 20
51.17002195859565
 30
0.0
 10
34.40497547794727
 20
51.17002195754999
 30
0.0
 10
34.40497547813858
 20
51.17002195650434
 30
0.0
  0
SPLINE
  5
CC
330
1F
100
AcDbEntity
  8
Default
100
AcDbSpline
210
0.0
220
0.0
230
1.0
 70
    27
 71
     2
 72
     6
 73
     3
 74
     0
 42
0.0000000001
 43
0.0000000001
 40
0.0
 40
0.0
 40
0.0
 40
0.0000000069417218
 40
0.0000000069417218
 40
0.0000000069417218
 10
34.40497502538538
 20
51.17002167816723
 30
0.0
 10
34.4049750286591
 20
51.17002167932031
 30
0.0
 10
34.40497503193283
 20
51.17002168047339
 30
0.0
  0
SPLINE
  5
CD
330
1F
100
AcDbEntity
  8
Default
100
AcDbSpline
210
0.0
220
0.0
230
1.0
 70
    27
 71
     2
 72
     6
 73
     3
 74
     0
 42
0.0000000001
 43
0.0000000001
 40
0.0
 40
0.0
 40
0.0
 40
0.0000004023288212
 40
0.0000004023288212
 40
0.0000004023288212
 10
34.40497503193283
 20
51.17002168047339
 30
0.0
 10
34.40497520631078
 20
51.1700217807702
 30
0.0
 10
34.40497538068873
 20
51.17002188106701
 30
0.0
  0
SPLINE
  5
CE
330
1F
100
AcDbEntity
  8
Default
100
AcDbSpline
210
0.0
220
0.0
230
1.0
 70
    27
 71
     2
 72
     6
 73
     3
 74
     0
 42
0.0000000001
 43
0.0000000001
 40
0.0
 40
0.0
 40
0.0
 40
0.0000000315422718
 40
0.0000000315422718
 40
0.0000000315422718
 10
34.40497542742857
 20
51.17002191261694
 30
0.0
 10
34.40497544056592
 20
51.17002192134269
 30
0.0
 10
34.40497545370327
 20
51.17002193006844
 30
0.0
  0
SPLINE
  5
CF
330
1F
100
AcDbEntity
  8
Default
100
AcDbSpline
210
0.0
220
0.0
230
1.0
 70
    27
 71
     2
 72
     6
 73
     3
 74
     0
 42
0.0000000001
 43
0.0000000001
 40
0.0
 40
0.0
 40
0.0
 40
0.0000000061439925
 40
0.0000000061439925
 40
0.0000000061439925
 10
34.40497542232647
 20
51.1700219091939
 30
0.0
 10
34.40497542487752
 20
51.17002191090542
 30
0.0
 10
34.40497542742857
 20
51.17002191261694
 30
0.0
  0
SPLINE
  5
D0
330
1F
100
AcDbEntity
  8
Default
100
AcDbSpline
210
0.0
220
0.0
230
1.0
 70
    27
 71
     2
 72
     6
 73
     3
 74
     0
 42
0.0000000001
 43
0.0000000001
 40
0.0
 40
0.0
 40
0.0
 40
0.0000000340531393
 40
0.0000000340531393
 40
0.0000000340531393
 10
34.40497539409551
 20
51.17002189015107
 30
0.0
 10
34.40497540821099
 20
51.17002189967248
 30
0.0
 10
34.40497542232647
 20
51.1700219091939
 30
0.0
  0
SPLINE
  5
D1
330
1F
100
AcDbEntity
  8
Default
100
AcDbSpline
210
0.0
220
0.0
230
1.0
 70
    27
 71
     2
 72
     6
 73
     3
 74
     0
 42
0.0000000001
 43
0.0000000001
 40
0.0
 40
0.0
 40
0.0
 40
0.0000000092394514
 40
0.0000000092394514
 40
0.0000000092394514
 10
34.40497538644684
 20
51.17002188496789
 30
0.0
 10
34.40497539027118
 20
51.17002188755948
 30
0.0
 10
34.40497539409551
 20
51.17002189015107
 30
0.0
  0
SPLINE
  5
D2
330
1F
100
AcDbEntity
  8
Default
100
AcDbSpline
210
0.0
220
0.0
230
1.0
 70
    27
 71
     2
 72
     6
 73
     3
 74
     0
 42
0.0000000001
 43
0.0000000001
 40
0.0
 40
0.0
 40
0.0
 40
0.0000000069550484
 40
0.0000000069550484
 40
0.0000000069550484
 10
34.40497538068873
 20
51.17002188106701
 30
0.0
 10
34.40497538356779
 20
51.17002188301745
 30
0.0
 10
34.40497538644684
 20
51.17002188496789
 30
0.0
  0
SPLINE
  5
D3
330
1F
100
AcDbEntity
  8
Default
100
AcDbSpline
210
0.0
220
0.0
230
1.0
 70
    27
 71
     2
 72
     6
 73
     3
 74
     0
 42
0.0000000001
 43
0.0000000001
 40
0.0
 40
0.0
 40
0.0
 40
0.000000030385375
 40
0.000000030385375
 40
0.000000030385375
 10
34.40497545179547
 20
51.17002192551523
 30
0.0
 10
34.40497544270765
 20
51.17002191334028
 30
0.0
 10
34.40497543361984
 20
51.17002190116533
 30
0.0
  0
SPLINE
  5
D4
330
1F
100
AcDbEntity
  8
Default
100
AcDbSpline
210
0.0
220
0.0
230
1.0
 70
    15
 71
     2
 72
     8
 73
     5
 74
     0
 42
0.0000000001
 43
0.0000000001
 40
0.0
 40
0.0
 40
0.0
 40
0.0000000033128614
 40
0.0000000033128614
 40
0.0000000066257228
 40
0.0000000066257228
 40
0.0000000066257228
 10
34.40497545370327
 20
51.17002193006844
 30
0.0
 41
1.0
 10
34.40497545520743
 20
51.17002192885636
 30
0.0
 41
0.7993106871462171
 10
34.40497545446092
 20
51.17002192707469
 30
0.0
 41
1.0
 10
34.40497545371439
 20
51.17002192529302
 30
0.0
 41
0.7993106871462171
 10
34.40497545179547
 20
51.17002192551522
 30
0.0
 41
1.0
  0
SPLINE
  5
D5
330
1F
100
AcDbEntity
  8
Default
100
AcDbSpline
210
0.0
220
0.0
230
1.0
 70
    27
 71
     2
 72
     6
 73
     3
 74
     0
 42
0.0000000001
 43
0.0000000001
 40
0.0
 40
0.0
 40
0.0
 40
0.0000003636465624
 40
0.0000003636465624
 40
0.0000003636465624
 10
34.40497569528587
 20
51.17002225682597
 30
0.0
 10
34.4049755907737
 20
51.17002210804118
 30
0.0
 10
34.40497548626153
 20
51.1700219592564
 30
0.0
  0
SPLINE
  5
D6
330
1F
100
AcDbEntity
  8
Default
100
AcDbSpline
210
0.0
220
0.0
230
1.0
 70
    27
 71
     2
 72
     6
 73
     3
 74
     0
 42
0.0000000001
 43
0.0000000001
 40
0.0
 40
0.0
 40
0.0
 40
0.0000000038245811
 40
0.0000000038245811
 40
0.0000000038245811
 10
34.40497548626153
 20
51.1700219592564
 30
0.0
 10
34.40497548436518
 20
51.17002195950274
 30
0.0
 10
34.40497548246882
 20
51.17002195974909
 30
0.0
  0
SPLINE
  5
D7
330
1F
100
AcDbEntity
  8
Default
100
AcDbSpline
210
0.0
220
0.0
230
1.0
 70
    27
 71
     2
 72
     6
 73
     3
 74
     0
 42
0.0000000001
 43
0.0000000001
 40
0.0
 40
0.0
 40
0.0
 40
0.0000000024505955
 40
0.0000000024505955
 40
0.0000000024505955
 10
34.40497548246882
 20
51.17002195974909
 30
0.0
 10
34.40497548128941
 20
51.17002196008125
 30
0.0
 10
34.40497548010999
 20
51.17002196041341
 30
0.0
  0
SPLINE
  5
D8
330
1F
100
AcDbEntity
  8
Default
100
AcDbSpline
210
0.0
220
0.0
230
1.0
 70
    27
 71
     2
 72
     6
 73
     3
 74
     0
 42
0.0000000001
 43
0.0000000001
 40
0.0
 40
0.0
 40
0.0
 40
0.0000000302926258
 40
0.0000000302926258
 40
0.0000000302926258
 10
34.40497548010999
 20
51.17002196041341
 30
0.0
 10
34.40497548740924
 20
51.17002197368488
 30
0.0
 10
34.40497549470849
 20
51.17002198695634
 30
0.0
  0
SPLINE
  5
D9
330
1F
100
AcDbEntity
  8
Default
100
AcDbSpline
210
0.0
220
0.0
230
1.0
 70
    27
 71
     2
 72
     6
 73
     3
 74
     0
 42
0.0000000001
 43
0.0000000001
 40
0.0
 40
0.0
 40
0.0
 40
0.0000000047658282
 40
0.0000000047658282
 40
0.0000000047658282
 10
34.40497549470849
 20
51.17002198695634
 30
0.0
 10
34.40497549616518
 20
51.17002198884217
 30
0.0
 10
34.40497549762186
 20
51.170021990728
 30
0.0
  0
SPLINE
  5
DA
330
1F
100
AcDbEntity
  8
Default
100
AcDbSpline
210
0.0
220
0.0
230
1.0
 70
    27
 71
     2
 72
     6
 73
     3
 74
     0
 42
0.0000000001
 43
0.0000000001
 40
0.0
 40
0.0
 40
0.0
 40
0.0000003314803008
 40
0.0000003314803008
 40
0.0000003314803008
 10
34.40497549762186
 20
51.170021990728
 30
0.0
 10
34.40497559645387
 20
51.17002212377698
 30
0.0
 10
34.40497569528587
 20
51.17002225682597
 30
0.0
  0
SPLINE
  5
DB
330
1F
100
AcDbEntity
  8
Default
100
AcDbSpline
210
0.0
220
0.0
230
1.0
 70
    27
 71
     2
 72
     6
 73
     3
 74
     0
 42
0.0000000001
 43
0.0000000001
 40
0.0
 40
0.0
 40
0.0
 40
0.0000005606165017
 40
0.0000005606165017
 40
0.0000005606165017
 10
34.40497601567016
 20
51.17002271687463
 30
0.0
 10
34.40497585547801
 20
51.1700224868503
 30
0.0
 10
34.40497569528587
 20
51.17002225682597
 30
0.0
  0
SPLINE
  5
DC
330
1F
100
AcDbEntity
  8
Default
100
AcDbSpline
210
0.0
220
0.0
230
1.0
 70
    27
 71
     2
 72
     6
 73
     3
 74
     0
 42
0.0000000001
 43
0.0000000001
 40
0.0
 40
0.0
 40
0.0
 40
0.0000000069275006
 40
0.0000000069275006
 40
0.0000000069275006
 10
34.40497549762186
 20
51.170021990728
 30
0.0
 10
34.40497549902344
 20
51.17002199389551
 30
0.0
 10
34.40497550042502
 20
51.17002199706302
 30
0.0
  0
SPLINE
  5
DD
330
1F
100
AcDbEntity
  8
Default
100
AcDbSpline
210
0.0
220
0.0
230
1.0
 70
    27
 71
     2
 72
     6
 73
     3
 74
     0
 42
0.0000000001
 43
0.0000000001
 40
0.0
 40
0.0
 40
0.0
 40
0.0000000442191408
 40
0.0000000442191408
 40
0.0000000442191408
 10
34.40497550042502
 20
51.17002199706302
 30
0.0
 10
34.4049755132217
 20
51.17002201509295
 30
0.0
 10
34.40497552601838
 20
51.17002203312287
 30
0.0
  0
SPLINE
  5
DE
330
1F
100
AcDbEntity
  8
Default
100
AcDbSpline
210
0.0
220
0.0
230
1.0
 70
    24
 71
     2
 72
     6
 73
     3
 74
     0
 42
0.0000000001
 43
0.0000000001
 40
0.0
 40
0.0
 40
0.0
 40
0.0000036759116903
 40
0.0000036759116903
 40
0.0000036759116903
 10
34.40497284951151
 20
51.17001817504362
 30
0.0
 10
34.40497389738806
 20
51.17001968502257
 30
0.0
 10
34.40497494526461
 20
51.17002119500151
 30
0.0
  0
SPLINE
  5
DF
330
1F
100
AcDbEntity
  8
Default
100
AcDbSpline
210
0.0
220
0.0
230
1.0
 70
    27
 71
     2
 72
     6
 73
     3
 74
     0
 42
0.0000000001
 43
0.0000000001
 40
0.0
 40
0.0
 40
0.0
 40
0.0000000087957839
 40
0.0000000087957839
 40
0.0000000087957839
 10
34.40497549502494
 20
51.17002196001047
 30
0.0
 10
34.40497549064324
 20
51.17002195963343
 30
0.0
 10
34.40497548626153
 20
51.1700219592564
 30
0.0
  0
SPLINE
  5
E0
330
1F
100
AcDbEntity
  8
Default
100
AcDbSpline
210
0.0
220
0.0
230
1.0
 70
    27
 71
     2
 72
     6
 73
     3
 74
     0
 42
0.0000000001
 43
0.0000000001
 40
0.0
 40
0.0
 40
0.0
 40
0.0000003731055782
 40
0.0000003731055782
 40
0.0000003731055782
 10
34.40497586119447
 20
51.17002203161806
 30
0.0
 10
34.4049756781097
 20
51.17002199581427
 30
0.0
 10
34.40497549502494
 20
51.17002196001047
 30
0.0
  0
SPLINE
  5
E1
330
1F
100
AcDbEntity
  8
Default
100
AcDbSpline
210
0.0
220
0.0
230
1.0
 70
    12
 71
     2
 72
     8
 73
     5
 74
     0
 42
0.0000000001
 43
0.0000000001
 40
0.0
 40
0.0
 40
0.0
 40
0.000003953100416
 40
0.000003953100416
 40
0.000007906200832
 40
0.000007906200832
 40
0.000007906200832
 10
34.40498177209364
 20
51.17002583405528
 30
0.0
 41
1.0
 10
34.40497974341302
 20
51.17002637108993
 30
0.0
 41
0.9150294851170838
 10
34.40497797849969
 20
51.17002523573439
 30
0.0
 41
1.0
 10
34.40497621358636
 20
51.17002410037885
 30
0.0
 41
0.9150294851170838
 10
34.40497586119446
 20
51.17002203161806
 30
0.0
 41
1.0
  0
SPLINE
  5
E2
330
1F
100
AcDbEntity
  8
Default
100
AcDbSpline
210
0.0
220
0.0
230
1.0
 70
    15
 71
     2
 72
    12
 73
     9
 74
     0
 42
0.0000000001
 43
0.0000000001
 40
0.0
 40
0.0
 40
0.0
 40
0.0000000023762651
 40
0.0000000023762651
 40
0.0000000047525302
 40
0.0000000047525302
 40
0.0000000071287953
 40
0.0000000071287953
 40
0.0000000095050604
 40
0.0000000095050604
 40
0.0000000095050604
 10
34.404975453464
 20
51.17002192625056
 30
0.0
 41
1.0
 10
34.40497545461381
 20
51.17002192574717
 30
0.0
 41
0.9217846747830145
 10
34.40497545577774
 20
51.17002192621693
 30
0.0
 41
1.0
 10
34.4049754569417
 20
51.17002192668669
 30
0.0
 41
0.9217846747830145
 10
34.40497545741995
 20
51.17002192784717
 30
0.0
 41
1.0
 10
34.40497545789822
 20
51.17002192900765
 30
0.0
 41
0.9217846747830145
 10
34.40497545740325
 20
51.17002193016108
 30
0.0
 41
1.0
 10
34.40497545690829
 20
51.17002193131454
 30
0.0
 41
0.9217846747830145
 10
34.40497545573768
 20
51.17002193176744
 30
0.0
 41
1.0
  0
SPLINE
  5
E3
330
1F
100
AcDbEntity
  8
Default
100
AcDbSpline
210
0.0
220
0.0
230
1.0
 70
    15
 71
     2
 72
    12
 73
     9
 74
     0
 42
0.0000000001
 43
0.0000000001
 40
0.0
 40
0.0
 40
0.0
 40
0.0000000003809131
 40
0.0000000003809131
 40
0.0000000007618263
 40
0.0000000007618263
 40
0.0000000011427394
 40
0.0000000011427394
 40
0.0000000015236526
 40
0.0000000015236526
 40
0.0000000015236526
 10
34.4049754535305
 20
51.17002192561606
 30
0.0
 41
1.0
 10
34.4049754537231
 20
51.17002192553298
 30
0.0
 41
0.8675209608779781
 10
34.40497545389209
 20
51.17002192565725
 30
0.0
 41
1.0
 10
34.40497545406109
 20
51.1700219257815
 30
0.0
 41
0.8675209608779781
 10
34.40497545403922
 20
51.17002192599012
 30
0.0
 41
1.0
 10
34.40497545401735
 20
51.17002192619872
 30
0.0
 41
0.8675209608779781
 10
34.40497545382628
 20
51.17002192628525
 30
0.0
 41
1.0
 10
34.40497545363519
 20
51.17002192637177
 30
0.0
 41
0.8675209608779781
 10
34.404975453464
 20
51.17002192625058
 30
0.0
 41
1.0
  0
SPLINE
  5
E4
330
1F
100
AcDbEntity
  8
Default
100
AcDbSpline
210
0.0
220
0.0
230
1.0
 70
    12
 71
     2
 72
     6
 73
     3
 74
     0
 42
0.0000000001
 43
0.0000000001
 40
0.0
 40
0.0
 40
0.0
 40
0.0000036584498953
 40
0.0000036584498953
 40
0.0000036584498953
 10
34.40497284951151
 20
51.17001817504362
 30
0.0
 41
1.0
 10
34.4049739835695
 20
51.17001961323685
 30
0.0
 41
0.9981165753317136
 10
34.40497493297011
 20
51.1700211794826
 30
0.0
 41
1.0
  0
SPLINE
  5
E5
330
1F
100
AcDbEntity
  8
Default
100
AcDbSpline
210
0.0
220
0.0
230
1.0
 70
    27
 71
     2
 72
     6
 73
     3
 74
     0
 42
0.0000000001
 43
0.0000000001
 40
0.0
 40
0.0
 40
0.0
 40
0.0000009102616626
 40
0.0000009102616626
 40
0.0000009102616626
 10
34.40497493297011
 20
51.1700211794826
 30
0.0
 10
34.40497519321706
 20
51.17002155286658
 30
0.0
 10
34.404975453464
 20
51.17002192625056
 30
0.0
  0
SPLINE
  5
E6
330
1F
100
AcDbEntity
  8
Default
100
AcDbSpline
210
0.0
220
0.0
230
1.0
 70
    27
 71
     2
 72
     6
 73
     3
 74
     0
 42
0.0000000001
 43
0.0000000001
 40
0.0
 40
0.0
 40
0.0
 40
0.00000000193261
 40
0.00000000193261
 40
0.00000000193261
 10
34.40497550042502
 20
51.17002199706302
 30
0.0
 10
34.40497550087414
 20
51.17002199791861
 30
0.0
 10
34.40497550132328
 20
51.1700219987742
 30
0.0
  0
SPLINE
  5
E7
330
1F
100
AcDbEntity
  8
Default
100
AcDbSpline
210
0.0
220
0.0
230
1.0
 70
    27
 71
     2
 72
     6
 73
     3
 74
     0
 42
0.0000000001
 43
0.0000000001
 40
0.0
 40
0.0
 40
0.0
 40
0.0000000116113619
 40
0.0000000116113619
 40
0.0000000116113619
 10
34.40497549470849
 20
51.17002198695634
 30
0.0
 10
34.40497549756675
 20
51.17002199200968
 30
0.0
 10
34.40497550042502
 20
51.17002199706302
 30
0.0
  0
SPLINE
  5
E8
330
1F
100
AcDbEntity
  8
Default
100
AcDbSpline
210
0.0
220
0.0
230
1.0
 70
    27
 71
     2
 72
     6
 73
     3
 74
     0
 42
0.0000000001
 43
0.0000000001
 40
0.0
 40
0.0
 40
0.0
 40
0.0000000026928211
 40
0.0000000026928211
 40
0.0000000026928211
 10
34.40497549470849
 20
51.17002198695634
 30
0.0
 10
34.40497549403332
 20
51.17002198579145
 30
0.0
 10
34.40497549335816
 20
51.17002198462656
 30
0.0
  0
SPLINE
  5
E9
330
1F
100
AcDbEntity
  8
Default
100
AcDbSpline
210
0.0
220
0.0
230
1.0
 70
    27
 71
     2
 72
     6
 73
     3
 74
     0
 42
0.0000000001
 43
0.0000000001
 40
0.0
 40
0.0
 40
0.0
 40
0.0000000001350529
 40
0.0000000001350529
 40
0.0000000001350529
 10
34.40497548010999
 20
51.17002196041341
 30
0.0
 10
34.40497548004261
 20
51.1700219604179
 30
0.0
 10
34.40497547997523
 20
51.17002196042239
 30
0.0
  0
SPLINE
  5
EA
330
1F
100
AcDbEntity
  8
Default
100
AcDbSpline
210
0.0
220
0.0
230
1.0
 70
    15
 71
     2
 72
     8
 73
     5
 74
     0
 42
0.0000000001
 43
0.0000000001
 40
0.0
 40
0.0
 40
0.0
 40
0.0000000469904248
 40
0.0000000469904248
 40
0.0000000939808497
 40
0.0000000939808497
 40
0.0000000939808497
 10
34.40497530607121
 20
51.17002184703045
 30
0.0
 41
1.0
 10
34.40497528089526
 20
51.17002185066596
 30
0.0
 41
0.8893267413907875
 10
34.40497526920467
 20
51.17002187325745
 30
0.0
 41
1.0
 10
34.40497525751406
 20
51.17002189584893
 30
0.0
 41
0.8893267413907875
 10
34.40497526908673
 20
51.17002191850105
 30
0.0
 41
1.0
  0
SPLINE
  5
EB
330
1F
100
AcDbEntity
  8
Default
100
AcDbSpline
210
0.0
220
0.0
230
1.0
 70
    27
 71
     2
 72
     6
 73
     3
 74
     0
 42
0.0000000001
 43
0.0000000001
 40
0.0
 40
0.0
 40
0.0
 40
0.0000000069953406
 40
0.0000000069953406
 40
0.0000000069953406
 10
34.40497548941821
 20
51.17002195582723
 30
0.0
 10
34.40497549222157
 20
51.17002195791885
 30
0.0
 10
34.40497549502494
 20
51.17002196001047
 30
0.0
  0
SPLINE
  5
EC
330
1F
100
AcDbEntity
  8
Default
100
AcDbSpline
210
0.0
220
0.0
230
1.0
 70
    27
 71
     2
 72
     6
 73
     3
 74
     0
 42
0.0000000001
 43
0.0000000001
 40
0.0
 40
0.0
 40
0.0
 40
0.0000003754546778
 40
0.0000003754546778
 40
0.0000003754546778
 10
34.40497586119447
 20
51.17002203161806
 30
0.0
 10
34.40497567767704
 20
51.17002199208441
 30
0.0
 10
34.40497549415962
 20
51.17002195255075
 30
0.0
  0
SPLINE
  5
ED
330
1F
100
AcDbEntity
  8
Default
100
AcDbSpline
210
0.0
220
0.0
230
1.0
 70
    27
 71
     2
 72
     6
 73
     3
 74
     0
 42
0.0000000001
 43
0.0000000001
 40
0.0
 40
0.0
 40
0.0
 40
0.0000000020282047
 40
0.0000000020282047
 40
0.0000000020282047
 10
34.4049754849748
 20
51.17002195768862
 30
0.0
 10
34.40497548561817
 20
51.1700219584725
 30
0.0
 10
34.40497548626153
 20
51.1700219592564
 30
0.0
  0
SPLINE
  5
EE
330
1F
100
AcDbEntity
  8
Default
100
AcDbSpline
210
0.0
220
0.0
230
1.0
 70
    27
 71
     2
 72
     6
 73
     3
 74
     0
 42
0.0000000001
 43
0.0000000001
 40
0.0
 40
0.0
 40
0.0
 40
0.0000000003976364
 40
0.0000000003976364
 40
0.0000000003976364
 10
34.40497548471712
 20
51.17002195738577
 30
0.0
 10
34.40497548484596
 20
51.17002195753719
 30
0.0
 10
34.4049754849748
 20
51.17002195768862
 30
0.0
  0
SPLINE
  5
EF
330
1F
100
AcDbEntity
  8
Default
100
AcDbSpline
210
0.0
220
0.0
230
1.0
 70
    27
 71
     2
 72
     6
 73
     3
 74
     0
 42
0.0000000001
 43
0.0000000001
 40
0.0
 40
0.0
 40
0.0
 40
0.0000000019345187
 40
0.0000000019345187
 40
0.0000000019345187
 10
34.40497548149083
 20
51.17002195807999
 30
0.0
 10
34.40497548197983
 20
51.17002195891453
 30
0.0
 10
34.40497548246882
 20
51.17002195974909
 30
0.0
  0
SPLINE
  5
F0
330
1F
100
AcDbEntity
  8
Default
100
AcDbSpline
210
0.0
220
0.0
230
1.0
 70
    27
 71
     2
 72
     6
 73
     3
 74
     0
 42
0.0000000001
 43
0.0000000001
 40
0.0
 40
0.0
 40
0.0
 40
0.0000000021052757
 40
0.0000000021052757
 40
0.0000000021052757
 10
34.40497547960629
 20
51.17002195836928
 30
0.0
 10
34.40497547985814
 20
51.17002195939135
 30
0.0
 10
34.40497548010999
 20
51.17002196041341
 30
0.0
  0
SPLINE
  5
F1
330
1F
100
AcDbEntity
  8
Default
100
AcDbSpline
210
0.0
220
0.0
230
1.0
 70
    27
 71
     2
 72
     6
 73
     3
 74
     0
 42
0.0000000001
 43
0.0000000001
 40
0.0
 40
0.0
 40
0.0
 40
0.00000001642598
 40
0.00000001642598
 40
0.00000001642598
 10
34.40497549480222
 20
51.17002194985044
 30
0.0
 10
34.40497549769684
 20
51.17002194216446
 30
0.0
 10
34.40497550059147
 20
51.17002193447848
 30
0.0
  0
SPLINE
  5
F2
330
1F
100
AcDbEntity
  8
Default
100
AcDbSpline
210
0.0
220
0.0
230
1.0
 70
    27
 71
     2
 72
     6
 73
     3
 74
     0
 42
0.0000000001
 43
0.0000000001
 40
0.0
 40
0.0
 40
0.0
 40
0.0000000172123441
 40
0.0000000172123441
 40
0.0000000172123441
 10
34.40497550059147
 20
51.17002193447848
 30
0.0
 10
34.40497549384943
 20
51.17002193982742
 30
0.0
 10
34.4049754871074
 20
51.17002194517636
 30
0.0
  0
SPLINE
  5
F3
330
1F
100
AcDbEntity
  8
Default
100
AcDbSpline
210
0.0
220
0.0
230
1.0
 70
    27
 71
     2
 72
     6
 73
     3
 74
     0
 42
0.0000000001
 43
0.0000000001
 40
0.0
 40
0.0
 40
0.0
 40
0.000000363299367
 40
0.000000363299367
 40
0.000000363299367
 10
34.40497578419646
 20
51.17002170742201
 30
0.0
 10
34.40497564239396
 20
51.17002182095024
 30
0.0
 10
34.40497550059147
 20
51.17002193447848
 30
0.0
  0
SPLINE
  5
F4
330
1F
100
AcDbEntity
  8
Default
100
AcDbSpline
210
0.0
220
0.0
230
1.0
 70
    15
 71
     2
 72
     8
 73
     5
 74
     0
 42
0.0000000001
 43
0.0000000001
 40
0.0
 40
0.0
 40
0.0
 40
0.0000000485219584
 40
0.0000000485219584
 40
0.0000000970439168
 40
0.0000000970439168
 40
0.0000000970439168
 10
34.40497586119447
 20
51.17002203161806
 30
0.0
 41
1.0
 10
34.40497588888834
 20
51.17002203340151
 30
0.0
 41
0.8215952639109158
 10
34.40497590025285
 20
51.17002200808393
 30
0.0
 41
1.0
 10
34.40497591161736
 20
51.17002198276636
 30
0.0
 41
0.8215952639109158
 10
34.40497589187949
 20
51.17002196325871
 30
0.0
 41
1.0
  0
SPLINE
  5
F5
330
1F
100
AcDbEntity
  8
Default
100
AcDbSpline
210
0.0
220
0.0
230
1.0
 70
    15
 71
     2
 72
     6
 73
     3
 74
     0
 42
0.0000000001
 43
0.0000000001
 40
0.0
 40
0.0
 40
0.0
 40
0.0000002888530099
 40
0.0000002888530099
 40
0.0000002888530099
 10
34.40497589187947
 20
51.17002196325873
 30
0.0
 41
1.0
 10
34.40497577031967
 20
51.17002186384335
 30
0.0
 41
0.8837970304273054
 10
34.40497578419645
 20
51.17002170742201
 30
0.0
 41
1.0
  0
SPLINE
  5
F6
330
1F
100
AcDbEntity
  8
Default
100
AcDbSpline
210
0.0
220
0.0
230
1.0
 70
    27
 71
     2
 72
     6
 73
     3
 74
     0
 42
0.0000000001
 43
0.0000000001
 40
0.0
 40
0.0
 40
0.0
 40
0.0000000011565245
 40
0.0000000011565245
 40
0.0000000011565245
 10
34.40497547924952
 20
51.17002195964067
 30
0.0
 10
34.40497547967975
 20
51.17002196002704
 30
0.0
 10
34.40497548010999
 20
51.17002196041341
 30
0.0
  0
SPLINE
  5
F7
330
1F
100
AcDbEntity
  8
Default
100
AcDbSpline
210
0.0
220
0.0
230
1.0
 70
    27
 71
     2
 72
     6
 73
     3
 74
     0
 42
0.0000000001
 43
0.0000000001
 40
0.0
 40
0.0
 40
0.0
 40
0.0000000021933348
 40
0.0000000021933348
 40
0.0000000021933348
 10
34.4049754773115
 20
51.17002195861362
 30
0.0
 10
34.40497547828051
 20
51.17002195912715
 30
0.0
 10
34.40497547924952
 20
51.17002195964067
 30
0.0
  0
SPLINE
  5
F8
330
1F
100
AcDbEntity
  8
Default
100
AcDbSpline
210
0.0
220
0.0
230
1.0
 70
    27
 71
     2
 72
     6
 73
     3
 74
     0
 42
0.0000000001
 43
0.0000000001
 40
0.0
 40
0.0
 40
0.0
 40
0.0000000090474064
 40
0.0000000090474064
 40
0.0000000090474064
 10
34.40497545905418
 20
51.17002194438725
 30
0.0
 10
34.40497546306259
 20
51.17002194648404
 30
0.0
 10
34.404975467071
 20
51.17002194858082
 30
0.0
  0
SPLINE
  5
F9
330
1F
100
AcDbEntity
  8
Default
100
AcDbSpline
210
0.0
220
0.0
230
1.0
 70
    15
 71
     2
 72
     8
 73
     5
 74
     0
 42
0.0000000001
 43
0.0000000001
 40
0.0
 40
0.0
 40
0.0
 40
0.0000002247303342
 40
0.0000002247303342
 40
0.0000004494606684
 40
0.0000004494606684
 40
0.0000004494606684
 10
34.40497578419646
 20
51.17002170742201
 30
0.0
 41
1.0
 10
34.40497566716656
 20
51.1700216865614
 30
0.0
 41
0.9198502992282049
 10
34.40497557109848
 20
51.17002175657627
 30
0.0
 41
1.0
 10
34.40497547503038
 20
51.17002182659115
 30
0.0
 41
0.9198502992282049
 10
34.40497545905417
 20
51.17002194438724
 30
0.0
 41
1.0
  0
SPLINE
  5
FA
330
1F
100
AcDbEntity
  8
Default
100
AcDbSpline
210
0.0
220
0.0
230
1.0
 70
    27
 71
     2
 72
     6
 73
     3
 74
     0
 42
0.0000000001
 43
0.0000000001
 40
0.0
 40
0.0
 40
0.0
 40
0.0000000073478005
 40
0.0000000073478005
 40
0.0000000073478005
 10
34.40497545339952
 20
51.17002193969523
 30
0.0
 10
34.40497545622685
 20
51.17002194204125
 30
0.0
 10
34.40497545905418
 20
51.17002194438725
 30
0.0
  0
SPLINE
  5
FB
330
1F
100
AcDbEntity
  8
Default
100
AcDbSpline
210
0.0
220
0.0
230
1.0
 70
    27
 71
     2
 72
     6
 73
     3
 74
     0
 42
0.0000000001
 43
0.0000000001
 40
0.0
 40
0.0
 40
0.0
 40
0.0000000058264002
 40
0.0000000058264002
 40
0.0000000058264002
 10
34.40497545905418
 20
51.17002194438725
 30
0.0
 10
34.40497546018604
 20
51.17002194707158
 30
0.0
 10
34.40497546131791
 20
51.17002194975591
 30
0.0
  0
SPLINE
  5
FC
330
1F
100
AcDbEntity
  8
Default
100
AcDbSpline
210
0.0
220
0.0
230
1.0
 70
    27
 71
     2
 72
     6
 73
     3
 74
     0
 42
0.0000000001
 43
0.0000000001
 40
0.0
 40
0.0
 40
0.0
 40
0.00000000412916
 40
0.00000000412916
 40
0.00000000412916
 10
34.40497546922634
 20
51.17002194709971
 30
0.0
 10
34.40497546752479
 20
51.170021948269
 30
0.0
 10
34.40497546582324
 20
51.17002194943827
 30
0.0
  0
SPLINE
  5
FD
330
1F
100
AcDbEntity
  8
Default
100
AcDbSpline
210
0.0
220
0.0
230
1.0
 70
    27
 71
     2
 72
     6
 73
     3
 74
     0
 42
0.0000000001
 43
0.0000000001
 40
0.0
 40
0.0
 40
0.0
 40
0.0000000045578421
 40
0.0000000045578421
 40
0.0000000045578421
 10
34.40497548959545
 20
51.17002194591092
 30
0.0
 10
34.40497548740979
 20
51.17002194526565
 30
0.0
 10
34.40497548522413
 20
51.17002194462037
 30
0.0
  0
SPLINE
  5
FE
330
1F
100
AcDbEntity
  8
Default
100
AcDbSpline
210
0.0
220
0.0
230
1.0
 70
    27
 71
     2
 72
     6
 73
     3
 74
     0
 42
0.0000000001
 43
0.0000000001
 40
0.0
 40
0.0
 40
0.0
 40
0.0000000072694284
 40
0.0000000072694284
 40
0.0000000072694284
 10
34.4049754772889
 20
51.17002195861547
 30
0.0
 10
34.40497548087656
 20
51.1700219580325
 30
0.0
 10
34.40497548446422
 20
51.17002195744953
 30
0.0
  0
SPLINE
  5
FF
330
1F
100
AcDbEntity
  8
Default
100
AcDbSpline
210
0.0
220
0.0
230
1.0
 70
    27
 71
     2
 72
     6
 73
     3
 74
     0
 42
0.0000000001
 43
0.0000000001
 40
0.0
 40
0.0
 40
0.0
 40
0.0000000012803044
 40
0.0000000012803044
 40
0.0000000012803044
 10
34.40497548449889
 20
51.17002195744088
 30
0.0
 10
34.40497548511755
 20
51.17002195727639
 30
0.0
 10
34.40497548573621
 20
51.17002195711191
 30
0.0
  0
SPLINE
  5
100
330
1F
100
AcDbEntity
  8
Default
100
AcDbSpline
210
0.0
220
0.0
230
1.0
 70
    27
 71
     2
 72
     6
 73
     3
 74
     0
 42
0.0000000001
 43
0.0000000001
 40
0.0
 40
0.0
 40
0.0
 40
0.0000000104012795
 40
0.0000000104012795
 40
0.0000000104012795
 10
34.40497548790097
 20
51.17002195642355
 30
0.0
 10
34.40497548987742
 20
51.17002195161311
 30
0.0
 10
34.40497549185386
 20
51.17002194680267
 30
0.0
  0
SPLINE
  5
101
330
1F
100
AcDbEntity
  8
Default
100
AcDbSpline
210
0.0
220
0.0
230
1.0
 70
    27
 71
     2
 72
     6
 73
     3
 74
     0
 42
0.0000000001
 43
0.0000000001
 40
0.0
 40
0.0
 40
0.0
 40
0.000000009367788
 40
0.000000009367788
 40
0.000000009367788
 10
34.40497546582318
 20
51.17002194943819
 30
0.0
 10
34.40497546731962
 20
51.17002195387661
 30
0.0
 10
34.40497546881604
 20
51.17002195831503
 30
0.0
  0
SPLINE
  5
102
330
1F
100
AcDbEntity
  8
Default
100
AcDbSpline
210
0.0
220
0.0
230
1.0
 70
    27
 71
     2
 72
     6
 73
     3
 74
     0
 42
0.0000000001
 43
0.0000000001
 40
0.0
 40
0.0
 40
0.0
 40
0.000000002422223
 40
0.000000002422223
 40
0.000000002422223
 10
34.40497549184867
 20
51.17002194679982
 30
0.0
 10
34.40497549072205
 20
51.17002194635537
 30
0.0
 10
34.40497548959544
 20
51.17002194591092
 30
0.0
  0
SPLINE
  5
103
330
1F
100
AcDbEntity
  8
Default
100
AcDbSpline
210
0.0
220
0.0
230
1.0
 70
    27
 71
     2
 72
     6
 73
     3
 74
     0
 42
0.0000000001
 43
0.0000000001
 40
0.0
 40
0.0
 40
0.0
 40
0.000000000381647
 40
0.000000000381647
 40
0.000000000381647
 10
34.4049754688234
 20
51.1700219583164
 30
0.0
 10
34.40497546901136
 20
51.17002195834935
 30
0.0
 10
34.40497546919931
 20
51.17002195838231
 30
0.0
  0
SPLINE
  5
104
330
1F
100
AcDbEntity
  8
Default
100
AcDbSpline
210
0.0
220
0.0
230
1.0
 70
    27
 71
     2
 72
     6
 73
     3
 74
     0
 42
0.0000000001
 43
0.0000000001
 40
0.0
 40
0.0
 40
0.0
 40
0.0000000067224984
 40
0.0000000067224984
 40
0.0000000067224984
 10
34.40497547056535
 20
51.17002195856815
 30
0.0
 10
34.40497547392651
 20
51.17002195859186
 30
0.0
 10
34.40497547728768
 20
51.17002195861558
 30
0.0
  0
SPLINE
  5
105
330
1F
100
AcDbEntity
  8
Default
100
AcDbSpline
210
0.0
220
0.0
230
1.0
 70
    27
 71
     2
 72
     6
 73
     3
 74
     0
 42
0.0000000001
 43
0.0000000001
 40
0.0
 40
0.0
 40
0.0
 40
0.0000000063878262
 40
0.0000000063878262
 40
0.0000000063878262
 10
34.40497545847415
 20
51.17002194810304
 30
0.0
 10
34.4049754606696
 20
51.17002195042276
 30
0.0
 10
34.40497546286504
 20
51.17002195274249
 30
0.0
  0
SPLINE
  5
106
330
1F
100
AcDbEntity
  8
Default
100
AcDbSpline
210
0.0
220
0.0
230
1.0
 70
    27
 71
     2
 72
     6
 73
     3
 74
     0
 42
0.0000000001
 43
0.0000000001
 40
0.0
 40
0.0
 40
0.0
 40
0.0000000161613979
 40
0.0000000161613979
 40
0.0000000161613979
 10
34.40497549338441
 20
51.17002198469712
 30
0.0
 10
34.40497549735373
 20
51.17002199173574
 30
0.0
 10
34.40497550132305
 20
51.17002199877437
 30
0.0
  0
SPLINE
  5
107
330
1F
100
AcDbEntity
  8
Default
100
AcDbSpline
210
0.0
220
0.0
230
1.0
 70
    27
 71
     2
 72
     6
 73
     3
 74
     0
 42
0.0000000001
 43
0.0000000001
 40
0.0
 40
0.0
 40
0.0
 40
0.0000000276573787
 40
0.0000000276573787
 40
0.0000000276573787
 10
34.40497547997527
 20
51.17002196042243
 30
0.0
 10
34.40497548666664
 20
51.17002197252442
 30
0.0
 10
34.40497549335802
 20
51.17002198462641
 30
0.0
  0
SPLINE
  5
108
330
1F
100
AcDbEntity
  8
Default
100
AcDbSpline
210
0.0
220
0.0
230
1.0
 70
    27
 71
     2
 72
     6
 73
     3
 74
     0
 42
0.0000000001
 43
0.0000000001
 40
0.0
 40
0.0
 40
0.0
 40
0.0000000033490042
 40
0.0000000033490042
 40
0.0000000033490042
 10
34.40497547714831
 20
51.17002195862673
 30
0.0
 10
34.40497547856177
 20
51.17002195952455
 30
0.0
 10
34.40497547997523
 20
51.17002196042238
 30
0.0
  0
SPLINE
  5
109
330
1F
100
AcDbEntity
  8
Default
100
AcDbSpline
210
0.0
220
0.0
230
1.0
 70
    27
 71
     2
 72
     6
 73
     3
 74
     0
 42
0.0000000001
 43
0.0000000001
 40
0.0
 40
0.0
 40
0.0
 40
0.000000009832142
 40
0.000000009832142
 40
0.000000009832142
 10
34.40497545339962
 20
51.17002193969519
 30
0.0
 10
34.40497545593712
 20
51.17002194390575
 30
0.0
 10
34.40497545847463
 20
51.17002194811631
 30
0.0
  0
SPLINE
  5
10A
330
1F
100
AcDbEntity
  8
Default
100
AcDbSpline
210
0.0
220
0.0
230
1.0
 70
    27
 71
     2
 72
     6
 73
     3
 74
     0
 42
0.0000000001
 43
0.0000000001
 40
0.0
 40
0.0
 40
0.0
 40
0.0000000180608892
 40
0.0000000180608892
 40
0.0000000180608892
 10
47.63493222554641
 20
76.26367001379721
 30
0.0
 10
47.63493223410869
 20
76.2636700166671
 30
0.0
 10
47.63493224267097
 20
76.26367001953699
 30
0.0
  0
SPLINE
  5
10B
330
1F
100
AcDbEntity
  8
Default
100
AcDbSpline
210
0.0
220
0.0
230
1.0
 70
    27
 71
     2
 72
     6
 73
     3
 74
     0
 42
0.0000000001
 43
0.0000000001
 40
0.0
 40
0.0
 40
0.0
 40
0.0000000549956813
 40
0.0000000549956813
 40
0.0000000549956813
 10
47.63493228162164
 20
76.26367003915264
 30
0.0
 10
47.63493230223462
 20
76.26367005735254
 30
0.0
 10
47.6349323228476
 20
76.26367007555244
 30
0.0
  0
SPLINE
  5
10C
330
1F
100
AcDbEntity
  8
Default
100
AcDbSpline
210
0.0
220
0.0
230
1.0
 70
    27
 71
     2
 72
     6
 73
     3
 74
     0
 42
0.0000000001
 43
0.0000000001
 40
0.0
 40
0.0
 40
0.0
 40
0.0000000066634391
 40
0.0000000066634391
 40
0.0000000066634391
 10
47.63493224272894
 20
76.26367001955809
 30
0.0
 10
47.63493224581638
 20
76.26367002081031
 30
0.0
 10
47.63493224890382
 20
76.26367002206253
 30
0.0
  0
SPLINE
  5
10D
330
1F
100
AcDbEntity
  8
Default
100
AcDbSpline
210
0.0
220
0.0
230
1.0
 70
    15
 71
     2
 72
     6
 73
     3
 74
     0
 42
0.0000000001
 43
0.0000000001
 40
0.0
 40
0.0
 40
0.0
 40
0.0000006977681522
 40
0.0000006977681522
 40
0.0000006977681522
 10
47.63493232289171
 20
76.26367007559739
 30
0.0
 41
1.0
 10
47.63493257940952
 20
76.26367033016733
 30
0.0
 41
0.9488673807672824
 10
47.6349326322984
 20
76.2636706876726
 30
0.0
 41
1.0
  0
SPLINE
  5
10E
330
1F
100
AcDbEntity
  8
Default
100
AcDbSpline
210
0.0
220
0.0
230
1.0
 70
    27
 71
     2
 72
     6
 73
     3
 74
     0
 42
0.0000000001
 43
0.0000000001
 40
0.0
 40
0.0
 40
0.0
 40
0.0000002956245997
 40
0.0000002956245997
 40
0.0000002956245997
 10
47.63493263264547
 20
76.26367068879539
 30
0.0
 10
47.63493270341591
 20
76.26367081856449
 30
0.0
 10
47.63493277418635
 20
76.2636709483336
 30
0.0
  0
SPLINE
  5
10F
330
1F
100
AcDbEntity
  8
Default
100
AcDbSpline
210
0.0
220
0.0
230
1.0
 70
    24
 71
     2
 72
     6
 73
     3
 74
     0
 42
0.0000000001
 43
0.0000000001
 40
0.0
 40
0.0
 40
0.0
 40
0.0000022420427366
 40
0.0000022420427366
 40
0.0000022420427366
 10
47.6349327745214
 20
76.26367094874794
 30
0.0
 10
47.63493345600369
 20
76.26367183884389
 30
0.0
 10
47.63493413748598
 20
76.26367272893984
 30
0.0
  0
SPLINE
  5
110
330
1F
100
AcDbEntity
  8
Default
100
AcDbSpline
210
0.0
220
0.0
230
1.0
 70
    15
 71
     2
 72
     6
 73
     3
 74
     0
 42
0.0000000001
 43
0.0000000001
 40
0.0
 40
0.0
 40
0.0
 40
0.0000001433740262
 40
0.0000001433740262
 40
0.0000001433740262
 10
47.63493209678525
 20
76.26366975315318
 30
0.0
 41
1.0
 10
47.63493205020615
 20
76.26366981503197
 30
0.0
 41
0.8920237471500205
 10
47.63493207255578
 20
76.2636698891878
 30
0.0
 41
1.0
  0
SPLINE
  5
111
330
1F
100
AcDbEntity
  8
Default
100
AcDbSpline
210
0.0
220
0.0
230
1.0
 70
    27
 71
     2
 72
     6
 73
     3
 74
     0
 42
0.0000000001
 43
0.0000000001
 40
0.0
 40
0.0
 40
0.0
 40
0.0000000028650753
 40
0.0000000028650753
 40
0.0000000028650753
 10
47.63493223427368
 20
76.2636700145066
 30
0.0
 10
47.63493223570323
 20
76.263670014599
 30
0.0
 10
47.63493223713279
 20
76.26367001469139
 30
0.0
  0
SPLINE
  5
112
330
1F
100
AcDbEntity
  8
Default
100
AcDbSpline
210
0.0
220
0.0
230
1.0
 70
    27
 71
     2
 72
     6
 73
     3
 74
     0
 42
0.0000000001
 43
0.0000000001
 40
0.0
 40
0.0
 40
0.0
 40
0.0000000029722194
 40
0.0000000029722194
 40
0.0000000029722194
 10
47.63493222909516
 20
76.2636700141187
 30
0.0
 10
47.63493223057679
 20
76.2636700142339
 30
0.0
 10
47.63493223205843
 20
76.2636700143491
 30
0.0
  0
SPLINE
  5
113
330
1F
100
AcDbEntity
  8
Default
100
AcDbSpline
210
0.0
220
0.0
230
1.0
 70
    15
 71
     2
 72
     6
 73
     3
 74
     0
 42
0.0000000001
 43
0.0000000001
 40
0.0
 40
0.0
 40
0.0
 40
0.0000001685333376
 40
0.0000001685333376
 40
0.0000001685333376
 10
47.63493207914932
 20
76.26366994781833
 30
0.0
 41
1.0
 10
47.6349321387447
 20
76.26367001501366
 30
0.0
 41
0.9098544833249961
 10
47.6349322285553
 20
76.2636700140743
 30
0.0
 41
1.0
  0
SPLINE
  5
114
330
1F
100
AcDbEntity
  8
Default
100
AcDbSpline
210
0.0
220
0.0
230
1.0
 70
    27
 71
     2
 72
     6
 73
     3
 74
     0
 42
0.0000000001
 43
0.0000000001
 40
0.0
 40
0.0
 40
0.0
 40
0.0000000706727527
 40
0.0000000706727527
 40
0.0000000706727527
 10
47.63493207779423
 20
76.2636698768354
 30
0.0
 10
47.63493207837289
 20
76.26366991216703
 30
0.0
 10
47.63493207895155
 20
76.26366994749867
 30
0.0
  0
SPLINE
  5
115
330
1F
100
AcDbEntity
  8
Default
100
AcDbSpline
210
0.0
220
0.0
230
1.0
 70
    15
 71
     2
 72
     8
 73
     5
 74
     0
 42
0.0000000001
 43
0.0000000001
 40
0.0
 40
0.0
 40
0.0
 40
0.0000001009071865
 40
0.0000001009071865
 40
0.0000002018143731
 40
0.0000002018143731
 40
0.0000002018143731
 10
47.63493244251066
 20
76.26366997941383
 30
0.0
 41
1.0
 10
47.63493249824007
 20
76.26366997420288
 30
0.0
 41
0.8584544219507765
 10
47.63493252006089
 20
76.263669922659
 30
0.0
 41
1.0
 10
47.63493254188171
 20
76.2636698711151
 30
0.0
 41
0.8584544219507765
 10
47.63493250683355
 20
76.26366982747398
 30
0.0
 41
1.0
  0
SPLINE
  5
116
330
1F
100
AcDbEntity
  8
Default
100
AcDbSpline
210
0.0
220
0.0
230
1.0
 70
    27
 71
     2
 72
     6
 73
     3
 74
     0
 42
0.0000000001
 43
0.0000000001
 40
0.0
 40
0.0
 40
0.0
 40
0.0000001124615042
 40
0.0000001124615042
 40
0.0000001124615042
 10
47.63493233442468
 20
76.26367001057412
 30
0.0
 10
47.63493238845552
 20
76.26366999499962
 30
0.0
 10
47.63493244248637
 20
76.26366997942513
 30
0.0
  0
SPLINE
  5
117
330
1F
100
AcDbEntity
  8
Default
100
AcDbSpline
210
0.0
220
0.0
230
1.0
 70
    27
 71
     2
 72
     6
 73
     3
 74
     0
 42
0.0000000001
 43
0.0000000001
 40
0.0
 40
0.0
 40
0.0
 40
0.0000000150557025
 40
0.0000000150557025
 40
0.0000000150557025
 10
47.63493231647774
 20
76.26367001282061
 30
0.0
 10
47.63493232395032
 20
76.26367001191005
 30
0.0
 10
47.6349323314229
 20
76.2636700109995
 30
0.0
  0
SPLINE
  5
118
330
1F
100
AcDbEntity
  8
Default
100
AcDbSpline
210
0.0
220
0.0
230
1.0
 70
    27
 71
     2
 72
     6
 73
     3
 74
     0
 42
0.0000000001
 43
0.0000000001
 40
0.0
 40
0.0
 40
0.0
 40
0.0000000029869199
 40
0.0000000029869199
 40
0.0000000029869199
 10
47.63493231052755
 20
76.26367001341104
 30
0.0
 10
47.63493231201416
 20
76.26367001326827
 30
0.0
 10
47.63493231350078
 20
76.26367001312548
 30
0.0
  0
SPLINE
  5
119
330
1F
100
AcDbEntity
  8
Default
100
AcDbSpline
210
0.0
220
0.0
230
1.0
 70
    27
 71
     2
 72
     6
 73
     3
 74
     0
 42
0.0000000001
 43
0.0000000001
 40
0.0
 40
0.0
 40
0.0
 40
0.0000000318624644
 40
0.0000000318624644
 40
0.0000000318624644
 10
47.63493209285208
 20
76.2636698479366
 30
0.0
 10
47.63493208549059
 20
76.26366986206503
 30
0.0
 10
47.6349320781291
 20
76.26366987619346
 30
0.0
  0
SPLINE
  5
11A
330
1F
100
AcDbEntity
  8
Default
100
AcDbSpline
210
0.0
220
0.0
230
1.0
 70
    27
 71
     2
 72
     6
 73
     3
 74
     0
 42
0.0000000001
 43
0.0000000001
 40
0.0
 40
0.0
 40
0.0
 40
0.0000000456318074
 40
0.0000000456318074
 40
0.0000000456318074
 10
47.63493250646778
 20
76.26366982711927
 30
0.0
 10
47.63493249008589
 20
76.26366981123849
 30
0.0
 10
47.634932473704
 20
76.26366979535771
 30
0.0
  0
SPLINE
  5
11B
330
1F
100
AcDbEntity
  8
Default
100
AcDbSpline
210
0.0
220
0.0
230
1.0
 70
    27
 71
     2
 72
     6
 73
     3
 74
     0
 42
0.0000000001
 43
0.0000000001
 40
0.0
 40
0.0
 40
0.0
 40
0.0000000605957833
 40
0.0000000605957833
 40
0.0000000605957833
 10
47.63493213781405
 20
76.26366970774136
 30
0.0
 10
47.63493211748084
 20
76.26366973020293
 30
0.0
 10
47.63493209714763
 20
76.26366975266453
 30
0.0
  0
SPLINE
  5
11C
330
1F
100
AcDbEntity
  8
Default
100
AcDbSpline
210
0.0
220
0.0
230
1.0
 70
    27
 71
     2
 72
     6
 73
     3
 74
     0
 42
0.0000000001
 43
0.0000000001
 40
0.0
 40
0.0
 40
0.0
 40
0.0000000548713458
 40
0.0000000548713458
 40
0.0000000548713458
 10
47.63493215106632
 20
76.26366974331614
 30
0.0
 10
47.63493213131267
 20
76.26366976235582
 30
0.0
 10
47.63493211155902
 20
76.2636697813955
 30
0.0
  0
SPLINE
  5
11D
330
1F
100
AcDbEntity
  8
Default
100
AcDbSpline
210
0.0
220
0.0
230
1.0
 70
    15
 71
     2
 72
     6
 73
     3
 74
     0
 42
0.0000000001
 43
0.0000000001
 40
0.0
 40
0.0
 40
0.0
 40
0.0000004147366404
 40
0.0000004147366404
 40
0.0000004147366404
 10
47.6349325312754
 20
76.26366965814842
 30
0.0
 41
1.0
 10
47.63493232047801
 20
76.26366957134204
 30
0.0
 41
0.8697904640919343
 10
47.63493213781405
 20
76.26366970774136
 30
0.0
 41
1.0
  0
SPLINE
  5
11E
330
1F
100
AcDbEntity
  8
Default
100
AcDbSpline
210
0.0
220
0.0
230
1.0
 70
    27
 71
     2
 72
     6
 73
     3
 74
     0
 42
0.0000000001
 43
0.0000000001
 40
0.0
 40
0.0
 40
0.0
 40
0.0000000379629845
 40
0.0000000379629845
 40
0.0000000379629845
 10
47.63493213781405
 20
76.26366970774136
 30
0.0
 10
47.63493214444019
 20
76.26366972552876
 30
0.0
 10
47.63493215106632
 20
76.26366974331614
 30
0.0
  0
SPLINE
  5
11F
330
1F
100
AcDbEntity
  8
Default
100
AcDbSpline
210
0.0
220
0.0
230
1.0
 70
    15
 71
     2
 72
     6
 73
     3
 74
     0
 42
0.0000000001
 43
0.0000000001
 40
0.0
 40
0.0
 40
0.0
 40
0.0000003675327834
 40
0.0000003675327834
 40
0.0000003675327834
 10
47.63493250324899
 20
76.26366969262696
 30
0.0
 41
1.0
 10
47.63493231523985
 20
76.263669635168
 30
0.0
 41
0.9049433005237255
 10
47.63493215106632
 20
76.26366974331614
 30
0.0
 41
1.0
  0
SPLINE
  5
120
330
1F
100
AcDbEntity
  8
Default
100
AcDbSpline
210
0.0
220
0.0
230
1.0
 70
    27
 71
     2
 72
     6
 73
     3
 74
     0
 42
0.0000000001
 43
0.0000000001
 40
0.0
 40
0.0
 40
0.0
 40
0.0000000413976919
 40
0.0000000413976919
 40
0.0000000413976919
 10
47.63493215106632
 20
76.26366974331614
 30
0.0
 10
47.63493216494289
 20
76.26366975867464
 30
0.0
 10
47.63493217881945
 20
76.26366977403312
 30
0.0
  0
SPLINE
  5
121
330
1F
100
AcDbEntity
  8
Default
100
AcDbSpline
210
0.0
220
0.0
230
1.0
 70
    27
 71
     2
 72
     6
 73
     3
 74
     0
 42
0.0000000001
 43
0.0000000001
 40
0.0
 40
0.0
 40
0.0
 40
0.0000000120584759
 40
0.0000000120584759
 40
0.0000000120584759
 10
47.63493224358871
 20
76.26367001786812
 30
0.0
 10
47.63493223782412
 20
76.26367001610143
 30
0.0
 10
47.63493223205953
 20
76.26367001433474
 30
0.0
  0
SPLINE
  5
122
330
1F
100
AcDbEntity
  8
Default
100
AcDbSpline
210
0.0
220
0.0
230
1.0
 70
    27
 71
     2
 72
     6
 73
     3
 74
     0
 42
0.0000000001
 43
0.0000000001
 40
0.0
 40
0.0
 40
0.0
 40
0.0000000019091346
 40
0.0000000019091346
 40
0.0000000019091346
 10
47.63493224358871
 20
76.26367001786812
 30
0.0
 10
47.63493224312902
 20
76.26367001870472
 30
0.0
 10
47.63493224266934
 20
76.26367001954131
 30
0.0
  0
SPLINE
  5
123
330
1F
100
AcDbEntity
  8
Default
100
AcDbSpline
210
0.0
220
0.0
230
1.0
 70
    27
 71
     2
 72
     6
 73
     3
 74
     0
 42
0.0000000001
 43
0.0000000001
 40
0.0
 40
0.0
 40
0.0
 40
0.0000000028909951
 40
0.0000000028909951
 40
0.0000000028909951
 10
47.63493224424276
 20
76.26367001505209
 30
0.0
 10
47.63493224391573
 20
76.26367001646011
 30
0.0
 10
47.63493224358871
 20
76.26367001786812
 30
0.0
  0
SPLINE
  5
124
330
1F
100
AcDbEntity
  8
Default
100
AcDbSpline
210
0.0
220
0.0
230
1.0
 70
    27
 71
     2
 72
     6
 73
     3
 74
     0
 42
0.0000000001
 43
0.0000000001
 40
0.0
 40
0.0
 40
0.0
 40
0.000000069366819
 40
0.000000069366819
 40
0.000000069366819
 10
47.63493224358871
 20
76.26367001786812
 30
0.0
 10
47.63493227357181
 20
76.26367003530237
 30
0.0
 10
47.6349323035549
 20
76.2636700527366
 30
0.0
  0
SPLINE
  5
125
330
1F
100
AcDbEntity
  8
Default
100
AcDbSpline
210
0.0
220
0.0
230
1.0
 70
    27
 71
     2
 72
     6
 73
     3
 74
     0
 42
0.0000000001
 43
0.0000000001
 40
0.0
 40
0.0
 40
0.0
 40
0.0000000318748181
 40
0.0000000318748181
 40
0.0000000318748181
 10
47.6349323035549
 20
76.2636700527366
 30
0.0
 10
47.63493231519224
 20
76.26367006362574
 30
0.0
 10
47.63493232682957
 20
76.26367007451489
 30
0.0
  0
SPLINE
  5
126
330
1F
100
AcDbEntity
  8
Default
100
AcDbSpline
210
0.0
220
0.0
230
1.0
 70
    27
 71
     2
 72
     6
 73
     3
 74
     0
 42
0.0000000001
 43
0.0000000001
 40
0.0
 40
0.0
 40
0.0
 40
0.0000000444325285
 40
0.0000000444325285
 40
0.0000000444325285
 10
47.6349325312754
 20
76.26366965814842
 30
0.0
 10
47.63493251726219
 20
76.26366967538769
 30
0.0
 10
47.63493250324899
 20
76.26366969262696
 30
0.0
  0
SPLINE
  5
127
330
1F
100
AcDbEntity
  8
Default
100
AcDbSpline
210
0.0
220
0.0
230
1.0
 70
    15
 71
     2
 72
     6
 73
     3
 74
     0
 42
0.0000000001
 43
0.0000000001
 40
0.0
 40
0.0
 40
0.0
 40
0.0000003693536241
 40
0.0000003693536241
 40
0.0000003693536241
 10
47.63493284821085
 20
76.26366984092355
 30
0.0
 41
1.0
 10
47.63493271196257
 20
76.26366971100704
 30
0.0
 41
0.9716919074201894
 10
47.6349325312754
 20
76.26366965814842
 30
0.0
 41
1.0
  0
SPLINE
  5
128
330
1F
100
AcDbEntity
  8
Default
100
AcDbSpline
210
0.0
220
0.0
230
1.0
 70
    27
 71
     2
 72
     6
 73
     3
 74
     0
 42
0.0000000001
 43
0.0000000001
 40
0.0
 40
0.0
 40
0.0
 40
0.0000000107499377
 40
0.0000000107499377
 40
0.0000000107499377
 10
47.63493285559098
 20
76.26366984873988
 30
0.0
 10
47.63493285190091
 20
76.26366984483172
 30
0.0
 10
47.63493284821085
 20
76.26366984092355
 30
0.0
  0
SPLINE
  5
129
330
1F
100
AcDbEntity
  8
Default
100
AcDbSpline
210
0.0
220
0.0
230
1.0
 70
    27
 71
     2
 72
     6
 73
     3
 74
     0
 42
0.0000000001
 43
0.0000000001
 40
0.0
 40
0.0
 40
0.0
 40
0.0000001450775595
 40
0.0000001450775595
 40
0.0000001450775595
 10
47.63493295546478
 20
76.26366995396688
 30
0.0
 10
47.63493290552788
 20
76.26366990135338
 30
0.0
 10
47.63493285559098
 20
76.26366984873988
 30
0.0
  0
SPLINE
  5
12A
330
1F
100
AcDbEntity
  8
Default
100
AcDbSpline
210
0.0
220
0.0
230
1.0
 70
    15
 71
     2
 72
     6
 73
     3
 74
     0
 42
0.0000000001
 43
0.0000000001
 40
0.0
 40
0.0
 40
0.0
 40
0.000000330853941
 40
0.000000330853941
 40
0.000000330853941
 10
47.63493278116182
 20
76.26366986329505
 30
0.0
 41
1.0
 10
47.63493266796866
 20
76.26366973600861
 30
0.0
 41
0.9573214298844219
 10
47.63493250324899
 20
76.26366969262696
 30
0.0
 41
1.0
  0
SPLINE
  5
12B
330
1F
100
AcDbEntity
  8
Default
100
AcDbSpline
210
0.0
220
0.0
230
1.0
 70
    27
 71
     2
 72
     6
 73
     3
 74
     0
 42
0.0000000001
 43
0.0000000001
 40
0.0
 40
0.0
 40
0.0
 40
0.0000001374195381
 40
0.0000001374195381
 40
0.0000001374195381
 10
47.6349328669659
 20
76.26366997063465
 30
0.0
 10
47.63493282406386
 20
76.26366991696486
 30
0.0
 10
47.63493278116182
 20
76.26366986329505
 30
0.0
  0
SPLINE
  5
12C
330
1F
100
AcDbEntity
  8
Default
100
AcDbSpline
210
0.0
220
0.0
230
1.0
 70
    27
 71
     2
 72
     6
 73
     3
 74
     0
 42
0.0000000001
 43
0.0000000001
 40
0.0
 40
0.0
 40
0.0
 40
0.0000000596825818
 40
0.0000000596825818
 40
0.0000000596825818
 10
47.63493250324899
 20
76.26366969262696
 30
0.0
 10
47.63493247894444
 20
76.26366970994145
 30
0.0
 10
47.63493245463989
 20
76.26366972725594
 30
0.0
  0
SPLINE
  5
12D
330
1F
100
AcDbEntity
  8
Default
100
AcDbSpline
210
0.0
220
0.0
230
1.0
 70
    27
 71
     2
 72
     6
 73
     3
 74
     0
 42
0.0000000001
 43
0.0000000001
 40
0.0
 40
0.0
 40
0.0
 40
0.0000000549588403
 40
0.0000000549588403
 40
0.0000000549588403
 10
47.63493245463989
 20
76.26366972725594
 30
0.0
 10
47.63493243204518
 20
76.26366974289556
 30
0.0
 10
47.63493240945047
 20
76.26366975853517
 30
0.0
  0
SPLINE
  5
12E
330
1F
100
AcDbEntity
  8
Default
100
AcDbSpline
210
0.0
220
0.0
230
1.0
 70
    15
 71
     2
 72
     6
 73
     3
 74
     0
 42
0.0000000001
 43
0.0000000001
 40
0.0
 40
0.0
 40
0.0
 40
0.0000001497293773
 40
0.0000001497293773
 40
0.0000001497293773
 10
47.6349325289672
 20
76.26366984967598
 30
0.0
 41
1.0
 10
47.6349325263821
 20
76.2636697674716
 30
0.0
 41
0.870674974017403
 10
47.63493245463989
 20
76.26366972725596
 30
0.0
 41
1.0
  0
SPLINE
  5
12F
330
1F
100
AcDbEntity
  8
Default
100
AcDbSpline
210
0.0
220
0.0
230
1.0
 70
    27
 71
     2
 72
     6
 73
     3
 74
     0
 42
0.0000000001
 43
0.0000000001
 40
0.0
 40
0.0
 40
0.0
 40
0.0000000626336377
 40
0.0000000626336377
 40
0.0000000626336377
 10
47.63493231555421
 20
76.26367001290451
 30
0.0
 10
47.63493232119189
 20
76.26367004370971
 30
0.0
 10
47.63493232682957
 20
76.26367007451489
 30
0.0
  0
SPLINE
  5
130
330
1F
100
AcDbEntity
  8
Default
100
AcDbSpline
210
0.0
220
0.0
230
1.0
 70
    27
 71
     2
 72
     6
 73
     3
 74
     0
 42
0.0000000001
 43
0.0000000001
 40
0.0
 40
0.0
 40
0.0
 40
0.000000052562603
 40
0.000000052562603
 40
0.000000052562603
 10
47.63493236746419
 20
76.26367000447712
 30
0.0
 10
47.63493237966095
 20
76.26367002775686
 30
0.0
 10
47.6349323918577
 20
76.26367005103658
 30
0.0
  0
SPLINE
  5
131
330
1F
100
AcDbEntity
  8
Default
100
AcDbSpline
210
0.0
220
0.0
230
1.0
 70
    27
 71
     2
 72
     6
 73
     3
 74
     0
 42
0.0000000001
 43
0.0000000001
 40
0.0
 40
0.0
 40
0.0
 40
0.000000010927172
 40
0.000000010927172
 40
0.000000010927172
 10
47.63493244522061
 20
76.2636699780114
 30
0.0
 10
47.63493244853402
 20
76.2636699823556
 30
0.0
 10
47.63493245184743
 20
76.2636699866998
 30
0.0
  0
SPLINE
  5
132
330
1F
100
AcDbEntity
  8
Default
100
AcDbSpline
210
0.0
220
0.0
230
1.0
 70
    27
 71
     2
 72
     6
 73
     3
 74
     0
 42
0.0000000001
 43
0.0000000001
 40
0.0
 40
0.0
 40
0.0
 40
0.0000000467565444
 40
0.0000000467565444
 40
0.0000000467565444
 10
47.63493245184743
 20
76.2636699866998
 30
0.0
 10
47.63493246566915
 20
76.2636700055546
 30
0.0
 10
47.63493247949087
 20
76.26367002440941
 30
0.0
  0
SPLINE
  5
133
330
1F
100
AcDbEntity
  8
Default
100
AcDbSpline
210
0.0
220
0.0
230
1.0
 70
    27
 71
     2
 72
     6
 73
     3
 74
     0
 42
0.0000000001
 43
0.0000000001
 40
0.0
 40
0.0
 40
0.0
 40
0.0000003589904199
 40
0.0000003589904199
 40
0.0000003589904199
 10
47.6349328669659
 20
76.26366997063465
 30
0.0
 10
47.63493269796655
 20
76.26366991015531
 30
0.0
 10
47.6349325289672
 20
76.26366984967598
 30
0.0
  0
SPLINE
  5
134
330
1F
100
AcDbEntity
  8
Default
100
AcDbSpline
210
0.0
220
0.0
230
1.0
 70
    27
 71
     2
 72
     6
 73
     3
 74
     0
 42
0.0000000001
 43
0.0000000001
 40
0.0
 40
0.0
 40
0.0
 40
0.0000001153895722
 40
0.0000001153895722
 40
0.0000001153895722
 10
47.63493251775392
 20
76.26366992242654
 30
0.0
 10
47.63493256063901
 20
76.26366996102134
 30
0.0
 10
47.63493260352409
 20
76.26366999961613
 30
0.0
  0
SPLINE
  5
135
330
1F
100
AcDbEntity
  8
Default
100
AcDbSpline
210
0.0
220
0.0
230
1.0
 70
    27
 71
     2
 72
     6
 73
     3
 74
     0
 42
0.0000000001
 43
0.0000000001
 40
0.0
 40
0.0
 40
0.0
 40
0.0000000090292677
 40
0.0000000090292677
 40
0.0000000090292677
 10
47.6349325289672
 20
76.26366984967598
 30
0.0
 10
47.63493252851904
 20
76.26366985416831
 30
0.0
 10
47.63493252807089
 20
76.26366985866065
 30
0.0
  0
SPLINE
  5
136
330
1F
100
AcDbEntity
  8
Default
100
AcDbSpline
210
0.0
220
0.0
230
1.0
 70
     8
 71
     3
 72
     9
 73
     5
 74
     0
 42
0.0000000001
 43
0.0000000001
 40
0.0
 40
0.0
 40
0.0
 40
0.0
 40
0.0026623167133318
 40
0.0049292168974535
 40
0.0049292168974535
 40
0.0049292168974535
 40
0.0049292168974535
 10
47.63487669259155
 20
76.2636231142949
 30
0.0
 10
47.63401414482742
 20
76.26290057032287
 30
0.0
 10
47.63851393427942
 20
76.26667003089555
 30
0.0
 10
47.63546414579311
 20
76.26411511718864
 30
0.0
 10
47.63493486312335
 20
76.26367185382422
 30
0.0
  0
SPLINE
  5
137
330
1F
100
AcDbEntity
  8
Default
100
AcDbSpline
210
0.0
220
0.0
230
1.0
 70
    12
 71
     2
 72
     6
 73
     3
 74
     0
 42
0.0000000001
 43
0.0000000001
 40
0.0
 40
0.0
 40
0.0
 40
0.0000016824361692
 40
0.0000016824361692
 40
0.0000016824361692
 10
47.63493486312335
 20
76.26367185382422
 30
0.0
 41
1.0
 10
47.63493419082575
 20
76.2636713444887
 30
0.0
 41
0.9960367065633574
 10
47.63493361940979
 20
76.26367072409326
 30
0.0
 41
1.0
  0
SPLINE
  5
138
330
1F
100
AcDbEntity
  8
Default
100
AcDbSpline
210
0.0
220
0.0
230
1.0
 70
    27
 71
     2
 72
     6
 73
     3
 74
     0
 42
0.0000000001
 43
0.0000000001
 40
0.0
 40
0.0
 40
0.0
 40
0.0000000559305874
 40
0.0000000559305874
 40
0.0000000559305874
 10
47.63493361940979
 20
76.26367072409326
 30
0.0
 10
47.63493360158878
 20
76.2636707025417
 30
0.0
 10
47.63493358376778
 20
76.26367068099016
 30
0.0
  0
SPLINE
  5
139
330
1F
100
AcDbEntity
  8
Default
100
AcDbSpline
210
0.0
220
0.0
230
1.0
 70
    27
 71
     2
 72
     6
 73
     3
 74
     0
 42
0.0000000001
 43
0.0000000001
 40
0.0
 40
0.0
 40
0.0
 40
0.0000009608993204
 40
0.0000009608993204
 40
0.0000009608993204
 10
47.63493358376778
 20
76.26367068099016
 30
0.0
 10
47.63493326961628
 20
76.26367031747853
 30
0.0
 10
47.63493295546478
 20
76.26366995396688
 30
0.0
  0
SPLINE
  5
13A
330
1F
100
AcDbEntity
  8
Default
100
AcDbSpline
210
0.0
220
0.0
230
1.0
 70
    27
 71
     2
 72
     6
 73
     3
 74
     0
 42
0.0000000001
 43
0.0000000001
 40
0.0
 40
0.0
 40
0.0
 40
0.0000000900547954
 40
0.0000000900547954
 40
0.0000000900547954
 10
47.63493295546478
 20
76.26366995396688
 30
0.0
 10
47.63493291121534
 20
76.26366996230077
 30
0.0
 10
47.6349328669659
 20
76.26366997063465
 30
0.0
  0
SPLINE
  5
13B
330
1F
100
AcDbEntity
  8
Default
100
AcDbSpline
210
0.0
220
0.0
230
1.0
 70
    27
 71
     2
 72
     6
 73
     3
 74
     0
 42
0.0000000001
 43
0.0000000001
 40
0.0
 40
0.0
 40
0.0
 40
0.000000004110967
 40
0.000000004110967
 40
0.000000004110967
 10
47.63493232682957
 20
76.26367007451489
 30
0.0
 10
47.63493232484136
 20
76.26367007503646
 30
0.0
 10
47.63493232285315
 20
76.26367007555801
 30
0.0
  0
SPLINE
  5
13C
330
1F
100
AcDbEntity
  8
Default
100
AcDbSpline
210
0.0
220
0.0
230
1.0
 70
    27
 71
     2
 72
     6
 73
     3
 74
     0
 42
0.0000000001
 43
0.0000000001
 40
0.0
 40
0.0
 40
0.0
 40
0.0000000436934595
 40
0.0000000436934595
 40
0.0000000436934595
 10
47.63493265497672
 20
76.26367072502251
 30
0.0
 10
47.63493264363873
 20
76.26367070634821
 30
0.0
 10
47.63493263230073
 20
76.26367068767391
 30
0.0
  0
SPLINE
  5
13D
330
1F
100
AcDbEntity
  8
Default
100
AcDbSpline
210
0.0
220
0.0
230
1.0
 70
    27
 71
     2
 72
     6
 73
     3
 74
     0
 42
0.0000000001
 43
0.0000000001
 40
0.0
 40
0.0
 40
0.0
 40
0.0000002082742529
 40
0.0000002082742529
 40
0.0000002082742529
 10
47.63493265497672
 20
76.26367072502251
 30
0.0
 10
47.63493270454425
 20
76.26367081660635
 30
0.0
 10
47.63493275411177
 20
76.2636709081902
 30
0.0
  0
SPLINE
  5
13E
330
1F
100
AcDbEntity
  8
Default
100
AcDbSpline
210
0.0
220
0.0
230
1.0
 70
    27
 71
     2
 72
     6
 73
     3
 74
     0
 42
0.0000000001
 43
0.0000000001
 40
0.0
 40
0.0
 40
0.0
 40
0.0000000454036011
 40
0.0000000454036011
 40
0.0000000454036011
 10
47.63493275411177
 20
76.2636709081902
 30
0.0
 10
47.63493276431654
 20
76.26367092846912
 30
0.0
 10
47.6349327745213
 20
76.26367094874804
 30
0.0
  0
SPLINE
  5
13F
330
1F
100
AcDbEntity
  8
Default
100
AcDbSpline
210
0.0
220
0.0
230
1.0
 70
    24
 71
     2
 72
     6
 73
     3
 74
     0
 42
0.0000000001
 43
0.0000000001
 40
0.0
 40
0.0
 40
0.0
 40
0.0000165154282889
 40
0.0000165154282889
 40
0.0000165154282889
 10
47.63492080520435
 20
76.26365490285467
 30
0.0
 10
47.63492576527261
 20
76.26366150494265
 30
0.0
 10
47.63493072534088
 20
76.26366810703063
 30
0.0
  0
SPLINE
  5
140
330
1F
100
AcDbEntity
  8
Default
100
AcDbSpline
210
0.0
220
0.0
230
1.0
 70
    27
 71
     2
 72
     6
 73
     3
 74
     0
 42
0.0000000001
 43
0.0000000001
 40
0.0
 40
0.0
 40
0.0
 40
0.0000003302508124
 40
0.0000003302508124
 40
0.0000003302508124
 10
47.63493395867528
 20
76.2636724512847
 30
0.0
 10
47.63493404808088
 20
76.26367259011207
 30
0.0
 10
47.63493413748648
 20
76.26367272893944
 30
0.0
  0
SPLINE
  5
141
330
1F
100
AcDbEntity
  8
Default
100
AcDbSpline
210
0.0
220
0.0
230
1.0
 70
    15
 71
     2
 72
     8
 73
     5
 74
     0
 42
0.0000000001
 43
0.0000000001
 40
0.0
 40
0.0
 40
0.0
 40
0.0000001310181924
 40
0.0000001310181924
 40
0.0000002620363847
 40
0.0000002620363847
 40
0.0000002620363847
 10
47.63493062922593
 20
76.26366795604304
 30
0.0
 41
1.0
 10
47.63493070139721
 20
76.26366792116801
 30
0.0
 41
0.7471533818915604
 10
47.63493074444108
 20
76.26366798878593
 30
0.0
 41
1.0
 10
47.63493078748495
 20
76.26366805640382
 30
0.0
 41
0.7471533818915604
 10
47.63493072534088
 20
76.26366810703063
 30
0.0
 41
1.0
  0
SPLINE
  5
142
330
1F
100
AcDbEntity
  8
Default
100
AcDbSpline
210
0.0
220
0.0
230
1.0
 70
    27
 71
     2
 72
     6
 73
     3
 74
     0
 42
0.0000000001
 43
0.0000000001
 40
0.0
 40
0.0
 40
0.0
 40
0.0000004701792944
 40
0.0000004701792944
 40
0.0000004701792944
 10
47.63493072534088
 20
76.26366810703063
 30
0.0
 10
47.63493086069867
 20
76.26366829924251
 30
0.0
 10
47.63493099605645
 20
76.26366849145441
 30
0.0
  0
SPLINE
  5
143
330
1F
100
AcDbEntity
  8
Default
100
AcDbSpline
210
0.0
220
0.0
230
1.0
 70
     8
 71
     3
 72
     9
 73
     5
 74
     0
 42
0.0000000001
 43
0.0000000001
 40
0.0
 40
0.0
 40
0.0
 40
0.0
 40
0.0003360584697344
 40
0.0075017635842097
 40
0.0075017635842097
 40
0.0075017635842097
 40
0.0075017635842097
 10
47.63490035735309
 20
76.26364048587872
 30
0.0
 10
47.63450104714282
 20
76.26327579393953
 30
0.0
 10
47.63905794235646
 20
76.26743471094942
 30
0.0
 10
47.63752174880197
 20
76.26604195345938
 30
0.0
 10
47.6349328669659
 20
76.26366997063465
 30
0.0
  0
SPLINE
  5
144
330
1F
100
AcDbEntity
  8
Default
100
AcDbSpline
210
0.0
220
0.0
230
1.0
 70
    27
 71
     2
 72
     6
 73
     3
 74
     0
 42
0.0000000001
 43
0.0000000001
 40
0.0
 40
0.0
 40
0.0
 40
0.0000002650311503
 40
0.0000002650311503
 40
0.0000002650311503
 10
47.6349328669659
 20
76.26366997063465
 30
0.0
 10
47.63493273524499
 20
76.26366998512539
 30
0.0
 10
47.63493260352409
 20
76.26366999961613
 30
0.0
  0
SPLINE
  5
145
330
1F
100
AcDbEntity
  8
Default
100
AcDbSpline
210
0.0
220
0.0
230
1.0
 70
    27
 71
     2
 72
     6
 73
     3
 74
     0
 42
0.0000000001
 43
0.0000000001
 40
0.0
 40
0.0
 40
0.0
 40
0.0000001264869427
 40
0.0000001264869427
 40
0.0000001264869427
 10
47.63493260352409
 20
76.26366999961613
 30
0.0
 10
47.63493254150748
 20
76.26367001201277
 30
0.0
 10
47.63493247949087
 20
76.26367002440941
 30
0.0
  0
SPLINE
  5
146
330
1F
100
AcDbEntity
  8
Default
100
AcDbSpline
210
0.0
220
0.0
230
1.0
 70
    24
 71
     2
 72
     6
 73
     3
 74
     0
 42
0.0000000001
 43
0.0000000001
 40
0.0
 40
0.0
 40
0.0
 40
0.0000072983899289
 40
0.0000072983899289
 40
0.0000072983899289
 10
47.6349381595856
 20
76.2636774658097
 30
0.0
 10
47.63493586361038
 20
76.26367462941734
 30
0.0
 10
47.63493356763516
 20
76.26367179302497
 30
0.0
  0
SPLINE
  5
147
330
1F
100
AcDbEntity
  8
Default
100
AcDbSpline
210
0.0
220
0.0
230
1.0
 70
    24
 71
     2
 72
     6
 73
     3
 74
     0
 42
0.0000000001
 43
0.0000000001
 40
0.0
 40
0.0
 40
0.0
 40
0.0000019575785716
 40
0.0000019575785716
 40
0.0000019575785716
 10
47.63493275411177
 20
76.2636709081902
 30
0.0
 10
47.63493335639352
 20
76.26367167973746
 30
0.0
 10
47.63493395867528
 20
76.2636724512847
 30
0.0
  0
SPLINE
  5
148
330
1F
100
AcDbEntity
  8
Default
100
AcDbSpline
210
0.0
220
0.0
230
1.0
 70
    27
 71
     2
 72
     6
 73
     3
 74
     0
 42
0.0000000001
 43
0.0000000001
 40
0.0
 40
0.0
 40
0.0
 40
0.0000001346127909
 40
0.0000001346127909
 40
0.0000001346127909
 10
47.63493270653618
 20
76.26367078226497
 30
0.0
 10
47.63493273032397
 20
76.26367084522758
 30
0.0
 10
47.63493275411177
 20
76.2636709081902
 30
0.0
  0
SPLINE
  5
149
330
1F
100
AcDbEntity
  8
Default
100
AcDbSpline
210
0.0
220
0.0
230
1.0
 70
    27
 71
     2
 72
     6
 73
     3
 74
     0
 42
0.0000000001
 43
0.0000000001
 40
0.0
 40
0.0
 40
0.0
 40
0.0000003690216964
 40
0.0000003690216964
 40
0.0000003690216964
 10
47.6349337553562
 20
76.2636721107321
 30
0.0
 10
47.63493366149568
 20
76.26367195187854
 30
0.0
 10
47.63493356763516
 20
76.26367179302497
 30
0.0
  0
SPLINE
  5
14A
330
1F
100
AcDbEntity
  8
Default
100
AcDbSpline
210
0.0
220
0.0
230
1.0
 70
    27
 71
     2
 72
     6
 73
     3
 74
     0
 42
0.0000000001
 43
0.0000000001
 40
0.0
 40
0.0
 40
0.0
 40
0.0000003966291994
 40
0.0000003966291994
 40
0.0000003966291994
 10
47.63493395867528
 20
76.2636724512847
 30
0.0
 10
47.63493385701574
 20
76.26367228100841
 30
0.0
 10
47.6349337553562
 20
76.2636721107321
 30
0.0
  0
SPLINE
  5
14B
330
1F
100
AcDbEntity
  8
Default
100
AcDbSpline
210
0.0
220
0.0
230
1.0
 70
    24
 71
     2
 72
     6
 73
     3
 74
     0
 42
0.0000000001
 43
0.0000000001
 40
0.0
 40
0.0
 40
0.0
 40
0.0000013278280155
 40
0.0000013278280155
 40
0.0000013278280155
 10
47.63493270653618
 20
76.26367078226497
 30
0.0
 10
47.63493313708567
 20
76.26367128764497
 30
0.0
 10
47.63493356763516
 20
76.26367179302497
 30
0.0
  0
SPLINE
  5
14C
330
1F
100
AcDbEntity
  8
Default
100
AcDbSpline
210
0.0
220
0.0
230
1.0
 70
    27
 71
     2
 72
     6
 73
     3
 74
     0
 42
0.0000000001
 43
0.0000000001
 40
0.0
 40
0.0
 40
0.0
 40
0.0000000770394473
 40
0.0000000770394473
 40
0.0000000770394473
 10
47.63493265497672
 20
76.26367072502251
 30
0.0
 10
47.63493268075645
 20
76.26367075364374
 30
0.0
 10
47.63493270653618
 20
76.26367078226497
 30
0.0
  0
SPLINE
  5
14D
330
1F
100
AcDbEntity
  8
Default
100
AcDbSpline
210
0.0
220
0.0
230
1.0
 70
    15
 71
     2
 72
     6
 73
     3
 74
     0
 42
0.0000000001
 43
0.0000000001
 40
0.0
 40
0.0
 40
0.0
 40
0.0000007438363181
 40
0.0000007438363181
 40
0.0000007438363181
 10
47.63493232682957
 20
76.26367007451489
 30
0.0
 41
1.0
 10
47.63493261029207
 20
76.26367033954322
 30
0.0
 41
0.9387557477064578
 10
47.63493265497672
 20
76.26367072502251
 30
0.0
 41
1.0
  0
SPLINE
  5
14E
330
1F
100
AcDbEntity
  8
Default
100
AcDbSpline
210
0.0
220
0.0
230
1.0
 70
    27
 71
     2
 72
     6
 73
     3
 74
     0
 42
0.0000000001
 43
0.0000000001
 40
0.0
 40
0.0
 40
0.0
 40
0.0000000691367405
 40
0.0000000691367405
 40
0.0000000691367405
 10
47.6349323918577
 20
76.26367005103658
 30
0.0
 10
47.63493235934364
 20
76.26367006277573
 30
0.0
 10
47.63493232682957
 20
76.26367007451489
 30
0.0
  0
SPLINE
  5
14F
330
1F
100
AcDbEntity
  8
Default
100
AcDbSpline
210
0.0
220
0.0
230
1.0
 70
    27
 71
     2
 72
     6
 73
     3
 74
     0
 42
0.0000000001
 43
0.0000000001
 40
0.0
 40
0.0
 40
0.0
 40
0.0000000915891846
 40
0.0000000915891846
 40
0.0000000915891846
 10
47.63493247949087
 20
76.26367002440941
 30
0.0
 10
47.63493243567429
 20
76.26367003772299
 30
0.0
 10
47.6349323918577
 20
76.26367005103658
 30
0.0
  0
SPLINE
  5
150
330
1F
100
AcDbEntity
  8
Default
100
AcDbSpline
210
0.0
220
0.0
230
1.0
 70
    12
 71
     2
 72
     6
 73
     3
 74
     0
 42
0.0000000001
 43
0.0000000001
 40
0.0
 40
0.0
 40
0.0
 40
0.000002077305657
 40
0.000002077305657
 40
0.000002077305657
 10
47.63493356763516
 20
76.26367179302497
 30
0.0
 41
1.0
 10
47.63493306491477
 20
76.26367088327544
 30
0.0
 41
0.9989084602833137
 10
47.63493247949087
 20
76.26367002440941
 30
0.0
 41
1.0
  0
SPLINE
  5
151
330
1F
100
AcDbEntity
  8
Default
100
AcDbSpline
210
0.0
220
0.0
230
1.0
 70
    11
 71
     3
 72
     8
 73
     4
 74
     0
 42
0.0000000001
 43
0.0000000001
 40
0.0
 40
0.0
 40
0.0
 40
0.0
 40
0.0000007392687721
 40
0.0000007392687721
 40
0.0000007392687721
 40
0.0000007392687721
 10
47.63493065752449
 20
76.26366828726832
 30
0.0
 10
47.63493098867781
 20
76.26366855651591
 30
0.0
 10
47.63493063171875
 20
76.26366806722714
 30
0.0
 10
47.63493052407362
 20
76.26366795306437
 30
0.0
  0
SPLINE
  5
152
330
1F
100
AcDbEntity
  8
Default
100
AcDbSpline
210
0.0
220
0.0
230
1.0
 70
    24
 71
     2
 72
     6
 73
     3
 74
     0
 42
0.0000000001
 43
0.0000000001
 40
0.0
 40
0.0
 40
0.0
 40
0.0000110889526099
 40
0.0000110889526099
 40
0.0000110889526099
 10
47.63493052407361
 20
76.26366795306437
 30
0.0
 10
47.63492708469585
 20
76.26366360428315
 30
0.0
 10
47.6349236453181
 20
76.26365925550192
 30
0.0
  0
SPLINE
  5
153
330
1F
100
AcDbEntity
  8
Default
100
AcDbSpline
210
0.0
220
0.0
230
1.0
 70
    24
 71
     2
 72
     6
 73
     3
 74
     0
 42
0.0000000001
 43
0.0000000001
 40
0.0
 40
0.0
 40
0.0
 40
0.0000027241939214
 40
0.0000027241939214
 40
0.0000027241939214
 10
47.63492857792471
 20
76.26366652758162
 30
0.0
 10
47.6349296177246
 20
76.26366740742498
 30
0.0
 10
47.63493065752449
 20
76.26366828726832
 30
0.0
  0
SPLINE
  5
154
330
1F
100
AcDbEntity
  8
Default
100
AcDbSpline
210
0.0
220
0.0
230
1.0
 70
    27
 71
     2
 72
     6
 73
     3
 74
     0
 42
0.0000000001
 43
0.0000000001
 40
0.0
 40
0.0
 40
0.0
 40
0.00000003691215
 40
0.00000003691215
 40
0.00000003691215
 10
47.63493224890335
 20
76.26367002206364
 30
0.0
 10
47.63493226526197
 20
76.26367003060895
 30
0.0
 10
47.63493228162058
 20
76.26367003915428
 30
0.0
  0
SPLINE
  5
155
330
1F
100
AcDbEntity
  8
Default
100
AcDbSpline
210
0.0
220
0.0
230
1.0
 70
    27
 71
     2
 72
     6
 73
     3
 74
     0
 42
0.0000000001
 43
0.0000000001
 40
0.0
 40
0.0
 40
0.0
 40
0.0000000278010996
 40
0.0000000278010996
 40
0.0000000278010996
 10
47.63493209714763
 20
76.26366975266453
 30
0.0
 10
47.6349321025472
 20
76.26366976547351
 30
0.0
 10
47.63493210794678
 20
76.26366977828248
 30
0.0
  0
SPLINE
  5
156
330
1F
100
AcDbEntity
  8
Default
100
AcDbSpline
210
0.0
220
0.0
230
1.0
 70
    27
 71
     2
 72
     6
 73
     3
 74
     0
 42
0.0000000001
 43
0.0000000001
 40
0.0
 40
0.0
 40
0.0
 40
0.0000000047685694
 40
0.0000000047685694
 40
0.0000000047685694
 10
47.63493210794678
 20
76.26366977828248
 30
0.0
 10
47.6349321097529
 20
76.26366977983899
 30
0.0
 10
47.63493211155902
 20
76.2636697813955
 30
0.0
  0
SPLINE
  5
157
330
1F
100
AcDbEntity
  8
Default
100
AcDbSpline
210
0.0
220
0.0
230
1.0
 70
    27
 71
     2
 72
     6
 73
     3
 74
     0
 42
0.0000000001
 43
0.0000000001
 40
0.0
 40
0.0
 40
0.0
 40
0.000000031031426
 40
0.000000031031426
 40
0.000000031031426
 10
47.63493211155902
 20
76.2636697813955
 30
0.0
 10
47.63493212472984
 20
76.26366978959715
 30
0.0
 10
47.63493213790066
 20
76.26366979779878
 30
0.0
  0
SPLINE
  5
158
330
1F
100
AcDbEntity
  8
Default
100
AcDbSpline
210
0.0
220
0.0
230
1.0
 70
    27
 71
     2
 72
     6
 73
     3
 74
     0
 42
0.0000000001
 43
0.0000000001
 40
0.0
 40
0.0
 40
0.0
 40
0.0000000998889983
 40
0.0000000998889983
 40
0.0000000998889983
 10
47.63493210794678
 20
76.26366977828248
 30
0.0
 10
47.63493209365176
 20
76.26366982613752
 30
0.0
 10
47.63493207935674
 20
76.26366987399257
 30
0.0
  0
SPLINE
  5
159
330
1F
100
AcDbEntity
  8
Default
100
AcDbSpline
210
0.0
220
0.0
230
1.0
 70
    27
 71
     2
 72
     6
 73
     3
 74
     0
 42
0.0000000001
 43
0.0000000001
 40
0.0
 40
0.0
 40
0.0
 40
0.0000000294948288
 40
0.0000000294948288
 40
0.0000000294948288
 10
47.63493226021875
 20
76.26366997243375
 30
0.0
 10
47.63493227490938
 20
76.2636699737266
 30
0.0
 10
47.63493228960002
 20
76.26366997501947
 30
0.0
  0
SPLINE
  5
15A
330
1F
100
AcDbEntity
  8
Default
100
AcDbSpline
210
0.0
220
0.0
230
1.0
 70
    27
 71
     2
 72
     6
 73
     3
 74
     0
 42
0.0000000001
 43
0.0000000001
 40
0.0
 40
0.0
 40
0.0
 40
0.000000027730432
 40
0.000000027730432
 40
0.000000027730432
 10
47.6349322896
 20
76.26366997501945
 30
0.0
 10
47.63493230343941
 20
76.2636699758651
 30
0.0
 10
47.63493231727881
 20
76.26366997671073
 30
0.0
  0
SPLINE
  5
15B
330
1F
100
AcDbEntity
  8
Default
100
AcDbSpline
210
0.0
220
0.0
230
1.0
 70
    27
 71
     2
 72
     6
 73
     3
 74
     0
 42
0.0000000001
 43
0.0000000001
 40
0.0
 40
0.0
 40
0.0
 40
0.0000000418417779
 40
0.0000000418417779
 40
0.0000000418417779
 10
47.63493230074677
 20
76.26366996203116
 30
0.0
 10
47.63493228048276
 20
76.26366996723246
 30
0.0
 10
47.63493226021875
 20
76.26366997243375
 30
0.0
  0
SPLINE
  5
15C
330
1F
100
AcDbEntity
  8
Default
100
AcDbSpline
210
0.0
220
0.0
230
1.0
 70
    27
 71
     2
 72
     6
 73
     3
 74
     0
 42
0.0000000001
 43
0.0000000001
 40
0.0
 40
0.0
 40
0.0
 40
0.0000000237097287
 40
0.0000000237097287
 40
0.0000000237097287
 10
47.63493228021278
 20
76.26366998517697
 30
0.0
 10
47.63493227021576
 20
76.26366997880535
 30
0.0
 10
47.63493226021875
 20
76.26366997243375
 30
0.0
  0
SPLINE
  5
15D
330
1F
100
AcDbEntity
  8
Default
100
AcDbSpline
210
0.0
220
0.0
230
1.0
 70
    27
 71
     2
 72
     6
 73
     3
 74
     0
 42
0.0000000001
 43
0.0000000001
 40
0.0
 40
0.0
 40
0.0
 40
0.0000001795610088
 40
0.0000001795610088
 40
0.0000001795610088
 10
47.63493226021875
 20
76.26366997243375
 30
0.0
 10
47.63493217116737
 20
76.26366996101484
 30
0.0
 10
47.63493208211599
 20
76.26366994959594
 30
0.0
  0
SPLINE
  5
15E
330
1F
100
AcDbEntity
  8
Default
100
AcDbSpline
210
0.0
220
0.0
230
1.0
 70
    15
 71
     2
 72
     6
 73
     3
 74
     0
 42
0.0000000001
 43
0.0000000001
 40
0.0
 40
0.0
 40
0.0
 40
0.0000001846209816
 40
0.0000001846209816
 40
0.0000001846209816
 10
47.63493224857017
 20
76.26367001521729
 30
0.0
 41
1.0
 10
47.63493215020116
 20
76.2636700208154
 30
0.0
 41
0.9079749162034079
 10
47.63493208211599
 20
76.26366994959594
 30
0.0
 41
1.0
  0
SPLINE
  5
15F
330
1F
100
AcDbEntity
  8
Default
100
AcDbSpline
210
0.0
220
0.0
230
1.0
 70
    15
 71
     2
 72
     8
 73
     5
 74
     0
 42
0.0000000001
 43
0.0000000001
 40
0.0
 40
0.0
 40
0.0
 40
0.0000002256664537
 40
0.0000002256664537
 40
0.0000004513329074
 40
0.0000004513329074
 40
0.0000004513329074
 10
47.63493208211599
 20
76.26366994959594
 30
0.0
 41
1.0
 10
47.63493209864171
 20
76.26366982673746
 30
0.0
 41
0.8705900445734804
 10
47.63493221241653
 20
76.2636697775176
 30
0.0
 41
1.0
 10
47.63493232619136
 20
76.26366972829776
 30
0.0
 41
0.8705900445734804
 10
47.63493242704807
 20
76.26366980037571
 30
0.0
 41
1.0
  0
SPLINE
  5
160
330
1F
100
AcDbEntity
  8
Default
100
AcDbSpline
210
0.0
220
0.0
230
1.0
 70
    27
 71
     2
 72
     6
 73
     3
 74
     0
 42
0.0000000001
 43
0.0000000001
 40
0.0
 40
0.0
 40
0.0
 40
0.000000003796357
 40
0.000000003796357
 40
0.000000003796357
 10
47.63493207895154
 20
76.26366994749867
 30
0.0
 10
47.63493208053377
 20
76.2636699485473
 30
0.0
 10
47.63493208211599
 20
76.26366994959594
 30
0.0
  0
SPLINE
  5
161
330
1F
100
AcDbEntity
  8
Default
100
AcDbSpline
210
0.0
220
0.0
230
1.0
 70
    27
 71
     2
 72
     6
 73
     3
 74
     0
 42
0.0000000001
 43
0.0000000001
 40
0.0
 40
0.0
 40
0.0
 40
0.0000000144552935
 40
0.0000000144552935
 40
0.0000000144552935
 10
47.63493242704807
 20
76.2636698003757
 30
0.0
 10
47.63493242830516
 20
76.2636697932582
 30
0.0
 10
47.63493242956226
 20
76.26366978614072
 30
0.0
  0
SPLINE
  5
162
330
1F
100
AcDbEntity
  8
Default
100
AcDbSpline
210
0.0
220
0.0
230
1.0
 70
    15
 71
     2
 72
     8
 73
     5
 74
     0
 42
0.0000000001
 43
0.0000000001
 40
0.0
 40
0.0
 40
0.0
 40
0.0000000153995155
 40
0.0000000153995155
 40
0.0000000307990309
 40
0.0000000307990309
 40
0.0000000307990309
 10
47.63493230074678
 20
76.26366996203117
 30
0.0
 41
1.0
 10
47.63493230811414
 20
76.26366995657979
 30
0.0
 41
0.7765827171639976
 10
47.63493231496729
 20
76.26366996266502
 30
0.0
 41
1.0
 10
47.63493232182041
 20
76.26366996875024
 30
0.0
 41
0.7765827171639976
 10
47.63493231727877
 20
76.26366997671069
 30
0.0
 41
1.0
  0
SPLINE
  5
163
330
1F
100
AcDbEntity
  8
Default
100
AcDbSpline
210
0.0
220
0.0
230
1.0
 70
    27
 71
     2
 72
     6
 73
     3
 74
     0
 42
0.0000000001
 43
0.0000000001
 40
0.0
 40
0.0
 40
0.0
 40
0.0000002051450924
 40
0.0000002051450924
 40
0.0000002051450924
 10
47.63493242704807
 20
76.2636698003757
 30
0.0
 10
47.63493236389743
 20
76.26366988120344
 30
0.0
 10
47.63493230074678
 20
76.26366996203117
 30
0.0
  0
SPLINE
  5
164
330
1F
100
AcDbEntity
  8
Default
100
AcDbSpline
210
0.0
220
0.0
230
1.0
 70
    15
 71
     2
 72
    12
 73
     9
 74
     0
 42
0.0000000001
 43
0.0000000001
 40
0.0
 40
0.0
 40
0.0
 40
0.0000000712439595
 40
0.0000000712439595
 40
0.000000142487919
 40
0.000000142487919
 40
0.0000002137318785
 40
0.0000002137318785
 40
0.000000284975838
 40
0.000000284975838
 40
0.000000284975838
 10
47.63493244191434
 20
76.26366997957251
 30
0.0
 41
1.0
 10
47.63493247943578
 20
76.26366997698432
 30
0.0
 41
0.9225440334964967
 10
47.63493250393958
 20
76.26366994845152
 30
0.0
 41
1.0
 10
47.63493252844339
 20
76.26366991991873
 30
0.0
 41
0.9225440334964967
 10
47.63493252533388
 20
76.2636698824369
 30
0.0
 41
1.0
 10
47.63493252222436
 20
76.26366984495507
 30
0.0
 41
0.9225440334964967
 10
47.6349324933537
 20
76.26366982085025
 30
0.0
 41
1.0
 10
47.63493246448307
 20
76.26366979674545
 30
0.0
 41
0.9225440334964967
 10
47.63493242704807
 20
76.26366980037567
 30
0.0
 41
1.0
  0
SPLINE
  5
165
330
1F
100
AcDbEntity
  8
Default
100
AcDbSpline
210
0.0
220
0.0
230
1.0
 70
    27
 71
     2
 72
     6
 73
     3
 74
     0
 42
0.0000000001
 43
0.0000000001
 40
0.0
 40
0.0
 40
0.0
 40
0.000000043631128
 40
0.000000043631128
 40
0.000000043631128
 10
47.63493228021278
 20
76.26366998517697
 30
0.0
 10
47.63493226439147
 20
76.26367000019712
 30
0.0
 10
47.63493224857017
 20
76.26367001521729
 30
0.0
  0
SPLINE
  5
166
330
1F
100
AcDbEntity
  8
Default
100
AcDbSpline
210
0.0
220
0.0
230
1.0
 70
    27
 71
     2
 72
     6
 73
     3
 74
     0
 42
0.0000000001
 43
0.0000000001
 40
0.0
 40
0.0
 40
0.0
 40
0.0000000380206278
 40
0.0000000380206278
 40
0.0000000380206278
 10
47.63493231727881
 20
76.26366997671072
 30
0.0
 10
47.6349322987458
 20
76.26366998094385
 30
0.0
 10
47.63493228021278
 20
76.26366998517697
 30
0.0
  0
SPLINE
  5
167
330
1F
100
AcDbEntity
  8
Default
100
AcDbSpline
210
0.0
220
0.0
230
1.0
 70
    27
 71
     2
 72
     6
 73
     3
 74
     0
 42
0.0000000001
 43
0.0000000001
 40
0.0
 40
0.0
 40
0.0
 40
0.0000001246683849
 40
0.0000001246683849
 40
0.0000001246683849
 10
47.63493244191434
 20
76.26366997957251
 30
0.0
 10
47.63493237959658
 20
76.26366997814162
 30
0.0
 10
47.63493231727881
 20
76.26366997671072
 30
0.0
  0
SPLINE
  5
168
330
1F
100
AcDbEntity
  8
Default
100
AcDbSpline
210
0.0
220
0.0
230
1.0
 70
    27
 71
     2
 72
     6
 73
     3
 74
     0
 42
0.0000000001
 43
0.0000000001
 40
0.0
 40
0.0
 40
0.0
 40
0.0000001966024443
 40
0.0000001966024443
 40
0.0000001966024443
 10
47.63493244191434
 20
76.26366997957251
 30
0.0
 10
47.63493234524226
 20
76.2636699973949
 30
0.0
 10
47.63493224857017
 20
76.26367001521729
 30
0.0
  0
SPLINE
  5
169
330
1F
100
AcDbEntity
  8
Default
100
AcDbSpline
210
0.0
220
0.0
230
1.0
 70
    27
 71
     2
 72
     6
 73
     3
 74
     0
 42
0.0000000001
 43
0.0000000001
 40
0.0
 40
0.0
 40
0.0
 40
0.0000000006170705
 40
0.0000000006170705
 40
0.0000000006170705
 10
47.63493244251066
 20
76.26366997941383
 30
0.0
 10
47.6349324422125
 20
76.26366997949319
 30
0.0
 10
47.63493244191434
 20
76.26366997957253
 30
0.0
  0
SPLINE
  5
16A
330
1F
100
AcDbEntity
  8
Default
100
AcDbSpline
210
0.0
220
0.0
230
1.0
 70
    27
 71
     2
 72
     6
 73
     3
 74
     0
 42
0.0000000001
 43
0.0000000001
 40
0.0
 40
0.0
 40
0.0
 40
0.0000000004627549
 40
0.0000000004627549
 40
0.0000000004627549
 10
47.63493244298218
 20
76.26366997907341
 30
0.0
 10
47.63493244280009
 20
76.26366997921617
 30
0.0
 10
47.63493244261801
 20
76.26366997935894
 30
0.0
  0
SPLINE
  5
16B
330
1F
100
AcDbEntity
  8
Default
100
AcDbSpline
210
0.0
220
0.0
230
1.0
 70
    15
 71
     2
 72
     6
 73
     3
 74
     0
 42
0.0000000001
 43
0.0000000001
 40
0.0
 40
0.0
 40
0.0
 40
0.0000003841021791
 40
0.0000003841021791
 40
0.0000003841021791
 10
47.63493207780451
 20
76.26366987684074
 30
0.0
 41
1.0
 10
47.63493222427581
 20
76.26366971744062
 30
0.0
 41
0.8390341761397414
 10
47.63493242956226
 20
76.26366978614074
 30
0.0
 41
1.0
  0
SPLINE
  5
16C
330
1F
100
AcDbEntity
  8
Default
100
AcDbSpline
210
0.0
220
0.0
230
1.0
 70
    27
 71
     2
 72
     6
 73
     3
 74
     0
 42
0.0000000001
 43
0.0000000001
 40
0.0
 40
0.0
 40
0.0
 40
0.0000000045738347
 40
0.0000000045738347
 40
0.0000000045738347
 10
47.63493207387991
 20
76.2636698854822
 30
0.0
 10
47.63493207476434
 20
76.26366988337323
 30
0.0
 10
47.63493207564876
 20
76.26366988126425
 30
0.0
  0
SPLINE
  5
16D
330
1F
100
AcDbEntity
  8
Default
100
AcDbSpline
210
0.0
220
0.0
230
1.0
 70
    27
 71
     2
 72
     6
 73
     3
 74
     0
 42
0.0000000001
 43
0.0000000001
 40
0.0
 40
0.0
 40
0.0
 40
0.0000000876304285
 40
0.0000000876304285
 40
0.0000000876304285
 10
47.63493242956226
 20
76.26366978614072
 30
0.0
 10
47.63493246819797
 20
76.26366980680604
 30
0.0
 10
47.63493250683368
 20
76.26366982747133
 30
0.0
  0
SPLINE
  5
16E
330
1F
100
AcDbEntity
  8
Default
100
AcDbSpline
210
0.0
220
0.0
230
1.0
 70
    27
 71
     2
 72
     6
 73
     3
 74
     0
 42
0.0000000001
 43
0.0000000001
 40
0.0
 40
0.0
 40
0.0
 40
0.0000000341548081
 40
0.0000000341548081
 40
0.0000000341548081
 10
47.63493240945046
 20
76.26366975853517
 30
0.0
 10
47.63493241950636
 20
76.26366977233795
 30
0.0
 10
47.63493242956226
 20
76.26366978614072
 30
0.0
  0
SPLINE
  5
16F
330
1F
100
AcDbEntity
  8
Default
100
AcDbSpline
210
0.0
220
0.0
230
1.0
 70
    12
 71
     2
 72
     6
 73
     3
 74
     0
 42
0.0000000001
 43
0.0000000001
 40
0.0
 40
0.0
 40
0.0
 40
1.583110905188138
 40
1.583110905188138
 40
1.583110905188138
 10
-10.41277801465863
 20
19.37608279651851
 30
0.0
 41
1.0
 10
-10.76221052831808
 20
18.66513401748462
 30
0.0
 41
0.9988153325166107
 10
-11.04087862523597
 20
17.92358473404332
 30
0.0
 41
1.0
  0
SPLINE
  5
170
330
1F
100
AcDbEntity
  8
Default
100
AcDbSpline
210
0.0
220
0.0
230
1.0
 70
     8
 71
     3
 72
    12
 73
     8
 74
     0
 42
0.0000000001
 43
0.0000000001
 40
0.0
 40
0.0
 40
0.0
 40
0.0
 40
0.4529530672337769
 40
0.8989806355331963
 40
1.574670328680222
 40
2.014302469462591
 40
2.291222462139759
 40
2.291222462139759
 40
2.291222462139759
 40
2.291222462139759
 10
-11.04087862523597
 20
17.92358473404332
 30
0.0
 10
-11.09384621473467
 20
17.78199586823325
 30
0.0
 10
-11.19386053312597
 20
17.50002515788387
 30
0.0
 10
-11.35199695100016
 20
16.99859214071271
 30
0.0
 10
-11.47788749242265
 20
16.49422529788498
 30
0.0
 10
-11.52709756576974
 20
16.02887562182043
 30
0.0
 10
-11.45119995933915
 20
15.79327116012498
 30
0.0
 10
-11.37792791927435
 20
15.73142312652154
 30
0.0
  0
SPLINE
  5
171
330
1F
100
AcDbEntity
  8
Default
100
AcDbSpline
210
0.0
220
0.0
230
1.0
 70
     8
 71
     3
 72
    14
 73
    10
 74
     0
 42
0.0000000001
 43
0.0000000001
 40
-7.0
 40
-7.0
 40
-7.0
 40
-7.0
 40
-6.0
 40
-5.0
 40
-4.0
 40
-3.0
 40
-2.0
 40
-1.0
 40
0.0
 40
0.0
 40
0.0
 40
0.0
 10
-11.37792791927435
 20
15.73142312652154
 30
0.0
 10
-11.22588198079126
 20
15.60487534056103
 30
0.0
 10
-10.84517691873138
 20
15.49368443594376
 30
0.0
 10
-10.26737070841726
 20
15.4139045775268
 30
0.0
 10
-9.682730642033784
 20
15.38464787814869
 30
0.0
 10
-9.098288857125747
 20
15.3805453476288
 30
0.0
 10
-8.513841950257692
 20
15.393650383465
 30
0.0
 10
-7.92944883466665
 20
15.40554542513958
 30
0.0
 10
-7.539783737372597
 20
15.41040511369721
 30
0.0
 10
-7.344951142437504
 20
15.41235049151928
 30
0.0
  0
SPLINE
  5
172
330
1F
100
AcDbEntity
  8
Default
100
AcDbSpline
210
0.0
220
0.0
230
1.0
 70
    12
 71
     2
 72
     6
 73
     3
 74
     0
 42
0.0000000001
 43
0.0000000001
 40
0.0
 40
0.0
 40
0.0
 40
1.583110905188138
 40
1.583110905188138
 40
1.583110905188138
 10
10.41277801465863
 20
19.37608279651851
 30
0.0
 41
1.0
 10
10.76221052831808
 20
18.66513401748462
 30
0.0
 41
0.9988153325166107
 10
11.04087862523597
 20
17.92358473404332
 30
0.0
 41
1.0
  0
SPLINE
  5
173
330
1F
100
AcDbEntity
  8
Default
100
AcDbSpline
210
0.0
220
0.0
230
1.0
 70
     8
 71
     3
 72
    12
 73
     8
 74
     0
 42
0.0000000001
 43
0.0000000001
 40
0.0
 40
0.0
 40
0.0
 40
0.0
 40
0.4529530672337769
 40
0.8989806355331963
 40
1.574670328680222
 40
2.014302469462591
 40
2.291222462139759
 40
2.291222462139759
 40
2.291222462139759
 40
2.291222462139759
 10
11.04087862523597
 20
17.92358473404332
 30
0.0
 10
11.09384621473467
 20
17.78199586823325
 30
0.0
 10
11.19386053312597
 20
17.50002515788387
 30
0.0
 10
11.35199695100016
 20
16.99859214071271
 30
0.0
 10
11.47788749242265
 20
16.49422529788498
 30
0.0
 10
11.52709756576974
 20
16.02887562182043
 30
0.0
 10
11.45119995933915
 20
15.79327116012498
 30
0.0
 10
11.37792791927435
 20
15.73142312652154
 30
0.0
  0
SPLINE
  5
174
330
1F
100
AcDbEntity
  8
Default
100
AcDbSpline
210
0.0
220
0.0
230
1.0
 70
     8
 71
     3
 72
    14
 73
    10
 74
     0
 42
0.0000000001
 43
0.0000000001
 40
-7.0
 40
-7.0
 40
-7.0
 40
-7.0
 40
-6.0
 40
-5.0
 40
-4.0
 40
-3.0
 40
-2.0
 40
-1.0
 40
0.0
 40
0.0
 40
0.0
 40
0.0
 10
11.37792791927435
 20
15.73142312652154
 30
0.0
 10
11.22588198079126
 20
15.60487534056103
 30
0.0
 10
10.84517691873138
 20
15.49368443594376
 30
0.0
 10
10.26737070841726
 20
15.4139045775268
 30
0.0
 10
9.682730642033784
 20
15.38464787814869
 30
0.0
 10
9.098288857125747
 20
15.3805453476288
 30
0.0
 10
8.513841950257692
 20
15.393650383465
 30
0.0
 10
7.92944883466665
 20
15.40554542513958
 30
0.0
 10
7.539783737372597
 20
15.41040511369721
 30
0.0
 10
7.344951142437504
 20
15.41235049151928
 30
0.0
  0
SPLINE
  5
175
330
1F
100
AcDbEntity
  8
Default
100
AcDbSpline
210
0.0
220
0.0
230
1.0
 70
     8
 71
     3
 72
    14
 73
    10
 74
     0
 42
0.0000000001
 43
0.0000000001
 40
0.0
 40
0.0
 40
0.0
 40
0.0
 40
0.7751197434126851
 40
1.699404317797073
 40
5.441373487204848
 40
7.276929656206133
 40
9.1912374263063
 40
12.91240060869158
 40
14.63159141267424
 40
14.63159141267424
 40
14.63159141267424
 40
14.63159141267424
 10
-7.314767038716764
 20
15.41046115966996
 30
0.0
 10
-7.056452585090113
 20
15.41548042880023
 30
0.0
 10
-6.489984429317805
 20
15.422655688213
 30
0.0
 10
-4.676182271147655
 20
15.4073909016474
 30
0.0
 10
-2.509898151041316
 20
15.38509880680942
 30
0.0
 10
-0.0126383240748034
 20
15.36090854306376
 30
0.0
 10
2.477703162479687
 20
15.38508620458718
 30
0.0
 10
4.928151105144414
 20
15.41565729774118
 30
0.0
 10
6.74175292663549
 20
15.42392507499264
 30
0.0
 10
7.314732379838334
 20
15.41046023427499
 30
0.0
  0
SPLINE
  5
176
330
1F
100
AcDbEntity
  8
Default
100
AcDbSpline
210
0.0
220
0.0
230
1.0
 70
    12
 71
     2
 72
    12
 73
     9
 74
     0
 42
0.0000000001
 43
0.0000000001
 40
-1.979652464604932
 40
-1.979652464604932
 40
-1.979652464604932
 40
0.0
 40
0.0
 40
4.924641608380323
 40
4.924641608380323
 40
9.849283216760647
 40
9.849283216760647
 40
11.82893568136558
 40
11.82893568136558
 40
11.82893568136558
 10
6.923633760784574
 20
40.13061328133936
 30
0.0
 41
1.0
 10
5.934109130810739
 20
40.10612081069451
 30
0.0
 41
0.9999977732910779
 10
4.923890630330106
 20
40.06983641068693
 30
0.0
 41
0.9999999999999896
 10
2.46245150261173
 20
39.99840940558845
 30
0.0
 41
0.999905916170127
 10
-0.0000206958959144
 20
39.99452764195628
 30
0.0
 41
1.000000000000237
 10
-2.462492894403558
 20
39.99840940558845
 30
0.0
 41
0.999905916170127
 10
-4.923932022121935
 20
40.06983641068693
 30
0.0
 41
0.9999999999999896
 10
-5.934150522602569
 20
40.10612081069451
 30
0.0
 41
0.9999977732910779
 10
-6.923675152576402
 20
40.13061328133936
 30
0.0
 41
1.0
  0
SPLINE
  5
177
330
1F
100
AcDbEntity
  8
Default
100
AcDbSpline
210
0.0
220
0.0
230
1.0
 70
    12
 71
     2
 72
     6
 73
     3
 74
     0
 42
0.0000000001
 43
0.0000000001
 40
0.0
 40
0.0
 40
0.0
 40
0.3785634867430925
 40
0.3785634867430925
 40
0.3785634867430925
 10
-6.923675152576402
 20
40.13061328133936
 30
0.0
 41
1.0
 10
-7.113413209992612
 20
40.1353096311428
 30
0.0
 41
0.9959393302338803
 10
-7.300928071738008
 20
40.10590666417526
 30
0.0
 41
1.0
  0
SPLINE
  5
178
330
1F
100
AcDbEntity
  8
Default
100
AcDbSpline
210
0.0
220
0.0
230
1.0
 70
     8
 71
     3
 72
    11
 73
     7
 74
     0
 42
0.0000000001
 43
0.0000000001
 40
0.0
 40
0.0
 40
0.0
 40
0.0
 40
0.3325467378781747
 40
0.682399112458213
 40
1.339748098685043
 40
2.743097143419929
 40
2.743097143419929
 40
2.743097143419929
 40
2.743097143419929
 10
-7.300928071738008
 20
40.10590666417526
 30
0.0
 10
-7.41021284097585
 20
40.08854205244928
 30
0.0
 10
-7.631907932974697
 20
40.03063711724034
 30
0.0
 10
-8.035836681786849
 20
39.83827342702536
 30
0.0
 10
-8.646901808576809
 20
39.28928486716851
 30
0.0
 10
-8.828808196779546
 20
38.57448744227225
 30
0.0
 10
-8.77873952437084
 20
38.11043562074843
 30
0.0
  0
SPLINE
  5
179
330
1F
100
AcDbEntity
  8
Default
100
AcDbSpline
210
0.0
220
0.0
230
1.0
 70
    12
 71
     3
 72
    28
 73
    24
 74
     0
 42
0.0000000001
 43
0.0000000001
 40
0.0
 40
0.0
 40
0.0
 40
0.0
 40
7.972644806918767
 40
7.972644806918767
 40
7.972644806918767
 40
8.389323015618313
 40
8.774887042536383
 40
9.635609129923907
 40
11.45866901066649
 40
11.45866901066649
 40
11.45866901066649
 40
12.45866901066649
 40
13.45866901066649
 40
14.45866901066649
 40
15.45866901066649
 40
16.45866901066649
 40
17.45866901066649
 40
18.45866901066649
 40
19.45866901066649
 40
20.45866901066649
 40
21.45866901066649
 40
22.45866901066649
 40
23.45866901066649
 40
23.45866901066649
 40
23.45866901066649
 40
23.45866901066649
 10
-8.77873952437084
 20
38.11043562074843
 30
0.0
 41
1.0
 10
-8.493656231439335
 20
35.46819617227706
 30
0.0
 41
0.9999803213218016
 10
-8.117720400403462
 20
32.7823191529821
 30
0.0
 41
0.9999803213218016
 10
-7.759708428091139
 20
30.14896972408969
 30
0.0
 41
1.0
 10
-7.742801399043371
 20
30.01121938053426
 30
0.0
 41
1.0
 10
-7.713829933901527
 20
29.74496397017975
 30
0.0
 41
1.0
 10
-7.700131161497216
 20
29.19069168748111
 30
0.0
 41
1.0
 10
-7.780912660593623
 20
28.16786940596121
 30
0.0
 41
1.0
 10
-8.025215205266148
 20
27.30070210853254
 30
0.0
 41
1.0
 10
-8.244211938214406
 20
26.73425386031296
 30
0.0
 41
1.0
 10
-8.359738300275524
 20
26.43120256129665
 30
0.0
 41
1.0
 10
-8.600736416541954
 20
25.82899189497718
 30
0.0
 41
1.0
 10
-8.955753604807255
 20
24.92313045569833
 30
0.0
 41
1.0
 10
-9.309569388367724
 20
24.01679950556698
 30
0.0
 41
1.0
 10
-9.660791279369255
 20
23.10945806020424
 30
0.0
 41
1.0
 10
-10.00969719216663
 20
22.20122862430204
 30
0.0
 41
1.0
 10
-10.35655401664515
 20
21.29219816892305
 30
0.0
 41
1.0
 10
-10.70000274757743
 20
20.38193152274272
 30
0.0
 41
1.0
 10
-11.04519866490448
 20
19.47211873192825
 30
0.0
 41
1.0
 10
-11.37286674313303
 20
18.55646890277174
 30
0.0
 41
1.0
 10
-11.73246277104857
 20
17.65018417144939
 30
0.0
 41
1.0
 10
-11.97089805120574
 20
16.70828806971166
 30
0.0
 41
1.0
 10
-11.97263764270287
 20
16.04292130530792
 30
0.0
 41
1.0
 10
-11.84461442079466
 20
15.74127321923019
 30
0.0
 41
1.0
  0
SPLINE
  5
17A
330
1F
100
AcDbEntity
  8
Default
100
AcDbSpline
210
0.0
220
0.0
230
1.0
 70
     8
 71
     3
 72
    18
 73
    14
 74
     0
 42
0.0000000001
 43
0.0000000001
 40
0.0
 40
0.0
 40
0.0
 40
0.0
 40
1.0
 40
2.0
 40
3.0
 40
4.0
 40
5.0
 40
6.0
 40
7.0
 40
8.0
 40
9.0
 40
10.0
 40
11.0
 40
11.0
 40
11.0
 40
11.0
 10
-11.84461442079466
 20
15.74127321923019
 30
0.0
 10
-11.67021377752894
 20
15.40239352096253
 30
0.0
 10
-10.96681776878795
 20
15.08688296110741
 30
0.0
 10
-9.880127326827745
 20
14.96369547456694
 30
0.0
 10
-8.780176980807859
 20
14.96364515842859
 30
0.0
 10
-7.68317170238778
 20
14.96940679188873
 30
0.0
 10
-6.585374508111108
 20
14.96326550804081
 30
0.0
 10
-5.487839905903898
 20
14.9523948562915
 30
0.0
 10
-4.390288092325658
 20
14.93787976871216
 30
0.0
 10
-3.29276616839454
 20
14.92243562275907
 30
0.0
 10
-2.195220754752082
 20
14.90834047204572
 30
0.0
 10
-1.097632734437661
 20
14.89798996346356
 30
0.0
 10
-0.3658782512492879
 20
14.89516235157067
 30
0.0
 10
0.000000000000002
 20
14.89516241486996
 30
0.0
  0
SPLINE
  5
17B
330
1F
100
AcDbEntity
  8
Default
100
AcDbSpline
210
0.0
220
0.0
230
1.0
 70
     8
 71
     3
 72
    18
 73
    14
 74
     0
 42
0.0000000001
 43
0.0000000001
 40
-11.0
 40
-11.0
 40
-11.0
 40
-11.0
 40
-10.0
 40
-9.0
 40
-8.0
 40
-7.0
 40
-6.0
 40
-5.0
 40
-4.0
 40
-3.0
 40
-2.0
 40
-1.0
 40
0.0
 40
0.0
 40
0.0
 40
0.0
 10
0.000000000000002
 20
14.89516241486996
 30
0.0
 10
0.365878251249292
 20
14.89516235157067
 30
0.0
 10
1.097632734437665
 20
14.89798996346355
 30
0.0
 10
2.195220754752086
 20
14.90834047204571
 30
0.0
 10
3.292766168394544
 20
14.92243562275906
 30
0.0
 10
4.390288092325663
 20
14.93787976871214
 30
0.0
 10
5.487839905903902
 20
14.95239485629147
 30
0.0
 10
6.585374508111112
 20
14.96326550804078
 30
0.0
 10
7.683171702387784
 20
14.96940679188869
 30
0.0
 10
8.780176980807864
 20
14.96364515842854
 30
0.0
 10
9.88012732682775
 20
14.96369547456689
 30
0.0
 10
10.96681776878795
 20
15.08688296110735
 30
0.0
 10
11.67021377752894
 20
15.40239352096247
 30
0.0
 10
11.84459372489875
 20
15.74127321923015
 30
0.0
  0
SPLINE
  5
17C
330
1F
100
AcDbEntity
  8
Default
100
AcDbSpline
210
0.0
220
0.0
230
1.0
 70
    12
 71
     3
 72
    28
 73
    24
 74
     0
 42
0.0000000001
 43
0.0000000001
 40
-23.45866901066649
 40
-23.45866901066649
 40
-23.45866901066649
 40
-23.45866901066649
 40
-22.45866901066649
 40
-21.45866901066649
 40
-20.45866901066649
 40
-19.45866901066649
 40
-18.45866901066649
 40
-17.45866901066649
 40
-16.45866901066649
 40
-15.45866901066649
 40
-14.45866901066649
 40
-13.45866901066649
 40
-12.45866901066649
 40
-11.45866901066649
 40
-11.45866901066649
 40
-11.45866901066649
 40
-9.635609129923907
 40
-8.774887042536383
 40
-8.389323015618313
 40
-7.972644806918767
 40
-7.972644806918767
 40
-7.972644806918767
 40
0.0
 40
0.0
 40
0.0
 40
0.0
 10
11.84459372489875
 20
15.74127321923015
 30
0.0
 41
1.0
 10
11.97259625091104
 20
16.04292130530792
 30
0.0
 41
1.0
 10
11.97085665941391
 20
16.70828806971166
 30
0.0
 41
1.0
 10
11.73242137925674
 20
17.65018417144939
 30
0.0
 41
1.0
 10
11.37282535134121
 20
18.55646890277174
 30
0.0
 41
1.0
 10
11.04515727311265
 20
19.47211873192825
 30
0.0
 41
1.0
 10
10.6999613557856
 20
20.38193152274272
 30
0.0
 41
1.0
 10
10.35651262485333
 20
21.29219816892305
 30
0.0
 41
1.0
 10
10.0096558003748
 20
22.20122862430204
 30
0.0
 41
1.0
 10
9.660749887577426
 20
23.10945806020424
 30
0.0
 41
1.0
 10
9.309527996575895
 20
24.01679950556698
 30
0.0
 41
1.0
 10
8.955712213015426
 20
24.92313045569833
 30
0.0
 41
1.0
 10
8.600695024750125
 20
25.82899189497718
 30
0.0
 41
1.0
 10
8.359696908483695
 20
26.43120256129665
 30
0.0
 41
1.0
 10
8.244170546422577
 20
26.73425386031296
 30
0.0
 41
1.0
 10
8.02517381347432
 20
27.30070210853254
 30
0.0
 41
1.0
 10
7.780871268801794
 20
28.16786940596121
 30
0.0
 41
1.0
 10
7.700089769705388
 20
29.19069168748111
 30
0.0
 41
1.0
 10
7.713788542109699
 20
29.74496397017975
 30
0.0
 41
1.0
 10
7.742760007251542
 20
30.01121938053426
 30
0.0
 41
1.0
 10
7.759667036299311
 20
30.14896972408969
 30
0.0
 41
1.0
 10
8.117679008611633
 20
32.7823191529821
 30
0.0
 41
0.9999803213218016
 10
8.493614839647508
 20
35.46819617227706
 30
0.0
 41
0.9999803213218016
 10
8.778698132579011
 20
38.11043562074843
 30
0.0
 41
1.0
  0
SPLINE
  5
17D
330
1F
100
AcDbEntity
  8
Default
100
AcDbSpline
210
0.0
220
0.0
230
1.0
 70
     8
 71
     3
 72
    11
 73
     7
 74
     0
 42
0.0000000001
 43
0.0000000001
 40
-2.743097143419929
 40
-2.743097143419929
 40
-2.743097143419929
 40
-2.743097143419929
 40
-1.339748098685043
 40
-0.682399112458213
 40
-0.3325467378781747
 40
0.0
 40
0.0
 40
0.0
 40
0.0
 10
8.778698132579011
 20
38.11043562074843
 30
0.0
 10
8.828766804987717
 20
38.57448744227225
 30
0.0
 10
8.64686041678498
 20
39.28928486716851
 30
0.0
 10
8.03579528999502
 20
39.83827342702536
 30
0.0
 10
7.631866541182868
 20
40.03063711724034
 30
0.0
 10
7.410171449184022
 20
40.08854205244928
 30
0.0
 10
7.30088667994618
 20
40.10590666417526
 30
0.0
  0
SPLINE
  5
17E
330
1F
100
AcDbEntity
  8
Default
100
AcDbSpline
210
0.0
220
0.0
230
1.0
 70
    12
 71
     2
 72
     6
 73
     3
 74
     0
 42
0.0000000001
 43
0.0000000001
 40
-0.3785634867430925
 40
-0.3785634867430925
 40
-0.3785634867430925
 40
0.0
 40
0.0
 40
0.0
 10
7.30088667994618
 20
40.10590666417526
 30
0.0
 41
1.0
 10
7.113371818200783
 20
40.1353096311428
 30
0.0
 41
0.9959393302338803
 10
6.923633760784574
 20
40.13061328133936
 30
0.0
 41
1.0
  0
SPLINE
  5
17F
330
1F
100
AcDbEntity
  8
Default
100
AcDbSpline
210
0.0
220
0.0
230
1.0
 70
    24
 71
     2
 72
     6
 73
     3
 74
     0
 42
0.0000000001
 43
0.0000000001
 40
0.0
 40
0.0
 40
0.0
 40
0.3709331610280567
 40
0.3709331610280567
 40
0.3709331610280567
 10
9.624992430832208
 20
15.38729004448191
 30
0.0
 10
9.624952259960521
 20
15.57529513009644
 30
0.0
 10
9.624912089088834
 20
15.76330021571096
 30
0.0
  0
SPLINE
  5
180
330
1F
100
AcDbEntity
  8
Default
100
AcDbSpline
210
0.0
220
0.0
230
1.0
 70
     8
 71
     3
 72
    12
 73
     8
 74
     0
 42
0.0000000001
 43
0.0000000001
 40
0.0
 40
0.0
 40
0.0
 40
0.0
 40
0.1195530801918726
 40
0.2452458973806048
 40
0.5491896479788391
 40
1.036657499911663
 40
1.758696564887424
 40
1.758696564887424
 40
1.758696564887424
 40
1.758696564887424
 10
9.624912089088834
 20
15.76330021571096
 30
0.0
 10
9.623146479844486
 20
15.80854453268537
 30
0.0
 10
9.606766045556464
 20
15.88881469932334
 30
0.0
 10
9.503805018400927
 20
16.04676777476692
 30
0.0
 10
9.2318493406793
 20
16.19804728269224
 30
0.0
 10
8.74525585508102
 20
16.33209333285439
 30
0.0
 10
8.347935012153089
 20
16.40458037238552
 30
0.0
 10
8.110143422735884
 20
16.44070513442885
 30
0.0
  0
SPLINE
  5
181
330
1F
100
AcDbEntity
  8
Default
100
AcDbSpline
210
0.0
220
0.0
230
1.0
 70
    12
 71
     3
 72
    12
 73
     8
 74
     0
 42
0.0000000001
 43
0.0000000001
 40
0.3359610780357872
 40
0.3359610780357872
 40
0.3359610780357872
 40
0.3359610780357872
 40
0.4999999989962435
 40
0.4999999989962435
 40
0.74999999982478
 40
0.74999999982478
 40
1.0
 40
1.0
 40
1.0
 40
1.0
 10
8.110143422735884
 20
16.44070513442885
 30
0.0
 41
1.0
 10
7.695923563261617
 20
16.50473064857855
 30
0.0
 41
1.0
 10
7.192477162061444
 20
16.56374066650751
 30
0.0
 41
1.0
 10
5.739409628439899
 20
16.69499125754832
 30
0.0
 41
1.0
 10
4.69561260935621
 20
16.75789950217849
 30
0.0
 41
1.0
 10
2.434116903581726
 20
16.84262106004349
 30
0.0
 41
1.0
 10
1.216462043473545
 20
16.86451082896366
 30
0.0
 41
1.0
 10
-0.0000000058993148
 20
16.86450915704613
 30
0.0
 41
1.0
  0
SPLINE
  5
182
330
1F
100
AcDbEntity
  8
Default
100
AcDbSpline
210
0.0
220
0.0
230
1.0
 70
    12
 71
     3
 72
    12
 73
     8
 74
     0
 42
0.0000000001
 43
0.0000000001
 40
-1.0
 40
-1.0
 40
-1.0
 40
-1.0
 40
-0.74999999982478
 40
-0.74999999982478
 40
-0.4999999989962435
 40
-0.4999999989962435
 40
-0.3359610780357872
 40
-0.3359610780357872
 40
-0.3359610780357872
 40
-0.3359610780357872
 10
-0.0000000058993148
 20
16.86450915704613
 30
0.0
 41
1.0
 10
-1.216462055272174
 20
16.86451082896366
 30
0.0
 41
1.0
 10
-2.434116915380356
 20
16.84262106004349
 30
0.0
 41
1.0
 10
-4.69561262115484
 20
16.75789950217849
 30
0.0
 41
1.0
 10
-5.739409640238529
 20
16.69499125754832
 30
0.0
 41
1.0
 10
-7.192477173860073
 20
16.56374066650751
 30
0.0
 41
1.0
 10
-7.695923575060247
 20
16.50473064857855
 30
0.0
 41
1.0
 10
-8.110143434534514
 20
16.44070513442885
 30
0.0
 41
1.0
  0
SPLINE
  5
183
330
1F
100
AcDbEntity
  8
Default
100
AcDbSpline
210
0.0
220
0.0
230
1.0
 70
     8
 71
     3
 72
    12
 73
     8
 74
     0
 42
0.0000000001
 43
0.0000000001
 40
-1.758696564887424
 40
-1.758696564887424
 40
-1.758696564887424
 40
-1.758696564887424
 40
-1.036657499911663
 40
-0.5491896479788391
 40
-0.2452458973806048
 40
-0.1195530801918726
 40
0.0
 40
0.0
 40
0.0
 40
0.0
 10
-8.110143434534514
 20
16.44070513442885
 30
0.0
 10
-8.347935023951718
 20
16.40458037238552
 30
0.0
 10
-8.74525586687965
 20
16.33209333285439
 30
0.0
 10
-9.23184935247793
 20
16.19804728269224
 30
0.0
 10
-9.503805030199556
 20
16.04676777476692
 30
0.0
 10
-9.606766057355093
 20
15.88881469932334
 30
0.0
 10
-9.623146491643116
 20
15.80854453268537
 30
0.0
 10
-9.624912094988149
 20
15.76330021571096
 30
0.0
  0
SPLINE
  5
184
330
1F
100
AcDbEntity
  8
Default
100
AcDbSpline
210
0.0
220
0.0
230
1.0
 70
    24
 71
     2
 72
     6
 73
     3
 74
     0
 42
0.0000000001
 43
0.0000000001
 40
-0.3709331610280567
 40
-0.3709331610280567
 40
-0.3709331610280567
 40
0.0
 40
0.0
 40
0.0
 10
-9.624912094988149
 20
15.76330021571096
 30
0.0
 10
-9.624952262910178
 20
15.57529513009644
 30
0.0
 10
-9.624992430832208
 20
15.38729004448191
 30
0.0
  0
SPLINE
  5
185
330
1F
100
AcDbEntity
  8
Default
100
AcDbSpline
210
0.0
220
0.0
230
1.0
 70
     8
 71
     3
 72
    32
 73
    28
 74
     0
 42
0.0000000001
 43
0.0000000001
 40
0.0
 40
0.0
 40
0.0
 40
0.0
 40
0.6424106210978217
 40
1.298318980594535
 40
1.468720655577004
 40
1.876899736031634
 40
4.922730948266024
 40
7.518234996431048
 40
9.414146423882848
 40
9.650465074221067
 40
10.16737509444177
 40
11.17511187797939
 40
12.27047498261846
 40
12.79407765966534
 40
13.06111085975148
 40
13.75139800275023
 40
17.85756791929135
 40
19.73368215550339
 40
20.71077241959481
 40
21.313976935579
 40
21.94927503485069
 40
22.40261661001096
 40
22.4631788319427
 40
22.81476421675537
 40
23.12397591297002
 40
24.03366187863583
 40
24.83721965664489
 40
24.83721965664489
 40
24.83721965664489
 40
24.83721965664489
 10
8.449831579929866
 20
39.40638964977295
 30
0.0
 10
8.577051968411725
 20
39.23392507136185
 30
0.0
 10
8.768140081120931
 20
38.8384596604467
 30
0.0
 10
8.822353621409734
 20
38.34472251990864
 30
0.0
 10
8.779995385131828
 20
37.93523413689143
 30
0.0
 10
8.627800300787724
 20
36.73677619343385
 30
0.0
 10
8.391799301892467
 20
34.73405045637397
 30
0.0
 10
8.071300827207208
 20
32.24215958964136
 30
0.0
 10
7.867906857596415
 20
30.67943970807316
 30
0.0
 10
7.746569814725005
 20
29.80472940097448
 30
0.0
 10
7.722643675223042
 20
29.2170663288572
 30
0.0
 10
7.792442883691896
 20
28.34443561890815
 30
0.0
 10
8.000061796427103
 20
27.49064099544424
 30
0.0
 10
8.201188386114014
 20
26.89548998265223
 30
0.0
 10
8.383180143152826
 20
26.43620538035725
 30
0.0
 10
8.989289199736357
 20
24.86127464082104
 30
0.0
 10
9.804252954030476
 20
22.79138306517061
 30
0.0
 10
10.66343113982082
 20
20.63680082959335
 30
0.0
 10
11.095456779335
 20
19.56862909474984
 30
0.0
 10
11.37303393804173
 20
18.88429549145088
 30
0.0
 10
11.58676694029363
 20
18.36238783607108
 30
0.0
 10
11.73272140948807
 20
18.00823092218879
 30
0.0
 10
11.8426905758851
 20
17.74151007803147
 30
0.0
 10
11.93757348974656
 20
17.52087708481928
 30
0.0
 10
12.12721863800258
 20
17.03176453812205
 30
0.0
 10
12.27914715764935
 20
16.37215922236443
 30
0.0
 10
12.26850423649409
 20
15.73393655158893
 30
0.0
 10
12.2069573416295
 20
15.47257653232771
 30
0.0
  0
SPLINE
  5
186
330
1F
100
AcDbEntity
  8
Default
100
AcDbSpline
210
0.0
220
0.0
230
1.0
 70
     8
 71
     3
 72
    33
 73
    29
 74
     0
 42
0.0000000001
 43
0.0000000001
 40
-24.0
 40
-24.0
 40
-24.0
 40
-24.0
 40
-23.0
 40
-22.0
 40
-21.0
 40
-20.0
 40
-19.0
 40
-18.0
 40
-17.0
 40
-16.0
 40
-15.0
 40
-14.0
 40
-13.0
 40
-12.0
 40
-12.0
 40
-12.0
 40
-11.0
 40
-10.0
 40
-9.0
 40
-8.0
 40
-7.0
 40
-6.0
 40
-5.0
 40
-4.0
 40
-3.0
 40
-2.0
 40
-1.0
 40
0.0
 40
0.0
 40
0.0
 40
0.0
 10
12.2069573416295
 20
15.47257653232771
 30
0.0
 10
12.11998345337332
 20
15.10324031869954
 30
0.0
 10
11.79214251257317
 20
14.33106924946756
 30
0.0
 10
10.95577255845214
 20
13.53187500656589
 30
0.0
 10
9.98438956080137
 20
12.93074185895093
 30
0.0
 10
8.959272776780995
 20
12.42727616785485
 30
0.0
 10
7.89756929056957
 20
12.00713032357104
 30
0.0
 10
6.802827470281434
 20
11.68200307236306
 30
0.0
 10
5.685970876349192
 20
11.44518565058909
 30
0.0
 10
4.556569255885607
 20
11.28036415542504
 30
0.0
 10
3.420681601274934
 20
11.17043725378635
 30
0.0
 10
2.281510631997752
 20
11.10415401563715
 30
0.0
 10
1.140940846995352
 20
11.07194749928382
 30
0.0
 10
0.380309559374678
 20
11.06649093301054
 30
0.0
 10
-0.0000000000000462
 20
11.06612509460412
 30
0.0
 10
-0.3803095593747704
 20
11.0664909330105
 30
0.0
 10
-1.140940846995445
 20
11.07194749928371
 30
0.0
 10
-2.281510631997848
 20
11.10415401563693
 30
0.0
 10
-3.420681601275036
 20
11.17043725378603
 30
0.0
 10
-4.55656925588572
 20
11.28036415542461
 30
0.0
 10
-5.68597087634932
 20
11.44518565058855
 30
0.0
 10
-6.802827470281584
 20
11.68200307236242
 30
0.0
 10
-7.89756929056975
 20
12.0071303235703
 30
0.0
 10
-8.959272776781216
 20
12.42727616785401
 30
0.0
 10
-9.984389560801636
 20
12.93074185894999
 30
0.0
 10
-10.95577255845246
 20
13.53187500656486
 30
0.0
 10
-11.79214251257357
 20
14.33106924946645
 30
0.0
 10
-12.11998345337355
 20
15.10324031869897
 30
0.0
 10
-12.20695734162975
 20
15.47257653232714
 30
0.0
  0
SPLINE
  5
187
330
1F
100
AcDbEntity
  8
Default
100
AcDbSpline
210
0.0
220
0.0
230
1.0
 70
     8
 71
     3
 72
    32
 73
    28
 74
     0
 42
0.0000000001
 43
0.0000000001
 40
-24.83721965664489
 40
-24.83721965664489
 40
-24.83721965664489
 40
-24.83721965664489
 40
-24.03366187863583
 40
-23.12397591297002
 40
-22.81476421675537
 40
-22.4631788319427
 40
-22.40261661001096
 40
-21.94927503485069
 40
-21.313976935579
 40
-20.71077241959481
 40
-19.73368215550339
 40
-17.85756791929135
 40
-13.75139800275023
 40
-13.06111085975148
 40
-12.79407765966534
 40
-12.27047498261846
 40
-11.17511187797939
 40
-10.16737509444177
 40
-9.650465074221067
 40
-9.414146423882848
 40
-7.518234996431048
 40
-4.922730948266024
 40
-1.876899736031634
 40
-1.468720655577004
 40
-1.298318980594535
 40
-0.6424106210978217
 40
0.0
 40
0.0
 40
0.0
 40
0.0
 10
-12.20695734162975
 20
15.47257653232714
 30
0.0
 10
-12.26850423649435
 20
15.73393655158836
 30
0.0
 10
-12.27914715764935
 20
16.37215922236443
 30
0.0
 10
-12.12721863800258
 20
17.03176453812205
 30
0.0
 10
-11.93757348974656
 20
17.52087708481928
 30
0.0
 10
-11.8426905758851
 20
17.74151007803147
 30
0.0
 10
-11.73272140948807
 20
18.00823092218879
 30
0.0
 10
-11.58676694029363
 20
18.36238783607108
 30
0.0
 10
-11.37303393804173
 20
18.88429549145088
 30
0.0
 10
-11.095456779335
 20
19.56862909474984
 30
0.0
 10
-10.66343113982082
 20
20.63680082959335
 30
0.0
 10
-9.804252954030476
 20
22.79138306517061
 30
0.0
 10
-8.989289199736357
 20
24.86127464082104
 30
0.0
 10
-8.383180143152826
 20
26.43620538035725
 30
0.0
 10
-8.201188386114014
 20
26.89548998265223
 30
0.0
 10
-8.000061796427103
 20
27.49064099544424
 30
0.0
 10
-7.792442883691896
 20
28.34443561890815
 30
0.0
 10
-7.722643675223042
 20
29.2170663288572
 30
0.0
 10
-7.746569814725005
 20
29.80472940097448
 30
0.0
 10
-7.867906857596415
 20
30.67943970807316
 30
0.0
 10
-8.071300827207208
 20
32.24215958964136
 30
0.0
 10
-8.391799301892467
 20
34.73405045637397
 30
0.0
 10
-8.627800300787724
 20
36.73677619343385
 30
0.0
 10
-8.779995385131828
 20
37.93523413689143
 30
0.0
 10
-8.822353621409734
 20
38.34472251990864
 30
0.0
 10
-8.768140081120931
 20
38.8384596604467
 30
0.0
 10
-8.577051968411725
 20
39.23392507136185
 30
0.0
 10
-8.449831579929866
 20
39.40638964977295
 30
0.0
  0
SPLINE
  5
188
330
1F
100
AcDbEntity
  8
Default
100
AcDbSpline
210
0.0
220
0.0
230
1.0
 70
     8
 71
     3
 72
    34
 73
    30
 74
     0
 42
0.0000000001
 43
0.0000000001
 40
0.0
 40
0.0
 40
0.0
 40
0.0
 40
1.0
 40
2.0
 40
3.0
 40
4.0
 40
5.0
 40
6.0
 40
7.0
 40
8.0
 40
9.0
 40
10.0
 40
11.0
 40
12.0
 40
13.0
 40
14.0
 40
15.0
 40
16.0
 40
17.0
 40
18.0
 40
19.0
 40
20.0
 40
21.0
 40
22.0
 40
23.0
 40
24.0
 40
25.0
 40
26.0
 40
27.0
 40
27.0
 40
27.0
 40
27.0
 10
27.00751392863107
 20
40.13036764668717
 30
0.0
 10
27.25207575115945
 20
39.92783612035122
 30
0.0
 10
27.42309604201856
 20
39.27208183121086
 30
0.0
 10
27.64696501182733
 20
38.33958273644754
 30
0.0
 10
27.74086738495905
 20
37.36856318748462
 30
0.0
 10
27.87491364368681
 20
36.40846244185234
 30
0.0
 10
28.01939439126654
 20
35.44837803176269
 30
0.0
 10
28.1877613691324
 20
34.49254757083345
 30
0.0
 10
28.37541562538983
 20
33.54024258124431
 30
0.0
 10
28.58381803557695
 20
32.5922678768791
 30
0.0
 10
28.81911258033271
 20
31.65050800768073
 30
0.0
 10
29.08855661329029
 20
30.7180112740693
 30
0.0
 10
29.39297503565837
 20
29.7959736414341
 30
0.0
 10
29.76672310845015
 20
28.89939624170185
 30
0.0
 10
30.20817033423789
 20
28.0343802218652
 30
0.0
 10
30.71246868734735
 20
27.2040546963964
 30
0.0
 10
31.28526201613991
 20
26.41997330970323
 30
0.0
 10
31.88751161597591
 20
25.6588219777584
 30
0.0
 10
32.50428409244819
 20
24.90937955357268
 30
0.0
 10
33.13780998287058
 20
24.17403387308191
 30
0.0
 10
33.78659751522612
 20
23.45213523619785
 30
0.0
 10
34.44901179448522
 20
22.74273090622368
 30
0.0
 10
35.12365930693205
 20
22.04495780097179
 30
0.0
 10
35.80950161697007
 20
21.35819218135198
 30
0.0
 10
36.50549106023519
 20
20.68171839707259
 30
0.0
 10
37.21063784891045
 20
20.01480182922458
 30
0.0
 10
37.92396503320963
 20
19.35664756085824
 30
0.0
 10
38.64469496456131
 20
18.70661357898178
 30
0.0
 10
39.18518352051606
 20
18.22497639017424
 30
0.0
 10
39.4309371843482
 20
18.01457539410449
 30
0.0
  0
SPLINE
  5
189
330
1F
100
AcDbEntity
  8
Default
100
AcDbSpline
210
0.0
220
0.0
230
1.0
 70
     8
 71
     3
 72
    22
 73
    18
 74
     0
 42
0.0000000001
 43
0.0000000001
 40
0.0
 40
0.0
 40
0.0
 40
0.0
 40
1.0
 40
2.0
 40
3.0
 40
4.0
 40
5.0
 40
6.0
 40
7.0
 40
8.0
 40
9.0
 40
10.0
 40
11.0
 40
12.0
 40
13.0
 40
14.0
 40
15.0
 40
15.0
 40
15.0
 40
15.0
 10
39.4309371843482
 20
18.01457539410449
 30
0.0
 10
39.69725038337263
 20
17.78657243590833
 30
0.0
 10
40.33625319108931
 20
17.33873374877802
 30
0.0
 10
41.27238840082892
 20
16.85642742173975
 30
0.0
 10
42.24885903796432
 20
16.4632454843268
 30
0.0
 10
43.24557886918589
 20
16.12637362254528
 30
0.0
 10
44.26016428059633
 20
15.8471874932415
 30
0.0
 10
45.28821318574388
 20
15.62348259646037
 30
0.0
 10
46.3245112775998
 20
15.44284997806587
 30
0.0
 10
47.36373379519067
 20
15.28038944632208
 30
0.0
 10
48.40596942103515
 20
15.13829265982378
 30
0.0
 10
49.45198633257475
 20
15.02625714001573
 30
0.0
 10
50.50243924249448
 20
14.96460886895307
 30
0.0
 10
51.55443377610321
 20
14.96246610504734
 30
0.0
 10
52.60621209027651
 20
14.97184865349546
 30
0.0
 10
53.65795753182353
 20
14.95101450111673
 30
0.0
 10
54.35841054011284
 20
14.91711861957742
 30
0.0
 10
54.70832903240181
 20
14.89516220262914
 30
0.0
  0
SPLINE
  5
18A
330
1F
100
AcDbEntity
  8
Default
100
AcDbSpline
210
0.0
220
0.0
230
1.0
 70
     8
 71
     3
 72
    24
 73
    20
 74
     0
 42
0.0000000001
 43
0.0000000001
 40
0.0
 40
0.0
 40
0.0
 40
0.0
 40
1.0
 40
2.0
 40
3.0
 40
4.0
 40
5.0
 40
6.0
 40
7.0
 40
8.0
 40
9.0
 40
10.0
 40
11.0
 40
12.0
 40
13.0
 40
14.0
 40
15.0
 40
16.0
 40
17.0
 40
17.0
 40
17.0
 40
17.0
 10
54.70832928525289
 20
14.89516241486996
 30
0.0
 10
54.72002462024192
 20
14.61797849658732
 30
0.0
 10
54.39156929481673
 20
14.165040455332
 30
0.0
 10
53.73348569263545
 20
13.71749207930867
 30
0.0
 10
53.01885783224215
 20
13.36077222805714
 30
0.0
 10
52.28403470790958
 20
13.05307661203492
 30
0.0
 10
51.53590833787862
 20
12.77837264104635
 30
0.0
 10
50.7800818361891
 20
12.5261715185635
 30
0.0
 10
50.01621484197032
 20
12.29925516273676
 30
0.0
 10
49.24558728929647
 20
12.09665973141969
 30
0.0
 10
48.47010197499385
 20
11.9136033554217
 30
0.0
 10
47.69000173989782
 20
11.75130414467961
 30
0.0
 10
46.90593399501499
 20
11.60937215729535
 30
0.0
 10
46.11831513915848
 20
11.48882532934604
 30
0.0
 10
45.32845623139566
 20
11.38406499864915
 30
0.0
 10
44.53637716870143
 20
11.29756891089072
 30
0.0
 10
43.74262693823947
 20
11.22814474795072
 30
0.0
 10
42.94769630483606
 20
11.17417105066734
 30
0.0
 10
42.41727416304494
 20
11.14599549722675
 30
0.0
 10
42.15198234334186
 20
11.13366892312685
 30
0.0
  0
SPLINE
  5
18B
330
1F
100
AcDbEntity
  8
Default
100
AcDbSpline
210
0.0
220
0.0
230
1.0
 70
     8
 71
     3
 72
    34
 73
    30
 74
     0
 42
0.0000000001
 43
0.0000000001
 40
-27.0
 40
-27.0
 40
-27.0
 40
-27.0
 40
-26.0
 40
-25.0
 40
-24.0
 40
-23.0
 40
-22.0
 40
-21.0
 40
-20.0
 40
-19.0
 40
-18.0
 40
-17.0
 40
-16.0
 40
-15.0
 40
-14.0
 40
-13.0
 40
-12.0
 40
-11.0
 40
-10.0
 40
-9.0
 40
-8.0
 40
-7.0
 40
-6.0
 40
-5.0
 40
-4.0
 40
-3.0
 40
-2.0
 40
-1.0
 40
0.0
 40
0.0
 40
0.0
 40
0.0
 10
42.15198234334186
 20
11.13366892312685
 30
0.0
 10
41.70231628994703
 20
11.1148220168235
 30
0.0
 10
40.80232461896499
 20
11.07307474653706
 30
0.0
 10
39.45332592564564
 20
11.06461483900882
 30
0.0
 10
38.09724653582261
 20
11.08447350811397
 30
0.0
 10
36.78560534801828
 20
11.45162635553696
 30
0.0
 10
35.59085526142198
 20
12.09585850027161
 30
0.0
 10
34.55072148608519
 20
12.96776059840591
 30
0.0
 10
33.68734970857533
 20
14.01148519753664
 30
0.0
 10
32.96410888369876
 20
15.15381025850171
 30
0.0
 10
32.31985131796932
 20
16.34107032691725
 30
0.0
 10
31.72032758983903
 20
17.55141036084084
 30
0.0
 10
31.16088210661511
 20
18.7807431990057
 30
0.0
 10
30.63464833501962
 20
20.0245984455218
 30
0.0
 10
30.13748444114101
 20
21.28033644496974
 30
0.0
 10
29.66688614892898
 20
22.54625107136222
 30
0.0
 10
29.22003954700534
 20
23.82073366587725
 30
0.0
 10
28.79624073742913
 20
25.1030583133279
 30
0.0
 10
28.39416623226404
 20
26.39235519643565
 30
0.0
 10
28.01409130160626
 20
27.68832011123625
 30
0.0
 10
27.65892006628432
 20
28.99133072195522
 30
0.0
 10
27.32659264560303
 20
30.30034980088486
 30
0.0
 10
27.01917176854104
 20
31.61544700331385
 30
0.0
 10
26.73483617350402
 20
32.9357076917461
 30
0.0
 10
26.48277371263136
 20
34.26264972448586
 30
0.0
 10
26.28132118749483
 20
35.59830700736084
 30
0.0
 10
26.03504159879057
 20
36.92596870330738
 30
0.0
 10
25.84175581819187
 20
38.26421616752557
 30
0.0
 10
25.85888514990621
 20
39.16920713824268
 30
0.0
 10
25.93106838527339
 20
39.61407138059646
 30
0.0
  0
SPLINE
  5
18C
330
1F
100
AcDbEntity
  8
Default
100
AcDbSpline
210
0.0
220
0.0
230
1.0
 70
    12
 71
     2
 72
     6
 73
     3
 74
     0
 42
0.0000000001
 43
0.0000000001
 40
0.0
 40
0.0
 40
0.0
 40
0.4209017355309934
 40
0.4209017355309934
 40
0.4209017355309934
 10
25.93106838527339
 20
39.61407138059646
 30
0.0
 41
1.0
 10
25.96731212036713
 20
39.83762946868085
 30
0.0
 41
0.8971587373399337
 10
26.16659738900103
 20
39.94522690725177
 30
0.0
 41
1.0
  0
SPLINE
  5
18D
330
1F
100
AcDbEntity
  8
Default
100
AcDbSpline
210
0.0
220
0.0
230
1.0
 70
    12
 71
     2
 72
     6
 73
     3
 74
     0
 42
0.0000000001
 43
0.0000000001
 40
0.0
 40
0.0
 40
0.0
 40
0.1234961689395858
 40
0.1234961689395858
 40
0.1234961689395858
 10
26.16659738900103
 20
39.94522690725177
 30
0.0
 41
1.0
 10
26.22124619128783
 20
39.97476470141369
 30
0.0
 41
0.9910177399897298
 10
26.28177811096189
 20
39.98872396410915
 30
0.0
 41
0.9999998701185537
  0
LINE
  5
18E
330
1F
100
AcDbEntity
  8
Default
100
AcDbLine
 10
26.28177811096189
 20
39.98872396410915
 30
0.0
 11
26.90567827114741
 21
40.11787527756776
 31
0.0
  0
ARC
  5
18F
330
1F
100
AcDbEntity
  8
Default
100
AcDbCircle
 10
27.05084157701346
 20
39.33470822218067
 30
0.0
 40
0.796506762063976
100
AcDbArc
 50
91.13259797477671
 51
100.5008396838767
  0
SPLINE
  5
190
330
1F
100
AcDbEntity
  8
Default
100
AcDbSpline
210
0.0
220
0.0
230
1.0
 70
     8
 71
     3
 72
    12
 73
     8
 74
     0
 42
0.0000000001
 43
0.0000000001
 40
-2.606006201869095
 40
-2.606006201869095
 40
-2.606006201869095
 40
-2.606006201869095
 40
-2.062103506473873
 40
-1.535302400419122
 40
-0.9140405444755764
 40
-0.4920948819900433
 40
0.0
 40
0.0
 40
0.0
 40
0.0
 10
27.03509760419831
 20
40.13105936918408
 30
0.0
 10
27.21412029428892
 20
40.13065724619084
 30
0.0
 10
27.57968693224434
 20
40.05802708021211
 30
0.0
 10
28.0040208341275
 20
39.65729237713663
 30
0.0
 10
28.16853487509287
 20
39.1481726495628
 30
0.0
 10
28.26568211741616
 20
38.65009043921502
 30
0.0
 10
28.29775836655003
 20
38.34423134584868
 30
0.0
 10
28.31202445031245
 20
38.18157879977636
 30
0.0
  0
SPLINE
  5
191
330
1F
100
AcDbEntity
  8
Default
100
AcDbSpline
210
0.0
220
0.0
230
1.0
 70
     8
 71
     3
 72
    15
 73
    11
 74
     0
 42
0.0000000001
 43
0.0000000001
 40
-21.83709541928446
 40
-21.83709541928446
 40
-21.83709541928446
 40
-21.83709541928446
 40
-15.86097707733612
 40
-13.51735338496346
 40
-11.52407042396374
 40
-10.56956849323673
 40
-9.591457002415686
 40
-6.705726068325542
 40
-3.609035176853501
 40
0.0
 40
0.0
 40
0.0
 40
0.0
 10
28.31202445031245
 20
38.18157879977636
 30
0.0
 10
28.46923089032931
 20
36.19610279608082
 30
0.0
 10
28.8233646682025
 20
33.43885911293603
 30
0.0
 10
29.69122261496101
 20
30.1062365261002
 30
0.0
 10
30.37372217995951
 20
28.47479876468758
 30
0.0
 10
31.01896631845976
 20
27.33421364189144
 30
0.0
 10
31.93280566699256
 20
26.01278091748521
 30
0.0
 10
33.3775248326134
 20
24.19476045492672
 30
0.0
 10
35.53474092817943
 20
21.83343735946088
 30
0.0
 10
37.12703626813068
 20
20.26371016121163
 30
0.0
 10
37.99673781227465
 20
19.43116292312007
 30
0.0
  0
SPLINE
  5
192
330
1F
100
AcDbEntity
  8
Default
100
AcDbSpline
210
0.0
220
0.0
230
1.0
 70
     8
 71
     3
 72
    12
 73
     8
 74
     0
 42
0.0000000001
 43
0.0000000001
 40
-5.412612014507102
 40
-5.412612014507102
 40
-5.412612014507102
 40
-5.412612014507102
 40
-3.494198309793693
 40
-2.478600565121187
 40
-1.284359084682002
 40
-0.6842630651034578
 40
0.0
 40
0.0
 40
0.0
 40
0.0
 10
37.99673781227465
 20
19.43116292312007
 30
0.0
 10
38.4641804548541
 20
18.99388763215164
 30
0.0
 10
39.16708475574377
 20
18.31167006690452
 30
0.0
 10
40.24940148682727
 20
17.45945746496021
 30
0.0
 10
41.06500731098329
 20
16.99150886702104
 30
0.0
 10
41.8145238999152
 20
16.6461375386484
 30
0.0
 10
42.21663067476263
 20
16.49588911827262
 30
0.0
 10
42.43037943839416
 20
16.41734423450624
 30
0.0
  0
SPLINE
  5
193
330
1F
100
AcDbEntity
  8
Default
100
AcDbSpline
210
0.0
220
0.0
230
1.0
 70
     8
 71
     3
 72
     8
 73
     4
 74
     0
 42
0.0000000001
 43
0.0000000001
 40
-1.0
 40
-1.0
 40
-1.0
 40
-1.0
 40
0.0
 40
0.0
 40
0.0
 40
0.0
 10
42.43037943839416
 20
16.41734423450624
 30
0.0
 10
42.65769145585951
 20
16.3338153490653
 30
0.0
 10
42.88778991320874
 20
16.25794300527615
 30
0.0
 10
43.11825562565475
 20
16.18355629023959
 30
0.0
  0
SPLINE
  5
194
330
1F
100
AcDbEntity
  8
Default
100
AcDbSpline
210
0.0
220
0.0
230
1.0
 70
    12
 71
     2
 72
     6
 73
     3
 74
     0
 42
0.0000000001
 43
0.0000000001
 40
-1.676263070515252
 40
-1.676263070515252
 40
-1.676263070515252
 40
0.0
 40
0.0
 40
0.0
 10
43.11825562565475
 20
16.18355629023959
 30
0.0
 41
1.0
 10
43.91752314307197
 20
15.92557915157941
 30
0.0
 41
0.9968989068340275
 10
44.74782754852329
 20
15.79614652515628
 30
0.0
 41
1.0
  0
SPLINE
  5
195
330
1F
100
AcDbEntity
  8
Default
100
AcDbSpline
210
0.0
220
0.0
230
1.0
 70
     8
 71
     3
 72
    12
 73
     8
 74
     0
 42
0.0000000001
 43
0.0000000001
 40
-6.331181159550773
 40
-6.331181159550773
 40
-6.331181159550773
 40
-6.331181159550773
 40
-4.733676321125997
 40
-2.795445328871188
 40
-1.366340297010643
 40
-0.6888967342434948
 40
0.0
 40
0.0
 40
0.0
 40
0.0
 10
44.74782754852329
 20
15.79614652515628
 30
0.0
 10
45.27514217688427
 20
15.71803649471146
 30
0.0
 10
46.44683478227925
 20
15.58956856627382
 30
0.0
 10
48.09627730599105
 20
15.45229836060727
 30
0.0
 10
49.44327767829311
 20
15.38821528863375
 30
0.0
 10
50.37523039492496
 20
15.38095132388318
 30
0.0
 10
50.83059350590537
 20
15.38660450999017
 30
0.0
 10
51.06017674637705
 20
15.39253388959993
 30
0.0
  0
SPLINE
  5
196
330
1F
100
AcDbEntity
  8
Default
100
AcDbSpline
210
0.0
220
0.0
230
1.0
 70
     8
 71
     3
 72
     8
 73
     4
 74
     0
 42
0.0000000001
 43
0.0000000001
 40
-1.0
 40
-1.0
 40
-1.0
 40
-1.0
 40
0.0
 40
0.0
 40
0.0
 40
0.0
 10
51.06017674637705
 20
15.39253388959993
 30
0.0
 10
51.4203375019524
 20
15.40183565673221
 30
0.0
 10
51.78074106389683
 20
15.40050798501616
 30
0.0
 10
52.14085112370489
 20
15.41160021443262
 30
0.0
  0
SPLINE
  5
197
330
1F
100
AcDbEntity
  8
Default
100
AcDbSpline
210
0.0
220
0.0
230
1.0
 70
     8
 71
     3
 72
    14
 73
    10
 74
     0
 42
0.0000000001
 43
0.0000000001
 40
-7.0
 40
-7.0
 40
-7.0
 40
-7.0
 40
-6.0
 40
-5.0
 40
-4.0
 40
-3.0
 40
-2.0
 40
-1.0
 40
0.0
 40
0.0
 40
0.0
 40
0.0
 10
52.14085112370489
 20
15.41160021443262
 30
0.0
 10
52.27440394771725
 20
15.41571395278236
 30
0.0
 10
52.54154992701034
 20
15.42111769249777
 30
0.0
 10
52.94254107533989
 20
15.41953279251043
 30
0.0
 10
53.3427456949714
 20
15.40636358322339
 30
0.0
 10
53.74453947479189
 20
15.38182037958578
 30
0.0
 10
54.13704329777282
 20
15.33834697532401
 30
0.0
 10
54.55814109869642
 20
15.29744581453415
 30
0.0
 10
54.7028821890156
 20
15.02676343594662
 30
0.0
 10
54.70832928525289
 20
14.89516241486996
 30
0.0
  0
SPLINE
  5
198
330
1F
100
AcDbEntity
  8
Default
100
AcDbSpline
210
0.0
220
0.0
230
1.0
 70
    24
 71
     2
 72
     6
 73
     3
 74
     0
 42
0.0000000001
 43
0.0000000001
 40
0.0
 40
0.0
 40
0.0
 40
1.314822148069673
 40
1.314822148069673
 40
1.314822148069673
 10
54.20867272853806
 20
15.32993120188916
 30
0.0
 10
54.14703334628412
 20
15.98444621838533
 30
0.0
 10
54.08539396403017
 20
16.63896123488151
 30
0.0
  0
SPLINE
  5
199
330
1F
100
AcDbEntity
  8
Default
100
AcDbSpline
210
0.0
220
0.0
230
1.0
 70
    12
 71
     2
 72
     6
 73
     3
 74
     0
 42
0.0000000001
 43
0.0000000001
 40
0.0
 40
0.0
 40
0.0
 40
0.3467243252475387
 40
0.3467243252475387
 40
0.3467243252475387
 10
54.08539396403017
 20
16.63896123488151
 30
0.0
 41
1.0
 10
54.04489649279819
 20
16.84950397304367
 30
0.0
 41
0.7690462387954616
 10
53.83778604141408
 20
16.86626571039655
 30
0.0
 41
1.0
  0
SPLINE
  5
19A
330
1F
100
AcDbEntity
  8
Default
100
AcDbSpline
210
0.0
220
0.0
230
1.0
 70
    12
 71
     3
 72
    16
 73
    12
 74
     0
 42
0.0000000001
 43
0.0000000001
 40
-7.642831826985982
 40
-7.642831826985982
 40
-7.642831826985982
 40
-7.642831826985982
 40
-7.207258297971308
 40
-6.573307433294788
 40
-4.800874885716957
 40
-2.543891929489456
 40
-1.298549380639849
 40
0.0
 40
0.0
 40
0.0
 40
3.292290231706387
 40
3.292290231706387
 40
3.292290231706387
 40
3.292290231706387
 10
53.83778604141408
 20
16.86626571039655
 30
0.0
 41
1.0
 10
53.69304923964943
 20
16.87797946139397
 30
0.0
 41
1.0
 10
53.31532447559037
 20
16.88901989551501
 30
0.0
 41
1.0
 10
52.3679403057666
 20
16.88432175174702
 30
0.0
 41
1.0
 10
50.81418841489669
 20
16.83323401127983
 30
0.0
 41
1.0
 10
49.05813589176012
 20
16.74509611069086
 30
0.0
 41
1.0
 10
47.46073593872514
 20
16.64837278491913
 30
0.0
 41
1.0
 10
46.61467721491668
 20
16.59174505953101
 30
0.0
 41
1.0
 10
46.18289330909576
 20
16.56129758007648
 30
0.0
 41
1.0
 10
45.08806152446164
 20
16.48409491499465
 30
0.0
 41
0.999780755992405
 10
43.99556959168208
 20
16.37884157798118
 30
0.0
 41
0.999780755992405
 10
42.90613607768587
 20
16.24560679752634
 30
0.0
 41
1.0
  0
SPLINE
  5
19B
330
1F
100
AcDbEntity
  8
Make2D visible lines - Tangent
100
AcDbSpline
210
0.0
220
0.0
230
1.0
 70
     8
 71
     3
 72
    12
 73
     8
 74
     0
 42
0.0000000001
 43
0.0000000001
 40
0.0
 40
0.0
 40
0.0
 40
0.0
 40
0.1510110321465192
 40
0.3037660471064116
 40
0.5900965017365678
 40
0.8249401141264362
 40
1.014583801502342
 40
1.014583801502342
 40
1.014583801502342
 40
1.014583801502342
 10
13.81874522635334
 20
61.08468082978848
 30
0.0
 10
13.86886546277972
 20
61.07976460742858
 30
0.0
 10
13.97016531702986
 20
61.07593482893605
 30
0.0
 10
14.16661313603048
 20
61.09314671313954
 30
0.0
 10
14.38475641074134
 20
61.15359904965146
 30
0.0
 10
14.58561117519696
 20
61.28834687757617
 30
0.0
 10
14.65035570142289
 20
61.4221641139104
 30
0.0
 10
14.64910222173399
 20
61.48651485718676
 30
0.0
  0
SPLINE
  5
19C
330
1F
100
AcDbEntity
  8
Make2D visible lines - Tangent
100
AcDbSpline
210
0.0
220
0.0
230
1.0
 70
     8
 71
     3
 72
    12
 73
     8
 74
     0
 42
0.0000000001
 43
0.0000000001
 40
-1.014583801502342
 40
-1.014583801502342
 40
-1.014583801502342
 40
-1.014583801502342
 40
-0.8249401141264362
 40
-0.5900965017365678
 40
-0.3037660471064116
 40
-0.1510110321465192
 40
0.0
 40
0.0
 40
0.0
 40
0.0
 10
14.64910222173399
 20
61.48651485718676
 30
0.0
 10
14.65035570142289
 20
61.55086560046311
 30
0.0
 10
14.58561117519696
 20
61.68468283679734
 30
0.0
 10
14.38475641074134
 20
61.81943066472205
 30
0.0
 10
14.16661313603048
 20
61.87988300123397
 30
0.0
 10
13.97016531702986
 20
61.89709488543746
 30
0.0
 10
13.86886546277972
 20
61.89326510694493
 30
0.0
 10
13.81874522635334
 20
61.88834888458503
 30
0.0
  0
SPLINE
  5
19D
330
1F
100
AcDbEntity
  8
Make2D visible lines
100
AcDbSpline
210
0.0
220
0.0
230
1.0
 70
    12
 71
     2
 72
     6
 73
     3
 74
     0
 42
0.0000000001
 43
0.0000000001
 40
0.0
 40
0.0
 40
0.0
 40
0.0853474550214741
 40
0.0853474550214741
 40
0.0853474550214741
 10
13.85379164784914
 20
61.89130952760758
 30
0.0
 41
1.0
 10
13.89637788632888
 20
61.89429690557031
 30
0.0
 41
0.9993970637774641
 10
13.93906876970281
 20
61.89432163810422
 30
0.0
 41
1.0
  0
SPLINE
  5
19E
330
1F
100
AcDbEntity
  8
Make2D visible lines
100
AcDbSpline
210
0.0
220
0.0
230
1.0
 70
    12
 71
     2
 72
     6
 73
     3
 74
     0
 42
0.0000000001
 43
0.0000000001
 40
0.0
 40
0.0
 40
0.0
 40
0.0853474550214741
 40
0.0853474550214741
 40
0.0853474550214741
 10
-13.85429344663336
 20
61.0817201752789
 30
0.0
 41
1.0
 10
-13.89687968511309
 20
61.07873279731617
 30
0.0
 41
0.9993970637774641
 10
-13.93957056848702
 20
61.07870806478225
 30
0.0
 41
1.0
  0
SPLINE
  5
19F
330
1F
100
AcDbEntity
  8
Make2D visible lines - Tangent
100
AcDbSpline
210
0.0
220
0.0
230
1.0
 70
     8
 71
     3
 72
    12
 73
     8
 74
     0
 42
0.0000000001
 43
0.0000000001
 40
0.0
 40
0.0
 40
0.0
 40
0.0
 40
0.1510110321465192
 40
0.3037660471064116
 40
0.5900965017365678
 40
0.8249401141264362
 40
1.014583801502342
 40
1.014583801502342
 40
1.014583801502342
 40
1.014583801502342
 10
-13.81924702513755
 20
61.888348873098
 30
0.0
 10
-13.86936726156393
 20
61.8932650954579
 30
0.0
 10
-13.97066711581407
 20
61.89709487395043
 30
0.0
 10
-14.16711493481469
 20
61.87988298974694
 30
0.0
 10
-14.38525820952555
 20
61.81943065323502
 30
0.0
 10
-14.58611297398117
 20
61.68468282531031
 30
0.0
 10
-14.6508575002071
 20
61.55086558897608
 30
0.0
 10
-14.6496040205182
 20
61.48651484569972
 30
0.0
  0
SPLINE
  5
1A0
330
1F
100
AcDbEntity
  8
Make2D visible lines - Tangent
100
AcDbSpline
210
0.0
220
0.0
230
1.0
 70
     8
 71
     3
 72
    12
 73
     8
 74
     0
 42
0.0000000001
 43
0.0000000001
 40
-1.014583801502342
 40
-1.014583801502342
 40
-1.014583801502342
 40
-1.014583801502342
 40
-0.8249401141264362
 40
-0.5900965017365678
 40
-0.3037660471064116
 40
-0.1510110321465192
 40
0.0
 40
0.0
 40
0.0
 40
0.0
 10
-14.6496040205182
 20
61.48651484569972
 30
0.0
 10
-14.6508575002071
 20
61.42216410242337
 30
0.0
 10
-14.58611297398117
 20
61.28834686608914
 30
0.0
 10
-14.38525820952555
 20
61.15359903816443
 30
0.0
 10
-14.16711493481469
 20
61.09314670165251
 30
0.0
 10
-13.97066711581407
 20
61.07593481744902
 30
0.0
 10
-13.86936726156393
 20
61.07976459594155
 30
0.0
 10
-13.81924702513755
 20
61.08468081830145
 30
0.0
  0
SPLINE
  5
1A1
330
1F
100
AcDbEntity
  8
Make2D visible lines - Tangent
100
AcDbSpline
210
0.0
220
0.0
230
1.0
 70
    12
 71
     2
 72
     6
 73
     3
 74
     0
 42
0.0000000001
 43
0.0000000001
 40
0.0
 40
0.0
 40
0.0
 40
0.1369528492222414
 40
0.1369528492222414
 40
0.1369528492222414
 10
-13.43989031110136
 20
61.85412562903844
 30
0.0
 41
1.0
 10
-13.50835063637204
 20
61.8526960934202
 30
0.0
 41
0.9999966913238282
 10
-13.57684987175601
 20
61.85344776033751
 30
0.0
 41
0.9999959461296658
  0
ARC
  5
1A2
330
1F
100
AcDbEntity
  8
Make2D visible lines - Tangent
100
AcDbCircle
 10
-13.58507222915375
 20
62.35338014860499
 30
0.0
 40
0.5
100
AcDbArc
 50
258.487152173535
 51
270.9422552251322
  0
SPLINE
  5
1A3
330
1F
100
AcDbEntity
  8
Make2D visible lines - Tangent
100
AcDbSpline
210
0.0
220
0.0
230
1.0
 70
     8
 71
     3
 72
    14
 73
    10
 74
     0
 42
0.0000000001
 43
0.0000000001
 40
0.2772630823298201
 40
0.2772630823298201
 40
0.2772630823298201
 40
0.2772630823298201
 40
1.0
 40
2.0
 40
3.0
 40
4.0
 40
5.0
 40
6.0
 40
7.0
 40
7.0
 40
7.0
 40
7.0
 10
-13.6848660614813
 20
61.86344016143372
 30
0.0
 10
-13.72461974678593
 20
61.87153742377107
 30
0.0
 10
-13.82024552479487
 20
61.88660366262923
 30
0.0
 10
-13.97340008153841
 20
61.8913450317545
 30
0.0
 10
-14.14117639522904
 20
61.8733306380965
 30
0.0
 10
-14.30492219061447
 20
61.83180127406046
 30
0.0
 10
-14.45878972554098
 20
61.76131289988338
 30
0.0
 10
-14.58974921460676
 20
61.65120779202222
 30
0.0
 10
-14.63496941810156
 20
61.54319834677379
 30
0.0
 10
-14.63446191239463
 20
61.48651434913965
 30
0.0
  0
SPLINE
  5
1A4
330
1F
100
AcDbEntity
  8
Make2D visible lines - Tangent
100
AcDbSpline
210
0.0
220
0.0
230
1.0
 70
     8
 71
     3
 72
    14
 73
    10
 74
     0
 42
0.0000000001
 43
0.0000000001
 40
-7.0
 40
-7.0
 40
-7.0
 40
-7.0
 40
-6.0
 40
-5.0
 40
-4.0
 40
-3.0
 40
-2.0
 40
-1.0
 40
-0.2482205602640466
 40
-0.2482205602640466
 40
-0.2482205602640466
 40
-0.2482205602640466
 10
-14.63446191239463
 20
61.48651434913965
 30
0.0
 10
-14.63496941810156
 20
61.42983035150552
 30
0.0
 10
-14.58974921460676
 20
61.32182090625709
 30
0.0
 10
-14.45878972554098
 20
61.21171579839594
 30
0.0
 10
-14.30492219061447
 20
61.14122742421885
 30
0.0
 10
-14.14117639522904
 20
61.0996980601828
 30
0.0
 10
-13.97340008153841
 20
61.08168366652482
 30
0.0
 10
-13.81861187647401
 20
61.08647561024527
 30
0.0
 10
-13.72139592225092
 20
61.10200268800232
 30
0.0
 10
-13.68007543753207
 20
61.11057326366672
 30
0.0
  0
ARC
  5
1A5
330
1F
100
AcDbEntity
  8
Make2D visible lines - Tangent
100
AcDbCircle
 10
-13.57852825337436
 20
60.62099367933988
 30
0.0
 40
0.5
100
AcDbArc
 50
88.9775798079559
 51
101.7179678781667
  0
SPLINE
  5
1A6
330
1F
100
AcDbEntity
  8
Make2D visible lines - Tangent
100
AcDbSpline
210
0.0
220
0.0
230
1.0
 70
    12
 71
     2
 72
     6
 73
     3
 74
     0
 42
0.0000000001
 43
0.0000000001
 40
-0.1297405451143296
 40
-0.1297405451143296
 40
-0.1297405451143296
 40
0.0
 40
0.0
 40
0.0
 10
-13.56960642754265
 20
61.1209140740267
 30
0.0
 41
0.9999960316975589
 10
-13.50474646437563
 20
61.1197565511471
 30
0.0
 41
0.9999968655123173
 10
-13.43989031110136
 20
61.11840227506382
 30
0.0
 41
1.0
  0
SPLINE
  5
1A7
330
1F
100
AcDbEntity
  8
Make2D visible lines - Tangent
100
AcDbSpline
210
0.0
220
0.0
230
1.0
 70
    12
 71
     2
 72
     6
 73
     3
 74
     0
 42
0.0000000001
 43
0.0000000001
 40
0.0
 40
0.0
 40
0.0
 40
0.1369528492222414
 40
0.1369528492222414
 40
0.1369528492222414
 10
-0.3678616769873102
 20
48.04687543973399
 30
0.0
 41
1.0
 10
-0.3664321413690675
 20
47.9784151144633
 30
0.0
 41
0.9999966913238282
 10
-0.3671838082863803
 20
47.90991587907933
 30
0.0
 41
0.9999959461296658
  0
ARC
  5
1A8
330
1F
100
AcDbEntity
  8
Make2D visible lines - Tangent
100
AcDbCircle
 10
-0.8671161965538576
 20
47.90169352168159
 30
0.0
 40
0.5
100
AcDbArc
 50
348.4871521735349
 51
0.9422552251317675
  0
SPLINE
  5
1A9
330
1F
100
AcDbEntity
  8
Make2D visible lines - Tangent
100
AcDbSpline
210
0.0
220
0.0
230
1.0
 70
     8
 71
     3
 72
    14
 73
    10
 74
     0
 42
0.0000000001
 43
0.0000000001
 40
0.2772630823298201
 40
0.2772630823298201
 40
0.2772630823298201
 40
0.2772630823298201
 40
1.0
 40
2.0
 40
3.0
 40
4.0
 40
5.0
 40
6.0
 40
7.0
 40
7.0
 40
7.0
 40
7.0
 10
-0.3771762093825908
 20
47.80189968935404
 30
0.0
 10
-0.3852734717199438
 20
47.76214600404941
 30
0.0
 10
-0.4003397105781008
 20
47.66652022604048
 30
0.0
 10
-0.4050810797033629
 20
47.51336566929693
 30
0.0
 10
-0.3870666860453736
 20
47.34558935560631
 30
0.0
 10
-0.3455373220093247
 20
47.18184356022088
 30
0.0
 10
-0.2750489478322445
 20
47.02797602529436
 30
0.0
 10
-0.1649438399710883
 20
46.89701653622858
 30
0.0
 10
-0.0569343947226571
 20
46.85179633273378
 30
0.0
 10
-0.0002503970885233
 20
46.85230383844072
 30
0.0
  0
SPLINE
  5
1AA
330
1F
100
AcDbEntity
  8
Make2D visible lines - Tangent
100
AcDbSpline
210
0.0
220
0.0
230
1.0
 70
     8
 71
     3
 72
    14
 73
    10
 74
     0
 42
0.0000000001
 43
0.0000000001
 40
-7.0
 40
-7.0
 40
-7.0
 40
-7.0
 40
-6.0
 40
-5.0
 40
-4.0
 40
-3.0
 40
-2.0
 40
-1.0
 40
-0.2482205602640466
 40
-0.2482205602640466
 40
-0.2482205602640466
 40
-0.2482205602640466
 10
-0.0002503970885233
 20
46.85230383844072
 30
0.0
 10
0.0564336005456106
 20
46.85179633273378
 30
0.0
 10
0.1644430457940418
 20
46.89701653622858
 30
0.0
 10
0.274548153655198
 20
47.02797602529436
 30
0.0
 10
0.3450365278322782
 20
47.18184356022088
 30
0.0
 10
0.3865658918683271
 20
47.34558935560631
 30
0.0
 10
0.4045802855263164
 20
47.51336566929693
 30
0.0
 10
0.3997883418058561
 20
47.66815387436134
 30
0.0
 10
0.3842612640488078
 20
47.76536982858443
 30
0.0
 10
0.3756906883844119
 20
47.80669031330328
 30
0.0
  0
ARC
  5
1AB
330
1F
100
AcDbEntity
  8
Make2D visible lines - Tangent
100
AcDbCircle
 10
0.8652702727112507
 20
47.90823749746099
 30
0.0
 40
0.5
100
AcDbArc
 50
178.9775798079559
 51
191.7179678781667
  0
SPLINE
  5
1AC
330
1F
100
AcDbEntity
  8
Make2D visible lines - Tangent
100
AcDbSpline
210
0.0
220
0.0
230
1.0
 70
    12
 71
     2
 72
     6
 73
     3
 74
     0
 42
0.0000000001
 43
0.0000000001
 40
-0.1297405451143296
 40
-0.1297405451143296
 40
-0.1297405451143296
 40
0.0
 40
0.0
 40
0.0
 10
0.3653498780244278
 20
47.91715932329269
 30
0.0
 41
0.9999960316975589
 10
0.3665074009040286
 20
47.98201928645971
 30
0.0
 41
0.9999968655123173
 10
0.3678616769873102
 20
48.04687543973399
 30
0.0
 41
1.0
  0
SPLINE
  5
1AD
330
1F
100
AcDbEntity
  8
Make2D visible lines - Tangent
100
AcDbSpline
210
0.0
220
0.0
230
1.0
 70
     8
 71
     3
 72
    12
 73
     8
 74
     0
 42
0.0000000001
 43
0.0000000001
 40
0.0
 40
0.0
 40
0.0
 40
0.0
 40
0.1510110321465192
 40
0.3037660471064116
 40
0.5900965017365678
 40
0.8249401141264362
 40
1.014583801502342
 40
1.014583801502342
 40
1.014583801502342
 40
1.014583801502342
 10
-0.402084921046864
 20
47.6675187256978
 30
0.0
 10
-0.4070011434067684
 20
47.61739848927142
 30
0.0
 10
-0.4108309218993007
 20
47.51609863502127
 30
0.0
 10
-0.3936190376958084
 20
47.31965081602065
 30
0.0
 10
-0.3331667011838846
 20
47.10150754130979
 30
0.0
 10
-0.198418873259179
 20
46.90065277685417
 30
0.0
 10
-0.064601636924948
 20
46.83590825062824
 30
0.0
 10
-0.000250893648591
 20
46.83716173031714
 30
0.0
  0
SPLINE
  5
1AE
330
1F
100
AcDbEntity
  8
Make2D visible lines - Tangent
100
AcDbSpline
210
0.0
220
0.0
230
1.0
 70
     8
 71
     3
 72
    12
 73
     8
 74
     0
 42
0.0000000001
 43
0.0000000001
 40
-1.014583801502342
 40
-1.014583801502342
 40
-1.014583801502342
 40
-1.014583801502342
 40
-0.8249401141264362
 40
-0.5900965017365678
 40
-0.3037660471064116
 40
-0.1510110321465192
 40
0.0
 40
0.0
 40
0.0
 40
0.0
 10
-0.000250893648591
 20
46.83716173031714
 30
0.0
 10
0.064099849627766
 20
46.83590825062824
 30
0.0
 10
0.197917085961997
 20
46.90065277685417
 30
0.0
 10
0.3326649138867026
 20
47.10150754130979
 30
0.0
 10
0.3931172503986264
 20
47.31965081602065
 30
0.0
 10
0.4103291346021187
 20
47.51609863502127
 30
0.0
 10
0.4064993561095864
 20
47.61739848927142
 30
0.0
 10
0.401583133749682
 20
47.6675187256978
 30
0.0
  0
SPLINE
  5
1AF
330
1F
100
AcDbEntity
  8
Make2D visible lines
100
AcDbSpline
210
0.0
220
0.0
230
1.0
 70
    12
 71
     2
 72
     6
 73
     3
 74
     0
 42
0.0000000001
 43
0.0000000001
 40
0.0
 40
0.0
 40
0.0
 40
0.0853474550214741
 40
0.0853474550214741
 40
0.0853474550214741
 10
0.4045437767722273
 20
47.63247230420199
 30
0.0
 41
1.0
 10
0.407531154734965
 20
47.58988606572226
 30
0.0
 41
0.9993970637774641
 10
0.4075558872688809
 20
47.54719518234833
 30
0.0
 41
1.0
  0
SPLINE
  5
1B0
330
1F
100
AcDbEntity
  8
Default
100
AcDbSpline
210
0.0
220
0.0
230
1.0
 70
     8
 71
     3
 72
    89
 73
    85
 74
     0
 42
0.0000000001
 43
0.0000000001
 40
0.0
 40
0.0
 40
0.0
 40
0.0
 40
1.0
 40
2.0
 40
3.0
 40
4.0
 40
5.0
 40
6.0
 40
7.0
 40
8.0
 40
9.0
 40
10.0
 40
11.0
 40
12.0
 40
12.0
 40
12.0
 40
13.0
 40
14.0
 40
15.0
 40
16.0
 40
17.0
 40
18.0
 40
19.0
 40
19.0
 40
19.0
 40
20.0
 40
21.0
 40
22.0
 40
23.0
 40
24.0
 40
25.0
 40
26.0
 40
27.0
 40
28.0
 40
29.0
 40
30.0
 40
31.0
 40
32.0
 40
33.0
 40
34.0
 40
35.0
 40
36.0
 40
36.0
 40
36.0
 40
37.0
 40
38.0
 40
39.0
 40
40.0
 40
41.0
 40
42.0
 40
43.0
 40
44.0
 40
45.0
 40
46.0
 40
47.0
 40
48.0
 40
49.0
 40
50.0
 40
51.0
 40
52.0
 40
53.0
 40
53.0
 40
53.0
 40
54.0
 40
55.0
 40
56.0
 40
57.0
 40
58.0
 40
59.0
 40
60.0
 40
60.0
 40
60.0
 40
61.0
 40
62.0
 40
63.0
 40
64.0
 40
65.0
 40
66.0
 40
67.0
 40
68.0
 40
69.0
 40
70.0
 40
71.0
 40
72.0
 40
72.0
 40
72.0
 40
72.0
 10
-8.583145340421801
 20
76.06962092978083
 30
0.0
 10
-8.527136797198692
 20
76.00076181947668
 30
0.0
 10
-8.263711577728479
 20
75.7266747607265
 30
0.0
 10
-8.107780134773586
 20
75.51065514145665
 30
0.0
 10
-7.971774798903092
 20
75.28122284478818
 30
0.0
 10
-7.855976002161215
 20
75.04180329006837
 30
0.0
 10
-7.7397460891775
 20
74.8007095840835
 30
0.0
 10
-7.694556020558033
 20
74.53533420547188
 30
0.0
 10
-7.731275802448667
 20
74.2694498332618
 30
0.0
 10
-7.803189967338818
 20
74.01300374190379
 30
0.0
 10
-7.89768681747704
 20
73.76380158766949
 30
0.0
 10
-8.005920333595327
 20
73.5204731897102
 30
0.0
 10
-8.12255377529969
 20
73.28107196424259
 30
0.0
 10
-8.203645684625066
 20
73.12315743490032
 30
0.0
 10
-8.244395812045237
 20
73.04430788025331
 30
0.0
 10
-8.443769853329963
 20
72.66037329050363
 30
0.0
 10
-8.831458497336639
 20
71.88664681765772
 30
0.0
 10
-9.364477649146616
 20
70.70302820801115
 30
0.0
 10
-9.865563013445664
 20
69.50569140519406
 30
0.0
 10
-10.3356777105535
 20
68.29583718817827
 30
0.0
 10
-10.77886589763902
 20
67.07590255246912
 30
0.0
 10
-11.19824095040854
 20
65.84758988448442
 30
0.0
 10
-11.46407320267845
 20
65.02416234585225
 30
0.0
 10
-11.59498368069996
 20
64.61181239720176
 30
0.0
 10
-11.72913047895862
 20
64.19204921507452
 30
0.0
 10
-11.90071022509986
 20
63.32457560882554
 30
0.0
 10
-11.9548160031224
 20
62.00255962906515
 30
0.0
 10
-11.95190553664789
 20
60.68151699312299
 30
0.0
 10
-11.86260729721417
 20
59.36240087625317
 30
0.0
 10
-11.67703803655389
 20
58.05343109432665
 30
0.0
 10
-11.37501128529775
 20
56.76546724545022
 30
0.0
 10
-10.91540247820465
 20
55.52325198712595
 30
0.0
 10
-10.27218458832939
 20
54.36503809194856
 30
0.0
 10
-9.47639724529712
 20
53.30708347189501
 30
0.0
 10
-8.552751499251915
 20
52.3585631187656
 30
0.0
 10
-7.512667247157603
 20
51.53980858882848
 30
0.0
 10
-6.384545716376514
 20
50.84791907674081
 30
0.0
 10
-5.179967847559108
 20
50.2997330880135
 30
0.0
 10
-3.923915763554661
 20
49.88479875894927
 30
0.0
 10
-2.633069562329468
 20
49.5965484040974
 30
0.0
 10
-1.321466266579371
 20
49.42796572590861
 30
0.0
 10
-0.4406430748205075
 20
49.39192229253661
 30
0.0
 10
-0.0002754594113448
 20
49.39266811142688
 30
0.0
 10
0.440092155997818
 20
49.39192229253661
 30
0.0
 10
1.320915347756681
 20
49.42796572590861
 30
0.0
 10
2.632518643506779
 20
49.5965484040974
 30
0.0
 10
3.923364844731971
 20
49.88479875894927
 30
0.0
 10
5.179416928736418
 20
50.2997330880135
 30
0.0
 10
6.383994797553824
 20
50.84791907674081
 30
0.0
 10
7.512116328334914
 20
51.53980858882848
 30
0.0
 10
8.552200580429226
 20
52.3585631187656
 30
0.0
 10
9.47584632647443
 20
53.30708347189501
 30
0.0
 10
10.2716336695067
 20
54.36503809194856
 30
0.0
 10
10.91485155938196
 20
55.52325198712595
 30
0.0
 10
11.37446036647506
 20
56.76546724545022
 30
0.0
 10
11.6764871177312
 20
58.05343109432665
 30
0.0
 10
11.86205637839148
 20
59.36240087625317
 30
0.0
 10
11.9513546178252
 20
60.68151699312299
 30
0.0
 10
11.95426508429972
 20
62.00255962906515
 30
0.0
 10
11.90015930627717
 20
63.32457560882554
 30
0.0
 10
11.72857956013593
 20
64.19204921507452
 30
0.0
 10
11.59445732189651
 20
64.61181239720176
 30
0.0
 10
11.46357140389424
 20
65.02416234585225
 30
0.0
 10
11.19773915162433
 20
65.84758988448442
 30
0.0
 10
10.77836409885481
 20
67.07590255246912
 30
0.0
 10
10.33517591176929
 20
68.29583718817827
 30
0.0
 10
9.865061214661454
 20
69.50569140519406
 30
0.0
 10
9.363975850362406
 20
70.70302820801115
 30
0.0
 10
8.830956698552429
 20
71.88664681765772
 30
0.0
 10
8.443268054545753
 20
72.66037329050363
 30
0.0
 10
8.243894013261027
 20
73.04430788025331
 30
0.0
 10
8.203143885840856
 20
73.12315743490032
 30
0.0
 10
8.122051976515479
 20
73.28107196424259
 30
0.0
 10
8.005418534811117
 20
73.5204731897102
 30
0.0
 10
7.89718501869283
 20
73.76380158766949
 30
0.0
 10
7.802688168554607
 20
74.01300374190379
 30
0.0
 10
7.730774003664457
 20
74.2694498332618
 30
0.0
 10
7.694054221773823
 20
74.53533420547188
 30
0.0
 10
7.73924429039329
 20
74.8007095840835
 30
0.0
 10
7.855474203377005
 20
75.04180329006837
 30
0.0
 10
7.971273000118882
 20
75.28122284478818
 30
0.0
 10
8.107278335989376
 20
75.51065514145665
 30
0.0
 10
8.263209778944269
 20
75.7266747607265
 30
0.0
 10
8.526634998414481
 20
76.00076181947668
 30
0.0
 10
8.58264354163759
 20
76.06962092978083
 30
0.0
  0
SPLINE
  5
1B1
330
1F
100
AcDbEntity
  8
Default
100
AcDbSpline
210
0.0
220
0.0
230
1.0
 70
    12
 71
     2
 72
     6
 73
     3
 74
     0
 42
0.0000000001
 43
0.0000000001
 40
-5.654573080352873
 40
-5.654573080352873
 40
-5.654573080352873
 40
0.0
 40
0.0
 40
0.0
 10
5.628951650275152
 20
77.7715501490475
 30
0.0
 41
1.0
 10
2.833113955146035
 20
78.23136644045711
 30
0.0
 41
0.9967681786255456
 10
-0.0002972290574661
 20
78.23751051168077
 30
0.0
 41
1.0
  0
SPLINE
  5
1B2
330
1F
100
AcDbEntity
  8
Default
100
AcDbSpline
210
0.0
220
0.0
230
1.0
 70
    12
 71
     2
 72
     6
 73
     3
 74
     0
 42
0.0000000001
 43
0.0000000001
 40
0.0
 40
0.0
 40
0.0
 40
5.654573080352873
 40
5.654573080352873
 40
5.654573080352873
 10
-0.0002972290574661
 20
78.23751051168077
 30
0.0
 41
1.0
 10
-2.833708413260966
 20
78.23136644045711
 30
0.0
 41
0.9967681786255456
 10
-5.629546108390084
 20
77.7715501490475
 30
0.0
 41
1.0
  0
SPLINE
  5
1B3
330
1F
100
AcDbEntity
  8
Default
100
AcDbSpline
210
0.0
220
0.0
230
1.0
 70
    12
 71
     2
 72
     6
 73
     3
 74
     0
 42
0.0000000001
 43
0.0000000001
 40
-0.443505275079806
 40
-0.443505275079806
 40
-0.443505275079806
 40
0.0
 40
0.0
 40
0.0
 10
-8.583145340421801
 20
76.06962092978083
 30
0.0
 41
1.0
 10
-8.724975001143957
 20
76.243991904101
 30
0.0
 41
0.9799943751373794
 10
-8.788970571249996
 20
76.4654921769864
 30
0.0
 41
1.0
  0
SPLINE
  5
1B4
330
1F
100
AcDbEntity
  8
Default
100
AcDbSpline
210
0.0
220
0.0
230
1.0
 70
     8
 71
     3
 72
    12
 73
     8
 74
     0
 42
0.0000000001
 43
0.0000000001
 40
-3.111933853859594
 40
-3.111933853859594
 40
-3.111933853859594
 40
-3.111933853859594
 40
-2.689379093202719
 40
-2.191051374651839
 40
-1.391396900347014
 40
-0.849548742313125
 40
0.0
 40
0.0
 40
0.0
 40
0.0
 10
-8.788970571249996
 20
76.4654921769864
 30
0.0
 10
-8.832721402386913
 20
76.60395404419876
 30
0.0
 10
-8.757019252353487
 20
76.94244288095624
 30
0.0
 10
-8.251542537456523
 20
77.24728799396738
 30
0.0
 10
-7.660979871190946
 20
77.40686386254927
 30
0.0
 10
-6.944115352970542
 20
77.55827954313867
 30
0.0
 10
-6.487697963040552
 20
77.62823743391613
 30
0.0
 10
-6.207925844589695
 20
77.6783170770428
 30
0.0
  0
SPLINE
  5
1B5
330
1F
100
AcDbEntity
  8
Default
100
AcDbSpline
210
0.0
220
0.0
230
1.0
 70
    12
 71
     2
 72
     6
 73
     3
 74
     0
 42
0.0000000001
 43
0.0000000001
 40
0.0
 40
0.0
 40
0.0
 40
6.233889429224448
 40
6.233889429224448
 40
6.233889429224448
 10
-6.207925844589695
 20
77.67831707704282
 30
0.0
 41
0.9999999519924593
 10
-3.124045963448388
 20
78.17573125983822
 30
0.0
 41
0.9967303545933507
 10
-0.0002972290574661
 20
78.16992875853643
 30
0.0
 41
1.0
  0
SPLINE
  5
1B6
330
1F
100
AcDbEntity
  8
Default
100
AcDbSpline
210
0.0
220
0.0
230
1.0
 70
    12
 71
     2
 72
     6
 73
     3
 74
     0
 42
0.0000000001
 43
0.0000000001
 40
-6.233889429224448
 40
-6.233889429224448
 40
-6.233889429224448
 40
0.0
 40
0.0
 40
0.0
 10
-0.0002972290574661
 20
78.16992875853643
 30
0.0
 41
1.0
 10
3.12347451329297
 20
78.17573130257675
 30
0.0
 41
0.9967303305894041
 10
6.207377716140124
 20
77.6783170770428
 30
0.0
 41
1.0
  0
SPLINE
  5
1B7
330
1F
100
AcDbEntity
  8
Default
100
AcDbSpline
210
0.0
220
0.0
230
1.0
 70
     8
 71
     3
 72
    12
 73
     8
 74
     0
 42
0.0000000001
 43
0.0000000001
 40
0.0
 40
0.0
 40
0.0
 40
0.0
 40
0.8495817757806479
 40
1.391422022197969
 40
2.191064820612614
 40
2.689385262996222
 40
3.111933853859594
 40
3.111933853859594
 40
3.111933853859594
 40
3.111933853859594
 10
6.207377716140124
 20
77.6783170770428
 30
0.0
 10
6.487166354014873
 20
77.6282420030864
 30
0.0
 10
6.943598687682309
 20
77.55828268323245
 30
0.0
 10
7.660478072406736
 20
77.40686386254927
 30
0.0
 10
8.251040738672312
 20
77.24728799396738
 30
0.0
 10
8.756517453569277
 20
76.94244288095624
 30
0.0
 10
8.832219603602702
 20
76.60395404419876
 30
0.0
 10
8.788468772465786
 20
76.4654921769864
 30
0.0
  0
SPLINE
  5
1B8
330
1F
100
AcDbEntity
  8
Default
100
AcDbSpline
210
0.0
220
0.0
230
1.0
 70
    12
 71
     2
 72
     6
 73
     3
 74
     0
 42
0.0000000001
 43
0.0000000001
 40
0.0
 40
0.0
 40
0.0
 40
0.443505275079806
 40
0.443505275079806
 40
0.443505275079806
 10
8.788468772465786
 20
76.4654921769864
 30
0.0
 41
1.0
 10
8.724473202359746
 20
76.243991904101
 30
0.0
 41
0.9799943751373794
 10
8.58264354163759
 20
76.06962092978083
 30
0.0
 41
1.0
  0
SPLINE
  5
1B9
330
1F
100
AcDbEntity
  8
Default
100
AcDbSpline
210
0.0
220
0.0
230
1.0
 70
     8
 71
     3
 72
    19
 73
    15
 74
     0
 42
0.0000000001
 43
0.0000000001
 40
-12.0
 40
-12.0
 40
-12.0
 40
-12.0
 40
-11.0
 40
-10.0
 40
-9.0
 40
-8.0
 40
-7.0
 40
-6.0
 40
-5.0
 40
-4.0
 40
-3.0
 40
-2.0
 40
-1.0
 40
0.0
 40
0.0
 40
0.0
 40
0.0
 10
8.786961895578784
 20
76.45999629577517
 30
0.0
 10
8.661172493200908
 20
76.67116638199025
 30
0.0
 10
8.156381770233493
 20
76.83130664706914
 30
0.0
 10
7.443176572823139
 20
77.01187689484317
 30
0.0
 10
6.7036155824115
 20
77.14595411019891
 30
0.0
 10
5.96658053050345
 20
77.26760545702672
 30
0.0
 10
5.224941896146561
 20
77.36714345028653
 30
0.0
 10
4.481547940512185
 20
77.44923992394203
 30
0.0
 10
3.736401225535058
 20
77.51459080962258
 30
0.0
 10
2.990124237571154
 20
77.56490057252907
 30
0.0
 10
2.24304998318391
 20
77.60154006123682
 30
0.0
 10
1.495483156785171
 20
77.62592656369134
 30
0.0
 10
0.7476463071220208
 20
77.6394698060943
 30
0.0
 10
0.2490166118282067
 20
77.64221007190221
 30
0.0
 10
-0.0002972290574661
 20
77.64224225824844
 30
0.0
  0
SPLINE
  5
1BA
330
1F
100
AcDbEntity
  8
Default
100
AcDbSpline
210
0.0
220
0.0
230
1.0
 70
     8
 71
     3
 72
    19
 73
    15
 74
     0
 42
0.0000000001
 43
0.0000000001
 40
0.0
 40
0.0
 40
0.0
 40
0.0
 40
1.0
 40
2.0
 40
3.0
 40
4.0
 40
5.0
 40
6.0
 40
7.0
 40
8.0
 40
9.0
 40
10.0
 40
11.0
 40
12.0
 40
12.0
 40
12.0
 40
12.0
 10
-0.0002972290574661
 20
77.64224225824844
 30
0.0
 10
-0.2496110699431389
 20
77.64221007190221
 30
0.0
 10
-0.748240765236953
 20
77.6394698060943
 30
0.0
 10
-1.496077614900104
 20
77.62592656369134
 30
0.0
 10
-2.243644441298842
 20
77.60154006123682
 30
0.0
 10
-2.990718695686086
 20
77.56490057252907
 30
0.0
 10
-3.736995683649991
 20
77.51459080962258
 30
0.0
 10
-4.482142398627118
 20
77.44923992394203
 30
0.0
 10
-5.225536354261493
 20
77.36714345028653
 30
0.0
 10
-5.967174988618383
 20
77.26760545702672
 30
0.0
 10
-6.704210040526433
 20
77.14595411019891
 30
0.0
 10
-7.443771030938072
 20
77.01187689484317
 30
0.0
 10
-8.156976228348425
 20
76.83130664706914
 30
0.0
 10
-8.66176695131584
 20
76.67116638199025
 30
0.0
 10
-8.787556353693716
 20
76.45999629577517
 30
0.0
  0
SPLINE
  5
1BB
330
1F
100
AcDbEntity
  8
Default
100
AcDbSpline
210
0.0
220
0.0
230
1.0
 70
     8
 71
     3
 72
    22
 73
    18
 74
     0
 42
0.0000000001
 43
0.0000000001
 40
0.0
 40
0.0
 40
0.0
 40
0.0
 40
0.2588469591229587
 40
0.6477254461891114
 40
1.024641027840087
 40
1.817983982162573
 40
2.582167143679938
 40
4.062052734317923
 40
7.850412104674001
 40
9.497260537102543
 40
10.543391206404
 40
10.8432833113025
 40
12.15829953678302
 40
13.34949093133962
 40
14.77372714428499
 40
17.25709974516987
 40
21.82793658798906
 40
21.82793658798906
 40
21.82793658798906
 40
21.82793658798906
 10
-7.738910099261012
 20
74.73810054613776
 30
0.0
 10
-7.730905835145855
 20
74.65157365661958
 30
0.0
 10
-7.769639267349032
 20
74.43711672792733
 30
0.0
 10
-7.8941525142539
 20
74.11857365418379
 30
0.0
 10
-8.118466424772702
 20
73.64957403532125
 30
0.0
 10
-8.426445253877763
 20
73.08286599028276
 30
0.0
 10
-8.869873199258954
 20
72.17246846850298
 30
0.0
 10
-9.721201378572303
 20
70.35069294847202
 30
0.0
 10
-10.60024124266275
 20
68.2187148767964
 30
0.0
 10
-11.38007496763792
 20
66.20432339064985
 30
0.0
 10
-11.73019444312729
 20
65.27008982294049
 30
0.0
 10
-12.03158479972966
 20
64.43534414832801
 30
0.0
 10
-12.21009976937682
 20
63.5119275808127
 30
0.0
 10
-12.27894667863637
 20
62.20342825992263
 30
0.0
 10
-12.26082872657019
 20
60.50219094149683
 30
0.0
 10
-11.90127911097562
 20
57.69101006426305
 30
0.0
 10
-11.00755200710424
 20
55.4739844072751
 30
0.0
 10
-10.14139267658236
 20
54.21633981900407
 30
0.0
  0
SPLINE
  5
1BC
330
1F
100
AcDbEntity
  8
Default
100
AcDbSpline
210
0.0
220
0.0
230
1.0
 70
     8
 71
     3
 72
    12
 73
     8
 74
     0
 42
0.0000000001
 43
0.0000000001
 40
-14.89017236839833
 40
-14.89017236839833
 40
-14.89017236839833
 40
-14.89017236839833
 40
-11.21816917573749
 40
-7.516682162771168
 40
-3.774519558109396
 40
-1.889355098273271
 40
0.0
 40
0.0
 40
0.0
 40
0.0
 10
9.624710517491234
 20
59.34944195200723
 30
0.0
 10
9.6250385784158
 20
58.12527673446959
 30
0.0
 10
9.117885583719723
 20
55.66808129234698
 30
0.0
 10
6.965879717212076
 20
52.56125866537441
 30
0.0
 10
4.302771279255602
 20
50.84438470232021
 30
0.0
 10
1.887704415939847
 20
50.13668436929667
 30
0.0
 10
0.6294561980235365
 20
50.0156709466976
 30
0.0
 10
-0.00027653911821
 20
50.0156031797973
 30
0.0
  0
SPLINE
  5
1BD
330
1F
100
AcDbEntity
  8
Default
100
AcDbSpline
210
0.0
220
0.0
230
1.0
 70
     8
 71
     3
 72
    12
 73
     8
 74
     0
 42
0.0000000001
 43
0.0000000001
 40
-14.89017233013332
 40
-14.89017233013332
 40
-14.89017233013332
 40
-14.89017233013332
 40
-11.11625270517792
 40
-7.371880431677226
 40
-3.66957874387039
 40
-1.832654236799996
 40
0.0
 40
0.0
 40
0.0
 40
0.0
 10
-0.00027653911821
 20
50.0156031797973
 30
0.0
 10
-1.258250057619621
 20
50.01582327250304
 30
0.0
 10
-3.76430573155012
 20
50.49663827627811
 30
0.0
 10
-6.967455752334406
 20
52.56201950975952
 30
0.0
 10
-8.764146320465413
 20
55.15697104476868
 30
0.0
 10
-9.499722705469145
 20
57.51558679758102
 30
0.0
 10
-9.625300676310435
 20
58.73803494073177
 30
0.0
 10
-9.625258090995443
 20
59.34922723741257
 30
0.0
  0
SPLINE
  5
1BE
330
1F
100
AcDbEntity
  8
Default
100
AcDbSpline
210
0.0
220
0.0
230
1.0
 70
     8
 71
     3
 72
    12
 73
     8
 74
     0
 42
0.0000000001
 43
0.0000000001
 40
0.0
 40
0.0
 40
0.0
 40
0.0
 40
1.974863560414597
 40
3.940395698505355
 40
7.777415887162894
 40
11.58776424105037
 40
15.35286584350305
 40
15.35286584350305
 40
15.35286584350305
 40
15.35286584350305
 10
-9.625258090995443
 20
59.34922723741257
 30
0.0
 10
-9.625727725943078
 20
60.00744506400837
 30
0.0
 10
-9.50581001984069
 20
61.32155541620252
 30
0.0
 10
-8.791358269585183
 20
63.82502677671913
 30
0.0
 10
-7.019543512910984
 20
66.57399214055162
 30
0.0
 10
-3.783688390547194
 20
68.7260149009343
 30
0.0
 10
-1.254696939882061
 20
69.20109442677193
 30
0.0
 10
-0.0002764979085024
 20
69.2013981844938
 30
0.0
  0
SPLINE
  5
1BF
330
1F
100
AcDbEntity
  8
Default
100
AcDbSpline
210
0.0
220
0.0
230
1.0
 70
     8
 71
     3
 72
    12
 73
     8
 74
     0
 42
0.0000000001
 43
0.0000000001
 40
0.0
 40
0.0
 40
0.0
 40
0.0
 40
1.918305221504867
 40
3.868777778011242
 40
7.624449324857684
 40
11.42846767657462
 40
15.35241906764609
 40
15.35241906764609
 40
15.35241906764609
 40
15.35241906764609
 10
-0.0002764979085024
 20
69.2013981844938
 30
0.0
 10
0.6390965792024392
 20
69.20192886914741
 30
0.0
 10
1.928948877120918
 20
69.07711860029148
 30
0.0
 10
4.374877456678608
 20
68.34303357330283
 30
0.0
 10
7.054785285840186
 20
66.5283272078551
 30
0.0
 10
9.159265422887934
 20
63.23863147076067
 30
0.0
 10
9.624731870229642
 20
60.65682461553639
 30
0.0
 10
9.624710517491234
 20
59.34944195200723
 30
0.0
  0
SPLINE
  5
1C0
330
1F
100
AcDbEntity
  8
Default
100
AcDbSpline
210
0.0
220
0.0
230
1.0
 70
     8
 71
     3
 72
    22
 73
    18
 74
     0
 42
0.0000000001
 43
0.0000000001
 40
0.0
 40
0.0
 40
0.0
 40
0.0
 40
0.2588469591229587
 40
0.6477254461891114
 40
1.024641027840087
 40
1.817983982162573
 40
2.582167143679938
 40
4.062052734317923
 40
7.850412104674001
 40
9.497260537102543
 40
10.543391206404
 40
10.8432833113025
 40
12.15829953678302
 40
13.34949093133962
 40
14.77372714428499
 40
17.25709974516987
 40
21.82793658798906
 40
21.82793658798906
 40
21.82793658798906
 40
21.82793658798906
 10
7.738408300476802
 20
74.73810054613776
 30
0.0
 10
7.730404036361644
 20
74.65157365661958
 30
0.0
 10
7.769137468564821
 20
74.43711672792733
 30
0.0
 10
7.89365071546969
 20
74.11857365418379
 30
0.0
 10
8.117964625988492
 20
73.64957403532125
 30
0.0
 10
8.425943455093552
 20
73.08286599028276
 30
0.0
 10
8.869371400474744
 20
72.17246846850298
 30
0.0
 10
9.720699579788093
 20
70.35069294847202
 30
0.0
 10
10.59973944387854
 20
68.2187148767964
 30
0.0
 10
11.37957316885371
 20
66.20432339064985
 30
0.0
 10
11.72969264434308
 20
65.27008982294049
 30
0.0
 10
12.03108300094545
 20
64.43534414832801
 30
0.0
 10
12.20959797059261
 20
63.5119275808127
 30
0.0
 10
12.27844487985216
 20
62.20342825992263
 30
0.0
 10
12.26032692778598
 20
60.50219094149683
 30
0.0
 10
11.90077731219141
 20
57.69101006426305
 30
0.0
 10
11.00705020832003
 20
55.4739844072751
 30
0.0
 10
10.14089087779815
 20
54.21633981900407
 30
0.0
  0
SPLINE
  5
1C1
330
1F
100
AcDbEntity
  8
Make2D visible lines - Tangent
100
AcDbSpline
210
0.0
220
0.0
230
1.0
 70
    12
 71
     2
 72
     6
 73
     3
 74
     0
 42
0.0000000001
 43
0.0000000001
 40
0.0
 40
0.0
 40
0.0
 40
0.1369528492222414
 40
0.1369528492222414
 40
0.1369528492222414
 10
13.43938851231714
 20
61.11890407384804
 30
0.0
 41
1.0
 10
13.50784883758783
 20
61.12033360946628
 30
0.0
 41
0.9999966913238282
 10
13.5763480729718
 20
61.11958194254896
 30
0.0
 41
0.9999959461296658
  0
ARC
  5
1C2
330
1F
100
AcDbEntity
  8
Make2D visible lines - Tangent
100
AcDbCircle
 10
13.58457043036954
 20
60.61964955428149
 30
0.0
 40
0.5
100
AcDbArc
 50
78.48715217353497
 51
90.94225522513219
  0
SPLINE
  5
1C3
330
1F
100
AcDbEntity
  8
Make2D visible lines - Tangent
100
AcDbSpline
210
0.0
220
0.0
230
1.0
 70
     8
 71
     3
 72
    14
 73
    10
 74
     0
 42
0.0000000001
 43
0.0000000001
 40
0.2772630823298201
 40
0.2772630823298201
 40
0.2772630823298201
 40
0.2772630823298201
 40
1.0
 40
2.0
 40
3.0
 40
4.0
 40
5.0
 40
6.0
 40
7.0
 40
7.0
 40
7.0
 40
7.0
 10
13.68436426269709
 20
61.10958954145276
 30
0.0
 10
13.72411794800172
 20
61.1014922791154
 30
0.0
 10
13.81974372601066
 20
61.08642604025724
 30
0.0
 10
13.9728982827542
 20
61.08168467113198
 30
0.0
 10
14.14067459644482
 20
61.09969906478997
 30
0.0
 10
14.30442039183026
 20
61.14122842882602
 30
0.0
 10
14.45828792675677
 20
61.2117168030031
 30
0.0
 10
14.58924741582255
 20
61.32182191086426
 30
0.0
 10
14.63446761931735
 20
61.42983135611269
 30
0.0
 10
14.63396011361041
 20
61.48651535374682
 30
0.0
  0
SPLINE
  5
1C4
330
1F
100
AcDbEntity
  8
Make2D visible lines - Tangent
100
AcDbSpline
210
0.0
220
0.0
230
1.0
 70
     8
 71
     3
 72
    14
 73
    10
 74
     0
 42
0.0000000001
 43
0.0000000001
 40
-7.0
 40
-7.0
 40
-7.0
 40
-7.0
 40
-6.0
 40
-5.0
 40
-4.0
 40
-3.0
 40
-2.0
 40
-1.0
 40
-0.2482205602640466
 40
-0.2482205602640466
 40
-0.2482205602640466
 40
-0.2482205602640466
 10
14.63396011361041
 20
61.48651535374682
 30
0.0
 10
14.63446761931735
 20
61.54319935138096
 30
0.0
 10
14.58924741582255
 20
61.65120879662939
 30
0.0
 10
14.45828792675677
 20
61.76131390449054
 30
0.0
 10
14.30442039183026
 20
61.83180227866762
 30
0.0
 10
14.14067459644482
 20
61.87333164270368
 30
0.0
 10
13.9728982827542
 20
61.89134603636166
 30
0.0
 10
13.81811007768979
 20
61.88655409264121
 30
0.0
 10
13.72089412346671
 20
61.87102701488416
 30
0.0
 10
13.67957363874785
 20
61.86245643921976
 30
0.0
  0
ARC
  5
1C5
330
1F
100
AcDbEntity
  8
Make2D visible lines - Tangent
100
AcDbCircle
 10
13.57802645459014
 20
62.3520360235466
 30
0.0
 40
0.5
100
AcDbArc
 50
268.9775798079559
 51
281.7179678781667
  0
SPLINE
  5
1C6
330
1F
100
AcDbEntity
  8
Make2D visible lines - Tangent
100
AcDbSpline
210
0.0
220
0.0
230
1.0
 70
    12
 71
     2
 72
     6
 73
     3
 74
     0
 42
0.0000000001
 43
0.0000000001
 40
-0.1297405451143296
 40
-0.1297405451143296
 40
-0.1297405451143296
 40
0.0
 40
0.0
 40
0.0
 10
13.56910462875844
 20
61.85211562885978
 30
0.0
 41
0.9999960316975589
 10
13.50424466559141
 20
61.85327315173937
 30
0.0
 41
0.9999968655123173
 10
13.43938851231714
 20
61.85462742782266
 30
0.0
 41
1.0
  0
SPLINE
  5
1C7
330
1F
100
AcDbEntity
  8
Make2D visible lines
100
AcDbSpline
210
0.0
220
0.0
230
1.0
 70
    24
 71
     2
 72
     6
 73
     3
 74
     0
 42
0.0000000001
 43
0.0000000001
 40
0.704199812169668
 40
0.704199812169668
 40
0.704199812169668
 40
5.280000000000005
 40
5.280000000000005
 40
5.280000000000005
 10
1.289999999999999
 20
11.07880018783036
 30
0.0
 10
1.289999999999999
 20
8.790900093915187
 30
0.0
 10
1.289999999999999
 20
6.503000000000018
 30
0.0
  0
SPLINE
  5
1C8
330
1F
100
AcDbEntity
  8
Make2D visible lines
100
AcDbSpline
210
0.0
220
0.0
230
1.0
 70
    24
 71
     2
 72
     6
 73
     3
 74
     0
 42
0.0000000001
 43
0.0000000001
 40
0.0
 40
0.0
 40
0.0
 40
4.575800187830215
 40
4.575800187830215
 40
4.575800187830215
 10
-1.289999999999999
 20
6.503000000000018
 30
0.0
 10
-1.289999999999999
 20
8.790900093915125
 30
0.0
 10
-1.289999999999999
 20
11.07880018783023
 30
0.0
  0
SPLINE
  5
1C9
330
1F
100
AcDbEntity
  8
Make2D visible lines
100
AcDbSpline
210
0.0
220
0.0
230
1.0
 70
    24
 71
     2
 72
     6
 73
     3
 74
     0
 42
0.0000000001
 43
0.0000000001
 40
0.5393235497093191
 40
0.5393235497093191
 40
0.5393235497093191
 40
5.280000000000005
 40
5.280000000000005
 40
5.280000000000005
 10
43.90501644368701
 20
11.2436764502907
 30
0.0
 10
43.90501644368701
 20
8.87333822514536
 30
0.0
 10
43.90501644368701
 20
6.503000000000018
 30
0.0
  0
SPLINE
  5
1CA
330
1F
100
AcDbEntity
  8
Make2D visible lines
100
AcDbSpline
210
0.0
220
0.0
230
1.0
 70
    24
 71
     2
 72
     6
 73
     3
 74
     0
 42
0.0000000001
 43
0.0000000001
 40
0.0
 40
0.0
 40
0.0
 40
4.596279564012875
 40
4.596279564012875
 40
4.596279564012875
 10
41.32501644368701
 20
6.503000000000018
 30
0.0
 10
41.32501644368701
 20
8.801139782006455
 30
0.0
 10
41.32501644368701
 20
11.09927956401289
 30
0.0
  0
SPLINE
  5
1CB
330
1F
100
AcDbEntity
  8
Make2D visible lines - Tangent
100
AcDbSpline
210
0.0
220
0.0
230
1.0
 70
    12
 71
     2
 72
     6
 73
     3
 74
     0
 42
0.0000000001
 43
0.0000000001
 40
-1.102413928352739
 40
-1.102413928352739
 40
-1.102413928352739
 40
0.0
 40
0.0
 40
0.0
 10
12.26852830156241
 20
61.86796065369211
 30
0.0
 41
0.9999999993925148
 10
12.82005778674963
 20
61.86184914781497
 30
0.0
 41
0.9999999996616541
 10
13.37162794413377
 20
61.85574396019927
 30
0.0
 41
1.0
  0
SPLINE
  5
1CC
330
1F
100
AcDbEntity
  8
Make2D visible lines - Tangent
100
AcDbSpline
210
0.0
220
0.0
230
1.0
 70
     8
 71
     3
 72
    14
 73
    10
 74
     0
 42
0.0000000001
 43
0.0000000001
 40
0.0
 40
0.0
 40
0.0
 40
0.0
 40
1.0
 40
2.0
 40
3.0
 40
4.0
 40
5.0
 40
6.0
 40
7.0
 40
7.0
 40
7.0
 40
7.0
 10
13.37162794413377
 20
61.85574396019927
 30
0.0
 10
13.44193355717881
 20
61.85469407147655
 30
0.0
 10
13.57456949958401
 20
61.8343970049014
 30
0.0
 10
13.75694667137441
 20
61.7486121482293
 30
0.0
 10
13.89175771414015
 20
61.58921718140765
 30
0.0
 10
13.88838039984997
 20
61.37602971646422
 30
0.0
 10
13.750409086452
 20
61.219873346625
 30
0.0
 10
13.56701981100042
 20
61.136452712082
 30
0.0
 10
13.43418250896663
 20
61.11754469457037
 30
0.0
 10
13.36774910060788
 20
61.11751485144212
 30
0.0
  0
SPLINE
  5
1CD
330
1F
100
AcDbEntity
  8
Make2D visible lines - Tangent
100
AcDbSpline
210
0.0
220
0.0
230
1.0
 70
    12
 71
     2
 72
     6
 73
     3
 74
     0
 42
0.0000000001
 43
0.0000000001
 40
0.0
 40
0.0
 40
0.0
 40
1.11249869841442
 40
1.11249869841442
 40
1.11249869841442
 10
13.36774910060788
 20
61.11751485144212
 30
0.0
 41
1.0
 10
12.81153356177534
 20
61.11138195787041
 30
0.0
 41
0.999999999658559
 10
12.25531812599437
 20
61.1052397252702
 30
0.0
 41
0.9999999993875965
  0
SPLINE
  5
1CE
330
1F
100
AcDbEntity
  8
Make2D visible lines - Tangent
100
AcDbSpline
210
0.0
220
0.0
230
1.0
 70
    12
 71
     2
 72
     6
 73
     3
 74
     0
 42
0.0000000001
 43
0.0000000001
 40
-1.281345128275022
 40
-1.281345128275022
 40
-1.281345128275022
 40
0.0
 40
0.0
 40
0.0
 10
0.3831789685507876
 20
49.3967704748253
 30
0.0
 41
0.9999999993069708
 10
0.3760743210945504
 20
48.7557307146587
 30
0.0
 41
0.9999999996067377
 10
0.368978209363922
 20
48.11463600791736
 30
0.0
 41
1.0
  0
SPLINE
  5
1CF
330
1F
100
AcDbEntity
  8
Make2D visible lines - Tangent
100
AcDbSpline
210
0.0
220
0.0
230
1.0
 70
     8
 71
     3
 72
    14
 73
    10
 74
     0
 42
0.0000000001
 43
0.0000000001
 40
0.0
 40
0.0
 40
0.0
 40
0.0
 40
1.0
 40
2.0
 40
3.0
 40
4.0
 40
5.0
 40
6.0
 40
7.0
 40
7.0
 40
7.0
 40
7.0
 10
0.368978209363922
 20
48.11463600791736
 30
0.0
 10
0.3679283206412023
 20
48.04433039487232
 30
0.0
 10
0.3476312540660575
 20
47.91169445246712
 30
0.0
 10
0.2618463973939553
 20
47.72931728067672
 30
0.0
 10
0.1024514305723055
 20
47.59450623791098
 30
0.0
 10
-0.1107360343711191
 20
47.59788355220116
 30
0.0
 10
-0.266892404210345
 20
47.73585486559913
 30
0.0
 10
-0.3503130387533445
 20
47.91924414105071
 30
0.0
 10
-0.3692210562649737
 20
48.0520814430845
 30
0.0
 10
-0.3692508993932266
 20
48.11851485144325
 30
0.0
  0
SPLINE
  5
1D0
330
1F
100
AcDbEntity
  8
Make2D visible lines - Tangent
100
AcDbSpline
210
0.0
220
0.0
230
1.0
 70
    12
 71
     2
 72
     6
 73
     3
 74
     0
 42
0.0000000001
 43
0.0000000001
 40
0.0
 40
0.0
 40
0.0
 40
1.27832485214691
 40
1.27832485214691
 40
1.27832485214691
 10
-0.3692508993932266
 20
48.11851485144325
 30
0.0
 41
1.0
 10
-0.376297946081795
 20
48.75763842748832
 30
0.0
 41
0.9999999996076647
 10
-0.383357323396652
 20
49.39676186745559
 30
0.0
 41
0.9999999993083846
  0
SPLINE
  5
1D1
330
1F
100
AcDbEntity
  8
Make2D visible lines - Tangent
100
AcDbSpline
210
0.0
220
0.0
230
1.0
 70
    12
 71
     2
 72
     6
 73
     3
 74
     0
 42
0.0000000001
 43
0.0000000001
 40
-1.115628614902902
 40
-1.115628614902902
 40
-1.115628614902902
 40
0.0
 40
0.0
 40
0.0
 10
-12.25580768748859
 20
61.10492253048142
 30
0.0
 41
0.9999999993860724
 10
-12.81394788864278
 20
61.11110737190627
 30
0.0
 41
0.9999999996575983
 10
-13.37212974291798
 20
61.11728574268721
 30
0.0
 41
1.0
  0
SPLINE
  5
1D2
330
1F
100
AcDbEntity
  8
Make2D visible lines - Tangent
100
AcDbSpline
210
0.0
220
0.0
230
1.0
 70
     8
 71
     3
 72
    14
 73
    10
 74
     0
 42
0.0000000001
 43
0.0000000001
 40
0.0
 40
0.0
 40
0.0
 40
0.0
 40
1.0
 40
2.0
 40
3.0
 40
4.0
 40
5.0
 40
6.0
 40
7.0
 40
7.0
 40
7.0
 40
7.0
 10
-13.37212974291798
 20
61.11728574268721
 30
0.0
 10
-13.44243535596303
 20
61.11833563140993
 30
0.0
 10
-13.57507129836822
 20
61.13863269798507
 30
0.0
 10
-13.75744847015863
 20
61.22441755465718
 30
0.0
 10
-13.89225951292436
 20
61.38381252147882
 30
0.0
 10
-13.88888219863419
 20
61.59699998642225
 30
0.0
 10
-13.75091088523622
 20
61.75315635626148
 30
0.0
 10
-13.56752160978463
 20
61.83657699080447
 30
0.0
 10
-13.43468430775084
 20
61.85548500831611
 30
0.0
 10
-13.36825089939209
 20
61.85551485144436
 30
0.0
  0
SPLINE
  5
1D3
330
1F
100
AcDbEntity
  8
Make2D visible lines - Tangent
100
AcDbSpline
210
0.0
220
0.0
230
1.0
 70
    12
 71
     2
 72
     6
 73
     3
 74
     0
 42
0.0000000001
 43
0.0000000001
 40
0.0
 40
0.0
 40
0.0
 40
1.099286726702814
 40
1.099286726702814
 40
1.099286726702814
 10
-13.36825089939209
 20
61.85551485144436
 30
0.0
 41
1.0
 10
-12.81864094488749
 20
61.86157491111837
 30
0.0
 41
0.9999999996626139
 10
-12.2690310910004
 20
61.86764408931849
 30
0.0
 41
0.9999999993940424
  0
ENDSEC
  0
SECTION
  2
OBJECTS
  0
DICTIONARY
  5
C
330
0
100
AcDbDictionary
281
     1
  3
ACAD_GROUP
350
D
  3
ACAD_LAYOUT
350
1A
  3
ACAD_MLEADERSTYLE
350
1D5
  3
ACAD_MLINESTYLE
350
17
  3
ACAD_PLOTSETTINGS
350
19
  3
ACAD_PLOTSTYLENAME
350
E
  3
ACAD_TABLESTYLE
350
1D4
  3
ACAD_VISUALSTYLE
350
2A
  0
DICTIONARY
  5
D
102
{ACAD_REACTORS
330
C
102
}
330
C
100
AcDbDictionary
281
     1
  0
DICTIONARY
  5
1A
102
{ACAD_REACTORS
330
C
102
}
330
C
100
AcDbDictionary
281
     1
  3
Layout1
350
1E
  3
Layout2
350
26
  3
Model
350
22
  0
DICTIONARY
  5
1D5
102
{ACAD_REACTORS
330
C
102
}
330
C
100
AcDbDictionary
281
     1
  0
DICTIONARY
  5
17
102
{ACAD_REACTORS
330
C
102
}
330
C
100
AcDbDictionary
281
     1
  3
Standard
350
18
  0
DICTIONARY
  5
19
102
{ACAD_REACTORS
330
C
102
}
330
C
100
AcDbDictionary
281
     1
  0
ACDBDICTIONARYWDFLT
  5
E
102
{ACAD_REACTORS
330
C
102
}
330
C
100
AcDbDictionary
281
     1
  3
Normal
350
F
100
AcDbDictionaryWithDefault
340
F
  0
DICTIONARY
  5
1D4
102
{ACAD_REACTORS
330
C
102
}
330
C
100
AcDbDictionary
281
     1
  0
DICTIONARY
  5
2A
102
{ACAD_REACTORS
330
C
102
}
330
C
100
AcDbDictionary
281
     1
  3
2dWireframe
350
2F
  3
3D Hidden
350
31
  3
3dWireframe
350
30
  3
Basic
350
32
  3
Brighten
350
36
  3
ColorChange
350
3A
  3
Conceptual
350
34
  3
Dim
350
35
  3
Facepattern
350
39
  3
Flat
350
2B
  3
FlatWithEdges
350
2C
  3
Gouraud
350
2D
  3
GouraudWithEdges
350
2E
  3
Linepattern
350
38
  3
Realistic
350
33
  3
Thicken
350
37
  0
LAYOUT
  5
1E
102
{ACAD_REACTORS
330
1A
102
}
330
1A
100
AcDbPlotSettings
  1

  2
none_device
  4

  6

 40
0.0
 41
0.0
 42
0.0
 43
0.0
 44
0.0
 45
0.0
 46
0.0
 47
0.0
 48
0.0
 49
0.0
140
0.0
141
0.0
142
1.0
143
1.0
 70
   688
 72
     0
 73
     0
 74
     5
  7

 75
    16
 76
     0
 77
     2
 78
   300
147
1.0
148
0.0
149
0.0
100
AcDbLayout
  1
Layout1
 70
     1
 71
     1
 10
0.0
 20
0.0
 11
12.0
 21
9.0
 12
0.0
 22
0.0
 32
0.0
 14
1.000000000000000E+20
 24
1.000000000000000E+20
 34
1.000000000000000E+20
 15
-1.000000000000000E+20
 25
-1.000000000000000E+20
 35
-1.000000000000000E+20
146
0.0
 13
0.0
 23
0.0
 33
0.0
 16
1.0
 26
0.0
 36
0.0
 17
0.0
 27
1.0
 37
0.0
 76
     0
330
1B
  0
LAYOUT
  5
26
102
{ACAD_REACTORS
330
1A
102
}
330
1A
100
AcDbPlotSettings
  1

  2
none_device
  4

  6

 40
0.0
 41
0.0
 42
0.0
 43
0.0
 44
0.0
 45
0.0
 46
0.0
 47
0.0
 48
0.0
 49
0.0
140
0.0
141
0.0
142
1.0
143
1.0
 70
   688
 72
     0
 73
     0
 74
     5
  7

 75
    16
 76
     0
 77
     2
 78
   300
147
1.0
148
0.0
149
0.0
100
AcDbLayout
  1
Layout2
 70
     1
 71
     2
 10
0.0
 20
0.0
 11
0.0
 21
0.0
 12
0.0
 22
0.0
 32
0.0
 14
0.0
 24
0.0
 34
0.0
 15
0.0
 25
0.0
 35
0.0
146
0.0
 13
0.0
 23
0.0
 33
0.0
 16
1.0
 26
0.0
 36
0.0
 17
0.0
 27
1.0
 37
0.0
 76
     0
330
23
  0
LAYOUT
  5
22
102
{ACAD_REACTORS
330
1A
102
}
330
1A
100
AcDbPlotSettings
  1

  2
none_device
  4

  6

 40
0.0
 41
0.0
 42
0.0
 43
0.0
 44
0.0
 45
0.0
 46
0.0
 47
0.0
 48
0.0
 49
0.0
140
0.0
141
0.0
142
1.0
143
1.0
 70
  1712
 72
     0
 73
     0
 74
     0
  7

 75
     0
 76
     0
 77
     2
 78
   300
147
1.0
148
0.0
149
0.0
100
AcDbLayout
  1
Model
 70
     1
 71
     0
 10
0.0
 20
0.0
 11
12.0
 21
9.0
 12
0.0
 22
0.0
 32
0.0
 14
-14.64960402052019
 24
0.0000000000000034
 34
0.0
 15
57.26436956481862
 25
78.23751051168077
 35
0.0
146
0.0
 13
0.0
 23
0.0
 33
0.0
 16
1.0
 26
0.0
 36
0.0
 17
0.0
 27
1.0
 37
0.0
 76
     0
330
1F
331
29
  0
MLINESTYLE
  5
18
102
{ACAD_REACTORS
330
17
102
}
330
17
100
AcDbMlineStyle
  2
Standard
 70
     0
  3

 62
   256
 51
90.0
 52
90.0
 71
     2
 49
0.5
 62
   256
  6
BYLAYER
 49
-0.5
 62
   256
  6
BYLAYER
  0
ACDBPLACEHOLDER
  5
F
102
{ACAD_REACTORS
330
E
102
}
330
E
  0
VISUALSTYLE
  5
2F
102
{ACAD_REACTORS
330
2A
102
}
330
2A
100
AcDbVisualStyle
  2
2dWireframe
 70
     4
 71
     0
 72
     2
 73
     0
 90
        0
 40
-0.6
 41
-30.0
 62
     5
 63
     7
421
 16777215
 74
     1
 91
        4
 64
     7
 65
   257
 75
     1
175
     1
 42
1.0
 92
        0
 66
   257
 43
1.0
 76
     1
 77
     6
 78
     2
 67
     7
 79
     5
170
     0
171
     0
290
     0
174
     0
 93
        1
 44
0.0
173
     0
291
     0
 45
0.0
1001
ACAD
1000
AcDbSavedByObjectVersion
1070
     0
  0
VISUALSTYLE
  5
31
102
{ACAD_REACTORS
330
2A
102
}
330
2A
100
AcDbVisualStyle
  2
3D Hidden
 70
     6
 71
     1
 72
     2
 73
     2
 90
        0
 40
-0.6
 41
-30.0
 62
     5
 63
     7
421
 16777215
 74
     2
 91
        2
 64
     7
 65
   257
 75
     2
175
     1
 42
40.0
 92
        0
 66
   257
 43
1.0
 76
     1
 77
     6
 78
     2
 67
     7
 79
     3
170
     0
171
     0
290
     0
174
     0
 93
        1
 44
0.0
173
     0
291
     0
 45
0.0
1001
ACAD
1000
AcDbSavedByObjectVersion
1070
     0
  0
VISUALSTYLE
  5
30
102
{ACAD_REACTORS
330
2A
102
}
330
2A
100
AcDbVisualStyle
  2
3dWireframe
 70
     5
 71
     0
 72
     2
 73
     0
 90
        0
 40
-0.6
 41
-30.0
 62
     5
 63
     7
421
 16777215
 74
     1
 91
        4
 64
     7
 65
   257
 75
     1
175
     1
 42
1.0
 92
        0
 66
   257
 43
1.0
 76
     1
 77
     6
 78
     2
 67
     7
 79
     5
170
     0
171
     0
290
     0
174
     0
 93
        1
 44
0.0
173
     0
291
     0
 45
0.0
1001
ACAD
1000
AcDbSavedByObjectVersion
1070
     0
  0
VISUALSTYLE
  5
32
102
{ACAD_REACTORS
330
2A
102
}
330
2A
100
AcDbVisualStyle
  2
Basic
 70
     7
 71
     1
 72
     0
 73
     1
 90
        0
 40
-0.6
 41
-30.0
 62
     5
 63
     7
421
 16777215
 74
     0
 91
        4
 64
     7
 65
   257
 75
     1
175
     1
 42
1.0
 92
        8
 66
     7
 43
1.0
 76
     1
 77
     6
 78
     2
 67
     7
 79
     5
170
     0
171
     0
290
     0
174
     0
 93
        1
 44
0.0
173
     0
291
     1
 45
0.0
1001
ACAD
1000
AcDbSavedByObjectVersion
1070
     0
  0
VISUALSTYLE
  5
36
102
{ACAD_REACTORS
330
2A
102
}
330
2A
100
AcDbVisualStyle
  2
Brighten
 70
    12
 71
     2
 72
     2
 73
     0
 90
        0
 40
-0.6
 41
-30.0
 62
     5
 63
     7
421
 16777215
 74
     1
 91
        4
 64
     7
 65
   257
 75
     1
175
     1
 42
1.0
 92
        8
 66
     7
 43
1.0
 76
     1
 77
     6
 78
     2
 67
     7
 79
     5
170
     0
171
     0
290
     0
174
     0
 93
        1
 44
50.0
173
     0
291
     1
 45
0.0
1001
ACAD
1000
AcDbSavedByObjectVersion
1070
     0
  0
VISUALSTYLE
  5
3A
102
{ACAD_REACTORS
330
2A
102
}
330
2A
100
AcDbVisualStyle
  2
ColorChange
 70
    16
 71
     2
 72
     2
 73
     3
 90
        0
 40
-0.6
 41
-30.0
 62
     5
 63
     8
421
  8421504
 74
     1
 91
        4
 64
     7
 65
   257
 75
     1
175
     1
 42
1.0
 92
        8
 66
     8
424
  8421504
 43
1.0
 76
     1
 77
     6
 78
     2
 67
     7
 79
     5
170
     0
171
     0
290
     0
174
     0
 93
        1
 44
0.0
173
     0
291
     1
 45
0.0
1001
ACAD
1000
AcDbSavedByObjectVersion
1070
     0
  0
VISUALSTYLE
  5
34
102
{ACAD_REACTORS
330
2A
102
}
330
2A
100
AcDbVisualStyle
  2
Conceptual
 70
     9
 71
     3
 72
     2
 73
     0
 90
        0
 40
-0.6
 41
-30.0
 62
     5
 63
     7
421
 16777215
 74
     2
 91
        2
 64
     7
 65
   257
 75
     1
175
     1
 42
40.0
 92
        8
 66
     7
 43
1.0
 76
     1
 77
     6
 78
     2
 67
     7
 79
     3
170
     0
171
     0
290
     0
174
     0
 93
        1
 44
0.0
173
     0
291
     0
 45
0.0
1001
ACAD
1000
AcDbSavedByObjectVersion
1070
     0
  0
VISUALSTYLE
  5
35
102
{ACAD_REACTORS
330
2A
102
}
330
2A
100
AcDbVisualStyle
  2
Dim
 70
    11
 71
     2
 72
     2
 73
     0
 90
        0
 40
-0.6
 41
-30.0
 62
     5
 63
     7
421
 16777215
 74
     1
 91
        4
 64
     7
 65
   257
 75
     1
175
     1
 42
1.0
 92
        8
 66
     7
 43
1.0
 76
     1
 77
     6
 78
     2
 67
     7
 79
     5
170
     0
171
     0
290
     0
174
     0
 93
        1
 44
-50.0
173
     0
291
     1
 45
0.0
1001
ACAD
1000
AcDbSavedByObjectVersion
1070
     0
  0
VISUALSTYLE
  5
39
102
{ACAD_REACTORS
330
2A
102
}
330
2A
100
AcDbVisualStyle
  2
Facepattern
 70
    15
 71
     2
 72
     2
 73
     0
 90
        0
 40
-0.6
 41
-30.0
 62
     5
 63
     7
421
 16777215
 74
     1
 91
        4
 64
     7
 65
   257
 75
     1
175
     1
 42
1.0
 92
        8
 66
     7
 43
1.0
 76
     1
 77
     6
 78
     2
 67
     7
 79
     5
170
     0
171
     0
290
     0
174
     0
 93
        1
 44
0.0
173
     0
291
     1
 45
0.0
1001
ACAD
1000
AcDbSavedByObjectVersion
1070
     0
  0
VISUALSTYLE
  5
2B
102
{ACAD_REACTORS
330
2A
102
}
330
2A
100
AcDbVisualStyle
  2
Flat
 70
     0
 71
     2
 72
     1
 73
     1
 90
        2
 40
-0.6
 41
30.0
 62
     5
 63
     7
421
 16777215
 74
     0
 91
        4
 64
     7
 65
   257
 75
     1
175
     1
 42
1.0
 92
        8
 66
     7
 43
1.0
 76
     1
 77
     6
 78
     2
 67
     7
 79
     5
170
     0
171
     0
290
     0
174
     0
 93
       13
 44
0.0
173
     0
291
     1
 45
0.0
1001
ACAD
1000
AcDbSavedByObjectVersion
1070
     0
  0
VISUALSTYLE
  5
2C
102
{ACAD_REACTORS
330
2A
102
}
330
2A
100
AcDbVisualStyle
  2
FlatWithEdges
 70
     1
 71
     2
 72
     1
 73
     1
 90
        2
 40
-0.6
 41
30.0
 62
     5
 63
     7
421
 16777215
 74
     1
 91
        4
 64
     7
 65
   257
 75
     1
175
     1
 42
1.0
 92
        0
 66
   257
 43
1.0
 76
     1
 77
     6
 78
     2
 67
     7
 79
     5
170
     0
171
     0
290
     0
174
     0
 93
       13
 44
0.0
173
     0
291
     1
 45
0.0
1001
ACAD
1000
AcDbSavedByObjectVersion
1070
     0
  0
VISUALSTYLE
  5
2D
102
{ACAD_REACTORS
330
2A
102
}
330
2A
100
AcDbVisualStyle
  2
Gouraud
 70
     2
 71
     2
 72
     2
 73
     1
 90
        2
 40
-0.6
 41
30.0
 62
     5
 63
     7
421
 16777215
 74
     0
 91
        4
 64
     7
 65
   257
 75
     1
175
     1
 42
1.0
 92
        0
 66
     7
 43
1.0
 76
     1
 77
     6
 78
     2
 67
     7
 79
     5
170
     0
171
     0
290
     0
174
     0
 93
       13
 44
0.0
173
     0
291
     1
 45
0.0
1001
ACAD
1000
AcDbSavedByObjectVersion
1070
     0
  0
VISUALSTYLE
  5
2E
102
{ACAD_REACTORS
330
2A
102
}
330
2A
100
AcDbVisualStyle
  2
GouraudWithEdges
 70
     3
 71
     2
 72
     2
 73
     1
 90
        2
 40
-0.6
 41
30.0
 62
     5
 63
     7
421
 16777215
 74
     1
 91
        4
 64
     7
 65
   257
 75
     1
175
     1
 42
1.0
 92
        0
 66
   257
 43
1.0
 76
     1
 77
     6
 78
     2
 67
     7
 79
     5
170
     0
171
     0
290
     0
174
     0
 93
       13
 44
0.0
173
     0
291
     1
 45
0.0
1001
ACAD
1000
AcDbSavedByObjectVersion
1070
     0
  0
VISUALSTYLE
  5
38
102
{ACAD_REACTORS
330
2A
102
}
330
2A
100
AcDbVisualStyle
  2
Linepattern
 70
    14
 71
     2
 72
     2
 73
     0
 90
        0
 40
-0.6
 41
-30.0
 62
     5
 63
     7
421
 16777215
 74
     1
 91
        4
 64
     7
 65
   257
 75
     7
175
     7
 42
1.0
 92
        8
 66
     7
 43
1.0
 76
     1
 77
     6
 78
     2
 67
     7
 79
     5
170
     0
171
     0
290
     0
174
     0
 93
        1
 44
0.0
173
     0
291
     1
 45
0.0
1001
ACAD
1000
AcDbSavedByObjectVersion
1070
     0
  0
VISUALSTYLE
  5
33
102
{ACAD_REACTORS
330
2A
102
}
330
2A
100
AcDbVisualStyle
  2
Realistic
 70
     8
 71
     2
 72
     2
 73
     0
 90
        0
 40
-0.6
 41
-30.0
 62
     5
 63
     7
421
 16777215
 74
     1
 91
        0
 64
     7
 65
   257
 75
     1
175
     1
 42
1.0
 92
        8
 66
     8
424
  7895160
 43
1.0
 76
     1
 77
     6
 78
     2
 67
     7
 79
     5
170
     0
171
     0
290
     0
174
     0
 93
       13
 44
0.0
173
     0
291
     0
 45
0.0
1001
ACAD
1000
AcDbSavedByObjectVersion
1070
     0
  0
VISUALSTYLE
  5
37
102
{ACAD_REACTORS
330
2A
102
}
330
2A
100
AcDbVisualStyle
  2
Thicken
 70
    13
 71
     2
 72
     2
 73
     0
 90
        0
 40
-0.6
 41
-30.0
 62
     5
 63
     7
421
 16777215
 74
     1
 91
        4
 64
     7
 65
   257
 75
     1
175
     1
 42
1.0
 92
       12
 66
     7
 43
1.0
 76
     1
 77
     6
 78
     2
 67
     7
 79
     5
170
     0
171
     0
290
     0
174
     0
 93
        1
 44
0.0
173
     0
291
     1
 45
0.0
1001
ACAD
1000
AcDbSavedByObjectVersion
1070
     0
  0
ENDSEC
  0
EOF
