  0
SECTION
  2
HEADER
  9
$ACADVER
  1
AC1018
  9
$ACADMAINTVER
 70
     0
  9
$DWGCODEPAGE
  3
ANSI_1252
  9
$INSBASE
 10
0.0
 20
0.0
 30
0.0
  9
$EXTMIN
 10
-24.5464521279639
 20
0.0000000000000034
 30
0.0
  9
$EXTMAX
 10
61.37891704431638
 20
78.80665130773036
 30
0.0
  9
$LIMMIN
 10
0.0
 20
0.0
  9
$LIMMAX
 10
12.0
 20
9.0
  9
$ORTHOMODE
 70
     0
  9
$REGENMODE
 70
     1
  9
$FILLMODE
 70
     1
  9
$QTEXTMODE
 70
     0
  9
$MIRRTEXT
 70
     1
  9
$LTSCALE
 40
0.0393700787401575
  9
$ATTMODE
 70
     1
  9
$TEXTSIZE
 40
0.2
  9
$TRACEWID
 40
0.05
  9
$TEXTSTYLE
  7
Standard
  9
$CLAYER
  8
Default
  9
$CELTYPE
  6
ByLayer
  9
$CECOLOR
 62
   256
  9
$CELTSCALE
 40
1.0
  9
$DISPSILH
 70
     0
  9
$DIMSCALE
 40
1.0
  9
$DIMASZ
 40
0.18
  9
$DIMEXO
 40
0.0625
  9
$DIMDLI
 40
0.38
  9
$DIMRND
 40
0.0
  9
$DIMDLE
 40
0.0
  9
$DIMEXE
 40
0.18
  9
$DIMTP
 40
0.0
  9
$DIMTM
 40
0.0
  9
$DIMTXT
 40
0.18
  9
$DIMCEN
 40
0.09
  9
$DIMTSZ
 40
0.0
  9
$DIMTOL
 70
     0
  9
$DIMLIM
 70
     0
  9
$DIMTIH
 70
     1
  9
$DIMTOH
 70
     1
  9
$DIMSE1
 70
     0
  9
$DIMSE2
 70
     0
  9
$DIMTAD
 70
     0
  9
$DIMZIN
 70
     0
  9
$DIMBLK
  1

  9
$DIMASO
 70
     1
  9
$DIMSHO
 70
     1
  9
$DIMPOST
  1

  9
$DIMAPOST
  1

  9
$DIMALT
 70
     0
  9
$DIMALTD
 70
     2
  9
$DIMALTF
 40
25.4
  9
$DIMLFAC
 40
1.0
  9
$DIMTOFL
 70
     0
  9
$DIMTVP
 40
0.0
  9
$DIMTIX
 70
     0
  9
$DIMSOXD
 70
     0
  9
$DIMSAH
 70
     0
  9
$DIMBLK1
  1

  9
$DIMBLK2
  1

  9
$DIMSTYLE
  2
Standard
  9
$DIMCLRD
 70
     0
  9
$DIMCLRE
 70
     0
  9
$DIMCLRT
 70
     0
  9
$DIMTFAC
 40
1.0
  9
$DIMGAP
 40
0.09
  9
$DIMJUST
 70
     0
  9
$DIMSD1
 70
     0
  9
$DIMSD2
 70
     0
  9
$DIMTOLJ
 70
     1
  9
$DIMTZIN
 70
     0
  9
$DIMALTZ
 70
     0
  9
$DIMALTTZ
 70
     0
  9
$DIMUPT
 70
     0
  9
$DIMDEC
 70
     4
  9
$DIMTDEC
 70
     4
  9
$DIMALTU
 70
     2
  9
$DIMALTTD
 70
     2
  9
$DIMTXSTY
  7
Standard
  9
$DIMAUNIT
 70
     0
  9
$DIMADEC
 70
     0
  9
$DIMALTRND
 40
0.0
  9
$DIMAZIN
 70
     0
  9
$DIMDSEP
 70
    46
  9
$DIMATFIT
 70
     3
  9
$DIMFRAC
 70
     0
  9
$DIMLDRBLK
  1

  9
$DIMLUNIT
 70
     2
  9
$DIMLWD
 70
    -2
  9
$DIMLWE
 70
    -2
  9
$DIMTMOVE
 70
     2
  9
$LUNITS
 70
     2
  9
$LUPREC
 70
     3
  9
$SKETCHINC
 40
0.1
  9
$FILLETRAD
 40
0.5
  9
$AUNITS
 70
     0
  9
$AUPREC
 70
     0
  9
$MENU
  1
.
  9
$ELEVATION
 40
0.0
  9
$PELEVATION
 40
0.0
  9
$THICKNESS
 40
0.0
  9
$LIMCHECK
 70
     0
  9
$CHAMFERA
 40
0.5
  9
$CHAMFERB
 40
0.5
  9
$CHAMFERC
 40
1.0
  9
$CHAMFERD
 40
0.0
  9
$SKPOLY
 70
     0
  9
$TDCREATE
 40
2456338.478352037
  9
$TDUCREATE
 40
2456338.68668537
  9
$TDUPDATE
 40
2456338.478352048
  9
$TDUUPDATE
 40
2456338.686685382
  9
$TDINDWG
 40
0.0000000116
  9
$TDUSRTIMER
 40
0.0000000116
  9
$USRTIMER
 70
     1
  9
$ANGBASE
 50
0.0
  9
$ANGDIR
 70
     0
  9
$PDMODE
 70
     0
  9
$PDSIZE
 40
0.0
  9
$PLINEWID
 40
0.0
  9
$SPLFRAME
 70
     0
  9
$SPLINETYPE
 70
     6
  9
$SPLINESEGS
 70
     8
  9
$HANDSEED
  5
155
  9
$SURFTAB1
 70
     6
  9
$SURFTAB2
 70
     6
  9
$SURFTYPE
 70
     6
  9
$SURFU
 70
     6
  9
$SURFV
 70
     6
  9
$UCSBASE
  2

  9
$UCSNAME
  2

  9
$UCSORG
 10
0.0
 20
0.0
 30
0.0
  9
$UCSXDIR
 10
1.0
 20
0.0
 30
0.0
  9
$UCSYDIR
 10
0.0
 20
1.0
 30
0.0
  9
$UCSORTHOREF
  2

  9
$UCSORTHOVIEW
 70
     0
  9
$UCSORGTOP
 10
0.0
 20
0.0
 30
0.0
  9
$UCSORGBOTTOM
 10
0.0
 20
0.0
 30
0.0
  9
$UCSORGLEFT
 10
0.0
 20
0.0
 30
0.0
  9
$UCSORGRIGHT
 10
0.0
 20
0.0
 30
0.0
  9
$UCSORGFRONT
 10
0.0
 20
0.0
 30
0.0
  9
$UCSORGBACK
 10
0.0
 20
0.0
 30
0.0
  9
$PUCSBASE
  2

  9
$PUCSNAME
  2

  9
$PUCSORG
 10
0.0
 20
0.0
 30
0.0
  9
$PUCSXDIR
 10
1.0
 20
0.0
 30
0.0
  9
$PUCSYDIR
 10
0.0
 20
1.0
 30
0.0
  9
$PUCSORTHOREF
  2

  9
$PUCSORTHOVIEW
 70
     0
  9
$PUCSORGTOP
 10
0.0
 20
0.0
 30
0.0
  9
$PUCSORGBOTTOM
 10
0.0
 20
0.0
 30
0.0
  9
$PUCSORGLEFT
 10
0.0
 20
0.0
 30
0.0
  9
$PUCSORGRIGHT
 10
0.0
 20
0.0
 30
0.0
  9
$PUCSORGFRONT
 10
0.0
 20
0.0
 30
0.0
  9
$PUCSORGBACK
 10
0.0
 20
0.0
 30
0.0
  9
$USERI1
 70
     0
  9
$USERI2
 70
     0
  9
$USERI3
 70
     0
  9
$USERI4
 70
     0
  9
$USERI5
 70
     0
  9
$USERR1
 40
0.0
  9
$USERR2
 40
0.0
  9
$USERR3
 40
0.0
  9
$USERR4
 40
0.0
  9
$USERR5
 40
0.0
  9
$WORLDVIEW
 70
     1
  9
$SHADEDGE
 70
     3
  9
$SHADEDIF
 70
    70
  9
$TILEMODE
 70
     1
  9
$MAXACTVP
 70
    64
  9
$PINSBASE
 10
0.0
 20
0.0
 30
0.0
  9
$PLIMCHECK
 70
     0
  9
$PEXTMIN
 10
1.000000000000000E+20
 20
1.000000000000000E+20
 30
1.000000000000000E+20
  9
$PEXTMAX
 10
-1.000000000000000E+20
 20
-1.000000000000000E+20
 30
-1.000000000000000E+20
  9
$PLIMMIN
 10
0.0
 20
0.0
  9
$PLIMMAX
 10
12.0
 20
9.0
  9
$UNITMODE
 70
     0
  9
$VISRETAIN
 70
     1
  9
$PLINEGEN
 70
     0
  9
$PSLTSCALE
 70
     1
  9
$TREEDEPTH
 70
  3020
  9
$CMLSTYLE
  2
Standard
  9
$CMLJUST
 70
     0
  9
$CMLSCALE
 40
1.0
  9
$PROXYGRAPHICS
 70
     1
  9
$MEASUREMENT
 70
     0
  9
$CELWEIGHT
370
    -1
  9
$ENDCAPS
280
     0
  9
$JOINSTYLE
280
     0
  9
$LWDISPLAY
290
     0
  9
$INSUNITS
 70
     1
  9
$HYPERLINKBASE
  1

  9
$STYLESHEET
  1

  9
$XEDIT
290
     1
  9
$CEPSNTYPE
380
     0
  9
$PSTYLEMODE
290
     1
  9
$FINGERPRINTGUID
  2
{36E4AE55-1699-47CD-95CC-E189ED1A4DC6}
  9
$VERSIONGUID
  2
{FAEB1C32-E019-11D5-929B-00C0DF256EC4}
  9
$EXTNAMES
290
     1
  9
$PSVPSCALE
 40
0.0
  9
$OLESTARTUP
290
     0
  9
$SORTENTS
280
   127
  9
$INDEXCTL
280
     0
  9
$HIDETEXT
280
     1
  9
$XCLIPFRAME
290
     0
  9
$HALOGAP
280
     0
  9
$OBSCOLOR
 70
   257
  9
$OBSLTYPE
280
     0
  9
$INTERSECTIONDISPLAY
280
     0
  9
$INTERSECTIONCOLOR
 70
   257
  9
$DIMASSOC
280
     2
  9
$PROJECTNAME
  1

  0
ENDSEC
  0
SECTION
  2
CLASSES
  0
CLASS
  1
ACDBDICTIONARYWDFLT
  2
AcDbDictionaryWithDefault
  3
ObjectDBX Classes
 90
        0
 91
        4
280
     0
281
     0
  0
CLASS
  1
VISUALSTYLE
  2
AcDbVisualStyle
  3
ObjectDBX Classes
 90
     4095
 91
        4
280
     0
281
     0
  0
ENDSEC
  0
SECTION
  2
TABLES
  0
TABLE
  2
VPORT
  5
8
330
0
100
AcDbSymbolTable
 70
     1
  0
VPORT
  5
29
330
8
100
AcDbSymbolTableRecord
100
AcDbViewportTableRecord
  2
*Active
 70
     0
 10
0.0
 20
0.0
 11
1.0
 21
1.0
 12
18.41623245817624
 22
39.40332565386518
 13
0.0
 23
0.0
 14
0.5
 24
0.5
 15
0.5
 25
0.5
 16
0.0
 26
0.0
 36
1.0
 17
0.0
 27
0.0
 37
0.0
 40
80.38278433388497
 41
1.090331434547982
 42
50.0
 43
0.0
 44
0.0
 50
0.0
 51
0.0
 71
     0
 72
   100
 73
     1
 74
     3
 75
     0
 76
     0
 77
     0
 78
     0
281
     0
 65
     1
110
0.0
120
0.0
130
0.0
111
1.0
121
0.0
131
0.0
112
0.0
122
1.0
132
0.0
 79
     0
146
0.0
  0
ENDTAB
  0
TABLE
  2
LTYPE
  5
5
330
0
100
AcDbSymbolTable
 70
     1
  0
LTYPE
  5
14
330
5
100
AcDbSymbolTableRecord
100
AcDbLinetypeTableRecord
  2
ByBlock
 70
     0
  3

 72
    65
 73
     0
 40
0.0
  0
LTYPE
  5
15
330
5
100
AcDbSymbolTableRecord
100
AcDbLinetypeTableRecord
  2
ByLayer
 70
     0
  3

 72
    65
 73
     0
 40
0.0
  0
LTYPE
  5
16
330
5
100
AcDbSymbolTableRecord
100
AcDbLinetypeTableRecord
  2
Continuous
 70
     0
  3
Solid line
 72
    65
 73
     0
 40
0.0
  0
ENDTAB
  0
TABLE
  2
LAYER
  5
2
330
0
100
AcDbSymbolTable
 70
     4
  0
LAYER
  5
10
330
2
100
AcDbSymbolTableRecord
100
AcDbLayerTableRecord
  2
0
 70
     0
 62
     7
  6
Continuous
370
    -3
390
F
  0
LAYER
  5
3B
330
2
100
AcDbSymbolTableRecord
100
AcDbLayerTableRecord
  2
Make2D visible lines
 70
     0
 62
     7
  6
Continuous
370
    -3
390
F
  0
LAYER
  5
43
330
2
100
AcDbSymbolTableRecord
100
AcDbLayerTableRecord
  2
Make2D visible lines - Tangent
 70
     0
 62
     7
  6
Continuous
370
    -3
390
F
  0
LAYER
  5
4D
330
2
100
AcDbSymbolTableRecord
100
AcDbLayerTableRecord
  2
Default
 70
     0
 62
     7
  6
Continuous
370
    -3
390
F
  0
ENDTAB
  0
TABLE
  2
STYLE
  5
3
330
0
100
AcDbSymbolTable
 70
     1
  0
STYLE
  5
11
330
3
100
AcDbSymbolTableRecord
100
AcDbTextStyleTableRecord
  2
Standard
 70
     0
 40
0.0
 41
1.0
 50
0.0
 71
     0
 42
0.2
  3
txt
  4

  0
ENDTAB
  0
TABLE
  2
VIEW
  5
6
330
0
100
AcDbSymbolTable
 70
     0
  0
ENDTAB
  0
TABLE
  2
UCS
  5
7
330
0
100
AcDbSymbolTable
 70
     0
  0
ENDTAB
  0
TABLE
  2
APPID
  5
9
330
0
100
AcDbSymbolTable
 70
     1
  0
APPID
  5
12
330
9
100
AcDbSymbolTableRecord
100
AcDbRegAppTableRecord
  2
ACAD
 70
     0
  0
ENDTAB
  0
TABLE
  2
DIMSTYLE
  5
A
330
0
100
AcDbSymbolTable
 70
     1
100
AcDbDimStyleTable
  0
DIMSTYLE
105
27
330
A
100
AcDbSymbolTableRecord
100
AcDbDimStyleTableRecord
  2
Standard
 70
     0
340
11
  0
ENDTAB
  0
TABLE
  2
BLOCK_RECORD
  5
1
330
0
100
AcDbSymbolTable
 70
     1
  0
BLOCK_RECORD
  5
1F
330
1
100
AcDbSymbolTableRecord
100
AcDbBlockTableRecord
  2
*Model_Space
340
22
  0
BLOCK_RECORD
  5
1B
330
1
100
AcDbSymbolTableRecord
100
AcDbBlockTableRecord
  2
*Paper_Space
340
1E
  0
BLOCK_RECORD
  5
23
330
1
100
AcDbSymbolTableRecord
100
AcDbBlockTableRecord
  2
*Paper_Space0
340
26
  0
ENDTAB
  0
ENDSEC
  0
SECTION
  2
BLOCKS
  0
BLOCK
  5
20
330
1F
100
AcDbEntity
  8
0
100
AcDbBlockBegin
  2
*Model_Space
 70
     0
 10
0.0
 20
0.0
 30
0.0
  3
*Model_Space
  1

  0
ENDBLK
  5
21
330
1F
100
AcDbEntity
  8
0
100
AcDbBlockEnd
  0
BLOCK
  5
1C
330
1B
100
AcDbEntity
 67
     1
  8
0
100
AcDbBlockBegin
  2
*Paper_Space
 70
     0
 10
0.0
 20
0.0
 30
0.0
  3
*Paper_Space
  1

  0
ENDBLK
  5
1D
330
1B
100
AcDbEntity
 67
     1
  8
0
100
AcDbBlockEnd
  0
BLOCK
  5
24
330
23
100
AcDbEntity
  8
0
100
AcDbBlockBegin
  2
*Paper_Space0
 70
     0
 10
0.0
 20
0.0
 30
0.0
  3
*Paper_Space0
  1

  0
ENDBLK
  5
25
330
23
100
AcDbEntity
  8
0
100
AcDbBlockEnd
  0
ENDSEC
  0
SECTION
  2
ENTITIES
  0
SPLINE
  5
3C
330
1F
100
AcDbEntity
  8
Make2D visible lines
100
AcDbSpline
210
0.0
220
0.0
230
1.0
 70
     8
 71
     3
 72
    11
 73
     7
 74
     0
 42
0.0000000001
 43
0.0000000001
 40
0.0
 40
0.0
 40
0.0
 40
0.0
 40
1.779933691844768
 40
2.456716871258557
 40
3.081424838275757
 40
3.780244987988229
 40
3.780244987988229
 40
3.780244987988229
 40
3.780244987988229
 10
47.74192591102683
 20
15.20486631671762
 30
0.0
 10
47.74049575899197
 20
14.61153312132836
 30
0.0
 10
47.73511561801241
 20
13.79272175968005
 30
0.0
 10
47.72622943125538
 20
12.765484321098
 30
0.0
 10
47.68896672691078
 20
12.09959032509296
 30
0.0
 10
47.64762352918718
 20
11.66028450768195
 30
0.0
 10
47.62133338127384
 20
11.42883335977639
 30
0.0
  0
SPLINE
  5
3D
330
1F
100
AcDbEntity
  8
Make2D visible lines
100
AcDbSpline
210
0.0
220
0.0
230
1.0
 70
    12
 71
     2
 72
     6
 73
     3
 74
     0
 42
0.0000000001
 43
0.0000000001
 40
0.0
 40
0.0
 40
0.0
 40
2.818593858935649
 40
2.818593858935649
 40
2.818593858935649
 10
47.62133338127384
 20
11.42883335977639
 30
0.0
 41
1.0
 10
47.44942944334313
 20
9.96450379509152
 30
0.0
 41
0.9999942670651581
 10
47.29451699499655
 20
8.563741448874278
 30
0.0
 41
1.0
  0
SPLINE
  5
3E
330
1F
100
AcDbEntity
  8
Make2D visible lines
100
AcDbSpline
210
0.0
220
0.0
230
1.0
 70
     8
 71
     3
 72
    11
 73
     7
 74
     0
 42
0.0000000001
 43
0.0000000001
 40
-3.604533747753514
 40
-3.604533747753514
 40
-3.604533747753514
 40
-3.604533747753514
 40
-1.29720077610909
 40
-0.5068718072901084
 40
-0.2444672640635463
 40
0.0
 40
0.0
 40
0.0
 40
0.0
 10
46.74143399219484
 20
15.25949999719881
 30
0.0
 10
46.74266128339057
 20
14.49037666108042
 30
0.0
 10
46.7359234082376
 20
13.45779319357485
 30
0.0
 10
46.69537246961392
 20
12.33830625978791
 30
0.0
 10
46.6656314779032
 20
11.90693170775241
 30
0.0
 10
46.64330874324429
 20
11.73926186251412
 30
0.0
 10
46.63244096336911
 20
11.65856886647449
 30
0.0
  0
SPLINE
  5
3F
330
1F
100
AcDbEntity
  8
Make2D visible lines
100
AcDbSpline
210
0.0
220
0.0
230
1.0
 70
    12
 71
     2
 72
     6
 73
     3
 74
     0
 42
0.0000000001
 43
0.0000000001
 40
-2.272009417850031
 40
-2.272009417850031
 40
-2.272009417850031
 40
0.0
 40
0.0
 40
0.0
 10
46.63244096336911
 20
11.65856886647449
 30
0.0
 41
1.0
 10
46.46237711067311
 20
10.46804224664606
 30
0.0
 41
0.9999808792826932
 10
46.28796755162663
 20
9.34549117618978
 30
0.0
 41
1.0
  0
SPLINE
  5
40
330
1F
100
AcDbEntity
  8
Make2D visible lines
100
AcDbSpline
210
0.0
220
0.0
230
1.0
 70
    12
 71
     2
 72
     6
 73
     3
 74
     0
 42
0.0000000001
 43
0.0000000001
 40
-5.940375403408892
 40
-5.940375403408892
 40
-5.940375403408892
 40
0.0
 40
0.0
 40
0.0
 10
47.74199858029395
 20
15.23025731074658
 30
0.0
 41
1.0
 10
47.74881772167639
 20
18.20043718475646
 30
0.0
 41
0.9999999998889685
 10
47.75564937493628
 20
21.17153577156396
 30
0.0
 41
1.0
  0
SPLINE
  5
41
330
1F
100
AcDbEntity
  8
Make2D visible lines
100
AcDbSpline
210
0.0
220
0.0
230
1.0
 70
    12
 71
     2
 72
     6
 73
     3
 74
     0
 42
0.0000000001
 43
0.0000000001
 40
0.0
 40
0.0
 40
0.0
 40
0.8407959860078048
 40
0.8407959860078048
 40
0.8407959860078048
 10
47.75564937493628
 20
21.17153577156396
 30
0.0
 41
1.0
 10
47.75681289295333
 20
21.59453150398117
 30
0.0
 41
0.9940379545576153
 10
47.84951614715651
 20
22.00630386937982
 30
0.0
 41
1.0
  0
SPLINE
  5
42
330
1F
100
AcDbEntity
  8
Make2D visible lines
100
AcDbSpline
210
0.0
220
0.0
230
1.0
 70
    12
 71
     2
 72
     6
 73
     3
 74
     0
 42
0.0000000001
 43
0.0000000001
 40
-2.264829216482423
 40
-2.264829216482423
 40
-2.264829216482423
 40
0.0
 40
0.0
 40
0.0
 10
47.84951614715651
 20
22.00630386937982
 30
0.0
 41
1.0
 10
48.18931012762668
 20
23.51230228570529
 30
0.0
 41
0.9999999711154947
 10
48.43911411189328
 20
24.61682067115186
 30
0.0
 41
1.0
  0
SPLINE
  5
44
330
1F
100
AcDbEntity
  8
Make2D visible lines - Tangent
100
AcDbSpline
210
0.0
220
0.0
230
1.0
 70
    24
 71
     2
 72
     6
 73
     3
 74
     0
 42
0.0000000001
 43
0.0000000001
 40
0.0
 40
0.0
 40
0.0
 40
2.676270802103183
 40
2.676270802103183
 40
2.676270802103183
 10
46.06499288575284
 20
24.61700000000017
 30
0.0
 10
46.35939529732333
 20
23.31165193469002
 30
0.0
 10
46.65379770889382
 20
22.00630386937986
 30
0.0
  0
SPLINE
  5
45
330
1F
100
AcDbEntity
  8
Make2D visible lines - Tangent
100
AcDbSpline
210
0.0
220
0.0
230
1.0
 70
    12
 71
     2
 72
     6
 73
     3
 74
     0
 42
0.0000000001
 43
0.0000000001
 40
0.0
 40
0.0
 40
0.0
 40
0.8423651494234989
 40
0.8423651494234989
 40
0.8423651494234989
 10
46.65379770889382
 20
22.00630386937986
 30
0.0
 41
1.0
 10
46.74548548206301
 20
21.59411433111337
 30
0.0
 41
0.9940635425065365
 10
46.74337422928946
 20
21.17184804577864
 30
0.0
 41
0.9999833237124235
  0
SPLINE
  5
46
330
1F
100
AcDbEntity
  8
Make2D visible lines - Tangent
100
AcDbSpline
210
0.0
220
0.0
230
1.0
 70
    12
 71
     2
 72
     6
 73
     3
 74
     0
 42
0.0000000001
 43
0.0000000001
 40
-5.88575116928194
 40
-5.88575116928194
 40
-5.88575116928194
 40
0.0
 40
0.0
 40
0.0
 10
46.74337422928946
 20
21.17184804577864
 30
0.0
 41
0.9999999999999543
 10
46.74118552314377
 20
18.22956148283045
 30
0.0
 41
0.9999999998857951
 10
46.74144052802166
 20
15.28727520687736
 30
0.0
 41
1.0
  0
LINE
  5
47
330
1F
100
AcDbEntity
  8
Make2D visible lines
100
AcDbLine
 10
55.20359071781169
 20
24.77155774033148
 30
0.0
 11
54.04212893819869
 21
24.61682067115186
 31
0.0
  0
POLYLINE
  5
48
330
1F
100
AcDbEntity
  8
Make2D visible lines
100
AcDb2dPolyline
 66
     1
 10
0.0
 20
0.0
 30
0.0
  0
VERTEX
  5
49
330
48
100
AcDbEntity
  8
Make2D visible lines
100
AcDbVertex
100
AcDb2dVertex
 10
54.04212893819869
 20
24.61682067115186
 30
0.0
  0
VERTEX
  5
4A
330
48
100
AcDbEntity
  8
Make2D visible lines
100
AcDbVertex
100
AcDb2dVertex
 10
40.66712893819872
 20
24.61682067115186
 30
0.0
  0
SEQEND
  5
4B
330
48
100
AcDbEntity
  8
Make2D visible lines
  0
LINE
  5
4C
330
1F
100
AcDbEntity
  8
Make2D visible lines
100
AcDbLine
 10
40.66712893819872
 20
24.61682067115186
 30
0.0
 11
39.50566715858571
 21
24.77155774033149
 31
0.0
  0
POLYLINE
  5
4E
330
1F
100
AcDbEntity
  8
Default
100
AcDb2dPolyline
 66
     1
 10
0.0
 20
0.0
 30
0.0
  0
VERTEX
  5
4F
330
4E
100
AcDbEntity
  8
Default
100
AcDbVertex
100
AcDb2dVertex
 10
55.20359071781169
 20
24.77155774033146
 30
0.0
  0
VERTEX
  5
50
330
4E
100
AcDbEntity
  8
Default
100
AcDbVertex
100
AcDb2dVertex
 10
39.50566715858571
 20
24.77155774033146
 30
0.0
  0
SEQEND
  5
51
330
4E
100
AcDbEntity
  8
Default
  0
SPLINE
  5
52
330
1F
100
AcDbEntity
  8
Default
100
AcDbSpline
210
0.0
220
0.0
230
1.0
 70
    12
 71
     2
 72
     6
 73
     3
 74
     0
 42
0.0000000001
 43
0.0000000001
 40
0.0
 40
0.0
 40
0.0
 40
0.0431172320695658
 40
0.0431172320695658
 40
0.0431172320695658
 10
39.50566715858571
 20
24.77155774033146
 30
0.0
 41
1.0
 10
39.47971047002705
 20
24.77509810195347
 30
0.0
 41
0.754396026161636
 10
39.47962893819872
 20
24.8012949947827
 30
0.0
 41
1.0
  0
SPLINE
  5
53
330
1F
100
AcDbEntity
  8
Default
100
AcDbSpline
210
0.0
220
0.0
230
1.0
 70
    24
 71
     2
 72
     6
 73
     3
 74
     0
 42
0.0000000001
 43
0.0000000001
 40
0.0
 40
0.0
 40
0.0
 40
0.1037317171327032
 40
0.1037317171327032
 40
0.1037317171327032
 10
39.47962893819872
 20
24.8012949947827
 30
0.0
 10
39.47962893819872
 20
24.85316085334906
 30
0.0
 10
39.47962893819872
 20
24.90502671191541
 30
0.0
  0
SPLINE
  5
54
330
1F
100
AcDbEntity
  8
Default
100
AcDbSpline
210
0.0
220
0.0
230
1.0
 70
    12
 71
     2
 72
     6
 73
     3
 74
     0
 42
0.0000000001
 43
0.0000000001
 40
0.0
 40
0.0
 40
0.0
 40
0.0470942880630165
 40
0.0470942880630165
 40
0.0470942880630165
 10
39.47962893819872
 20
24.90502671191541
 30
0.0
 41
1.0
 10
39.47969723710277
 20
24.93495813719535
 30
0.0
 41
0.7087216954127066
 10
39.50962866175206
 20
24.93502671191414
 30
0.0
 41
1.0
  0
POLYLINE
  5
55
330
1F
100
AcDbEntity
  8
Default
100
AcDb2dPolyline
 66
     1
 10
0.0
 20
0.0
 30
0.0
  0
VERTEX
  5
56
330
55
100
AcDbEntity
  8
Default
100
AcDbVertex
100
AcDb2dVertex
 10
39.50962866175206
 20
24.93502671191414
 30
0.0
  0
VERTEX
  5
57
330
55
100
AcDbEntity
  8
Default
100
AcDbVertex
100
AcDb2dVertex
 10
55.19962921464534
 20
24.93502671191413
 30
0.0
  0
SEQEND
  5
58
330
55
100
AcDbEntity
  8
Default
  0
SPLINE
  5
59
330
1F
100
AcDbEntity
  8
Default
100
AcDbSpline
210
0.0
220
0.0
230
1.0
 70
    12
 71
     2
 72
     6
 73
     3
 74
     0
 42
0.0000000001
 43
0.0000000001
 40
0.0
 40
0.0
 40
0.0
 40
0.0470830900804005
 40
0.0470830900804005
 40
0.0470830900804005
 10
55.19962921464534
 20
24.93502671191413
 30
0.0
 41
1.0
 10
55.22953457270286
 20
24.93493207084377
 30
0.0
 41
0.709337752437847
 10
55.2296289381987
 20
24.9050267119154
 30
0.0
 41
1.0
  0
SPLINE
  5
5A
330
1F
100
AcDbEntity
  8
Default
100
AcDbSpline
210
0.0
220
0.0
230
1.0
 70
    24
 71
     2
 72
     6
 73
     3
 74
     0
 42
0.0000000001
 43
0.0000000001
 40
0.0
 40
0.0
 40
0.0
 40
0.1037317171327068
 40
0.1037317171327068
 40
0.1037317171327068
 10
55.2296289381987
 20
24.90502671191541
 30
0.0
 10
55.2296289381987
 20
24.85316085334906
 30
0.0
 10
55.2296289381987
 20
24.8012949947827
 30
0.0
  0
SPLINE
  5
5B
330
1F
100
AcDbEntity
  8
Default
100
AcDbSpline
210
0.0
220
0.0
230
1.0
 70
    12
 71
     2
 72
     6
 73
     3
 74
     0
 42
0.0000000001
 43
0.0000000001
 40
0.0
 40
0.0
 40
0.0
 40
0.0431192810070287
 40
0.0431192810070287
 40
0.0431192810070287
 10
55.2296289381987
 20
24.8012949947827
 30
0.0
 41
1.0
 10
55.22955242730028
 20
24.77509370557987
 30
0.0
 41
0.7542698814906877
 10
55.20359071781169
 20
24.77155774033146
 30
0.0
 41
1.0
  0
SPLINE
  5
5C
330
1F
100
AcDbEntity
  8
Make2D visible lines - Tangent
100
AcDbSpline
210
0.0
220
0.0
230
1.0
 70
    24
 71
     2
 72
     6
 73
     3
 74
     0
 42
0.0000000001
 43
0.0000000001
 40
0.0
 40
0.0
 40
0.0
 40
15.69160664433937
 40
15.69160664433937
 40
15.69160664433937
 10
39.51138891434547
 20
24.77155774033019
 30
0.0
 10
47.35719223651515
 20
24.77155774033019
 30
0.0
 10
55.20299555868483
 20
24.77155774033019
 30
0.0
  0
SPLINE
  5
5D
330
1F
100
AcDbEntity
  8
Make2D visible lines - Tangent
100
AcDbSpline
210
0.0
220
0.0
230
1.0
 70
    12
 71
     2
 72
   168
 73
   165
 74
     0
 42
0.0000000001
 43
0.0000000001
 40
0.0
 40
0.0
 40
0.0
 40
0.015021989968577
 40
0.015021989968577
 40
0.051551928722867
 40
0.051551928722867
 40
0.0894712432324911
 40
0.0894712432324911
 40
0.1296939146721004
 40
0.1296939146721004
 40
0.1719109998558032
 40
0.1719109998558032
 40
0.2154543440223546
 40
0.2154543440223546
 40
0.2609378630050392
 40
0.2609378630050392
 40
0.3092910283666909
 40
0.3092910283666909
 40
0.3601399040758894
 40
0.3601399040758894
 40
0.4132603495470507
 40
0.4132603495470507
 40
0.4710138206300436
 40
0.4710138206300436
 40
0.5303626646689842
 40
0.5303626646689842
 40
0.5861693475074784
 40
0.5861693475074784
 40
0.6391160027546067
 40
0.6391160027546067
 40
0.6890012439441937
 40
0.6890012439441937
 40
0.7354407662702335
 40
0.7354407662702335
 40
0.779389440435299
 40
0.779389440435299
 40
0.8209979786887035
 40
0.8209979786887035
 40
0.8597122247946397
 40
0.8597122247946397
 40
0.8957950001069913
 40
0.8957950001069913
 40
0.9297770759711769
 40
0.9297770759711769
 40
0.9621449825827371
 40
0.9621449825827371
 40
0.9925039414617204
 40
0.9925039414617204
 40
1.020684937616956
 40
1.020684937616956
 40
1.047149183588244
 40
1.047149183588244
 40
1.072161784715542
 40
1.072161784715542
 40
1.096046611308184
 40
1.096046611308184
 40
1.118950300472953
 40
1.118950300472953
 40
1.140510737365714
 40
1.140510737365714
 40
1.160696427867576
 40
1.160696427867576
 40
1.179755201168048
 40
1.179755201168048
 40
1.1978706834864
 40
1.1978706834864
 40
1.21518721707539
 40
1.21518721707539
 40
1.231826500449564
 40
1.231826500449564
 40
1.247902709729269
 40
1.247902709729269
 40
1.263453306408179
 40
1.263453306408179
 40
1.278401978936106
 40
1.278401978936106
 40
1.29278424942642
 40
1.29278424942642
 40
1.306694454854593
 40
1.306694454854593
 40
1.320210045380573
 40
1.320210045380573
 40
1.333400267246444
 40
1.333400267246444
 40
1.346289316265108
 40
1.346289316265108
 40
1.358907416909897
 40
1.358907416909897
 40
1.371277469388944
 40
1.371277469388944
 40
1.383280553728823
 40
1.383280553728823
 40
1.394843158585906
 40
1.394843158585906
 40
1.405992261601672
 40
1.405992261601672
 40
1.41677943021656
 40
1.41677943021656
 40
1.427290478451308
 40
1.427290478451308
 40
1.43754620540243
 40
1.43754620540243
 40
1.447550849519819
 40
1.447550849519819
 40
1.45731295670005
 40
1.45731295670005
 40
1.466841238641767
 40
1.466841238641767
 40
1.476146165782036
 40
1.476146165782036
 40
1.485234563343965
 40
1.485234563343965
 40
1.494159713944815
 40
1.494159713944815
 40
1.503025142614305
 40
1.503025142614305
 40
1.51183846886651
 40
1.51183846886651
 40
1.520590829644598
 40
1.520590829644598
 40
1.529279114102458
 40
1.529279114102458
 40
1.537898550691676
 40
1.537898550691676
 40
1.546446260276203
 40
1.546446260276203
 40
1.554919192258098
 40
1.554919192258098
 40
1.563311251212902
 40
1.563311251212902
 40
1.5716591198397
 40
1.5716591198397
 40
1.580054687456122
 40
1.580054687456122
 40
1.588517149535702
 40
1.588517149535702
 40
1.59704197902918
 40
1.59704197902918
 40
1.605631032246523
 40
1.605631032246523
 40
1.614283700942016
 40
1.614283700942016
 40
1.622999503899794
 40
1.622999503899794
 40
1.631778116469002
 40
1.631778116469002
 40
1.640614837587183
 40
1.640614837587183
 40
1.649519914514239
 40
1.649519914514239
 40
1.658558151713763
 40
1.658558151713763
 40
1.667762687906858
 40
1.667762687906858
 40
1.67714135148816
 40
1.67714135148816
 40
1.686701789450967
 40
1.686701789450967
 40
1.696453734203208
 40
1.696453734203208
 40
1.70640503812034
 40
1.70640503812034
 40
1.716564179945947
 40
1.716564179945947
 40
1.726936846652795
 40
1.726936846652795
 40
1.726936846652795
 10
46.28796629701672
 20
9.345484882224035
 30
0.0
 41
1.0
 10
46.28679610044053
 20
9.338065573314042
 30
0.0
 41
0.9999938969581084
 10
46.28567777402086
 20
9.33063826890747
 30
0.0
 41
1.0
 10
46.28295934736203
 20
9.312576316170707
 30
0.0
 41
0.9999665630309221
 10
46.28053668054244
 20
9.294472320323225
 30
0.0
 41
1.0
 10
46.27802207268074
 20
9.275679750387742
 30
0.0
 41
0.9999680077335078
 10
46.27580841936675
 20
9.25684935802636
 30
0.0
 41
1.0
 10
46.27346012512288
 20
9.236875161803681
 30
0.0
 41
0.9999681516005677
 10
46.27143094655516
 20
9.216866028015872
 30
0.0
 41
1.0
 10
46.26930101296009
 20
9.195864770803533
 30
0.0
 41
0.9999682701969723
 10
46.26750593490846
 20
9.174832245600726
 30
0.0
 41
1.0
 10
46.26565461416729
 20
9.153138985393252
 30
0.0
 41
0.9999695876220502
 10
46.26414187823153
 20
9.131419488232764
 30
0.0
 41
1.0
 10
46.26256200274241
 20
9.108732224801841
 30
0.0
 41
0.9999705575814505
 10
46.26133048853698
 20
9.086023387286303
 30
0.0
 41
1.0
 10
46.26002107942664
 20
9.061881814860993
 30
0.0
 41
0.999970590113061
 10
46.25908211373433
 20
9.037722998358246
 30
0.0
 41
1.0
 10
46.25809451423731
 20
9.012317252368632
 30
0.0
 41
0.9999707138085828
 10
46.25749588973488
 20
8.98689936632828
 30
0.0
 41
1.0
 10
46.25687107578153
 20
8.960345990048705
 30
0.0
 41
0.9999715588544529
 10
46.25664685165297
 20
8.93378621015765
 30
0.0
 41
1.0
 10
46.25640155731088
 20
8.90490993156937
 30
0.0
 41
0.9999696196146298
 10
46.25660645221811
 20
8.876033338063568
 30
0.0
 41
1.0
 10
46.25681282570187
 20
8.846358942680855
 30
0.0
 41
0.9999650732783176
 10
46.25751517623244
 20
8.816692142464513
 30
0.0
 41
1.0
 10
46.25817647489502
 20
8.788795966527111
 30
0.0
 41
0.9999638929778903
 10
46.25931177362354
 20
8.760915058280634
 30
0.0
 41
1.0
 10
46.26038851929827
 20
8.734462974624975
 30
0.0
 41
0.999962508616763
 10
46.26192319291948
 20
8.70803350456123
 30
0.0
 41
1.0
 10
46.26336877110209
 20
8.683132152182647
 30
0.0
 41
0.9999605518263267
 10
46.26525646500615
 20
8.658260408008003
 30
0.0
 41
1.0
 10
46.267014083955
 20
8.635106635887329
 30
0.0
 41
0.9999595510601171
 10
46.26918790257204
 20
8.61198822546607
 30
0.0
 41
1.0
 10
46.27124545297587
 20
8.590109812138028
 30
0.0
 41
0.99995807622277
 10
46.27370331121671
 20
8.568272746944077
 30
0.0
 41
1.0
 10
46.27602961933923
 20
8.547598331875223
 30
0.0
 41
0.9999557563838556
 10
46.27874445300078
 20
8.526971339217297
 30
0.0
 41
1.0
 10
46.28127063259707
 20
8.507779163846587
 30
0.0
 41
0.9999540339026077
 10
46.28416436064396
 20
8.488638957034656
 30
0.0
 41
1.0
 10
46.28686162851332
 20
8.470799762555433
 30
0.0
 41
0.9999528932316478
 10
46.28990467525852
 20
8.453016287638166
 30
0.0
 41
1.0
 10
46.29277081226954
 20
8.436268174468408
 30
0.0
 41
0.9999515104976218
 10
46.2959662372558
 20
8.419579756470585
 30
0.0
 41
1.0
 10
46.29900967420141
 20
8.403683984190948
 30
0.0
 41
0.9999492048826203
 10
46.30237290572658
 20
8.387852788452278
 30
0.0
 41
1.0
 10
46.3055270519041
 20
8.373004068631912
 30
0.0
 41
0.999946223912899
 10
46.30898848324606
 20
8.358223959989624
 30
0.0
 41
1.0
 10
46.31220190714478
 20
8.34450424074339
 30
0.0
 41
0.9999446507213984
 10
46.31570329925846
 20
8.3308551732802
 30
0.0
 41
1.0
 10
46.31899157865723
 20
8.318037621451344
 30
0.0
 41
0.9999428722561221
 10
46.32255310164488
 20
8.305293290543123
 30
0.0
 41
1.0
 10
46.32591939317108
 20
8.293248046316618
 30
0.0
 41
0.9999411518753504
 10
46.32954622575147
 20
8.281278672375205
 30
0.0
 41
1.0
 10
46.33300969709695
 20
8.269849009611367
 30
0.0
 41
0.9999390602789673
 10
46.33672466971236
 20
8.25849859978957
 30
0.0
 41
1.0
 10
46.34028683221808
 20
8.247614351364303
 30
0.0
 41
0.9999364047627894
 10
46.34409357148655
 20
8.236813212459454
 30
0.0
 41
1.0
 10
46.34767685946984
 20
8.226645441761745
 30
0.0
 41
0.9999328620968048
 10
46.35149480845592
 20
8.216563439020616
 30
0.0
 41
1.0
 10
46.35506948075131
 20
8.207124335304481
 30
0.0
 41
0.9999305343582732
 10
46.3588656562532
 20
8.197772115645902
 30
0.0
 41
1.0
 10
46.36245002396804
 20
8.188942039441036
 30
0.0
 41
0.9999279234612297
 10
46.36624537366122
 20
8.180200571692122
 30
0.0
 41
1.0
 10
46.36985296807929
 20
8.171891774121903
 30
0.0
 41
0.9999252323885292
 10
46.37366267221135
 20
8.163673683773519
 30
0.0
 41
1.0
 10
46.37730443270826
 20
8.155818053724792
 30
0.0
 41
0.9999223812644737
 10
46.38114079697404
 20
8.148055602295011
 30
0.0
 41
1.0
 10
46.3848272028247
 20
8.140596763184972
 30
0.0
 41
0.999919487485778
 10
46.38870170129398
 20
8.133233874446391
 30
0.0
 41
1.0
 10
46.39244513113017
 20
8.126120149735677
 30
0.0
 41
0.9999162000687793
 10
46.39637147600905
 20
8.11910572444985
 30
0.0
 41
1.0
 10
46.40016945528223
 20
8.11232062379552
 30
0.0
 41
0.9999135013630419
 10
46.40414458795852
 20
8.10563776829395
 30
0.0
 41
1.0
 10
46.40796578433625
 20
8.099213527802858
 30
0.0
 41
0.9999099947791988
 10
46.41195797113223
 20
8.092894124964735
 30
0.0
 41
1.0
 10
46.41579897563311
 20
8.086814192340752
 30
0.0
 41
0.9999061726777286
 10
46.41980509356347
 20
8.080841762733291
 30
0.0
 41
1.0
 10
46.42367976597577
 20
8.075065373929256
 30
0.0
 41
0.9999023324648381
 10
46.42771436933522
 20
8.06939953509904
 30
0.0
 41
1.0
 10
46.43163457527043
 20
8.063894448630563
 30
0.0
 41
0.9998982768291673
 10
46.43571020939611
 20
8.058503419222985
 30
0.0
 41
1.0
 10
46.43968777609074
 20
8.053242184483164
 30
0.0
 41
0.9998941487598454
 10
46.44381674041968
 20
8.048098909129065
 30
0.0
 41
1.0
 10
46.44785143447499
 20
8.043073053881622
 30
0.0
 41
0.9998902036246563
 10
46.45203328910852
 20
8.038168966921525
 30
0.0
 41
1.0
 10
46.45612728883479
 20
8.033367994123953
 30
0.0
 41
0.999885878147773
 10
46.4603644627798
 20
8.028692897277729
 30
0.0
 41
1.0
 10
46.46451837344922
 20
8.02410971121981
 30
0.0
 41
0.9998820182623526
 10
46.46881110870991
 20
8.019656286439636
 30
0.0
 41
1.0
 10
46.47297653979891
 20
8.015335014324837
 30
0.0
 41
0.9998813203850558
 10
46.47727312491945
 20
8.011144123590245
 30
0.0
 41
1.0
 10
46.48141207227136
 20
8.007107073603148
 30
0.0
 41
0.999883332956839
 10
46.48567240434837
 20
8.003198336163278
 30
0.0
 41
1.0
 10
46.48978039690945
 20
7.999429417999521
 30
0.0
 41
0.9998860410670191
 10
46.49400029912717
 20
7.995786236384506
 30
0.0
 41
1.0
 10
46.4980833687118
 20
7.992261529173546
 30
0.0
 41
0.9998900200858785
 10
46.50226917796635
 20
7.988859468174615
 30
0.0
 41
1.0
 10
46.50634774980404
 20
7.985544404573818
 30
0.0
 41
0.9998951693522066
 10
46.5105206010718
 20
7.982348828380147
 30
0.0
 41
1.0
 10
46.51459210053708
 20
7.979230908220183
 30
0.0
 41
0.9998987526914282
 10
46.51875067632619
 20
7.976230111421662
 30
0.0
 41
1.0
 10
46.52280743665256
 20
7.973302796564666
 30
0.0
 41
0.9999025836927364
 10
46.52694432668478
 20
7.970489859046895
 30
0.0
 41
1.0
 10
46.53098092710807
 20
7.967745134213406
 30
0.0
 41
0.9999064139475179
 10
46.53509110936977
 20
7.965111874035527
 30
0.0
 41
1.0
 10
46.53910284036618
 20
7.962541704976752
 30
0.0
 41
0.9999102832948658
 10
46.54318198027434
 20
7.960079922657366
 30
0.0
 41
1.0
 10
46.54716549498686
 20
7.957675862110828
 30
0.0
 41
0.9999141032493661
 10
46.55121065436062
 20
7.955377040191415
 30
0.0
 41
1.0
 10
46.55516168075042
 20
7.953131736017722
 30
0.0
 41
0.9999180051422796
 10
46.55916891148711
 20
7.950988350334272
 30
0.0
 41
1.0
 10
46.56310436512354
 20
7.948883882496243
 30
0.0
 41
0.9999246143570089
 10
46.56709030831123
 20
7.946876686165414
 30
0.0
 41
1.0
 10
46.57104935149822
 20
7.944882512466849
 30
0.0
 41
0.9999314786849639
 10
46.5750539952799
 20
7.94298157062706
 30
0.0
 41
1.0
 10
46.57903513835192
 20
7.941091893638222
 30
0.0
 41
0.9999343713115665
 10
46.58305853195333
 20
7.939293927228649
 30
0.0
 41
1.0
 10
46.58705406695607
 20
7.937508361873125
 30
0.0
 41
0.9999377836118847
 10
46.59108844030389
 20
7.935812373875729
 30
0.0
 41
1.0
 10
46.5950932706261
 20
7.934128806915563
 30
0.0
 41
0.999940712453852
 10
46.59913381397195
 20
7.932532851687657
 30
0.0
 41
1.0
 10
46.60314232741846
 20
7.930949535080444
 30
0.0
 41
0.9999434825835466
 10
46.60718359926949
 20
7.929451805680392
 30
0.0
 41
1.0
 10
46.61119123248961
 20
7.927966536110227
 30
0.0
 41
0.999946012101723
 10
46.6152288654842
 20
7.926564869415174
 30
0.0
 41
1.0
 10
46.61923116739738
 20
7.925175459519064
 30
0.0
 41
0.9999483377231314
 10
46.62326088677381
 20
7.923867697227598
 30
0.0
 41
1.0
 10
46.62725213451203
 20
7.922572410964755
 30
0.0
 41
0.999950520409857
 10
46.63126836129138
 20
7.921356784596409
 30
0.0
 41
1.0
 10
46.63526353790441
 20
7.920147921890417
 30
0.0
 41
0.999954475118939
 10
46.63928105563708
 20
7.919015518923727
 30
0.0
 41
1.0
 10
46.64332141283309
 20
7.917876275539031
 30
0.0
 41
0.9999585954298412
 10
46.64738183393481
 20
7.916810751143446
 30
0.0
 41
1.0
 10
46.65147462223824
 20
7.915736807384932
 30
0.0
 41
0.9999599879389214
 10
46.65558596873634
 20
7.914736256903543
 30
0.0
 41
1.0
 10
46.6597276022899
 20
7.913728298771093
 30
0.0
 41
0.9999616677654989
 10
46.66388625098735
 20
7.912793018545782
 30
0.0
 41
1.0
 10
46.66807622567273
 20
7.911850691532996
 30
0.0
 41
0.9999630254486205
 10
46.67228178676132
 20
7.910980562810733
 30
0.0
 41
1.0
 10
46.67651849080097
 20
7.910103978660924
 30
0.0
 41
0.9999642589611448
 10
46.68076941101747
 20
7.909299156814628
 30
0.0
 41
1.0
 10
46.68505134365586
 20
7.90848845588995
 30
0.0
 41
0.9999653353363037
 10
46.68934618247089
 20
7.907749170652902
 30
0.0
 41
1.0
 10
46.69367196774284
 20
7.907004551282586
 30
0.0
 41
0.9999662672362309
 10
46.69800940104616
 20
7.90633109113897
 30
0.0
 41
1.0
 10
46.70237553948159
 20
7.905653151341271
 30
0.0
 41
0.9999670700847889
 10
46.70675210588201
 20
7.90504616390376
 30
0.0
 41
1.0
 10
46.71116254133991
 20
7.904434608005453
 30
0.0
 41
0.9999681184104892
 10
46.71558218074471
 20
7.903893563574256
 30
0.0
 41
1.0
 10
46.72006789372708
 20
7.903344343210499
 30
0.0
 41
0.999969481483719
 10
46.72456164050129
 20
7.902865277560146
 30
0.0
 41
1.0
 10
46.72913806719041
 20
7.90237738898271
 30
0.0
 41
0.9999700848217764
 10
46.73372149363157
 20
7.901960353536767
 30
0.0
 41
1.0
 10
46.7383916256693
 20
7.901535427384258
 30
0.0
 41
0.9999705724561045
 10
46.74306772757106
 20
7.901182204382325
 30
0.0
 41
1.0
 10
46.74783445863633
 20
7.900822131553642
 30
0.0
 41
0.9999709870484602
 10
46.75260612201341
 20
7.900534718773274
 30
0.0
 41
1.0
 10
46.75747336622582
 20
7.900241546538413
 30
0.0
 41
0.999971308145742
 10
46.76234449336458
 20
7.900022146036077
 30
0.0
 41
1.0
 10
46.76731520011777
 20
7.899798258310139
 30
0.0
 41
0.9999715568877097
 10
46.7722887184843
 20
7.89964937447068
 30
0.0
 41
1.0
 10
46.77736611060382
 20
7.89949737927124
 30
0.0
 41
0.9999717294994794
 10
46.78244521430685
 20
7.899421756192332
 30
0.0
 41
1.0
 10
46.78763107015558
 20
7.899344537385381
 30
0.0
 41
0.9999718398339108
 10
46.7928175008395
 20
7.899345160989983
 30
0.0
 41
1.0
  0
SPLINE
  5
5E
330
1F
100
AcDbEntity
  8
Make2D visible lines - Tangent
100
AcDbSpline
210
0.0
220
0.0
230
1.0
 70
    12
 71
     2
 72
   134
 73
   131
 74
     0
 42
0.0000000001
 43
0.0000000001
 40
0.0
 40
0.0
 40
0.0
 40
0.0103618007057328
 40
0.0103618007057328
 40
0.0204971898813582
 40
0.0204971898813582
 40
0.0304129655268391
 40
0.0304129655268391
 40
0.0401175645491072
 40
0.0401175645491072
 40
0.0496191879293457
 40
0.0496191879293457
 40
0.0589278886109421
 40
0.0589278886109421
 40
0.0680512565808454
 40
0.0680512565808454
 40
0.0769969964223616
 40
0.0769969964223616
 40
0.0858009152299
 40
0.0858009152299
 40
0.0945248126129193
 40
0.0945248126129193
 40
0.1031805605980915
 40
0.1031805605980915
 40
0.1117631953876731
 40
0.1117631953876731
 40
0.1202725454240848
 40
0.1202725454240848
 40
0.1287081359833104
 40
0.1287081359833104
 40
0.1370706041255511
 40
0.1370706041255511
 40
0.1453604779508667
 40
0.1453604779508667
 40
0.1535754323586221
 40
0.1535754323586221
 40
0.1617340423027064
 40
0.1617340423027064
 40
0.1699310288715412
 40
0.1699310288715412
 40
0.1781990165891735
 40
0.1781990165891735
 40
0.1865331977260289
 40
0.1865331977260289
 40
0.1949302172379227
 40
0.1949302172379227
 40
0.2033878881179739
 40
0.2033878881179739
 40
0.2119018369398998
 40
0.2119018369398998
 40
0.2204697947814767
 40
0.2204697947814767
 40
0.2290818969221475
 40
0.2290818969221475
 40
0.237751508097219
 40
0.237751508097219
 40
0.2465795045135971
 40
0.2465795045135971
 40
0.2556178142405355
 40
0.2556178142405355
 40
0.2648731571433803
 40
0.2648731571433803
 40
0.2743560983835703
 40
0.2743560983835703
 40
0.2840761778981557
 40
0.2840761778981557
 40
0.2940427368251433
 40
0.2940427368251433
 40
0.3042596265524666
 40
0.3042596265524666
 40
0.3147509161730592
 40
0.3147509161730592
 40
0.325600563816459
 40
0.325600563816459
 40
0.3368583705776335
 40
0.3368583705776335
 40
0.3485617491143247
 40
0.3485617491143247
 40
0.3606834957140744
 40
0.3606834957140744
 40
0.3731122898029783
 40
0.3731122898029783
 40
0.3858312088060758
 40
0.3858312088060758
 40
0.3988651812823669
 40
0.3988651812823669
 40
0.4122395568524631
 40
0.4122395568524631
 40
0.4260245278737769
 40
0.4260245278737769
 40
0.4402915028995758
 40
0.4402915028995758
 40
0.4551459966841598
 40
0.4551459966841598
 40
0.470618477062563
 40
0.470618477062563
 40
0.4866096481795588
 40
0.4866096481795588
 40
0.5031793207605351
 40
0.5031793207605351
 40
0.5204354462945071
 40
0.5204354462945071
 40
0.5385003925120821
 40
0.5385003925120821
 40
0.5575211780563534
 40
0.5575211780563534
 40
0.5776726652400456
 40
0.5776726652400456
 40
0.5992163574304467
 40
0.5992163574304467
 40
0.6220917583289378
 40
0.6220917583289378
 40
0.6458951581886722
 40
0.6458951581886722
 40
0.6708691062540574
 40
0.6708691062540574
 40
0.69729131039346
 40
0.69729131039346
 40
0.7254113623190559
 40
0.7254113623190559
 40
0.7557257674892728
 40
0.7557257674892728
 40
0.7879884215789752
 40
0.7879884215789752
 40
0.8217798069115194
 40
0.8217798069115194
 40
0.8576753667354315
 40
0.8576753667354315
 40
0.8961452136044132
 40
0.8961452136044132
 40
0.9320676884465922
 40
0.9320676884465922
 40
0.9320676884465922
 10
46.7928175008395
 20
7.899345160989979
 30
0.0
 41
1.0
 10
46.79799849875115
 20
7.899345456957674
 30
0.0
 41
0.9999717526200459
 10
46.8031789068236
 20
7.899423634007142
 30
0.0
 41
1.0
 10
46.808246121055
 20
7.899500095181978
 30
0.0
 41
0.9999714413475868
 10
46.81331160075886
 20
7.899653136836116
 30
0.0
 41
1.0
 10
46.81826732302323
 20
7.899802860163328
 30
0.0
 41
0.9999710584034681
 10
46.82322019345203
 20
7.900027970695842
 30
0.0
 41
1.0
 10
46.82806758402735
 20
7.900248284673486
 30
0.0
 41
0.9999705967847077
 10
46.83291102564884
 20
7.900542914776846
 30
0.0
 41
1.0
 10
46.83765316658081
 20
7.900831380051075
 30
0.0
 41
0.9999700573339781
 10
46.84239027510657
 20
7.901193202726352
 30
0.0
 41
1.0
 10
46.84703120281911
 20
7.901547674804314
 30
0.0
 41
0.9999694170468953
 10
46.85166601846371
 20
7.901974692869143
 30
0.0
 41
1.0
 10
46.85620855900317
 20
7.902393207724946
 30
0.0
 41
0.999968700144798
 10
46.8607439085099
 20
7.902883548513639
 30
0.0
 41
1.0
 10
46.86519096013872
 20
7.903364333842449
 30
0.0
 41
0.9999678596256335
 10
46.86962973094757
 20
7.903916363215226
 30
0.0
 41
1.0
 10
46.87399814652199
 20
7.904459561631036
 30
0.0
 41
0.999966228985695
 10
46.87835704394087
 20
7.905074486375527
 30
0.0
 41
1.0
 10
46.88267630873319
 20
7.905683942969186
 30
0.0
 41
0.999964946787608
 10
46.88698476245801
 20
7.906365640986399
 30
0.0
 41
1.0
 10
46.89125956575549
 20
7.907041993206661
 30
0.0
 41
0.9999638736199127
 10
46.89552225364331
 20
7.907790917454498
 30
0.0
 41
1.0
 10
46.89974894022373
 20
7.908533508961693
 30
0.0
 41
0.9999626711304167
 10
46.90396216362421
 20
7.909349027308073
 30
0.0
 41
1.0
 10
46.90813941662291
 20
7.910157575867174
 30
0.0
 41
0.9999613102145801
 10
46.91230179895267
 20
7.911039486706445
 30
0.0
 41
1.0
 10
46.91642810808178
 20
7.911913742939857
 30
0.0
 41
0.9999597836867349
 10
46.92053807283186
 20
7.912861867796506
 30
0.0
 41
1.0
 10
46.92461241603222
 20
7.913801773291829
 30
0.0
 41
0.9999581110435471
 10
46.92866887150611
 20
7.914816102549404
 30
0.0
 41
1.0
 10
46.93269012630891
 20
7.915821595960674
 30
0.0
 41
0.9999561222715012
 10
46.93669183788755
 20
7.91690224929568
 30
0.0
 41
1.0
 10
46.94065737207507
 20
7.917973199224623
 30
0.0
 41
0.9999543856794902
 10
46.94460172583003
 20
7.919119701993171
 30
0.0
 41
1.0
 10
46.9485191359195
 20
7.920258007262983
 30
0.0
 41
0.9999499014255475
 10
46.95241297389317
 20
7.921474504912487
 30
0.0
 41
1.0
 10
46.95632503201505
 20
7.922697069586555
 30
0.0
 41
0.999945713688444
 10
46.96021076459936
 20
7.924000889134865
 30
0.0
 41
1.0
 10
46.96413016481434
 20
7.925315993805089
 30
0.0
 41
0.9999432551563318
 10
46.9680206573942
 20
7.926714302006021
 30
0.0
 41
1.0
 10
46.97194230606187
 20
7.928123801907519
 30
0.0
 41
0.999940640874441
 10
46.97583231066231
 20
7.929618419736103
 30
0.0
 41
1.0
 10
46.97975165427943
 20
7.931124305119305
 30
0.0
 41
0.9999378433340594
 10
46.98363644607669
 20
7.932717207460398
 30
0.0
 41
1.0
 10
46.98754930905158
 20
7.93432160978117
 30
0.0
 41
0.9999348199827583
 10
46.99142451825341
 20
7.936014937011548
 30
0.0
 41
1.0
 10
46.99532552044454
 20
7.937719537953504
 30
0.0
 41
0.9999316631915303
 10
46.99918560362423
 20
7.939514876448682
 30
0.0
 41
1.0
 10
47.00307019848805
 20
7.941321574709749
 30
0.0
 41
0.9999280626658086
 10
47.00691033761535
 20
7.943220934429645
 30
0.0
 41
1.0
 10
47.01077023168886
 20
7.945130161395307
 30
0.0
 41
0.9999250138942638
 10
47.01458221044855
 20
7.947133345810393
 30
0.0
 41
1.0
 10
47.01841984655683
 20
7.949149565011732
 30
0.0
 41
0.999918134306355
 10
47.0222046332133
 20
7.951263324868595
 30
0.0
 41
1.0
 10
47.02605837047578
 20
7.953416084785164
 30
0.0
 41
0.9999120133451711
 10
47.02985364292567
 20
7.955670319284437
 30
0.0
 41
1.0
 10
47.03373933310422
 20
7.957978277023835
 30
0.0
 41
0.9999083334152393
 10
47.03756110599446
 20
7.960390601435236
 30
0.0
 41
1.0
 10
47.04147465086523
 20
7.96286087019428
 30
0.0
 41
0.999904818287288
 10
47.04531854821617
 20
7.965438177772509
 30
0.0
 41
1.0
 10
47.04925696998807
 20
7.96807888501686
 30
0.0
 41
0.9999013596402458
 10
47.05311966605235
 20
7.970829172259839
 30
0.0
 41
1.0
 10
47.05707895343088
 20
7.973648257485151
 30
0.0
 41
0.9998980359736296
 10
47.06095612135446
 20
7.976579258499441
 30
0.0
 41
1.0
 10
47.06493160486701
 20
7.979584601773687
 30
0.0
 41
0.999894817681794
 10
47.06881824861527
 20
7.982703985964323
 30
0.0
 41
1.0
 10
47.07280250089949
 20
7.985901751232605
 30
0.0
 41
0.9998919520594235
 10
47.07669102843499
 20
7.989215257318474
 30
0.0
 41
1.0
 10
47.08068405607924
 20
7.992617702725375
 30
0.0
 41
0.9998878564927871
 10
47.08457339543347
 20
7.996138206084618
 30
0.0
 41
1.0
 10
47.08859544312141
 20
7.999779133842237
 30
0.0
 41
0.9998851027693852
 10
47.09250527282951
 20
8.003540311077328
 30
0.0
 41
1.0
 10
47.09656216229615
 20
8.007443018742537
 30
0.0
 41
0.9998834151926278
 10
47.10049798950293
 20
8.011467785004445
 30
0.0
 41
1.0
 10
47.10458955588009
 20
8.015651889119967
 30
0.0
 41
0.9998822824964377
 10
47.10855081378876
 20
8.019959565808056
 30
0.0
 41
1.0
 10
47.11265363172217
 20
8.02442126973542
 30
0.0
 41
0.9998829924815152
 10
47.11661804321254
 20
8.029006393339543
 30
0.0
 41
1.0
 10
47.12068284252195
 20
8.033707666172194
 30
0.0
 41
0.9998868129090466
 10
47.12460435339638
 20
8.038529109123697
 30
0.0
 41
1.0
 10
47.12861735605519
 20
8.043463110764547
 30
0.0
 41
0.9998917625173156
 10
47.13248345221906
 20
8.048513047693199
 30
0.0
 41
1.0
 10
47.13644530345621
 20
8.053688056372284
 30
0.0
 41
0.9998963477509348
 10
47.14025651116422
 20
8.058974990820543
 30
0.0
 41
1.0
 10
47.14416721117697
 20
8.064400007537364
 30
0.0
 41
0.9999010520514044
 10
47.14792374895897
 20
8.069932891492382
 30
0.0
 41
1.0
 10
47.15179555779685
 20
8.075635648305864
 30
0.0
 41
0.9999055647146026
 10
47.15550917647466
 20
8.08144265917779
 30
0.0
 41
1.0
 10
47.15935260579202
 20
8.087452718585505
 30
0.0
 41
0.9999098262224931
 10
47.16303324462709
 20
8.093563828203873
 30
0.0
 41
1.0
 10
47.16686537838497
 20
8.099926617272983
 30
0.0
 41
0.9999138464247526
 10
47.17052916623785
 20
8.106387808528881
 30
0.0
 41
1.0
 10
47.17434545763631
 20
8.1131177358397
 30
0.0
 41
0.999917434343454
 10
47.17798754281172
 20
8.119943511782557
 30
0.0
 41
1.0
 10
47.18175170310506
 20
8.126998102988678
 30
0.0
 41
0.9999205684922011
 10
47.18533685176466
 20
8.134145331044927
 30
0.0
 41
1.0
 10
47.18905166466012
 20
8.141551114667521
 30
0.0
 41
0.9999240273520862
 10
47.19258278963811
 20
8.149046221224655
 30
0.0
 41
1.0
 10
47.19626012634522
 20
8.156851853881255
 30
0.0
 41
0.9999270725471932
 10
47.19974786968063
 20
8.164744024232538
 30
0.0
 41
1.0
 10
47.20339901989008
 20
8.173006123740272
 30
0.0
 41
0.9999299970544517
 10
47.20685364380583
 20
8.18135230608482
 30
0.0
 41
1.0
 10
47.21049097179868
 20
8.190140112137337
 30
0.0
 41
0.9999326785128254
 10
47.21392339755533
 20
8.19900995675656
 30
0.0
 41
1.0
 10
47.21755974637988
 20
8.208407101931568
 30
0.0
 41
0.9999352800266359
 10
47.22098134536094
 20
8.217884550460928
 30
0.0
 41
1.0
 10
47.22463918558573
 20
8.22801680358068
 30
0.0
 41
0.9999374358945413
 10
47.22806944793894
 20
8.23822834844818
 30
0.0
 41
1.0
 10
47.23171189147241
 20
8.249071037055423
 30
0.0
 41
0.9999409568900083
 10
47.23511784264083
 20
8.259990322186166
 30
0.0
 41
1.0
 10
47.23866219683474
 20
8.271352479263872
 30
0.0
 41
0.9999438859053578
 10
47.2419650359833
 20
8.282787177059133
 30
0.0
 41
1.0
 10
47.24543015940006
 20
8.294784206408984
 30
0.0
 41
0.999945780367763
 10
47.24864468810904
 20
8.306850796594027
 30
0.0
 41
1.0
 10
47.2520454994714
 20
8.319617156236886
 30
0.0
 41
0.9999474123585588
 10
47.25518376189653
 20
8.332450579996898
 30
0.0
 41
1.0
 10
47.25852350614356
 20
8.346108685634798
 30
0.0
 41
0.9999491223330617
 10
47.26158703912145
 20
8.359831386059458
 30
0.0
 41
1.0
 10
47.26488934917364
 20
8.37462499053425
 30
0.0
 41
0.9999503989314781
 10
47.26789633292184
 20
8.389481438083225
 30
0.0
 41
1.0
 10
47.27109676399789
 20
8.405292608960833
 30
0.0
 41
0.9999533940408946
 10
47.27399131416593
 20
8.42116262669611
 30
0.0
 41
1.0
 10
47.27702334674217
 20
8.437784540109849
 30
0.0
 41
0.9999558733800403
 10
47.27974255825031
 20
8.454460484336527
 30
0.0
 41
1.0
 10
47.282630857395
 20
8.472174856415226
 30
0.0
 41
0.9999570537376784
 10
47.28519033071564
 20
8.489939719105738
 30
0.0
 41
1.0
 10
47.28793316501532
 20
8.508978622474492
 30
0.0
 41
0.9999580368680401
 10
47.290326721574
 20
8.528064582457706
 30
0.0
 41
1.0
 10
47.29256210965173
 20
8.545886546026114
 30
0.0
 41
0.9999690914178203
 10
47.29451698576175
 20
8.56374145584628
 30
0.0
 41
1.0
  0
SPLINE
  5
5F
330
1F
100
AcDbEntity
  8
Make2D visible lines
100
AcDbSpline
210
0.0
220
0.0
230
1.0
 70
    24
 71
     2
 72
     6
 73
     3
 74
     0
 42
0.0000000001
 43
0.0000000001
 40
0.0
 40
0.0
 40
0.0
 40
0.0480073117461094
 40
0.0480073117461094
 40
0.0480073117461094
 10
45.52992759461803
 20
6.507000000000014
 30
0.0
 10
45.52950867305975
 20
6.483000000000013
 30
0.0
 10
45.52908975150147
 20
6.459000000000012
 30
0.0
  0
SPLINE
  5
60
330
1F
100
AcDbEntity
  8
Make2D visible lines
100
AcDbSpline
210
0.0
220
0.0
230
1.0
 70
    24
 71
     2
 72
     6
 73
     3
 74
     0
 42
0.0000000001
 43
0.0000000001
 40
0.0
 40
0.0
 40
0.0
 40
0.0000751500774685
 40
0.0000751500774685
 40
0.0000751500774685
 10
-13.04812838216702
 20
21.83705701892992
 30
0.0
 10
-13.04813257643813
 20
21.83701967871533
 30
0.0
 10
-13.04813677070924
 20
21.83698233850074
 30
0.0
  0
SPLINE
  5
61
330
1F
100
AcDbEntity
  8
Make2D visible lines
100
AcDbSpline
210
0.0
220
0.0
230
1.0
 70
    24
 71
     2
 72
     6
 73
     3
 74
     0
 42
0.0000000001
 43
0.0000000001
 40
0.0
 40
0.0
 40
0.0
 40
1.28941229765211
 40
1.28941229765211
 40
1.28941229765211
 10
0.0
 20
6.463000000000015
 30
0.0
 10
-0.6447061488260548
 20
6.463000000000015
 30
0.0
 10
-1.28941229765211
 20
6.463000000000015
 30
0.0
  0
SPLINE
  5
62
330
1F
100
AcDbEntity
  8
Make2D visible lines
100
AcDbSpline
210
0.0
220
0.0
230
1.0
 70
    24
 71
     2
 72
     6
 73
     3
 74
     0
 42
0.0000000001
 43
0.0000000001
 40
0.0
 40
0.0
 40
0.0
 40
0.0400060931217547
 40
0.0400060931217547
 40
0.0400060931217547
 10
1.200000000000291
 20
6.50300000000002
 30
0.0
 10
1.200349101298833
 20
6.48300000000002
 30
0.0
 10
1.200698202597376
 20
6.463000000000021
 30
0.0
  0
SPLINE
  5
63
330
1F
100
AcDbEntity
  8
Make2D visible lines
100
AcDbSpline
210
0.0
220
0.0
230
1.0
 70
    24
 71
     2
 72
     6
 73
     3
 74
     0
 42
0.0000000001
 43
0.0000000001
 40
0.0
 40
0.0
 40
0.0
 40
0.0400060931217547
 40
0.0400060931217547
 40
0.0400060931217547
 10
-1.200698202597376
 20
6.463000000000021
 30
0.0
 10
-1.200349101298833
 20
6.48300000000002
 30
0.0
 10
-1.200000000000291
 20
6.50300000000002
 30
0.0
  0
SPLINE
  5
64
330
1F
100
AcDbEntity
  8
Make2D visible lines - Tangent
100
AcDbSpline
210
0.0
220
0.0
230
1.0
 70
     8
 71
     3
 72
    12
 73
     8
 74
     0
 42
0.0000000001
 43
0.0000000001
 40
0.0
 40
0.0
 40
0.0
 40
0.0
 40
0.1510110321465192
 40
0.3037660471064116
 40
0.5900965017365678
 40
0.8249401141264362
 40
1.014583801502342
 40
1.014583801502342
 40
1.014583801502342
 40
1.014583801502342
 10
-0.4018340216547784
 20
48.23665952174738
 30
0.0
 10
-0.4067502440146882
 20
48.186539285321
 30
0.0
 10
-0.4105800225072187
 20
48.08523943107086
 30
0.0
 10
-0.3933681383037282
 20
47.88879161207024
 30
0.0
 10
-0.332915801791799
 20
47.67064833735938
 30
0.0
 10
-0.1981679738670863
 20
47.46979357290376
 30
0.0
 10
-0.0643507375328625
 20
47.40504904667783
 30
0.0
 10
0.0000000057435017
 20
47.40630252636673
 30
0.0
  0
SPLINE
  5
65
330
1F
100
AcDbEntity
  8
Make2D visible lines - Tangent
100
AcDbSpline
210
0.0
220
0.0
230
1.0
 70
     8
 71
     3
 72
    12
 73
     8
 74
     0
 42
0.0000000001
 43
0.0000000001
 40
-1.014583801502342
 40
-1.014583801502342
 40
-1.014583801502342
 40
-1.014583801502342
 40
-0.8249401141264362
 40
-0.5900965017365678
 40
-0.3037660471064116
 40
-0.1510110321465192
 40
0.0
 40
0.0
 40
0.0
 40
0.0
 10
0.0000000057435017
 20
47.40630252636673
 30
0.0
 10
0.0643507490198516
 20
47.40504904667783
 30
0.0
 10
0.1981679853540896
 20
47.46979357290376
 30
0.0
 10
0.3329158132787882
 20
47.67064833735938
 30
0.0
 10
0.3933681497907173
 20
47.88879161207024
 30
0.0
 10
0.4105800339942078
 20
48.08523943107086
 30
0.0
 10
0.4067502555016773
 20
48.186539285321
 30
0.0
 10
0.4018340331417676
 20
48.23665952174738
 30
0.0
  0
SPLINE
  5
66
330
1F
100
AcDbEntity
  8
Make2D visible lines - Tangent
100
AcDbSpline
210
0.0
220
0.0
230
1.0
 70
    12
 71
     2
 72
     6
 73
     3
 74
     0
 42
0.0000000001
 43
0.0000000001
 40
0.0
 40
0.0
 40
0.0
 40
0.1369528492222414
 40
0.1369528492222414
 40
0.1369528492222414
 10
-0.3676107775952175
 20
48.61601623578358
 30
0.0
 41
1.0
 10
-0.366181241976981
 20
48.54755591051288
 30
0.0
 41
0.9999966913238282
 10
-0.3669329088942999
 20
48.47905667512892
 30
0.0
 41
0.9999959461296658
  0
ARC
  5
67
330
1F
100
AcDbEntity
  8
Make2D visible lines - Tangent
100
AcDbCircle
 10
-0.8668652971617661
 20
48.47083431773118
 30
0.0
 40
0.5
100
AcDbArc
 50
348.4871521735349
 51
0.9422552251317675
  0
SPLINE
  5
68
330
1F
100
AcDbEntity
  8
Make2D visible lines - Tangent
100
AcDbSpline
210
0.0
220
0.0
230
1.0
 70
     8
 71
     3
 72
    14
 73
    10
 74
     0
 42
0.0000000001
 43
0.0000000001
 40
0.2772630823298201
 40
0.2772630823298201
 40
0.2772630823298201
 40
0.2772630823298201
 40
1.0
 40
2.0
 40
3.0
 40
4.0
 40
5.0
 40
6.0
 40
7.0
 40
7.0
 40
7.0
 40
7.0
 10
-0.3769253099904972
 20
48.37104048540363
 30
0.0
 10
-0.3850225723278555
 20
48.331286800099
 30
0.0
 10
-0.4000888111860093
 20
48.23566102209006
 30
0.0
 10
-0.4048301803112793
 20
48.08250646534652
 30
0.0
 10
-0.3868157866532869
 20
47.9147301516559
 30
0.0
 10
-0.3452864226172352
 20
47.75098435627046
 30
0.0
 10
-0.2747980484401609
 20
47.59711682134395
 30
0.0
 10
-0.1646929405790019
 20
47.46615733227817
 30
0.0
 10
-0.0566834953305744
 20
47.42093712878337
 30
0.0
 10
0.0000005023035641
 20
47.42144463449031
 30
0.0
  0
SPLINE
  5
69
330
1F
100
AcDbEntity
  8
Make2D visible lines - Tangent
100
AcDbSpline
210
0.0
220
0.0
230
1.0
 70
     8
 71
     3
 72
    14
 73
    10
 74
     0
 42
0.0000000001
 43
0.0000000001
 40
-7.0
 40
-7.0
 40
-7.0
 40
-7.0
 40
-6.0
 40
-5.0
 40
-4.0
 40
-3.0
 40
-2.0
 40
-1.0
 40
-0.2482205602640466
 40
-0.2482205602640466
 40
-0.2482205602640466
 40
-0.2482205602640466
 10
0.0000005023035641
 20
47.42144463449031
 30
0.0
 10
0.0566844999377025
 20
47.42093712878337
 30
0.0
 10
0.16469394518613
 20
47.46615733227817
 30
0.0
 10
0.274799053047289
 20
47.59711682134395
 30
0.0
 10
0.3452874272243633
 20
47.75098435627046
 30
0.0
 10
0.386816791260415
 20
47.9147301516559
 30
0.0
 10
0.4048311849184074
 20
48.08250646534652
 30
0.0
 10
0.4000392411979448
 20
48.23729467041093
 30
0.0
 10
0.3845121634408883
 20
48.33451062463401
 30
0.0
 10
0.3759415877764951
 20
48.37583110935287
 30
0.0
  0
ARC
  5
6A
330
1F
100
AcDbEntity
  8
Make2D visible lines - Tangent
100
AcDbCircle
 10
0.8655211721033425
 20
48.47737829351058
 30
0.0
 40
0.5
100
AcDbArc
 50
178.9775798079559
 51
191.7179678781667
  0
SPLINE
  5
6B
330
1F
100
AcDbEntity
  8
Make2D visible lines - Tangent
100
AcDbSpline
210
0.0
220
0.0
230
1.0
 70
    12
 71
     2
 72
     6
 73
     3
 74
     0
 42
0.0000000001
 43
0.0000000001
 40
-0.1297405451143296
 40
-0.1297405451143296
 40
-0.1297405451143296
 40
0.0
 40
0.0
 40
0.0
 10
0.3656007774165125
 20
48.48630011934228
 30
0.0
 41
0.9999960316975589
 10
0.3667583002961144
 20
48.55116008250931
 30
0.0
 41
0.9999968655123173
 10
0.3681125763794029
 20
48.61601623578358
 30
0.0
 41
1.0
  0
SPLINE
  5
6C
330
1F
100
AcDbEntity
  8
Make2D visible lines
100
AcDbSpline
210
0.0
220
0.0
230
1.0
 70
    12
 71
     2
 72
     6
 73
     3
 74
     0
 42
0.0000000001
 43
0.0000000001
 40
0.0
 40
0.0
 40
0.0
 40
0.0853474550214741
 40
0.0853474550214741
 40
0.0853474550214741
 10
0.4047946761643146
 20
48.20161310025158
 30
0.0
 41
1.0
 10
0.4077820541270476
 20
48.15902686177184
 30
0.0
 41
0.9993970637774641
 10
0.40780678666097
 20
48.11633597839791
 30
0.0
 41
1.0
  0
SPLINE
  5
6D
330
1F
100
AcDbEntity
  8
Make2D visible lines
100
AcDbSpline
210
0.0
220
0.0
230
1.0
 70
    12
 71
     2
 72
     6
 73
     3
 74
     0
 42
0.0000000001
 43
0.0000000001
 40
0.0
 40
0.0
 40
0.0
 40
0.0853474550214741
 40
0.0853474550214741
 40
0.0853474550214741
 10
13.85404254724124
 20
62.46045032365717
 30
0.0
 41
1.0
 10
13.89662878572097
 20
62.46343770161991
 30
0.0
 41
0.9993970637774641
 10
13.9393196690949
 20
62.46346243415381
 30
0.0
 41
1.0
  0
SPLINE
  5
6E
330
1F
100
AcDbEntity
  8
Make2D visible lines - Tangent
100
AcDbSpline
210
0.0
220
0.0
230
1.0
 70
     8
 71
     3
 72
    12
 73
     8
 74
     0
 42
0.0000000001
 43
0.0000000001
 40
0.0
 40
0.0
 40
0.0
 40
0.0
 40
0.1510110321465192
 40
0.3037660471064116
 40
0.5900965017365678
 40
0.8249401141264362
 40
1.014583801502342
 40
1.014583801502342
 40
1.014583801502342
 40
1.014583801502342
 10
13.81899612574543
 20
61.65382162583808
 30
0.0
 10
13.86911636217181
 20
61.64890540347817
 30
0.0
 10
13.97041621642195
 20
61.64507562498564
 30
0.0
 10
14.16686403542256
 20
61.66228750918913
 30
0.0
 10
14.38500731013343
 20
61.72273984570106
 30
0.0
 10
14.58586207458904
 20
61.85748767362576
 30
0.0
 10
14.65060660081498
 20
61.99130490995998
 30
0.0
 10
14.64935312112608
 20
62.05565565323634
 30
0.0
  0
SPLINE
  5
6F
330
1F
100
AcDbEntity
  8
Make2D visible lines - Tangent
100
AcDbSpline
210
0.0
220
0.0
230
1.0
 70
     8
 71
     3
 72
    12
 73
     8
 74
     0
 42
0.0000000001
 43
0.0000000001
 40
-1.014583801502342
 40
-1.014583801502342
 40
-1.014583801502342
 40
-1.014583801502342
 40
-0.8249401141264362
 40
-0.5900965017365678
 40
-0.3037660471064116
 40
-0.1510110321465192
 40
0.0
 40
0.0
 40
0.0
 40
0.0
 10
14.64935312112608
 20
62.05565565323634
 30
0.0
 10
14.65060660081498
 20
62.12000639651271
 30
0.0
 10
14.58586207458904
 20
62.25382363284693
 30
0.0
 10
14.38500731013343
 20
62.38857146077163
 30
0.0
 10
14.16686403542256
 20
62.44902379728356
 30
0.0
 10
13.97041621642195
 20
62.46623568148705
 30
0.0
 10
13.86911636217181
 20
62.46240590299452
 30
0.0
 10
13.81899612574543
 20
62.45748968063461
 30
0.0
  0
SPLINE
  5
70
330
1F
100
AcDbEntity
  8
Make2D visible lines - Tangent
100
AcDbSpline
210
0.0
220
0.0
230
1.0
 70
    12
 71
     2
 72
     6
 73
     3
 74
     0
 42
0.0000000001
 43
0.0000000001
 40
0.0
 40
0.0
 40
0.0
 40
0.1369528492222414
 40
0.1369528492222414
 40
0.1369528492222414
 10
13.43963941170924
 20
61.68804486989762
 30
0.0
 41
1.0
 10
13.50809973697991
 20
61.68947440551587
 30
0.0
 41
0.9999966913238282
 10
13.57659897236389
 20
61.68872273859855
 30
0.0
 41
0.9999959461296658
  0
ARC
  5
71
330
1F
100
AcDbEntity
  8
Make2D visible lines - Tangent
100
AcDbCircle
 10
13.58482132976162
 20
61.18879035033108
 30
0.0
 40
0.5
100
AcDbArc
 50
78.48715217353497
 51
90.94225522513239
  0
SPLINE
  5
72
330
1F
100
AcDbEntity
  8
Make2D visible lines - Tangent
100
AcDbSpline
210
0.0
220
0.0
230
1.0
 70
     8
 71
     3
 72
    14
 73
    10
 74
     0
 42
0.0000000001
 43
0.0000000001
 40
0.2772630823298201
 40
0.2772630823298201
 40
0.2772630823298201
 40
0.2772630823298201
 40
1.0
 40
2.0
 40
3.0
 40
4.0
 40
5.0
 40
6.0
 40
7.0
 40
7.0
 40
7.0
 40
7.0
 10
13.68461516208917
 20
61.67873033750234
 30
0.0
 10
13.72436884739381
 20
61.670633075165
 30
0.0
 10
13.81999462540274
 20
61.65556683630683
 30
0.0
 10
13.97314918214629
 20
61.65082546718156
 30
0.0
 10
14.14092549583691
 20
61.66883986083957
 30
0.0
 10
14.30467129122235
 20
61.71036922487561
 30
0.0
 10
14.45853882614885
 20
61.78085759905269
 30
0.0
 10
14.58949831521464
 20
61.89096270691385
 30
0.0
 10
14.63471851870943
 20
61.99897215216228
 30
0.0
 10
14.6342110130025
 20
62.05565614979642
 30
0.0
  0
SPLINE
  5
73
330
1F
100
AcDbEntity
  8
Make2D visible lines - Tangent
100
AcDbSpline
210
0.0
220
0.0
230
1.0
 70
     8
 71
     3
 72
    14
 73
    10
 74
     0
 42
0.0000000001
 43
0.0000000001
 40
-7.0
 40
-7.0
 40
-7.0
 40
-7.0
 40
-6.0
 40
-5.0
 40
-4.0
 40
-3.0
 40
-2.0
 40
-1.0
 40
-0.2482205602640466
 40
-0.2482205602640466
 40
-0.2482205602640466
 40
-0.2482205602640466
 10
14.6342110130025
 20
62.05565614979642
 30
0.0
 10
14.63471851870943
 20
62.11234014743054
 30
0.0
 10
14.58949831521464
 20
62.22034959267899
 30
0.0
 10
14.45853882614885
 20
62.33045470054013
 30
0.0
 10
14.30467129122235
 20
62.40094307471722
 30
0.0
 10
14.14092549583691
 20
62.44247243875327
 30
0.0
 10
13.97314918214629
 20
62.46048683241125
 30
0.0
 10
13.81836097708188
 20
62.4556948886908
 30
0.0
 10
13.72114502285879
 20
62.44016781093374
 30
0.0
 10
13.67982453813994
 20
62.43159723526935
 30
0.0
  0
ARC
  5
74
330
1F
100
AcDbEntity
  8
Make2D visible lines - Tangent
100
AcDbCircle
 10
13.57827735398223
 20
62.92117681959618
 30
0.0
 40
0.5
100
AcDbArc
 50
268.9775798079559
 51
281.7179678781667
  0
SPLINE
  5
75
330
1F
100
AcDbEntity
  8
Make2D visible lines - Tangent
100
AcDbSpline
210
0.0
220
0.0
230
1.0
 70
    12
 71
     2
 72
     6
 73
     3
 74
     0
 42
0.0000000001
 43
0.0000000001
 40
-0.1297405451143296
 40
-0.1297405451143296
 40
-0.1297405451143296
 40
0.0
 40
0.0
 40
0.0
 10
13.56935552815052
 20
62.42125642490937
 30
0.0
 41
0.9999960316975589
 10
13.5044955649835
 20
62.42241394778896
 30
0.0
 41
0.9999968655123173
 10
13.43963941170924
 20
62.42376822387224
 30
0.0
 41
1.0
  0
SPLINE
  5
76
330
1F
100
AcDbEntity
  8
Make2D visible lines - Tangent
100
AcDbSpline
210
0.0
220
0.0
230
1.0
 70
    12
 71
     2
 72
     6
 73
     3
 74
     0
 42
0.0000000001
 43
0.0000000001
 40
0.0
 40
0.0
 40
0.0
 40
0.0587632096241838
 40
0.0587632096241838
 40
0.0587632096241838
 10
0.0581358437700601
 20
47.42628580598019
 30
0.0
 41
1.0
 10
0.0295378737529724
 20
47.41889597194715
 30
0.0
 41
0.9921107855315546
 10
0.0000005817660735
 20
47.41885217451333
 30
0.0
 41
1.0
  0
SPLINE
  5
77
330
1F
100
AcDbEntity
  8
Make2D visible lines - Tangent
100
AcDbSpline
210
0.0
220
0.0
230
1.0
 70
    24
 71
     2
 72
     6
 73
     3
 74
     0
 42
0.0000000001
 43
0.0000000001
 40
0.0
 40
0.0
 40
0.0
 40
0.0114467396849787
 40
0.0114467396849787
 40
0.0114467396849787
 10
0.0000000000870983
 20
47.41885217451256
 30
0.0
 10
0.0000000026667522
 20
47.41312880467007
 30
0.0
 10
0.000000005246406
 20
47.40740543482758
 30
0.0
  0
SPLINE
  5
78
330
1F
100
AcDbEntity
  8
Make2D visible lines - Tangent
100
AcDbSpline
210
0.0
220
0.0
230
1.0
 70
    12
 71
     2
 72
     6
 73
     3
 74
     0
 42
0.0000000001
 43
0.0000000001
 40
0.0
 40
0.0
 40
0.0
 40
0.0586712320260919
 40
0.0586712320260919
 40
0.0586712320260919
 10
0.0000000000870983
 20
47.41885217451256
 30
0.0
 41
1.0
 10
-0.0294905925234824
 20
47.41889565571385
 30
0.0
 41
0.9921343149382713
 10
-0.0580461792410887
 20
47.42626284041031
 30
0.0
 41
1.0
  0
CIRCLE
  5
79
330
1F
100
AcDbEntity
  8
Default
100
AcDbCircle
 10
-16.67125576188712
 20
61.42978000349785
 30
0.0
 40
7.874999999999993
  0
SPLINE
  5
7A
330
1F
100
AcDbEntity
  8
Make2D visible lines
100
AcDbSpline
210
0.0
220
0.0
230
1.0
 70
    24
 71
     2
 72
     6
 73
     3
 74
     0
 42
0.0000000001
 43
0.0000000001
 40
0.0
 40
0.0
 40
0.0
 40
0.2213623405233084
 40
0.2213623405233084
 40
0.2213623405233084
 10
14.63709732415427
 20
0.3858503918134666
 30
0.0
 10
14.64337214822717
 20
0.2753472333366913
 30
0.0
 10
14.64964697230008
 20
0.164844074859916
 30
0.0
  0
SPLINE
  5
7B
330
1F
100
AcDbEntity
  8
Make2D visible lines
100
AcDbSpline
210
0.0
220
0.0
230
1.0
 70
    12
 71
     2
 72
     6
 73
     3
 74
     0
 42
0.0000000001
 43
0.0000000001
 40
0.0
 40
0.0
 40
0.0
 40
0.0232077921390905
 40
0.0232077921390905
 40
0.0232077921390905
 10
0.3881182335887274
 20
0.3999999999470365
 30
0.0
 41
1.0
 10
0.4027354078090628
 20
0.3999392744149043
 30
0.0
 41
0.7176120634141828
 10
0.4031122621332059
 20
0.3853268327778507
 30
0.0
 41
1.0
  0
SPLINE
  5
7C
330
1F
100
AcDbEntity
  8
Make2D visible lines
100
AcDbSpline
210
0.0
220
0.0
230
1.0
 70
    12
 71
     2
 72
     6
 73
     3
 74
     0
 42
0.0000000001
 43
0.0000000001
 40
0.0
 40
0.0
 40
0.0
 40
0.0232125536774005
 40
0.0232125536774005
 40
0.0232125536774005
 10
-0.4025245172889385
 20
0.3853269610145591
 30
0.0
 41
1.0
 10
-0.4021580049511924
 20
0.3999502926109969
 30
0.0
 41
0.7170957278319929
 10
-0.3875301654848897
 20
0.3999999999617776
 30
0.0
 41
1.0
  0
SPLINE
  5
7D
330
1F
100
AcDbEntity
  8
Make2D visible lines
100
AcDbSpline
210
0.0
220
0.0
230
1.0
 70
    12
 71
     2
 72
     6
 73
     3
 74
     0
 42
0.0000000001
 43
0.0000000001
 40
0.0
 40
0.0
 40
0.0
 40
0.2259576718196235
 40
0.2259576718196235
 40
0.2259576718196235
 10
-0.4074700008006573
 20
0.1594216323489093
 30
0.0
 41
1.0
 10
-0.4049920062881867
 20
0.2723732898507527
 30
0.0
 41
0.9999999984910576
 10
-0.4025264218530964
 20
0.3853252189294936
 30
0.0
 41
1.0
  0
SPLINE
  5
7E
330
1F
100
AcDbEntity
  8
Make2D visible lines
100
AcDbSpline
210
0.0
220
0.0
230
1.0
 70
    24
 71
     3
 72
     9
 73
     5
 74
     0
 42
0.0000000001
 43
0.0000000001
 40
0.0
 40
0.0
 40
0.0
 40
0.0
 40
0.0000682360840525
 40
0.251869451330915
 40
0.251869451330915
 40
0.251869451330915
 40
0.251869451330915
 10
-0.2514391254904211
 20
0.0000000000000036
 30
0.0
 10
-0.2515486054704894
 20
0.0000000000000036
 30
0.0
 10
-0.1676024609788982
 20
0.0000000000000036
 30
0.0
 10
-0.0836369639559535
 20
0.0000000000000036
 30
0.0
 10
0.0002938536723889
 20
0.0000000000000036
 30
0.0
  0
SPLINE
  5
7F
330
1F
100
AcDbEntity
  8
Make2D visible lines
100
AcDbSpline
210
0.0
220
0.0
230
1.0
 70
    24
 71
     2
 72
     6
 73
     3
 74
     0
 42
0.0000000001
 43
0.0000000001
 40
0.0
 40
0.0
 40
0.0
 40
1.107594207465098
 40
1.107594207465098
 40
1.107594207465098
 10
13.38630366422798
 20
0.0000000000000036
 30
0.0
 10
13.94010076796053
 20
0.0000000000000036
 30
0.0
 10
14.49389787169308
 20
0.0000000000000036
 30
0.0
  0
SPLINE
  5
80
330
1F
100
AcDbEntity
  8
Make2D visible lines
100
AcDbSpline
210
0.0
220
0.0
230
1.0
 70
    12
 71
     2
 72
     8
 73
     5
 74
     0
 42
0.0000000001
 43
0.0000000001
 40
0.0
 40
0.0
 40
0.0
 40
0.0119642320224294
 40
0.0119642320224294
 40
0.0239284640448587
 40
0.0239284640448587
 40
0.0239284640448587
 10
13.23966492226808
 20
0.4000000000000163
 30
0.0
 41
1.0
 10
13.23334409420109
 20
0.4000000000000209
 30
0.0
 41
0.9215246294676533
 10
13.22892953126251
 20
0.3954762292814858
 30
0.0
 41
1.0
 10
13.22451496832394
 20
0.3909524585629509
 30
0.0
 41
0.9215246294676533
 10
13.22466939992134
 20
0.3846335173277264
 30
0.0
 41
1.0
  0
SPLINE
  5
81
330
1F
100
AcDbEntity
  8
Make2D visible lines
100
AcDbSpline
210
0.0
220
0.0
230
1.0
 70
    12
 71
     2
 72
     8
 73
     5
 74
     0
 42
0.0000000001
 43
0.0000000001
 40
0.0
 40
0.0
 40
0.0
 40
0.1269465231438366
 40
0.1269465231438366
 40
0.2538930462876731
 40
0.2538930462876731
 40
0.2538930462876731
 10
14.49389787169306
 20
0.0000000000000036
 30
0.0
 41
1.0
 10
14.56112243602844
 20
0.000000000000002
 30
0.0
 41
0.918360064844369
 10
14.6072902781367
 20
0.0488638148853193
 30
0.0
 41
1.0
 10
14.65345812024497
 20
0.0977276297706366
 30
0.0
 41
0.918360064844369
 10
14.64964697230008
 20
0.1648440748599159
 30
0.0
 41
1.0
  0
SPLINE
  5
82
330
1F
100
AcDbEntity
  8
Make2D visible lines
100
AcDbSpline
210
0.0
220
0.0
230
1.0
 70
    12
 71
     2
 72
     6
 73
     3
 74
     0
 42
0.0000000001
 43
0.0000000001
 40
0.0
 40
0.0
 40
0.0
 40
0.0224671519842366
 40
0.0224671519842366
 40
0.0224671519842366
 10
14.63708151444381
 20
0.3860938211857499
 30
0.0
 41
1.0
 10
14.63606474929968
 20
0.4000000000000348
 30
0.0
 41
0.7324347794791691
 10
14.62212144909589
 20
0.4000000000000183
 30
0.0
 41
1.0
  0
SPLINE
  5
83
330
1F
100
AcDbEntity
  8
Make2D visible lines
100
AcDbSpline
210
0.0
220
0.0
230
1.0
 70
    24
 71
     2
 72
     6
 73
     3
 74
     0
 42
0.0000000001
 43
0.0000000001
 40
0.0
 40
0.0
 40
0.0
 40
0.2325105046476637
 40
0.2325105046476637
 40
0.2325105046476637
 10
13.23035013799326
 20
0.1521924194416825
 30
0.0
 10
13.2275097689573
 20
0.2684129683847045
 30
0.0
 10
13.22466939992134
 20
0.3846335173277264
 30
0.0
  0
SPLINE
  5
84
330
1F
100
AcDbEntity
  8
Make2D visible lines
100
AcDbSpline
210
0.0
220
0.0
230
1.0
 70
    24
 71
     2
 72
     6
 73
     3
 74
     0
 42
0.0000000001
 43
0.0000000001
 40
0.0
 40
0.0
 40
0.0
 40
0.3863627208447955
 40
0.3863627208447955
 40
0.3863627208447955
 10
0.3866568815917333
 20
0.4000000000000166
 30
0.0
 10
0.1934755211693329
 20
0.4000000000000165
 30
0.0
 10
0.0002941607469324
 20
0.4000000000000163
 30
0.0
  0
SPLINE
  5
85
330
1F
100
AcDbEntity
  8
Make2D visible lines
100
AcDbSpline
210
0.0
220
0.0
230
1.0
 70
    24
 71
     2
 72
     6
 73
     3
 74
     0
 42
0.0000000001
 43
0.0000000001
 40
0.0
 40
0.0
 40
0.0
 40
0.3876534637036499
 40
0.3876534637036499
 40
0.3876534637036499
 10
0.0002938512811141
 20
0.4000000000000163
 30
0.0
 10
-0.1935328805707073
 20
0.4000000000000162
 30
0.0
 10
-0.3873596124225287
 20
0.4000000000000161
 30
0.0
  0
SPLINE
  5
86
330
1F
100
AcDbEntity
  8
Make2D visible lines
100
AcDbSpline
210
0.0
220
0.0
230
1.0
 70
    12
 71
     2
 72
     8
 73
     5
 74
     0
 42
0.0000000001
 43
0.0000000001
 40
0.0
 40
0.0
 40
0.0
 40
0.1242318577480881
 40
0.1242318577480881
 40
0.2484637154961761
 40
0.2484637154961761
 40
0.2484637154961761
 10
0.4080554297148495
 20
0.1594215907425355
 30
0.0
 41
1.0
 10
0.4094950203687625
 20
0.0938162002370285
 30
0.0
 41
0.9217678869813357
 10
0.3636059281871127
 20
0.0469085153295885
 30
0.0
 41
1.0
 10
0.3177168360054866
 20
0.0000008304221485
 30
0.0
 41
0.9217678869813357
 10
0.2520956528102545
 20
0.0000000000011417
 30
0.0
 41
1.0
  0
SPLINE
  5
87
330
1F
100
AcDbEntity
  8
Make2D visible lines
100
AcDbSpline
210
0.0
220
0.0
230
1.0
 70
    12
 71
     2
 72
     8
 73
     5
 74
     0
 42
0.0000000001
 43
0.0000000001
 40
0.0
 40
0.0
 40
0.0
 40
0.1240063772075993
 40
0.1240063772075993
 40
0.2480127544151987
 40
0.2480127544151987
 40
0.2480127544151987
 10
-0.2515078876662784
 20
0.000000000001096
 30
0.0
 41
1.0
 10
-0.3169978217205393
 20
-0.0000119099018914
 30
0.0
 41
0.9220189045496352
 10
-0.3628648464669766
 20
0.0467336529376692
 30
0.0
 41
1.0
 10
-0.4087318712134269
 20
0.0934792157772298
 30
0.0
 41
0.9220189045496352
 10
-0.4074775788860592
 20
0.1589571384308644
 30
0.0
 41
1.0
  0
SPLINE
  5
88
330
1F
100
AcDbEntity
  8
Make2D visible lines
100
AcDbSpline
210
0.0
220
0.0
230
1.0
 70
    12
 71
     2
 72
     6
 73
     3
 74
     0
 42
0.0000000001
 43
0.0000000001
 40
0.0
 40
0.0
 40
0.0
 40
0.2253642768281202
 40
0.2253642768281202
 40
0.2253642768281202
 10
0.4031141277003201
 20
0.385325058594006
 30
0.0
 41
1.0
 10
0.4055732370012987
 20
0.2726697563467351
 30
0.0
 41
0.9999999984988344
 10
0.408044691851984
 20
0.1600147242624911
 30
0.0
 41
1.0
  0
SPLINE
  5
89
330
1F
100
AcDbEntity
  8
Make2D visible lines
100
AcDbSpline
210
0.0
220
0.0
230
1.0
 70
    12
 71
     2
 72
     6
 73
     3
 74
     0
 42
0.0000000001
 43
0.0000000001
 40
0.0
 40
0.0
 40
0.0
 40
0.2412324278936833
 40
0.2412324278936833
 40
0.2412324278936833
 10
-13.22976252947416
 20
0.1521885802082181
 30
0.0
 41
1.0
 10
-13.23348193826009
 20
-0.0000000000000105
 30
0.0
 41
0.7156927337036098
 10
-13.38571596188001
 20
0.0000000000000034
 30
0.0
 41
1.0
  0
SPLINE
  5
8A
330
1F
100
AcDbEntity
  8
Make2D visible lines
100
AcDbSpline
210
0.0
220
0.0
230
1.0
 70
    24
 71
     2
 72
     6
 73
     3
 74
     0
 42
0.0000000001
 43
0.0000000001
 40
0.0
 40
0.0
 40
0.0
 40
1.379419120443295
 40
1.379419120443295
 40
1.379419120443295
 10
-14.62153374674793
 20
0.4000000000000163
 30
0.0
 10
-13.93182418652628
 20
0.4000000000000162
 30
0.0
 10
-13.24211462630463
 20
0.4000000000000161
 30
0.0
  0
SPLINE
  5
8B
330
1F
100
AcDbEntity
  8
Make2D visible lines - Tangent
100
AcDbSpline
210
0.0
220
0.0
230
1.0
 70
     8
 71
     3
 72
    54
 73
    50
 74
     0
 42
0.0000000001
 43
0.0000000001
 40
0.0
 40
0.0
 40
0.0
 40
0.0
 40
1.0
 40
2.0
 40
3.0
 40
4.0
 40
5.0
 40
6.0
 40
7.0
 40
8.0
 40
9.0
 40
10.0
 40
11.0
 40
12.0
 40
13.0
 40
14.0
 40
15.0
 40
16.0
 40
17.0
 40
18.0
 40
19.0
 40
20.0
 40
21.0
 40
22.0
 40
23.0
 40
24.0
 40
25.0
 40
26.0
 40
27.0
 40
28.0
 40
29.0
 40
30.0
 40
31.0
 40
32.0
 40
33.0
 40
34.0
 40
35.0
 40
36.0
 40
37.0
 40
38.0
 40
39.0
 40
40.0
 40
41.0
 40
42.0
 40
43.0
 40
44.0
 40
45.0
 40
46.0
 40
47.0
 40
47.0
 40
47.0
 40
47.0
 10
0.3858678902571455
 20
0.403329261439214
 30
0.0
 10
0.4111381696036887
 20
0.471691761030031
 30
0.0
 10
0.3931010539775741
 20
0.6333535261625483
 30
0.0
 10
0.3938721162261345
 20
0.8657327374605353
 30
0.0
 10
0.3872944791000208
 20
1.100824691898526
 30
0.0
 10
0.382500495281306
 20
1.335184942048012
 30
0.0
 10
0.3772141241470734
 20
1.569741898107297
 30
0.0
 10
0.3721035997716626
 20
1.804245165096962
 30
0.0
 10
0.367468581758672
 20
2.038780643129261
 30
0.0
 10
0.3621386993807221
 20
2.27327054669982
 30
0.0
 10
0.3614518649495153
 20
2.50795635439968
 30
0.0
 10
0.3766989381894206
 20
2.742035110000107
 30
0.0
 10
0.401868439816937
 20
2.975291767990851
 30
0.0
 10
0.4264955387601503
 20
3.208581524431251
 30
0.0
 10
0.4507280189665295
 20
3.44180444554645
 30
0.0
 10
0.4812874658335744
 20
3.674811437325082
 30
0.0
 10
0.4876105501600847
 20
3.908675454710889
 30
0.0
 10
0.4730574937128296
 20
4.14316108458999
 30
0.0
 10
0.4625165098498343
 20
4.377402299909646
 30
0.0
 10
0.452154018025368
 20
4.611784456659724
 30
0.0
 10
0.4400479186466697
 20
4.845964675118837
 30
0.0
 10
0.4282979100487978
 20
5.080512320442788
 30
0.0
 10
0.3899550574562198
 20
5.312100872344999
 30
0.0
 10
0.3066582997433045
 20
5.534912960303022
 30
0.0
 10
0.1264489220967278
 20
5.701053020982688
 30
0.0
 10
-0.1287608351388201
 20
5.700046595423096
 30
0.0
 10
-0.3074466101547557
 20
5.532266007601516
 30
0.0
 10
-0.3900818351159216
 20
5.309372210240867
 30
0.0
 10
-0.4279232333023089
 20
5.077673675160892
 30
0.0
 10
-0.4396275057768264
 20
4.843140061617282
 30
0.0
 10
-0.4516578009405663
 20
4.608952622806954
 30
0.0
 10
-0.4621030562798154
 20
4.374572197465292
 30
0.0
 10
-0.4725117164579586
 20
4.140337130437424
 30
0.0
 10
-0.4874609649699408
 20
3.905822607503123
 30
0.0
 10
-0.4796368665638084
 20
3.67206586450394
 30
0.0
 10
-0.4493051562702846
 20
3.439049497872843
 30
0.0
 10
-0.4256597318508
 20
3.205758678338231
 30
0.0
 10
-0.4016628321750062
 20
2.972405099167784
 30
0.0
 10
-0.3762812355491292
 20
2.739167888374083
 30
0.0
 10
-0.3606951745418314
 20
2.505129568181835
 30
0.0
 10
-0.3617190061082596
 20
2.270431807711549
 30
0.0
 10
-0.3668719205141144
 20
2.035943620623493
 30
0.0
 10
-0.3716137938800301
 20
1.801408320125761
 30
0.0
 10
-0.376786259021145
 20
1.566909832637999
 30
0.0
 10
-0.3821276383644658
 20
1.332342661516703
 30
0.0
 10
-0.3865535064490899
 20
1.098016778736779
 30
0.0
 10
-0.3935434205156128
 20
0.8627750502036662
 30
0.0
 10
-0.3918535016338183
 20
0.6309690073439601
 30
0.0
 10
-0.4121658245761637
 20
0.4678802044313225
 30
0.0
 10
-0.3827000039917152
 20
0.4021512543515627
 30
0.0
  0
SPLINE
  5
8C
330
1F
100
AcDbEntity
  8
Make2D visible lines
100
AcDbSpline
210
0.0
220
0.0
230
1.0
 70
    12
 71
     2
 72
     6
 73
     3
 74
     0
 42
0.0000000001
 43
0.0000000001
 40
0.0
 40
0.0
 40
0.0
 40
0.2412324278936833
 40
0.2412324278936833
 40
0.2412324278936833
 10
13.23035023182211
 20
0.1521885802082181
 30
0.0
 41
1.0
 10
13.23406964060804
 20
-0.0000000000000105
 30
0.0
 41
0.7156927337036098
 10
13.38630366422797
 20
0.0000000000000034
 30
0.0
 41
1.0
  0
SPLINE
  5
8D
330
1F
100
AcDbEntity
  8
Make2D visible lines
100
AcDbSpline
210
0.0
220
0.0
230
1.0
 70
    24
 71
     2
 72
     6
 73
     3
 74
     0
 42
0.0000000001
 43
0.0000000001
 40
0.0
 40
0.0
 40
0.0
 40
0.2325105046476637
 40
0.2325105046476637
 40
0.2325105046476637
 10
-13.2297624356453
 20
0.1521924194416825
 30
0.0
 10
-13.22692206660934
 20
0.2684129683847045
 30
0.0
 10
-13.22408169757338
 20
0.3846335173277264
 30
0.0
  0
SPLINE
  5
8E
330
1F
100
AcDbEntity
  8
Make2D visible lines
100
AcDbSpline
210
0.0
220
0.0
230
1.0
 70
    24
 71
     2
 72
     6
 73
     3
 74
     0
 42
0.0000000001
 43
0.0000000001
 40
0.0
 40
0.0
 40
0.0
 40
0.2213623405233084
 40
0.2213623405233084
 40
0.2213623405233084
 10
-14.63650962180631
 20
0.3858503918134666
 30
0.0
 10
-14.64278444587922
 20
0.2753472333366913
 30
0.0
 10
-14.64905926995212
 20
0.164844074859916
 30
0.0
  0
SPLINE
  5
8F
330
1F
100
AcDbEntity
  8
Make2D visible lines
100
AcDbSpline
210
0.0
220
0.0
230
1.0
 70
     8
 71
     3
 72
    13
 73
     9
 74
     0
 42
0.0000000001
 43
0.0000000001
 40
-1.83258135608072
 40
-1.83258135608072
 40
-1.83258135608072
 40
-1.83258135608072
 40
-0.750510233115731
 40
-0.5672189493277444
 40
-0.4828690280123605
 40
-0.2443108918713642
 40
-0.1163337939371243
 40
0.0
 40
0.0
 40
0.0
 40
0.0
 10
-13.22299087237529
 20
0.429267031622143
 30
0.0
 10
-13.21504054921931
 20
0.7898405850234216
 30
0.0
 10
-13.20221531540582
 20
1.211528658082631
 30
0.0
 10
-13.19414209441466
 20
1.661268225296924
 30
0.0
 10
-13.18308647556309
 20
1.830020096093349
 30
0.0
 10
-13.10070269464873
 20
1.966768126584214
 30
0.0
 10
-12.96832106639856
 20
2.057218183732865
 30
0.0
 10
-12.88738507239917
 20
2.080693221901958
 30
0.0
 10
-12.84970614882607
 20
2.086000769603414
 30
0.0
  0
SPLINE
  5
90
330
1F
100
AcDbEntity
  8
Make2D visible lines
100
AcDbSpline
210
0.0
220
0.0
230
1.0
 70
    24
 71
     2
 72
     6
 73
     3
 74
     0
 42
0.0000000001
 43
0.0000000001
 40
-10.36850216633574
 40
-10.36850216633574
 40
-10.36850216633574
 40
0.0
 40
0.0
 40
0.0
 10
-12.84970614882607
 20
2.086000769603414
 30
0.0
 10
-7.714706148826075
 20
2.798906298637399
 30
0.0
 10
-2.579706148826077
 20
3.511811827671384
 30
0.0
  0
SPLINE
  5
91
330
1F
100
AcDbEntity
  8
Make2D visible lines
100
AcDbSpline
210
0.0
220
0.0
230
1.0
 70
    12
 71
     3
 72
     8
 73
     4
 74
     0
 42
0.0000000001
 43
0.0000000001
 40
0.0
 40
0.0
 40
0.0
 40
0.0
 40
0.9983344876344831
 40
0.9983344876344831
 40
0.9983344876344831
 40
0.9983344876344831
 10
-2.579706148826077
 20
3.511811827671384
 30
0.0
 41
1.0
 10
-2.12885485825511
 20
3.574404695741988
 30
0.0
 41
1.0
 10
-1.676472082478867
 20
3.64333701932616
 30
0.0
 41
1.0
 10
-1.221809343709253
 20
3.65726383948913
 30
0.0
 41
1.0
  0
SPLINE
  5
92
330
1F
100
AcDbEntity
  8
Make2D visible lines
100
AcDbSpline
210
0.0
220
0.0
230
1.0
 70
     8
 71
     3
 72
     8
 73
     4
 74
     0
 42
0.0000000001
 43
0.0000000001
 40
0.0
 40
0.0
 40
0.0
 40
0.0
 40
0.3051876163662417
 40
0.3051876163662417
 40
0.3051876163662417
 40
0.3051876163662417
 10
-1.221809343709253
 20
3.65726383948913
 30
0.0
 10
-0.9732787360756561
 20
3.664876605573444
 30
0.0
 10
-0.7246414046075387
 20
3.670166049722532
 30
0.0
 10
-0.4759624908902254
 20
3.673132171936395
 30
0.0
  0
SPLINE
  5
93
330
1F
100
AcDbEntity
  8
Make2D visible lines
100
AcDbSpline
210
0.0
220
0.0
230
1.0
 70
    24
 71
     2
 72
     6
 73
     3
 74
     0
 42
0.0000000001
 43
0.0000000001
 40
0.0
 40
0.0
 40
0.0
 40
0.2517559204860955
 40
0.2517559204860955
 40
0.2517559204860955
 10
0.0002938536723889
 20
0.0000000000000036
 30
0.0
 10
0.1261718139154411
 20
0.0000000000000036
 30
0.0
 10
0.2520497741584933
 20
0.0000000000000036
 30
0.0
  0
SPLINE
  5
94
330
1F
100
AcDbEntity
  8
Make2D visible lines
100
AcDbSpline
210
0.0
220
0.0
230
1.0
 70
    12
 71
     2
 72
     6
 73
     3
 74
     0
 42
0.0000000001
 43
0.0000000001
 40
0.0
 40
0.0
 40
0.0
 40
0.0224671519842366
 40
0.0224671519842366
 40
0.0224671519842366
 10
-14.63649381209585
 20
0.3860938211857499
 30
0.0
 41
1.0
 10
-14.63547704695172
 20
0.4000000000000348
 30
0.0
 41
0.7324347794791691
 10
-14.62153374674793
 20
0.4000000000000183
 30
0.0
 41
1.0
  0
SPLINE
  5
95
330
1F
100
AcDbEntity
  8
Make2D visible lines
100
AcDbSpline
210
0.0
220
0.0
230
1.0
 70
    12
 71
     2
 72
     6
 73
     3
 74
     0
 42
0.0000000001
 43
0.0000000001
 40
-0.0352706514985427
 40
-0.0352706514985427
 40
-0.0352706514985427
 40
0.0
 40
0.0
 40
0.0
 10
-13.24211462630467
 20
0.4020374895150737
 30
0.0
 41
1.0
 10
-13.22347935027843
 20
0.4092798636229074
 30
0.0
 41
0.8321381552760684
 10
-13.22299087237529
 20
0.429267031622143
 30
0.0
 41
1.0
  0
SPLINE
  5
96
330
1F
100
AcDbEntity
  8
Make2D visible lines
100
AcDbSpline
210
0.0
220
0.0
230
1.0
 70
    24
 71
     2
 72
     6
 73
     3
 74
     0
 42
0.0000000001
 43
0.0000000001
 40
0.0
 40
0.0
 40
0.0
 40
1.379419120443295
 40
1.379419120443295
 40
1.379419120443295
 10
14.62212144909589
 20
0.4000000000000163
 30
0.0
 10
13.93241188887423
 20
0.4000000000000162
 30
0.0
 10
13.24270232865258
 20
0.4000000000000161
 30
0.0
  0
SPLINE
  5
97
330
1F
100
AcDbEntity
  8
Make2D visible lines
100
AcDbSpline
210
0.0
220
0.0
230
1.0
 70
    12
 71
     2
 72
     6
 73
     3
 74
     0
 42
0.0000000001
 43
0.0000000001
 40
-0.0352706514985427
 40
-0.0352706514985427
 40
-0.0352706514985427
 40
0.0
 40
0.0
 40
0.0
 10
13.24270232865263
 20
0.4020374895150737
 30
0.0
 41
1.0
 10
13.22406705262639
 20
0.4092798636229074
 30
0.0
 41
0.8321381552760684
 10
13.22357857472325
 20
0.429267031622143
 30
0.0
 41
1.0
  0
SPLINE
  5
98
330
1F
100
AcDbEntity
  8
Make2D visible lines
100
AcDbSpline
210
0.0
220
0.0
230
1.0
 70
    12
 71
     2
 72
     8
 73
     5
 74
     0
 42
0.0000000001
 43
0.0000000001
 40
0.0
 40
0.0
 40
0.0
 40
0.0119642320224294
 40
0.0119642320224294
 40
0.0239284640448587
 40
0.0239284640448587
 40
0.0239284640448587
 10
-13.23907721992012
 20
0.4000000000000163
 30
0.0
 41
1.0
 10
-13.23275639185313
 20
0.4000000000000209
 30
0.0
 41
0.9215246294676533
 10
-13.22834182891455
 20
0.3954762292814858
 30
0.0
 41
1.0
 10
-13.22392726597599
 20
0.3909524585629509
 30
0.0
 41
0.9215246294676533
 10
-13.22408169757338
 20
0.3846335173277264
 30
0.0
 41
1.0
  0
SPLINE
  5
99
330
1F
100
AcDbEntity
  8
Make2D visible lines
100
AcDbSpline
210
0.0
220
0.0
230
1.0
 70
    12
 71
     2
 72
     6
 73
     3
 74
     0
 42
0.0000000001
 43
0.0000000001
 40
-0.0371380794388858
 40
-0.0371380794388858
 40
-0.0371380794388858
 40
0.0
 40
0.0
 40
0.0
 10
14.61593743107272
 20
0.4022441987256987
 30
0.0
 41
1.0
 10
14.63570933618983
 20
0.4103542426935238
 30
0.0
 41
0.8144776561050845
 10
14.63450486416701
 20
0.4316908378358253
 30
0.0
 41
1.0
  0
SPLINE
  5
9A
330
1F
100
AcDbEntity
  8
Make2D visible lines
100
AcDbSpline
210
0.0
220
0.0
230
1.0
 70
     8
 71
     3
 72
    12
 73
     8
 74
     0
 42
0.0000000001
 43
0.0000000001
 40
0.0
 40
0.0
 40
0.0
 40
0.0
 40
2.024931116884056
 40
2.121300252943487
 40
2.208073208949396
 40
2.641991453438839
 40
3.085460819895622
 40
3.085460819895622
 40
3.085460819895622
 40
3.085460819895622
 10
14.63450486416701
 20
0.4316908378358253
 30
0.0
 10
14.5958009921666
 20
1.105574847750693
 30
0.0
 10
14.55749833250249
 20
1.811593362411049
 30
0.0
 10
14.51467636570618
 20
2.546414843142783
 30
0.0
 10
14.46984214687032
 20
2.747953191239763
 30
0.0
 10
14.30128347127535
 20
3.034556781920432
 30
0.0
 10
14.03061812476079
 20
3.175838551528641
 30
0.0
 10
13.88629385117393
 20
3.205665827232744
 30
0.0
  0
SPLINE
  5
9B
330
1F
100
AcDbEntity
  8
Make2D visible lines
100
AcDbSpline
210
0.0
220
0.0
230
1.0
 70
    24
 71
     2
 72
     6
 73
     3
 74
     0
 42
0.0000000001
 43
0.0000000001
 40
-12.2902709571203
 40
-12.2902709571203
 40
-12.2902709571203
 40
0.0
 40
0.0
 40
0.0
 10
13.88629385117393
 20
3.205665827232744
 30
0.0
 10
7.868293851173924
 20
4.449195501128249
 30
0.0
 10
1.850293851173916
 20
5.692725175023753
 30
0.0
  0
SPLINE
  5
9C
330
1F
100
AcDbEntity
  8
Make2D visible lines
100
AcDbSpline
210
0.0
220
0.0
230
1.0
 70
    12
 71
     3
 72
    11
 73
     7
 74
     0
 42
0.0000000001
 43
0.0000000001
 40
0.0
 40
0.0
 40
0.0
 40
0.0
 40
0.2500000000000077
 40
0.500000000000056
 40
0.7500000000001044
 40
0.9903549301730069
 40
0.9903549301730069
 40
0.9903549301730069
 40
0.9903549301730069
 10
1.850293851173916
 20
5.692725175023753
 30
0.0
 41
1.0
 10
1.777826110201786
 20
5.707699549616471
 30
0.0
 41
1.0
 10
1.636178649524055
 20
5.771964450750453
 30
0.0
 41
1.0
 10
1.455330597599158
 20
5.941965920377697
 30
0.0
 41
1.0
 10
1.329503982597103
 20
6.15347175039408
 30
0.0
 41
1.0
 10
1.294346165788923
 20
6.303120864095799
 30
0.0
 41
1.0
 10
1.291800963493813
 20
6.378712134379271
 30
0.0
 41
1.0
  0
SPLINE
  5
9D
330
1F
100
AcDbEntity
  8
Make2D visible lines
100
AcDbSpline
210
0.0
220
0.0
230
1.0
 70
    24
 71
     2
 72
     6
 73
     3
 74
     0
 42
0.0000000001
 43
0.0000000001
 40
0.0
 40
0.0
 40
0.0
 40
0.080013140622857
 40
0.080013140622857
 40
0.080013140622857
 10
1.291800963493813
 20
6.378712134379271
 30
0.0
 10
1.29104740733392
 20
6.420856067189643
 30
0.0
 10
1.290293851174027
 20
6.463000000000015
 30
0.0
  0
SPLINE
  5
9E
330
1F
100
AcDbEntity
  8
Make2D visible lines
100
AcDbSpline
210
0.0
220
0.0
230
1.0
 70
    24
 71
     2
 72
     6
 73
     3
 74
     0
 42
0.0000000001
 43
0.0000000001
 40
0.0
 40
0.0
 40
0.0
 40
1.290000000000045
 40
1.290000000000045
 40
1.290000000000045
 10
1.290293851174027
 20
6.463000000000015
 30
0.0
 10
0.645293851174003
 20
6.463000000000015
 30
0.0
 10
0.0002938511739785
 20
6.463000000000015
 30
0.0
  0
SPLINE
  5
9F
330
1F
100
AcDbEntity
  8
Make2D visible lines
100
AcDbSpline
210
0.0
220
0.0
230
1.0
 70
    24
 71
     2
 72
     6
 73
     3
 74
     0
 42
0.0000000001
 43
0.0000000001
 40
0.0
 40
0.0
 40
0.0
 40
1.289412297652113
 40
1.289412297652113
 40
1.289412297652113
 10
0.0002938511739785
 20
6.463000000000015
 30
0.0
 10
-0.6445592232390638
 20
6.463000000000015
 30
0.0
 10
-1.289412297652106
 20
6.463000000000015
 30
0.0
  0
SPLINE
  5
A0
330
1F
100
AcDbEntity
  8
Make2D visible lines
100
AcDbSpline
210
0.0
220
0.0
230
1.0
 70
    24
 71
     2
 72
     6
 73
     3
 74
     0
 42
0.0000000001
 43
0.0000000001
 40
-0.080013140622857
 40
-0.080013140622857
 40
-0.080013140622857
 40
0.0
 40
0.0
 40
0.0
 10
-1.289412297652106
 20
6.463000000000015
 30
0.0
 10
-1.290312779398981
 20
6.420856067189643
 30
0.0
 10
-1.291213261145856
 20
6.378712134379271
 30
0.0
  0
SPLINE
  5
A1
330
1F
100
AcDbEntity
  8
Make2D visible lines
100
AcDbSpline
210
0.0
220
0.0
230
1.0
 70
    12
 71
     3
 72
    11
 73
     7
 74
     0
 42
0.0000000001
 43
0.0000000001
 40
-0.9903549301730069
 40
-0.9903549301730069
 40
-0.9903549301730069
 40
-0.9903549301730069
 40
-0.7500000000001044
 40
-0.500000000000056
 40
-0.2500000000000077
 40
0.0
 40
0.0
 40
0.0
 40
0.0
 10
-1.291213261145856
 20
6.378712134379271
 30
0.0
 41
1.0
 10
-1.293758463440966
 20
6.303120864095799
 30
0.0
 41
1.0
 10
-1.328916280249146
 20
6.15347175039408
 30
0.0
 41
1.0
 10
-1.454742895251201
 20
5.941965920377697
 30
0.0
 41
1.0
 10
-1.635590947176098
 20
5.771964450750453
 30
0.0
 41
1.0
 10
-1.777238407853829
 20
5.707699549616471
 30
0.0
 41
1.0
 10
-1.849706148825959
 20
5.692725175023753
 30
0.0
 41
1.0
  0
SPLINE
  5
A2
330
1F
100
AcDbEntity
  8
Make2D visible lines
100
AcDbSpline
210
0.0
220
0.0
230
1.0
 70
    24
 71
     2
 72
     6
 73
     3
 74
     0
 42
0.0000000001
 43
0.0000000001
 40
0.0
 40
0.0
 40
0.0
 40
12.2902709571203
 40
12.2902709571203
 40
12.2902709571203
 10
-1.849706148825959
 20
5.692725175023753
 30
0.0
 10
-7.867706148825967
 20
4.449195501128249
 30
0.0
 10
-13.88570614882597
 20
3.205665827232744
 30
0.0
  0
SPLINE
  5
A3
330
1F
100
AcDbEntity
  8
Make2D visible lines
100
AcDbSpline
210
0.0
220
0.0
230
1.0
 70
     8
 71
     3
 72
    12
 73
     8
 74
     0
 42
0.0000000001
 43
0.0000000001
 40
-3.085460819895622
 40
-3.085460819895622
 40
-3.085460819895622
 40
-3.085460819895622
 40
-2.641991453438839
 40
-2.208073208949396
 40
-2.121300252943487
 40
-2.024931116884056
 40
0.0
 40
0.0
 40
0.0
 40
0.0
 10
-13.88570614882597
 20
3.205665827232744
 30
0.0
 10
-14.03003042241284
 20
3.175838551528641
 30
0.0
 10
-14.3006957689274
 20
3.034556781920432
 30
0.0
 10
-14.46925444452236
 20
2.747953191239763
 30
0.0
 10
-14.51408866335822
 20
2.546414843142783
 30
0.0
 10
-14.55691063015453
 20
1.811593362411049
 30
0.0
 10
-14.59521328981864
 20
1.105574847750693
 30
0.0
 10
-14.63391716181906
 20
0.4316908378358253
 30
0.0
  0
SPLINE
  5
A4
330
1F
100
AcDbEntity
  8
Make2D visible lines
100
AcDbSpline
210
0.0
220
0.0
230
1.0
 70
    12
 71
     2
 72
     6
 73
     3
 74
     0
 42
0.0000000001
 43
0.0000000001
 40
0.0
 40
0.0
 40
0.0
 40
0.0371380794388858
 40
0.0371380794388858
 40
0.0371380794388858
 10
-14.63391716181906
 20
0.4316908378358253
 30
0.0
 41
1.0
 10
-14.63512163384188
 20
0.4103542426935238
 30
0.0
 41
0.8144776561050845
 10
-14.61534972872477
 20
0.4022441987256987
 30
0.0
 41
1.0
  0
SPLINE
  5
A5
330
1F
100
AcDbEntity
  8
Make2D visible lines
100
AcDbSpline
210
0.0
220
0.0
230
1.0
 70
     8
 71
     3
 72
     8
 73
     4
 74
     0
 42
0.0000000001
 43
0.0000000001
 40
0.6950384688492743
 40
0.6950384688492743
 40
0.6950384688492743
 40
0.6950384688492743
 40
1.0
 40
1.0
 40
1.0
 40
1.0
 10
0.477102862637139
 20
3.673125576136301
 30
0.0
 10
0.7255974915996859
 20
3.670158211529776
 30
0.0
 10
0.9740505517131908
 20
3.664870965980719
 30
0.0
 10
1.22239704605721
 20
3.65726383948913
 30
0.0
  0
SPLINE
  5
A6
330
1F
100
AcDbEntity
  8
Make2D visible lines
100
AcDbSpline
210
0.0
220
0.0
230
1.0
 70
    12
 71
     3
 72
     8
 73
     4
 74
     0
 42
0.0000000001
 43
0.0000000001
 40
-0.9983344876344831
 40
-0.9983344876344831
 40
-0.9983344876344831
 40
-0.9983344876344831
 40
0.0
 40
0.0
 40
0.0
 40
0.0
 10
1.22239704605721
 20
3.65726383948913
 30
0.0
 41
1.0
 10
1.677059784826824
 20
3.64333701932616
 30
0.0
 41
1.0
 10
2.129442560603067
 20
3.574404695741988
 30
0.0
 41
1.0
 10
2.580293851174034
 20
3.511811827671384
 30
0.0
 41
1.0
  0
SPLINE
  5
A7
330
1F
100
AcDbEntity
  8
Make2D visible lines
100
AcDbSpline
210
0.0
220
0.0
230
1.0
 70
    24
 71
     2
 72
     6
 73
     3
 74
     0
 42
0.0000000001
 43
0.0000000001
 40
0.0
 40
0.0
 40
0.0
 40
10.36850216633574
 40
10.36850216633574
 40
10.36850216633574
 10
2.580293851174034
 20
3.511811827671384
 30
0.0
 10
7.715293851174032
 20
2.798906298637399
 30
0.0
 10
12.85029385117403
 20
2.086000769603414
 30
0.0
  0
SPLINE
  5
A8
330
1F
100
AcDbEntity
  8
Make2D visible lines
100
AcDbSpline
210
0.0
220
0.0
230
1.0
 70
     8
 71
     3
 72
    13
 73
     9
 74
     0
 42
0.0000000001
 43
0.0000000001
 40
0.0
 40
0.0
 40
0.0
 40
0.0
 40
0.1163337939371243
 40
0.2443108918713642
 40
0.4828690280123605
 40
0.5672189493277444
 40
0.750510233115731
 40
1.83258135608072
 40
1.83258135608072
 40
1.83258135608072
 40
1.83258135608072
 10
12.85029385117403
 20
2.086000769603414
 30
0.0
 10
12.88797277474713
 20
2.080693221901958
 30
0.0
 10
12.96890876874652
 20
2.057218183732865
 30
0.0
 10
13.10129039699669
 20
1.966768126584214
 30
0.0
 10
13.18367417791104
 20
1.830020096093349
 30
0.0
 10
13.19472979676262
 20
1.661268225296924
 30
0.0
 10
13.20280301775378
 20
1.211528658082631
 30
0.0
 10
13.21562825156727
 20
0.7898405850234216
 30
0.0
 10
13.22357857472325
 20
0.429267031622143
 30
0.0
  0
SPLINE
  5
A9
330
1F
100
AcDbEntity
  8
Make2D visible lines
100
AcDbSpline
210
0.0
220
0.0
230
1.0
 70
    12
 71
     2
 72
     8
 73
     5
 74
     0
 42
0.0000000001
 43
0.0000000001
 40
0.0
 40
0.0
 40
0.0
 40
0.1269465231438366
 40
0.1269465231438366
 40
0.2538930462876731
 40
0.2538930462876731
 40
0.2538930462876731
 10
-14.49331016934511
 20
0.0000000000000036
 30
0.0
 41
1.0
 10
-14.56053473368049
 20
0.000000000000002
 30
0.0
 41
0.918360064844369
 10
-14.60670257578874
 20
0.0488638148853193
 30
0.0
 41
1.0
 10
-14.65287041789701
 20
0.0977276297706366
 30
0.0
 41
0.918360064844369
 10
-14.64905926995212
 20
0.1648440748599159
 30
0.0
 41
1.0
  0
SPLINE
  5
AA
330
1F
100
AcDbEntity
  8
Make2D visible lines
100
AcDbSpline
210
0.0
220
0.0
230
1.0
 70
    24
 71
     2
 72
     6
 73
     3
 74
     0
 42
0.0000000001
 43
0.0000000001
 40
0.0
 40
0.0
 40
0.0
 40
1.107594207465098
 40
1.107594207465098
 40
1.107594207465098
 10
-13.38571596188002
 20
0.0000000000000036
 30
0.0
 10
-13.93951306561257
 20
0.0000000000000036
 30
0.0
 10
-14.49331016934512
 20
0.0000000000000036
 30
0.0
  0
LINE
  5
AB
330
1F
100
AcDbEntity
  8
Make2D visible lines
100
AcDbLine
 10
-8.822490348350925
 20
24.77164434775384
 30
0.0
 11
-9.983952127963931
 21
24.61690727857422
 31
0.0
  0
POLYLINE
  5
AC
330
1F
100
AcDbEntity
  8
Make2D visible lines
100
AcDb2dPolyline
 66
     1
 10
0.0
 20
0.0
 30
0.0
  0
VERTEX
  5
AD
330
AC
100
AcDbEntity
  8
Make2D visible lines
100
AcDbVertex
100
AcDb2dVertex
 10
-9.983952127963931
 20
24.61690727857422
 30
0.0
  0
VERTEX
  5
AE
330
AC
100
AcDbEntity
  8
Make2D visible lines
100
AcDbVertex
100
AcDb2dVertex
 10
-23.3589521279639
 20
24.61690727857422
 30
0.0
  0
SEQEND
  5
AF
330
AC
100
AcDbEntity
  8
Make2D visible lines
  0
LINE
  5
B0
330
1F
100
AcDbEntity
  8
Make2D visible lines
100
AcDbLine
 10
-23.3589521279639
 20
24.61690727857422
 30
0.0
 11
-24.52041390757691
 21
24.77164434775384
 31
0.0
  0
POLYLINE
  5
B1
330
1F
100
AcDbEntity
  8
Default
100
AcDb2dPolyline
 66
     1
 10
0.0
 20
0.0
 30
0.0
  0
VERTEX
  5
B2
330
B1
100
AcDbEntity
  8
Default
100
AcDbVertex
100
AcDb2dVertex
 10
-8.822490348350925
 20
24.77164434775382
 30
0.0
  0
VERTEX
  5
B3
330
B1
100
AcDbEntity
  8
Default
100
AcDbVertex
100
AcDb2dVertex
 10
-24.52041390757691
 20
24.77164434775381
 30
0.0
  0
SEQEND
  5
B4
330
B1
100
AcDbEntity
  8
Default
  0
SPLINE
  5
B5
330
1F
100
AcDbEntity
  8
Default
100
AcDbSpline
210
0.0
220
0.0
230
1.0
 70
    12
 71
     2
 72
     6
 73
     3
 74
     0
 42
0.0000000001
 43
0.0000000001
 40
0.0
 40
0.0
 40
0.0
 40
0.0431172320695658
 40
0.0431172320695658
 40
0.0431172320695658
 10
-24.52041390757691
 20
24.77164434775381
 30
0.0
 41
1.0
 10
-24.54637059613556
 20
24.77518470937582
 30
0.0
 41
0.754396026161636
 10
-24.5464521279639
 20
24.80138160220506
 30
0.0
 41
1.0
  0
SPLINE
  5
B6
330
1F
100
AcDbEntity
  8
Default
100
AcDbSpline
210
0.0
220
0.0
230
1.0
 70
    24
 71
     2
 72
     6
 73
     3
 74
     0
 42
0.0000000001
 43
0.0000000001
 40
0.0
 40
0.0
 40
0.0
 40
0.1037317171327032
 40
0.1037317171327032
 40
0.1037317171327032
 10
-24.5464521279639
 20
24.80138160220506
 30
0.0
 10
-24.5464521279639
 20
24.85324746077141
 30
0.0
 10
-24.5464521279639
 20
24.90511331933776
 30
0.0
  0
SPLINE
  5
B7
330
1F
100
AcDbEntity
  8
Default
100
AcDbSpline
210
0.0
220
0.0
230
1.0
 70
    12
 71
     2
 72
     6
 73
     3
 74
     0
 42
0.0000000001
 43
0.0000000001
 40
0.0
 40
0.0
 40
0.0
 40
0.0470942880630165
 40
0.0470942880630165
 40
0.0470942880630165
 10
-24.5464521279639
 20
24.90511331933776
 30
0.0
 41
1.0
 10
-24.54638382905985
 20
24.93504474461771
 30
0.0
 41
0.7087216954127066
 10
-24.51645240441056
 20
24.9351133193365
 30
0.0
 41
1.0
  0
POLYLINE
  5
B8
330
1F
100
AcDbEntity
  8
Default
100
AcDb2dPolyline
 66
     1
 10
0.0
 20
0.0
 30
0.0
  0
VERTEX
  5
B9
330
B8
100
AcDbEntity
  8
Default
100
AcDbVertex
100
AcDb2dVertex
 10
-24.51645240441056
 20
24.9351133193365
 30
0.0
  0
VERTEX
  5
BA
330
B8
100
AcDbEntity
  8
Default
100
AcDbVertex
100
AcDb2dVertex
 10
-8.826451851517277
 20
24.93511331933649
 30
0.0
  0
SEQEND
  5
BB
330
B8
100
AcDbEntity
  8
Default
  0
SPLINE
  5
BC
330
1F
100
AcDbEntity
  8
Default
100
AcDbSpline
210
0.0
220
0.0
230
1.0
 70
    12
 71
     2
 72
     6
 73
     3
 74
     0
 42
0.0000000001
 43
0.0000000001
 40
0.0
 40
0.0
 40
0.0
 40
0.0470830900804005
 40
0.0470830900804005
 40
0.0470830900804005
 10
-8.826451851517277
 20
24.93511331933649
 30
0.0
 41
1.0
 10
-8.79654649345976
 20
24.93501867826612
 30
0.0
 41
0.709337752437847
 10
-8.796452127963917
 20
24.90511331933776
 30
0.0
 41
1.0
  0
SPLINE
  5
BD
330
1F
100
AcDbEntity
  8
Default
100
AcDbSpline
210
0.0
220
0.0
230
1.0
 70
    24
 71
     2
 72
     6
 73
     3
 74
     0
 42
0.0000000001
 43
0.0000000001
 40
0.0
 40
0.0
 40
0.0
 40
0.1037317171327068
 40
0.1037317171327068
 40
0.1037317171327068
 10
-8.796452127963917
 20
24.90511331933777
 30
0.0
 10
-8.796452127963917
 20
24.85324746077141
 30
0.0
 10
-8.796452127963917
 20
24.80138160220506
 30
0.0
  0
SPLINE
  5
BE
330
1F
100
AcDbEntity
  8
Default
100
AcDbSpline
210
0.0
220
0.0
230
1.0
 70
    12
 71
     2
 72
     6
 73
     3
 74
     0
 42
0.0000000001
 43
0.0000000001
 40
0.0
 40
0.0
 40
0.0
 40
0.0431192810070287
 40
0.0431192810070287
 40
0.0431192810070287
 10
-8.796452127963917
 20
24.80138160220506
 30
0.0
 41
1.0
 10
-8.796528638862332
 20
24.77518031300222
 30
0.0
 41
0.7542698814906877
 10
-8.822490348350925
 20
24.77164434775382
 30
0.0
 41
1.0
  0
SPLINE
  5
BF
330
1F
100
AcDbEntity
  8
Make2D visible lines
100
AcDbSpline
210
0.0
220
0.0
230
1.0
 70
    24
 71
     2
 72
     6
 73
     3
 74
     0
 42
0.0000000001
 43
0.0000000001
 40
0.0
 40
0.0
 40
0.0
 40
0.2213623405233084
 40
0.2213623405233084
 40
0.2213623405233084
 10
61.36636739616506
 20
0.3858503918134666
 30
0.0
 10
61.37264222023796
 20
0.2753472333366913
 30
0.0
 10
61.37891704431087
 20
0.164844074859916
 30
0.0
  0
SPLINE
  5
C0
330
1F
100
AcDbEntity
  8
Make2D visible lines
100
AcDbSpline
210
0.0
220
0.0
230
1.0
 70
    12
 71
     2
 72
     6
 73
     3
 74
     0
 42
0.0000000001
 43
0.0000000001
 40
0.0
 40
0.0
 40
0.0
 40
0.0232077921390905
 40
0.0232077921390905
 40
0.0232077921390905
 10
47.11738830559952
 20
0.3999999999470365
 30
0.0
 41
1.0
 10
47.13200547981985
 20
0.3999392744149043
 30
0.0
 41
0.7176120634141828
 10
47.132382334144
 20
0.3853268327778507
 30
0.0
 41
1.0
  0
SPLINE
  5
C1
330
1F
100
AcDbEntity
  8
Make2D visible lines
100
AcDbSpline
210
0.0
220
0.0
230
1.0
 70
    12
 71
     2
 72
     6
 73
     3
 74
     0
 42
0.0000000001
 43
0.0000000001
 40
0.0
 40
0.0
 40
0.0
 40
0.0232125536774005
 40
0.0232125536774005
 40
0.0232125536774005
 10
46.32674555472185
 20
0.3853269610145591
 30
0.0
 41
1.0
 10
46.32711206705959
 20
0.3999502926109969
 30
0.0
 41
0.7170957278319929
 10
46.3417399065259
 20
0.3999999999617776
 30
0.0
 41
1.0
  0
SPLINE
  5
C2
330
1F
100
AcDbEntity
  8
Make2D visible lines
100
AcDbSpline
210
0.0
220
0.0
230
1.0
 70
    12
 71
     2
 72
     6
 73
     3
 74
     0
 42
0.0000000001
 43
0.0000000001
 40
0.0
 40
0.0
 40
0.0
 40
0.2259576718196235
 40
0.2259576718196235
 40
0.2259576718196235
 10
46.32180007121013
 20
0.1594216323489093
 30
0.0
 41
1.0
 10
46.32427806572261
 20
0.2723732898507527
 30
0.0
 41
0.9999999984910576
 10
46.3267436501577
 20
0.3853252189294936
 30
0.0
 41
1.0
  0
SPLINE
  5
C3
330
1F
100
AcDbEntity
  8
Make2D visible lines
100
AcDbSpline
210
0.0
220
0.0
230
1.0
 70
    24
 71
     3
 72
     9
 73
     5
 74
     0
 42
0.0000000001
 43
0.0000000001
 40
0.0
 40
0.0
 40
0.0
 40
0.0
 40
0.0000682360840525
 40
0.251869451330915
 40
0.251869451330915
 40
0.251869451330915
 40
0.251869451330915
 10
46.47783094652037
 20
0.0000000000000036
 30
0.0
 10
46.4777214665403
 20
0.0000000000000036
 30
0.0
 10
46.56166761103189
 20
0.0000000000000036
 30
0.0
 10
46.64563310805484
 20
0.0000000000000036
 30
0.0
 10
46.72956392568318
 20
0.0000000000000036
 30
0.0
  0
SPLINE
  5
C4
330
1F
100
AcDbEntity
  8
Make2D visible lines
100
AcDbSpline
210
0.0
220
0.0
230
1.0
 70
    24
 71
     2
 72
     6
 73
     3
 74
     0
 42
0.0000000001
 43
0.0000000001
 40
0.0
 40
0.0
 40
0.0
 40
1.107594207465098
 40
1.107594207465098
 40
1.107594207465098
 10
60.11557373623877
 20
0.0000000000000036
 30
0.0
 10
60.66937083997132
 20
0.0000000000000036
 30
0.0
 10
61.22316794370387
 20
0.0000000000000036
 30
0.0
  0
SPLINE
  5
C5
330
1F
100
AcDbEntity
  8
Make2D visible lines
100
AcDbSpline
210
0.0
220
0.0
230
1.0
 70
    12
 71
     2
 72
     8
 73
     5
 74
     0
 42
0.0000000001
 43
0.0000000001
 40
0.0
 40
0.0
 40
0.0
 40
0.0119642320224294
 40
0.0119642320224294
 40
0.0239284640448587
 40
0.0239284640448587
 40
0.0239284640448587
 10
59.96893499427887
 20
0.4000000000000163
 30
0.0
 41
1.0
 10
59.96261416621189
 20
0.4000000000000209
 30
0.0
 41
0.9215246294676533
 10
59.9581996032733
 20
0.3954762292814858
 30
0.0
 41
1.0
 10
59.95378504033474
 20
0.3909524585629509
 30
0.0
 41
0.9215246294676533
 10
59.95393947193213
 20
0.3846335173277264
 30
0.0
 41
1.0
  0
SPLINE
  5
C6
330
1F
100
AcDbEntity
  8
Make2D visible lines
100
AcDbSpline
210
0.0
220
0.0
230
1.0
 70
    12
 71
     2
 72
     8
 73
     5
 74
     0
 42
0.0000000001
 43
0.0000000001
 40
0.0
 40
0.0
 40
0.0
 40
0.1269465231438366
 40
0.1269465231438366
 40
0.2538930462876731
 40
0.2538930462876731
 40
0.2538930462876731
 10
61.22316794370386
 20
0.0000000000000036
 30
0.0
 41
1.0
 10
61.29039250803924
 20
0.000000000000002
 30
0.0
 41
0.918360064844369
 10
61.33656035014749
 20
0.0488638148853193
 30
0.0
 41
1.0
 10
61.38272819225577
 20
0.0977276297706366
 30
0.0
 41
0.918360064844369
 10
61.37891704431087
 20
0.1648440748599159
 30
0.0
 41
1.0
  0
SPLINE
  5
C7
330
1F
100
AcDbEntity
  8
Make2D visible lines
100
AcDbSpline
210
0.0
220
0.0
230
1.0
 70
    12
 71
     2
 72
     6
 73
     3
 74
     0
 42
0.0000000001
 43
0.0000000001
 40
0.0
 40
0.0
 40
0.0
 40
0.0224671519842366
 40
0.0224671519842366
 40
0.0224671519842366
 10
61.3663515864546
 20
0.3860938211857499
 30
0.0
 41
1.0
 10
61.36533482131048
 20
0.4000000000000348
 30
0.0
 41
0.7324347794791691
 10
61.35139152110668
 20
0.4000000000000183
 30
0.0
 41
1.0
  0
SPLINE
  5
C8
330
1F
100
AcDbEntity
  8
Make2D visible lines
100
AcDbSpline
210
0.0
220
0.0
230
1.0
 70
    24
 71
     2
 72
     6
 73
     3
 74
     0
 42
0.0000000001
 43
0.0000000001
 40
0.0
 40
0.0
 40
0.0
 40
0.2325105046476637
 40
0.2325105046476637
 40
0.2325105046476637
 10
59.95962021000405
 20
0.1521924194416825
 30
0.0
 10
59.95677984096809
 20
0.2684129683847045
 30
0.0
 10
59.95393947193213
 20
0.3846335173277264
 30
0.0
  0
SPLINE
  5
C9
330
1F
100
AcDbEntity
  8
Make2D visible lines
100
AcDbSpline
210
0.0
220
0.0
230
1.0
 70
    24
 71
     2
 72
     6
 73
     3
 74
     0
 42
0.0000000001
 43
0.0000000001
 40
0.0
 40
0.0
 40
0.0
 40
0.3863627208447955
 40
0.3863627208447955
 40
0.3863627208447955
 10
47.11592695360252
 20
0.4000000000000166
 30
0.0
 10
46.92274559318012
 20
0.4000000000000165
 30
0.0
 10
46.72956423275772
 20
0.4000000000000163
 30
0.0
  0
SPLINE
  5
CA
330
1F
100
AcDbEntity
  8
Make2D visible lines
100
AcDbSpline
210
0.0
220
0.0
230
1.0
 70
    24
 71
     2
 72
     6
 73
     3
 74
     0
 42
0.0000000001
 43
0.0000000001
 40
0.0
 40
0.0
 40
0.0
 40
0.3876534637036499
 40
0.3876534637036499
 40
0.3876534637036499
 10
46.72956392329191
 20
0.4000000000000163
 30
0.0
 10
46.53573719144008
 20
0.4000000000000162
 30
0.0
 10
46.34191045958826
 20
0.4000000000000161
 30
0.0
  0
SPLINE
  5
CB
330
1F
100
AcDbEntity
  8
Make2D visible lines
100
AcDbSpline
210
0.0
220
0.0
230
1.0
 70
    12
 71
     2
 72
     8
 73
     5
 74
     0
 42
0.0000000001
 43
0.0000000001
 40
0.0
 40
0.0
 40
0.0
 40
0.1242318577480881
 40
0.1242318577480881
 40
0.2484637154961761
 40
0.2484637154961761
 40
0.2484637154961761
 10
47.13732550172564
 20
0.1594215907425355
 30
0.0
 41
1.0
 10
47.13876509237956
 20
0.0938162002370285
 30
0.0
 41
0.9217678869813357
 10
47.0928760001979
 20
0.0469085153295885
 30
0.0
 41
1.0
 10
47.04698690801628
 20
0.0000008304221485
 30
0.0
 41
0.9217678869813357
 10
46.98136572482105
 20
0.0000000000011417
 30
0.0
 41
1.0
  0
SPLINE
  5
CC
330
1F
100
AcDbEntity
  8
Make2D visible lines
100
AcDbSpline
210
0.0
220
0.0
230
1.0
 70
    12
 71
     2
 72
     8
 73
     5
 74
     0
 42
0.0000000001
 43
0.0000000001
 40
0.0
 40
0.0
 40
0.0
 40
0.1240063772075993
 40
0.1240063772075993
 40
0.2480127544151987
 40
0.2480127544151987
 40
0.2480127544151987
 10
46.47776218434451
 20
0.000000000001096
 30
0.0
 41
1.0
 10
46.41227225029025
 20
-0.0000119099018914
 30
0.0
 41
0.9220189045496352
 10
46.36640522554382
 20
0.0467336529376692
 30
0.0
 41
1.0
 10
46.32053820079736
 20
0.0934792157772298
 30
0.0
 41
0.9220189045496352
 10
46.32179249312473
 20
0.1589571384308644
 30
0.0
 41
1.0
  0
SPLINE
  5
CD
330
1F
100
AcDbEntity
  8
Make2D visible lines
100
AcDbSpline
210
0.0
220
0.0
230
1.0
 70
    12
 71
     2
 72
     6
 73
     3
 74
     0
 42
0.0000000001
 43
0.0000000001
 40
0.0
 40
0.0
 40
0.0
 40
0.2253642768281202
 40
0.2253642768281202
 40
0.2253642768281202
 10
47.13238419971111
 20
0.385325058594006
 30
0.0
 41
1.0
 10
47.13484330901209
 20
0.2726697563467351
 30
0.0
 41
0.9999999984988344
 10
47.13731476386278
 20
0.1600147242624911
 30
0.0
 41
1.0
  0
SPLINE
  5
CE
330
1F
100
AcDbEntity
  8
Make2D visible lines
100
AcDbSpline
210
0.0
220
0.0
230
1.0
 70
    12
 71
     2
 72
     6
 73
     3
 74
     0
 42
0.0000000001
 43
0.0000000001
 40
0.0
 40
0.0
 40
0.0
 40
0.2412324278936833
 40
0.2412324278936833
 40
0.2412324278936833
 10
33.49950754253663
 20
0.1521885802082181
 30
0.0
 41
1.0
 10
33.49578813375071
 20
-0.0000000000000105
 30
0.0
 41
0.7156927337036098
 10
33.34355411013078
 20
0.0000000000000034
 30
0.0
 41
1.0
  0
SPLINE
  5
CF
330
1F
100
AcDbEntity
  8
Make2D visible lines
100
AcDbSpline
210
0.0
220
0.0
230
1.0
 70
    24
 71
     2
 72
     6
 73
     3
 74
     0
 42
0.0000000001
 43
0.0000000001
 40
0.0
 40
0.0
 40
0.0
 40
1.379419120443295
 40
1.379419120443295
 40
1.379419120443295
 10
32.10773632526286
 20
0.4000000000000163
 30
0.0
 10
32.79744588548451
 20
0.4000000000000162
 30
0.0
 10
33.48715544570616
 20
0.4000000000000161
 30
0.0
  0
SPLINE
  5
D0
330
1F
100
AcDbEntity
  8
Make2D visible lines - Tangent
100
AcDbSpline
210
0.0
220
0.0
230
1.0
 70
     8
 71
     3
 72
    54
 73
    50
 74
     0
 42
0.0000000001
 43
0.0000000001
 40
0.0
 40
0.0
 40
0.0
 40
0.0
 40
1.0
 40
2.0
 40
3.0
 40
4.0
 40
5.0
 40
6.0
 40
7.0
 40
8.0
 40
9.0
 40
10.0
 40
11.0
 40
12.0
 40
13.0
 40
14.0
 40
15.0
 40
16.0
 40
17.0
 40
18.0
 40
19.0
 40
20.0
 40
21.0
 40
22.0
 40
23.0
 40
24.0
 40
25.0
 40
26.0
 40
27.0
 40
28.0
 40
29.0
 40
30.0
 40
31.0
 40
32.0
 40
33.0
 40
34.0
 40
35.0
 40
36.0
 40
37.0
 40
38.0
 40
39.0
 40
40.0
 40
41.0
 40
42.0
 40
43.0
 40
44.0
 40
45.0
 40
46.0
 40
47.0
 40
47.0
 40
47.0
 40
47.0
 10
47.11513796226794
 20
0.403329261439214
 30
0.0
 10
47.14040824161448
 20
0.471691761030031
 30
0.0
 10
47.12237112598837
 20
0.6333535261625483
 30
0.0
 10
47.12314218823693
 20
0.8657327374605353
 30
0.0
 10
47.11656455111081
 20
1.100824691898526
 30
0.0
 10
47.1117705672921
 20
1.335184942048012
 30
0.0
 10
47.10648419615787
 20
1.569741898107297
 30
0.0
 10
47.10137367178245
 20
1.804245165096962
 30
0.0
 10
47.09673865376946
 20
2.038780643129261
 30
0.0
 10
47.09140877139151
 20
2.27327054669982
 30
0.0
 10
47.09072193696031
 20
2.50795635439968
 30
0.0
 10
47.10596901020021
 20
2.742035110000107
 30
0.0
 10
47.13113851182773
 20
2.975291767990851
 30
0.0
 10
47.15576561077094
 20
3.208581524431251
 30
0.0
 10
47.17999809097732
 20
3.44180444554645
 30
0.0
 10
47.21055753784437
 20
3.674811437325082
 30
0.0
 10
47.21688062217088
 20
3.908675454710889
 30
0.0
 10
47.20232756572362
 20
4.14316108458999
 30
0.0
 10
47.19178658186063
 20
4.377402299909646
 30
0.0
 10
47.18142409003616
 20
4.611784456659724
 30
0.0
 10
47.16931799065746
 20
4.845964675118837
 30
0.0
 10
47.15756798205959
 20
5.080512320442788
 30
0.0
 10
47.11922512946701
 20
5.312100872344999
 30
0.0
 10
47.0359283717541
 20
5.534912960303022
 30
0.0
 10
46.85571899410752
 20
5.701053020982688
 30
0.0
 10
46.60050923687197
 20
5.700046595423096
 30
0.0
 10
46.42182346185604
 20
5.532266007601516
 30
0.0
 10
46.33918823689487
 20
5.309372210240867
 30
0.0
 10
46.30134683870848
 20
5.077673675160892
 30
0.0
 10
46.28964256623397
 20
4.843140061617282
 30
0.0
 10
46.27761227107023
 20
4.608952622806954
 30
0.0
 10
46.26716701573098
 20
4.374572197465292
 30
0.0
 10
46.25675835555283
 20
4.140337130437424
 30
0.0
 10
46.24180910704085
 20
3.905822607503123
 30
0.0
 10
46.24963320544698
 20
3.67206586450394
 30
0.0
 10
46.27996491574051
 20
3.439049497872843
 30
0.0
 10
46.30361034015999
 20
3.205758678338231
 30
0.0
 10
46.32760723983579
 20
2.972405099167784
 30
0.0
 10
46.35298883646166
 20
2.739167888374083
 30
0.0
 10
46.36857489746896
 20
2.505129568181835
 30
0.0
 10
46.36755106590253
 20
2.270431807711549
 30
0.0
 10
46.36239815149668
 20
2.035943620623493
 30
0.0
 10
46.35765627813076
 20
1.801408320125761
 30
0.0
 10
46.35248381298965
 20
1.566909832637999
 30
0.0
 10
46.34714243364633
 20
1.332342661516703
 30
0.0
 10
46.3427165655617
 20
1.098016778736779
 30
0.0
 10
46.33572665149518
 20
0.8627750502036662
 30
0.0
 10
46.33741657037697
 20
0.6309690073439601
 30
0.0
 10
46.31710424743463
 20
0.4678802044313225
 30
0.0
 10
46.34657006801908
 20
0.4021512543515627
 30
0.0
  0
SPLINE
  5
D1
330
1F
100
AcDbEntity
  8
Make2D visible lines
100
AcDbSpline
210
0.0
220
0.0
230
1.0
 70
    12
 71
     2
 72
     6
 73
     3
 74
     0
 42
0.0000000001
 43
0.0000000001
 40
0.0
 40
0.0
 40
0.0
 40
0.2412324278936833
 40
0.2412324278936833
 40
0.2412324278936833
 10
59.95962030383291
 20
0.1521885802082181
 30
0.0
 41
1.0
 10
59.96333971261883
 20
-0.0000000000000105
 30
0.0
 41
0.7156927337036098
 10
60.11557373623876
 20
0.0000000000000034
 30
0.0
 41
1.0
  0
SPLINE
  5
D2
330
1F
100
AcDbEntity
  8
Make2D visible lines
100
AcDbSpline
210
0.0
220
0.0
230
1.0
 70
    24
 71
     2
 72
     6
 73
     3
 74
     0
 42
0.0000000001
 43
0.0000000001
 40
0.0
 40
0.0
 40
0.0
 40
0.2325105046476637
 40
0.2325105046476637
 40
0.2325105046476637
 10
33.49950763636549
 20
0.1521924194416825
 30
0.0
 10
33.50234800540145
 20
0.2684129683847045
 30
0.0
 10
33.50518837443741
 20
0.3846335173277264
 30
0.0
  0
SPLINE
  5
D3
330
1F
100
AcDbEntity
  8
Make2D visible lines
100
AcDbSpline
210
0.0
220
0.0
230
1.0
 70
    24
 71
     2
 72
     6
 73
     3
 74
     0
 42
0.0000000001
 43
0.0000000001
 40
0.0
 40
0.0
 40
0.0
 40
0.2213623405233084
 40
0.2213623405233084
 40
0.2213623405233084
 10
32.09276045020448
 20
0.3858503918134666
 30
0.0
 10
32.08648562613158
 20
0.2753472333366913
 30
0.0
 10
32.08021080205867
 20
0.164844074859916
 30
0.0
  0
SPLINE
  5
D4
330
1F
100
AcDbEntity
  8
Make2D visible lines
100
AcDbSpline
210
0.0
220
0.0
230
1.0
 70
     8
 71
     3
 72
    13
 73
     9
 74
     0
 42
0.0000000001
 43
0.0000000001
 40
-1.83258135608072
 40
-1.83258135608072
 40
-1.83258135608072
 40
-1.83258135608072
 40
-0.750510233115731
 40
-0.5672189493277444
 40
-0.4828690280123605
 40
-0.2443108918713642
 40
-0.1163337939371243
 40
0.0
 40
0.0
 40
0.0
 40
0.0
 10
33.5062791996355
 20
0.429267031622143
 30
0.0
 10
33.51422952279148
 20
0.7898405850234216
 30
0.0
 10
33.52705475660497
 20
1.211528658082631
 30
0.0
 10
33.53512797759613
 20
1.661268225296924
 30
0.0
 10
33.5461835964477
 20
1.830020096093349
 30
0.0
 10
33.62856737736206
 20
1.966768126584214
 30
0.0
 10
33.76094900561223
 20
2.057218183732865
 30
0.0
 10
33.84188499961162
 20
2.080693221901958
 30
0.0
 10
33.87956392318472
 20
2.086000769603414
 30
0.0
  0
SPLINE
  5
D5
330
1F
100
AcDbEntity
  8
Make2D visible lines
100
AcDbSpline
210
0.0
220
0.0
230
1.0
 70
    24
 71
     2
 72
     6
 73
     3
 74
     0
 42
0.0000000001
 43
0.0000000001
 40
-10.36850216633574
 40
-10.36850216633574
 40
-10.36850216633574
 40
0.0
 40
0.0
 40
0.0
 10
33.87956392318472
 20
2.086000769603414
 30
0.0
 10
39.01456392318472
 20
2.798906298637399
 30
0.0
 10
44.14956392318472
 20
3.511811827671384
 30
0.0
  0
SPLINE
  5
D6
330
1F
100
AcDbEntity
  8
Make2D visible lines
100
AcDbSpline
210
0.0
220
0.0
230
1.0
 70
    12
 71
     3
 72
     8
 73
     4
 74
     0
 42
0.0000000001
 43
0.0000000001
 40
0.0
 40
0.0
 40
0.0
 40
0.0
 40
0.9983344876344831
 40
0.9983344876344831
 40
0.9983344876344831
 40
0.9983344876344831
 10
44.14956392318472
 20
3.511811827671384
 30
0.0
 41
1.0
 10
44.60041521375568
 20
3.574404695741988
 30
0.0
 41
1.0
 10
45.05279798953192
 20
3.64333701932616
 30
0.0
 41
1.0
 10
45.50746072830154
 20
3.65726383948913
 30
0.0
 41
1.0
  0
SPLINE
  5
D7
330
1F
100
AcDbEntity
  8
Make2D visible lines
100
AcDbSpline
210
0.0
220
0.0
230
1.0
 70
     8
 71
     3
 72
     8
 73
     4
 74
     0
 42
0.0000000001
 43
0.0000000001
 40
0.0
 40
0.0
 40
0.0
 40
0.0
 40
0.3051876163662417
 40
0.3051876163662417
 40
0.3051876163662417
 40
0.3051876163662417
 10
45.50746072830154
 20
3.65726383948913
 30
0.0
 10
45.75599133593514
 20
3.664876605573444
 30
0.0
 10
46.00462866740325
 20
3.670166049722532
 30
0.0
 10
46.25330758112057
 20
3.673132171936395
 30
0.0
  0
SPLINE
  5
D8
330
1F
100
AcDbEntity
  8
Make2D visible lines
100
AcDbSpline
210
0.0
220
0.0
230
1.0
 70
    24
 71
     2
 72
     6
 73
     3
 74
     0
 42
0.0000000001
 43
0.0000000001
 40
0.0
 40
0.0
 40
0.0
 40
0.2517559204860955
 40
0.2517559204860955
 40
0.2517559204860955
 10
46.72956392568318
 20
0.0000000000000036
 30
0.0
 10
46.85544188592623
 20
0.0000000000000036
 30
0.0
 10
46.98131984616928
 20
0.0000000000000036
 30
0.0
  0
SPLINE
  5
D9
330
1F
100
AcDbEntity
  8
Make2D visible lines
100
AcDbSpline
210
0.0
220
0.0
230
1.0
 70
    12
 71
     2
 72
     6
 73
     3
 74
     0
 42
0.0000000001
 43
0.0000000001
 40
0.0
 40
0.0
 40
0.0
 40
0.0224671519842366
 40
0.0224671519842366
 40
0.0224671519842366
 10
32.09277625991494
 20
0.3860938211857499
 30
0.0
 41
1.0
 10
32.09379302505908
 20
0.4000000000000348
 30
0.0
 41
0.7324347794791691
 10
32.10773632526286
 20
0.4000000000000183
 30
0.0
 41
1.0
  0
SPLINE
  5
DA
330
1F
100
AcDbEntity
  8
Make2D visible lines
100
AcDbSpline
210
0.0
220
0.0
230
1.0
 70
    12
 71
     2
 72
     6
 73
     3
 74
     0
 42
0.0000000001
 43
0.0000000001
 40
-0.0352706514985427
 40
-0.0352706514985427
 40
-0.0352706514985427
 40
0.0
 40
0.0
 40
0.0
 10
33.48715544570612
 20
0.4020374895150737
 30
0.0
 41
1.0
 10
33.50579072173236
 20
0.4092798636229074
 30
0.0
 41
0.8321381552760684
 10
33.5062791996355
 20
0.429267031622143
 30
0.0
 41
1.0
  0
SPLINE
  5
DB
330
1F
100
AcDbEntity
  8
Make2D visible lines
100
AcDbSpline
210
0.0
220
0.0
230
1.0
 70
    24
 71
     2
 72
     6
 73
     3
 74
     0
 42
0.0000000001
 43
0.0000000001
 40
0.0
 40
0.0
 40
0.0
 40
1.379419120443295
 40
1.379419120443295
 40
1.379419120443295
 10
61.35139152110668
 20
0.4000000000000163
 30
0.0
 10
60.66168196088503
 20
0.4000000000000162
 30
0.0
 10
59.97197240066338
 20
0.4000000000000161
 30
0.0
  0
SPLINE
  5
DC
330
1F
100
AcDbEntity
  8
Make2D visible lines
100
AcDbSpline
210
0.0
220
0.0
230
1.0
 70
    12
 71
     2
 72
     6
 73
     3
 74
     0
 42
0.0000000001
 43
0.0000000001
 40
-0.0352706514985427
 40
-0.0352706514985427
 40
-0.0352706514985427
 40
0.0
 40
0.0
 40
0.0
 10
59.97197240066342
 20
0.4020374895150737
 30
0.0
 41
1.0
 10
59.95333712463719
 20
0.4092798636229074
 30
0.0
 41
0.8321381552760684
 10
59.95284864673404
 20
0.429267031622143
 30
0.0
 41
1.0
  0
SPLINE
  5
DD
330
1F
100
AcDbEntity
  8
Make2D visible lines
100
AcDbSpline
210
0.0
220
0.0
230
1.0
 70
    12
 71
     2
 72
     8
 73
     5
 74
     0
 42
0.0000000001
 43
0.0000000001
 40
0.0
 40
0.0
 40
0.0
 40
0.0119642320224294
 40
0.0119642320224294
 40
0.0239284640448587
 40
0.0239284640448587
 40
0.0239284640448587
 10
33.49019285209067
 20
0.4000000000000163
 30
0.0
 41
1.0
 10
33.49651368015767
 20
0.4000000000000209
 30
0.0
 41
0.9215246294676533
 10
33.50092824309624
 20
0.3954762292814858
 30
0.0
 41
1.0
 10
33.50534280603481
 20
0.3909524585629509
 30
0.0
 41
0.9215246294676533
 10
33.50518837443741
 20
0.3846335173277264
 30
0.0
 41
1.0
  0
SPLINE
  5
DE
330
1F
100
AcDbEntity
  8
Make2D visible lines
100
AcDbSpline
210
0.0
220
0.0
230
1.0
 70
    12
 71
     2
 72
     6
 73
     3
 74
     0
 42
0.0000000001
 43
0.0000000001
 40
-0.0371380794388858
 40
-0.0371380794388858
 40
-0.0371380794388858
 40
0.0
 40
0.0
 40
0.0
 10
61.34520750308351
 20
0.4022441987256987
 30
0.0
 41
1.0
 10
61.36497940820063
 20
0.4103542426935238
 30
0.0
 41
0.8144776561050845
 10
61.3637749361778
 20
0.4316908378358253
 30
0.0
 41
1.0
  0
SPLINE
  5
DF
330
1F
100
AcDbEntity
  8
Make2D visible lines
100
AcDbSpline
210
0.0
220
0.0
230
1.0
 70
     8
 71
     3
 72
    12
 73
     8
 74
     0
 42
0.0000000001
 43
0.0000000001
 40
0.0
 40
0.0
 40
0.0
 40
0.0
 40
2.024931116884056
 40
2.121300252943487
 40
2.208073208949396
 40
2.641991453438839
 40
3.085460819895622
 40
3.085460819895622
 40
3.085460819895622
 40
3.085460819895622
 10
61.3637749361778
 20
0.4316908378358253
 30
0.0
 10
61.32507106417739
 20
1.105574847750693
 30
0.0
 10
61.28676840451328
 20
1.811593362411049
 30
0.0
 10
61.24394643771697
 20
2.546414843142783
 30
0.0
 10
61.19911221888111
 20
2.747953191239763
 30
0.0
 10
61.03055354328615
 20
3.034556781920432
 30
0.0
 10
60.75988819677158
 20
3.175838551528641
 30
0.0
 10
60.61556392318472
 20
3.205665827232744
 30
0.0
  0
SPLINE
  5
E0
330
1F
100
AcDbEntity
  8
Make2D visible lines
100
AcDbSpline
210
0.0
220
0.0
230
1.0
 70
    24
 71
     2
 72
     6
 73
     3
 74
     0
 42
0.0000000001
 43
0.0000000001
 40
-12.2902709571203
 40
-12.2902709571203
 40
-12.2902709571203
 40
0.0
 40
0.0
 40
0.0
 10
60.61556392318472
 20
3.205665827232744
 30
0.0
 10
54.59756392318472
 20
4.449195501128249
 30
0.0
 10
48.57956392318471
 20
5.692725175023753
 30
0.0
  0
SPLINE
  5
E1
330
1F
100
AcDbEntity
  8
Make2D visible lines
100
AcDbSpline
210
0.0
220
0.0
230
1.0
 70
    12
 71
     3
 72
    11
 73
     7
 74
     0
 42
0.0000000001
 43
0.0000000001
 40
0.0
 40
0.0
 40
0.0
 40
0.0
 40
0.2500000000000077
 40
0.500000000000056
 40
0.7500000000001044
 40
0.9903549301730069
 40
0.9903549301730069
 40
0.9903549301730069
 40
0.9903549301730069
 10
48.57956392318471
 20
5.692725175023753
 30
0.0
 41
1.0
 10
48.50709618221258
 20
5.707699549616471
 30
0.0
 41
1.0
 10
48.36544872153485
 20
5.771964450750453
 30
0.0
 41
1.0
 10
48.18460066960995
 20
5.941965920377697
 30
0.0
 41
1.0
 10
48.05877405460789
 20
6.15347175039408
 30
0.0
 41
1.0
 10
48.02361623779971
 20
6.303120864095799
 30
0.0
 41
1.0
 10
48.0210710355046
 20
6.378712134379271
 30
0.0
 41
1.0
  0
SPLINE
  5
E2
330
1F
100
AcDbEntity
  8
Make2D visible lines
100
AcDbSpline
210
0.0
220
0.0
230
1.0
 70
    24
 71
     2
 72
     6
 73
     3
 74
     0
 42
0.0000000001
 43
0.0000000001
 40
0.0
 40
0.0
 40
0.0
 40
0.080013140622857
 40
0.080013140622857
 40
0.080013140622857
 10
48.0210710355046
 20
6.378712134379271
 30
0.0
 10
48.02031747934471
 20
6.420856067189643
 30
0.0
 10
48.01956392318482
 20
6.463000000000015
 30
0.0
  0
SPLINE
  5
E3
330
1F
100
AcDbEntity
  8
Make2D visible lines
100
AcDbSpline
210
0.0
220
0.0
230
1.0
 70
    24
 71
     2
 72
     6
 73
     3
 74
     0
 42
0.0000000001
 43
0.0000000001
 40
0.0
 40
0.0
 40
0.0
 40
1.290000000000045
 40
1.290000000000045
 40
1.290000000000045
 10
48.01956392318482
 20
6.463000000000015
 30
0.0
 10
47.37456392318479
 20
6.463000000000015
 30
0.0
 10
46.72956392318477
 20
6.463000000000015
 30
0.0
  0
SPLINE
  5
E4
330
1F
100
AcDbEntity
  8
Make2D visible lines
100
AcDbSpline
210
0.0
220
0.0
230
1.0
 70
    24
 71
     2
 72
     6
 73
     3
 74
     0
 42
0.0000000001
 43
0.0000000001
 40
0.0
 40
0.0
 40
0.0
 40
1.289412297652113
 40
1.289412297652113
 40
1.289412297652113
 10
46.72956392318477
 20
6.463000000000015
 30
0.0
 10
46.08471084877173
 20
6.463000000000015
 30
0.0
 10
45.43985777435869
 20
6.463000000000015
 30
0.0
  0
SPLINE
  5
E5
330
1F
100
AcDbEntity
  8
Make2D visible lines
100
AcDbSpline
210
0.0
220
0.0
230
1.0
 70
    24
 71
     2
 72
     6
 73
     3
 74
     0
 42
0.0000000001
 43
0.0000000001
 40
-0.080013140622857
 40
-0.080013140622857
 40
-0.080013140622857
 40
0.0
 40
0.0
 40
0.0
 10
45.43985777435869
 20
6.463000000000015
 30
0.0
 10
45.43895729261181
 20
6.420856067189643
 30
0.0
 10
45.43805681086494
 20
6.378712134379271
 30
0.0
  0
SPLINE
  5
E6
330
1F
100
AcDbEntity
  8
Make2D visible lines
100
AcDbSpline
210
0.0
220
0.0
230
1.0
 70
    12
 71
     3
 72
    11
 73
     7
 74
     0
 42
0.0000000001
 43
0.0000000001
 40
-0.9903549301730069
 40
-0.9903549301730069
 40
-0.9903549301730069
 40
-0.9903549301730069
 40
-0.7500000000001044
 40
-0.500000000000056
 40
-0.2500000000000077
 40
0.0
 40
0.0
 40
0.0
 40
0.0
 10
45.43805681086494
 20
6.378712134379271
 30
0.0
 41
1.0
 10
45.43551160856983
 20
6.303120864095799
 30
0.0
 41
1.0
 10
45.40035379176165
 20
6.15347175039408
 30
0.0
 41
1.0
 10
45.27452717675959
 20
5.941965920377697
 30
0.0
 41
1.0
 10
45.09367912483469
 20
5.771964450750453
 30
0.0
 41
1.0
 10
44.95203166415696
 20
5.707699549616471
 30
0.0
 41
1.0
 10
44.87956392318483
 20
5.692725175023753
 30
0.0
 41
1.0
  0
SPLINE
  5
E7
330
1F
100
AcDbEntity
  8
Make2D visible lines
100
AcDbSpline
210
0.0
220
0.0
230
1.0
 70
    24
 71
     2
 72
     6
 73
     3
 74
     0
 42
0.0000000001
 43
0.0000000001
 40
0.0
 40
0.0
 40
0.0
 40
12.2902709571203
 40
12.2902709571203
 40
12.2902709571203
 10
44.87956392318483
 20
5.692725175023753
 30
0.0
 10
38.86156392318482
 20
4.449195501128249
 30
0.0
 10
32.84356392318482
 20
3.205665827232744
 30
0.0
  0
SPLINE
  5
E8
330
1F
100
AcDbEntity
  8
Make2D visible lines
100
AcDbSpline
210
0.0
220
0.0
230
1.0
 70
     8
 71
     3
 72
    12
 73
     8
 74
     0
 42
0.0000000001
 43
0.0000000001
 40
-3.085460819895622
 40
-3.085460819895622
 40
-3.085460819895622
 40
-3.085460819895622
 40
-2.641991453438839
 40
-2.208073208949396
 40
-2.121300252943487
 40
-2.024931116884056
 40
0.0
 40
0.0
 40
0.0
 40
0.0
 10
32.84356392318482
 20
3.205665827232744
 30
0.0
 10
32.69923964959796
 20
3.175838551528641
 30
0.0
 10
32.42857430308339
 20
3.034556781920432
 30
0.0
 10
32.26001562748843
 20
2.747953191239763
 30
0.0
 10
32.21518140865257
 20
2.546414843142783
 30
0.0
 10
32.17235944185626
 20
1.811593362411049
 30
0.0
 10
32.13405678219215
 20
1.105574847750693
 30
0.0
 10
32.09535291019174
 20
0.4316908378358253
 30
0.0
  0
SPLINE
  5
E9
330
1F
100
AcDbEntity
  8
Make2D visible lines
100
AcDbSpline
210
0.0
220
0.0
230
1.0
 70
    12
 71
     2
 72
     6
 73
     3
 74
     0
 42
0.0000000001
 43
0.0000000001
 40
0.0
 40
0.0
 40
0.0
 40
0.0371380794388858
 40
0.0371380794388858
 40
0.0371380794388858
 10
32.09535291019174
 20
0.4316908378358253
 30
0.0
 41
1.0
 10
32.09414843816892
 20
0.4103542426935238
 30
0.0
 41
0.8144776561050845
 10
32.11392034328603
 20
0.4022441987256987
 30
0.0
 41
1.0
  0
SPLINE
  5
EA
330
1F
100
AcDbEntity
  8
Make2D visible lines
100
AcDbSpline
210
0.0
220
0.0
230
1.0
 70
     8
 71
     3
 72
     8
 73
     4
 74
     0
 42
0.0000000001
 43
0.0000000001
 40
0.6950384688492743
 40
0.6950384688492743
 40
0.6950384688492743
 40
0.6950384688492743
 40
1.0
 40
1.0
 40
1.0
 40
1.0
 10
47.20637293464793
 20
3.673125576136301
 30
0.0
 10
47.45486756361048
 20
3.670158211529776
 30
0.0
 10
47.70332062372398
 20
3.664870965980719
 30
0.0
 10
47.951667118068
 20
3.65726383948913
 30
0.0
  0
SPLINE
  5
EB
330
1F
100
AcDbEntity
  8
Make2D visible lines
100
AcDbSpline
210
0.0
220
0.0
230
1.0
 70
    12
 71
     3
 72
     8
 73
     4
 74
     0
 42
0.0000000001
 43
0.0000000001
 40
-0.9983344876344831
 40
-0.9983344876344831
 40
-0.9983344876344831
 40
-0.9983344876344831
 40
0.0
 40
0.0
 40
0.0
 40
0.0
 10
47.951667118068
 20
3.65726383948913
 30
0.0
 41
1.0
 10
48.40632985683762
 20
3.64333701932616
 30
0.0
 41
1.0
 10
48.85871263261386
 20
3.574404695741988
 30
0.0
 41
1.0
 10
49.30956392318483
 20
3.511811827671384
 30
0.0
 41
1.0
  0
SPLINE
  5
EC
330
1F
100
AcDbEntity
  8
Make2D visible lines
100
AcDbSpline
210
0.0
220
0.0
230
1.0
 70
    24
 71
     2
 72
     6
 73
     3
 74
     0
 42
0.0000000001
 43
0.0000000001
 40
0.0
 40
0.0
 40
0.0
 40
10.36850216633574
 40
10.36850216633574
 40
10.36850216633574
 10
49.30956392318483
 20
3.511811827671384
 30
0.0
 10
54.44456392318482
 20
2.798906298637399
 30
0.0
 10
59.57956392318482
 20
2.086000769603414
 30
0.0
  0
SPLINE
  5
ED
330
1F
100
AcDbEntity
  8
Make2D visible lines
100
AcDbSpline
210
0.0
220
0.0
230
1.0
 70
     8
 71
     3
 72
    13
 73
     9
 74
     0
 42
0.0000000001
 43
0.0000000001
 40
0.0
 40
0.0
 40
0.0
 40
0.0
 40
0.1163337939371243
 40
0.2443108918713642
 40
0.4828690280123605
 40
0.5672189493277444
 40
0.750510233115731
 40
1.83258135608072
 40
1.83258135608072
 40
1.83258135608072
 40
1.83258135608072
 10
59.57956392318482
 20
2.086000769603414
 30
0.0
 10
59.61724284675792
 20
2.080693221901958
 30
0.0
 10
59.69817884075731
 20
2.057218183732865
 30
0.0
 10
59.83056046900748
 20
1.966768126584214
 30
0.0
 10
59.91294424992184
 20
1.830020096093349
 30
0.0
 10
59.92399986877341
 20
1.661268225296924
 30
0.0
 10
59.93207308976457
 20
1.211528658082631
 30
0.0
 10
59.94489832357806
 20
0.7898405850234216
 30
0.0
 10
59.95284864673404
 20
0.429267031622143
 30
0.0
  0
SPLINE
  5
EE
330
1F
100
AcDbEntity
  8
Make2D visible lines
100
AcDbSpline
210
0.0
220
0.0
230
1.0
 70
    12
 71
     2
 72
     8
 73
     5
 74
     0
 42
0.0000000001
 43
0.0000000001
 40
0.0
 40
0.0
 40
0.0
 40
0.1269465231438366
 40
0.1269465231438366
 40
0.2538930462876731
 40
0.2538930462876731
 40
0.2538930462876731
 10
32.23595990266568
 20
0.0000000000000036
 30
0.0
 41
1.0
 10
32.16873533833031
 20
0.000000000000002
 30
0.0
 41
0.918360064844369
 10
32.12256749622205
 20
0.0488638148853193
 30
0.0
 41
1.0
 10
32.07639965411378
 20
0.0977276297706366
 30
0.0
 41
0.918360064844369
 10
32.08021080205867
 20
0.1648440748599159
 30
0.0
 41
1.0
  0
SPLINE
  5
EF
330
1F
100
AcDbEntity
  8
Make2D visible lines
100
AcDbSpline
210
0.0
220
0.0
230
1.0
 70
    24
 71
     2
 72
     6
 73
     3
 74
     0
 42
0.0000000001
 43
0.0000000001
 40
0.0
 40
0.0
 40
0.0
 40
1.107594207465098
 40
1.107594207465098
 40
1.107594207465098
 10
33.34355411013077
 20
0.0000000000000036
 30
0.0
 10
32.78975700639822
 20
0.0000000000000036
 30
0.0
 10
32.23595990266567
 20
0.0000000000000036
 30
0.0
  0
SPLINE
  5
F0
330
1F
100
AcDbEntity
  8
Make2D visible lines
100
AcDbSpline
210
0.0
220
0.0
230
1.0
 70
    24
 71
     2
 72
     6
 73
     3
 74
     0
 42
0.0000000001
 43
0.0000000001
 40
0.0
 40
0.0
 40
0.0
 40
0.0480073117461094
 40
0.0480073117461094
 40
0.0480073117461094
 10
47.9297879540995
 20
6.507000000000014
 30
0.0
 10
47.93020687565777
 20
6.483000000000013
 30
0.0
 10
47.93062579721605
 20
6.459000000000012
 30
0.0
  0
SPLINE
  5
F1
330
1F
100
AcDbEntity
  8
Default
100
AcDbSpline
210
0.0
220
0.0
230
1.0
 70
    12
 71
     2
 72
     6
 73
     3
 74
     0
 42
0.0000000001
 43
0.0000000001
 40
0.0
 40
0.0
 40
0.0
 40
1.583110905188138
 40
1.583110905188138
 40
1.583110905188138
 10
-10.41277801465863
 20
19.30108279651843
 30
0.0
 41
1.0
 10
-10.76221052831808
 20
18.59013401748454
 30
0.0
 41
0.9988153325166107
 10
-11.04087862523597
 20
17.84858473404325
 30
0.0
 41
1.0
  0
SPLINE
  5
F2
330
1F
100
AcDbEntity
  8
Default
100
AcDbSpline
210
0.0
220
0.0
230
1.0
 70
     8
 71
     3
 72
    12
 73
     8
 74
     0
 42
0.0000000001
 43
0.0000000001
 40
0.0
 40
0.0
 40
0.0
 40
0.0
 40
0.4529530672337769
 40
0.8989806355331963
 40
1.574670328680222
 40
2.014302469462591
 40
2.291222462139759
 40
2.291222462139759
 40
2.291222462139759
 40
2.291222462139759
 10
-11.04087862523597
 20
17.84858473404325
 30
0.0
 10
-11.09384621473467
 20
17.70699586823318
 30
0.0
 10
-11.19386053312597
 20
17.42502515788379
 30
0.0
 10
-11.35199695100016
 20
16.92359214071264
 30
0.0
 10
-11.47788749242265
 20
16.41922529788491
 30
0.0
 10
-11.52709756576974
 20
15.95387562182036
 30
0.0
 10
-11.45119995933915
 20
15.71827116012491
 30
0.0
 10
-11.37792791927435
 20
15.65642312652146
 30
0.0
  0
SPLINE
  5
F3
330
1F
100
AcDbEntity
  8
Default
100
AcDbSpline
210
0.0
220
0.0
230
1.0
 70
     8
 71
     3
 72
    14
 73
    10
 74
     0
 42
0.0000000001
 43
0.0000000001
 40
-7.0
 40
-7.0
 40
-7.0
 40
-7.0
 40
-6.0
 40
-5.0
 40
-4.0
 40
-3.0
 40
-2.0
 40
-1.0
 40
0.0
 40
0.0
 40
0.0
 40
0.0
 10
-11.37792791927435
 20
15.65642312652146
 30
0.0
 10
-11.22588198079126
 20
15.52987534056096
 30
0.0
 10
-10.84517691873138
 20
15.41868443594368
 30
0.0
 10
-10.26737070841726
 20
15.33890457752673
 30
0.0
 10
-9.682730642033784
 20
15.30964787814862
 30
0.0
 10
-9.098288857125747
 20
15.30554534762872
 30
0.0
 10
-8.513841950257692
 20
15.31865038346492
 30
0.0
 10
-7.92944883466665
 20
15.33054542513951
 30
0.0
 10
-7.539783737372597
 20
15.33540511369714
 30
0.0
 10
-7.344951142437504
 20
15.33735049151921
 30
0.0
  0
SPLINE
  5
F4
330
1F
100
AcDbEntity
  8
Default
100
AcDbSpline
210
0.0
220
0.0
230
1.0
 70
    12
 71
     2
 72
     6
 73
     3
 74
     0
 42
0.0000000001
 43
0.0000000001
 40
0.0
 40
0.0
 40
0.0
 40
1.583110905188138
 40
1.583110905188138
 40
1.583110905188138
 10
10.41277801465863
 20
19.30108279651843
 30
0.0
 41
1.0
 10
10.76221052831808
 20
18.59013401748454
 30
0.0
 41
0.9988153325166107
 10
11.04087862523597
 20
17.84858473404325
 30
0.0
 41
1.0
  0
SPLINE
  5
F5
330
1F
100
AcDbEntity
  8
Default
100
AcDbSpline
210
0.0
220
0.0
230
1.0
 70
     8
 71
     3
 72
    12
 73
     8
 74
     0
 42
0.0000000001
 43
0.0000000001
 40
0.0
 40
0.0
 40
0.0
 40
0.0
 40
0.4529530672337769
 40
0.8989806355331963
 40
1.574670328680222
 40
2.014302469462591
 40
2.291222462139759
 40
2.291222462139759
 40
2.291222462139759
 40
2.291222462139759
 10
11.04087862523597
 20
17.84858473404325
 30
0.0
 10
11.09384621473467
 20
17.70699586823318
 30
0.0
 10
11.19386053312597
 20
17.42502515788379
 30
0.0
 10
11.35199695100016
 20
16.92359214071264
 30
0.0
 10
11.47788749242265
 20
16.41922529788491
 30
0.0
 10
11.52709756576974
 20
15.95387562182036
 30
0.0
 10
11.45119995933915
 20
15.71827116012491
 30
0.0
 10
11.37792791927435
 20
15.65642312652146
 30
0.0
  0
SPLINE
  5
F6
330
1F
100
AcDbEntity
  8
Default
100
AcDbSpline
210
0.0
220
0.0
230
1.0
 70
     8
 71
     3
 72
    14
 73
    10
 74
     0
 42
0.0000000001
 43
0.0000000001
 40
-7.0
 40
-7.0
 40
-7.0
 40
-7.0
 40
-6.0
 40
-5.0
 40
-4.0
 40
-3.0
 40
-2.0
 40
-1.0
 40
0.0
 40
0.0
 40
0.0
 40
0.0
 10
11.37792791927435
 20
15.65642312652146
 30
0.0
 10
11.22588198079126
 20
15.52987534056096
 30
0.0
 10
10.84517691873138
 20
15.41868443594368
 30
0.0
 10
10.26737070841726
 20
15.33890457752673
 30
0.0
 10
9.682730642033784
 20
15.30964787814862
 30
0.0
 10
9.098288857125747
 20
15.30554534762872
 30
0.0
 10
8.513841950257692
 20
15.31865038346492
 30
0.0
 10
7.92944883466665
 20
15.33054542513951
 30
0.0
 10
7.539783737372597
 20
15.33540511369714
 30
0.0
 10
7.344951142437504
 20
15.33735049151921
 30
0.0
  0
SPLINE
  5
F7
330
1F
100
AcDbEntity
  8
Default
100
AcDbSpline
210
0.0
220
0.0
230
1.0
 70
     8
 71
     3
 72
    14
 73
    10
 74
     0
 42
0.0000000001
 43
0.0000000001
 40
0.0
 40
0.0
 40
0.0
 40
0.0
 40
0.7751197434126851
 40
1.699404317797073
 40
5.441373487204848
 40
7.276929656206133
 40
9.1912374263063
 40
12.91240060869158
 40
14.63159141267424
 40
14.63159141267424
 40
14.63159141267424
 40
14.63159141267424
 10
-7.314767038716764
 20
15.33546115966989
 30
0.0
 10
-7.056452585090113
 20
15.34048042880016
 30
0.0
 10
-6.489984429317805
 20
15.34765568821292
 30
0.0
 10
-4.676182271147655
 20
15.33239090164733
 30
0.0
 10
-2.509898151041316
 20
15.31009880680935
 30
0.0
 10
-0.0126383240748034
 20
15.28590854306368
 30
0.0
 10
2.477703162479687
 20
15.31008620458711
 30
0.0
 10
4.928151105144414
 20
15.34065729774111
 30
0.0
 10
6.74175292663549
 20
15.34892507499256
 30
0.0
 10
7.314732379838334
 20
15.33546023427492
 30
0.0
  0
SPLINE
  5
F8
330
1F
100
AcDbEntity
  8
Default
100
AcDbSpline
210
0.0
220
0.0
230
1.0
 70
    24
 71
     2
 72
     6
 73
     3
 74
     0
 42
0.0000000001
 43
0.0000000001
 40
0.0
 40
0.0
 40
0.0
 40
0.3709331610280567
 40
0.3709331610280567
 40
0.3709331610280567
 10
9.624992430832208
 20
15.31229004448184
 30
0.0
 10
9.624952259960521
 20
15.50029513009636
 30
0.0
 10
9.624912089088834
 20
15.68830021571089
 30
0.0
  0
SPLINE
  5
F9
330
1F
100
AcDbEntity
  8
Default
100
AcDbSpline
210
0.0
220
0.0
230
1.0
 70
     8
 71
     3
 72
    12
 73
     8
 74
     0
 42
0.0000000001
 43
0.0000000001
 40
0.0
 40
0.0
 40
0.0
 40
0.0
 40
0.1195530801918726
 40
0.2452458973806048
 40
0.5491896479788391
 40
1.036657499911663
 40
1.758696564887424
 40
1.758696564887424
 40
1.758696564887424
 40
1.758696564887424
 10
9.624912089088834
 20
15.68830021571089
 30
0.0
 10
9.623146479844486
 20
15.7335445326853
 30
0.0
 10
9.606766045556464
 20
15.81381469932327
 30
0.0
 10
9.503805018400927
 20
15.97176777476685
 30
0.0
 10
9.2318493406793
 20
16.12304728269217
 30
0.0
 10
8.74525585508102
 20
16.25709333285431
 30
0.0
 10
8.347935012153089
 20
16.32958037238544
 30
0.0
 10
8.110143422735884
 20
16.36570513442878
 30
0.0
  0
SPLINE
  5
FA
330
1F
100
AcDbEntity
  8
Default
100
AcDbSpline
210
0.0
220
0.0
230
1.0
 70
    12
 71
     3
 72
    12
 73
     8
 74
     0
 42
0.0000000001
 43
0.0000000001
 40
0.3359610780357872
 40
0.3359610780357872
 40
0.3359610780357872
 40
0.3359610780357872
 40
0.4999999989962435
 40
0.4999999989962435
 40
0.74999999982478
 40
0.74999999982478
 40
1.0
 40
1.0
 40
1.0
 40
1.0
 10
8.110143422735884
 20
16.36570513442878
 30
0.0
 41
1.0
 10
7.695923563261617
 20
16.42973064857848
 30
0.0
 41
1.0
 10
7.192477162061444
 20
16.48874066650743
 30
0.0
 41
1.0
 10
5.739409628439899
 20
16.61999125754825
 30
0.0
 41
1.0
 10
4.69561260935621
 20
16.68289950217841
 30
0.0
 41
1.0
 10
2.434116903581726
 20
16.76762106004342
 30
0.0
 41
1.0
 10
1.216462043473545
 20
16.78951082896359
 30
0.0
 41
1.0
 10
-0.0000000058993148
 20
16.78950915704606
 30
0.0
 41
1.0
  0
SPLINE
  5
FB
330
1F
100
AcDbEntity
  8
Default
100
AcDbSpline
210
0.0
220
0.0
230
1.0
 70
    12
 71
     3
 72
    12
 73
     8
 74
     0
 42
0.0000000001
 43
0.0000000001
 40
-1.0
 40
-1.0
 40
-1.0
 40
-1.0
 40
-0.74999999982478
 40
-0.74999999982478
 40
-0.4999999989962435
 40
-0.4999999989962435
 40
-0.3359610780357872
 40
-0.3359610780357872
 40
-0.3359610780357872
 40
-0.3359610780357872
 10
-0.0000000058993148
 20
16.78950915704606
 30
0.0
 41
1.0
 10
-1.216462055272174
 20
16.78951082896359
 30
0.0
 41
1.0
 10
-2.434116915380356
 20
16.76762106004342
 30
0.0
 41
1.0
 10
-4.69561262115484
 20
16.68289950217841
 30
0.0
 41
1.0
 10
-5.739409640238529
 20
16.61999125754825
 30
0.0
 41
1.0
 10
-7.192477173860073
 20
16.48874066650743
 30
0.0
 41
1.0
 10
-7.695923575060247
 20
16.42973064857848
 30
0.0
 41
1.0
 10
-8.110143434534514
 20
16.36570513442878
 30
0.0
 41
1.0
  0
SPLINE
  5
FC
330
1F
100
AcDbEntity
  8
Default
100
AcDbSpline
210
0.0
220
0.0
230
1.0
 70
     8
 71
     3
 72
    12
 73
     8
 74
     0
 42
0.0000000001
 43
0.0000000001
 40
-1.758696564887424
 40
-1.758696564887424
 40
-1.758696564887424
 40
-1.758696564887424
 40
-1.036657499911663
 40
-0.5491896479788391
 40
-0.2452458973806048
 40
-0.1195530801918726
 40
0.0
 40
0.0
 40
0.0
 40
0.0
 10
-8.110143434534514
 20
16.36570513442878
 30
0.0
 10
-8.347935023951718
 20
16.32958037238544
 30
0.0
 10
-8.74525586687965
 20
16.25709333285431
 30
0.0
 10
-9.23184935247793
 20
16.12304728269217
 30
0.0
 10
-9.503805030199556
 20
15.97176777476685
 30
0.0
 10
-9.606766057355093
 20
15.81381469932327
 30
0.0
 10
-9.623146491643116
 20
15.7335445326853
 30
0.0
 10
-9.624912094988149
 20
15.68830021571089
 30
0.0
  0
SPLINE
  5
FD
330
1F
100
AcDbEntity
  8
Default
100
AcDbSpline
210
0.0
220
0.0
230
1.0
 70
    24
 71
     2
 72
     6
 73
     3
 74
     0
 42
0.0000000001
 43
0.0000000001
 40
-0.3709331610280567
 40
-0.3709331610280567
 40
-0.3709331610280567
 40
0.0
 40
0.0
 40
0.0
 10
-9.624912094988149
 20
15.68830021571089
 30
0.0
 10
-9.624952262910178
 20
15.50029513009636
 30
0.0
 10
-9.624992430832208
 20
15.31229004448184
 30
0.0
  0
SPLINE
  5
FE
330
1F
100
AcDbEntity
  8
Default
100
AcDbSpline
210
0.0
220
0.0
230
1.0
 70
     8
 71
     3
 72
    22
 73
    18
 74
     0
 42
0.0000000001
 43
0.0000000001
 40
0.0
 40
0.0
 40
0.0
 40
0.0
 40
0.2588469591229587
 40
0.6477254461891114
 40
1.024641027840087
 40
1.817983982162573
 40
2.582167143679938
 40
4.062052734317923
 40
7.850412104674001
 40
9.497260537102543
 40
10.543391206404
 40
10.8432833113025
 40
12.15829953678302
 40
13.34949093133962
 40
14.77372714428499
 40
17.25709974516987
 40
21.82793658798906
 40
21.82793658798906
 40
21.82793658798906
 40
21.82793658798906
 10
7.738659199868893
 20
75.30724134218735
 30
0.0
 10
7.730654935753735
 20
75.22071445266917
 30
0.0
 10
7.769388367956912
 20
75.00625752397693
 30
0.0
 10
7.893901614861781
 20
74.68771445023339
 30
0.0
 10
8.118215525380583
 20
74.21871483137085
 30
0.0
 10
8.426194354485643
 20
73.65200678633235
 30
0.0
 10
8.869622299866835
 20
72.74160926455258
 30
0.0
 10
9.720950479180184
 20
70.91983374452161
 30
0.0
 10
10.59999034327063
 20
68.787855672846
 30
0.0
 10
11.3798240682458
 20
66.77346418669944
 30
0.0
 10
11.72994354373517
 20
65.83923061899009
 30
0.0
 10
12.03133390033754
 20
65.00448494437762
 30
0.0
 10
12.2098488699847
 20
64.0810683768623
 30
0.0
 10
12.27869577924425
 20
62.77256905597223
 30
0.0
 10
12.26057782717807
 20
61.07133173754643
 30
0.0
 10
11.9010282115835
 20
58.26015086031266
 30
0.0
 10
11.00730110771213
 20
56.0431252033247
 30
0.0
 10
10.14114177719024
 20
54.78548061505367
 30
0.0
  0
SPLINE
  5
FF
330
1F
100
AcDbEntity
  8
Default
100
AcDbSpline
210
0.0
220
0.0
230
1.0
 70
     8
 71
     3
 72
    19
 73
    15
 74
     0
 42
0.0000000001
 43
0.0000000001
 40
-12.0
 40
-12.0
 40
-12.0
 40
-12.0
 40
-11.0
 40
-10.0
 40
-9.0
 40
-8.0
 40
-7.0
 40
-6.0
 40
-5.0
 40
-4.0
 40
-3.0
 40
-2.0
 40
-1.0
 40
0.0
 40
0.0
 40
0.0
 40
0.0
 10
8.787212794970875
 20
77.02913709182477
 30
0.0
 10
8.661423392592999
 20
77.24030717803984
 30
0.0
 10
8.156632669625584
 20
77.40044744311874
 30
0.0
 10
7.44342747221523
 20
77.58101769089276
 30
0.0
 10
6.703866481803591
 20
77.71509490624851
 30
0.0
 10
5.966831429895541
 20
77.83674625307631
 30
0.0
 10
5.225192795538652
 20
77.93628424633613
 30
0.0
 10
4.481798839904276
 20
78.01838071999163
 30
0.0
 10
3.736652124927149
 20
78.08373160567217
 30
0.0
 10
2.990375136963245
 20
78.13404136857866
 30
0.0
 10
2.243300882576001
 20
78.17068085728641
 30
0.0
 10
1.495734056177262
 20
78.19506735974093
 30
0.0
 10
0.7478972065141117
 20
78.20861060214389
 30
0.0
 10
0.2492675112202976
 20
78.21135086795181
 30
0.0
 10
-0.0000463296653752
 20
78.21138305429804
 30
0.0
  0
SPLINE
  5
100
330
1F
100
AcDbEntity
  8
Default
100
AcDbSpline
210
0.0
220
0.0
230
1.0
 70
     8
 71
     3
 72
    19
 73
    15
 74
     0
 42
0.0000000001
 43
0.0000000001
 40
0.0
 40
0.0
 40
0.0
 40
0.0
 40
1.0
 40
2.0
 40
3.0
 40
4.0
 40
5.0
 40
6.0
 40
7.0
 40
8.0
 40
9.0
 40
10.0
 40
11.0
 40
12.0
 40
12.0
 40
12.0
 40
12.0
 10
-0.0000463296653752
 20
78.21138305429804
 30
0.0
 10
-0.249360170551048
 20
78.21135086795181
 30
0.0
 10
-0.7479898658448622
 20
78.20861060214389
 30
0.0
 10
-1.495826715508013
 20
78.19506735974093
 30
0.0
 10
-2.243393541906751
 20
78.17068085728641
 30
0.0
 10
-2.990467796293995
 20
78.13404136857866
 30
0.0
 10
-3.7367447842579
 20
78.08373160567217
 30
0.0
 10
-4.481891499235027
 20
78.01838071999163
 30
0.0
 10
-5.225285454869402
 20
77.93628424633613
 30
0.0
 10
-5.966924089226292
 20
77.83674625307631
 30
0.0
 10
-6.703959141134342
 20
77.71509490624851
 30
0.0
 10
-7.443520131545981
 20
77.58101769089276
 30
0.0
 10
-8.156725328956334
 20
77.40044744311874
 30
0.0
 10
-8.66151605192375
 20
77.24030717803984
 30
0.0
 10
-8.787305454301626
 20
77.02913709182477
 30
0.0
  0
SPLINE
  5
101
330
1F
100
AcDbEntity
  8
Default
100
AcDbSpline
210
0.0
220
0.0
230
1.0
 70
    12
 71
     2
 72
     6
 73
     3
 74
     0
 42
0.0000000001
 43
0.0000000001
 40
-0.443505275079806
 40
-0.443505275079806
 40
-0.443505275079806
 40
0.0
 40
0.0
 40
0.0
 10
-8.58289444102971
 20
76.63876172583042
 30
0.0
 41
1.0
 10
-8.724724101751866
 20
76.81313270015059
 30
0.0
 41
0.9799943751373794
 10
-8.788719671857905
 20
77.034632973036
 30
0.0
 41
1.0
  0
SPLINE
  5
102
330
1F
100
AcDbEntity
  8
Default
100
AcDbSpline
210
0.0
220
0.0
230
1.0
 70
     8
 71
     3
 72
    12
 73
     8
 74
     0
 42
0.0000000001
 43
0.0000000001
 40
-3.111933853859594
 40
-3.111933853859594
 40
-3.111933853859594
 40
-3.111933853859594
 40
-2.689379093202719
 40
-2.191051374651839
 40
-1.391396900347014
 40
-0.849548742313125
 40
0.0
 40
0.0
 40
0.0
 40
0.0
 10
-8.788719671857905
 20
77.034632973036
 30
0.0
 10
-8.832470502994822
 20
77.17309484024835
 30
0.0
 10
-8.756768352961396
 20
77.51158367700583
 30
0.0
 10
-8.251291638064432
 20
77.81642879001697
 30
0.0
 10
-7.660728971798855
 20
77.97600465859887
 30
0.0
 10
-6.943864453578451
 20
78.12742033918826
 30
0.0
 10
-6.487447063648461
 20
78.19737822996572
 30
0.0
 10
-6.207674945197605
 20
78.2474578730924
 30
0.0
  0
SPLINE
  5
103
330
1F
100
AcDbEntity
  8
Default
100
AcDbSpline
210
0.0
220
0.0
230
1.0
 70
    12
 71
     2
 72
     6
 73
     3
 74
     0
 42
0.0000000001
 43
0.0000000001
 40
0.0
 40
0.0
 40
0.0
 40
6.233889429224448
 40
6.233889429224448
 40
6.233889429224448
 10
-6.207674945197605
 20
78.24745787309242
 30
0.0
 41
0.9999999519924593
 10
-3.123795064056297
 20
78.74487205588783
 30
0.0
 41
0.9967303545933507
 10
-0.0000463296653752
 20
78.73906955458602
 30
0.0
 41
1.0
  0
SPLINE
  5
104
330
1F
100
AcDbEntity
  8
Default
100
AcDbSpline
210
0.0
220
0.0
230
1.0
 70
    12
 71
     2
 72
     6
 73
     3
 74
     0
 42
0.0000000001
 43
0.0000000001
 40
-6.233889429224448
 40
-6.233889429224448
 40
-6.233889429224448
 40
0.0
 40
0.0
 40
0.0
 10
-0.0000463296653752
 20
78.73906955458602
 30
0.0
 41
1.0
 10
3.123725412685062
 20
78.74487209862636
 30
0.0
 41
0.9967303305894041
 10
6.207628615532215
 20
78.2474578730924
 30
0.0
 41
1.0
  0
SPLINE
  5
105
330
1F
100
AcDbEntity
  8
Default
100
AcDbSpline
210
0.0
220
0.0
230
1.0
 70
     8
 71
     3
 72
    12
 73
     8
 74
     0
 42
0.0000000001
 43
0.0000000001
 40
0.0
 40
0.0
 40
0.0
 40
0.0
 40
0.8495817757806479
 40
1.391422022197969
 40
2.191064820612614
 40
2.689385262996222
 40
3.111933853859594
 40
3.111933853859594
 40
3.111933853859594
 40
3.111933853859594
 10
6.207628615532215
 20
78.2474578730924
 30
0.0
 10
6.487417253406964
 20
78.197382799136
 30
0.0
 10
6.9438495870744
 20
78.12742347928204
 30
0.0
 10
7.660728971798827
 20
77.97600465859887
 30
0.0
 10
8.251291638064403
 20
77.81642879001697
 30
0.0
 10
8.756768352961368
 20
77.51158367700583
 30
0.0
 10
8.832470502994793
 20
77.17309484024835
 30
0.0
 10
8.788719671857876
 20
77.034632973036
 30
0.0
  0
SPLINE
  5
106
330
1F
100
AcDbEntity
  8
Default
100
AcDbSpline
210
0.0
220
0.0
230
1.0
 70
    12
 71
     2
 72
     6
 73
     3
 74
     0
 42
0.0000000001
 43
0.0000000001
 40
0.0
 40
0.0
 40
0.0
 40
0.443505275079806
 40
0.443505275079806
 40
0.443505275079806
 10
8.788719671857876
 20
77.034632973036
 30
0.0
 41
1.0
 10
8.724724101751837
 20
76.81313270015059
 30
0.0
 41
0.9799943751373794
 10
8.582894441029682
 20
76.63876172583042
 30
0.0
 41
1.0
  0
SPLINE
  5
107
330
1F
100
AcDbEntity
  8
Default
100
AcDbSpline
210
0.0
220
0.0
230
1.0
 70
    12
 71
     2
 72
     6
 73
     3
 74
     0
 42
0.0000000001
 43
0.0000000001
 40
-5.654573080352873
 40
-5.654573080352873
 40
-5.654573080352873
 40
0.0
 40
0.0
 40
0.0
 10
5.629202549667243
 20
78.3406909450971
 30
0.0
 41
1.0
 10
2.833364854538125
 20
78.80050723650672
 30
0.0
 41
0.9967681786255456
 10
-0.0000463296653752
 20
78.80665130773036
 30
0.0
 41
1.0
  0
SPLINE
  5
108
330
1F
100
AcDbEntity
  8
Default
100
AcDbSpline
210
0.0
220
0.0
230
1.0
 70
    12
 71
     2
 72
     6
 73
     3
 74
     0
 42
0.0000000001
 43
0.0000000001
 40
0.0
 40
0.0
 40
0.0
 40
5.654573080352873
 40
5.654573080352873
 40
5.654573080352873
 10
-0.0000463296653752
 20
78.80665130773036
 30
0.0
 41
1.0
 10
-2.833457513868876
 20
78.80050723650672
 30
0.0
 41
0.9967681786255456
 10
-5.629295208997993
 20
78.3406909450971
 30
0.0
 41
1.0
  0
SPLINE
  5
109
330
1F
100
AcDbEntity
  8
Make2D visible lines - Tangent
100
AcDbSpline
210
0.0
220
0.0
230
1.0
 70
    12
 71
     2
 72
     6
 73
     3
 74
     0
 42
0.0000000001
 43
0.0000000001
 40
-1.102413928352739
 40
-1.102413928352739
 40
-1.102413928352739
 40
0.0
 40
0.0
 40
0.0
 10
12.26877920095449
 20
62.4371014497417
 30
0.0
 41
0.9999999993925148
 10
12.82030868614172
 20
62.43098994386455
 30
0.0
 41
0.9999999996616541
 10
13.37187884352586
 20
62.42488475624886
 30
0.0
 41
1.0
  0
SPLINE
  5
10A
330
1F
100
AcDbEntity
  8
Make2D visible lines - Tangent
100
AcDbSpline
210
0.0
220
0.0
230
1.0
 70
     8
 71
     3
 72
    14
 73
    10
 74
     0
 42
0.0000000001
 43
0.0000000001
 40
0.0
 40
0.0
 40
0.0
 40
0.0
 40
1.0
 40
2.0
 40
3.0
 40
4.0
 40
5.0
 40
6.0
 40
7.0
 40
7.0
 40
7.0
 40
7.0
 10
13.37187884352586
 20
62.42488475624886
 30
0.0
 10
13.4421844565709
 20
62.42383486752614
 30
0.0
 10
13.5748203989761
 20
62.403537800951
 30
0.0
 10
13.75719757076651
 20
62.31775294427888
 30
0.0
 10
13.89200861353224
 20
62.15835797745724
 30
0.0
 10
13.88863129924206
 20
61.94517051251381
 30
0.0
 10
13.75065998584409
 20
61.78901414267459
 30
0.0
 10
13.56727071039251
 20
61.70559350813159
 30
0.0
 10
13.43443340835871
 20
61.68668549061996
 30
0.0
 10
13.36799999999997
 20
61.6866556474917
 30
0.0
  0
SPLINE
  5
10B
330
1F
100
AcDbEntity
  8
Make2D visible lines - Tangent
100
AcDbSpline
210
0.0
220
0.0
230
1.0
 70
    12
 71
     2
 72
     6
 73
     3
 74
     0
 42
0.0000000001
 43
0.0000000001
 40
0.0
 40
0.0
 40
0.0
 40
1.112498698414413
 40
1.112498698414413
 40
1.112498698414413
 10
13.36799999999997
 20
61.6866556474917
 30
0.0
 41
1.0
 10
12.81178446116743
 20
61.68052275391999
 30
0.0
 41
0.999999999658559
 10
12.25556902538646
 20
61.67438052131978
 30
0.0
 41
0.9999999993875965
  0
SPLINE
  5
10C
330
1F
100
AcDbEntity
  8
Make2D visible lines - Tangent
100
AcDbSpline
210
0.0
220
0.0
230
1.0
 70
    12
 71
     2
 72
     6
 73
     3
 74
     0
 42
0.0000000001
 43
0.0000000001
 40
-1.281345128275035
 40
-1.281345128275035
 40
-1.281345128275035
 40
0.0
 40
0.0
 40
0.0
 10
0.38342986794287
 20
49.9659112708749
 30
0.0
 41
0.9999999993069708
 10
0.3763252204866318
 20
49.3248715107083
 30
0.0
 41
0.9999999996067377
 10
0.3692291087560022
 20
48.68377680396695
 30
0.0
 41
1.0
  0
SPLINE
  5
10D
330
1F
100
AcDbEntity
  8
Make2D visible lines - Tangent
100
AcDbSpline
210
0.0
220
0.0
230
1.0
 70
     8
 71
     3
 72
    14
 73
    10
 74
     0
 42
0.0000000001
 43
0.0000000001
 40
0.0
 40
0.0
 40
0.0
 40
0.0
 40
1.0
 40
2.0
 40
3.0
 40
4.0
 40
5.0
 40
6.0
 40
7.0
 40
7.0
 40
7.0
 40
7.0
 10
0.3692291087560022
 20
48.68377680396695
 30
0.0
 10
0.3681792200332836
 20
48.61347119092191
 30
0.0
 10
0.3478821534581442
 20
48.48083524851671
 30
0.0
 10
0.2620972967860382
 20
48.29845807672631
 30
0.0
 10
0.1027023299643872
 20
48.16364703396057
 30
0.0
 10
-0.1104851349790295
 20
48.16702434825075
 30
0.0
 10
-0.2666415048182529
 20
48.30499566164872
 30
0.0
 10
-0.3500621393612562
 20
48.4883849371003
 30
0.0
 10
-0.3689701568728907
 20
48.62122223913409
 30
0.0
 10
-0.3690000000011366
 20
48.68765564749284
 30
0.0
  0
SPLINE
  5
10E
330
1F
100
AcDbEntity
  8
Make2D visible lines - Tangent
100
AcDbSpline
210
0.0
220
0.0
230
1.0
 70
    12
 71
     2
 72
     6
 73
     3
 74
     0
 42
0.0000000001
 43
0.0000000001
 40
0.0
 40
0.0
 40
0.0
 40
1.278324852146924
 40
1.278324852146924
 40
1.278324852146924
 10
-0.3690000000011366
 20
48.68765564749284
 30
0.0
 41
1.0
 10
-0.3760470466897055
 20
49.32677922353791
 30
0.0
 41
0.9999999996076647
 10
-0.383106424004563
 20
49.96590266350519
 30
0.0
 41
0.9999999993083846
  0
SPLINE
  5
10F
330
1F
100
AcDbEntity
  8
Make2D visible lines - Tangent
100
AcDbSpline
210
0.0
220
0.0
230
1.0
 70
    12
 71
     2
 72
     6
 73
     3
 74
     0
 42
0.0000000001
 43
0.0000000001
 40
0.0
 40
0.0
 40
0.0
 40
2.795567528105218
 40
2.795567528105218
 40
2.795567528105218
 10
-12.73570316744236
 20
24.61690727857422
 30
0.0
 41
1.0
 10
-12.89190918753301
 20
23.22787915208648
 30
0.0
 41
0.9999999977588828
 10
-13.04802881968322
 20
21.83783997159271
 30
0.0
 41
1.0
  0
SPLINE
  5
110
330
1F
100
AcDbEntity
  8
Make2D visible lines - Tangent
100
AcDbSpline
210
0.0
220
0.0
230
1.0
 70
    12
 71
     2
 72
     6
 73
     3
 74
     0
 42
0.0000000001
 43
0.0000000001
 40
0.0
 40
0.0
 40
0.0
 40
0.4901317099757928
 40
0.4901317099757928
 40
0.4901317099757928
 10
-13.04802881968322
 20
21.83783997159271
 30
0.0
 41
1.0
 10
-13.07551407044853
 20
21.59298571166266
 30
0.0
 41
0.9979772155037618
 10
-13.07173439123135
 20
21.34758358205883
 30
0.0
 41
1.0
  0
SPLINE
  5
111
330
1F
100
AcDbEntity
  8
Make2D visible lines - Tangent
100
AcDbSpline
210
0.0
220
0.0
230
1.0
 70
    12
 71
     2
 72
     6
 73
     3
 74
     0
 42
0.0000000001
 43
0.0000000001
 40
0.0
 40
0.0
 40
0.0
 40
5.531210327985943
 40
5.531210327985943
 40
5.531210327985943
 10
-13.07173439123135
 20
21.34758358205883
 30
0.0
 41
1.0
 10
-13.02886063993301
 20
18.58227650301229
 30
0.0
 41
0.9999999999928466
 10
-12.98596483109572
 20
15.81689637912803
 30
0.0
 41
1.0
  0
SPLINE
  5
112
330
1F
100
AcDbEntity
  8
Make2D visible lines - Tangent
100
AcDbSpline
210
0.0
220
0.0
230
1.0
 70
     8
 71
     3
 72
    15
 73
    11
 74
     0
 42
0.0000000001
 43
0.0000000001
 40
0.0
 40
0.0
 40
0.0
 40
0.0
 40
0.9392105016698279
 40
1.640578104294083
 40
2.192188772880628
 40
2.6617160915045
 40
3.139809665213049
 40
3.711960950485636
 40
4.450250207282398
 40
5.44410882064065
 40
5.44410882064065
 40
5.44410882064065
 40
5.44410882064065
 10
-12.98596483109572
 20
15.81689637912803
 30
0.0
 10
-12.98104631244688
 20
15.50375196999669
 30
0.0
 10
-12.96190830339481
 20
14.9569794731762
 30
0.0
 10
-12.87307005866579
 20
14.230558310918
 30
0.0
 10
-12.71549777998639
 20
13.67561782591277
 30
0.0
 10
-12.45987596735332
 20
13.23972829130878
 30
0.0
 10
-12.07908386654821
 20
12.89766136040955
 30
0.0
 10
-11.55079062984296
 20
12.61599796301261
 30
0.0
 10
-10.82729824780753
 20
12.35529647168285
 30
0.0
 10
-10.26994871798977
 20
12.20348983873842
 30
0.0
 10
-9.946877867090485
 20
12.12145117229355
 30
0.0
  0
LINE
  5
113
330
1F
100
AcDbEntity
  8
Make2D visible lines - Tangent
100
AcDbLine
 10
-9.946877867090485
 20
12.12145117229355
 30
0.0
 11
-1.745236538572806
 21
10.04283246997794
 31
0.0
  0
LINE
  5
114
330
1F
100
AcDbEntity
  8
Make2D visible lines - Tangent
100
AcDbLine
 10
-1.745236538572806
 20
10.04283246997794
 30
0.0
 11
-1.694826354793399
 21
10.04284794130329
 31
0.0
  0
ARC
  5
115
330
1F
100
AcDbEntity
  8
Make2D visible lines - Tangent
100
AcDbCircle
 10
-1.694950915874548
 20
10.44870502497804
 30
0.0
 40
0.4058571027891892
100
AcDbArc
 50
270.0175845742366
 51
353.4116189412363
  0
LINE
  5
116
330
1F
100
AcDbEntity
  8
Make2D visible lines - Tangent
100
AcDbLine
 10
-1.291774071825174
 20
10.40213872485852
 30
0.0
 11
-1.291774071825174
 21
10.54240017006401
 31
0.0
  0
SPLINE
  5
117
330
1F
100
AcDbEntity
  8
Make2D visible lines - Tangent
100
AcDbSpline
210
0.0
220
0.0
230
1.0
 70
    12
 71
     2
 72
     6
 73
     3
 74
     0
 42
0.0000000001
 43
0.0000000001
 40
0.0
 40
0.0
 40
0.0
 40
0.5069970388115627
 40
0.5069970388115627
 40
0.5069970388115627
 10
-1.291774071825174
 20
10.54240017006401
 30
0.0
 41
1.0
 10
-1.291790329418347
 20
10.80878131876467
 30
0.0
 41
0.9196242991016634
 10
-1.468902051941741
 20
11.00779178946161
 30
0.0
 41
0.9681486138647931
  0
SPLINE
  5
118
330
1F
100
AcDbEntity
  8
Make2D visible lines - Tangent
100
AcDbSpline
210
0.0
220
0.0
230
1.0
 70
    12
 71
     2
 72
     6
 73
     3
 74
     0
 42
0.0000000001
 43
0.0000000001
 40
0.1253994804207077
 40
0.1253994804207077
 40
0.1253994804207077
 40
0.6322790145841365
 40
0.6322790145841365
 40
0.6322790145841365
 10
1.465272985890842
 20
11.00770436783095
 30
0.0
 41
0.9681225453980495
 10
1.288235968316193
 20
10.80871551893821
 30
0.0
 41
0.9196350514549525
 10
1.288225928174811
 20
10.54240017006401
 30
0.0
 41
1.0
  0
SPLINE
  5
119
330
1F
100
AcDbEntity
  8
Make2D visible lines - Tangent
100
AcDbSpline
210
0.0
220
0.0
230
1.0
 70
    24
 71
     2
 72
     6
 73
     3
 74
     0
 42
0.0000000001
 43
0.0000000001
 40
0.0
 40
0.0
 40
0.0
 40
4.033400170063998
 40
4.033400170063998
 40
4.033400170063998
 10
1.288225928174811
 20
10.54240017006401
 30
0.0
 10
1.288225928174818
 20
8.524700085032013
 30
0.0
 10
1.288225928174825
 20
6.507000000000014
 30
0.0
  0
SPLINE
  5
11A
330
1F
100
AcDbEntity
  8
Make2D visible lines - Tangent
100
AcDbSpline
210
0.0
220
0.0
230
1.0
 70
    24
 71
     2
 72
     6
 73
     3
 74
     0
 42
0.0000000001
 43
0.0000000001
 40
-2.579999999999997
 40
-2.579999999999997
 40
-2.579999999999997
 40
0.0
 40
0.0
 40
0.0
 10
1.288225928174825
 20
6.507000000000014
 30
0.0
 10
-0.0017740718251744
 20
6.507000000000014
 30
0.0
 10
-1.291774071825174
 20
6.507000000000014
 30
0.0
  0
LINE
  5
11B
330
1F
100
AcDbEntity
  8
Make2D visible lines - Tangent
100
AcDbLine
 10
-1.291774071825174
 20
6.507000000000014
 30
0.0
 11
-1.291774071825266
 21
7.390281802162503
 31
0.0
  0
SPLINE
  5
11C
330
1F
100
AcDbEntity
  8
Make2D visible lines - Tangent
100
AcDbSpline
210
0.0
220
0.0
230
1.0
 70
    12
 71
     2
 72
     6
 73
     3
 74
     0
 42
0.0000000001
 43
0.0000000001
 40
0.0549306914234452
 40
0.0549306914234452
 40
0.0549306914234452
 40
0.7438420567701863
 40
0.7438420567701863
 40
0.7438420567701863
 10
-1.291774071825266
 20
7.390281802162503
 30
0.0
 41
0.9740471357463609
 10
-1.328894668849734
 20
7.779623904334622
 30
0.0
 41
0.8242800934664299
 10
-1.701227895880791
 20
7.899345160989981
 30
0.0
 41
1.0
  0
SPLINE
  5
11D
330
1F
100
AcDbEntity
  8
Make2D visible lines - Tangent
100
AcDbSpline
210
0.0
220
0.0
230
1.0
 70
    24
 71
     2
 72
     6
 73
     3
 74
     0
 42
0.0000000001
 43
0.0000000001
 40
0.0
 40
0.0
 40
0.0
 40
9.968665520973492
 40
9.968665520973492
 40
9.968665520973492
 10
-1.701227895880791
 20
7.899345160989981
 30
0.0
 10
-6.446671747291041
 20
9.42392238775617
 30
0.0
 10
-11.19211559870129
 20
10.94849961452236
 30
0.0
  0
SPLINE
  5
11E
330
1F
100
AcDbEntity
  8
Make2D visible lines - Tangent
100
AcDbSpline
210
0.0
220
0.0
230
1.0
 70
     8
 71
     3
 72
    12
 73
     8
 74
     0
 42
0.0000000001
 43
0.0000000001
 40
0.0
 40
0.0
 40
0.0
 40
0.0
 40
0.7757360538084561
 40
1.487150030408775
 40
2.745857345585154
 40
3.939773345514475
 40
5.284535138988444
 40
5.284535138988444
 40
5.284535138988444
 40
5.284535138988444
 10
-11.19211559870129
 20
10.94849961452236
 30
0.0
 10
-11.43758094600173
 20
11.02708532071328
 30
0.0
 10
-11.90509154294326
 20
11.20015795642815
 30
0.0
 10
-12.72131452419337
 20
11.61088548264484
 30
0.0
 10
-13.55949049847191
 20
12.27978534433733
 30
0.0
 10
-14.18664065999262
 20
13.40627549820724
 30
0.0
 10
-14.30952853768269
 20
14.25558564818658
 30
0.0
 10
-14.3302430620087
 20
14.70199999999985
 30
0.0
  0
SPLINE
  5
11F
330
1F
100
AcDbEntity
  8
Make2D visible lines - Tangent
100
AcDbSpline
210
0.0
220
0.0
230
1.0
 70
    24
 71
     2
 72
     6
 73
     3
 74
     0
 42
0.0000000001
 43
0.0000000001
 40
0.0
 40
0.0
 40
0.0
 40
6.665296691024855
 40
6.665296691024855
 40
6.665296691024855
 10
-14.3302430620087
 20
14.70199999999985
 30
0.0
 10
-14.47013809847867
 20
18.03242064878079
 30
0.0
 10
-14.61003313494864
 20
21.36284129756172
 30
0.0
  0
SPLINE
  5
120
330
1F
100
AcDbEntity
  8
Make2D visible lines - Tangent
100
AcDbSpline
210
0.0
220
0.0
230
1.0
 70
    12
 71
     2
 72
     6
 73
     3
 74
     0
 42
0.0000000001
 43
0.0000000001
 40
0.0
 40
0.0
 40
0.0
 40
0.4573449673281947
 40
0.4573449673281947
 40
0.4573449673281947
 10
-14.61003313494864
 20
21.36284129756172
 30
0.0
 41
1.0
 10
-14.61970082240084
 20
21.59299808182388
 30
0.0
 41
0.99823900942191
 10
-14.65633132116913
 20
21.81899005488938
 30
0.0
 41
1.0
  0
SPLINE
  5
121
330
1F
100
AcDbEntity
  8
Make2D visible lines - Tangent
100
AcDbSpline
210
0.0
220
0.0
230
1.0
 70
    24
 71
     2
 72
     6
 73
     3
 74
     0
 42
0.0000000001
 43
0.0000000001
 40
0.0
 40
0.0
 40
0.0
 40
2.834527124727227
 40
2.834527124727227
 40
2.834527124727227
 10
-14.65633132116913
 20
21.81899005488938
 30
0.0
 10
-14.88309351371756
 20
23.21799502744459
 30
0.0
 10
-15.10985570626599
 20
24.61699999999981
 30
0.0
  0
SPLINE
  5
122
330
1F
100
AcDbEntity
  8
Make2D visible lines
100
AcDbSpline
210
0.0
220
0.0
230
1.0
 70
    24
 71
     2
 72
     6
 73
     3
 74
     0
 42
0.0000000001
 43
0.0000000001
 40
0.6987763601134259
 40
0.6987763601134259
 40
0.6987763601134259
 40
0.8793882784309069
 40
0.8793882784309069
 40
0.8793882784309069
 10
48.42852844144898
 20
11.20405433584071
 30
0.0
 10
48.35754150352501
 20
11.14811283254445
 30
0.0
 10
48.28655456560104
 20
11.0921713292482
 30
0.0
  0
SPLINE
  5
123
330
1F
100
AcDbEntity
  8
Make2D visible lines
100
AcDbSpline
210
0.0
220
0.0
230
1.0
 70
    12
 71
     2
 72
     6
 73
     3
 74
     0
 42
0.0000000001
 43
0.0000000001
 40
0.0
 40
0.0
 40
0.0
 40
0.6322790145841365
 40
0.6322790145841365
 40
0.6322790145841365
 10
48.28655456560104
 20
11.0921713292482
 30
0.0
 41
1.0
 10
48.01987057512521
 20
10.88194126350768
 30
0.0
 41
0.8997531621452598
 10
48.01985777435877
 20
10.54240017006401
 30
0.0
 41
1.0
  0
SPLINE
  5
124
330
1F
100
AcDbEntity
  8
Make2D visible lines
100
AcDbSpline
210
0.0
220
0.0
230
1.0
 70
    24
 71
     2
 72
     6
 73
     3
 74
     0
 42
0.0000000001
 43
0.0000000001
 40
0.0
 40
0.0
 40
0.0
 40
4.033400170063998
 40
4.033400170063998
 40
4.033400170063998
 10
48.01985777435877
 20
10.54240017006401
 30
0.0
 10
48.01985777435877
 20
8.524700085032013
 30
0.0
 10
48.01985777435877
 20
6.507000000000014
 30
0.0
  0
SPLINE
  5
125
330
1F
100
AcDbEntity
  8
Make2D visible lines
100
AcDbSpline
210
0.0
220
0.0
230
1.0
 70
    24
 71
     2
 72
     6
 73
     3
 74
     0
 42
0.0000000001
 43
0.0000000001
 40
-2.579999999999997
 40
-2.579999999999997
 40
-2.579999999999997
 40
0.0
 40
0.0
 40
0.0
 10
48.01985777435877
 20
6.507000000000014
 30
0.0
 10
46.72985777435876
 20
6.507000000000014
 30
0.0
 10
45.43985777435876
 20
6.507000000000014
 30
0.0
  0
LINE
  5
126
330
1F
100
AcDbEntity
  8
Make2D visible lines
100
AcDbLine
 10
45.43985777435876
 20
6.507000000000014
 30
0.0
 11
45.43985777435876
 21
10.54240017006401
 31
0.0
  0
SPLINE
  5
127
330
1F
100
AcDbEntity
  8
Make2D visible lines
100
AcDbSpline
210
0.0
220
0.0
230
1.0
 70
    12
 71
     2
 72
     6
 73
     3
 74
     0
 42
0.0000000001
 43
0.0000000001
 40
0.0
 40
0.0
 40
0.0
 40
0.5200332036125748
 40
0.5200332036125748
 40
0.5200332036125748
 10
45.43985777435876
 20
10.54240017006401
 30
0.0
 41
1.0
 10
45.4398410611828
 20
10.81624605646335
 30
0.0
 41
0.9175576383468714
 10
45.25400009534003
 20
11.01741944926296
 30
0.0
 41
0.9707291974648042
  0
SPLINE
  5
128
330
1F
100
AcDbEntity
  8
Default
100
AcDbSpline
210
0.0
220
0.0
230
1.0
 70
     8
 71
     3
 72
    27
 73
    23
 74
     0
 42
0.0000000001
 43
0.0000000001
 40
0.0
 40
0.0
 40
0.0
 40
0.0
 40
1.0
 40
2.0
 40
3.0
 40
4.0
 40
5.0
 40
6.0
 40
7.0
 40
8.0
 40
9.0
 40
10.0
 40
11.0
 40
12.0
 40
12.0
 40
12.0
 40
13.0
 40
14.0
 40
15.0
 40
16.0
 40
17.0
 40
17.59035361248205
 40
17.59035361248205
 40
17.59035361248205
 40
17.59035361248205
 10
-8.58289444102971
 20
76.63876172583042
 30
0.0
 10
-8.5268858978066
 20
76.56990261552627
 30
0.0
 10
-8.263460678336388
 20
76.29581555677609
 30
0.0
 10
-8.107529235381495
 20
76.07979593750625
 30
0.0
 10
-7.971523899511001
 20
75.85036364083777
 30
0.0
 10
-7.855725102769124
 20
75.61094408611797
 30
0.0
 10
-7.739495189785409
 20
75.3698503801331
 30
0.0
 10
-7.694305121165942
 20
75.10447500152148
 30
0.0
 10
-7.731024903056576
 20
74.8385906293114
 30
0.0
 10
-7.802939067946727
 20
74.58214453795338
 30
0.0
 10
-7.897435918084949
 20
74.33294238371909
 30
0.0
 10
-8.005669434203236
 20
74.0896139857598
 30
0.0
 10
-8.122302875907598
 20
73.85021276029218
 30
0.0
 10
-8.203394785232975
 20
73.69229823094992
 30
0.0
 10
-8.244144912653146
 20
73.61344867630291
 30
0.0
 10
-8.443518953937872
 20
73.22951408655322
 30
0.0
 10
-8.831207597944548
 20
72.45578761370732
 30
0.0
 10
-9.364226749754526
 20
71.27216900406074
 30
0.0
 10
-9.865312114053573
 20
70.07483220124365
 30
0.0
 10
-10.33542681116141
 20
68.86497798422786
 30
0.0
 10
-10.71809818497019
 20
67.81162395402748
 30
0.0
 10
-10.94300203551407
 20
67.1613831481572
 30
0.0
 10
-11.02521442739098
 20
66.91957437570896
 30
0.0
  0
SPLINE
  5
129
330
1F
100
AcDbEntity
  8
Default
100
AcDbSpline
210
0.0
220
0.0
230
1.0
 70
     8
 71
     3
 72
    59
 73
    55
 74
     0
 42
0.0000000001
 43
0.0000000001
 40
26.00996749817882
 40
26.00996749817882
 40
26.00996749817882
 40
26.00996749817882
 40
27.0
 40
28.0
 40
29.0
 40
30.0
 40
31.0
 40
32.0
 40
33.0
 40
34.0
 40
35.0
 40
36.0
 40
36.0
 40
36.0
 40
37.0
 40
38.0
 40
39.0
 40
40.0
 40
41.0
 40
42.0
 40
43.0
 40
44.0
 40
45.0
 40
46.0
 40
47.0
 40
48.0
 40
49.0
 40
50.0
 40
51.0
 40
52.0
 40
53.0
 40
53.0
 40
53.0
 40
54.0
 40
55.0
 40
56.0
 40
57.0
 40
58.0
 40
59.0
 40
60.0
 40
60.0
 40
60.0
 40
61.0
 40
62.0
 40
63.0
 40
64.0
 40
65.0
 40
66.0
 40
67.0
 40
68.0
 40
69.0
 40
70.0
 40
71.0
 40
72.0
 40
72.0
 40
72.0
 40
72.0
 10
-10.87904473771691
 20
56.09443404925261
 30
0.0
 10
-10.69646890710174
 20
55.69862681499939
 30
0.0
 10
-10.26928968597317
 20
54.93066383441527
 30
0.0
 10
-9.476146345905029
 20
53.87622426794461
 30
0.0
 10
-8.552500599859824
 20
52.9277039148152
 30
0.0
 10
-7.512416347765512
 20
52.10894938487808
 30
0.0
 10
-6.384294816984423
 20
51.41705987279041
 30
0.0
 10
-5.179716948167017
 20
50.86887388406311
 30
0.0
 10
-3.92366486416257
 20
50.45393955499887
 30
0.0
 10
-2.632818662937377
 20
50.16568920014701
 30
0.0
 10
-1.32121536718728
 20
49.99710652195821
 30
0.0
 10
-0.4403921754284166
 20
49.96106308858622
 30
0.0
 10
-0.0000245600192539
 20
49.96180890747648
 30
0.0
 10
0.4403430553899089
 20
49.96106308858622
 30
0.0
 10
1.321166247148772
 20
49.99710652195821
 30
0.0
 10
2.63276954289887
 20
50.16568920014701
 30
0.0
 10
3.923615744124062
 20
50.45393955499887
 30
0.0
 10
5.179667828128509
 20
50.86887388406311
 30
0.0
 10
6.384245696945915
 20
51.41705987279041
 30
0.0
 10
7.512367227727005
 20
52.10894938487808
 30
0.0
 10
8.552451479821316
 20
52.9277039148152
 30
0.0
 10
9.476097225866521
 20
53.87622426794461
 30
0.0
 10
10.27188456889879
 20
54.93417888799816
 30
0.0
 10
10.91510245877405
 20
56.09239278317555
 30
0.0
 10
11.37471126586715
 20
57.33460804149982
 30
0.0
 10
11.67673801712329
 20
58.62257189037625
 30
0.0
 10
11.86230727778357
 20
59.93154167230277
 30
0.0
 10
11.95160551721729
 20
61.25065778917259
 30
0.0
 10
11.95451598369181
 20
62.57170042511475
 30
0.0
 10
11.90041020566926
 20
63.89371640487514
 30
0.0
 10
11.72883045952802
 20
64.76119001112411
 30
0.0
 10
11.5947082212886
 20
65.18095319325136
 30
0.0
 10
11.46382230328634
 20
65.59330314190186
 30
0.0
 10
11.19799005101642
 20
66.41673068053402
 30
0.0
 10
10.7786149982469
 20
67.64504334851873
 30
0.0
 10
10.33542681116138
 20
68.86497798422786
 30
0.0
 10
9.865312114053545
 20
70.07483220124365
 30
0.0
 10
9.364226749754497
 20
71.27216900406074
 30
0.0
 10
8.83120759794452
 20
72.45578761370732
 30
0.0
 10
8.443518953937843
 20
73.22951408655322
 30
0.0
 10
8.244144912653118
 20
73.61344867630291
 30
0.0
 10
8.203394785232947
 20
73.69229823094992
 30
0.0
 10
8.12230287590757
 20
73.85021276029218
 30
0.0
 10
8.005669434203208
 20
74.0896139857598
 30
0.0
 10
7.897435918084921
 20
74.33294238371909
 30
0.0
 10
7.802939067946698
 20
74.58214453795338
 30
0.0
 10
7.731024903056547
 20
74.8385906293114
 30
0.0
 10
7.694305121165914
 20
75.10447500152148
 30
0.0
 10
7.739495189785381
 20
75.3698503801331
 30
0.0
 10
7.855725102769096
 20
75.61094408611797
 30
0.0
 10
7.971523899510973
 20
75.85036364083777
 30
0.0
 10
8.107529235381467
 20
76.07979593750625
 30
0.0
 10
8.26346067833636
 20
76.29581555677609
 30
0.0
 10
8.526885897806572
 20
76.56990261552627
 30
0.0
 10
8.582894441029682
 20
76.63876172583042
 30
0.0
  0
SPLINE
  5
12A
330
1F
100
AcDbEntity
  8
Default
100
AcDbSpline
210
0.0
220
0.0
230
1.0
 70
     8
 71
     3
 72
    15
 73
    11
 74
     0
 42
0.0000000001
 43
0.0000000001
 40
0.0
 40
0.0
 40
0.0
 40
0.0
 40
0.2588469591229587
 40
0.6477254461891114
 40
1.024641027840087
 40
1.817983982162573
 40
2.582167143679938
 40
4.062052734317923
 40
7.850412104674001
 40
8.912059032934526
 40
8.912059032934526
 40
8.912059032934526
 40
8.912059032934526
 10
-7.738659199868922
 20
75.30724134218735
 30
0.0
 10
-7.730654935753764
 20
75.22071445266917
 30
0.0
 10
-7.769388367956941
 20
75.00625752397693
 30
0.0
 10
-7.893901614861809
 20
74.68771445023339
 30
0.0
 10
-8.118215525380611
 20
74.21871483137085
 30
0.0
 10
-8.426194354485672
 20
73.65200678633235
 30
0.0
 10
-8.869622299866863
 20
72.74160926455258
 30
0.0
 10
-9.720950479180212
 20
70.91983374452161
 30
0.0
 10
-10.52560010420625
 20
68.96827793230305
 30
0.0
 10
-11.11270265043186
 20
67.46220300528142
 30
0.0
 10
-11.23981611806657
 20
67.13198031526649
 30
0.0
  0
SPLINE
  5
12B
330
1F
100
AcDbEntity
  8
Default
100
AcDbSpline
210
0.0
220
0.0
230
1.0
 70
     8
 71
     3
 72
     8
 73
     4
 74
     0
 42
0.0000000001
 43
0.0000000001
 40
20.3336008915702
 40
20.3336008915702
 40
20.3336008915702
 40
20.3336008915702
 40
21.82793658798906
 40
21.82793658798906
 40
21.82793658798906
 40
21.82793658798906
 10
-10.89992044503701
 20
56.07185935641102
 30
0.0
 10
-10.6768040085902
 20
55.62692055036511
 30
0.0
 10
-10.42431373254425
 20
55.19664016116914
 30
0.0
 10
-10.14114177719027
 20
54.78548061505367
 30
0.0
  0
SPLINE
  5
12C
330
1F
100
AcDbEntity
  8
Default
100
AcDbSpline
210
0.0
220
0.0
230
1.0
 70
     8
 71
     3
 72
    11
 73
     7
 74
     0
 42
0.0000000001
 43
0.0000000001
 40
3.534603541119152
 40
3.534603541119152
 40
3.534603541119152
 40
3.534603541119152
 40
3.940395698505355
 40
7.777415887162894
 40
11.58776424105037
 40
15.35286584350305
 40
15.35286584350305
 40
15.35286584350305
 40
15.35286584350305
 10
-9.043567985065181
 20
63.38784133535674
 30
0.0
 10
-8.998818288406163
 20
63.51545237483317
 30
0.0
 10
-8.50362179157331
 20
64.84020059921815
 30
0.0
 10
-7.019292613518893
 20
67.14313293660123
 30
0.0
 10
-3.783437491155103
 20
69.2951556969839
 30
0.0
 10
-1.25444604048997
 20
69.77023522282153
 30
0.0
 10
-0.0000255985164115
 20
69.77053898054339
 30
0.0
  0
SPLINE
  5
12D
330
1F
100
AcDbEntity
  8
Default
100
AcDbSpline
210
0.0
220
0.0
230
1.0
 70
     8
 71
     3
 72
    12
 73
     8
 74
     0
 42
0.0000000001
 43
0.0000000001
 40
0.0
 40
0.0
 40
0.0
 40
0.0
 40
1.918305221504867
 40
3.868777778011242
 40
7.624449324857684
 40
11.42846767657462
 40
15.35241906764609
 40
15.35241906764609
 40
15.35241906764609
 40
15.35241906764609
 10
-0.0000255985164115
 20
69.77053898054339
 30
0.0
 10
0.6393474785945301
 20
69.77106966519702
 30
0.0
 10
1.929199776513009
 20
69.6462593963411
 30
0.0
 10
4.375128356070698
 20
68.91217436935244
 30
0.0
 10
7.055036185232277
 20
67.09746800390471
 30
0.0
 10
9.159516322280025
 20
63.80777226681028
 30
0.0
 10
9.624982769621733
 20
61.22596541158599
 30
0.0
 10
9.624961416883325
 20
59.91858274805683
 30
0.0
  0
SPLINE
  5
12E
330
1F
100
AcDbEntity
  8
Default
100
AcDbSpline
210
0.0
220
0.0
230
1.0
 70
     8
 71
     3
 72
    12
 73
     8
 74
     0
 42
0.0000000001
 43
0.0000000001
 40
-14.89017236839833
 40
-14.89017236839833
 40
-14.89017236839833
 40
-14.89017236839833
 40
-11.21816917573749
 40
-7.516682162771168
 40
-3.774519558109396
 40
-1.889355098273271
 40
0.0
 40
0.0
 40
0.0
 40
0.0
 10
9.624961416883325
 20
59.91858274805683
 30
0.0
 10
9.625289477807891
 20
58.6944175305192
 30
0.0
 10
9.118136483111813
 20
56.23722208839659
 30
0.0
 10
6.966130616604167
 20
53.13039946142401
 30
0.0
 10
4.303022178647693
 20
51.41352549836981
 30
0.0
 10
1.887955315331938
 20
50.70582516534627
 30
0.0
 10
0.6297070974156274
 20
50.58481174274721
 30
0.0
 10
-0.0000256397261191
 20
50.58474397584691
 30
0.0
  0
SPLINE
  5
12F
330
1F
100
AcDbEntity
  8
Default
100
AcDbSpline
210
0.0
220
0.0
230
1.0
 70
     8
 71
     3
 72
    12
 73
     8
 74
     0
 42
0.0000000001
 43
0.0000000001
 40
-14.89017233013332
 40
-14.89017233013332
 40
-14.89017233013332
 40
-14.89017233013332
 40
-11.11625270517792
 40
-7.371880431677226
 40
-3.66957874387039
 40
-1.832654236799996
 40
-1.682229782347938
 40
-1.682229782347938
 40
-1.682229782347938
 40
-1.682229782347938
 10
-0.0000256397261191
 20
50.58474397584691
 30
0.0
 10
-1.257999158227531
 20
50.58496406855264
 30
0.0
 10
-3.764054832158029
 20
51.06577907232771
 30
0.0
 10
-6.967204852942315
 20
53.13116030580912
 30
0.0
 10
-8.763895421073322
 20
55.72611184081828
 30
0.0
 10
-9.331616600948125
 20
57.54650214338506
 30
0.0
 10
-9.459354979028591
 20
58.19653828991997
 30
0.0
 10
-9.468617844196624
 20
58.24581517538699
 30
0.0
  0
SPLINE
  5
130
330
1F
100
AcDbEntity
  8
Default
100
AcDbSpline
210
0.0
220
0.0
230
1.0
 70
     8
 71
     3
 72
    32
 73
    28
 74
     0
 42
0.0000000001
 43
0.0000000001
 40
0.0
 40
0.0
 40
0.0
 40
0.0
 40
0.6424106210978217
 40
1.298318980594535
 40
1.468720655577004
 40
1.876899736031634
 40
4.922730948266024
 40
7.518234996431048
 40
9.414146423882848
 40
9.650465074221067
 40
10.16737509444177
 40
11.17511187797939
 40
12.27047498261846
 40
12.79407765966534
 40
13.06111085975148
 40
13.75139800275023
 40
17.85756791929135
 40
19.73368215550339
 40
20.71077241959481
 40
21.313976935579
 40
21.94927503485069
 40
22.40261661001096
 40
22.4631788319427
 40
22.81476421675537
 40
23.12397591297002
 40
24.03366187863583
 40
24.83721965664489
 40
24.83721965664489
 40
24.83721965664489
 40
24.83721965664489
 10
8.449831579929866
 20
39.33138964977287
 30
0.0
 10
8.577051968411725
 20
39.15892507136176
 30
0.0
 10
8.768140081120931
 20
38.76345966044663
 30
0.0
 10
8.822353621409734
 20
38.26972251990857
 30
0.0
 10
8.779995385131828
 20
37.86023413689135
 30
0.0
 10
8.627800300787724
 20
36.66177619343378
 30
0.0
 10
8.391799301892467
 20
34.65905045637389
 30
0.0
 10
8.071300827207208
 20
32.16715958964129
 30
0.0
 10
7.867906857596415
 20
30.60443970807309
 30
0.0
 10
7.746569814725005
 20
29.72972940097441
 30
0.0
 10
7.722643675223042
 20
29.14206632885713
 30
0.0
 10
7.792442883691896
 20
28.26943561890808
 30
0.0
 10
8.000061796427103
 20
27.41564099544416
 30
0.0
 10
8.201188386114014
 20
26.82048998265216
 30
0.0
 10
8.383180143152826
 20
26.36120538035718
 30
0.0
 10
8.989289199736357
 20
24.78627464082097
 30
0.0
 10
9.804252954030476
 20
22.71638306517054
 30
0.0
 10
10.66343113982082
 20
20.56180082959328
 30
0.0
 10
11.095456779335
 20
19.49362909474976
 30
0.0
 10
11.37303393804173
 20
18.8092954914508
 30
0.0
 10
11.58676694029363
 20
18.287387836071
 30
0.0
 10
11.73272140948807
 20
17.93323092218872
 30
0.0
 10
11.8426905758851
 20
17.6665100780314
 30
0.0
 10
11.93757348974656
 20
17.44587708481921
 30
0.0
 10
12.12721863800258
 20
16.95676453812197
 30
0.0
 10
12.27914715764935
 20
16.29715922236435
 30
0.0
 10
12.26850423649409
 20
15.65893655158886
 30
0.0
 10
12.2069573416295
 20
15.39757653232763
 30
0.0
  0
SPLINE
  5
131
330
1F
100
AcDbEntity
  8
Default
100
AcDbSpline
210
0.0
220
0.0
230
1.0
 70
     8
 71
     3
 72
    33
 73
    29
 74
     0
 42
0.0000000001
 43
0.0000000001
 40
-24.0
 40
-24.0
 40
-24.0
 40
-24.0
 40
-23.0
 40
-22.0
 40
-21.0
 40
-20.0
 40
-19.0
 40
-18.0
 40
-17.0
 40
-16.0
 40
-15.0
 40
-14.0
 40
-13.0
 40
-12.0
 40
-12.0
 40
-12.0
 40
-11.0
 40
-10.0
 40
-9.0
 40
-8.0
 40
-7.0
 40
-6.0
 40
-5.0
 40
-4.0
 40
-3.0
 40
-2.0
 40
-1.0
 40
0.0
 40
0.0
 40
0.0
 40
0.0
 10
12.2069573416295
 20
15.39757653232763
 30
0.0
 10
12.11998345337332
 20
15.02824031869946
 30
0.0
 10
11.79214251257317
 20
14.25606924946748
 30
0.0
 10
10.95577255845214
 20
13.45687500656581
 30
0.0
 10
9.98438956080137
 20
12.85574185895085
 30
0.0
 10
8.959272776780995
 20
12.35227616785477
 30
0.0
 10
7.89756929056957
 20
11.93213032357097
 30
0.0
 10
6.802827470281434
 20
11.60700307236298
 30
0.0
 10
5.685970876349192
 20
11.37018565058901
 30
0.0
 10
4.556569255885607
 20
11.20536415542496
 30
0.0
 10
3.420681601274934
 20
11.09543725378628
 30
0.0
 10
2.281510631997752
 20
11.02915401563708
 30
0.0
 10
1.140940846995352
 20
10.99694749928374
 30
0.0
 10
0.380309559374678
 20
10.99149093301046
 30
0.0
 10
-0.0000000000000462
 20
10.99112509460405
 30
0.0
 10
-0.3803095593747704
 20
10.99149093301043
 30
0.0
 10
-1.140940846995445
 20
10.99694749928364
 30
0.0
 10
-2.281510631997848
 20
11.02915401563686
 30
0.0
 10
-3.420681601275036
 20
11.09543725378596
 30
0.0
 10
-4.55656925588572
 20
11.20536415542454
 30
0.0
 10
-5.68597087634932
 20
11.37018565058848
 30
0.0
 10
-6.802827470281584
 20
11.60700307236234
 30
0.0
 10
-7.89756929056975
 20
11.93213032357023
 30
0.0
 10
-8.959272776781216
 20
12.35227616785393
 30
0.0
 10
-9.984389560801636
 20
12.85574185894992
 30
0.0
 10
-10.95577255845246
 20
13.45687500656479
 30
0.0
 10
-11.79214251257357
 20
14.25606924946638
 30
0.0
 10
-12.11998345337355
 20
15.0282403186989
 30
0.0
 10
-12.20695734162975
 20
15.39757653232706
 30
0.0
  0
SPLINE
  5
132
330
1F
100
AcDbEntity
  8
Default
100
AcDbSpline
210
0.0
220
0.0
230
1.0
 70
     8
 71
     3
 72
    18
 73
    14
 74
     0
 42
0.0000000001
 43
0.0000000001
 40
-24.83721965664489
 40
-24.83721965664489
 40
-24.83721965664489
 40
-24.83721965664489
 40
-24.03366187863583
 40
-23.12397591297002
 40
-22.81476421675537
 40
-22.4631788319427
 40
-22.40261661001096
 40
-21.94927503485069
 40
-21.313976935579
 40
-20.71077241959481
 40
-19.73368215550339
 40
-17.85756791929135
 40
-14.93353565595707
 40
-14.93353565595707
 40
-14.93353565595707
 40
-14.93353565595707
 10
-12.20695734162975
 20
15.39757653232706
 30
0.0
 10
-12.26850423649435
 20
15.65893655158829
 30
0.0
 10
-12.27914715764935
 20
16.29715922236435
 30
0.0
 10
-12.12721863800258
 20
16.95676453812197
 30
0.0
 10
-11.93757348974656
 20
17.44587708481921
 30
0.0
 10
-11.8426905758851
 20
17.6665100780314
 30
0.0
 10
-11.73272140948807
 20
17.93323092218872
 30
0.0
 10
-11.58676694029363
 20
18.287387836071
 30
0.0
 10
-11.37303393804173
 20
18.8092954914508
 30
0.0
 10
-11.095456779335
 20
19.49362909474976
 30
0.0
 10
-10.66343113982082
 20
20.56180082959328
 30
0.0
 10
-9.9501952217404
 20
22.35040005649067
 30
0.0
 10
-9.362670737524674
 20
23.83886552406869
 30
0.0
 10
-9.008410805049266
 20
24.74687488303704
 30
0.0
  0
SPLINE
  5
133
330
1F
100
AcDbEntity
  8
Default
100
AcDbSpline
210
0.0
220
0.0
230
1.0
 70
     8
 71
     3
 72
    22
 73
    18
 74
     0
 42
0.0000000001
 43
0.0000000001
 40
-14.73149652662667
 40
-14.73149652662667
 40
-14.73149652662667
 40
-14.73149652662667
 40
-13.75139800275023
 40
-13.06111085975148
 40
-12.79407765966534
 40
-12.27047498261846
 40
-11.17511187797939
 40
-10.16737509444177
 40
-9.650465074221067
 40
-9.414146423882848
 40
-7.518234996431048
 40
-4.922730948266024
 40
-1.876899736031634
 40
-1.468720655577004
 40
-1.298318980594535
 40
-0.6424106210978217
 40
0.0
 40
0.0
 40
0.0
 40
0.0
 10
-8.935029518053557
 20
24.93511331933648
 30
0.0
 10
-8.816457179365532
 20
25.23952759598565
 30
0.0
 10
-8.615092729422479
 20
25.75859722422731
 30
0.0
 10
-8.383180143152826
 20
26.36120538035718
 30
0.0
 10
-8.201188386114014
 20
26.82048998265216
 30
0.0
 10
-8.000061796427103
 20
27.41564099544416
 30
0.0
 10
-7.792442883691896
 20
28.26943561890808
 30
0.0
 10
-7.722643675223042
 20
29.14206632885713
 30
0.0
 10
-7.746569814725005
 20
29.72972940097441
 30
0.0
 10
-7.867906857596415
 20
30.60443970807309
 30
0.0
 10
-8.071300827207208
 20
32.16715958964129
 30
0.0
 10
-8.391799301892467
 20
34.65905045637389
 30
0.0
 10
-8.627800300787724
 20
36.66177619343378
 30
0.0
 10
-8.779995385131828
 20
37.86023413689135
 30
0.0
 10
-8.822353621409734
 20
38.26972251990857
 30
0.0
 10
-8.768140081120931
 20
38.76345966044663
 30
0.0
 10
-8.577051968411725
 20
39.15892507136176
 30
0.0
 10
-8.449831579929866
 20
39.33138964977287
 30
0.0
  0
SPLINE
  5
134
330
1F
100
AcDbEntity
  8
Default
100
AcDbSpline
210
0.0
220
0.0
230
1.0
 70
    12
 71
     3
 72
    17
 73
    13
 74
     0
 42
0.0000000001
 43
0.0000000001
 40
13.56826701723611
 40
13.56826701723611
 40
13.56826701723611
 40
13.56826701723611
 40
14.45866901066649
 40
15.45866901066649
 40
16.45866901066649
 40
17.45866901066649
 40
18.45866901066649
 40
19.45866901066649
 40
20.45866901066649
 40
21.45866901066649
 40
22.45866901066649
 40
23.45866901066649
 40
23.45866901066649
 40
23.45866901066649
 40
23.45866901066649
 10
-8.994389190044988
 20
24.74874292867488
 30
0.0
 41
1.0
 10
-9.099538676188303
 20
24.47979673907183
 30
0.0
 41
1.0
 10
-9.322400461406849
 20
23.90865190100366
 30
0.0
 41
1.0
 10
-9.660791279369255
 20
23.03445806020417
 30
0.0
 41
1.0
 10
-10.00969719216663
 20
22.12622862430197
 30
0.0
 41
1.0
 10
-10.35655401664515
 20
21.21719816892298
 30
0.0
 41
1.0
 10
-10.70000274757743
 20
20.30693152274264
 30
0.0
 41
1.0
 10
-11.04519866490448
 20
19.39711873192818
 30
0.0
 41
1.0
 10
-11.37286674313303
 20
18.48146890277167
 30
0.0
 41
1.0
 10
-11.73246277104857
 20
17.57518417144931
 30
0.0
 41
1.0
 10
-11.97089805120574
 20
16.63328806971158
 30
0.0
 41
1.0
 10
-11.97263764270287
 20
15.96792130530785
 30
0.0
 41
1.0
 10
-11.84461442079466
 20
15.66627321923011
 30
0.0
 41
1.0
  0
SPLINE
  5
135
330
1F
100
AcDbEntity
  8
Default
100
AcDbSpline
210
0.0
220
0.0
230
1.0
 70
     8
 71
     3
 72
    18
 73
    14
 74
     0
 42
0.0000000001
 43
0.0000000001
 40
0.0
 40
0.0
 40
0.0
 40
0.0
 40
1.0
 40
2.0
 40
3.0
 40
4.0
 40
5.0
 40
6.0
 40
7.0
 40
8.0
 40
9.0
 40
10.0
 40
11.0
 40
11.0
 40
11.0
 40
11.0
 10
-11.84461442079466
 20
15.66627321923011
 30
0.0
 10
-11.67021377752894
 20
15.32739352096246
 30
0.0
 10
-10.96681776878795
 20
15.01188296110734
 30
0.0
 10
-9.880127326827745
 20
14.88869547456687
 30
0.0
 10
-8.780176980807859
 20
14.88864515842852
 30
0.0
 10
-7.68317170238778
 20
14.89440679188866
 30
0.0
 10
-6.585374508111108
 20
14.88826550804074
 30
0.0
 10
-5.487839905903898
 20
14.87739485629143
 30
0.0
 10
-4.390288092325658
 20
14.86287976871209
 30
0.0
 10
-3.29276616839454
 20
14.847435622759
 30
0.0
 10
-2.195220754752082
 20
14.83334047204564
 30
0.0
 10
-1.097632734437661
 20
14.82298996346348
 30
0.0
 10
-0.3658782512492879
 20
14.8201623515706
 30
0.0
 10
0.000000000000002
 20
14.82016241486989
 30
0.0
  0
SPLINE
  5
136
330
1F
100
AcDbEntity
  8
Default
100
AcDbSpline
210
0.0
220
0.0
230
1.0
 70
     8
 71
     3
 72
    18
 73
    14
 74
     0
 42
0.0000000001
 43
0.0000000001
 40
-11.0
 40
-11.0
 40
-11.0
 40
-11.0
 40
-10.0
 40
-9.0
 40
-8.0
 40
-7.0
 40
-6.0
 40
-5.0
 40
-4.0
 40
-3.0
 40
-2.0
 40
-1.0
 40
0.0
 40
0.0
 40
0.0
 40
0.0
 10
0.000000000000002
 20
14.82016241486989
 30
0.0
 10
0.365878251249292
 20
14.8201623515706
 30
0.0
 10
1.097632734437665
 20
14.82298996346348
 30
0.0
 10
2.195220754752086
 20
14.83334047204563
 30
0.0
 10
3.292766168394544
 20
14.84743562275898
 30
0.0
 10
4.390288092325663
 20
14.86287976871206
 30
0.0
 10
5.487839905903902
 20
14.8773948562914
 30
0.0
 10
6.585374508111112
 20
14.8882655080407
 30
0.0
 10
7.683171702387784
 20
14.89440679188861
 30
0.0
 10
8.780176980807864
 20
14.88864515842847
 30
0.0
 10
9.88012732682775
 20
14.88869547456681
 30
0.0
 10
10.96681776878795
 20
15.01188296110728
 30
0.0
 10
11.67021377752894
 20
15.32739352096239
 30
0.0
 10
11.84459372489875
 20
15.66627321923008
 30
0.0
  0
SPLINE
  5
137
330
1F
100
AcDbEntity
  8
Default
100
AcDbSpline
210
0.0
220
0.0
230
1.0
 70
    12
 71
     3
 72
    28
 73
    24
 74
     0
 42
0.0000000001
 43
0.0000000001
 40
-23.45866901066649
 40
-23.45866901066649
 40
-23.45866901066649
 40
-23.45866901066649
 40
-22.45866901066649
 40
-21.45866901066649
 40
-20.45866901066649
 40
-19.45866901066649
 40
-18.45866901066649
 40
-17.45866901066649
 40
-16.45866901066649
 40
-15.45866901066649
 40
-14.45866901066649
 40
-13.45866901066649
 40
-12.45866901066649
 40
-11.45866901066649
 40
-11.45866901066649
 40
-11.45866901066649
 40
-9.635609129923907
 40
-8.774887042536383
 40
-8.389323015618313
 40
-7.972644806918767
 40
-7.972644806918767
 40
-7.972644806918767
 40
0.0
 40
0.0
 40
0.0
 40
0.0
 10
11.84459372489875
 20
15.66627321923008
 30
0.0
 41
1.0
 10
11.97259625091104
 20
15.96792130530785
 30
0.0
 41
1.0
 10
11.97085665941391
 20
16.63328806971158
 30
0.0
 41
1.0
 10
11.73242137925674
 20
17.57518417144931
 30
0.0
 41
1.0
 10
11.37282535134121
 20
18.48146890277167
 30
0.0
 41
1.0
 10
11.04515727311265
 20
19.39711873192818
 30
0.0
 41
1.0
 10
10.6999613557856
 20
20.30693152274264
 30
0.0
 41
1.0
 10
10.35651262485333
 20
21.21719816892298
 30
0.0
 41
1.0
 10
10.0096558003748
 20
22.12622862430197
 30
0.0
 41
1.0
 10
9.660749887577426
 20
23.03445806020417
 30
0.0
 41
1.0
 10
9.309527996575895
 20
23.94179950556691
 30
0.0
 41
1.0
 10
8.955712213015426
 20
24.84813045569825
 30
0.0
 41
1.0
 10
8.600695024750125
 20
25.7539918949771
 30
0.0
 41
1.0
 10
8.359696908483695
 20
26.35620256129658
 30
0.0
 41
1.0
 10
8.244170546422577
 20
26.65925386031288
 30
0.0
 41
1.0
 10
8.02517381347432
 20
27.22570210853247
 30
0.0
 41
1.0
 10
7.780871268801794
 20
28.09286940596113
 30
0.0
 41
1.0
 10
7.700089769705388
 20
29.11569168748104
 30
0.0
 41
1.0
 10
7.713788542109699
 20
29.66996397017967
 30
0.0
 41
1.0
 10
7.742760007251542
 20
29.93621938053419
 30
0.0
 41
1.0
 10
7.759667036299311
 20
30.07396972408962
 30
0.0
 41
1.0
 10
8.117679008611633
 20
32.70731915298202
 30
0.0
 41
0.9999803213218016
 10
8.493614839647508
 20
35.39319617227699
 30
0.0
 41
0.9999803213218016
 10
8.778698132579011
 20
38.03543562074834
 30
0.0
 41
1.0
  0
SPLINE
  5
138
330
1F
100
AcDbEntity
  8
Default
100
AcDbSpline
210
0.0
220
0.0
230
1.0
 70
     8
 71
     3
 72
    11
 73
     7
 74
     0
 42
0.0000000001
 43
0.0000000001
 40
-2.743097143419929
 40
-2.743097143419929
 40
-2.743097143419929
 40
-2.743097143419929
 40
-1.339748098685043
 40
-0.682399112458213
 40
-0.3325467378781747
 40
0.0
 40
0.0
 40
0.0
 40
0.0
 10
8.778698132579011
 20
38.03543562074834
 30
0.0
 10
8.828766804987717
 20
38.49948744227217
 30
0.0
 10
8.64686041678498
 20
39.21428486716843
 30
0.0
 10
8.03579528999502
 20
39.76327342702528
 30
0.0
 10
7.631866541182868
 20
39.95563711724026
 30
0.0
 10
7.410171449184022
 20
40.0135420524492
 30
0.0
 10
7.30088667994618
 20
40.03090666417518
 30
0.0
  0
SPLINE
  5
139
330
1F
100
AcDbEntity
  8
Default
100
AcDbSpline
210
0.0
220
0.0
230
1.0
 70
    12
 71
     2
 72
     6
 73
     3
 74
     0
 42
0.0000000001
 43
0.0000000001
 40
-0.3785634867430925
 40
-0.3785634867430925
 40
-0.3785634867430925
 40
0.0
 40
0.0
 40
0.0
 10
7.30088667994618
 20
40.03090666417518
 30
0.0
 41
1.0
 10
7.113371818200783
 20
40.06030963114272
 30
0.0
 41
0.9959393302338803
 10
6.923633760784574
 20
40.05561328133928
 30
0.0
 41
1.0
  0
SPLINE
  5
13A
330
1F
100
AcDbEntity
  8
Default
100
AcDbSpline
210
0.0
220
0.0
230
1.0
 70
    12
 71
     2
 72
    12
 73
     9
 74
     0
 42
0.0000000001
 43
0.0000000001
 40
-1.979652464604932
 40
-1.979652464604932
 40
-1.979652464604932
 40
0.0
 40
0.0
 40
4.924641608380323
 40
4.924641608380323
 40
9.849283216760647
 40
9.849283216760647
 40
11.82893568136558
 40
11.82893568136558
 40
11.82893568136558
 10
6.923633760784574
 20
40.05561328133928
 30
0.0
 41
1.0
 10
5.934109130810739
 20
40.03112081069442
 30
0.0
 41
0.9999977732910779
 10
4.923890630330106
 20
39.99483641068686
 30
0.0
 41
0.9999999999999896
 10
2.46245150261173
 20
39.92340940558838
 30
0.0
 41
0.999905916170127
 10
-0.0000206958959144
 20
39.91952764195621
 30
0.0
 41
1.000000000000237
 10
-2.462492894403558
 20
39.92340940558838
 30
0.0
 41
0.999905916170127
 10
-4.923932022121935
 20
39.99483641068686
 30
0.0
 41
0.9999999999999896
 10
-5.934150522602569
 20
40.03112081069442
 30
0.0
 41
0.9999977732910779
 10
-6.923675152576402
 20
40.05561328133928
 30
0.0
 41
1.0
  0
SPLINE
  5
13B
330
1F
100
AcDbEntity
  8
Default
100
AcDbSpline
210
0.0
220
0.0
230
1.0
 70
    12
 71
     2
 72
     6
 73
     3
 74
     0
 42
0.0000000001
 43
0.0000000001
 40
0.0
 40
0.0
 40
0.0
 40
0.3785634867430925
 40
0.3785634867430925
 40
0.3785634867430925
 10
-6.923675152576402
 20
40.05561328133928
 30
0.0
 41
1.0
 10
-7.113413209992612
 20
40.06030963114272
 30
0.0
 41
0.9959393302338803
 10
-7.300928071738008
 20
40.03090666417518
 30
0.0
 41
1.0
  0
SPLINE
  5
13C
330
1F
100
AcDbEntity
  8
Default
100
AcDbSpline
210
0.0
220
0.0
230
1.0
 70
     8
 71
     3
 72
    11
 73
     7
 74
     0
 42
0.0000000001
 43
0.0000000001
 40
0.0
 40
0.0
 40
0.0
 40
0.0
 40
0.3325467378781747
 40
0.682399112458213
 40
1.339748098685043
 40
2.743097143419929
 40
2.743097143419929
 40
2.743097143419929
 40
2.743097143419929
 10
-7.300928071738008
 20
40.03090666417518
 30
0.0
 10
-7.41021284097585
 20
40.0135420524492
 30
0.0
 10
-7.631907932974697
 20
39.95563711724026
 30
0.0
 10
-8.035836681786849
 20
39.76327342702528
 30
0.0
 10
-8.646901808576809
 20
39.21428486716843
 30
0.0
 10
-8.828808196779546
 20
38.49948744227217
 30
0.0
 10
-8.77873952437084
 20
38.03543562074834
 30
0.0
  0
SPLINE
  5
13D
330
1F
100
AcDbEntity
  8
Default
100
AcDbSpline
210
0.0
220
0.0
230
1.0
 70
    12
 71
     3
 72
    18
 73
    14
 74
     0
 42
0.0000000001
 43
0.0000000001
 40
0.0
 40
0.0
 40
0.0
 40
0.0
 40
7.972644806918767
 40
7.972644806918767
 40
7.972644806918767
 40
8.389323015618313
 40
8.774887042536383
 40
9.635609129923907
 40
11.45866901066649
 40
11.45866901066649
 40
11.45866901066649
 40
12.45866901066649
 40
13.36258253519361
 40
13.36258253519361
 40
13.36258253519361
 40
13.36258253519361
 10
-8.77873952437084
 20
38.03543562074834
 30
0.0
 41
1.0
 10
-8.493656231439335
 20
35.39319617227699
 30
0.0
 41
0.9999803213218016
 10
-8.117720400403462
 20
32.70731915298202
 30
0.0
 41
0.9999803213218016
 10
-7.759708428091139
 20
30.07396972408962
 30
0.0
 41
1.0
 10
-7.742801399043371
 20
29.93621938053419
 30
0.0
 41
1.0
 10
-7.713829933901527
 20
29.66996397017967
 30
0.0
 41
1.0
 10
-7.700131161497216
 20
29.11569168748104
 30
0.0
 41
1.0
 10
-7.780912660593623
 20
28.09286940596113
 30
0.0
 41
1.0
 10
-8.025215205266148
 20
27.22570210853247
 30
0.0
 41
1.0
 10
-8.244211938214406
 20
26.65925386031288
 30
0.0
 41
1.0
 10
-8.359738300275524
 20
26.35620256129658
 30
0.0
 41
1.0
 10
-8.589158086748132
 20
25.78292404518651
 30
0.0
 41
1.0
 10
-8.814663003952058
 20
25.20810770726012
 30
0.0
 41
1.0
 10
-8.921492413194121
 20
24.93511331933649
 30
0.0
 41
1.0
  0
SPLINE
  5
13E
330
1F
100
AcDbEntity
  8
Default
100
AcDbSpline
210
0.0
220
0.0
230
1.0
 70
     8
 71
     3
 72
    34
 73
    30
 74
     0
 42
0.0000000001
 43
0.0000000001
 40
0.0
 40
0.0
 40
0.0
 40
0.0
 40
1.0
 40
2.0
 40
3.0
 40
4.0
 40
5.0
 40
6.0
 40
7.0
 40
8.0
 40
9.0
 40
10.0
 40
11.0
 40
12.0
 40
13.0
 40
14.0
 40
15.0
 40
16.0
 40
17.0
 40
18.0
 40
19.0
 40
20.0
 40
21.0
 40
22.0
 40
23.0
 40
24.0
 40
25.0
 40
26.0
 40
27.0
 40
27.0
 40
27.0
 40
27.0
 10
31.124129331128
 20
40.0553676466871
 30
0.0
 10
31.36869115365638
 20
39.85283612035116
 30
0.0
 10
31.53971144451548
 20
39.1970818312108
 30
0.0
 10
31.76358041432426
 20
38.26458273644748
 30
0.0
 10
31.85748278745597
 20
37.29356318748455
 30
0.0
 10
31.99152904618374
 20
36.33346244185228
 30
0.0
 10
32.13600979376347
 20
35.37337803176263
 30
0.0
 10
32.30437677162933
 20
34.41754757083339
 30
0.0
 10
32.49203102788676
 20
33.46524258124425
 30
0.0
 10
32.70043343807388
 20
32.51726787687903
 30
0.0
 10
32.93572798282964
 20
31.57550800768067
 30
0.0
 10
33.20517201578722
 20
30.64301127406924
 30
0.0
 10
33.50959043815529
 20
29.72097364143404
 30
0.0
 10
33.88333851094708
 20
28.82439624170179
 30
0.0
 10
34.32478573673482
 20
27.95938022186514
 30
0.0
 10
34.82908408984428
 20
27.12905469639634
 30
0.0
 10
35.40187741863684
 20
26.34497330970317
 30
0.0
 10
36.00412701847284
 20
25.58382197775834
 30
0.0
 10
36.62089949494511
 20
24.83437955357261
 30
0.0
 10
37.2544253853675
 20
24.09903387308185
 30
0.0
 10
37.90321291772305
 20
23.37713523619778
 30
0.0
 10
38.56562719698214
 20
22.66773090622362
 30
0.0
 10
39.24027470942898
 20
21.96995780097172
 30
0.0
 10
39.92611701946699
 20
21.28319218135192
 30
0.0
 10
40.62210646273211
 20
20.60671839707253
 30
0.0
 10
41.32725325140738
 20
19.93980182922451
 30
0.0
 10
42.04058043570655
 20
19.28164756085817
 30
0.0
 10
42.76131036705824
 20
18.63161357898172
 30
0.0
 10
43.30179892301299
 20
18.14997639017418
 30
0.0
 10
43.54755258684512
 20
17.93957539410443
 30
0.0
  0
SPLINE
  5
13F
330
1F
100
AcDbEntity
  8
Default
100
AcDbSpline
210
0.0
220
0.0
230
1.0
 70
     8
 71
     3
 72
    11
 73
     7
 74
     0
 42
0.0000000001
 43
0.0000000001
 40
0.0
 40
0.0
 40
0.0
 40
0.0
 40
1.0
 40
2.0
 40
3.0
 40
3.376205065188838
 40
3.376205065188838
 40
3.376205065188838
 40
3.376205065188838
 10
43.54755258684512
 20
17.93957539410443
 30
0.0
 10
43.81386578586956
 20
17.71157243590827
 30
0.0
 10
44.45286859358624
 20
17.26373374877796
 30
0.0
 10
45.38900380332584
 20
16.78142742173969
 30
0.0
 10
46.16243529464895
 20
16.47000045133255
 30
0.0
 10
46.61676836798886
 20
16.30740878108322
 30
0.0
 10
46.74142321494534
 20
16.26430252561432
 30
0.0
  0
SPLINE
  5
140
330
1F
100
AcDbEntity
  8
Default
100
AcDbSpline
210
0.0
220
0.0
230
1.0
 70
     8
 71
     3
 72
    18
 73
    14
 74
     0
 42
0.0000000001
 43
0.0000000001
 40
4.375139197776694
 40
4.375139197776694
 40
4.375139197776694
 40
4.375139197776694
 40
5.0
 40
6.0
 40
7.0
 40
8.0
 40
9.0
 40
10.0
 40
11.0
 40
12.0
 40
13.0
 40
14.0
 40
15.0
 40
15.0
 40
15.0
 40
15.0
 10
47.74364995901829
 20
15.94947380371042
 30
0.0
 10
47.95444569863358
 20
15.88979044598346
 30
0.0
 10
48.50533349694401
 20
15.74421400140237
 30
0.0
 10
49.40482858824081
 20
15.54848259646031
 30
0.0
 10
50.44112668009672
 20
15.3678499780658
 30
0.0
 10
51.48034919768759
 20
15.20538944632201
 30
0.0
 10
52.52258482353208
 20
15.06329265982372
 30
0.0
 10
53.56860173507167
 20
14.95125714001567
 30
0.0
 10
54.6190546449914
 20
14.88960886895301
 30
0.0
 10
55.67104917860014
 20
14.88746610504728
 30
0.0
 10
56.72282749277344
 20
14.8968486534954
 30
0.0
 10
57.77457293432045
 20
14.87601450111666
 30
0.0
 10
58.47502594260977
 20
14.84211861957736
 30
0.0
 10
58.82494443489873
 20
14.82016220262908
 30
0.0
  0
SPLINE
  5
141
330
1F
100
AcDbEntity
  8
Default
100
AcDbSpline
210
0.0
220
0.0
230
1.0
 70
     8
 71
     3
 72
     8
 73
     4
 74
     0
 42
0.0000000001
 43
0.0000000001
 40
16.64911134587975
 40
16.64911134587975
 40
16.64911134587975
 40
16.64911134587975
 40
17.0
 40
17.0
 40
17.0
 40
17.0
 10
46.54783001815364
 20
11.07230345210899
 30
0.0
 10
46.45476358294512
 20
11.06753627740025
 30
0.0
 10
46.36168563540351
 20
11.06299417812261
 30
0.0
 10
46.26859774583878
 20
11.05866892312678
 30
0.0
  0
SPLINE
  5
142
330
1F
100
AcDbEntity
  8
Default
100
AcDbSpline
210
0.0
220
0.0
230
1.0
 70
     8
 71
     3
 72
    34
 73
    30
 74
     0
 42
0.0000000001
 43
0.0000000001
 40
-27.0
 40
-27.0
 40
-27.0
 40
-27.0
 40
-26.0
 40
-25.0
 40
-24.0
 40
-23.0
 40
-22.0
 40
-21.0
 40
-20.0
 40
-19.0
 40
-18.0
 40
-17.0
 40
-16.0
 40
-15.0
 40
-14.0
 40
-13.0
 40
-12.0
 40
-11.0
 40
-10.0
 40
-9.0
 40
-8.0
 40
-7.0
 40
-6.0
 40
-5.0
 40
-4.0
 40
-3.0
 40
-2.0
 40
-1.0
 40
0.0
 40
0.0
 40
0.0
 40
0.0
 10
46.26859774583878
 20
11.05866892312678
 30
0.0
 10
45.81893169244396
 20
11.03982201682344
 30
0.0
 10
44.91894002146191
 20
10.998074746537
 30
0.0
 10
43.56994132814257
 20
10.98961483900876
 30
0.0
 10
42.21386193831953
 20
11.00947350811391
 30
0.0
 10
40.90222075051521
 20
11.37662635553689
 30
0.0
 10
39.7074706639189
 20
12.02085850027155
 30
0.0
 10
38.66733688858212
 20
12.89276059840584
 30
0.0
 10
37.80396511107225
 20
13.93648519753658
 30
0.0
 10
37.08072428619568
 20
15.07881025850165
 30
0.0
 10
36.43646672046625
 20
16.26607032691719
 30
0.0
 10
35.83694299233596
 20
17.47641036084077
 30
0.0
 10
35.27749750911203
 20
18.70574319900564
 30
0.0
 10
34.75126373751655
 20
19.94959844552174
 30
0.0
 10
34.25409984363794
 20
21.20533644496968
 30
0.0
 10
33.78350155142591
 20
22.47125107136216
 30
0.0
 10
33.33665494950227
 20
23.74573366587719
 30
0.0
 10
32.91285613992606
 20
25.02805831332784
 30
0.0
 10
32.51078163476097
 20
26.31735519643559
 30
0.0
 10
32.13070670410318
 20
27.61332011123619
 30
0.0
 10
31.77553546878125
 20
28.91633072195516
 30
0.0
 10
31.44320804809995
 20
30.2253498008848
 30
0.0
 10
31.13578717103797
 20
31.54044700331378
 30
0.0
 10
30.85145157600095
 20
32.86070769174603
 30
0.0
 10
30.59938911512828
 20
34.18764972448579
 30
0.0
 10
30.39793658999175
 20
35.52330700736078
 30
0.0
 10
30.1516570012875
 20
36.85096870330732
 30
0.0
 10
29.9583712206888
 20
38.18921616752552
 30
0.0
 10
29.97550055240314
 20
39.09420713824261
 30
0.0
 10
30.04768378777032
 20
39.5390713805964
 30
0.0
  0
SPLINE
  5
143
330
1F
100
AcDbEntity
  8
Default
100
AcDbSpline
210
0.0
220
0.0
230
1.0
 70
    12
 71
     2
 72
     6
 73
     3
 74
     0
 42
0.0000000001
 43
0.0000000001
 40
0.0
 40
0.0
 40
0.0
 40
0.4209017355309934
 40
0.4209017355309934
 40
0.4209017355309934
 10
30.04768378777032
 20
39.5390713805964
 30
0.0
 41
1.0
 10
30.08392752286405
 20
39.76262946868079
 30
0.0
 41
0.8971587373399337
 10
30.28321279149795
 20
39.87022690725171
 30
0.0
 41
1.0
  0
SPLINE
  5
144
330
1F
100
AcDbEntity
  8
Default
100
AcDbSpline
210
0.0
220
0.0
230
1.0
 70
    12
 71
     2
 72
     6
 73
     3
 74
     0
 42
0.0000000001
 43
0.0000000001
 40
0.0
 40
0.0
 40
0.0
 40
0.1234961689395858
 40
0.1234961689395858
 40
0.1234961689395858
 10
30.28321279149795
 20
39.87022690725171
 30
0.0
 41
1.0
 10
30.33786159378475
 20
39.89976470141363
 30
0.0
 41
0.9910177399897298
 10
30.39839351345881
 20
39.91372396410909
 30
0.0
 41
0.9999998701185537
  0
LINE
  5
145
330
1F
100
AcDbEntity
  8
Default
100
AcDbLine
 10
30.39839351345882
 20
39.91372396410908
 30
0.0
 11
31.02229367364433
 21
40.0428752775677
 31
0.0
  0
ARC
  5
146
330
1F
100
AcDbEntity
  8
Default
100
AcDbCircle
 10
31.16745697951038
 20
39.25970822218061
 30
0.0
 40
0.796506762063976
100
AcDbArc
 50
91.13259797477671
 51
100.5008396838767
  0
SPLINE
  5
147
330
1F
100
AcDbEntity
  8
Default
100
AcDbSpline
210
0.0
220
0.0
230
1.0
 70
     8
 71
     3
 72
    12
 73
     8
 74
     0
 42
0.0000000001
 43
0.0000000001
 40
-2.606006201869095
 40
-2.606006201869095
 40
-2.606006201869095
 40
-2.606006201869095
 40
-2.062103506473873
 40
-1.535302400419122
 40
-0.9140405444755764
 40
-0.4920948819900433
 40
0.0
 40
0.0
 40
0.0
 40
0.0
 10
31.15171300669524
 20
40.05605936918401
 30
0.0
 10
31.33073569678584
 20
40.05565724619078
 30
0.0
 10
31.69630233474127
 20
39.98302708021205
 30
0.0
 10
32.12063623662443
 20
39.58229237713657
 30
0.0
 10
32.2851502775898
 20
39.07317264956274
 30
0.0
 10
32.38229751991309
 20
38.57509043921496
 30
0.0
 10
32.41437376904695
 20
38.26923134584862
 30
0.0
 10
32.42863985280938
 20
38.1065787997763
 30
0.0
  0
SPLINE
  5
148
330
1F
100
AcDbEntity
  8
Default
100
AcDbSpline
210
0.0
220
0.0
230
1.0
 70
     8
 71
     3
 72
    15
 73
    11
 74
     0
 42
0.0000000001
 43
0.0000000001
 40
-21.83709541928446
 40
-21.83709541928446
 40
-21.83709541928446
 40
-21.83709541928446
 40
-15.86097707733612
 40
-13.51735338496346
 40
-11.52407042396374
 40
-10.56956849323673
 40
-9.591457002415686
 40
-6.705726068325542
 40
-3.609035176853501
 40
0.0
 40
0.0
 40
0.0
 40
0.0
 10
32.42863985280938
 20
38.1065787997763
 30
0.0
 10
32.58584629282624
 20
36.12110279608075
 30
0.0
 10
32.93998007069943
 20
33.36385911293597
 30
0.0
 10
33.80783801745793
 20
30.03123652610014
 30
0.0
 10
34.49033758245644
 20
28.39979876468751
 30
0.0
 10
35.13558172095669
 20
27.25921364189137
 30
0.0
 10
36.04942106948949
 20
25.93778091748514
 30
0.0
 10
37.49414023511033
 20
24.11976045492666
 30
0.0
 10
39.65135633067636
 20
21.75843735946082
 30
0.0
 10
41.24365167062761
 20
20.18871016121156
 30
0.0
 10
42.11335321477157
 20
19.35616292312001
 30
0.0
  0
SPLINE
  5
149
330
1F
100
AcDbEntity
  8
Default
100
AcDbSpline
210
0.0
220
0.0
230
1.0
 70
     8
 71
     3
 72
    12
 73
     8
 74
     0
 42
0.0000000001
 43
0.0000000001
 40
-5.412612014507102
 40
-5.412612014507102
 40
-5.412612014507102
 40
-5.412612014507102
 40
-3.494198309793693
 40
-2.478600565121187
 40
-1.284359084682002
 40
-0.6842630651034578
 40
0.0
 40
0.0
 40
0.0
 40
0.0
 10
42.11335321477157
 20
19.35616292312001
 30
0.0
 10
42.58079585735103
 20
18.91888763215157
 30
0.0
 10
43.2837001582407
 20
18.23667006690445
 30
0.0
 10
44.36601688932419
 20
17.38445746496015
 30
0.0
 10
45.18162271348022
 20
16.91650886702098
 30
0.0
 10
45.93113930241213
 20
16.57113753864833
 30
0.0
 10
46.33324607725955
 20
16.42088911827256
 30
0.0
 10
46.54699484089108
 20
16.34234423450618
 30
0.0
  0
SPLINE
  5
14A
330
1F
100
AcDbEntity
  8
Default
100
AcDbSpline
210
0.0
220
0.0
230
1.0
 70
     8
 71
     3
 72
     8
 73
     4
 74
     0
 42
0.0000000001
 43
0.0000000001
 40
-1.0
 40
-1.0
 40
-1.0
 40
-1.0
 40
-0.7157957105852404
 40
-0.7157957105852404
 40
-0.7157957105852404
 40
-0.7157957105852404
 10
46.54699484089108
 20
16.34234423450618
 30
0.0
 10
46.61159789129026
 20
16.31860496697383
 30
0.0
 10
46.67642600822942
 20
16.29548413422192
 30
0.0
 10
46.74142365745642
 20
16.27284007818666
 30
0.0
  0
SPLINE
  5
14B
330
1F
100
AcDbEntity
  8
Default
100
AcDbSpline
210
0.0
220
0.0
230
1.0
 70
    12
 71
     2
 72
     6
 73
     3
 74
     0
 42
0.0000000001
 43
0.0000000001
 40
-1.145577192277901
 40
-1.145577192277901
 40
-1.145577192277901
 40
0.0
 40
0.0
 40
0.0
 10
47.74367008717061
 20
15.95823929528653
 30
0.0
 41
0.998658093227824
 10
48.29756178288036
 20
15.80951522220326
 30
0.0
 41
0.9978806777620084
 10
48.86444295102022
 20
15.72114652515621
 30
0.0
 41
1.0
  0
SPLINE
  5
14C
330
1F
100
AcDbEntity
  8
Default
100
AcDbSpline
210
0.0
220
0.0
230
1.0
 70
     8
 71
     3
 72
    12
 73
     8
 74
     0
 42
0.0000000001
 43
0.0000000001
 40
-6.331181159550773
 40
-6.331181159550773
 40
-6.331181159550773
 40
-6.331181159550773
 40
-4.733676321125997
 40
-2.795445328871188
 40
-1.366340297010643
 40
-0.6888967342434948
 40
0.0
 40
0.0
 40
0.0
 40
0.0
 10
48.86444295102022
 20
15.72114652515621
 30
0.0
 10
49.3917575793812
 20
15.6430364947114
 30
0.0
 10
50.56345018477618
 20
15.51456856627376
 30
0.0
 10
52.21289270848798
 20
15.37729836060721
 30
0.0
 10
53.55989308079004
 20
15.31321528863368
 30
0.0
 10
54.49184579742188
 20
15.30595132388311
 30
0.0
 10
54.9472089084023
 20
15.31160450999011
 30
0.0
 10
55.17679214887398
 20
15.31753388959986
 30
0.0
  0
SPLINE
  5
14D
330
1F
100
AcDbEntity
  8
Default
100
AcDbSpline
210
0.0
220
0.0
230
1.0
 70
     8
 71
     3
 72
     8
 73
     4
 74
     0
 42
0.0000000001
 43
0.0000000001
 40
-1.0
 40
-1.0
 40
-1.0
 40
-1.0
 40
0.0
 40
0.0
 40
0.0
 40
0.0
 10
55.17679214887398
 20
15.31753388959986
 30
0.0
 10
55.53695290444933
 20
15.32683565673215
 30
0.0
 10
55.89735646639375
 20
15.3255079850161
 30
0.0
 10
56.25746652620182
 20
15.33660021443255
 30
0.0
  0
SPLINE
  5
14E
330
1F
100
AcDbEntity
  8
Default
100
AcDbSpline
210
0.0
220
0.0
230
1.0
 70
     8
 71
     3
 72
    14
 73
    10
 74
     0
 42
0.0000000001
 43
0.0000000001
 40
-7.0
 40
-7.0
 40
-7.0
 40
-7.0
 40
-6.0
 40
-5.0
 40
-4.0
 40
-3.0
 40
-2.0
 40
-1.0
 40
0.0
 40
0.0
 40
0.0
 40
0.0
 10
56.25746652620182
 20
15.33660021443255
 30
0.0
 10
56.39101935021417
 20
15.3407139527823
 30
0.0
 10
56.65816532950726
 20
15.34611769249771
 30
0.0
 10
57.05915647783682
 20
15.34453279251037
 30
0.0
 10
57.45936109746832
 20
15.33136358322333
 30
0.0
 10
57.86115487728882
 20
15.30682037958572
 30
0.0
 10
58.25365870026975
 20
15.26334697532395
 30
0.0
 10
58.67475650119335
 20
15.22244581453408
 30
0.0
 10
58.81949759151252
 20
14.95176343594656
 30
0.0
 10
58.82494468774981
 20
14.8201624148699
 30
0.0
  0
SPLINE
  5
14F
330
1F
100
AcDbEntity
  8
Default
100
AcDbSpline
210
0.0
220
0.0
230
1.0
 70
     8
 71
     3
 72
    23
 73
    19
 74
     0
 42
0.0000000001
 43
0.0000000001
 40
0.0
 40
0.0
 40
0.0
 40
0.0
 40
1.0
 40
2.0
 40
3.0
 40
4.0
 40
5.0
 40
6.0
 40
7.0
 40
8.0
 40
9.0
 40
10.0
 40
11.0
 40
12.0
 40
13.0
 40
14.0
 40
15.0
 40
15.34240844852387
 40
15.34240844852387
 40
15.34240844852387
 40
15.34240844852387
 10
58.82494468774981
 20
14.8201624148699
 30
0.0
 10
58.83664002273884
 20
14.54297849658726
 30
0.0
 10
58.50818469731366
 20
14.09004045533194
 30
0.0
 10
57.85010109513238
 20
13.64249207930861
 30
0.0
 10
57.13547323473907
 20
13.28577222805707
 30
0.0
 10
56.40065011040651
 20
12.97807661203485
 30
0.0
 10
55.65252374037555
 20
12.70337264104628
 30
0.0
 10
54.89669723868602
 20
12.45117151856344
 30
0.0
 10
54.13283024446725
 20
12.2242551627367
 30
0.0
 10
53.36220269179339
 20
12.02165973141962
 30
0.0
 10
52.58671737749078
 20
11.83860335542163
 30
0.0
 10
51.80661714239475
 20
11.67630414467955
 30
0.0
 10
51.02254939751192
 20
11.53437215729529
 30
0.0
 10
50.23493054165541
 20
11.41382532934597
 30
0.0
 10
49.44507163389259
 20
11.30906499864909
 30
0.0
 10
48.65299257119836
 20
11.22256891089065
 30
0.0
 10
48.0332301559144
 20
11.16836232895654
 30
0.0
 10
47.67769662454323
 20
11.14193758016585
 30
0.0
 10
47.58699073175475
 20
11.13547429982401
 30
0.0
  0
SPLINE
  5
150
330
1F
100
AcDbEntity
  8
Default
100
AcDbSpline
210
0.0
220
0.0
230
1.0
 70
    24
 71
     2
 72
     6
 73
     3
 74
     0
 42
0.0000000001
 43
0.0000000001
 40
0.0
 40
0.0
 40
0.0
 40
1.314822148069673
 40
1.314822148069673
 40
1.314822148069673
 10
58.32528813103499
 20
15.2549312018891
 30
0.0
 10
58.26364874878104
 20
15.90944621838527
 30
0.0
 10
58.2020093665271
 20
16.56396123488145
 30
0.0
  0
SPLINE
  5
151
330
1F
100
AcDbEntity
  8
Default
100
AcDbSpline
210
0.0
220
0.0
230
1.0
 70
    12
 71
     2
 72
     6
 73
     3
 74
     0
 42
0.0000000001
 43
0.0000000001
 40
0.0
 40
0.0
 40
0.0
 40
0.3467243252475387
 40
0.3467243252475387
 40
0.3467243252475387
 10
58.2020093665271
 20
16.56396123488145
 30
0.0
 41
1.0
 10
58.16151189529512
 20
16.7745039730436
 30
0.0
 41
0.7690462387954616
 10
57.954401443911
 20
16.79126571039649
 30
0.0
 41
1.0
  0
SPLINE
  5
152
330
1F
100
AcDbEntity
  8
Default
100
AcDbSpline
210
0.0
220
0.0
230
1.0
 70
    12
 71
     3
 72
    16
 73
    12
 74
     0
 42
0.0000000001
 43
0.0000000001
 40
-7.642831826985982
 40
-7.642831826985982
 40
-7.642831826985982
 40
-7.642831826985982
 40
-7.207258297971308
 40
-6.573307433294788
 40
-4.800874885716957
 40
-2.543891929489456
 40
-1.298549380639849
 40
0.0
 40
0.0
 40
0.0
 40
2.565767109389225
 40
2.565767109389225
 40
2.565767109389225
 40
2.565767109389225
 10
57.954401443911
 20
16.79126571039649
 30
0.0
 41
1.0
 10
57.80966464214635
 20
16.80297946139391
 30
0.0
 41
1.0
 10
57.4319398780873
 20
16.81401989551494
 30
0.0
 41
1.0
 10
56.48455570826352
 20
16.80932175174696
 30
0.0
 41
1.0
 10
54.93080381739362
 20
16.75823401127977
 30
0.0
 41
1.0
 10
53.17475129425704
 20
16.67009611069079
 30
0.0
 41
1.0
 10
51.57735134122206
 20
16.57337278491907
 30
0.0
 41
1.0
 10
50.73129261741361
 20
16.51674505953095
 30
0.0
 41
1.0
 10
50.29950871159269
 20
16.48629758007642
 30
0.0
 41
1.0
 10
49.44631921284566
 20
16.42613445360571
 30
0.0
 41
0.9998291374623657
 10
48.59448645301534
 20
16.34893042683231
 30
0.0
 41
0.9997914325288414
 10
47.74435090811006
 20
16.2547144163588
 30
0.0
 41
0.9998868851994271
  0
ENDSEC
  0
SECTION
  2
OBJECTS
  0
DICTIONARY
  5
C
330
0
100
AcDbDictionary
281
     1
  3
ACAD_GROUP
350
D
  3
ACAD_LAYOUT
350
1A
  3
ACAD_MLEADERSTYLE
350
154
  3
ACAD_MLINESTYLE
350
17
  3
ACAD_PLOTSETTINGS
350
19
  3
ACAD_PLOTSTYLENAME
350
E
  3
ACAD_TABLESTYLE
350
153
  3
ACAD_VISUALSTYLE
350
2A
  0
DICTIONARY
  5
D
102
{ACAD_REACTORS
330
C
102
}
330
C
100
AcDbDictionary
281
     1
  0
DICTIONARY
  5
1A
102
{ACAD_REACTORS
330
C
102
}
330
C
100
AcDbDictionary
281
     1
  3
Layout1
350
1E
  3
Layout2
350
26
  3
Model
350
22
  0
DICTIONARY
  5
154
102
{ACAD_REACTORS
330
C
102
}
330
C
100
AcDbDictionary
281
     1
  0
DICTIONARY
  5
17
102
{ACAD_REACTORS
330
C
102
}
330
C
100
AcDbDictionary
281
     1
  3
Standard
350
18
  0
DICTIONARY
  5
19
102
{ACAD_REACTORS
330
C
102
}
330
C
100
AcDbDictionary
281
     1
  0
ACDBDICTIONARYWDFLT
  5
E
102
{ACAD_REACTORS
330
C
102
}
330
C
100
AcDbDictionary
281
     1
  3
Normal
350
F
100
AcDbDictionaryWithDefault
340
F
  0
DICTIONARY
  5
153
102
{ACAD_REACTORS
330
C
102
}
330
C
100
AcDbDictionary
281
     1
  0
DICTIONARY
  5
2A
102
{ACAD_REACTORS
330
C
102
}
330
C
100
AcDbDictionary
281
     1
  3
2dWireframe
350
2F
  3
3D Hidden
350
31
  3
3dWireframe
350
30
  3
Basic
350
32
  3
Brighten
350
36
  3
ColorChange
350
3A
  3
Conceptual
350
34
  3
Dim
350
35
  3
Facepattern
350
39
  3
Flat
350
2B
  3
FlatWithEdges
350
2C
  3
Gouraud
350
2D
  3
GouraudWithEdges
350
2E
  3
Linepattern
350
38
  3
Realistic
350
33
  3
Thicken
350
37
  0
LAYOUT
  5
1E
102
{ACAD_REACTORS
330
1A
102
}
330
1A
100
AcDbPlotSettings
  1

  2
none_device
  4

  6

 40
0.0
 41
0.0
 42
0.0
 43
0.0
 44
0.0
 45
0.0
 46
0.0
 47
0.0
 48
0.0
 49
0.0
140
0.0
141
0.0
142
1.0
143
1.0
 70
   688
 72
     0
 73
     0
 74
     5
  7

 75
    16
 76
     0
 77
     2
 78
   300
147
1.0
148
0.0
149
0.0
100
AcDbLayout
  1
Layout1
 70
     1
 71
     1
 10
0.0
 20
0.0
 11
12.0
 21
9.0
 12
0.0
 22
0.0
 32
0.0
 14
1.000000000000000E+20
 24
1.000000000000000E+20
 34
1.000000000000000E+20
 15
-1.000000000000000E+20
 25
-1.000000000000000E+20
 35
-1.000000000000000E+20
146
0.0
 13
0.0
 23
0.0
 33
0.0
 16
1.0
 26
0.0
 36
0.0
 17
0.0
 27
1.0
 37
0.0
 76
     0
330
1B
  0
LAYOUT
  5
26
102
{ACAD_REACTORS
330
1A
102
}
330
1A
100
AcDbPlotSettings
  1

  2
none_device
  4

  6

 40
0.0
 41
0.0
 42
0.0
 43
0.0
 44
0.0
 45
0.0
 46
0.0
 47
0.0
 48
0.0
 49
0.0
140
0.0
141
0.0
142
1.0
143
1.0
 70
   688
 72
     0
 73
     0
 74
     5
  7

 75
    16
 76
     0
 77
     2
 78
   300
147
1.0
148
0.0
149
0.0
100
AcDbLayout
  1
Layout2
 70
     1
 71
     2
 10
0.0
 20
0.0
 11
0.0
 21
0.0
 12
0.0
 22
0.0
 32
0.0
 14
0.0
 24
0.0
 34
0.0
 15
0.0
 25
0.0
 35
0.0
146
0.0
 13
0.0
 23
0.0
 33
0.0
 16
1.0
 26
0.0
 36
0.0
 17
0.0
 27
1.0
 37
0.0
 76
     0
330
23
  0
LAYOUT
  5
22
102
{ACAD_REACTORS
330
1A
102
}
330
1A
100
AcDbPlotSettings
  1

  2
none_device
  4

  6

 40
0.0
 41
0.0
 42
0.0
 43
0.0
 44
0.0
 45
0.0
 46
0.0
 47
0.0
 48
0.0
 49
0.0
140
0.0
141
0.0
142
1.0
143
1.0
 70
  1712
 72
     0
 73
     0
 74
     0
  7

 75
     0
 76
     0
 77
     2
 78
   300
147
1.0
148
0.0
149
0.0
100
AcDbLayout
  1
Model
 70
     1
 71
     0
 10
0.0
 20
0.0
 11
12.0
 21
9.0
 12
0.0
 22
0.0
 32
0.0
 14
-24.5464521279639
 24
0.0000000000000034
 34
0.0
 15
61.37891704431638
 25
78.80665130773036
 35
0.0
146
0.0
 13
0.0
 23
0.0
 33
0.0
 16
1.0
 26
0.0
 36
0.0
 17
0.0
 27
1.0
 37
0.0
 76
     0
330
1F
331
29
  0
MLINESTYLE
  5
18
102
{ACAD_REACTORS
330
17
102
}
330
17
100
AcDbMlineStyle
  2
Standard
 70
     0
  3

 62
   256
 51
90.0
 52
90.0
 71
     2
 49
0.5
 62
   256
  6
BYLAYER
 49
-0.5
 62
   256
  6
BYLAYER
  0
ACDBPLACEHOLDER
  5
F
102
{ACAD_REACTORS
330
E
102
}
330
E
  0
VISUALSTYLE
  5
2F
102
{ACAD_REACTORS
330
2A
102
}
330
2A
100
AcDbVisualStyle
  2
2dWireframe
 70
     4
 71
     0
 72
     2
 73
     0
 90
        0
 40
-0.6
 41
-30.0
 62
     5
 63
     7
421
 16777215
 74
     1
 91
        4
 64
     7
 65
   257
 75
     1
175
     1
 42
1.0
 92
        0
 66
   257
 43
1.0
 76
     1
 77
     6
 78
     2
 67
     7
 79
     5
170
     0
171
     0
290
     0
174
     0
 93
        1
 44
0.0
173
     0
291
     0
 45
0.0
1001
ACAD
1000
AcDbSavedByObjectVersion
1070
     0
  0
VISUALSTYLE
  5
31
102
{ACAD_REACTORS
330
2A
102
}
330
2A
100
AcDbVisualStyle
  2
3D Hidden
 70
     6
 71
     1
 72
     2
 73
     2
 90
        0
 40
-0.6
 41
-30.0
 62
     5
 63
     7
421
 16777215
 74
     2
 91
        2
 64
     7
 65
   257
 75
     2
175
     1
 42
40.0
 92
        0
 66
   257
 43
1.0
 76
     1
 77
     6
 78
     2
 67
     7
 79
     3
170
     0
171
     0
290
     0
174
     0
 93
        1
 44
0.0
173
     0
291
     0
 45
0.0
1001
ACAD
1000
AcDbSavedByObjectVersion
1070
     0
  0
VISUALSTYLE
  5
30
102
{ACAD_REACTORS
330
2A
102
}
330
2A
100
AcDbVisualStyle
  2
3dWireframe
 70
     5
 71
     0
 72
     2
 73
     0
 90
        0
 40
-0.6
 41
-30.0
 62
     5
 63
     7
421
 16777215
 74
     1
 91
        4
 64
     7
 65
   257
 75
     1
175
     1
 42
1.0
 92
        0
 66
   257
 43
1.0
 76
     1
 77
     6
 78
     2
 67
     7
 79
     5
170
     0
171
     0
290
     0
174
     0
 93
        1
 44
0.0
173
     0
291
     0
 45
0.0
1001
ACAD
1000
AcDbSavedByObjectVersion
1070
     0
  0
VISUALSTYLE
  5
32
102
{ACAD_REACTORS
330
2A
102
}
330
2A
100
AcDbVisualStyle
  2
Basic
 70
     7
 71
     1
 72
     0
 73
     1
 90
        0
 40
-0.6
 41
-30.0
 62
     5
 63
     7
421
 16777215
 74
     0
 91
        4
 64
     7
 65
   257
 75
     1
175
     1
 42
1.0
 92
        8
 66
     7
 43
1.0
 76
     1
 77
     6
 78
     2
 67
     7
 79
     5
170
     0
171
     0
290
     0
174
     0
 93
        1
 44
0.0
173
     0
291
     1
 45
0.0
1001
ACAD
1000
AcDbSavedByObjectVersion
1070
     0
  0
VISUALSTYLE
  5
36
102
{ACAD_REACTORS
330
2A
102
}
330
2A
100
AcDbVisualStyle
  2
Brighten
 70
    12
 71
     2
 72
     2
 73
     0
 90
        0
 40
-0.6
 41
-30.0
 62
     5
 63
     7
421
 16777215
 74
     1
 91
        4
 64
     7
 65
   257
 75
     1
175
     1
 42
1.0
 92
        8
 66
     7
 43
1.0
 76
     1
 77
     6
 78
     2
 67
     7
 79
     5
170
     0
171
     0
290
     0
174
     0
 93
        1
 44
50.0
173
     0
291
     1
 45
0.0
1001
ACAD
1000
AcDbSavedByObjectVersion
1070
     0
  0
VISUALSTYLE
  5
3A
102
{ACAD_REACTORS
330
2A
102
}
330
2A
100
AcDbVisualStyle
  2
ColorChange
 70
    16
 71
     2
 72
     2
 73
     3
 90
        0
 40
-0.6
 41
-30.0
 62
     5
 63
     8
421
  8421504
 74
     1
 91
        4
 64
     7
 65
   257
 75
     1
175
     1
 42
1.0
 92
        8
 66
     8
424
  8421504
 43
1.0
 76
     1
 77
     6
 78
     2
 67
     7
 79
     5
170
     0
171
     0
290
     0
174
     0
 93
        1
 44
0.0
173
     0
291
     1
 45
0.0
1001
ACAD
1000
AcDbSavedByObjectVersion
1070
     0
  0
VISUALSTYLE
  5
34
102
{ACAD_REACTORS
330
2A
102
}
330
2A
100
AcDbVisualStyle
  2
Conceptual
 70
     9
 71
     3
 72
     2
 73
     0
 90
        0
 40
-0.6
 41
-30.0
 62
     5
 63
     7
421
 16777215
 74
     2
 91
        2
 64
     7
 65
   257
 75
     1
175
     1
 42
40.0
 92
        8
 66
     7
 43
1.0
 76
     1
 77
     6
 78
     2
 67
     7
 79
     3
170
     0
171
     0
290
     0
174
     0
 93
        1
 44
0.0
173
     0
291
     0
 45
0.0
1001
ACAD
1000
AcDbSavedByObjectVersion
1070
     0
  0
VISUALSTYLE
  5
35
102
{ACAD_REACTORS
330
2A
102
}
330
2A
100
AcDbVisualStyle
  2
Dim
 70
    11
 71
     2
 72
     2
 73
     0
 90
        0
 40
-0.6
 41
-30.0
 62
     5
 63
     7
421
 16777215
 74
     1
 91
        4
 64
     7
 65
   257
 75
     1
175
     1
 42
1.0
 92
        8
 66
     7
 43
1.0
 76
     1
 77
     6
 78
     2
 67
     7
 79
     5
170
     0
171
     0
290
     0
174
     0
 93
        1
 44
-50.0
173
     0
291
     1
 45
0.0
1001
ACAD
1000
AcDbSavedByObjectVersion
1070
     0
  0
VISUALSTYLE
  5
39
102
{ACAD_REACTORS
330
2A
102
}
330
2A
100
AcDbVisualStyle
  2
Facepattern
 70
    15
 71
     2
 72
     2
 73
     0
 90
        0
 40
-0.6
 41
-30.0
 62
     5
 63
     7
421
 16777215
 74
     1
 91
        4
 64
     7
 65
   257
 75
     1
175
     1
 42
1.0
 92
        8
 66
     7
 43
1.0
 76
     1
 77
     6
 78
     2
 67
     7
 79
     5
170
     0
171
     0
290
     0
174
     0
 93
        1
 44
0.0
173
     0
291
     1
 45
0.0
1001
ACAD
1000
AcDbSavedByObjectVersion
1070
     0
  0
VISUALSTYLE
  5
2B
102
{ACAD_REACTORS
330
2A
102
}
330
2A
100
AcDbVisualStyle
  2
Flat
 70
     0
 71
     2
 72
     1
 73
     1
 90
        2
 40
-0.6
 41
30.0
 62
     5
 63
     7
421
 16777215
 74
     0
 91
        4
 64
     7
 65
   257
 75
     1
175
     1
 42
1.0
 92
        8
 66
     7
 43
1.0
 76
     1
 77
     6
 78
     2
 67
     7
 79
     5
170
     0
171
     0
290
     0
174
     0
 93
       13
 44
0.0
173
     0
291
     1
 45
0.0
1001
ACAD
1000
AcDbSavedByObjectVersion
1070
     0
  0
VISUALSTYLE
  5
2C
102
{ACAD_REACTORS
330
2A
102
}
330
2A
100
AcDbVisualStyle
  2
FlatWithEdges
 70
     1
 71
     2
 72
     1
 73
     1
 90
        2
 40
-0.6
 41
30.0
 62
     5
 63
     7
421
 16777215
 74
     1
 91
        4
 64
     7
 65
   257
 75
     1
175
     1
 42
1.0
 92
        0
 66
   257
 43
1.0
 76
     1
 77
     6
 78
     2
 67
     7
 79
     5
170
     0
171
     0
290
     0
174
     0
 93
       13
 44
0.0
173
     0
291
     1
 45
0.0
1001
ACAD
1000
AcDbSavedByObjectVersion
1070
     0
  0
VISUALSTYLE
  5
2D
102
{ACAD_REACTORS
330
2A
102
}
330
2A
100
AcDbVisualStyle
  2
Gouraud
 70
     2
 71
     2
 72
     2
 73
     1
 90
        2
 40
-0.6
 41
30.0
 62
     5
 63
     7
421
 16777215
 74
     0
 91
        4
 64
     7
 65
   257
 75
     1
175
     1
 42
1.0
 92
        0
 66
     7
 43
1.0
 76
     1
 77
     6
 78
     2
 67
     7
 79
     5
170
     0
171
     0
290
     0
174
     0
 93
       13
 44
0.0
173
     0
291
     1
 45
0.0
1001
ACAD
1000
AcDbSavedByObjectVersion
1070
     0
  0
VISUALSTYLE
  5
2E
102
{ACAD_REACTORS
330
2A
102
}
330
2A
100
AcDbVisualStyle
  2
GouraudWithEdges
 70
     3
 71
     2
 72
     2
 73
     1
 90
        2
 40
-0.6
 41
30.0
 62
     5
 63
     7
421
 16777215
 74
     1
 91
        4
 64
     7
 65
   257
 75
     1
175
     1
 42
1.0
 92
        0
 66
   257
 43
1.0
 76
     1
 77
     6
 78
     2
 67
     7
 79
     5
170
     0
171
     0
290
     0
174
     0
 93
       13
 44
0.0
173
     0
291
     1
 45
0.0
1001
ACAD
1000
AcDbSavedByObjectVersion
1070
     0
  0
VISUALSTYLE
  5
38
102
{ACAD_REACTORS
330
2A
102
}
330
2A
100
AcDbVisualStyle
  2
Linepattern
 70
    14
 71
     2
 72
     2
 73
     0
 90
        0
 40
-0.6
 41
-30.0
 62
     5
 63
     7
421
 16777215
 74
     1
 91
        4
 64
     7
 65
   257
 75
     7
175
     7
 42
1.0
 92
        8
 66
     7
 43
1.0
 76
     1
 77
     6
 78
     2
 67
     7
 79
     5
170
     0
171
     0
290
     0
174
     0
 93
        1
 44
0.0
173
     0
291
     1
 45
0.0
1001
ACAD
1000
AcDbSavedByObjectVersion
1070
     0
  0
VISUALSTYLE
  5
33
102
{ACAD_REACTORS
330
2A
102
}
330
2A
100
AcDbVisualStyle
  2
Realistic
 70
     8
 71
     2
 72
     2
 73
     0
 90
        0
 40
-0.6
 41
-30.0
 62
     5
 63
     7
421
 16777215
 74
     1
 91
        0
 64
     7
 65
   257
 75
     1
175
     1
 42
1.0
 92
        8
 66
     8
424
  7895160
 43
1.0
 76
     1
 77
     6
 78
     2
 67
     7
 79
     5
170
     0
171
     0
290
     0
174
     0
 93
       13
 44
0.0
173
     0
291
     0
 45
0.0
1001
ACAD
1000
AcDbSavedByObjectVersion
1070
     0
  0
VISUALSTYLE
  5
37
102
{ACAD_REACTORS
330
2A
102
}
330
2A
100
AcDbVisualStyle
  2
Thicken
 70
    13
 71
     2
 72
     2
 73
     0
 90
        0
 40
-0.6
 41
-30.0
 62
     5
 63
     7
421
 16777215
 74
     1
 91
        4
 64
     7
 65
   257
 75
     1
175
     1
 42
1.0
 92
       12
 66
     7
 43
1.0
 76
     1
 77
     6
 78
     2
 67
     7
 79
     5
170
     0
171
     0
290
     0
174
     0
 93
        1
 44
0.0
173
     0
291
     1
 45
0.0
1001
ACAD
1000
AcDbSavedByObjectVersion
1070
     0
  0
ENDSEC
  0
EOF
