  0
SECTION
  2
HEADER
  9
$ACADVER
  1
AC1018
  9
$ACADMAINTVER
 70
     0
  9
$DWGCODEPAGE
  3
ANSI_1252
  9
$INSBASE
 10
0.0
 20
0.0
 30
0.0
  9
$EXTMIN
 10
-13.96729270185218
 20
-0.0017796313076643
 30
0.0
  9
$EXTMAX
 10
46.74112591740185
 20
74.47830213381039
 30
0.0
  9
$LIMMIN
 10
0.0
 20
0.0
  9
$LIMMAX
 10
12.0
 20
9.0
  9
$ORTHOMODE
 70
     0
  9
$REGENMODE
 70
     1
  9
$FILLMODE
 70
     1
  9
$QTEXTMODE
 70
     0
  9
$MIRRTEXT
 70
     1
  9
$LTSCALE
 40
0.0393700787401575
  9
$ATTMODE
 70
     1
  9
$TEXTSIZE
 40
0.2
  9
$TRACEWID
 40
0.05
  9
$TEXTSTYLE
  7
Standard
  9
$CLAYER
  8
Default
  9
$CELTYPE
  6
ByLayer
  9
$CECOLOR
 62
   256
  9
$CELTSCALE
 40
1.0
  9
$DISPSILH
 70
     0
  9
$DIMSCALE
 40
1.0
  9
$DIMASZ
 40
0.18
  9
$DIMEXO
 40
0.0625
  9
$DIMDLI
 40
0.38
  9
$DIMRND
 40
0.0
  9
$DIMDLE
 40
0.0
  9
$DIMEXE
 40
0.18
  9
$DIMTP
 40
0.0
  9
$DIMTM
 40
0.0
  9
$DIMTXT
 40
0.18
  9
$DIMCEN
 40
0.09
  9
$DIMTSZ
 40
0.0
  9
$DIMTOL
 70
     0
  9
$DIMLIM
 70
     0
  9
$DIMTIH
 70
     1
  9
$DIMTOH
 70
     1
  9
$DIMSE1
 70
     0
  9
$DIMSE2
 70
     0
  9
$DIMTAD
 70
     0
  9
$DIMZIN
 70
     0
  9
$DIMBLK
  1

  9
$DIMASO
 70
     1
  9
$DIMSHO
 70
     1
  9
$DIMPOST
  1

  9
$DIMAPOST
  1

  9
$DIMALT
 70
     0
  9
$DIMALTD
 70
     2
  9
$DIMALTF
 40
25.4
  9
$DIMLFAC
 40
1.0
  9
$DIMTOFL
 70
     0
  9
$DIMTVP
 40
0.0
  9
$DIMTIX
 70
     0
  9
$DIMSOXD
 70
     0
  9
$DIMSAH
 70
     0
  9
$DIMBLK1
  1

  9
$DIMBLK2
  1

  9
$DIMSTYLE
  2
Standard
  9
$DIMCLRD
 70
     0
  9
$DIMCLRE
 70
     0
  9
$DIMCLRT
 70
     0
  9
$DIMTFAC
 40
1.0
  9
$DIMGAP
 40
0.09
  9
$DIMJUST
 70
     0
  9
$DIMSD1
 70
     0
  9
$DIMSD2
 70
     0
  9
$DIMTOLJ
 70
     1
  9
$DIMTZIN
 70
     0
  9
$DIMALTZ
 70
     0
  9
$DIMALTTZ
 70
     0
  9
$DIMUPT
 70
     0
  9
$DIMDEC
 70
     4
  9
$DIMTDEC
 70
     4
  9
$DIMALTU
 70
     2
  9
$DIMALTTD
 70
     2
  9
$DIMTXSTY
  7
Standard
  9
$DIMAUNIT
 70
     0
  9
$DIMADEC
 70
     0
  9
$DIMALTRND
 40
0.0
  9
$DIMAZIN
 70
     0
  9
$DIMDSEP
 70
    46
  9
$DIMATFIT
 70
     3
  9
$DIMFRAC
 70
     0
  9
$DIMLDRBLK
  1

  9
$DIMLUNIT
 70
     2
  9
$DIMLWD
 70
    -2
  9
$DIMLWE
 70
    -2
  9
$DIMTMOVE
 70
     2
  9
$LUNITS
 70
     2
  9
$LUPREC
 70
     3
  9
$SKETCHINC
 40
0.1
  9
$FILLETRAD
 40
0.5
  9
$AUNITS
 70
     0
  9
$AUPREC
 70
     0
  9
$MENU
  1
.
  9
$ELEVATION
 40
0.0
  9
$PELEVATION
 40
0.0
  9
$THICKNESS
 40
0.0
  9
$LIMCHECK
 70
     0
  9
$CHAMFERA
 40
0.5
  9
$CHAMFERB
 40
0.5
  9
$CHAMFERC
 40
1.0
  9
$CHAMFERD
 40
0.0
  9
$SKPOLY
 70
     0
  9
$TDCREATE
 40
2456338.480053727
  9
$TDUCREATE
 40
2456338.68838706
  9
$TDUPDATE
 40
2456338.480053738
  9
$TDUUPDATE
 40
2456338.688387072
  9
$TDINDWG
 40
0.0000000116
  9
$TDUSRTIMER
 40
0.0000000116
  9
$USRTIMER
 70
     1
  9
$ANGBASE
 50
0.0
  9
$ANGDIR
 70
     0
  9
$PDMODE
 70
     0
  9
$PDSIZE
 40
0.0
  9
$PLINEWID
 40
0.0
  9
$SPLFRAME
 70
     0
  9
$SPLINETYPE
 70
     6
  9
$SPLINESEGS
 70
     8
  9
$HANDSEED
  5
EE
  9
$SURFTAB1
 70
     6
  9
$SURFTAB2
 70
     6
  9
$SURFTYPE
 70
     6
  9
$SURFU
 70
     6
  9
$SURFV
 70
     6
  9
$UCSBASE
  2

  9
$UCSNAME
  2

  9
$UCSORG
 10
0.0
 20
0.0
 30
0.0
  9
$UCSXDIR
 10
1.0
 20
0.0
 30
0.0
  9
$UCSYDIR
 10
0.0
 20
1.0
 30
0.0
  9
$UCSORTHOREF
  2

  9
$UCSORTHOVIEW
 70
     0
  9
$UCSORGTOP
 10
0.0
 20
0.0
 30
0.0
  9
$UCSORGBOTTOM
 10
0.0
 20
0.0
 30
0.0
  9
$UCSORGLEFT
 10
0.0
 20
0.0
 30
0.0
  9
$UCSORGRIGHT
 10
0.0
 20
0.0
 30
0.0
  9
$UCSORGFRONT
 10
0.0
 20
0.0
 30
0.0
  9
$UCSORGBACK
 10
0.0
 20
0.0
 30
0.0
  9
$PUCSBASE
  2

  9
$PUCSNAME
  2

  9
$PUCSORG
 10
0.0
 20
0.0
 30
0.0
  9
$PUCSXDIR
 10
1.0
 20
0.0
 30
0.0
  9
$PUCSYDIR
 10
0.0
 20
1.0
 30
0.0
  9
$PUCSORTHOREF
  2

  9
$PUCSORTHOVIEW
 70
     0
  9
$PUCSORGTOP
 10
0.0
 20
0.0
 30
0.0
  9
$PUCSORGBOTTOM
 10
0.0
 20
0.0
 30
0.0
  9
$PUCSORGLEFT
 10
0.0
 20
0.0
 30
0.0
  9
$PUCSORGRIGHT
 10
0.0
 20
0.0
 30
0.0
  9
$PUCSORGFRONT
 10
0.0
 20
0.0
 30
0.0
  9
$PUCSORGBACK
 10
0.0
 20
0.0
 30
0.0
  9
$USERI1
 70
     0
  9
$USERI2
 70
     0
  9
$USERI3
 70
     0
  9
$USERI4
 70
     0
  9
$USERI5
 70
     0
  9
$USERR1
 40
0.0
  9
$USERR2
 40
0.0
  9
$USERR3
 40
0.0
  9
$USERR4
 40
0.0
  9
$USERR5
 40
0.0
  9
$WORLDVIEW
 70
     1
  9
$SHADEDGE
 70
     3
  9
$SHADEDIF
 70
    70
  9
$TILEMODE
 70
     1
  9
$MAXACTVP
 70
    64
  9
$PINSBASE
 10
0.0
 20
0.0
 30
0.0
  9
$PLIMCHECK
 70
     0
  9
$PEXTMIN
 10
1.000000000000000E+20
 20
1.000000000000000E+20
 30
1.000000000000000E+20
  9
$PEXTMAX
 10
-1.000000000000000E+20
 20
-1.000000000000000E+20
 30
-1.000000000000000E+20
  9
$PLIMMIN
 10
0.0
 20
0.0
  9
$PLIMMAX
 10
12.0
 20
9.0
  9
$UNITMODE
 70
     0
  9
$VISRETAIN
 70
     1
  9
$PLINEGEN
 70
     0
  9
$PSLTSCALE
 70
     1
  9
$TREEDEPTH
 70
  3020
  9
$CMLSTYLE
  2
Standard
  9
$CMLJUST
 70
     0
  9
$CMLSCALE
 40
1.0
  9
$PROXYGRAPHICS
 70
     1
  9
$MEASUREMENT
 70
     0
  9
$CELWEIGHT
370
    -1
  9
$ENDCAPS
280
     0
  9
$JOINSTYLE
280
     0
  9
$LWDISPLAY
290
     0
  9
$INSUNITS
 70
     1
  9
$HYPERLINKBASE
  1

  9
$STYLESHEET
  1

  9
$XEDIT
290
     1
  9
$CEPSNTYPE
380
     0
  9
$PSTYLEMODE
290
     1
  9
$FINGERPRINTGUID
  2
{B02CA6B7-834E-4630-96CD-FAD3B6E3B9F5}
  9
$VERSIONGUID
  2
{FAEB1C32-E019-11D5-929B-00C0DF256EC4}
  9
$EXTNAMES
290
     1
  9
$PSVPSCALE
 40
0.0
  9
$OLESTARTUP
290
     0
  9
$SORTENTS
280
   127
  9
$INDEXCTL
280
     0
  9
$HIDETEXT
280
     1
  9
$XCLIPFRAME
290
     0
  9
$HALOGAP
280
     0
  9
$OBSCOLOR
 70
   257
  9
$OBSLTYPE
280
     0
  9
$INTERSECTIONDISPLAY
280
     0
  9
$INTERSECTIONCOLOR
 70
   257
  9
$DIMASSOC
280
     2
  9
$PROJECTNAME
  1

  0
ENDSEC
  0
SECTION
  2
CLASSES
  0
CLASS
  1
ACDBDICTIONARYWDFLT
  2
AcDbDictionaryWithDefault
  3
ObjectDBX Classes
 90
        0
 91
        4
280
     0
281
     0
  0
CLASS
  1
VISUALSTYLE
  2
AcDbVisualStyle
  3
ObjectDBX Classes
 90
     4095
 91
        4
280
     0
281
     0
  0
ENDSEC
  0
SECTION
  2
TABLES
  0
TABLE
  2
VPORT
  5
8
330
0
100
AcDbSymbolTable
 70
     1
  0
VPORT
  5
29
330
8
100
AcDbSymbolTableRecord
100
AcDbViewportTableRecord
  2
*Active
 70
     0
 10
0.0
 20
0.0
 11
1.0
 21
1.0
 12
16.38691660777484
 22
37.23826125125136
 13
0.0
 23
0.0
 14
0.5
 24
0.5
 15
0.5
 25
0.5
 16
0.0
 26
0.0
 36
1.0
 17
0.0
 27
0.0
 37
0.0
 40
75.96968340042042
 41
0.8150960254139538
 42
50.0
 43
0.0
 44
0.0
 50
0.0
 51
0.0
 71
     0
 72
   100
 73
     1
 74
     3
 75
     0
 76
     0
 77
     0
 78
     0
281
     0
 65
     1
110
0.0
120
0.0
130
0.0
111
1.0
121
0.0
131
0.0
112
0.0
122
1.0
132
0.0
 79
     0
146
0.0
  0
ENDTAB
  0
TABLE
  2
LTYPE
  5
5
330
0
100
AcDbSymbolTable
 70
     1
  0
LTYPE
  5
14
330
5
100
AcDbSymbolTableRecord
100
AcDbLinetypeTableRecord
  2
ByBlock
 70
     0
  3

 72
    65
 73
     0
 40
0.0
  0
LTYPE
  5
15
330
5
100
AcDbSymbolTableRecord
100
AcDbLinetypeTableRecord
  2
ByLayer
 70
     0
  3

 72
    65
 73
     0
 40
0.0
  0
LTYPE
  5
16
330
5
100
AcDbSymbolTableRecord
100
AcDbLinetypeTableRecord
  2
Continuous
 70
     0
  3
Solid line
 72
    65
 73
     0
 40
0.0
  0
ENDTAB
  0
TABLE
  2
LAYER
  5
2
330
0
100
AcDbSymbolTable
 70
     3
  0
LAYER
  5
10
330
2
100
AcDbSymbolTableRecord
100
AcDbLayerTableRecord
  2
0
 70
     0
 62
     7
  6
Continuous
370
    -3
390
F
  0
LAYER
  5
3B
330
2
100
AcDbSymbolTableRecord
100
AcDbLayerTableRecord
  2
Make2D visible lines
 70
     0
 62
     7
  6
Continuous
370
    -3
390
F
  0
LAYER
  5
3D
330
2
100
AcDbSymbolTableRecord
100
AcDbLayerTableRecord
  2
Default
 70
     0
 62
     7
  6
Continuous
370
    -3
390
F
  0
ENDTAB
  0
TABLE
  2
STYLE
  5
3
330
0
100
AcDbSymbolTable
 70
     1
  0
STYLE
  5
11
330
3
100
AcDbSymbolTableRecord
100
AcDbTextStyleTableRecord
  2
Standard
 70
     0
 40
0.0
 41
1.0
 50
0.0
 71
     0
 42
0.2
  3
txt
  4

  0
ENDTAB
  0
TABLE
  2
VIEW
  5
6
330
0
100
AcDbSymbolTable
 70
     0
  0
ENDTAB
  0
TABLE
  2
UCS
  5
7
330
0
100
AcDbSymbolTable
 70
     0
  0
ENDTAB
  0
TABLE
  2
APPID
  5
9
330
0
100
AcDbSymbolTable
 70
     1
  0
APPID
  5
12
330
9
100
AcDbSymbolTableRecord
100
AcDbRegAppTableRecord
  2
ACAD
 70
     0
  0
ENDTAB
  0
TABLE
  2
DIMSTYLE
  5
A
330
0
100
AcDbSymbolTable
 70
     1
100
AcDbDimStyleTable
  0
DIMSTYLE
105
27
330
A
100
AcDbSymbolTableRecord
100
AcDbDimStyleTableRecord
  2
Standard
 70
     0
340
11
  0
ENDTAB
  0
TABLE
  2
BLOCK_RECORD
  5
1
330
0
100
AcDbSymbolTable
 70
     1
  0
BLOCK_RECORD
  5
1F
330
1
100
AcDbSymbolTableRecord
100
AcDbBlockTableRecord
  2
*Model_Space
340
22
  0
BLOCK_RECORD
  5
1B
330
1
100
AcDbSymbolTableRecord
100
AcDbBlockTableRecord
  2
*Paper_Space
340
1E
  0
BLOCK_RECORD
  5
23
330
1
100
AcDbSymbolTableRecord
100
AcDbBlockTableRecord
  2
*Paper_Space0
340
26
  0
ENDTAB
  0
ENDSEC
  0
SECTION
  2
BLOCKS
  0
BLOCK
  5
20
330
1F
100
AcDbEntity
  8
0
100
AcDbBlockBegin
  2
*Model_Space
 70
     0
 10
0.0
 20
0.0
 30
0.0
  3
*Model_Space
  1

  0
ENDBLK
  5
21
330
1F
100
AcDbEntity
  8
0
100
AcDbBlockEnd
  0
BLOCK
  5
1C
330
1B
100
AcDbEntity
 67
     1
  8
0
100
AcDbBlockBegin
  2
*Paper_Space
 70
     0
 10
0.0
 20
0.0
 30
0.0
  3
*Paper_Space
  1

  0
ENDBLK
  5
1D
330
1B
100
AcDbEntity
 67
     1
  8
0
100
AcDbBlockEnd
  0
BLOCK
  5
24
330
23
100
AcDbEntity
  8
0
100
AcDbBlockBegin
  2
*Paper_Space0
 70
     0
 10
0.0
 20
0.0
 30
0.0
  3
*Paper_Space0
  1

  0
ENDBLK
  5
25
330
23
100
AcDbEntity
  8
0
100
AcDbBlockEnd
  0
ENDSEC
  0
SECTION
  2
ENTITIES
  0
SPLINE
  5
3C
330
1F
100
AcDbEntity
  8
Make2D visible lines
100
AcDbSpline
210
0.0
220
0.0
230
1.0
 70
    12
 71
     2
 72
     6
 73
     3
 74
     0
 42
0.0000000001
 43
0.0000000001
 40
0.0
 40
0.0
 40
0.0
 40
0.0208053500132229
 40
0.0208053500132229
 40
0.0208053500132229
 10
43.27645098490225
 20
0.3863938877440814
 30
0.0
 41
1.0
 10
43.2889377985348
 20
0.3886763263770563
 30
0.0
 41
0.7500142205744408
 10
43.29276370755996
 20
0.3765729193799095
 30
0.0
 41
1.0
  0
ARC
  5
3E
330
1F
100
AcDbEntity
  8
Default
100
AcDbCircle
 10
39.40883555626839
 20
10.35738375342237
 30
0.0
 40
1.034448667275178
100
AcDbArc
 50
95.95967767913591
 51
118.7379243994009
  0
ARC
  5
3F
330
1F
100
AcDbEntity
  8
Default
100
AcDbCircle
 10
41.52932322540654
 20
-4.988971024112234
 30
0.0
 40
16.52607304946735
100
AcDbArc
 50
96.24380826290141
 51
97.74767892271223
  0
SPLINE
  5
40
330
1F
100
AcDbEntity
  8
Default
100
AcDbSpline
210
0.0
220
0.0
230
1.0
 70
     8
 71
     3
 72
     8
 73
     4
 74
     0
 42
0.0000000001
 43
0.0000000001
 40
-1.0
 40
-1.0
 40
-1.0
 40
-1.0
 40
0.0
 40
0.0
 40
0.0
 40
0.0
 10
39.7319566044887
 20
11.43907096713984
 30
0.0
 10
39.82302334945072
 20
11.44903443860878
 30
0.0
 10
39.91871716552887
 20
11.42046537509887
 30
0.0
 10
39.99993536728563
 20
11.37808582218609
 30
0.0
  0
SPLINE
  5
41
330
1F
100
AcDbEntity
  8
Default
100
AcDbSpline
210
0.0
220
0.0
230
1.0
 70
    12
 71
     2
 72
     6
 73
     3
 74
     0
 42
0.0000000001
 43
0.0000000001
 40
0.0
 40
0.0
 40
0.0
 40
0.8224495834174671
 40
0.8224495834174671
 40
0.8224495834174671
 10
39.99993536728563
 20
11.37808582218609
 30
0.0
 41
1.0
 10
40.39217829934145
 20
11.17341396619612
 30
0.0
 41
0.8974817562644566
 10
40.47017183477874
 20
10.73602372921157
 30
0.0
 41
1.0
  0
SPLINE
  5
42
330
1F
100
AcDbEntity
  8
Default
100
AcDbSpline
210
0.0
220
0.0
230
1.0
 70
    24
 71
     2
 72
     6
 73
     3
 74
     0
 42
0.0000000001
 43
0.0000000001
 40
0.0
 40
0.0
 40
0.0
 40
10.71255698384767
 40
10.71255698384767
 40
10.71255698384767
 10
40.47017183477874
 20
10.73602372921157
 30
0.0
 10
41.57538549719587
 20
5.494059981641152
 30
0.0
 10
42.68059915961299
 20
0.2520962340707317
 30
0.0
  0
SPLINE
  5
43
330
1F
100
AcDbEntity
  8
Default
100
AcDbSpline
210
0.0
220
0.0
230
1.0
 70
    24
 71
     2
 72
     6
 73
     3
 74
     0
 42
0.0000000001
 43
0.0000000001
 40
0.0
 40
0.0
 40
0.0
 40
10.70899345845929
 40
10.70899345845929
 40
10.70899345845929
 10
43.29179363349857
 20
0.3827460294363292
 30
0.0
 10
42.18683999665822
 20
5.623478572108619
 30
0.0
 10
41.08188635981787
 20
10.86421111478091
 30
0.0
  0
SPLINE
  5
44
330
1F
100
AcDbEntity
  8
Default
100
AcDbSpline
210
0.0
220
0.0
230
1.0
 70
    12
 71
     2
 72
     6
 73
     3
 74
     0
 42
0.0000000001
 43
0.0000000001
 40
0.0
 40
0.0
 40
0.0
 40
0.7441357564216832
 40
0.7441357564216832
 40
0.7441357564216832
 10
41.08188635981787
 20
10.86421111478091
 30
0.0
 41
1.0
 10
41.00400970887483
 20
11.23769618604829
 30
0.0
 41
0.9742761547969873
 10
40.77182747775763
 20
11.53675802696186
 30
0.0
 41
1.0
  0
SPLINE
  5
45
330
1F
100
AcDbEntity
  8
Default
100
AcDbSpline
210
0.0
220
0.0
230
1.0
 70
     8
 71
     3
 72
     8
 73
     4
 74
     0
 42
0.0000000001
 43
0.0000000001
 40
0.0
 40
0.0
 40
0.0
 40
0.0
 40
1.0
 40
1.0
 40
1.0
 40
1.0
 10
40.77182747775763
 20
11.53675802696186
 30
0.0
 10
40.63876442006396
 20
11.70814962226171
 30
0.0
 10
40.46063105574426
 20
11.85195149850079
 30
0.0
 10
40.26433268412374
 20
11.94440584161862
 30
0.0
  0
SPLINE
  5
46
330
1F
100
AcDbEntity
  8
Default
100
AcDbSpline
210
0.0
220
0.0
230
1.0
 70
    12
 71
     2
 72
     6
 73
     3
 74
     0
 42
0.0000000001
 43
0.0000000001
 40
0.0
 40
0.0
 40
0.0
 40
0.7311920014828095
 40
0.7311920014828095
 40
0.7311920014828095
 10
40.26433268412374
 20
11.94440584161862
 30
0.0
 41
1.0
 10
39.92388276255018
 20
12.10475395660173
 30
0.0
 41
0.9577928888427971
 10
39.55140136315063
 20
12.05113237345241
 30
0.0
 41
1.0
  0
SPLINE
  5
47
330
1F
100
AcDbEntity
  8
Default
100
AcDbSpline
210
0.0
220
0.0
230
1.0
 70
     8
 71
     3
 72
     8
 73
     4
 74
     0
 42
0.0000000001
 43
0.0000000001
 40
0.0
 40
0.0
 40
0.0
 40
0.0
 40
1.0
 40
1.0
 40
1.0
 40
1.0
 10
39.55140136315063
 20
12.05113237345241
 30
0.0
 10
39.43978833921643
 20
12.03506481396331
 30
0.0
 10
39.32782947758539
 20
12.02146449791587
 30
0.0
 10
39.21621505752057
 20
12.00540663961323
 30
0.0
  0
SPLINE
  5
48
330
1F
100
AcDbEntity
  8
Default
100
AcDbSpline
210
0.0
220
0.0
230
1.0
 70
     8
 71
     3
 72
    12
 73
     8
 74
     0
 42
0.0000000001
 43
0.0000000001
 40
0.0
 40
0.0
 40
0.0
 40
0.0
 40
0.1921023075555342
 40
0.372816422853232
 40
0.6893916895242499
 40
0.9282225167547821
 40
1.14192952017723
 40
1.14192952017723
 40
1.14192952017723
 40
1.14192952017723
 10
39.21621505752057
 20
12.00540663961323
 30
0.0
 10
39.15292962137189
 20
11.99630182532752
 30
0.0
 10
39.03005652298918
 20
11.97542820619877
 30
0.0
 10
38.80912667653349
 20
11.91212027468575
 30
0.0
 10
38.58191560201108
 20
11.81532478321378
 30
0.0
 10
38.38806641983195
 20
11.63866947703025
 30
0.0
 10
38.34140140264611
 20
11.4878599081092
 30
0.0
 10
38.34194931955988
 20
11.41693134160572
 30
0.0
  0
SPLINE
  5
49
330
1F
100
AcDbEntity
  8
Default
100
AcDbSpline
210
0.0
220
0.0
230
1.0
 70
    12
 71
     2
 72
     6
 73
     3
 74
     0
 42
0.0000000001
 43
0.0000000001
 40
0.0
 40
0.0
 40
0.0
 40
0.1562640355086327
 40
0.1562640355086327
 40
0.1562640355086327
 10
38.34194931955988
 20
11.41693134160572
 30
0.0
 41
1.0
 10
38.34194968248358
 20
11.28732918211752
 30
0.0
 41
0.9999999999998554
 10
38.34194945396511
 20
11.20902361384044
 30
0.0
 41
1.0
  0
SPLINE
  5
4A
330
1F
100
AcDbEntity
  8
Default
100
AcDbSpline
210
0.0
220
0.0
230
1.0
 70
    12
 71
     2
 72
     6
 73
     3
 74
     0
 42
0.0000000001
 43
0.0000000001
 40
0.0
 40
0.0
 40
0.0
 40
0.4908738521233666
 40
0.4908738521233666
 40
0.4908738521233666
 10
38.34194945396511
 20
11.20902361384044
 30
0.0
 41
1.0
 10
38.34194931817582
 20
10.89635006331767
 30
0.0
 41
0.7071067811866039
 10
38.65444931817578
 20
10.89635006331767
 30
0.0
 41
1.0
  0
SPLINE
  5
4B
330
1F
100
AcDbEntity
  8
Default
100
AcDbSpline
210
0.0
220
0.0
230
1.0
 70
    12
 71
     2
 72
     6
 73
     3
 74
     0
 42
0.0000000001
 43
0.0000000001
 40
0.0
 40
0.0
 40
0.0
 40
0.4908738521234364
 40
0.4908738521234364
 40
0.4908738521234364
 10
38.65444931817578
 20
10.89635006331767
 30
0.0
 41
1.0
 10
38.96694931817579
 20
10.89635006331768
 30
0.0
 41
0.7071067811865375
 10
38.96694918239133
 20
11.20902361383926
 30
0.0
 41
1.0
  0
SPLINE
  5
4C
330
1F
100
AcDbEntity
  8
Default
100
AcDbSpline
210
0.0
220
0.0
230
1.0
 70
    12
 71
     2
 72
     6
 73
     3
 74
     0
 42
0.0000000001
 43
0.0000000001
 40
0.0
 40
0.0
 40
0.0
 40
0.0869328280030571
 40
0.0869328280030571
 40
0.0869328280030571
 10
38.96694918239133
 20
11.20902361383926
 30
0.0
 41
1.0
 10
38.96694821801805
 20
11.25266357835978
 30
0.0
 41
0.999999999815881
 10
38.96694905762886
 20
11.29612999235853
 30
0.0
 41
1.0
  0
SPLINE
  5
4D
330
1F
100
AcDbEntity
  8
Make2D visible lines
100
AcDbSpline
210
0.0
220
0.0
230
1.0
 70
    24
 71
     2
 72
     6
 73
     3
 74
     0
 42
0.0000000001
 43
0.0000000001
 40
-11.72227739926365
 40
-11.72227739926365
 40
-11.72227739926365
 40
0.0
 40
0.0
 40
0.0
 10
22.66389531007122
 20
0.4252814432592197
 30
0.0
 10
24.6221227450205
 20
5.952290186917056
 30
0.0
 10
26.58035017996978
 20
11.47929893057489
 30
0.0
  0
SPLINE
  5
4E
330
1F
100
AcDbEntity
  8
Make2D visible lines
100
AcDbSpline
210
0.0
220
0.0
230
1.0
 70
     8
 71
     3
 72
    12
 73
     8
 74
     0
 42
0.0000000001
 43
0.0000000001
 40
-2.573929048860964
 40
-2.573929048860964
 40
-2.573929048860964
 40
-2.573929048860964
 40
-1.893248078869892
 40
-1.257960203361009
 40
-0.6264657551691639
 40
-0.3106905553538196
 40
0.0
 40
0.0
 40
0.0
 40
0.0
 10
26.58035017996978
 20
11.47929893057489
 30
0.0
 10
26.65909195810828
 20
11.69733736869101
 30
0.0
 10
26.89200160023858
 20
12.08102904617056
 30
0.0
 10
27.45263650760276
 20
12.44376771746394
 30
0.0
 10
27.99561422508559
 20
12.48662716058788
 30
0.0
 10
28.39900934468339
 20
12.3599667451507
 30
0.0
 10
28.57937991484181
 20
12.25248654071315
 30
0.0
 10
28.6616780202242
 20
12.18944234052404
 30
0.0
  0
ARC
  5
4F
330
1F
100
AcDbEntity
  8
Make2D visible lines
100
AcDbCircle
 10
31.85822282942988
 20
16.42255866018239
 30
0.0
 40
5.30444836839964
100
AcDbArc
 50
232.9425232885743
 51
260.0502390062414
  0
ARC
  5
50
330
1F
100
AcDbEntity
  8
Make2D visible lines
100
AcDbCircle
 10
32.33796046140415
 20
19.15730593422045
 30
0.0
 40
8.080955319298717
100
AcDbArc
 50
260.0502390062414
 51
263.6976946864867
  0
SPLINE
  5
51
330
1F
100
AcDbEntity
  8
Make2D visible lines
100
AcDbSpline
210
0.0
220
0.0
230
1.0
 70
    12
 71
     2
 72
     6
 73
     3
 74
     0
 42
0.0000000001
 43
0.0000000001
 40
-0.4908738521268115
 40
-0.4908738521268115
 40
-0.4908738521268115
 40
0.0
 40
0.0
 40
0.0
 10
31.45087922098348
 20
11.12518754954782
 30
0.0
 41
1.0
 10
31.76221670722792
 20
11.09825764674997
 30
0.0
 41
0.7071067811648746
 10
31.73528680441098
 20
10.78692016050718
 30
0.0
 41
1.0
  0
SPLINE
  5
52
330
1F
100
AcDbEntity
  8
Make2D visible lines
100
AcDbSpline
210
0.0
220
0.0
230
1.0
 70
    12
 71
     2
 72
     8
 73
     5
 74
     0
 42
0.0000000001
 43
0.0000000001
 40
0.0
 40
0.0
 40
0.0
 40
0.4908738521241969
 40
0.4908738521241969
 40
0.4983571956953172
 40
0.4983571956953172
 40
0.4983571956953172
 10
31.73528680441098
 20
10.78692016050718
 30
0.0
 41
1.0
 10
31.70835690159321
 20
10.4755826742783
 30
0.0
 41
0.7071067812025927
 10
31.3970194153631
 20
10.50251257708193
 30
0.0
 41
1.0
 10
31.39329148461295
 20
10.50283503363547
 30
0.0
 41
0.9999283203046679
 10
31.38956078895674
 20
10.50328355254479
 30
0.0
 41
1.0
  0
ARC
  5
53
330
1F
100
AcDbEntity
  8
Make2D visible lines
100
AcDbCircle
 10
32.36572950763129
 20
19.36592595631515
 30
0.0
 40
8.91624000038285
100
AcDbArc
 50
260.1139939458539
 51
263.7145379715565
  0
ARC
  5
54
330
1F
100
AcDbEntity
  8
Make2D visible lines
100
AcDbCircle
 10
31.84911821010108
 20
16.40160213501587
 30
0.0
 40
5.907236352950992
100
AcDbArc
 50
232.8608844136646
 51
260.1139939458539
  0
SPLINE
  5
55
330
1F
100
AcDbEntity
  8
Make2D visible lines
100
AcDbSpline
210
0.0
220
0.0
230
1.0
 70
     8
 71
     3
 72
    12
 73
     8
 74
     0
 42
0.0000000001
 43
0.0000000001
 40
-1.404091065260296
 40
-1.404091065260296
 40
-1.404091065260296
 40
-1.404091065260296
 40
-1.062417909018669
 40
-0.729580448501684
 40
-0.3751817481579005
 40
-0.188401197218608
 40
0.0
 40
0.0
 40
0.0
 40
0.0
 10
28.28261035455249
 20
11.69251909837955
 30
0.0
 10
28.19257142372722
 20
11.76128861832037
 30
0.0
 10
27.98045451583531
 20
11.8586636278592
 30
0.0
 10
27.62742980528707
 20
11.81786988234269
 30
0.0
 10
27.38549404203532
 20
11.64015945184879
 30
0.0
 10
27.24298155738706
 20
11.44285105996107
 30
0.0
 10
27.19001674589126
 20
11.32828778219324
 30
0.0
 10
27.16858696367592
 20
11.26812040910749
 30
0.0
  0
SPLINE
  5
56
330
1F
100
AcDbEntity
  8
Make2D visible lines
100
AcDbSpline
210
0.0
220
0.0
230
1.0
 70
    24
 71
     2
 72
     6
 73
     3
 74
     0
 42
0.0000000001
 43
0.0000000001
 40
-11.7264901888389
 40
-11.7264901888389
 40
-11.7264901888389
 40
0.0
 40
0.0
 40
0.0
 10
27.16858696367592
 20
11.26812040910749
 30
0.0
 10
25.21028733309427
 20
5.740892425624266
 30
0.0
 10
23.25198770251262
 20
0.2136644421410432
 30
0.0
  0
SPLINE
  5
57
330
1F
100
AcDbEntity
  8
Make2D visible lines
100
AcDbSpline
210
0.0
220
0.0
230
1.0
 70
    12
 71
     2
 72
     8
 73
     5
 74
     0
 42
0.0000000001
 43
0.0000000001
 40
0.0
 40
0.0
 40
0.0
 40
0.4890995006559049
 40
0.4890995006559049
 40
0.9781990013118097
 40
0.9781990013118097
 40
0.9781990013118097
 10
42.68177845640321
 20
0.2425475599930521
 30
0.0
 41
1.0
 10
42.74956139900247
 20
-0.0607025654509406
 30
0.0
 41
0.7091031950961089
 10
43.05318996715582
 20
0.0053645102400404
 30
0.0
 41
1.0
 10
43.35681853530917
 20
0.0714315859310213
 30
0.0
 41
0.7091031950961089
 10
43.29246943906685
 20
0.3754288880605129
 30
0.0
 41
1.0
  0
SPLINE
  5
58
330
1F
100
AcDbEntity
  8
Make2D visible lines
100
AcDbSpline
210
0.0
220
0.0
230
1.0
 70
    12
 71
     2
 72
     6
 73
     3
 74
     0
 42
0.0000000001
 43
0.0000000001
 40
0.0
 40
0.0
 40
0.0
 40
0.3842394126997106
 40
0.3842394126997106
 40
0.3842394126997106
 10
22.95574642333142
 20
-0.0017796313076643
 30
0.0
 41
1.0
 10
23.1763226105886
 20
-0.0016118035881994
 30
0.0
 41
0.8172584746271535
 10
23.25023904858378
 20
0.2062108196874292
 30
0.0
 41
1.0
  0
SPLINE
  5
59
330
1F
100
AcDbEntity
  8
Make2D visible lines
100
AcDbSpline
210
0.0
220
0.0
230
1.0
 70
    12
 71
     2
 72
     8
 73
     5
 74
     0
 42
0.0000000001
 43
0.0000000001
 40
0.0
 40
0.0
 40
0.0
 40
0.2959495117544358
 40
0.2959495117544358
 40
0.5918990235088717
 40
0.5918990235088717
 40
0.5918990235088717
 10
22.65947585485023
 20
0.4100944723012909
 30
0.0
 41
1.0
 10
22.60863325846411
 20
0.2582650721525375
 30
0.0
 41
0.8900445242472584
 10
22.70213184687002
 20
0.1282837260950554
 30
0.0
 41
1.0
 10
22.79563043527592
 20
-0.0016976199624266
 30
0.0
 41
0.8900445242472584
 10
22.95574642333131
 20
-0.0017796313076667
 30
0.0
 41
1.0
  0
SPLINE
  5
5A
330
1F
100
AcDbEntity
  8
Make2D visible lines
100
AcDbSpline
210
0.0
220
0.0
230
1.0
 70
    12
 71
     3
 72
    11
 73
     7
 74
     0
 42
0.0000000001
 43
0.0000000001
 40
0.0
 40
0.0
 40
0.0
 40
0.0
 40
0.3934469952921459
 40
0.3934469952921459
 40
0.3934469952921459
 40
0.7718077406171964
 40
0.7718077406171964
 40
0.7718077406171964
 40
0.7718077406171964
 10
43.27645098490225
 20
0.3863938877440814
 30
0.0
 41
1.0
 10
43.14494675561851
 20
0.3844333084350905
 30
0.0
 41
0.9943884200698394
 10
43.01480329292976
 20
0.365462665058106
 30
0.0
 41
0.9943884200698386
 10
42.88821152816594
 20
0.3298013234580369
 30
0.0
 41
1.0
 10
42.76877560505131
 20
0.2998728649363879
 30
0.0
 41
0.8106778878943465
 10
42.68657795255186
 20
0.2699827157487586
 30
0.0
 41
0.7347248930850707
 10
42.68130592531193
 20
0.2518902867095984
 30
0.0
 41
0.7625027761254605
  0
SPLINE
  5
5B
330
1F
100
AcDbEntity
  8
Make2D visible lines
100
AcDbSpline
210
0.0
220
0.0
230
1.0
 70
    12
 71
     2
 72
     6
 73
     3
 74
     0
 42
0.0000000001
 43
0.0000000001
 40
-0.4803814146146277
 40
-0.4803814146146277
 40
-0.4803814146146277
 40
-0.4711376355475253
 40
-0.4711376355475253
 40
-0.4711376355475253
 10
22.66081002204282
 20
0.4156874799685248
 30
0.0
 41
1.0
 10
22.66333227099961
 20
0.4193785458399466
 30
0.0
 41
0.9662898631946522
 10
22.66657600309023
 20
0.4224548925680525
 30
0.0
 41
0.9443287023156676
  0
SPLINE
  5
5C
330
1F
100
AcDbEntity
  8
Make2D visible lines
100
AcDbSpline
210
0.0
220
0.0
230
1.0
 70
    12
 71
     2
 72
     8
 73
     5
 74
     0
 42
0.0000000001
 43
0.0000000001
 40
-0.4711376355475253
 40
-0.4711376355475253
 40
-0.4711376355475253
 40
-0.4273369520327914
 40
-0.4273369520327914
 40
0.0
 40
0.0
 40
0.0
 10
22.66657600309023
 20
0.4224548925680525
 30
0.0
 41
0.9443287023156676
 10
22.68425126636118
 20
0.4392180643753931
 30
0.0
 41
0.8402680307771294
 10
22.70756875592718
 20
0.4321672813636136
 30
0.0
 41
1.0
 10
22.92203492070412
 20
0.4079199946575095
 30
0.0
 41
0.9850280476532692
 10
23.11551831301513
 20
0.3122756344130875
 30
0.0
 41
1.0
  0
SPLINE
  5
5D
330
1F
100
AcDbEntity
  8
Make2D visible lines
100
AcDbSpline
210
0.0
220
0.0
230
1.0
 70
    12
 71
     2
 72
     6
 73
     3
 74
     0
 42
0.0000000001
 43
0.0000000001
 40
0.0
 40
0.0
 40
0.0
 40
0.3082430371142515
 40
0.3082430371142515
 40
0.3082430371142515
 10
23.11551831301513
 20
0.3122756344130875
 30
0.0
 41
1.0
 10
23.25066147985249
 20
0.2478995681321218
 30
0.0
 41
0.8160784182602362
 10
23.25116838910477
 20
0.2136523156983464
 30
0.0
 41
0.8631430530446698
  0
SPLINE
  5
5E
330
1F
100
AcDbEntity
  8
Make2D visible lines
100
AcDbSpline
210
0.0
220
0.0
230
1.0
 70
    24
 71
     2
 72
     6
 73
     3
 74
     0
 42
0.0000000001
 43
0.0000000001
 40
0.0
 40
0.0
 40
0.0
 40
6.364943275724004
 40
6.364943275724004
 40
6.364943275724004
 10
7.983667222298562
 20
5.140433629333178
 30
0.0
 10
7.345882118572954
 20
8.258342525895387
 30
0.0
 10
6.708097014847345
 20
11.37625142245759
 30
0.0
  0
SPLINE
  5
5F
330
1F
100
AcDbEntity
  8
Make2D visible lines
100
AcDbSpline
210
0.0
220
0.0
230
1.0
 70
    24
 71
     2
 72
     6
 73
     3
 74
     0
 42
0.0000000001
 43
0.0000000001
 40
0.0
 40
0.0
 40
0.0
 40
11.19019005670523
 40
11.19019005670523
 40
11.19019005670523
 10
6.103263048612298
 20
11.21439820764473
 30
0.0
 10
7.224551364447894
 20
5.732810765209217
 30
0.0
 10
8.34583968028349
 20
0.2512233227737047
 30
0.0
  0
SPLINE
  5
60
330
1F
100
AcDbEntity
  8
Make2D visible lines
100
AcDbSpline
210
0.0
220
0.0
230
1.0
 70
    24
 71
     2
 72
     6
 73
     3
 74
     0
 42
0.0000000001
 43
0.0000000001
 40
-10.5545367849474
 40
-10.5545367849474
 40
-10.5545367849474
 40
0.0
 40
0.0
 40
0.0
 10
8.586737261788242
 20
0.2845566867776547
 30
0.0
 10
7.935598493011805
 20
5.527373087566202
 30
0.0
 10
7.284459724235369
 20
10.77018948835475
 30
0.0
  0
SPLINE
  5
61
330
1F
100
AcDbEntity
  8
Make2D visible lines
100
AcDbSpline
210
0.0
220
0.0
230
1.0
 70
     8
 71
     3
 72
    12
 73
     8
 74
     0
 42
0.0000000001
 43
0.0000000001
 40
-0.761295221738784
 40
-0.761295221738784
 40
-0.761295221738784
 40
-0.761295221738784
 40
-0.3025165941887742
 40
-0.1208941401645658
 40
-0.0477218467254063
 40
-0.0185914585234393
 40
0.0
 40
0.0
 40
0.0
 40
0.0
 10
7.284459724235369
 20
10.77018948835475
 30
0.0
 10
7.264271378432435
 20
10.92141260151411
 30
0.0
 10
7.215199285230393
 20
11.13211737762841
 30
0.0
 10
7.098007292164214
 20
11.34099243587946
 30
0.0
 10
7.032574069105944
 20
11.41041260789298
 30
0.0
 10
6.999053591767813
 20
11.43288030341617
 30
0.0
 10
6.984122661268853
 20
11.43913590989802
 30
0.0
 10
6.977865535270835
 20
11.43891987089935
 30
0.0
  0
ARC
  5
62
330
1F
100
AcDbEntity
  8
Make2D visible lines
100
AcDbCircle
 10
8.141164936491956
 20
5.781445141642664
 30
0.0
 40
5.775836373120296
100
AcDbArc
 50
101.619304580716
 51
104.8564605299103
  0
LINE
  5
63
330
1F
100
AcDbEntity
  8
Make2D visible lines
100
AcDbLine
 10
6.660249945859372
 20
11.36420222032512
 30
0.0
 11
5.855644247783827
 21
11.150767778698
 31
0.0
  0
SPLINE
  5
64
330
1F
100
AcDbEntity
  8
Make2D visible lines
100
AcDbSpline
210
0.0
220
0.0
230
1.0
 70
     8
 71
     3
 72
    10
 73
     6
 74
     0
 42
0.0000000001
 43
0.0000000001
 40
0.0
 40
0.0
 40
0.0
 40
0.0
 40
0.9999999970617786
 40
1.999999998530889
 40
3.0
 40
3.0
 40
3.0
 40
3.0
 10
5.855644247783827
 20
11.150767778698
 30
0.0
 10
5.609948440573057
 20
11.08911442616838
 30
0.0
 10
5.112428804771087
 20
10.99042672373339
 30
0.0
 10
4.355851162888508
 20
10.91241094137218
 30
0.0
 10
3.849287833836864
 20
10.89510613732732
 30
0.0
 10
3.595962466357999
 20
10.89635006331766
 30
0.0
  0
SPLINE
  5
65
330
1F
100
AcDbEntity
  8
Make2D visible lines
100
AcDbSpline
210
0.0
220
0.0
230
1.0
 70
    24
 71
     2
 72
     6
 73
     3
 74
     0
 42
0.0000000001
 43
0.0000000001
 40
0.0
 40
0.0
 40
0.0
 40
3.595962466357999
 40
3.595962466357999
 40
3.595962466357999
 10
3.595962466357999
 20
10.89635006331766
 30
0.0
 10
1.797981233179
 20
10.89635006331696
 30
0.0
 10
0.0
 20
10.89635006331626
 30
0.0
  0
SPLINE
  5
66
330
1F
100
AcDbEntity
  8
Make2D visible lines
100
AcDbSpline
210
0.0
220
0.0
230
1.0
 70
    24
 71
     2
 72
     6
 73
     3
 74
     0
 42
0.0000000001
 43
0.0000000001
 40
-3.595962466357999
 40
-3.595962466357999
 40
-3.595962466357999
 40
0.0
 40
0.0
 40
0.0
 10
0.0
 20
10.89635006331626
 30
0.0
 10
-1.797981233179
 20
10.89635006331696
 30
0.0
 10
-3.595962466357999
 20
10.89635006331766
 30
0.0
  0
SPLINE
  5
67
330
1F
100
AcDbEntity
  8
Make2D visible lines
100
AcDbSpline
210
0.0
220
0.0
230
1.0
 70
     8
 71
     3
 72
    10
 73
     6
 74
     0
 42
0.0000000001
 43
0.0000000001
 40
-3.0
 40
-3.0
 40
-3.0
 40
-3.0
 40
-1.999999998530889
 40
-0.9999999970617786
 40
0.0
 40
0.0
 40
0.0
 40
0.0
 10
-3.595962466357999
 20
10.89635006331766
 30
0.0
 10
-3.849287833836864
 20
10.89510613732732
 30
0.0
 10
-4.355851162888508
 20
10.91241094137218
 30
0.0
 10
-5.112428804771087
 20
10.99042672373339
 30
0.0
 10
-5.609948440573057
 20
11.08911442616838
 30
0.0
 10
-5.855644247783827
 20
11.150767778698
 30
0.0
  0
LINE
  5
68
330
1F
100
AcDbEntity
  8
Make2D visible lines
100
AcDbLine
 10
-5.855644247783827
 20
11.150767778698
 30
0.0
 11
-6.660249945859372
 21
11.36420222032512
 31
0.0
  0
ARC
  5
69
330
1F
100
AcDbEntity
  8
Make2D visible lines
100
AcDbCircle
 10
-8.141164936491956
 20
5.781445141642664
 30
0.0
 40
5.775836373120296
100
AcDbArc
 50
75.1435394700897
 51
78.38069541928402
  0
SPLINE
  5
6A
330
1F
100
AcDbEntity
  8
Make2D visible lines
100
AcDbSpline
210
0.0
220
0.0
230
1.0
 70
     8
 71
     3
 72
    12
 73
     8
 74
     0
 42
0.0000000001
 43
0.0000000001
 40
0.0
 40
0.0
 40
0.0
 40
0.0
 40
0.0185914585234393
 40
0.0477218467254063
 40
0.1208941401645658
 40
0.3025165941887742
 40
0.761295221738784
 40
0.761295221738784
 40
0.761295221738784
 40
0.761295221738784
 10
-6.977865535270835
 20
11.43891987089935
 30
0.0
 10
-6.984122661268853
 20
11.43913590989802
 30
0.0
 10
-6.999053591767813
 20
11.43288030341617
 30
0.0
 10
-7.032574069105944
 20
11.41041260789298
 30
0.0
 10
-7.098007292164214
 20
11.34099243587946
 30
0.0
 10
-7.215199285230393
 20
11.13211737762841
 30
0.0
 10
-7.264271378432435
 20
10.92141260151411
 30
0.0
 10
-7.284459724235369
 20
10.77018948835475
 30
0.0
  0
SPLINE
  5
6B
330
1F
100
AcDbEntity
  8
Make2D visible lines
100
AcDbSpline
210
0.0
220
0.0
230
1.0
 70
    24
 71
     2
 72
     6
 73
     3
 74
     0
 42
0.0000000001
 43
0.0000000001
 40
0.0
 40
0.0
 40
0.0
 40
10.5545367849474
 40
10.5545367849474
 40
10.5545367849474
 10
-7.284459724235369
 20
10.77018948835475
 30
0.0
 10
-7.935598493011805
 20
5.527373087566202
 30
0.0
 10
-8.586737261788242
 20
0.2845566867776547
 30
0.0
  0
SPLINE
  5
6C
330
1F
100
AcDbEntity
  8
Default
100
AcDbSpline
210
0.0
220
0.0
230
1.0
 70
    24
 71
     2
 72
     6
 73
     3
 74
     0
 42
0.0000000001
 43
0.0000000001
 40
0.0
 40
0.0
 40
0.0
 40
10.56228668149916
 40
10.56228668149916
 40
10.56228668149916
 10
9.207736920367005
 20
0.3554292163143787
 30
0.0
 10
8.556804130775093
 20
5.59669275156776
 30
0.0
 10
7.905871341183182
 20
10.83795628682114
 30
0.0
  0
SPLINE
  5
6D
330
1F
100
AcDbEntity
  8
Default
100
AcDbSpline
210
0.0
220
0.0
230
1.0
 70
     8
 71
     3
 72
    12
 73
     8
 74
     0
 42
0.0000000001
 43
0.0000000001
 40
0.0
 40
0.0
 40
0.0
 40
0.0
 40
0.2779373345813006
 40
0.5311831987203071
 40
0.9932833818794501
 40
1.381057475511472
 40
1.7316709966046
 40
1.7316709966046
 40
1.7316709966046
 40
1.7316709966046
 10
7.905871341183182
 20
10.83795628682114
 30
0.0
 10
7.893961758777585
 20
10.9304387067347
 30
0.0
 10
7.863705422584454
 20
11.10562631385517
 30
0.0
 10
7.766877012680658
 20
11.42223814247077
 30
0.0
 10
7.597499359099467
 20
11.75338468678861
 30
0.0
 10
7.288207148077664
 20
12.02303319009918
 30
0.0
 10
7.036619739278535
 20
12.07298377448418
 30
0.0
 10
6.92064638851565
 20
12.06126555793396
 30
0.0
  0
SPLINE
  5
6E
330
1F
100
AcDbEntity
  8
Default
100
AcDbSpline
210
0.0
220
0.0
230
1.0
 70
     8
 71
     3
 72
     8
 73
     4
 74
     0
 42
0.0000000001
 43
0.0000000001
 40
0.0
 40
0.0
 40
0.0
 40
0.0
 40
1.0
 40
1.0
 40
1.0
 40
1.0
 10
6.92064638851565
 20
12.06126555793396
 30
0.0
 10
6.888030306970419
 20
12.05796995334849
 30
0.0
 10
6.855528817929383
 20
12.052576051504
 30
0.0
 10
6.823701236233191
 20
12.04472271919719
 30
0.0
  0
SPLINE
  5
6F
330
1F
100
AcDbEntity
  8
Default
100
AcDbSpline
210
0.0
220
0.0
230
1.0
 70
    12
 71
     2
 72
    10
 73
     7
 74
     0
 42
0.0000000001
 43
0.0000000001
 40
-0.192093564250425
 40
-0.192093564250425
 40
-0.192093564250425
 40
-0.1279604400037003
 40
-0.1279604400037003
 40
-0.0639305869732642
 40
-0.0639305869732642
 40
0.0
 40
0.0
 40
0.0
 10
6.823701236233191
 20
12.04472271919719
 30
0.0
 41
1.0
 10
6.792568188280995
 20
12.03704076039724
 30
0.0
 41
0.9999892348847124
 10
6.761365192262653
 20
12.02964804741234
 30
0.0
 41
1.0
 10
6.730212439662554
 20
12.02226723907107
 30
0.0
 41
0.9999891656151457
 10
6.698992323148515
 20
12.01517677708448
 30
0.0
 41
1.0
 10
6.667820604850812
 20
12.00809731254347
 30
0.0
 41
0.9999890984933278
 10
6.636584133447034
 20
12.00130925729474
 30
0.0
 41
1.0
  0
SPLINE
  5
70
330
1F
100
AcDbEntity
  8
Default
100
AcDbSpline
210
0.0
220
0.0
230
1.0
 70
    12
 71
     2
 72
     6
 73
     3
 74
     0
 42
0.0000000001
 43
0.0000000001
 40
-0.1645939861043443
 40
-0.1645939861043443
 40
-0.1645939861043443
 40
0.0
 40
0.0
 40
0.0
 10
6.636584133447034
 20
12.00130925729474
 30
0.0
 41
1.0
 10
6.556257987290905
 20
11.98335902151252
 30
0.0
 41
0.999811166942512
 10
6.476690014504333
 20
11.96230102046507
 30
0.0
 41
1.0
  0
SPLINE
  5
71
330
1F
100
AcDbEntity
  8
Default
100
AcDbSpline
210
0.0
220
0.0
230
1.0
 70
    12
 71
     2
 72
     6
 73
     3
 74
     0
 42
0.0000000001
 43
0.0000000001
 40
0.0
 40
0.0
 40
0.0
 40
0.2034365546988051
 40
0.2034365546988051
 40
0.2034365546988051
 10
6.476690014504333
 20
11.96230102046507
 30
0.0
 41
1.0
 10
6.378293482813755
 20
11.93651478014979
 30
0.0
 41
0.999985612974861
 10
6.280180580476579
 20
11.9096695517467
 30
0.0
 41
1.0
  0
SPLINE
  5
72
330
1F
100
AcDbEntity
  8
Default
100
AcDbSpline
210
0.0
220
0.0
230
1.0
 70
    12
 71
     2
 72
     6
 73
     3
 74
     0
 42
0.0000000001
 43
0.0000000001
 40
-0.0715383633173021
 40
-0.0715383633173021
 40
-0.0715383633173021
 40
0.0
 40
0.0
 40
0.0
 10
6.280180580476579
 20
11.9096695517467
 30
0.0
 41
1.0
 10
6.245668150623342
 20
11.90027132734854
 30
0.0
 41
0.9999999759228646
 10
6.211157306934158
 20
11.89086728230372
 30
0.0
 41
0.9999999999999996
  0
SPLINE
  5
73
330
1F
100
AcDbEntity
  8
Default
100
AcDbSpline
210
0.0
220
0.0
230
1.0
 70
    12
 71
     2
 72
     6
 73
     3
 74
     0
 42
0.0000000001
 43
0.0000000001
 40
0.0
 40
0.0
 40
0.0
 40
0.2577599672274734
 40
0.2577599672274734
 40
0.2577599672274734
 10
6.211157306934158
 20
11.89086728230372
 30
0.0
 41
0.9999999999998186
 10
6.086842884948049
 20
11.85686600590125
 30
0.0
 41
0.9999949110065189
 10
5.962315237846548
 20
11.82365414963374
 30
0.0
 41
1.0
  0
ARC
  5
74
330
1F
100
AcDbEntity
  8
Default
100
AcDbCircle
 10
3.356575869301819
 20
21.34668683503122
 30
0.0
 40
9.8730962308656
100
AcDbArc
 50
282.8651821148426
 51
285.3029802967349
  0
ARC
  5
75
330
1F
100
AcDbEntity
  8
Default
100
AcDbCircle
 10
3.764515028239754
 20
19.56054386087505
 30
0.0
 40
8.040960569534152
100
AcDbArc
 50
268.7988925315835
 51
282.8651821148426
  0
SPLINE
  5
76
330
1F
100
AcDbEntity
  8
Default
100
AcDbSpline
210
0.0
220
0.0
230
1.0
 70
    24
 71
     2
 72
     6
 73
     3
 74
     0
 42
0.0000000001
 43
0.0000000001
 40
-3.595962466357996
 40
-3.595962466357996
 40
-3.595962466357996
 40
0.0
 40
0.0
 40
0.0
 10
3.595962466358
 20
11.52135006331761
 30
0.0
 10
1.797981233179
 20
11.52135006331831
 30
0.0
 10
0.0
 20
11.52135006331901
 30
0.0
  0
SPLINE
  5
77
330
1F
100
AcDbEntity
  8
Default
100
AcDbSpline
210
0.0
220
0.0
230
1.0
 70
    24
 71
     2
 72
     6
 73
     3
 74
     0
 42
0.0000000001
 43
0.0000000001
 40
0.0
 40
0.0
 40
0.0
 40
3.595962466357996
 40
3.595962466357996
 40
3.595962466357996
 10
0.0
 20
11.52135006331901
 30
0.0
 10
-1.797981233179
 20
11.52135006331831
 30
0.0
 10
-3.595962466358
 20
11.52135006331761
 30
0.0
  0
ARC
  5
78
330
1F
100
AcDbEntity
  8
Default
100
AcDbCircle
 10
-3.764515028239754
 20
19.56054386087505
 30
0.0
 40
8.040960569534152
100
AcDbArc
 50
257.1348178851574
 51
271.2011074684164
  0
ARC
  5
79
330
1F
100
AcDbEntity
  8
Default
100
AcDbCircle
 10
-3.356575869301819
 20
21.34668683503122
 30
0.0
 40
9.8730962308656
100
AcDbArc
 50
254.6970197032651
 51
257.1348178851573
  0
SPLINE
  5
7A
330
1F
100
AcDbEntity
  8
Default
100
AcDbSpline
210
0.0
220
0.0
230
1.0
 70
    12
 71
     2
 72
     6
 73
     3
 74
     0
 42
0.0000000001
 43
0.0000000001
 40
-0.2577599672274734
 40
-0.2577599672274734
 40
-0.2577599672274734
 40
0.0
 40
0.0
 40
0.0
 10
-5.962315237846548
 20
11.82365414963374
 30
0.0
 41
1.0
 10
-6.086842884948049
 20
11.85686600590125
 30
0.0
 41
0.9999949110065189
 10
-6.211157306934158
 20
11.89086728230372
 30
0.0
 41
0.9999999999998186
  0
SPLINE
  5
7B
330
1F
100
AcDbEntity
  8
Default
100
AcDbSpline
210
0.0
220
0.0
230
1.0
 70
    12
 71
     2
 72
     6
 73
     3
 74
     0
 42
0.0000000001
 43
0.0000000001
 40
0.0
 40
0.0
 40
0.0
 40
0.0715383633173021
 40
0.0715383633173021
 40
0.0715383633173021
 10
-6.211157306934158
 20
11.89086728230372
 30
0.0
 41
0.9999999999999996
 10
-6.245668150623342
 20
11.90027132734854
 30
0.0
 41
0.9999999759228646
 10
-6.280180580476579
 20
11.9096695517467
 30
0.0
 41
1.0
  0
SPLINE
  5
7C
330
1F
100
AcDbEntity
  8
Default
100
AcDbSpline
210
0.0
220
0.0
230
1.0
 70
    12
 71
     2
 72
     6
 73
     3
 74
     0
 42
0.0000000001
 43
0.0000000001
 40
-0.2034365546988051
 40
-0.2034365546988051
 40
-0.2034365546988051
 40
0.0
 40
0.0
 40
0.0
 10
-6.280180580476579
 20
11.9096695517467
 30
0.0
 41
1.0
 10
-6.378293482813755
 20
11.93651478014979
 30
0.0
 41
0.999985612974861
 10
-6.476690014504333
 20
11.96230102046507
 30
0.0
 41
1.0
  0
SPLINE
  5
7D
330
1F
100
AcDbEntity
  8
Default
100
AcDbSpline
210
0.0
220
0.0
230
1.0
 70
    12
 71
     2
 72
     6
 73
     3
 74
     0
 42
0.0000000001
 43
0.0000000001
 40
0.0
 40
0.0
 40
0.0
 40
0.1645939861043443
 40
0.1645939861043443
 40
0.1645939861043443
 10
-6.476690014504333
 20
11.96230102046507
 30
0.0
 41
1.0
 10
-6.556257987290905
 20
11.98335902151252
 30
0.0
 41
0.999811166942512
 10
-6.636584133447034
 20
12.00130925729474
 30
0.0
 41
1.0
  0
SPLINE
  5
7E
330
1F
100
AcDbEntity
  8
Default
100
AcDbSpline
210
0.0
220
0.0
230
1.0
 70
    12
 71
     2
 72
    10
 73
     7
 74
     0
 42
0.0000000001
 43
0.0000000001
 40
0.0
 40
0.0
 40
0.0
 40
0.0639305869732642
 40
0.0639305869732642
 40
0.1279604400037003
 40
0.1279604400037003
 40
0.192093564250425
 40
0.192093564250425
 40
0.192093564250425
 10
-6.636584133447034
 20
12.00130925729474
 30
0.0
 41
1.0
 10
-6.667820604850812
 20
12.00809731254347
 30
0.0
 41
0.9999890984933278
 10
-6.698992323148515
 20
12.01517677708448
 30
0.0
 41
1.0
 10
-6.730212439662554
 20
12.02226723907107
 30
0.0
 41
0.9999891656151457
 10
-6.761365192262653
 20
12.02964804741234
 30
0.0
 41
1.0
 10
-6.792568188280995
 20
12.03704076039724
 30
0.0
 41
0.9999892348847124
 10
-6.823701236233191
 20
12.04472271919719
 30
0.0
 41
1.0
  0
SPLINE
  5
7F
330
1F
100
AcDbEntity
  8
Default
100
AcDbSpline
210
0.0
220
0.0
230
1.0
 70
     8
 71
     3
 72
     8
 73
     4
 74
     0
 42
0.0000000001
 43
0.0000000001
 40
-1.0
 40
-1.0
 40
-1.0
 40
-1.0
 40
0.0
 40
0.0
 40
0.0
 40
0.0
 10
-6.823701236233191
 20
12.04472271919719
 30
0.0
 10
-6.855528817929383
 20
12.052576051504
 30
0.0
 10
-6.888030306970419
 20
12.05796995334849
 30
0.0
 10
-6.92064638851565
 20
12.06126555793396
 30
0.0
  0
SPLINE
  5
80
330
1F
100
AcDbEntity
  8
Default
100
AcDbSpline
210
0.0
220
0.0
230
1.0
 70
     8
 71
     3
 72
    12
 73
     8
 74
     0
 42
0.0000000001
 43
0.0000000001
 40
-1.7316709966046
 40
-1.7316709966046
 40
-1.7316709966046
 40
-1.7316709966046
 40
-1.381057475511472
 40
-0.9932833818794501
 40
-0.5311831987203071
 40
-0.2779373345813006
 40
0.0
 40
0.0
 40
0.0
 40
0.0
 10
-6.92064638851565
 20
12.06126555793396
 30
0.0
 10
-7.036619739278535
 20
12.07298377448418
 30
0.0
 10
-7.288207148077664
 20
12.02303319009918
 30
0.0
 10
-7.597499359099467
 20
11.75338468678861
 30
0.0
 10
-7.766877012680658
 20
11.42223814247077
 30
0.0
 10
-7.863705422584454
 20
11.10562631385517
 30
0.0
 10
-7.893961758777585
 20
10.9304387067347
 30
0.0
 10
-7.905871341183182
 20
10.83795628682114
 30
0.0
  0
SPLINE
  5
81
330
1F
100
AcDbEntity
  8
Default
100
AcDbSpline
210
0.0
220
0.0
230
1.0
 70
    24
 71
     2
 72
     6
 73
     3
 74
     0
 42
0.0000000001
 43
0.0000000001
 40
-10.56228668149916
 40
-10.56228668149916
 40
-10.56228668149916
 40
0.0
 40
0.0
 40
0.0
 10
-7.905871341183182
 20
10.83795628682114
 30
0.0
 10
-8.556804130775093
 20
5.59669275156776
 30
0.0
 10
-9.207736920367005
 20
0.3554292163143787
 30
0.0
  0
SPLINE
  5
82
330
1F
100
AcDbEntity
  8
Make2D visible lines
100
AcDbSpline
210
0.0
220
0.0
230
1.0
 70
    12
 71
     2
 72
     6
 73
     3
 74
     0
 42
0.0000000001
 43
0.0000000001
 40
-0.8436208550946255
 40
-0.8436208550946255
 40
-0.8436208550946255
 40
0.0
 40
0.0
 40
0.0
 10
-4.9338143594778
 20
10.97749903747302
 30
0.0
 41
1.0
 10
-4.589722410570922
 20
10.72734120170837
 30
0.0
 41
0.9873375337234498
 10
-4.162044317750794
 20
10.59066387092882
 30
0.0
 41
1.0
  0
SPLINE
  5
83
330
1F
100
AcDbEntity
  8
Make2D visible lines
100
AcDbSpline
210
0.0
220
0.0
230
1.0
 70
     8
 71
     3
 72
    11
 73
     7
 74
     0
 42
0.0000000001
 43
0.0000000001
 40
-1.168375855721459
 40
-1.168375855721459
 40
-1.168375855721459
 40
-1.168375855721459
 40
-0.9807542986841283
 40
-0.7324560601477451
 40
-0.398990183726646
 40
0.0
 40
0.0
 40
0.0
 40
0.0
 10
-4.162044317750794
 20
10.59066387092882
 30
0.0
 10
-4.102059846114321
 20
10.57279296043826
 30
0.0
 10
-3.959102880551977
 20
10.54537302104643
 30
0.0
 10
-3.703785814877286
 20
10.51993893394864
 30
0.0
 10
-3.377152142550382
 20
10.50458123486796
 30
0.0
 10
-3.132998527109332
 20
10.50153050107272
 30
0.0
 10
-3.000000719711506
 20
10.50135006421026
 30
0.0
  0
SPLINE
  5
84
330
1F
100
AcDbEntity
  8
Make2D visible lines
100
AcDbSpline
210
0.0
220
0.0
230
1.0
 70
    24
 71
     2
 72
     6
 73
     3
 74
     0
 42
0.0000000001
 43
0.0000000001
 40
-3.000000000000007
 40
-3.000000000000007
 40
-3.000000000000007
 40
0.0
 40
0.0
 40
0.0
 10
-3.000000719711506
 20
10.50135006421026
 30
0.0
 10
-1.500000359855753
 20
10.50135006376591
 30
0.0
 10
0.0
 20
10.50135006332155
 30
0.0
  0
SPLINE
  5
85
330
1F
100
AcDbEntity
  8
Make2D visible lines
100
AcDbSpline
210
0.0
220
0.0
230
1.0
 70
    24
 71
     2
 72
     6
 73
     3
 74
     0
 42
0.0000000001
 43
0.0000000001
 40
0.0
 40
0.0
 40
0.0
 40
3.000000000000007
 40
3.000000000000007
 40
3.000000000000007
 10
0.0
 20
10.50135006332155
 30
0.0
 10
1.500000359855753
 20
10.50135006376591
 30
0.0
 10
3.000000719711506
 20
10.50135006421026
 30
0.0
  0
SPLINE
  5
86
330
1F
100
AcDbEntity
  8
Make2D visible lines
100
AcDbSpline
210
0.0
220
0.0
230
1.0
 70
     8
 71
     3
 72
    11
 73
     7
 74
     0
 42
0.0000000001
 43
0.0000000001
 40
0.0
 40
0.0
 40
0.0
 40
0.0
 40
0.398990183726646
 40
0.7324560601477451
 40
0.9807542986841283
 40
1.168375855721459
 40
1.168375855721459
 40
1.168375855721459
 40
1.168375855721459
 10
3.000000719711506
 20
10.50135006421026
 30
0.0
 10
3.132998527109332
 20
10.50153050107272
 30
0.0
 10
3.377152142550382
 20
10.50458123486796
 30
0.0
 10
3.703785814877286
 20
10.51993893394864
 30
0.0
 10
3.959102880551977
 20
10.54537302104643
 30
0.0
 10
4.102059846114321
 20
10.57279296043826
 30
0.0
 10
4.162044317750794
 20
10.59066387092882
 30
0.0
  0
SPLINE
  5
87
330
1F
100
AcDbEntity
  8
Make2D visible lines
100
AcDbSpline
210
0.0
220
0.0
230
1.0
 70
    12
 71
     2
 72
     6
 73
     3
 74
     0
 42
0.0000000001
 43
0.0000000001
 40
0.0
 40
0.0
 40
0.0
 40
0.8436208550946255
 40
0.8436208550946255
 40
0.8436208550946255
 10
4.162044317750794
 20
10.59066387092882
 30
0.0
 41
1.0
 10
4.589722410570922
 20
10.72734120170837
 30
0.0
 41
0.9873375337234498
 10
4.9338143594778
 20
10.97749903747302
 30
0.0
 41
1.0
  0
SPLINE
  5
88
330
1F
100
AcDbEntity
  8
Make2D visible lines
100
AcDbSpline
210
0.0
220
0.0
230
1.0
 70
    24
 71
     2
 72
     6
 73
     3
 74
     0
 42
0.0000000001
 43
0.0000000001
 40
0.0
 40
0.0
 40
0.0
 40
6.364943275724004
 40
6.364943275724004
 40
6.364943275724004
 10
-7.983667222298562
 20
5.140433629333178
 30
0.0
 10
-7.345882118572954
 20
8.258342525895387
 30
0.0
 10
-6.708097014847345
 20
11.37625142245759
 30
0.0
  0
SPLINE
  5
89
330
1F
100
AcDbEntity
  8
Make2D visible lines
100
AcDbSpline
210
0.0
220
0.0
230
1.0
 70
    12
 71
     2
 72
     8
 73
     5
 74
     0
 42
0.0000000001
 43
0.0000000001
 40
0.0
 40
0.0
 40
0.0
 40
0.4899288290525353
 40
0.4899288290525353
 40
0.9798576581050706
 40
0.9798576581050706
 40
0.9798576581050706
 10
9.207736920367005
 20
0.3554292163143787
 30
0.0
 41
1.0
 10
9.245817935948274
 20
0.0462031591105043
 30
0.0
 41
0.7081574404104211
 10
8.93670649610173
 20
0.0072026981189982
 30
0.0
 41
1.0
 10
8.627595056255183
 20
-0.0317977628725079
 30
0.0
 41
0.7081574404104211
 10
8.587675494782276
 20
0.2771963257657144
 30
0.0
 41
1.0
  0
SPLINE
  5
8A
330
1F
100
AcDbEntity
  8
Make2D visible lines
100
AcDbSpline
210
0.0
220
0.0
230
1.0
 70
    12
 71
     2
 72
     6
 73
     3
 74
     0
 42
0.0000000001
 43
0.0000000001
 40
0.0
 40
0.0
 40
0.0
 40
0.4054849752577168
 40
0.4054849752577168
 40
0.4054849752577168
 10
8.65158158825496
 20
0.004742647422339
 30
0.0
 41
1.0
 10
8.41467826400711
 20
0.0048887412593003
 30
0.0
 41
0.7970977390766091
 10
8.350682157147546
 20
0.2329845647412546
 30
0.0
 41
1.0
  0
SPLINE
  5
8B
330
1F
100
AcDbEntity
  8
Make2D visible lines
100
AcDbSpline
210
0.0
220
0.0
230
1.0
 70
    12
 71
     2
 72
     6
 73
     3
 74
     0
 42
0.0000000001
 43
0.0000000001
 40
0.0
 40
0.0
 40
0.0
 40
0.1264146628890321
 40
0.1264146628890321
 40
0.1264146628890321
 10
8.774574541058236
 20
0.0299690987098233
 30
0.0
 41
1.0
 10
8.715666392999573
 20
0.0047363356567515
 30
0.0
 41
0.9795874100105771
 10
8.65158158825496
 20
0.004742647422339
 30
0.0
 41
1.0
  0
SPLINE
  5
8C
330
1F
100
AcDbEntity
  8
Make2D visible lines
100
AcDbSpline
210
0.0
220
0.0
230
1.0
 70
    12
 71
     3
 72
    10
 73
     6
 74
     0
 42
0.0000000001
 43
0.0000000001
 40
0.8078408789122629
 40
0.8078408789122629
 40
0.8078408789122629
 40
0.8078408789122629
 40
0.9999985439659037
 40
0.9999985439659037
 40
1.557289640677526
 40
1.557289640677526
 40
1.557289640677526
 40
1.557289640677526
 10
8.605685630742828
 20
0.2056748809510123
 30
0.0
 41
1.0
 10
8.570754026573685
 20
0.2011262291482048
 30
0.0
 41
1.0
 10
8.536140860250939
 20
0.1987334452330106
 30
0.0
 41
1.0
 10
8.408358896028098
 20
0.199482217170023
 30
0.0
 41
1.0
 10
8.352073569440362
 20
0.2216435234511657
 30
0.0
 41
1.0
 10
8.345318831729223
 20
0.2546650798978219
 30
0.0
 41
1.0
  0
SPLINE
  5
8D
330
1F
100
AcDbEntity
  8
Make2D visible lines
100
AcDbSpline
210
0.0
220
0.0
230
1.0
 70
    12
 71
     2
 72
     8
 73
     5
 74
     0
 42
0.0000000001
 43
0.0000000001
 40
0.0
 40
0.0
 40
0.0
 40
0.4899288290525353
 40
0.4899288290525353
 40
0.9798576581050706
 40
0.9798576581050706
 40
0.9798576581050706
 10
-9.207736920367005
 20
0.3554292163143787
 30
0.0
 41
1.0
 10
-9.245817935948274
 20
0.0462031591105043
 30
0.0
 41
0.7081574404104211
 10
-8.93670649610173
 20
0.0072026981189982
 30
0.0
 41
1.0
 10
-8.627595056255183
 20
-0.0317977628725079
 30
0.0
 41
0.7081574404104211
 10
-8.587675494782276
 20
0.2771963257657144
 30
0.0
 41
1.0
  0
SPLINE
  5
8E
330
1F
100
AcDbEntity
  8
Make2D visible lines
100
AcDbSpline
210
0.0
220
0.0
230
1.0
 70
    12
 71
     2
 72
     6
 73
     3
 74
     0
 42
0.0000000001
 43
0.0000000001
 40
0.0
 40
0.0
 40
0.0
 40
0.4054849752577168
 40
0.4054849752577168
 40
0.4054849752577168
 10
-8.65158158825496
 20
0.004742647422339
 30
0.0
 41
1.0
 10
-8.41467826400711
 20
0.0048887412593003
 30
0.0
 41
0.7970977390766091
 10
-8.350682157147546
 20
0.2329845647412546
 30
0.0
 41
1.0
  0
SPLINE
  5
8F
330
1F
100
AcDbEntity
  8
Make2D visible lines
100
AcDbSpline
210
0.0
220
0.0
230
1.0
 70
    12
 71
     2
 72
     6
 73
     3
 74
     0
 42
0.0000000001
 43
0.0000000001
 40
0.0
 40
0.0
 40
0.0
 40
0.1264146628890321
 40
0.1264146628890321
 40
0.1264146628890321
 10
-8.774574541058236
 20
0.0299690987098233
 30
0.0
 41
1.0
 10
-8.715666392999573
 20
0.0047363356567515
 30
0.0
 41
0.9795874100105771
 10
-8.65158158825496
 20
0.004742647422339
 30
0.0
 41
1.0
  0
SPLINE
  5
90
330
1F
100
AcDbEntity
  8
Make2D visible lines
100
AcDbSpline
210
0.0
220
0.0
230
1.0
 70
    24
 71
     2
 72
     6
 73
     3
 74
     0
 42
0.0000000001
 43
0.0000000001
 40
0.0
 40
0.0
 40
0.0
 40
11.19019005670523
 40
11.19019005670523
 40
11.19019005670523
 10
-6.103263048612298
 20
11.21439820764473
 30
0.0
 10
-7.224594808674299
 20
5.732610813899691
 30
0.0
 10
-8.3459265687363
 20
0.2508234201546527
 30
0.0
  0
SPLINE
  5
91
330
1F
100
AcDbEntity
  8
Make2D visible lines
100
AcDbSpline
210
0.0
220
0.0
230
1.0
 70
    12
 71
     2
 72
     8
 73
     5
 74
     0
 42
0.0000000001
 43
0.0000000001
 40
-0.58087817316153
 40
-0.58087817316153
 40
-0.58087817316153
 40
-0.2740820155844018
 40
-0.2740820155844018
 40
-0.1706093440027808
 40
-0.1706093440027808
 40
-0.1706093440027808
 10
-8.345926568736298
 20
0.2508234201546527
 30
0.0
 41
0.8627063036811942
 10
-8.358445493001197
 20
0.196384565553119
 30
0.0
 41
0.8169417382415922
 10
-8.50379614643217
 20
0.1955328452721709
 30
0.0
 41
1.0
 10
-8.555556928718213
 20
0.1960401402044483
 30
0.0
 41
0.9955460879863995
 10
-8.60691097264942
 20
0.2025361468949102
 30
0.0
 41
0.9944550976446503
  0
SPLINE
  5
92
330
1F
100
AcDbEntity
  8
Make2D visible lines
100
AcDbSpline
210
0.0
220
0.0
230
1.0
 70
    12
 71
     2
 72
     8
 73
     5
 74
     0
 42
0.0000000001
 43
0.0000000001
 40
-0.5202994329098187
 40
-0.5202994329098187
 40
-0.5202994329098187
 40
-0.4908660760738508
 40
-0.4908660760738508
 40
0.0
 40
0.0
 40
0.0
 10
8.588197715348175
 20
0.2736763833125623
 30
0.0
 41
1.0
 10
8.587274544253164
 20
0.2902084399416757
 30
0.0
 41
0.84093902136173
 10
8.601938086204987
 20
0.297898802656532
 30
0.0
 41
1.0
 10
8.694542781672634
 20
0.3704138886380521
 30
0.0
 41
0.7071888352815602
 10
8.990432191461906
 20
0.3880901797958438
 30
0.0
 41
0.999835932519513
  0
SPLINE
  5
93
330
1F
100
AcDbEntity
  8
Make2D visible lines
100
AcDbSpline
210
0.0
220
0.0
230
1.0
 70
    12
 71
     3
 72
     8
 73
     4
 74
     0
 42
0.0000000001
 43
0.0000000001
 40
-1.963087469356249
 40
-1.963087469356249
 40
-1.963087469356249
 40
-1.963087469356249
 40
-1.582998516805881
 40
-1.582998516805881
 40
-1.582998516805881
 40
-1.582998516805881
 10
8.990432191461906
 20
0.3880901797958438
 30
0.0
 41
1.0
 10
9.116908792850431
 20
0.3966008300486344
 30
0.0
 41
1.0
 10
9.20005216628825
 20
0.3829426317818387
 30
0.0
 41
1.0
 10
9.207357859619933
 20
0.3578284635590593
 30
0.0
 41
1.0
  0
SPLINE
  5
94
330
1F
100
AcDbEntity
  8
Make2D visible lines
100
AcDbSpline
210
0.0
220
0.0
230
1.0
 70
    12
 71
     2
 72
     8
 73
     5
 74
     0
 42
0.0000000001
 43
0.0000000001
 40
-0.5202994329098187
 40
-0.5202994329098187
 40
-0.5202994329098187
 40
-0.4908660760738508
 40
-0.4908660760738508
 40
0.0
 40
0.0
 40
0.0
 10
-8.588197715348175
 20
0.2736763833125623
 30
0.0
 41
1.0
 10
-8.587274544253164
 20
0.2902084399416757
 30
0.0
 41
0.84093902136173
 10
-8.601938086204987
 20
0.297898802656532
 30
0.0
 41
1.0
 10
-8.694542781672634
 20
0.3704138886380521
 30
0.0
 41
0.7071888352815602
 10
-8.990432191461906
 20
0.3880901797958438
 30
0.0
 41
0.999835932519513
  0
SPLINE
  5
95
330
1F
100
AcDbEntity
  8
Make2D visible lines
100
AcDbSpline
210
0.0
220
0.0
230
1.0
 70
    12
 71
     3
 72
     8
 73
     4
 74
     0
 42
0.0000000001
 43
0.0000000001
 40
-1.963087469356249
 40
-1.963087469356249
 40
-1.963087469356249
 40
-1.963087469356249
 40
-1.582998516805881
 40
-1.582998516805881
 40
-1.582998516805881
 40
-1.582998516805881
 10
-8.990432191461906
 20
0.3880901797958438
 30
0.0
 41
1.0
 10
-9.116908792850431
 20
0.3966008300486344
 30
0.0
 41
1.0
 10
-9.20005216628825
 20
0.3829426317818387
 30
0.0
 41
1.0
 10
-9.207357859619933
 20
0.3578284635590593
 30
0.0
 41
1.0
  0
SPLINE
  5
96
330
1F
100
AcDbEntity
  8
Default
100
AcDbSpline
210
0.0
220
0.0
230
1.0
 70
     8
 71
     3
 72
    10
 73
     6
 74
     0
 42
0.0000000001
 43
0.0000000001
 40
0.0
 40
0.0
 40
0.0
 40
0.0
 40
1.0
 40
2.0
 40
3.0
 40
3.0
 40
3.0
 40
3.0
 10
9.451220845788054
 20
22.794592742149
 30
0.0
 10
9.837165255510062
 20
22.74507671642643
 30
0.0
 10
10.60621124986806
 20
22.62611319560534
 30
0.0
 10
11.75054056906566
 20
22.39077186829894
 30
0.0
 10
12.49347058494109
 20
22.16577539681011
 30
0.0
 10
12.86603319568208
 20
22.05407055463593
 30
0.0
  0
SPLINE
  5
97
330
1F
100
AcDbEntity
  8
Default
100
AcDbSpline
210
0.0
220
0.0
230
1.0
 70
     8
 71
     3
 72
    24
 73
    20
 74
     0
 42
0.0000000001
 43
0.0000000001
 40
-17.0
 40
-17.0
 40
-17.0
 40
-17.0
 40
-16.0
 40
-15.0
 40
-14.0
 40
-13.0
 40
-12.0
 40
-11.0
 40
-10.0
 40
-9.0
 40
-8.0
 40
-7.0
 40
-6.0
 40
-5.0
 40
-4.0
 40
-3.0
 40
-2.0
 40
-1.0
 40
0.0
 40
0.0
 40
0.0
 40
0.0
 10
12.86603319568208
 20
22.05407055463593
 30
0.0
 10
13.04831480642732
 20
21.93563394914524
 30
0.0
 10
13.01143174416587
 20
21.50476400081678
 30
0.0
 10
12.8551323070349
 20
20.96425732435797
 30
0.0
 10
12.62092293699034
 20
20.42940281824822
 30
0.0
 10
12.35657899154999
 20
19.91614358995071
 30
0.0
 10
12.09691471619011
 20
19.39877236651986
 30
0.0
 10
11.82037039949947
 20
18.89057621155586
 30
0.0
 10
11.52266792761303
 20
18.39435637099544
 30
0.0
 10
11.21026727563287
 20
17.90743344574404
 30
0.0
 10
10.88975410030301
 20
17.42562180289492
 30
0.0
 10
10.55151996505419
 20
16.95651642827538
 30
0.0
 10
10.19862732611481
 20
16.49669149293766
 30
0.0
 10
9.780956084325966
 20
16.09467561047192
 30
0.0
 10
9.324398863786229
 20
15.73765761895072
 30
0.0
 10
8.81211054372396
 20
15.46372841353538
 30
0.0
 10
8.264844316289777
 20
15.27213444415641
 30
0.0
 10
7.691505799970269
 20
15.17271088949965
 30
0.0
 10
7.304494249100342
 20
15.19420542852272
 30
0.0
 10
7.112618991909198
 20
15.21111635099036
 30
0.0
  0
SPLINE
  5
98
330
1F
100
AcDbEntity
  8
Default
100
AcDbSpline
210
0.0
220
0.0
230
1.0
 70
     8
 71
     3
 72
    10
 73
     6
 74
     0
 42
0.0000000001
 43
0.0000000001
 40
0.0
 40
0.0
 40
0.0
 40
0.0
 40
1.0
 40
2.0
 40
3.0
 40
3.0
 40
3.0
 40
3.0
 10
-9.451220845788054
 20
22.794592742149
 30
0.0
 10
-9.837165255510062
 20
22.74507671642643
 30
0.0
 10
-10.60621124986806
 20
22.62611319560534
 30
0.0
 10
-11.75054056906566
 20
22.39077186829894
 30
0.0
 10
-12.49347058494109
 20
22.16577539681011
 30
0.0
 10
-12.86603319568208
 20
22.05407055463593
 30
0.0
  0
SPLINE
  5
99
330
1F
100
AcDbEntity
  8
Default
100
AcDbSpline
210
0.0
220
0.0
230
1.0
 70
     8
 71
     3
 72
    24
 73
    20
 74
     0
 42
0.0000000001
 43
0.0000000001
 40
-17.0
 40
-17.0
 40
-17.0
 40
-17.0
 40
-16.0
 40
-15.0
 40
-14.0
 40
-13.0
 40
-12.0
 40
-11.0
 40
-10.0
 40
-9.0
 40
-8.0
 40
-7.0
 40
-6.0
 40
-5.0
 40
-4.0
 40
-3.0
 40
-2.0
 40
-1.0
 40
0.0
 40
0.0
 40
0.0
 40
0.0
 10
-12.86603319568208
 20
22.05407055463593
 30
0.0
 10
-13.04831480642732
 20
21.93563394914524
 30
0.0
 10
-13.01143174416587
 20
21.50476400081678
 30
0.0
 10
-12.8551323070349
 20
20.96425732435797
 30
0.0
 10
-12.62092293699034
 20
20.42940281824822
 30
0.0
 10
-12.35657899154999
 20
19.91614358995071
 30
0.0
 10
-12.09691471619011
 20
19.39877236651986
 30
0.0
 10
-11.82037039949947
 20
18.89057621155586
 30
0.0
 10
-11.52266792761303
 20
18.39435637099544
 30
0.0
 10
-11.21026727563287
 20
17.90743344574404
 30
0.0
 10
-10.88975410030301
 20
17.42562180289492
 30
0.0
 10
-10.55151996505419
 20
16.95651642827538
 30
0.0
 10
-10.19862732611481
 20
16.49669149293766
 30
0.0
 10
-9.780956084325966
 20
16.09467561047192
 30
0.0
 10
-9.324398863786229
 20
15.73765761895072
 30
0.0
 10
-8.81211054372396
 20
15.46372841353538
 30
0.0
 10
-8.264844316289777
 20
15.27213444415641
 30
0.0
 10
-7.691505799970269
 20
15.17271088949965
 30
0.0
 10
-7.304494249100342
 20
15.19420542852272
 30
0.0
 10
-7.112618991909198
 20
15.21111635099036
 30
0.0
  0
SPLINE
  5
9A
330
1F
100
AcDbEntity
  8
Default
100
AcDbSpline
210
0.0
220
0.0
230
1.0
 70
     8
 71
     3
 72
    18
 73
    14
 74
     0
 42
0.0000000001
 43
0.0000000001
 40
0.0
 40
0.0
 40
0.0
 40
0.0
 40
0.9254853175734451
 40
1.981547862576412
 40
2.922780702466616
 40
5.202892339369122
 40
6.806635057358396
 40
7.075554889082884
 40
7.35175695964189
 40
8.926946182333468
 40
11.20019661017632
 40
12.15658972317423
 40
14.15002827629614
 40
14.15002827629614
 40
14.15002827629614
 40
14.15002827629614
 10
-7.072084197509799
 20
15.21409363583389
 30
0.0
 10
-6.764392542217433
 20
15.23636159493899
 30
0.0
 10
-6.104832697954772
 20
15.27305292089873
 30
0.0
 10
-5.131016061509472
 20
15.30394820730789
 30
0.0
 10
-3.70547023991605
 20
15.33083327303873
 30
0.0
 10
-2.097203934597269
 20
15.35087411888865
 30
0.0
 10
-0.7132462039742133
 20
15.3787532566943
 30
0.0
 10
0.0029658456222457
 20
15.39151765484106
 30
0.0
 10
0.7096718093917165
 20
15.37884576180155
 30
0.0
 10
2.084238426799125
 20
15.35137348268166
 30
0.0
 10
3.685781661831594
 20
15.33129342371243
 30
0.0
 10
5.426455250949559
 20
15.29852682187534
 30
0.0
 10
6.409254080656499
 20
15.26185919841928
 30
0.0
 10
7.072082199754316
 20
15.21409365172837
 30
0.0
  0
SPLINE
  5
9B
330
1F
100
AcDbEntity
  8
Default
100
AcDbSpline
210
0.0
220
0.0
230
1.0
 70
     8
 71
     3
 72
    19
 73
    15
 74
     0
 42
0.0000000001
 43
0.0000000001
 40
-12.0
 40
-12.0
 40
-12.0
 40
-12.0
 40
-10.99999994264151
 40
-9.999999885283016
 40
-8.999999827924523
 40
-7.99999977056603
 40
-6.999999713207538
 40
-5.999999655849044
 40
-4.999999598490552
 40
-3.99999954113206
 40
-2.999999483773567
 40
-1.999999426415075
 40
-0.9999993690565827
 40
0.0
 40
0.0
 40
0.0
 40
0.0
 10
9.579798477433119
 20
15.94224619326134
 30
0.0
 10
9.417039482098676
 20
16.17046646775457
 30
0.0
 10
8.874193032982522
 20
16.32040437008572
 30
0.0
 10
8.086768703993322
 20
16.46927084545495
 30
0.0
 10
7.280167103544427
 20
16.5689942526075
 30
0.0
 10
6.474585632316312
 20
16.64744822585219
 30
0.0
 10
5.666670408160801
 20
16.70908816000822
 30
0.0
 10
4.858185093227288
 20
16.75872459065699
 30
0.0
 10
4.049086443624999
 20
16.79836585704752
 30
0.0
 10
3.239632264798128
 20
16.8293825717306
 30
0.0
 10
2.429916509209613
 20
16.85268661973151
 30
0.0
 10
1.620031756911371
 20
16.868981304745
 30
0.0
 10
0.8100413455233895
 20
16.87865181911869
 30
0.0
 10
0.2700137256778342
 20
16.88080136589041
 30
0.0
 10
0.0
 20
16.8808017692891
 30
0.0
  0
SPLINE
  5
9C
330
1F
100
AcDbEntity
  8
Default
100
AcDbSpline
210
0.0
220
0.0
230
1.0
 70
     8
 71
     3
 72
    19
 73
    15
 74
     0
 42
0.0000000001
 43
0.0000000001
 40
0.0
 40
0.0
 40
0.0
 40
0.0
 40
0.9999993690565827
 40
1.999999426415075
 40
2.999999483773567
 40
3.99999954113206
 40
4.999999598490552
 40
5.999999655849044
 40
6.999999713207538
 40
7.99999977056603
 40
8.999999827924523
 40
9.999999885283016
 40
10.99999994264151
 40
12.0
 40
12.0
 40
12.0
 40
12.0
 10
0.0
 20
16.8808017692891
 30
0.0
 10
-0.2700137256778342
 20
16.88080136589041
 30
0.0
 10
-0.8100413455233895
 20
16.87865181911869
 30
0.0
 10
-1.620031756911371
 20
16.868981304745
 30
0.0
 10
-2.429916509209613
 20
16.85268661973151
 30
0.0
 10
-3.239632264798128
 20
16.8293825717306
 30
0.0
 10
-4.049086443624999
 20
16.79836585704752
 30
0.0
 10
-4.858185093227288
 20
16.75872459065699
 30
0.0
 10
-5.666670408160801
 20
16.70908816000822
 30
0.0
 10
-6.474585632316312
 20
16.64744822585219
 30
0.0
 10
-7.280167103544427
 20
16.5689942526075
 30
0.0
 10
-8.086768703993322
 20
16.46927084545495
 30
0.0
 10
-8.874193032982522
 20
16.32040437008572
 30
0.0
 10
-9.417039482098676
 20
16.17046646775457
 30
0.0
 10
-9.579798477433119
 20
15.94224619326134
 30
0.0
  0
SPLINE
  5
9D
330
1F
100
AcDbEntity
  8
Default
100
AcDbSpline
210
0.0
220
0.0
230
1.0
 70
    12
 71
     3
 72
    12
 73
     8
 74
     0
 42
0.0000000001
 43
0.0000000001
 40
0.0000015244031389
 40
0.0000015244031389
 40
0.0000015244031389
 40
0.0000015244031389
 40
1.655878507711192
 40
1.655878507711192
 40
3.575934564302206
 40
4.856026097711562
 40
5.213941575815037
 40
5.213941575815037
 40
5.213941575815037
 40
5.213941575815037
 10
0.0
 20
39.83129155915812
 30
0.0
 41
1.0
 10
-0.551959599774154
 20
39.83128010510203
 30
0.0
 41
1.0
 10
-1.10353119290996
 20
39.83810058299362
 30
0.0
 41
1.0
 10
-2.291306950749718
 20
39.85777519027104
 30
0.0
 41
1.0
 10
-3.351664890896622
 20
39.88034270224099
 30
0.0
 41
1.0
 10
-4.5229981160604
 20
39.90090615058695
 30
0.0
 41
1.0
 10
-5.060501326416954
 20
39.90763940552164
 30
0.0
 41
1.0
 10
-5.177866684175871
 20
39.90891909858203
 30
0.0
 41
1.0
  0
SPLINE
  5
9E
330
1F
100
AcDbEntity
  8
Default
100
AcDbSpline
210
0.0
220
0.0
230
1.0
 70
     8
 71
     3
 72
     8
 73
     4
 74
     0
 42
0.0000000001
 43
0.0000000001
 40
0.0
 40
0.0
 40
0.0
 40
0.0
 40
1.0
 40
1.0
 40
1.0
 40
1.0
 10
-5.177866684175871
 20
39.90891909858203
 30
0.0
 10
-5.740479531106824
 20
39.91505354719328
 30
0.0
 10
-6.303201445723806
 20
39.91740025010785
 30
0.0
 10
-6.865804854608335
 20
39.91045393432015
 30
0.0
  0
SPLINE
  5
9F
330
1F
100
AcDbEntity
  8
Default
100
AcDbSpline
210
0.0
220
0.0
230
1.0
 70
     8
 71
     3
 72
    14
 73
    10
 74
     0
 42
0.0000000001
 43
0.0000000001
 40
0.0
 40
0.0
 40
0.0
 40
0.0
 40
1.0
 40
2.0
 40
3.0
 40
4.0
 40
5.0
 40
6.0
 40
7.0
 40
7.0
 40
7.0
 40
7.0
 10
-6.865804854608335
 20
39.91045393432015
 30
0.0
 10
-7.00125010314264
 20
39.9087816275879
 30
0.0
 10
-7.271751712080109
 20
39.87757828830028
 30
0.0
 10
-7.659443149838179
 20
39.74798622851769
 30
0.0
 10
-8.007193046384305
 20
39.5322598891058
 30
0.0
 10
-8.295807779272742
 20
39.2424087712411
 30
0.0
 10
-8.509237336640245
 20
38.89316654173869
 30
0.0
 10
-8.634592013502607
 20
38.50387284028668
 30
0.0
 10
-8.660424379766914
 20
38.23274023338352
 30
0.0
 10
-8.660342120238935
 20
38.09731843235532
 30
0.0
  0
SPLINE
  5
A0
330
1F
100
AcDbEntity
  8
Default
100
AcDbSpline
210
0.0
220
0.0
230
1.0
 70
    12
 71
     2
 72
     6
 73
     3
 74
     0
 42
0.0000000001
 43
0.0000000001
 40
-12.85135725885201
 40
-12.85135725885201
 40
-12.85135725885201
 40
0.0
 40
0.0
 40
0.0
 10
-8.660342120238935
 20
38.09731843235532
 30
0.0
 41
1.0
 10
-8.571758563186432
 20
31.6712980852012
 30
0.0
 41
0.9997777544588874
 10
-8.212369994691802
 20
25.25472388977152
 30
0.0
 41
1.0
  0
SPLINE
  5
A1
330
1F
100
AcDbEntity
  8
Default
100
AcDbSpline
210
0.0
220
0.0
230
1.0
 70
     8
 71
     3
 72
    14
 73
    10
 74
     0
 42
0.0000000001
 43
0.0000000001
 40
0.0
 40
0.0
 40
0.0
 40
0.0
 40
1.0
 40
2.0
 40
3.0
 40
4.0
 40
5.0
 40
6.0
 40
7.0
 40
7.0
 40
7.0
 40
7.0
 10
-8.212369994691802
 20
25.25472388977152
 30
0.0
 10
-8.203348670836244
 20
25.11819504011888
 30
0.0
 10
-8.21817292965104
 20
24.84329224257381
 30
0.0
 10
-8.326125425906634
 20
24.44534465293703
 30
0.0
 10
-8.503678497433997
 20
24.07368062876448
 30
0.0
 10
-8.738729102400226
 20
23.73581241330563
 30
0.0
 10
-9.01950286815481
 20
23.43456068773775
 30
0.0
 10
-9.357380843473617
 20
23.19623217763352
 30
0.0
 10
-9.638497564180101
 20
23.0991738648641
 30
0.0
 10
-9.773845312746076
 20
23.07876581482116
 30
0.0
  0
SPLINE
  5
A2
330
1F
100
AcDbEntity
  8
Default
100
AcDbSpline
210
0.0
220
0.0
230
1.0
 70
    12
 71
     3
 72
    40
 73
    36
 74
     0
 42
0.0000000001
 43
0.0000000001
 40
-21.96582129936726
 40
-21.96582129936726
 40
-21.96582129936726
 40
-21.96582129936726
 40
-21.47285071712852
 40
-20.96588855570332
 40
-20.03040031456323
 40
-19.32348620733794
 40
-18.36566766884025
 40
-18.36566766884025
 40
-18.36566766884025
 40
-18.0
 40
-18.0
 40
-18.0
 40
-17.0
 40
-16.0
 40
-15.0
 40
-14.0
 40
-13.0
 40
-12.0
 40
-11.0
 40
-10.0
 40
-9.0
 40
-8.0
 40
-7.0
 40
-7.0
 40
-7.0
 40
-6.0
 40
-5.0
 40
-4.0
 40
-3.0
 40
-2.0
 40
-1.0
 40
0.0
 40
0.0
 40
0.0
 40
1.0
 40
1.0
 40
1.0
 40
1.0
 10
-9.773845312746076
 20
23.07876581482116
 30
0.0
 41
1.0
 10
-9.93632958609109
 20
23.0542660561126
 30
0.0
 41
1.0
 10
-10.28729589375195
 20
23.00886353879968
 30
0.0
 41
1.0
 10
-10.92435709398598
 20
22.90686101023497
 30
0.0
 41
1.0
 10
-11.62876551689731
 20
22.77534212602818
 30
0.0
 41
1.0
 10
-12.47190388114772
 20
22.57263727965588
 30
0.0
 41
1.0
 10
-13.09285601967382
 20
22.3933512948779
 30
0.0
 41
1.0
 10
-13.39424867098563
 20
22.28818353844545
 30
0.0
 41
1.0
 10
-13.51000983739903
 20
22.24778991205572
 30
0.0
 41
0.9883581237286712
 10
-13.61623777803105
 20
22.18655899649165
 30
0.0
 41
0.9883581237286712
 10
-13.70922241525749
 20
22.10662931998218
 30
0.0
 41
1.0
 10
-13.85213496313136
 20
21.97167448342683
 30
0.0
 41
1.0
 10
-13.829752876896
 20
21.57512419767041
 30
0.0
 41
1.0
 10
-13.62822427316106
 20
21.06888880747459
 30
0.0
 41
1.0
 10
-13.38162993243203
 20
20.57442003016262
 30
0.0
 41
1.0
 10
-13.13609041941228
 20
20.08210881075118
 30
0.0
 41
1.0
 10
-12.89130475741731
 20
19.58869529837865
 30
0.0
 41
1.0
 10
-12.63719853993839
 20
19.1001631039134
 30
0.0
 41
1.0
 10
-12.36776840158855
 20
18.61982915583897
 30
0.0
 41
1.0
 10
-12.08376260583835
 20
18.14799893232423
 30
0.0
 41
1.0
 10
-11.7866037094319
 20
17.68435524098808
 30
0.0
 41
1.0
 10
-11.47889095853603
 20
17.22765253694157
 30
0.0
 41
1.0
 10
-11.26586715784026
 20
16.92863911568676
 30
0.0
 41
1.0
 10
-11.15765789391559
 20
16.78037738029101
 30
0.0
 41
1.0
 10
-11.03409866176527
 20
16.60737183030029
 30
0.0
 41
1.0
 10
-10.76590832192685
 20
16.27649630158438
 30
0.0
 41
1.0
 10
-10.30682830844912
 20
15.83194442631789
 30
0.0
 41
1.0
 10
-9.792969348286181
 20
15.45178431673485
 30
0.0
 41
1.0
 10
-9.231512476361774
 20
15.14559949168616
 30
0.0
 41
1.0
 10
-8.630694276045052
 20
14.92707801913945
 30
0.0
 41
1.0
 10
-8.002675155631582
 20
14.80102445112071
 30
0.0
 41
1.0
 10
-7.57583504804677
 20
14.80046980529397
 30
0.0
 41
1.0
 10
-7.363562977095139
 20
14.80816501433501
 30
0.0
 41
1.0
 10
-4.909028452583512
 20
14.87987584369029
 30
0.0
 41
1.0
 10
-2.45558184043341
 20
15.02468258394725
 30
0.0
 41
1.0
 10
0.0
 20
15.02468258394725
 30
0.0
 41
1.0
  0
SPLINE
  5
A3
330
1F
100
AcDbEntity
  8
Default
100
AcDbSpline
210
0.0
220
0.0
230
1.0
 70
    12
 71
     3
 72
    40
 73
    36
 74
     0
 42
0.0000000001
 43
0.0000000001
 40
-1.0
 40
-1.0
 40
-1.0
 40
-1.0
 40
0.0
 40
0.0
 40
0.0
 40
1.0
 40
2.0
 40
3.0
 40
4.0
 40
5.0
 40
6.0
 40
7.0
 40
7.0
 40
7.0
 40
8.0
 40
9.0
 40
10.0
 40
11.0
 40
12.0
 40
13.0
 40
14.0
 40
15.0
 40
16.0
 40
17.0
 40
18.0
 40
18.0
 40
18.0
 40
18.36566766884025
 40
18.36566766884025
 40
18.36566766884025
 40
19.32348620733794
 40
20.03040031456323
 40
20.96588855570332
 40
21.47285071712852
 40
21.96582129936726
 40
21.96582129936726
 40
21.96582129936726
 40
21.96582129936726
 10
0.0
 20
15.02468258394725
 30
0.0
 41
1.0
 10
2.45558184043341
 20
15.02468258394725
 30
0.0
 41
1.0
 10
4.909028452583512
 20
14.87987584369029
 30
0.0
 41
1.0
 10
7.363562977095139
 20
14.80816501433501
 30
0.0
 41
1.0
 10
7.57583504804677
 20
14.80046980529397
 30
0.0
 41
1.0
 10
8.002675155631582
 20
14.80102445112071
 30
0.0
 41
1.0
 10
8.630694276045052
 20
14.92707801913945
 30
0.0
 41
1.0
 10
9.231512476361774
 20
15.14559949168616
 30
0.0
 41
1.0
 10
9.792969348286181
 20
15.45178431673485
 30
0.0
 41
1.0
 10
10.30682830844912
 20
15.83194442631789
 30
0.0
 41
1.0
 10
10.76590832192685
 20
16.27649630158438
 30
0.0
 41
1.0
 10
11.03409866176527
 20
16.60737183030029
 30
0.0
 41
1.0
 10
11.15765789391559
 20
16.78037738029101
 30
0.0
 41
1.0
 10
11.26586715784026
 20
16.92863911568676
 30
0.0
 41
1.0
 10
11.47889095853603
 20
17.22765253694157
 30
0.0
 41
1.0
 10
11.7866037094319
 20
17.68435524098808
 30
0.0
 41
1.0
 10
12.08376260583835
 20
18.14799893232423
 30
0.0
 41
1.0
 10
12.36776840158855
 20
18.61982915583897
 30
0.0
 41
1.0
 10
12.63719853993839
 20
19.1001631039134
 30
0.0
 41
1.0
 10
12.89130475741731
 20
19.58869529837865
 30
0.0
 41
1.0
 10
13.13609041941228
 20
20.08210881075118
 30
0.0
 41
1.0
 10
13.38162993243203
 20
20.57442003016262
 30
0.0
 41
1.0
 10
13.62822427316106
 20
21.06888880747459
 30
0.0
 41
1.0
 10
13.829752876896
 20
21.57512419767041
 30
0.0
 41
1.0
 10
13.85213496313136
 20
21.97167448342683
 30
0.0
 41
1.0
 10
13.70922241525749
 20
22.10662931998218
 30
0.0
 41
1.0
 10
13.61623777803105
 20
22.18655899649165
 30
0.0
 41
0.9883581237286712
 10
13.51000983739903
 20
22.24778991205572
 30
0.0
 41
0.9883581237286712
 10
13.39424867098563
 20
22.28818353844545
 30
0.0
 41
1.0
 10
13.09285601967382
 20
22.3933512948779
 30
0.0
 41
1.0
 10
12.47190388114772
 20
22.57263727965588
 30
0.0
 41
1.0
 10
11.62876551689731
 20
22.77534212602818
 30
0.0
 41
1.0
 10
10.92435709398598
 20
22.90686101023497
 30
0.0
 41
1.0
 10
10.28729589375195
 20
23.00886353879968
 30
0.0
 41
1.0
 10
9.93632958609109
 20
23.0542660561126
 30
0.0
 41
1.0
 10
9.773845312746076
 20
23.07876581482116
 30
0.0
 41
1.0
  0
SPLINE
  5
A4
330
1F
100
AcDbEntity
  8
Default
100
AcDbSpline
210
0.0
220
0.0
230
1.0
 70
     8
 71
     3
 72
    14
 73
    10
 74
     0
 42
0.0000000001
 43
0.0000000001
 40
-7.0
 40
-7.0
 40
-7.0
 40
-7.0
 40
-6.0
 40
-5.0
 40
-4.0
 40
-3.0
 40
-2.0
 40
-1.0
 40
0.0
 40
0.0
 40
0.0
 40
0.0
 10
9.773845312746076
 20
23.07876581482116
 30
0.0
 10
9.638497564180101
 20
23.0991738648641
 30
0.0
 10
9.357380843473617
 20
23.19623217763352
 30
0.0
 10
9.01950286815481
 20
23.43456068773775
 30
0.0
 10
8.738729102400226
 20
23.73581241330563
 30
0.0
 10
8.503678497433997
 20
24.07368062876448
 30
0.0
 10
8.326125425906634
 20
24.44534465293703
 30
0.0
 10
8.21817292965104
 20
24.84329224257381
 30
0.0
 10
8.203348670836244
 20
25.11819504011888
 30
0.0
 10
8.212369994691802
 20
25.25472388977152
 30
0.0
  0
SPLINE
  5
A5
330
1F
100
AcDbEntity
  8
Default
100
AcDbSpline
210
0.0
220
0.0
230
1.0
 70
    12
 71
     2
 72
     6
 73
     3
 74
     0
 42
0.0000000001
 43
0.0000000001
 40
0.0
 40
0.0
 40
0.0
 40
12.85135725885201
 40
12.85135725885201
 40
12.85135725885201
 10
8.212369994691802
 20
25.25472388977152
 30
0.0
 41
1.0
 10
8.571758563186432
 20
31.6712980852012
 30
0.0
 41
0.9997777544588874
 10
8.660342120238935
 20
38.09731843235532
 30
0.0
 41
1.0
  0
SPLINE
  5
A6
330
1F
100
AcDbEntity
  8
Default
100
AcDbSpline
210
0.0
220
0.0
230
1.0
 70
     8
 71
     3
 72
    14
 73
    10
 74
     0
 42
0.0000000001
 43
0.0000000001
 40
-7.0
 40
-7.0
 40
-7.0
 40
-7.0
 40
-6.0
 40
-5.0
 40
-4.0
 40
-3.0
 40
-2.0
 40
-1.0
 40
0.0
 40
0.0
 40
0.0
 40
0.0
 10
8.660342120238935
 20
38.09731843235532
 30
0.0
 10
8.660424379766914
 20
38.23274023338352
 30
0.0
 10
8.634592013502607
 20
38.50387284028668
 30
0.0
 10
8.509237336640245
 20
38.89316654173869
 30
0.0
 10
8.295807779272742
 20
39.2424087712411
 30
0.0
 10
8.007193046384305
 20
39.5322598891058
 30
0.0
 10
7.659443149838179
 20
39.74798622851769
 30
0.0
 10
7.271751712080109
 20
39.87757828830028
 30
0.0
 10
7.00125010314264
 20
39.9087816275879
 30
0.0
 10
6.865804854608335
 20
39.91045393432015
 30
0.0
  0
SPLINE
  5
A7
330
1F
100
AcDbEntity
  8
Default
100
AcDbSpline
210
0.0
220
0.0
230
1.0
 70
     8
 71
     3
 72
     8
 73
     4
 74
     0
 42
0.0000000001
 43
0.0000000001
 40
-1.0
 40
-1.0
 40
-1.0
 40
-1.0
 40
0.0
 40
0.0
 40
0.0
 40
0.0
 10
6.865804854608335
 20
39.91045393432015
 30
0.0
 10
6.303201445723806
 20
39.91740025010785
 30
0.0
 10
5.740479531106824
 20
39.91505354719328
 30
0.0
 10
5.177866684175871
 20
39.90891909858203
 30
0.0
  0
SPLINE
  5
A8
330
1F
100
AcDbEntity
  8
Default
100
AcDbSpline
210
0.0
220
0.0
230
1.0
 70
    12
 71
     3
 72
    12
 73
     8
 74
     0
 42
0.0000000001
 43
0.0000000001
 40
-5.213941575815037
 40
-5.213941575815037
 40
-5.213941575815037
 40
-5.213941575815037
 40
-4.856026097711562
 40
-3.575934564302206
 40
-1.655878507711192
 40
-1.655878507711192
 40
-0.0000015244031389
 40
-0.0000015244031389
 40
-0.0000015244031389
 40
-0.0000015244031389
 10
5.177866684175871
 20
39.90891909858203
 30
0.0
 41
1.0
 10
5.060501326416954
 20
39.90763940552164
 30
0.0
 41
1.0
 10
4.5229981160604
 20
39.90090615058695
 30
0.0
 41
1.0
 10
3.351664890896622
 20
39.88034270224099
 30
0.0
 41
1.0
 10
2.291306950749718
 20
39.85777519027104
 30
0.0
 41
1.0
 10
1.10353119290996
 20
39.83810058299362
 30
0.0
 41
1.0
 10
0.551959599774154
 20
39.83128010510203
 30
0.0
 41
1.0
 10
0.0
 20
39.83129155915812
 30
0.0
 41
1.0
  0
SPLINE
  5
A9
330
1F
100
AcDbEntity
  8
Default
100
AcDbSpline
210
0.0
220
0.0
230
1.0
 70
     8
 71
     3
 72
    29
 73
    25
 74
     0
 42
0.0000000001
 43
0.0000000001
 40
0.0
 40
0.0
 40
0.0
 40
0.0
 40
1.0
 40
2.0
 40
3.0
 40
4.0
 40
5.0
 40
6.0
 40
7.0
 40
8.0
 40
9.0
 40
10.0
 40
11.0
 40
12.0
 40
13.0
 40
14.0
 40
15.0
 40
16.0
 40
17.0
 40
18.0
 40
19.0
 40
20.0
 40
21.0
 40
22.0
 40
22.0
 40
22.0
 40
22.0
 10
-8.239622439510413
 20
68.88825903444854
 30
0.0
 10
-8.402744956260534
 20
68.55910382767848
 30
0.0
 10
-8.846441087630826
 20
67.97178087050989
 30
0.0
 10
-9.51806026787942
 20
67.10139797627696
 30
0.0
 10
-10.21499581655716
 20
66.24942416726233
 30
0.0
 10
-10.88072092153392
 20
65.37295320815272
 30
0.0
 10
-11.46818480954773
 20
64.44118613358447
 30
0.0
 10
-11.99132702451456
 20
63.47261728659421
 30
0.0
 10
-12.4503425093555
 20
62.47198101109981
 30
0.0
 10
-12.8556833519296
 20
61.44871649408213
 30
0.0
 10
-13.21778537556887
 20
60.40938809422858
 30
0.0
 10
-13.5358311416561
 20
59.35580333033572
 30
0.0
 10
-13.81347850221864
 20
58.29074797922596
 30
0.0
 10
-13.99897855244034
 20
57.20373636745248
 30
0.0
 10
-13.95287168765478
 20
56.09319851035679
 30
0.0
 10
-13.56975932525846
 20
55.04939450566847
 30
0.0
 10
-12.94120685893805
 20
54.14118096268147
 30
0.0
 10
-12.34112266995122
 20
53.21971210803184
 30
0.0
 10
-11.65488792180461
 20
52.35763762259722
 30
0.0
 10
-10.92652663593547
 20
51.53306093957902
 30
0.0
 10
-10.19127658131436
 20
50.71434669948741
 30
0.0
 10
-9.449478641972552
 20
49.90160644134463
 30
0.0
 10
-8.679610159436137
 20
49.1148867544438
 30
0.0
 10
-8.130107463158497
 20
48.62792893339984
 30
0.0
 10
-7.843022721089127
 20
48.39957184770926
 30
0.0
  0
SPLINE
  5
AA
330
1F
100
AcDbEntity
  8
Default
100
AcDbSpline
210
0.0
220
0.0
230
1.0
 70
     8
 71
     3
 72
    29
 73
    25
 74
     0
 42
0.0000000001
 43
0.0000000001
 40
0.0
 40
0.0
 40
0.0
 40
0.0
 40
1.0
 40
2.0
 40
3.0
 40
4.0
 40
5.0
 40
6.0
 40
7.0
 40
8.0
 40
9.0
 40
10.0
 40
11.0
 40
12.0
 40
13.0
 40
14.0
 40
15.0
 40
16.0
 40
17.0
 40
18.0
 40
19.0
 40
20.0
 40
21.0
 40
22.0
 40
22.0
 40
22.0
 40
22.0
 10
8.239622439510413
 20
68.88825903444854
 30
0.0
 10
8.402744956260534
 20
68.55910382767848
 30
0.0
 10
8.846441087630826
 20
67.97178087050989
 30
0.0
 10
9.51806026787942
 20
67.10139797627696
 30
0.0
 10
10.21499581655716
 20
66.24942416726233
 30
0.0
 10
10.88072092153392
 20
65.37295320815272
 30
0.0
 10
11.46818480954773
 20
64.44118613358447
 30
0.0
 10
11.99132702451456
 20
63.47261728659421
 30
0.0
 10
12.4503425093555
 20
62.47198101109981
 30
0.0
 10
12.8556833519296
 20
61.44871649408213
 30
0.0
 10
13.21778537556887
 20
60.40938809422858
 30
0.0
 10
13.5358311416561
 20
59.35580333033572
 30
0.0
 10
13.81347850221864
 20
58.29074797922596
 30
0.0
 10
13.99897855244034
 20
57.20373636745248
 30
0.0
 10
13.95287168765478
 20
56.09319851035679
 30
0.0
 10
13.56975932525846
 20
55.04939450566847
 30
0.0
 10
12.94120685893805
 20
54.14118096268147
 30
0.0
 10
12.34112266995122
 20
53.21971210803184
 30
0.0
 10
11.65488792180461
 20
52.35763762259722
 30
0.0
 10
10.92652663593547
 20
51.53306093957902
 30
0.0
 10
10.19127658131436
 20
50.71434669948741
 30
0.0
 10
9.449478641972552
 20
49.90160644134463
 30
0.0
 10
8.679610159436137
 20
49.1148867544438
 30
0.0
 10
8.130107463158497
 20
48.62792893339984
 30
0.0
 10
7.843022721089127
 20
48.39957184770926
 30
0.0
  0
SPLINE
  5
AB
330
1F
100
AcDbEntity
  8
Default
100
AcDbSpline
210
0.0
220
0.0
230
1.0
 70
    12
 71
     3
 72
    12
 73
     8
 74
     0
 42
0.0000000001
 43
0.0000000001
 40
-1.0
 40
-1.0
 40
-1.0
 40
-1.0
 40
-0.75
 40
-0.5
 40
-0.25
 40
-0.125
 40
0.0
 40
0.0
 40
0.0
 40
0.0
 10
8.660339450521494
 20
72.33622210907251
 30
0.0
 41
1.0
 10
8.660556464904602
 20
72.39181434796544
 30
0.0
 41
1.0
 10
8.578836592649836
 20
72.52376581578068
 30
0.0
 41
1.0
 10
8.190198485897803
 20
72.75664349583167
 30
0.0
 41
1.0
 10
7.695873870148777
 20
72.9457727597742
 30
0.0
 41
1.0
 10
7.240721486480219
 20
73.07820947992437
 30
0.0
 41
1.0
 10
7.002086055076564
 20
73.13579991077484
 30
0.0
 41
1.0
 10
6.882271177821046
 20
73.1625651526011
 30
0.0
 41
1.0
  0
SPLINE
  5
AC
330
1F
100
AcDbEntity
  8
Default
100
AcDbSpline
210
0.0
220
0.0
230
1.0
 70
    12
 71
     2
 72
     6
 73
     3
 74
     0
 42
0.0000000001
 43
0.0000000001
 40
-1.738615299748421
 40
-1.738615299748421
 40
-1.738615299748421
 40
0.0
 40
0.0
 40
0.0
 10
6.882271177821046
 20
73.1625651526011
 30
0.0
 41
1.0
 10
6.033279862355974
 20
73.34987325906467
 30
0.0
 41
0.9998265244242317
 10
5.177911055835407
 20
73.50548427503904
 30
0.0
 41
0.9999999999903404
  0
SPLINE
  5
AD
330
1F
100
AcDbEntity
  8
Default
100
AcDbSpline
210
0.0
220
0.0
230
1.0
 70
     8
 71
     3
 72
    11
 73
     7
 74
     0
 42
0.0000000001
 43
0.0000000001
 40
0.0
 40
0.0
 40
0.0
 40
0.0
 40
0.8055658146296342
 40
1.505207287485617
 40
2.898665587188706
 40
5.215701186741097
 40
5.215701186741097
 40
5.215701186741097
 40
5.215701186741097
 10
5.177911055835407
 20
73.50548427503904
 30
0.0
 10
4.913751751717292
 20
73.55403310171388
 30
0.0
 10
4.419444383042055
 20
73.63919881068401
 30
0.0
 10
3.464710108919519
 20
73.78954111359158
 30
0.0
 10
2.006844497292527
 20
73.9766797378141
 30
0.0
 10
0.7726800394893598
 20
74.07680990123154
 30
0.0
 10
0.0
 20
74.07982741706047
 30
0.0
  0
SPLINE
  5
AE
330
1F
100
AcDbEntity
  8
Default
100
AcDbSpline
210
0.0
220
0.0
230
1.0
 70
     8
 71
     3
 72
    11
 73
     7
 74
     0
 42
0.0000000001
 43
0.0000000001
 40
-5.215701186741097
 40
-5.215701186741097
 40
-5.215701186741097
 40
-5.215701186741097
 40
-2.898665587188706
 40
-1.505207287485617
 40
-0.8055658146296342
 40
0.0
 40
0.0
 40
0.0
 40
0.0
 10
0.0
 20
74.07982741706047
 30
0.0
 10
-0.7726800394893598
 20
74.07680990123154
 30
0.0
 10
-2.006844497292527
 20
73.9766797378141
 30
0.0
 10
-3.464710108919519
 20
73.78954111359158
 30
0.0
 10
-4.419444383042055
 20
73.63919881068401
 30
0.0
 10
-4.913751751717292
 20
73.55403310171388
 30
0.0
 10
-5.177911055835407
 20
73.50548427503904
 30
0.0
  0
SPLINE
  5
AF
330
1F
100
AcDbEntity
  8
Default
100
AcDbSpline
210
0.0
220
0.0
230
1.0
 70
    12
 71
     2
 72
     6
 73
     3
 74
     0
 42
0.0000000001
 43
0.0000000001
 40
0.0
 40
0.0
 40
0.0
 40
1.738615299748421
 40
1.738615299748421
 40
1.738615299748421
 10
-5.177911055835407
 20
73.50548427503904
 30
0.0
 41
0.9999999999903404
 10
-6.033279862355974
 20
73.34987325906467
 30
0.0
 41
0.9998265244242317
 10
-6.882271177821046
 20
73.1625651526011
 30
0.0
 41
1.0
  0
SPLINE
  5
B0
330
1F
100
AcDbEntity
  8
Default
100
AcDbSpline
210
0.0
220
0.0
230
1.0
 70
    12
 71
     3
 72
    12
 73
     8
 74
     0
 42
0.0000000001
 43
0.0000000001
 40
0.0
 40
0.0
 40
0.0
 40
0.0
 40
0.125
 40
0.25
 40
0.5
 40
0.75
 40
1.0
 40
1.0
 40
1.0
 40
1.0
 10
-6.882271177821046
 20
73.1625651526011
 30
0.0
 41
1.0
 10
-7.002086055076564
 20
73.13579991077484
 30
0.0
 41
1.0
 10
-7.240721486480219
 20
73.07820947992437
 30
0.0
 41
1.0
 10
-7.695873870148777
 20
72.9457727597742
 30
0.0
 41
1.0
 10
-8.190198485897803
 20
72.75664349583167
 30
0.0
 41
1.0
 10
-8.578836592649836
 20
72.52376581578068
 30
0.0
 41
1.0
 10
-8.660556464904602
 20
72.39181434796544
 30
0.0
 41
1.0
 10
-8.660339450521494
 20
72.33622210907251
 30
0.0
 41
1.0
  0
SPLINE
  5
B1
330
1F
100
AcDbEntity
  8
Default
100
AcDbSpline
210
0.0
220
0.0
230
1.0
 70
     8
 71
     3
 72
    11
 73
     7
 74
     0
 42
0.0000000001
 43
0.0000000001
 40
-3.576711082448426
 40
-3.576711082448426
 40
-3.576711082448426
 40
-3.576711082448426
 40
-2.825677162948847
 40
-1.983666277812516
 40
-1.056257442711363
 40
0.0
 40
0.0
 40
0.0
 40
0.0
 10
-8.660339450521494
 20
72.33622210907251
 30
0.0
 10
-8.64582876650336
 20
72.08632041965703
 30
0.0
 10
-8.603346695298402
 20
71.55690174263452
 30
0.0
 10
-8.508732696884195
 20
70.72200867383756
 30
0.0
 10
-8.377049576171157
 20
69.78930145513695
 30
0.0
 10
-8.271352711571115
 20
69.13654972320862
 30
0.0
 10
-8.212357982505024
 20
68.78938500771994
 30
0.0
  0
SPLINE
  5
B2
330
1F
100
AcDbEntity
  8
Default
100
AcDbSpline
210
0.0
220
0.0
230
1.0
 70
     8
 71
     3
 72
    19
 73
    15
 74
     0
 42
0.0000000001
 43
0.0000000001
 40
-12.0
 40
-12.0
 40
-12.0
 40
-12.0
 40
-11.0
 40
-10.0
 40
-9.0
 40
-8.0
 40
-7.0
 40
-6.0
 40
-5.0
 40
-4.0
 40
-3.0
 40
-2.0
 40
-1.0
 40
0.0
 40
0.0
 40
0.0
 40
0.0
 10
-8.212357982505024
 20
68.78938500771994
 30
0.0
 10
-8.251464594322998
 20
68.45998608490439
 30
0.0
 10
-8.674987330825362
 20
67.93087940687226
 30
0.0
 10
-9.25704314777981
 20
67.14444942020677
 30
0.0
 10
-9.879061785006432
 20
66.37609950318233
 30
0.0
 10
-10.49717596328069
 20
65.60781787710621
 30
0.0
 10
-11.05025022626818
 20
64.78990546543696
 30
0.0
 10
-11.55091197498813
 20
63.93970820956502
 30
0.0
 10
-11.99910702042509
 20
63.06056357812636
 30
0.0
 10
-12.39835222201492
 20
62.15829351631717
 30
0.0
 10
-12.75399861817201
 20
61.23806826461161
 30
0.0
 10
-13.07524566197993
 20
60.30536246935372
 30
0.0
 10
-13.36420112438459
 20
59.36210717451002
 30
0.0
 10
-13.52899773807026
 20
58.72535612969195
 30
0.0
 10
-13.60476422166439
 20
58.4054312558607
 30
0.0
  0
SPLINE
  5
B3
330
1F
100
AcDbEntity
  8
Default
100
AcDbSpline
210
0.0
220
0.0
230
1.0
 70
    12
 71
     3
 72
    11
 73
     7
 74
     0
 42
0.0000000001
 43
0.0000000001
 40
0.0
 40
0.0
 40
0.0
 40
0.0
 40
0.2499998804336
 40
0.4999997608673
 40
0.7499996413009
 40
1.0
 40
1.0
 40
1.0
 40
1.0
 10
-13.60476422166439
 20
58.4054312558607
 30
0.0
 41
1.0
 10
-13.68640444013618
 20
58.05106096985175
 30
0.0
 41
1.0
 10
-13.82486948920896
 20
57.33839657177307
 30
0.0
 41
1.0
 10
-13.84296345425543
 20
56.30506381583844
 30
0.0
 41
1.0
 10
-13.62821890379985
 20
55.38953923419805
 30
0.0
 41
1.0
 10
-13.37137269554725
 20
54.90967147514641
 30
0.0
 41
1.0
 10
-13.23921679425
 20
54.70031058605587
 30
0.0
 41
1.0
  0
SPLINE
  5
B4
330
1F
100
AcDbEntity
  8
Default
100
AcDbSpline
210
0.0
220
0.0
230
1.0
 70
     8
 71
     3
 72
    19
 73
    15
 74
     0
 42
0.0000000001
 43
0.0000000001
 40
-12.0
 40
-12.0
 40
-12.0
 40
-12.0
 40
-11.0
 40
-10.0
 40
-9.0
 40
-8.0
 40
-7.0
 40
-6.0
 40
-5.0
 40
-4.0
 40
-3.0
 40
-2.0
 40
-1.0
 40
0.0
 40
0.0
 40
0.0
 40
0.0
 10
-13.23921679425
 20
54.70031058605587
 30
0.0
 10
-13.10529441578214
 20
54.49184973707343
 30
0.0
 10
-12.83980631003764
 20
54.07349779926844
 30
0.0
 10
-12.43440403119571
 20
53.45033054241684
 30
0.0
 10
-11.99343542139108
 20
52.85165525146988
 30
0.0
 10
-11.52932181697256
 20
52.27089021633905
 30
0.0
 10
-11.04012789961342
 20
51.71117144444764
 30
0.0
 10
-10.54837687268894
 20
51.1538620239367
 30
0.0
 10
-10.0537702000633
 20
50.59903264261671
 30
0.0
 10
-9.555671359509077
 20
50.04732644772657
 30
0.0
 10
-9.044911177287661
 20
49.50724000727872
 30
0.0
 10
-8.515620253197858
 20
48.98517013492651
 30
0.0
 10
-7.959580540354483
 20
48.49138939720404
 30
0.0
 10
-7.566061248587081
 20
48.18964633305188
 30
0.0
 10
-7.363828091691389
 20
48.04441303688127
 30
0.0
  0
SPLINE
  5
B5
330
1F
100
AcDbEntity
  8
Default
100
AcDbSpline
210
0.0
220
0.0
230
1.0
 70
     8
 71
     3
 72
    12
 73
     8
 74
     0
 42
0.0000000001
 43
0.0000000001
 40
-15.78913311264457
 40
-15.78913311264457
 40
-15.78913311264457
 40
-15.78913311264457
 40
-11.7692665204822
 40
-7.88873615923726
 40
-4.023995779131863
 40
-2.0366405286363
 40
0.0
 40
0.0
 40
0.0
 40
0.0
 10
-7.363828091691389
 20
48.04441303688127
 30
0.0
 10
-6.276299232142028
 20
47.26175327649298
 30
0.0
 10
-3.920251405921634
 20
46.01485420384309
 30
0.0
 10
0.0005632692221091
 20
45.36064108105955
 30
0.0
 10
3.243898561279863
 20
45.90226953726592
 30
0.0
 10
5.667471981824054
 20
46.94070670729603
 30
0.0
 10
6.813292512616474
 20
47.64505049806174
 30
0.0
 10
7.363823428930187
 20
48.04441214579403
 30
0.0
  0
SPLINE
  5
B6
330
1F
100
AcDbEntity
  8
Default
100
AcDbSpline
210
0.0
220
0.0
230
1.0
 70
     8
 71
     3
 72
    19
 73
    15
 74
     0
 42
0.0000000001
 43
0.0000000001
 40
0.0
 40
0.0
 40
0.0
 40
0.0
 40
1.0
 40
2.0
 40
3.0
 40
4.0
 40
5.0
 40
6.0
 40
7.0
 40
8.0
 40
9.0
 40
10.0
 40
11.0
 40
12.0
 40
12.0
 40
12.0
 40
12.0
 10
7.363823428930187
 20
48.04441214579403
 30
0.0
 10
7.566061248587081
 20
48.18964633305188
 30
0.0
 10
7.959580540354483
 20
48.49138939720404
 30
0.0
 10
8.515620253197858
 20
48.98517013492651
 30
0.0
 10
9.044911177287661
 20
49.50724000727872
 30
0.0
 10
9.555671359509077
 20
50.04732644772657
 30
0.0
 10
10.0537702000633
 20
50.59903264261671
 30
0.0
 10
10.54837687268894
 20
51.1538620239367
 30
0.0
 10
11.04012789961342
 20
51.71117144444764
 30
0.0
 10
11.52932181697256
 20
52.27089021633905
 30
0.0
 10
11.99343542139108
 20
52.85165525146988
 30
0.0
 10
12.43440403119571
 20
53.45033054241684
 30
0.0
 10
12.83980631003764
 20
54.07349779926844
 30
0.0
 10
13.10529441578214
 20
54.49184973707343
 30
0.0
 10
13.23921679425
 20
54.70031058605587
 30
0.0
  0
SPLINE
  5
B7
330
1F
100
AcDbEntity
  8
Default
100
AcDbSpline
210
0.0
220
0.0
230
1.0
 70
    12
 71
     3
 72
    11
 73
     7
 74
     0
 42
0.0000000001
 43
0.0000000001
 40
-1.0
 40
-1.0
 40
-1.0
 40
-1.0
 40
-0.7499996413009
 40
-0.4999997608673
 40
-0.2499998804336
 40
0.0
 40
0.0
 40
0.0
 40
0.0
 10
13.23921679425
 20
54.70031058605587
 30
0.0
 41
1.0
 10
13.37137269554725
 20
54.90967147514641
 30
0.0
 41
1.0
 10
13.62821890379985
 20
55.38953923419805
 30
0.0
 41
1.0
 10
13.84296345425543
 20
56.30506381583844
 30
0.0
 41
1.0
 10
13.82486948920896
 20
57.33839657177307
 30
0.0
 41
1.0
 10
13.68640444013618
 20
58.05106096985175
 30
0.0
 41
1.0
 10
13.60476422166439
 20
58.4054312558607
 30
0.0
 41
1.0
  0
SPLINE
  5
B8
330
1F
100
AcDbEntity
  8
Default
100
AcDbSpline
210
0.0
220
0.0
230
1.0
 70
     8
 71
     3
 72
    19
 73
    15
 74
     0
 42
0.0000000001
 43
0.0000000001
 40
0.0
 40
0.0
 40
0.0
 40
0.0
 40
1.0
 40
2.0
 40
3.0
 40
4.0
 40
5.0
 40
6.0
 40
7.0
 40
8.0
 40
9.0
 40
10.0
 40
11.0
 40
12.0
 40
12.0
 40
12.0
 40
12.0
 10
13.60476422166439
 20
58.4054312558607
 30
0.0
 10
13.52899773807026
 20
58.72535612969195
 30
0.0
 10
13.36420112438459
 20
59.36210717451002
 30
0.0
 10
13.07524566197993
 20
60.30536246935372
 30
0.0
 10
12.75399861817201
 20
61.23806826461161
 30
0.0
 10
12.39835222201492
 20
62.15829351631717
 30
0.0
 10
11.99910702042509
 20
63.06056357812636
 30
0.0
 10
11.55091197498813
 20
63.93970820956502
 30
0.0
 10
11.05025022626818
 20
64.78990546543696
 30
0.0
 10
10.49717596328069
 20
65.60781787710621
 30
0.0
 10
9.879061785006432
 20
66.37609950318233
 30
0.0
 10
9.25704314777981
 20
67.14444942020677
 30
0.0
 10
8.674987330825362
 20
67.93087940687226
 30
0.0
 10
8.251464594322998
 20
68.45998608490439
 30
0.0
 10
8.212357982505024
 20
68.78938500771994
 30
0.0
  0
SPLINE
  5
B9
330
1F
100
AcDbEntity
  8
Default
100
AcDbSpline
210
0.0
220
0.0
230
1.0
 70
     8
 71
     3
 72
    11
 73
     7
 74
     0
 42
0.0000000001
 43
0.0000000001
 40
0.0
 40
0.0
 40
0.0
 40
0.0
 40
1.056257442711363
 40
1.983666277812516
 40
2.825677162948847
 40
3.576711082448426
 40
3.576711082448426
 40
3.576711082448426
 40
3.576711082448426
 10
8.212357982505024
 20
68.78938500771994
 30
0.0
 10
8.271352711571115
 20
69.13654972320862
 30
0.0
 10
8.377049576171157
 20
69.78930145513695
 30
0.0
 10
8.508732696884195
 20
70.72200867383756
 30
0.0
 10
8.603346695298402
 20
71.55690174263452
 30
0.0
 10
8.64582876650336
 20
72.08632041965703
 30
0.0
 10
8.660339450521494
 20
72.33622210907251
 30
0.0
  0
SPLINE
  5
BA
330
1F
100
AcDbEntity
  8
Default
100
AcDbSpline
210
0.0
220
0.0
230
1.0
 70
     8
 71
     3
 72
    12
 73
     8
 74
     0
 42
0.0000000001
 43
0.0000000001
 40
0.0
 40
0.0
 40
0.0
 40
0.0
 40
1.0
 40
2.0
 40
3.0
 40
4.0
 40
5.0
 40
5.0
 40
5.0
 40
5.0
 10
-9.451218176070604
 20
65.5570835493082
 30
0.0
 10
-9.797345424801996
 20
65.13751740015286
 30
0.0
 10
-10.44007007848763
 20
64.25748330586632
 30
0.0
 10
-11.24210967930118
 20
62.83333951209854
 30
0.0
 10
-11.8908252597622
 20
61.33444078641826
 30
0.0
 10
-12.43302314488836
 20
59.79467317708215
 30
0.0
 10
-12.73731934062246
 20
58.74975328694244
 30
0.0
 10
-12.86603052596463
 20
58.22120603008314
 30
0.0
  0
SPLINE
  5
BB
330
1F
100
AcDbEntity
  8
Default
100
AcDbSpline
210
0.0
220
0.0
230
1.0
 70
     8
 71
     3
 72
    10
 73
     6
 74
     0
 42
0.0000000001
 43
0.0000000001
 40
0.0
 40
0.0
 40
0.0
 40
0.0
 40
1.0
 40
2.0
 40
3.0
 40
3.0
 40
3.0
 40
3.0
 10
-12.86603052596463
 20
58.22120603008314
 30
0.0
 10
-12.94980216202143
 20
57.86992363952233
 30
0.0
 10
-13.04295608394351
 20
57.15031266328399
 30
0.0
 10
-12.97842522199879
 20
56.06463571898257
 30
0.0
 10
-12.76484699918354
 20
55.36457508327688
 30
0.0
 10
-12.5700103978808
 20
55.05825297514352
 30
0.0
  0
SPLINE
  5
BC
330
1F
100
AcDbEntity
  8
Default
100
AcDbSpline
210
0.0
220
0.0
230
1.0
 70
     8
 71
     3
 72
    10
 73
     6
 74
     0
 42
0.0000000001
 43
0.0000000001
 40
8.0
 40
8.0
 40
8.0
 40
8.0
 40
9.0
 40
10.0
 40
11.0
 40
11.0
 40
11.0
 40
11.0
 10
-12.5700103978808
 20
55.05825297514352
 30
0.0
 10
-12.2940883334557
 20
54.64469914568201
 30
0.0
 10
-11.75931871481553
 20
53.80462273734197
 30
0.0
 10
-10.82046644427075
 20
52.64260815508612
 30
0.0
 10
-10.14247298568002
 20
51.91461036760155
 30
0.0
 10
-9.808118829860668
 20
51.54648718828037
 30
0.0
  0
ARC
  5
BD
330
1F
100
AcDbEntity
  8
Default
100
AcDbCircle
 10
2.119402611802396
 20
62.37986195701512
 30
0.0
 40
16.11296920561789
100
AcDbArc
 50
222.2478340188841
 51
235.9468258270208
  0
SPLINE
  5
BE
330
1F
100
AcDbEntity
  8
Default
100
AcDbSpline
210
0.0
220
0.0
230
1.0
 70
     8
 71
     3
 72
    12
 73
     8
 74
     0
 42
0.0000000001
 43
0.0000000001
 40
0.0
 40
0.0
 40
0.0
 40
0.0
 40
1.832654236483515
 40
3.669578742657731
 40
7.371880427553495
 40
11.11625269817008
 40
14.89017125660395
 40
14.89017125660395
 40
14.89017125660395
 40
14.89017125660395
 10
-9.624984504881022
 20
55.53599195644318
 30
0.0
 10
-9.625027697498805
 20
54.92292045471341
 30
0.0
 10
-9.499449726692003
 20
53.70047231198475
 30
0.0
 10
-8.763873341851019
 20
51.34185656051615
 30
0.0
 10
-6.967182773556991
 20
48.7469050281868
 30
0.0
 10
-3.764033056060613
 20
46.68152399587338
 30
0.0
 10
-1.257977788642021
 20
46.20070893723894
 30
0.0
 10
-0.0000040930207588
 20
46.20048871027821
 30
0.0
  0
SPLINE
  5
BF
330
1F
100
AcDbEntity
  8
Default
100
AcDbSpline
210
0.0
220
0.0
230
1.0
 70
     8
 71
     3
 72
    12
 73
     8
 74
     0
 42
0.0000000001
 43
0.0000000001
 40
0.0
 40
0.0
 40
0.0
 40
0.0
 40
1.889355098582429
 40
3.774519559296819
 40
7.516682166840944
 40
11.21816918271821
 40
14.89017237659324
 40
14.89017237659324
 40
14.89017237659324
 40
14.89017237659324
 10
-0.0000040930207588
 20
46.20048871027821
 30
0.0
 10
0.6297291769202058
 20
46.20055647827091
 30
0.0
 10
1.887977395006397
 20
46.32156990307646
 30
0.0
 10
4.303044258484611
 20
47.02927024041083
 30
0.0
 10
6.966152695982927
 20
48.74614420795776
 30
0.0
 10
9.118158562117184
 20
51.85296683776116
 30
0.0
 10
9.625311557240703
 20
54.31016228112217
 30
0.0
 10
9.624983496249163
 20
55.53432857500137
 30
0.0
  0
SPLINE
  5
C0
330
1F
100
AcDbEntity
  8
Default
100
AcDbSpline
210
0.0
220
0.0
230
1.0
 70
     8
 71
     3
 72
    12
 73
     8
 74
     0
 42
0.0000000001
 43
0.0000000001
 40
-15.35241646788361
 40
-15.35241646788361
 40
-15.35241646788361
 40
-15.35241646788361
 40
-11.42846722997082
 40
-7.624448880970329
 40
-3.868777336844833
 40
-1.918304869189328
 40
0.0
 40
0.0
 40
0.0
 40
0.0
 10
9.624983496249163
 20
55.53432857500137
 30
0.0
 10
9.625004589794582
 20
56.84171159903909
 30
0.0
 10
9.159538007618409
 20
59.42351763313454
 30
0.0
 10
7.055058264386577
 20
62.71321275012425
 30
0.0
 10
4.375150459355176
 20
64.52791909497813
 30
0.0
 10
1.92922202557987
 20
65.26200408586371
 30
0.0
 10
0.6393698799696352
 20
65.38681437272896
 30
0.0
 10
-0.000003299713887
 20
65.3862837149797
 30
0.0
  0
SPLINE
  5
C1
330
1F
100
AcDbEntity
  8
Default
100
AcDbSpline
210
0.0
220
0.0
230
1.0
 70
     8
 71
     3
 72
    12
 73
     8
 74
     0
 42
0.0000000001
 43
0.0000000001
 40
-15.34910747496398
 40
-15.34910747496398
 40
-15.34910747496398
 40
-15.34910747496398
 40
-11.5840058662532
 40
-7.773657509622694
 40
-3.93663731821901
 40
-1.971105179282632
 40
0.0
 40
0.0
 40
0.0
 40
0.0
 10
-0.000003299713887
 20
65.3862837149797
 30
0.0
 10
-1.254423806570165
 20
65.38598003444761
 30
0.0
 10
-3.783415680682594
 20
64.91090033236503
 30
0.0
 10
-7.019270181806392
 20
62.75887776267867
 30
0.0
 10
-8.79108582215321
 20
60.00991215114475
 30
0.0
 10
-9.505190731923019
 20
57.50765098939652
 30
0.0
 10
-9.625228356307776
 20
56.19483668068623
 30
0.0
 10
-9.624984504881022
 20
55.53599195644318
 30
0.0
  0
SPLINE
  5
C2
330
1F
100
AcDbEntity
  8
Default
100
AcDbSpline
210
0.0
220
0.0
230
1.0
 70
     8
 71
     3
 72
    12
 73
     8
 74
     0
 42
0.0000000001
 43
0.0000000001
 40
0.0
 40
0.0
 40
0.0
 40
0.0
 40
1.0
 40
2.0
 40
3.0
 40
4.0
 40
5.0
 40
5.0
 40
5.0
 40
5.0
 10
9.451218176070604
 20
65.5570835493082
 30
0.0
 10
9.797345424801996
 20
65.13751740015286
 30
0.0
 10
10.44007007848763
 20
64.25748330586632
 30
0.0
 10
11.24210967930118
 20
62.83333951209854
 30
0.0
 10
11.8908252597622
 20
61.33444078641826
 30
0.0
 10
12.43302314488836
 20
59.79467317708215
 30
0.0
 10
12.73731934062246
 20
58.74975328694244
 30
0.0
 10
12.86603052596463
 20
58.22120603008314
 30
0.0
  0
SPLINE
  5
C3
330
1F
100
AcDbEntity
  8
Default
100
AcDbSpline
210
0.0
220
0.0
230
1.0
 70
     8
 71
     3
 72
    10
 73
     6
 74
     0
 42
0.0000000001
 43
0.0000000001
 40
0.0
 40
0.0
 40
0.0
 40
0.0
 40
1.0
 40
2.0
 40
3.0
 40
3.0
 40
3.0
 40
3.0
 10
12.86603052596463
 20
58.22120603008314
 30
0.0
 10
12.94980216202143
 20
57.86992363952233
 30
0.0
 10
13.04295608394351
 20
57.15031266328399
 30
0.0
 10
12.97842522199879
 20
56.06463571898257
 30
0.0
 10
12.76484699918354
 20
55.36457508327688
 30
0.0
 10
12.5700103978808
 20
55.05825297514352
 30
0.0
  0
SPLINE
  5
C4
330
1F
100
AcDbEntity
  8
Default
100
AcDbSpline
210
0.0
220
0.0
230
1.0
 70
     8
 71
     3
 72
    10
 73
     6
 74
     0
 42
0.0000000001
 43
0.0000000001
 40
8.0
 40
8.0
 40
8.0
 40
8.0
 40
9.0
 40
10.0
 40
11.0
 40
11.0
 40
11.0
 40
11.0
 10
12.5700103978808
 20
55.05825297514352
 30
0.0
 10
12.2940883334557
 20
54.64469914568201
 30
0.0
 10
11.75931871481553
 20
53.80462273734197
 30
0.0
 10
10.82046644427075
 20
52.64260815508612
 30
0.0
 10
10.14247298568002
 20
51.91461036760155
 30
0.0
 10
9.808118829860668
 20
51.54648718828037
 30
0.0
  0
ARC
  5
C5
330
1F
100
AcDbEntity
  8
Default
100
AcDbCircle
 10
-2.119402611802396
 20
62.37986195701512
 30
0.0
 40
16.11296920561789
100
AcDbArc
 50
304.0531741729792
 51
317.7521659811159
  0
SPLINE
  5
C6
330
1F
100
AcDbEntity
  8
Default
100
AcDbSpline
210
0.0
220
0.0
230
1.0
 70
     8
 71
     3
 72
    23
 73
    19
 74
     0
 42
0.0000000001
 43
0.0000000001
 40
-16.0
 40
-16.0
 40
-16.0
 40
-16.0
 40
-14.99999934916018
 40
-13.99999869832036
 40
-12.99999804748054
 40
-11.99999739664072
 40
-10.99999674580089
 40
-9.999996094961073
 40
-8.999995444121252
 40
-7.999994793281431
 40
-6.99999414244161
 40
-5.999993491601789
 40
-4.999992840761967
 40
-3.999992189922146
 40
-2.999991539082325
 40
-1.999990888242504
 40
-0.9999902374026826
 40
0.0
 40
0.0
 40
0.0
 40
0.0
 10
8.232769958243587
 20
68.86926413593707
 30
0.0
 10
8.277585595093411
 20
69.13311738314758
 30
0.0
 10
8.364673077817077
 20
69.66182261558023
 30
0.0
 10
8.482322130234987
 20
70.45483295062024
 30
0.0
 10
8.583284847067713
 20
71.2568547486182
 30
0.0
 10
8.6600305952609
 20
72.03698482452654
 30
0.0
 10
8.716660998880704
 20
72.91042999923431
 30
0.0
 10
7.90327597187841
 20
73.30210918754253
 30
0.0
 10
7.15988911544869
 20
73.53347842049749
 30
0.0
 10
6.365469193396436
 20
73.69429269003376
 30
0.0
 10
5.57995451918078
 20
73.85167522222201
 30
0.0
 10
4.788957920412821
 20
73.99390610766721
 30
0.0
 10
3.996354921379869
 20
74.12264107841023
 30
0.0
 10
3.201171403750271
 20
74.23576666853143
 30
0.0
 10
2.403808875384625
 20
74.3319068092022
 30
0.0
 10
1.604472683002808
 20
74.41031727274407
 30
0.0
 10
0.8030632000640525
 20
74.46438692907824
 30
0.0
 10
0.2677036283822716
 20
74.47827199502211
 30
0.0
 10
0.0
 20
74.47830213381039
 30
0.0
  0
SPLINE
  5
C7
330
1F
100
AcDbEntity
  8
Default
100
AcDbSpline
210
0.0
220
0.0
230
1.0
 70
     8
 71
     3
 72
    23
 73
    19
 74
     0
 42
0.0000000001
 43
0.0000000001
 40
0.0
 40
0.0
 40
0.0
 40
0.0
 40
0.9999902374026826
 40
1.999990888242504
 40
2.999991539082325
 40
3.999992189922146
 40
4.999992840761967
 40
5.999993491601789
 40
6.99999414244161
 40
7.999994793281431
 40
8.999995444121252
 40
9.999996094961073
 40
10.99999674580089
 40
11.99999739664072
 40
12.99999804748054
 40
13.99999869832036
 40
14.99999934916018
 40
16.0
 40
16.0
 40
16.0
 40
16.0
 10
0.0
 20
74.47830213381039
 30
0.0
 10
-0.2677036283822716
 20
74.47827199502211
 30
0.0
 10
-0.8030632000640525
 20
74.46438692907824
 30
0.0
 10
-1.604472683002808
 20
74.41031727274407
 30
0.0
 10
-2.403808875384625
 20
74.3319068092022
 30
0.0
 10
-3.201171403750271
 20
74.23576666853143
 30
0.0
 10
-3.996354921379869
 20
74.12264107841023
 30
0.0
 10
-4.788957920412821
 20
73.99390610766721
 30
0.0
 10
-5.57995451918078
 20
73.85167522222201
 30
0.0
 10
-6.365469193396436
 20
73.69429269003376
 30
0.0
 10
-7.15988911544869
 20
73.53347842049749
 30
0.0
 10
-7.90327597187841
 20
73.30210918754253
 30
0.0
 10
-8.716660998880704
 20
72.91042999923431
 30
0.0
 10
-8.6600305952609
 20
72.03698482452654
 30
0.0
 10
-8.583284847067713
 20
71.2568547486182
 30
0.0
 10
-8.482322130234987
 20
70.45483295062024
 30
0.0
 10
-8.364673077817077
 20
69.66182261558023
 30
0.0
 10
-8.277585595093411
 20
69.13311738314758
 30
0.0
 10
-8.232769958243587
 20
68.86926413593707
 30
0.0
  0
POLYLINE
  5
C8
330
1F
100
AcDbEntity
  8
Make2D visible lines
100
AcDb2dPolyline
 66
     1
 10
0.0
 20
0.0
 30
0.0
  0
VERTEX
  5
C9
330
C8
100
AcDbEntity
  8
Make2D visible lines
100
AcDbVertex
100
AcDb2dVertex
 10
-9.119286780915202
 20
49.56735376959675
 30
0.0
  0
VERTEX
  5
CA
330
C8
100
AcDbEntity
  8
Make2D visible lines
100
AcDbVertex
100
AcDb2dVertex
 10
-9.167266071652886
 20
49.48590109658561
 30
0.0
  0
SEQEND
  5
CB
330
C8
100
AcDbEntity
  8
Make2D visible lines
  0
SPLINE
  5
CC
330
1F
100
AcDbEntity
  8
Make2D visible lines
100
AcDbSpline
210
0.0
220
0.0
230
1.0
 70
    12
 71
     2
 72
     8
 73
     5
 74
     0
 42
0.0000000001
 43
0.0000000001
 40
0.0
 40
0.0
 40
0.0
 40
0.0657021758075414
 40
0.0657021758075414
 40
0.5513779496561004
 40
0.5513779496561004
 40
0.5513779496561004
 10
-9.167266071652886
 20
49.48590109658561
 30
0.0
 41
1.0
 10
-9.184011046407068
 20
49.45746384964139
 30
0.0
 41
0.9938146782922428
 10
-9.194061912369504
 20
49.42604496357557
 30
0.0
 41
1.0
 10
-9.283099963474898
 20
49.13198145444507
 30
0.0
 41
0.713273625154114
 10
-8.990641397334992
 20
49.03780550720699
 30
0.0
 41
1.0
  0
SPLINE
  5
CD
330
1F
100
AcDbEntity
  8
Make2D visible lines
100
AcDbSpline
210
0.0
220
0.0
230
1.0
 70
    12
 71
     2
 72
     6
 73
     3
 74
     0
 42
0.0000000001
 43
0.0000000001
 40
0.0
 40
0.0
 40
0.0
 40
0.3517776804954474
 40
0.3517776804954474
 40
0.3517776804954474
 10
-8.990641397334992
 20
49.03780550720699
 30
0.0
 41
1.0
 10
-8.801336859193558
 20
48.97219928840396
 30
0.0
 41
0.8116604165752045
 10
-8.665606227840069
 20
49.11956814488748
 30
0.0
 41
0.9416357303282251
  0
POLYLINE
  5
CE
330
1F
100
AcDbEntity
  8
Make2D visible lines
100
AcDb2dPolyline
 66
     1
 10
0.0
 20
0.0
 30
0.0
  0
VERTEX
  5
CF
330
CE
100
AcDbEntity
  8
Make2D visible lines
100
AcDbVertex
100
AcDb2dVertex
 10
9.119286780915202
 20
49.56735376959675
 30
0.0
  0
VERTEX
  5
D0
330
CE
100
AcDbEntity
  8
Make2D visible lines
100
AcDbVertex
100
AcDb2dVertex
 10
9.167266071652886
 20
49.48590109658561
 30
0.0
  0
SEQEND
  5
D1
330
CE
100
AcDbEntity
  8
Make2D visible lines
  0
SPLINE
  5
D2
330
1F
100
AcDbEntity
  8
Make2D visible lines
100
AcDbSpline
210
0.0
220
0.0
230
1.0
 70
    12
 71
     2
 72
     8
 73
     5
 74
     0
 42
0.0000000001
 43
0.0000000001
 40
0.0
 40
0.0
 40
0.0
 40
0.0657021758075414
 40
0.0657021758075414
 40
0.5513779496561004
 40
0.5513779496561004
 40
0.5513779496561004
 10
9.167266071652886
 20
49.48590109658561
 30
0.0
 41
1.0
 10
9.184011046407068
 20
49.45746384964139
 30
0.0
 41
0.9938146782922428
 10
9.194061912369504
 20
49.42604496357557
 30
0.0
 41
1.0
 10
9.283099963474898
 20
49.13198145444507
 30
0.0
 41
0.713273625154114
 10
8.990641397334992
 20
49.03780550720699
 30
0.0
 41
1.0
  0
SPLINE
  5
D3
330
1F
100
AcDbEntity
  8
Make2D visible lines
100
AcDbSpline
210
0.0
220
0.0
230
1.0
 70
    12
 71
     2
 72
     6
 73
     3
 74
     0
 42
0.0000000001
 43
0.0000000001
 40
0.0
 40
0.0
 40
0.0
 40
0.3517776804954474
 40
0.3517776804954474
 40
0.3517776804954474
 10
8.990641397334992
 20
49.03780550720699
 30
0.0
 41
1.0
 10
8.801336859193558
 20
48.97219928840396
 30
0.0
 41
0.8116604165752045
 10
8.665606227840069
 20
49.11956814488748
 30
0.0
 41
0.9416357303282251
  0
SPLINE
  5
D4
330
1F
100
AcDbEntity
  8
Make2D visible lines
100
AcDbSpline
210
0.0
220
0.0
230
1.0
 70
    24
 71
     2
 72
     6
 73
     3
 74
     0
 42
0.0000000001
 43
0.0000000001
 40
4.403114343305641
 40
4.403114343305641
 40
4.403114343305641
 40
4.523710136401242
 40
4.523710136401242
 40
4.523710136401242
 10
-8.323017330792085
 20
69.41343714836252
 30
0.0
 10
-8.353166279065992
 20
69.46565665856767
 30
0.0
 10
-8.383315227339896
 20
69.51787616877283
 30
0.0
  0
SPLINE
  5
D5
330
1F
100
AcDbEntity
  8
Make2D visible lines
100
AcDbSpline
210
0.0
220
0.0
230
1.0
 70
    12
 71
     2
 72
     8
 73
     5
 74
     0
 42
0.0000000001
 43
0.0000000001
 40
0.0
 40
0.0
 40
0.0
 40
0.4730574302815958
 40
0.4730574302815958
 40
0.9455180233888372
 40
0.9455180233888372
 40
0.9455180233888372
 10
-8.383315227339896
 20
69.51787616877283
 30
0.0
 41
1.0
 10
-8.547614644315502
 20
69.76950163841902
 30
0.0
 41
0.7091869777201398
 10
-8.800203853567828
 20
69.60668773617945
 30
0.0
 41
1.0
 10
-9.06440268401518
 20
69.46294857146685
 30
0.0
 41
0.7071352214376396
 10
-8.920696751456523
 20
69.19873126313284
 30
0.0
 41
1.0
  0
SPLINE
  5
D6
330
1F
100
AcDbEntity
  8
Make2D visible lines
100
AcDbSpline
210
0.0
220
0.0
230
1.0
 70
    24
 71
     2
 72
     6
 73
     3
 74
     0
 42
0.0000000001
 43
0.0000000001
 40
-4.466989253625452
 40
-4.466989253625452
 40
-4.466989253625452
 40
-3.611823149802035
 40
-3.611823149802035
 40
-3.611823149802035
 10
-8.920696751456523
 20
69.19873126313284
 30
0.0
 10
-8.706906372118784
 20
68.82843281594936
 30
0.0
 10
-8.493115992781043
 20
68.45813436876587
 30
0.0
  0
SPLINE
  5
D7
330
1F
100
AcDbEntity
  8
Make2D visible lines
100
AcDbSpline
210
0.0
220
0.0
230
1.0
 70
    24
 71
     2
 72
     6
 73
     3
 74
     0
 42
0.0000000001
 43
0.0000000001
 40
4.40311434330564
 40
4.40311434330564
 40
4.40311434330564
 40
4.523710136401242
 40
4.523710136401242
 40
4.523710136401242
 10
8.323017330792084
 20
69.41343714836252
 30
0.0
 10
8.35316627906599
 20
69.46565665856767
 30
0.0
 10
8.383315227339896
 20
69.51787616877283
 30
0.0
  0
SPLINE
  5
D8
330
1F
100
AcDbEntity
  8
Make2D visible lines
100
AcDbSpline
210
0.0
220
0.0
230
1.0
 70
    12
 71
     2
 72
     8
 73
     5
 74
     0
 42
0.0000000001
 43
0.0000000001
 40
0.0
 40
0.0
 40
0.0
 40
0.4730574302815958
 40
0.4730574302815958
 40
0.9455180233888372
 40
0.9455180233888372
 40
0.9455180233888372
 10
8.383315227339896
 20
69.51787616877283
 30
0.0
 41
1.0
 10
8.547614644315502
 20
69.76950163841902
 30
0.0
 41
0.7091869777201398
 10
8.800203853567828
 20
69.60668773617945
 30
0.0
 41
1.0
 10
9.06440268401518
 20
69.46294857146685
 30
0.0
 41
0.7071352214376396
 10
8.920696751456523
 20
69.19873126313284
 30
0.0
 41
1.0
  0
SPLINE
  5
D9
330
1F
100
AcDbEntity
  8
Make2D visible lines
100
AcDbSpline
210
0.0
220
0.0
230
1.0
 70
    24
 71
     2
 72
     6
 73
     3
 74
     0
 42
0.0000000001
 43
0.0000000001
 40
-4.466989253625452
 40
-4.466989253625452
 40
-4.466989253625452
 40
-3.611823149802035
 40
-3.611823149802035
 40
-3.611823149802035
 10
8.920696751456523
 20
69.19873126313284
 30
0.0
 10
8.706906372118784
 20
68.82843281594936
 30
0.0
 10
8.493115992781043
 20
68.45813436876587
 30
0.0
  0
ARC
  5
DA
330
1F
100
AcDbEntity
  8
Default
100
AcDbCircle
 10
39.16367159323353
 20
86.8410126837237
 30
0.0
 40
72.21373350180218
100
AcDbArc
 50
274.0562104814249
 51
276.0137156351834
  0
SPLINE
  5
DB
330
1F
100
AcDbEntity
  8
Default
100
AcDbSpline
210
0.0
220
0.0
230
1.0
 70
     8
 71
     3
 72
    34
 73
    30
 74
     0
 42
0.0000000001
 43
0.0000000001
 40
0.0
 40
0.0
 40
0.0
 40
0.0
 40
1.0
 40
2.0
 40
3.0
 40
4.0
 40
5.0
 40
6.0
 40
7.0
 40
8.0
 40
9.0
 40
10.0
 40
11.0
 40
12.0
 40
13.0
 40
14.0
 40
15.0
 40
16.0
 40
17.0
 40
18.0
 40
19.0
 40
20.0
 40
21.0
 40
22.0
 40
23.0
 40
24.0
 40
25.0
 40
26.0
 40
27.0
 40
27.0
 40
27.0
 40
27.0
 10
44.27171784491063
 20
14.80816483109447
 30
0.0
 10
43.77328703744966
 20
14.77281973932495
 30
0.0
 10
42.80109483532971
 20
15.02150229368899
 30
0.0
 10
41.47880974221434
 20
15.72544319139092
 30
0.0
 10
40.42761478347293
 20
16.7864440951203
 30
0.0
 10
39.51602484232419
 20
17.95769193271688
 30
0.0
 10
38.54925088592469
 20
19.08503866277066
 30
0.0
 10
37.67104341106008
 20
20.28386017715873
 30
0.0
 10
36.61449246934471
 20
21.33761963827135
 30
0.0
 10
35.2483498267529
 20
21.98693438632464
 30
0.0
 10
33.77450244539412
 20
22.19525562533199
 30
0.0
 10
32.29263559768295
 20
22.28239774167012
 30
0.0
 10
30.81668323845986
 20
22.4439726221922
 30
0.0
 10
29.33864574279117
 20
22.58347742563213
 30
0.0
 10
27.86464948949215
 20
22.75304197856597
 30
0.0
 10
26.37654410173788
 20
22.82419464858543
 30
0.0
 10
24.93927405405218
 20
23.24322248310863
 30
0.0
 10
23.83899429445715
 20
24.33179818454912
 30
0.0
 10
23.36403386175294
 20
25.75003674688685
 30
0.0
 10
22.92070348634653
 20
27.16364002122451
 30
0.0
 10
22.48688029583333
 20
28.58410955292307
 30
0.0
 10
22.06855337388622
 20
30.00817439614574
 30
0.0
 10
21.66415021122829
 20
31.43656071012293
 30
0.0
 10
21.2742226833825
 20
32.86878110053424
 30
0.0
 10
20.89837874417618
 20
34.30520094822686
 30
0.0
 10
20.53787158518057
 20
35.74397589111183
 30
0.0
 10
20.18830341747548
 20
37.19126554804667
 30
0.0
 10
19.86623089453954
 20
38.62340436014784
 30
0.0
 10
19.54721098774608
 20
39.60597498167024
 30
0.0
 10
19.15604663563929
 20
39.90610980404539
 30
0.0
  0
SPLINE
  5
DC
330
1F
100
AcDbEntity
  8
Default
100
AcDbSpline
210
0.0
220
0.0
230
1.0
 70
     8
 71
     3
 72
    11
 73
     7
 74
     0
 42
0.0000000001
 43
0.0000000001
 40
0.0
 40
0.0
 40
0.0
 40
0.0
 40
1.78266746137814
 40
3.289323513938263
 40
4.454045277921154
 40
5.193467344251839
 40
5.193467344251839
 40
5.193467344251839
 40
5.193467344251839
 10
40.65972053767457
 20
16.73404625330532
 30
0.0
 10
41.25297497508875
 20
16.76810171970769
 30
0.0
 10
42.34791529711268
 20
16.82529651014215
 30
0.0
 10
43.83151396701479
 20
16.88396885102548
 30
0.0
 10
44.96821946901335
 20
16.90781610753135
 30
0.0
 10
45.64614411042992
 20
16.90296131866494
 30
0.0
 10
45.89169544167054
 20
16.88080175866785
 30
0.0
  0
SPLINE
  5
DD
330
1F
100
AcDbEntity
  8
Default
100
AcDbSpline
210
0.0
220
0.0
230
1.0
 70
    12
 71
     2
 72
     6
 73
     3
 74
     0
 42
0.0000000001
 43
0.0000000001
 40
-0.3467243252475303
 40
-0.3467243252475303
 40
-0.3467243252475303
 40
0.0
 40
0.0
 40
0.0
 10
45.89169544167054
 20
16.88080175866785
 30
0.0
 41
1.0
 10
46.09864208359547
 20
16.86212604428763
 30
0.0
 41
0.7690462387954597
 10
46.11812441516057
 20
16.65525378015247
 30
0.0
 41
1.0
  0
SPLINE
  5
DE
330
1F
100
AcDbEntity
  8
Default
100
AcDbSpline
210
0.0
220
0.0
230
1.0
 70
    24
 71
     2
 72
     6
 73
     3
 74
     0
 42
0.0000000001
 43
0.0000000001
 40
-1.272855017170293
 40
-1.272855017170293
 40
-1.272855017170293
 40
0.0
 40
0.0
 40
0.0
 10
46.11812441516057
 20
16.65525378015247
 30
0.0
 10
46.17779636172176
 20
16.02162989133711
 30
0.0
 10
46.23746830828296
 20
15.38800600252176
 30
0.0
  0
SPLINE
  5
DF
330
1F
100
AcDbEntity
  8
Default
100
AcDbSpline
210
0.0
220
0.0
230
1.0
 70
     8
 71
     3
 72
    16
 73
    12
 74
     0
 42
0.0000000001
 43
0.0000000001
 40
10.44967954893452
 40
10.44967954893452
 40
10.44967954893452
 40
10.44967954893452
 40
11.0
 40
12.0
 40
13.0
 40
14.0
 40
15.0
 40
16.0
 40
17.0
 40
18.0
 40
18.05824260995573
 40
18.05824260995573
 40
18.05824260995573
 40
18.05824260995573
 10
38.36229279543787
 20
11.53847983597349
 30
0.0
 10
38.20004422860848
 20
11.51422009785885
 30
0.0
 10
37.74247104646889
 20
11.44918729372367
 30
0.0
 10
36.98784634697209
 20
11.3562748676682
 30
0.0
 10
36.09762962325985
 20
11.27023445362537
 30
0.0
 10
35.20583941169025
 20
11.20224693686185
 30
0.0
 10
34.31266493198251
 20
11.15647119290059
 30
0.0
 10
33.41929986924455
 20
11.11602200008613
 30
0.0
 10
32.52534808125868
 20
11.08604119218281
 30
0.0
 10
31.91186295473661
 20
11.08540650170804
 30
0.0
 10
31.59630640545216
 20
11.08521372833118
 30
0.0
 10
31.57893884013794
 20
11.08520683600235
 30
0.0
  0
SPLINE
  5
E0
330
1F
100
AcDbEntity
  8
Default
100
AcDbSpline
210
0.0
220
0.0
230
1.0
 70
     8
 71
     3
 72
    41
 73
    37
 74
     0
 42
0.0000000001
 43
0.0000000001
 40
23.10388116150713
 40
23.10388116150713
 40
23.10388116150713
 40
23.10388116150713
 40
24.0
 40
25.0
 40
26.0
 40
27.0
 40
28.0
 40
29.0
 40
30.0
 40
31.0
 40
32.0
 40
33.0
 40
34.0
 40
35.0
 40
36.0
 40
37.0
 40
38.0
 40
39.0
 40
40.0
 40
41.0
 40
42.0
 40
43.0
 40
44.0
 40
45.0
 40
46.0
 40
47.0
 40
48.0
 40
49.0
 40
50.0
 40
51.0
 40
52.0
 40
53.0
 40
54.0
 40
55.0
 40
56.0
 40
57.0
 40
57.0
 40
57.0
 40
57.0
 10
27.33965780686786
 20
12.341000570996
 30
0.0
 10
27.1254109282066
 20
12.50054987948038
 30
0.0
 10
26.69252193292956
 20
12.86553250159999
 30
0.0
 10
26.10170412300435
 20
13.4971235209413
 30
0.0
 10
25.56677035670393
 20
14.21535125925209
 30
0.0
 10
25.10008322021815
 20
14.97876710003616
 30
0.0
 10
24.65671065539502
 20
15.75545952820305
 30
0.0
 10
24.23755353464306
 20
16.54559595793112
 30
0.0
 10
23.8401786056167
 20
17.34684659449373
 30
0.0
 10
23.46215606083625
 20
18.15740143663997
 30
0.0
 10
23.10190204890095
 20
18.97599288516222
 30
0.0
 10
22.75774703186794
 20
19.80147687425283
 30
0.0
 10
22.42874274262697
 20
20.63310587381137
 30
0.0
 10
22.11379494684961
 20
21.47015758705369
 30
0.0
 10
21.81175783486631
 20
22.31194222308078
 30
0.0
 10
21.52073903466052
 20
23.1576024310241
 30
0.0
 10
21.24278199062188
 20
24.00765104458954
 30
0.0
 10
20.9780890909058
 20
24.86191937408947
 30
0.0
 10
20.72579761222961
 20
25.7199294581202
 30
0.0
 10
20.48487030181823
 20
26.58119556237485
 30
0.0
 10
20.25436151397817
 20
27.44530282386832
 30
0.0
 10
20.0332639275489
 20
28.31186590219544
 30
0.0
 10
19.82079129679695
 20
29.1805809776023
 30
0.0
 10
19.61642007313564
 20
30.05123635094626
 30
0.0
 10
19.41958411253242
 20
30.92362475966578
 30
0.0
 10
19.22969848578941
 20
31.79754958600281
 30
0.0
 10
19.04632377305522
 20
32.6728697439997
 30
0.0
 10
18.86921748196841
 20
33.54945662988643
 30
0.0
 10
18.69803659522442
 20
34.42730463621417
 30
0.0
 10
18.53263017804461
 20
35.30593371224197
 30
0.0
 10
18.37211855607291
 20
36.1866856333112
 30
0.0
 10
18.21829746650477
 20
37.06410032200424
 30
0.0
 10
18.06294315154432
 20
37.95814297375631
 30
0.0
 10
17.93519900343466
 20
38.79389231877083
 30
0.0
 10
17.72472477708646
 20
39.85059069107373
 30
0.0
 10
18.54765891811772
 20
39.90027407151077
 30
0.0
 10
18.80987800462188
 20
39.9054398083274
 30
0.0
  0
SPLINE
  5
E1
330
1F
100
AcDbEntity
  8
Default
100
AcDbSpline
210
0.0
220
0.0
230
1.0
 70
    12
 71
     3
 72
     8
 73
     4
 74
     0
 42
0.0000000001
 43
0.0000000001
 40
-19.66375890038411
 40
-19.66375890038411
 40
-19.66375890038411
 40
-19.66375890038411
 40
-19.31745184846394
 40
-19.31745184846394
 40
-19.31745184846394
 40
-19.31745184846394
 10
18.80987800462186
 20
39.9054398083274
 30
0.0
 41
1.000000000038776
 10
18.92519953625348
 20
39.91175639218512
 30
0.0
 41
0.9990122582833316
 10
19.04070316768562
 20
39.91197994490346
 30
0.0
 41
0.9990122582833316
 10
19.15604663563927
 20
39.90610980404539
 30
0.0
 41
1.000000000038776
  0
SPLINE
  5
E2
330
1F
100
AcDbEntity
  8
Default
100
AcDbSpline
210
0.0
220
0.0
230
1.0
 70
     8
 71
     3
 72
    24
 73
    20
 74
     0
 42
0.0000000001
 43
0.0000000001
 40
0.0
 40
0.0
 40
0.0
 40
0.0
 40
1.0
 40
2.0
 40
3.0
 40
4.0
 40
5.0
 40
6.0
 40
7.0
 40
8.0
 40
9.0
 40
10.0
 40
11.0
 40
12.0
 40
13.0
 40
14.0
 40
15.0
 40
16.0
 40
17.0
 40
17.0
 40
17.0
 40
17.0
 10
19.15604663563929
 20
39.90610980404539
 30
0.0
 10
19.56039881776451
 20
39.88553122853124
 30
0.0
 10
20.16948719565376
 20
39.39827564158993
 30
0.0
 10
20.61355363618605
 20
38.34885446950545
 30
0.0
 10
20.79523968674346
 20
37.22020977982922
 30
0.0
 10
21.05418008723201
 20
36.1142445908016
 30
0.0
 10
21.30333473098773
 20
35.00463068579291
 30
0.0
 10
21.5660049438915
 20
33.89850690475399
 30
0.0
 10
21.83593405064445
 20
32.79404692677105
 30
0.0
 10
22.11475324362574
 20
31.69181560429313
 30
0.0
 10
22.4020968142753
 20
30.5917789407188
 30
0.0
 10
22.69769555024895
 20
29.49390690020083
 30
0.0
 10
23.00288907136104
 20
28.39874788709484
 30
0.0
 10
23.31248006233461
 20
27.30453930631101
 30
0.0
 10
23.64580941189887
 20
26.21817458179447
 30
0.0
 10
23.93059787572079
 20
25.11423761493943
 30
0.0
 10
24.492750788008
 20
24.10657778876455
 30
0.0
 10
25.40052920261307
 20
23.39052534325613
 30
0.0
 10
26.12190447915653
 20
23.12656928538896
 30
0.0
 10
26.49898308784768
 20
23.07867492177835
 30
0.0
  0
SPLINE
  5
E3
330
1F
100
AcDbEntity
  8
Default
100
AcDbSpline
210
0.0
220
0.0
230
1.0
 70
     8
 71
     3
 72
    24
 73
    20
 74
     0
 42
0.0000000001
 43
0.0000000001
 40
0.0
 40
0.0
 40
0.0
 40
0.0
 40
1.0
 40
2.0
 40
3.0
 40
4.0
 40
5.0
 40
6.0
 40
7.0
 40
8.0
 40
9.0
 40
10.0
 40
11.0
 40
12.0
 40
13.0
 40
14.0
 40
15.0
 40
16.0
 40
17.0
 40
17.0
 40
17.0
 40
17.0
 10
26.49898308784768
 20
23.07867492177835
 30
0.0
 10
26.83829290856978
 20
23.03882618395635
 30
0.0
 10
27.51727474093009
 20
22.96224421165939
 30
0.0
 10
28.53637152827528
 20
22.85307405671066
 30
0.0
 10
29.55562899262722
 20
22.74549035410291
 30
0.0
 10
30.57491963009423
 20
22.63800381390608
 30
0.0
 10
31.59433429398244
 20
22.53248600236559
 30
0.0
 10
32.61390707388576
 20
22.42558171449986
 30
0.0
 10
33.63474638802199
 20
22.34216361849554
 30
0.0
 10
34.65858428246032
 20
22.25484393039026
 30
0.0
 10
35.63951174365182
 20
21.93447618842516
 30
0.0
 10
36.54685205351042
 20
21.45231605773218
 30
0.0
 10
37.35020757516592
 20
20.80294718340163
 30
0.0
 10
37.9675390098859
 20
19.98032702517279
 30
0.0
 10
38.61897814618511
 20
19.19002472334951
 30
0.0
 10
39.27013367001263
 20
18.39823074746354
 30
0.0
 10
39.92642777033741
 20
17.61119696574998
 30
0.0
 10
40.56700541397491
 20
16.81037369111173
 30
0.0
 10
41.05071261884962
 20
16.32521089218057
 30
0.0
 10
41.32360314681488
 20
16.11850072746793
 30
0.0
  0
SPLINE
  5
E4
330
1F
100
AcDbEntity
  8
Default
100
AcDbSpline
210
0.0
220
0.0
230
1.0
 70
     8
 71
     3
 72
    10
 73
     6
 74
     0
 42
0.0000000001
 43
0.0000000001
 40
0.0
 40
0.0
 40
0.0
 40
0.0
 40
1.0
 40
2.0
 40
3.0
 40
3.0
 40
3.0
 40
3.0
 10
41.32360314681488
 20
16.11850072746793
 30
0.0
 10
41.5684046411414
 20
15.92739857034731
 30
0.0
 10
42.09667067005395
 20
15.59391031669568
 30
0.0
 10
42.96742229543652
 20
15.25542076644809
 30
0.0
 10
43.58698658560641
 20
15.17912285292895
 30
0.0
 10
43.89952424491786
 20
15.21334652232218
 30
0.0
  0
SPLINE
  5
E5
330
1F
100
AcDbEntity
  8
Default
100
AcDbSpline
210
0.0
220
0.0
230
1.0
 70
     8
 71
     3
 72
     8
 73
     4
 74
     0
 42
0.0000000001
 43
0.0000000001
 40
0.0
 40
0.0
 40
0.0
 40
0.0
 40
1.0
 40
1.0
 40
1.0
 40
1.0
 10
43.89952424491786
 20
15.21334652232218
 30
0.0
 10
44.67636699758576
 20
15.29841278152566
 30
0.0
 10
45.45813334355782
 20
15.33005823652157
 30
0.0
 10
46.23746830828296
 20
15.38800600252174
 30
0.0
  0
SPLINE
  5
E6
330
1F
100
AcDbEntity
  8
Default
100
AcDbSpline
210
0.0
220
0.0
230
1.0
 70
    12
 71
     3
 72
    11
 73
     7
 74
     0
 42
0.0000000001
 43
0.0000000001
 40
-50.47595879078813
 40
-50.47595879078813
 40
-50.47595879078813
 40
-50.47595879078813
 40
-50.08581481269854
 40
-50.08581481269854
 40
-50.08581481269854
 40
-49.69567083460895
 40
-49.69567083460895
 40
-49.69567083460895
 40
-49.69567083460895
 10
46.23746830828294
 20
15.38800600252174
 30
0.0
 41
1.000000000038863
 10
46.37104525573805
 20
15.39793817038858
 30
0.0
 41
0.943135975376167
 10
46.49724245191169
 20
15.35304143857131
 30
0.0
 41
0.943135975376167
 10
46.59453165537793
 20
15.26097483366562
 30
0.0
 41
1.000000000038863
 10
46.69182085884418
 20
15.16890822875993
 30
0.0
 41
0.943135975376167
 10
46.74363179097386
 20
15.04484458946654
 30
0.0
 41
0.943135975376167
 10
46.74112591740003
 20
14.90994818931818
 30
0.0
 41
1.000000000038863
  0
SPLINE
  5
E7
330
1F
100
AcDbEntity
  8
Default
100
AcDbSpline
210
0.0
220
0.0
230
1.0
 70
     8
 71
     3
 72
    16
 73
    12
 74
     0
 42
0.0000000001
 43
0.0000000001
 40
0.0
 40
0.0
 40
0.0
 40
0.0
 40
1.0
 40
2.0
 40
3.0
 40
4.0
 40
5.0
 40
6.0
 40
7.0
 40
8.0
 40
8.189439872263966
 40
8.189439872263966
 40
8.189439872263966
 40
8.189439872263966
 10
46.74112591740004
 20
14.90994818931818
 30
0.0
 10
46.74984499804506
 20
14.59669962720568
 30
0.0
 10
46.35121731788949
 20
14.10817507550393
 30
0.0
 10
45.59454074847288
 20
13.63686634139304
 30
0.0
 10
44.78329307478039
 20
13.25502752335695
 30
0.0
 10
43.94973458211408
 20
12.93139351692065
 30
0.0
 10
43.10517566778164
 20
12.63665343323194
 30
0.0
 10
42.25090419764997
 20
12.37159819238762
 30
0.0
 10
41.38741988813462
 20
12.1383221451779
 30
0.0
 10
40.75238650968597
 20
11.98724324905072
 30
0.0
 10
40.40596824667358
 20
11.91163059687315
 30
0.0
 10
40.35076028365081
 20
11.89974810556281
 30
0.0
  0
SPLINE
  5
E8
330
1F
100
AcDbEntity
  8
Default
100
AcDbSpline
210
0.0
220
0.0
230
1.0
 70
     8
 71
     3
 72
    11
 73
     7
 74
     0
 42
0.0000000001
 43
0.0000000001
 40
0.0
 40
0.0
 40
0.0
 40
0.0
 40
0.1290889925177595
 40
0.2609259994466885
 40
0.5361425090251268
 40
1.198229879357077
 40
1.198229879357077
 40
1.198229879357077
 40
1.198229879357077
 10
-13.76364058738036
 20
22.05548809791269
 30
0.0
 10
-13.7932129268604
 20
22.02431754860882
 30
0.0
 10
-13.84632791415013
 20
21.95471400471435
 30
0.0
 10
-13.92973291458191
 20
21.7963627381025
 30
0.0
 10
-14.00752622179263
 20
21.44214747558657
 30
0.0
 10
-13.92938919087197
 20
21.12876873717107
 30
0.0
 10
-13.85596687457265
 20
20.92260041479375
 30
0.0
  0
SPLINE
  5
E9
330
1F
100
AcDbEntity
  8
Default
100
AcDbSpline
210
0.0
220
0.0
230
1.0
 70
    12
 71
     3
 72
    24
 73
    20
 74
     0
 42
0.0000000001
 43
0.0000000001
 40
0.0
 40
0.0
 40
0.0
 40
0.0
 40
1.0
 40
2.0
 40
3.0
 40
4.0
 40
5.0
 40
6.0
 40
7.0
 40
8.0
 40
9.0
 40
10.0
 40
10.0
 40
10.0
 40
11.0
 40
11.0
 40
11.0
 40
11.45028914945505
 40
11.53150104407226
 40
11.53150104407226
 40
11.53150104407226
 40
11.53150104407226
 10
-13.85596687457265
 20
20.92260041479375
 30
0.0
 41
1.0
 10
-13.74625544603186
 20
20.61453302727544
 30
0.0
 41
1.0
 10
-13.47744091830254
 20
19.85674973867733
 30
0.0
 41
1.0
 10
-13.16815573947031
 20
18.92561933788057
 30
0.0
 41
1.0
 10
-12.81764204415382
 20
18.00904348158967
 30
0.0
 41
1.0
 10
-12.43363080437166
 20
17.10622398395243
 30
0.0
 41
1.0
 10
-12.03569416761365
 20
16.20946210088031
 30
0.0
 41
1.0
 10
-11.60462288227209
 20
15.32773119080897
 30
0.0
 41
1.0
 10
-11.09673893229347
 20
14.48671267752612
 30
0.0
 41
1.0
 10
-10.48954804152392
 20
13.71327268648357
 30
0.0
 41
1.0
 10
-9.775175162194465
 20
13.03679697008712
 30
0.0
 41
1.0
 10
-9.237078440121339
 20
12.66177686381056
 30
0.0
 41
1.0
 10
-8.954648798320953
 20
12.49687437440444
 30
0.0
 41
1.0
 10
-8.635427227379582
 20
12.31049014297319
 30
0.0
 41
1.0
 10
-8.287948620980622
 20
12.17327637068453
 30
0.0
 41
1.0
 10
-7.938438624406281
 20
12.05292581864967
 30
0.0
 41
1.0
 10
-7.796590539126807
 20
12.00408173540228
 30
0.0
 41
1.0
 10
-7.628369254501549
 20
11.94809310606153
 30
0.0
 41
1.0
 10
-7.459282631521626
 20
11.89521267876085
 30
0.0
 41
1.0
 10
-7.43342606798783
 20
11.8872052374961
 30
0.0
 41
1.0
  0
SPLINE
  5
EA
330
1F
100
AcDbEntity
  8
Default
100
AcDbSpline
210
0.0
220
0.0
230
1.0
 70
    12
 71
     3
 72
    24
 73
    20
 74
     0
 42
0.0000000001
 43
0.0000000001
 40
-11.53150104407226
 40
-11.53150104407226
 40
-11.53150104407226
 40
-11.53150104407226
 40
-11.45028914945505
 40
-11.0
 40
-11.0
 40
-11.0
 40
-10.0
 40
-10.0
 40
-10.0
 40
-9.0
 40
-8.0
 40
-7.0
 40
-6.0
 40
-5.0
 40
-4.0
 40
-3.0
 40
-2.0
 40
-1.0
 40
0.0
 40
0.0
 40
0.0
 40
0.0
 10
7.433426067987833
 20
11.8872052374961
 30
0.0
 41
1.0
 10
7.459282631521628
 20
11.89521267876085
 30
0.0
 41
1.0
 10
7.62836925450155
 20
11.94809310606153
 30
0.0
 41
1.0
 10
7.796590539126807
 20
12.00408173540228
 30
0.0
 41
1.0
 10
7.938438624406281
 20
12.05292581864967
 30
0.0
 41
1.0
 10
8.287948620980622
 20
12.17327637068453
 30
0.0
 41
1.0
 10
8.635427227379582
 20
12.31049014297319
 30
0.0
 41
1.0
 10
8.954648798320953
 20
12.49687437440444
 30
0.0
 41
1.0
 10
9.237078440121339
 20
12.66177686381056
 30
0.0
 41
1.0
 10
9.775175162194465
 20
13.03679697008712
 30
0.0
 41
1.0
 10
10.48954804152392
 20
13.71327268648357
 30
0.0
 41
1.0
 10
11.09673893229347
 20
14.48671267752612
 30
0.0
 41
1.0
 10
11.60462288227209
 20
15.32773119080897
 30
0.0
 41
1.0
 10
12.03569416761365
 20
16.20946210088031
 30
0.0
 41
1.0
 10
12.43363080437166
 20
17.10622398395243
 30
0.0
 41
1.0
 10
12.81764204415382
 20
18.00904348158967
 30
0.0
 41
1.0
 10
13.16815573947031
 20
18.92561933788057
 30
0.0
 41
1.0
 10
13.47744091830254
 20
19.85674973867733
 30
0.0
 41
1.0
 10
13.74625544603186
 20
20.61453302727544
 30
0.0
 41
1.0
 10
13.85596687457265
 20
20.92260041479375
 30
0.0
 41
1.0
  0
SPLINE
  5
EB
330
1F
100
AcDbEntity
  8
Default
100
AcDbSpline
210
0.0
220
0.0
230
1.0
 70
     8
 71
     3
 72
    11
 73
     7
 74
     0
 42
0.0000000001
 43
0.0000000001
 40
-1.198229879357077
 40
-1.198229879357077
 40
-1.198229879357077
 40
-1.198229879357077
 40
-0.5361425090251268
 40
-0.2609259994466885
 40
-0.1290889925177595
 40
0.0
 40
0.0
 40
0.0
 40
0.0
 10
13.85596687457265
 20
20.92260041479375
 30
0.0
 10
13.92938919087197
 20
21.12876873717107
 30
0.0
 10
14.00752622179263
 20
21.44214747558657
 30
0.0
 10
13.92973291458191
 20
21.7963627381025
 30
0.0
 10
13.84632791415013
 20
21.95471400471435
 30
0.0
 10
13.7932129268604
 20
22.02431754860882
 30
0.0
 10
13.76364058738036
 20
22.05548809791269
 30
0.0
  0
ENDSEC
  0
SECTION
  2
OBJECTS
  0
DICTIONARY
  5
C
330
0
100
AcDbDictionary
281
     1
  3
ACAD_GROUP
350
D
  3
ACAD_LAYOUT
350
1A
  3
ACAD_MLEADERSTYLE
350
ED
  3
ACAD_MLINESTYLE
350
17
  3
ACAD_PLOTSETTINGS
350
19
  3
ACAD_PLOTSTYLENAME
350
E
  3
ACAD_TABLESTYLE
350
EC
  3
ACAD_VISUALSTYLE
350
2A
  0
DICTIONARY
  5
D
102
{ACAD_REACTORS
330
C
102
}
330
C
100
AcDbDictionary
281
     1
  0
DICTIONARY
  5
1A
102
{ACAD_REACTORS
330
C
102
}
330
C
100
AcDbDictionary
281
     1
  3
Layout1
350
1E
  3
Layout2
350
26
  3
Model
350
22
  0
DICTIONARY
  5
ED
102
{ACAD_REACTORS
330
C
102
}
330
C
100
AcDbDictionary
281
     1
  0
DICTIONARY
  5
17
102
{ACAD_REACTORS
330
C
102
}
330
C
100
AcDbDictionary
281
     1
  3
Standard
350
18
  0
DICTIONARY
  5
19
102
{ACAD_REACTORS
330
C
102
}
330
C
100
AcDbDictionary
281
     1
  0
ACDBDICTIONARYWDFLT
  5
E
102
{ACAD_REACTORS
330
C
102
}
330
C
100
AcDbDictionary
281
     1
  3
Normal
350
F
100
AcDbDictionaryWithDefault
340
F
  0
DICTIONARY
  5
EC
102
{ACAD_REACTORS
330
C
102
}
330
C
100
AcDbDictionary
281
     1
  0
DICTIONARY
  5
2A
102
{ACAD_REACTORS
330
C
102
}
330
C
100
AcDbDictionary
281
     1
  3
2dWireframe
350
2F
  3
3D Hidden
350
31
  3
3dWireframe
350
30
  3
Basic
350
32
  3
Brighten
350
36
  3
ColorChange
350
3A
  3
Conceptual
350
34
  3
Dim
350
35
  3
Facepattern
350
39
  3
Flat
350
2B
  3
FlatWithEdges
350
2C
  3
Gouraud
350
2D
  3
GouraudWithEdges
350
2E
  3
Linepattern
350
38
  3
Realistic
350
33
  3
Thicken
350
37
  0
LAYOUT
  5
1E
102
{ACAD_REACTORS
330
1A
102
}
330
1A
100
AcDbPlotSettings
  1

  2
none_device
  4

  6

 40
0.0
 41
0.0
 42
0.0
 43
0.0
 44
0.0
 45
0.0
 46
0.0
 47
0.0
 48
0.0
 49
0.0
140
0.0
141
0.0
142
1.0
143
1.0
 70
   688
 72
     0
 73
     0
 74
     5
  7

 75
    16
 76
     0
 77
     2
 78
   300
147
1.0
148
0.0
149
0.0
100
AcDbLayout
  1
Layout1
 70
     1
 71
     1
 10
0.0
 20
0.0
 11
12.0
 21
9.0
 12
0.0
 22
0.0
 32
0.0
 14
1.000000000000000E+20
 24
1.000000000000000E+20
 34
1.000000000000000E+20
 15
-1.000000000000000E+20
 25
-1.000000000000000E+20
 35
-1.000000000000000E+20
146
0.0
 13
0.0
 23
0.0
 33
0.0
 16
1.0
 26
0.0
 36
0.0
 17
0.0
 27
1.0
 37
0.0
 76
     0
330
1B
  0
LAYOUT
  5
26
102
{ACAD_REACTORS
330
1A
102
}
330
1A
100
AcDbPlotSettings
  1

  2
none_device
  4

  6

 40
0.0
 41
0.0
 42
0.0
 43
0.0
 44
0.0
 45
0.0
 46
0.0
 47
0.0
 48
0.0
 49
0.0
140
0.0
141
0.0
142
1.0
143
1.0
 70
   688
 72
     0
 73
     0
 74
     5
  7

 75
    16
 76
     0
 77
     2
 78
   300
147
1.0
148
0.0
149
0.0
100
AcDbLayout
  1
Layout2
 70
     1
 71
     2
 10
0.0
 20
0.0
 11
0.0
 21
0.0
 12
0.0
 22
0.0
 32
0.0
 14
0.0
 24
0.0
 34
0.0
 15
0.0
 25
0.0
 35
0.0
146
0.0
 13
0.0
 23
0.0
 33
0.0
 16
1.0
 26
0.0
 36
0.0
 17
0.0
 27
1.0
 37
0.0
 76
     0
330
23
  0
LAYOUT
  5
22
102
{ACAD_REACTORS
330
1A
102
}
330
1A
100
AcDbPlotSettings
  1

  2
none_device
  4

  6

 40
0.0
 41
0.0
 42
0.0
 43
0.0
 44
0.0
 45
0.0
 46
0.0
 47
0.0
 48
0.0
 49
0.0
140
0.0
141
0.0
142
1.0
143
1.0
 70
  1712
 72
     0
 73
     0
 74
     0
  7

 75
     0
 76
     0
 77
     2
 78
   300
147
1.0
148
0.0
149
0.0
100
AcDbLayout
  1
Model
 70
     1
 71
     0
 10
0.0
 20
0.0
 11
12.0
 21
9.0
 12
0.0
 22
0.0
 32
0.0
 14
-13.96729270185218
 24
-0.0017796313076643
 34
0.0
 15
46.74112591740185
 25
74.47830213381039
 35
0.0
146
0.0
 13
0.0
 23
0.0
 33
0.0
 16
1.0
 26
0.0
 36
0.0
 17
0.0
 27
1.0
 37
0.0
 76
     0
330
1F
331
29
  0
MLINESTYLE
  5
18
102
{ACAD_REACTORS
330
17
102
}
330
17
100
AcDbMlineStyle
  2
Standard
 70
     0
  3

 62
   256
 51
90.0
 52
90.0
 71
     2
 49
0.5
 62
   256
  6
BYLAYER
 49
-0.5
 62
   256
  6
BYLAYER
  0
ACDBPLACEHOLDER
  5
F
102
{ACAD_REACTORS
330
E
102
}
330
E
  0
VISUALSTYLE
  5
2F
102
{ACAD_REACTORS
330
2A
102
}
330
2A
100
AcDbVisualStyle
  2
2dWireframe
 70
     4
 71
     0
 72
     2
 73
     0
 90
        0
 40
-0.6
 41
-30.0
 62
     5
 63
     7
421
 16777215
 74
     1
 91
        4
 64
     7
 65
   257
 75
     1
175
     1
 42
1.0
 92
        0
 66
   257
 43
1.0
 76
     1
 77
     6
 78
     2
 67
     7
 79
     5
170
     0
171
     0
290
     0
174
     0
 93
        1
 44
0.0
173
     0
291
     0
 45
0.0
1001
ACAD
1000
AcDbSavedByObjectVersion
1070
     0
  0
VISUALSTYLE
  5
31
102
{ACAD_REACTORS
330
2A
102
}
330
2A
100
AcDbVisualStyle
  2
3D Hidden
 70
     6
 71
     1
 72
     2
 73
     2
 90
        0
 40
-0.6
 41
-30.0
 62
     5
 63
     7
421
 16777215
 74
     2
 91
        2
 64
     7
 65
   257
 75
     2
175
     1
 42
40.0
 92
        0
 66
   257
 43
1.0
 76
     1
 77
     6
 78
     2
 67
     7
 79
     3
170
     0
171
     0
290
     0
174
     0
 93
        1
 44
0.0
173
     0
291
     0
 45
0.0
1001
ACAD
1000
AcDbSavedByObjectVersion
1070
     0
  0
VISUALSTYLE
  5
30
102
{ACAD_REACTORS
330
2A
102
}
330
2A
100
AcDbVisualStyle
  2
3dWireframe
 70
     5
 71
     0
 72
     2
 73
     0
 90
        0
 40
-0.6
 41
-30.0
 62
     5
 63
     7
421
 16777215
 74
     1
 91
        4
 64
     7
 65
   257
 75
     1
175
     1
 42
1.0
 92
        0
 66
   257
 43
1.0
 76
     1
 77
     6
 78
     2
 67
     7
 79
     5
170
     0
171
     0
290
     0
174
     0
 93
        1
 44
0.0
173
     0
291
     0
 45
0.0
1001
ACAD
1000
AcDbSavedByObjectVersion
1070
     0
  0
VISUALSTYLE
  5
32
102
{ACAD_REACTORS
330
2A
102
}
330
2A
100
AcDbVisualStyle
  2
Basic
 70
     7
 71
     1
 72
     0
 73
     1
 90
        0
 40
-0.6
 41
-30.0
 62
     5
 63
     7
421
 16777215
 74
     0
 91
        4
 64
     7
 65
   257
 75
     1
175
     1
 42
1.0
 92
        8
 66
     7
 43
1.0
 76
     1
 77
     6
 78
     2
 67
     7
 79
     5
170
     0
171
     0
290
     0
174
     0
 93
        1
 44
0.0
173
     0
291
     1
 45
0.0
1001
ACAD
1000
AcDbSavedByObjectVersion
1070
     0
  0
VISUALSTYLE
  5
36
102
{ACAD_REACTORS
330
2A
102
}
330
2A
100
AcDbVisualStyle
  2
Brighten
 70
    12
 71
     2
 72
     2
 73
     0
 90
        0
 40
-0.6
 41
-30.0
 62
     5
 63
     7
421
 16777215
 74
     1
 91
        4
 64
     7
 65
   257
 75
     1
175
     1
 42
1.0
 92
        8
 66
     7
 43
1.0
 76
     1
 77
     6
 78
     2
 67
     7
 79
     5
170
     0
171
     0
290
     0
174
     0
 93
        1
 44
50.0
173
     0
291
     1
 45
0.0
1001
ACAD
1000
AcDbSavedByObjectVersion
1070
     0
  0
VISUALSTYLE
  5
3A
102
{ACAD_REACTORS
330
2A
102
}
330
2A
100
AcDbVisualStyle
  2
ColorChange
 70
    16
 71
     2
 72
     2
 73
     3
 90
        0
 40
-0.6
 41
-30.0
 62
     5
 63
     8
421
  8421504
 74
     1
 91
        4
 64
     7
 65
   257
 75
     1
175
     1
 42
1.0
 92
        8
 66
     8
424
  8421504
 43
1.0
 76
     1
 77
     6
 78
     2
 67
     7
 79
     5
170
     0
171
     0
290
     0
174
     0
 93
        1
 44
0.0
173
     0
291
     1
 45
0.0
1001
ACAD
1000
AcDbSavedByObjectVersion
1070
     0
  0
VISUALSTYLE
  5
34
102
{ACAD_REACTORS
330
2A
102
}
330
2A
100
AcDbVisualStyle
  2
Conceptual
 70
     9
 71
     3
 72
     2
 73
     0
 90
        0
 40
-0.6
 41
-30.0
 62
     5
 63
     7
421
 16777215
 74
     2
 91
        2
 64
     7
 65
   257
 75
     1
175
     1
 42
40.0
 92
        8
 66
     7
 43
1.0
 76
     1
 77
     6
 78
     2
 67
     7
 79
     3
170
     0
171
     0
290
     0
174
     0
 93
        1
 44
0.0
173
     0
291
     0
 45
0.0
1001
ACAD
1000
AcDbSavedByObjectVersion
1070
     0
  0
VISUALSTYLE
  5
35
102
{ACAD_REACTORS
330
2A
102
}
330
2A
100
AcDbVisualStyle
  2
Dim
 70
    11
 71
     2
 72
     2
 73
     0
 90
        0
 40
-0.6
 41
-30.0
 62
     5
 63
     7
421
 16777215
 74
     1
 91
        4
 64
     7
 65
   257
 75
     1
175
     1
 42
1.0
 92
        8
 66
     7
 43
1.0
 76
     1
 77
     6
 78
     2
 67
     7
 79
     5
170
     0
171
     0
290
     0
174
     0
 93
        1
 44
-50.0
173
     0
291
     1
 45
0.0
1001
ACAD
1000
AcDbSavedByObjectVersion
1070
     0
  0
VISUALSTYLE
  5
39
102
{ACAD_REACTORS
330
2A
102
}
330
2A
100
AcDbVisualStyle
  2
Facepattern
 70
    15
 71
     2
 72
     2
 73
     0
 90
        0
 40
-0.6
 41
-30.0
 62
     5
 63
     7
421
 16777215
 74
     1
 91
        4
 64
     7
 65
   257
 75
     1
175
     1
 42
1.0
 92
        8
 66
     7
 43
1.0
 76
     1
 77
     6
 78
     2
 67
     7
 79
     5
170
     0
171
     0
290
     0
174
     0
 93
        1
 44
0.0
173
     0
291
     1
 45
0.0
1001
ACAD
1000
AcDbSavedByObjectVersion
1070
     0
  0
VISUALSTYLE
  5
2B
102
{ACAD_REACTORS
330
2A
102
}
330
2A
100
AcDbVisualStyle
  2
Flat
 70
     0
 71
     2
 72
     1
 73
     1
 90
        2
 40
-0.6
 41
30.0
 62
     5
 63
     7
421
 16777215
 74
     0
 91
        4
 64
     7
 65
   257
 75
     1
175
     1
 42
1.0
 92
        8
 66
     7
 43
1.0
 76
     1
 77
     6
 78
     2
 67
     7
 79
     5
170
     0
171
     0
290
     0
174
     0
 93
       13
 44
0.0
173
     0
291
     1
 45
0.0
1001
ACAD
1000
AcDbSavedByObjectVersion
1070
     0
  0
VISUALSTYLE
  5
2C
102
{ACAD_REACTORS
330
2A
102
}
330
2A
100
AcDbVisualStyle
  2
FlatWithEdges
 70
     1
 71
     2
 72
     1
 73
     1
 90
        2
 40
-0.6
 41
30.0
 62
     5
 63
     7
421
 16777215
 74
     1
 91
        4
 64
     7
 65
   257
 75
     1
175
     1
 42
1.0
 92
        0
 66
   257
 43
1.0
 76
     1
 77
     6
 78
     2
 67
     7
 79
     5
170
     0
171
     0
290
     0
174
     0
 93
       13
 44
0.0
173
     0
291
     1
 45
0.0
1001
ACAD
1000
AcDbSavedByObjectVersion
1070
     0
  0
VISUALSTYLE
  5
2D
102
{ACAD_REACTORS
330
2A
102
}
330
2A
100
AcDbVisualStyle
  2
Gouraud
 70
     2
 71
     2
 72
     2
 73
     1
 90
        2
 40
-0.6
 41
30.0
 62
     5
 63
     7
421
 16777215
 74
     0
 91
        4
 64
     7
 65
   257
 75
     1
175
     1
 42
1.0
 92
        0
 66
     7
 43
1.0
 76
     1
 77
     6
 78
     2
 67
     7
 79
     5
170
     0
171
     0
290
     0
174
     0
 93
       13
 44
0.0
173
     0
291
     1
 45
0.0
1001
ACAD
1000
AcDbSavedByObjectVersion
1070
     0
  0
VISUALSTYLE
  5
2E
102
{ACAD_REACTORS
330
2A
102
}
330
2A
100
AcDbVisualStyle
  2
GouraudWithEdges
 70
     3
 71
     2
 72
     2
 73
     1
 90
        2
 40
-0.6
 41
30.0
 62
     5
 63
     7
421
 16777215
 74
     1
 91
        4
 64
     7
 65
   257
 75
     1
175
     1
 42
1.0
 92
        0
 66
   257
 43
1.0
 76
     1
 77
     6
 78
     2
 67
     7
 79
     5
170
     0
171
     0
290
     0
174
     0
 93
       13
 44
0.0
173
     0
291
     1
 45
0.0
1001
ACAD
1000
AcDbSavedByObjectVersion
1070
     0
  0
VISUALSTYLE
  5
38
102
{ACAD_REACTORS
330
2A
102
}
330
2A
100
AcDbVisualStyle
  2
Linepattern
 70
    14
 71
     2
 72
     2
 73
     0
 90
        0
 40
-0.6
 41
-30.0
 62
     5
 63
     7
421
 16777215
 74
     1
 91
        4
 64
     7
 65
   257
 75
     7
175
     7
 42
1.0
 92
        8
 66
     7
 43
1.0
 76
     1
 77
     6
 78
     2
 67
     7
 79
     5
170
     0
171
     0
290
     0
174
     0
 93
        1
 44
0.0
173
     0
291
     1
 45
0.0
1001
ACAD
1000
AcDbSavedByObjectVersion
1070
     0
  0
VISUALSTYLE
  5
33
102
{ACAD_REACTORS
330
2A
102
}
330
2A
100
AcDbVisualStyle
  2
Realistic
 70
     8
 71
     2
 72
     2
 73
     0
 90
        0
 40
-0.6
 41
-30.0
 62
     5
 63
     7
421
 16777215
 74
     1
 91
        0
 64
     7
 65
   257
 75
     1
175
     1
 42
1.0
 92
        8
 66
     8
424
  7895160
 43
1.0
 76
     1
 77
     6
 78
     2
 67
     7
 79
     5
170
     0
171
     0
290
     0
174
     0
 93
       13
 44
0.0
173
     0
291
     0
 45
0.0
1001
ACAD
1000
AcDbSavedByObjectVersion
1070
     0
  0
VISUALSTYLE
  5
37
102
{ACAD_REACTORS
330
2A
102
}
330
2A
100
AcDbVisualStyle
  2
Thicken
 70
    13
 71
     2
 72
     2
 73
     0
 90
        0
 40
-0.6
 41
-30.0
 62
     5
 63
     7
421
 16777215
 74
     1
 91
        4
 64
     7
 65
   257
 75
     1
175
     1
 42
1.0
 92
       12
 66
     7
 43
1.0
 76
     1
 77
     6
 78
     2
 67
     7
 79
     5
170
     0
171
     0
290
     0
174
     0
 93
        1
 44
0.0
173
     0
291
     1
 45
0.0
1001
ACAD
1000
AcDbSavedByObjectVersion
1070
     0
  0
ENDSEC
  0
EOF
