  0
SECTION
  2
HEADER
  9
$ACADVER
  1
AC1018
  9
$ACADMAINTVER
 70
     0
  9
$DWGCODEPAGE
  3
ANSI_1252
  9
$INSBASE
 10
0.0
 20
0.0
 30
0.0
  9
$EXTMIN
 10
-13.96729270185218
 20
-0.0002651114711827
 30
0.0
  9
$EXTMAX
 10
47.99800535713073
 20
76.3802034335111
 30
0.0
  9
$LIMMIN
 10
0.0
 20
0.0
  9
$LIMMAX
 10
12.0
 20
9.0
  9
$ORTHOMODE
 70
     0
  9
$REGENMODE
 70
     1
  9
$FILLMODE
 70
     1
  9
$QTEXTMODE
 70
     0
  9
$MIRRTEXT
 70
     1
  9
$LTSCALE
 40
0.0393700787401575
  9
$ATTMODE
 70
     1
  9
$TEXTSIZE
 40
0.2
  9
$TRACEWID
 40
0.05
  9
$TEXTSTYLE
  7
Standard
  9
$CLAYER
  8
Default
  9
$CELTYPE
  6
ByLayer
  9
$CECOLOR
 62
   256
  9
$CELTSCALE
 40
1.0
  9
$DISPSILH
 70
     0
  9
$DIMSCALE
 40
1.0
  9
$DIMASZ
 40
0.18
  9
$DIMEXO
 40
0.0625
  9
$DIMDLI
 40
0.38
  9
$DIMRND
 40
0.0
  9
$DIMDLE
 40
0.0
  9
$DIMEXE
 40
0.18
  9
$DIMTP
 40
0.0
  9
$DIMTM
 40
0.0
  9
$DIMTXT
 40
0.18
  9
$DIMCEN
 40
0.09
  9
$DIMTSZ
 40
0.0
  9
$DIMTOL
 70
     0
  9
$DIMLIM
 70
     0
  9
$DIMTIH
 70
     1
  9
$DIMTOH
 70
     1
  9
$DIMSE1
 70
     0
  9
$DIMSE2
 70
     0
  9
$DIMTAD
 70
     0
  9
$DIMZIN
 70
     0
  9
$DIMBLK
  1

  9
$DIMASO
 70
     1
  9
$DIMSHO
 70
     1
  9
$DIMPOST
  1

  9
$DIMAPOST
  1

  9
$DIMALT
 70
     0
  9
$DIMALTD
 70
     2
  9
$DIMALTF
 40
25.4
  9
$DIMLFAC
 40
1.0
  9
$DIMTOFL
 70
     0
  9
$DIMTVP
 40
0.0
  9
$DIMTIX
 70
     0
  9
$DIMSOXD
 70
     0
  9
$DIMSAH
 70
     0
  9
$DIMBLK1
  1

  9
$DIMBLK2
  1

  9
$DIMSTYLE
  2
Standard
  9
$DIMCLRD
 70
     0
  9
$DIMCLRE
 70
     0
  9
$DIMCLRT
 70
     0
  9
$DIMTFAC
 40
1.0
  9
$DIMGAP
 40
0.09
  9
$DIMJUST
 70
     0
  9
$DIMSD1
 70
     0
  9
$DIMSD2
 70
     0
  9
$DIMTOLJ
 70
     1
  9
$DIMTZIN
 70
     0
  9
$DIMALTZ
 70
     0
  9
$DIMALTTZ
 70
     0
  9
$DIMUPT
 70
     0
  9
$DIMDEC
 70
     4
  9
$DIMTDEC
 70
     4
  9
$DIMALTU
 70
     2
  9
$DIMALTTD
 70
     2
  9
$DIMTXSTY
  7
Standard
  9
$DIMAUNIT
 70
     0
  9
$DIMADEC
 70
     0
  9
$DIMALTRND
 40
0.0
  9
$DIMAZIN
 70
     0
  9
$DIMDSEP
 70
    46
  9
$DIMATFIT
 70
     3
  9
$DIMFRAC
 70
     0
  9
$DIMLDRBLK
  1

  9
$DIMLUNIT
 70
     2
  9
$DIMLWD
 70
    -2
  9
$DIMLWE
 70
    -2
  9
$DIMTMOVE
 70
     2
  9
$LUNITS
 70
     2
  9
$LUPREC
 70
     3
  9
$SKETCHINC
 40
0.1
  9
$FILLETRAD
 40
0.5
  9
$AUNITS
 70
     0
  9
$AUPREC
 70
     0
  9
$MENU
  1
.
  9
$ELEVATION
 40
0.0
  9
$PELEVATION
 40
0.0
  9
$THICKNESS
 40
0.0
  9
$LIMCHECK
 70
     0
  9
$CHAMFERA
 40
0.5
  9
$CHAMFERB
 40
0.5
  9
$CHAMFERC
 40
1.0
  9
$CHAMFERD
 40
0.0
  9
$SKPOLY
 70
     0
  9
$TDCREATE
 40
2456338.480580382
  9
$TDUCREATE
 40
2456338.688913715
  9
$TDUPDATE
 40
2456338.480580394
  9
$TDUUPDATE
 40
2456338.688913727
  9
$TDINDWG
 40
0.0000000116
  9
$TDUSRTIMER
 40
0.0000000116
  9
$USRTIMER
 70
     1
  9
$ANGBASE
 50
0.0
  9
$ANGDIR
 70
     0
  9
$PDMODE
 70
     0
  9
$PDSIZE
 40
0.0
  9
$PLINEWID
 40
0.0
  9
$SPLFRAME
 70
     0
  9
$SPLINETYPE
 70
     6
  9
$SPLINESEGS
 70
     8
  9
$HANDSEED
  5
11E
  9
$SURFTAB1
 70
     6
  9
$SURFTAB2
 70
     6
  9
$SURFTYPE
 70
     6
  9
$SURFU
 70
     6
  9
$SURFV
 70
     6
  9
$UCSBASE
  2

  9
$UCSNAME
  2

  9
$UCSORG
 10
0.0
 20
0.0
 30
0.0
  9
$UCSXDIR
 10
1.0
 20
0.0
 30
0.0
  9
$UCSYDIR
 10
0.0
 20
1.0
 30
0.0
  9
$UCSORTHOREF
  2

  9
$UCSORTHOVIEW
 70
     0
  9
$UCSORGTOP
 10
0.0
 20
0.0
 30
0.0
  9
$UCSORGBOTTOM
 10
0.0
 20
0.0
 30
0.0
  9
$UCSORGLEFT
 10
0.0
 20
0.0
 30
0.0
  9
$UCSORGRIGHT
 10
0.0
 20
0.0
 30
0.0
  9
$UCSORGFRONT
 10
0.0
 20
0.0
 30
0.0
  9
$UCSORGBACK
 10
0.0
 20
0.0
 30
0.0
  9
$PUCSBASE
  2

  9
$PUCSNAME
  2

  9
$PUCSORG
 10
0.0
 20
0.0
 30
0.0
  9
$PUCSXDIR
 10
1.0
 20
0.0
 30
0.0
  9
$PUCSYDIR
 10
0.0
 20
1.0
 30
0.0
  9
$PUCSORTHOREF
  2

  9
$PUCSORTHOVIEW
 70
     0
  9
$PUCSORGTOP
 10
0.0
 20
0.0
 30
0.0
  9
$PUCSORGBOTTOM
 10
0.0
 20
0.0
 30
0.0
  9
$PUCSORGLEFT
 10
0.0
 20
0.0
 30
0.0
  9
$PUCSORGRIGHT
 10
0.0
 20
0.0
 30
0.0
  9
$PUCSORGFRONT
 10
0.0
 20
0.0
 30
0.0
  9
$PUCSORGBACK
 10
0.0
 20
0.0
 30
0.0
  9
$USERI1
 70
     0
  9
$USERI2
 70
     0
  9
$USERI3
 70
     0
  9
$USERI4
 70
     0
  9
$USERI5
 70
     0
  9
$USERR1
 40
0.0
  9
$USERR2
 40
0.0
  9
$USERR3
 40
0.0
  9
$USERR4
 40
0.0
  9
$USERR5
 40
0.0
  9
$WORLDVIEW
 70
     1
  9
$SHADEDGE
 70
     3
  9
$SHADEDIF
 70
    70
  9
$TILEMODE
 70
     1
  9
$MAXACTVP
 70
    64
  9
$PINSBASE
 10
0.0
 20
0.0
 30
0.0
  9
$PLIMCHECK
 70
     0
  9
$PEXTMIN
 10
1.000000000000000E+20
 20
1.000000000000000E+20
 30
1.000000000000000E+20
  9
$PEXTMAX
 10
-1.000000000000000E+20
 20
-1.000000000000000E+20
 30
-1.000000000000000E+20
  9
$PLIMMIN
 10
0.0
 20
0.0
  9
$PLIMMAX
 10
12.0
 20
9.0
  9
$UNITMODE
 70
     0
  9
$VISRETAIN
 70
     1
  9
$PLINEGEN
 70
     0
  9
$PSLTSCALE
 70
     1
  9
$TREEDEPTH
 70
  3020
  9
$CMLSTYLE
  2
Standard
  9
$CMLJUST
 70
     0
  9
$CMLSCALE
 40
1.0
  9
$PROXYGRAPHICS
 70
     1
  9
$MEASUREMENT
 70
     0
  9
$CELWEIGHT
370
    -1
  9
$ENDCAPS
280
     0
  9
$JOINSTYLE
280
     0
  9
$LWDISPLAY
290
     0
  9
$INSUNITS
 70
     1
  9
$HYPERLINKBASE
  1

  9
$STYLESHEET
  1

  9
$XEDIT
290
     1
  9
$CEPSNTYPE
380
     0
  9
$PSTYLEMODE
290
     1
  9
$FINGERPRINTGUID
  2
{5823D9B7-4715-44A0-BF6E-7E968CD43DAC}
  9
$VERSIONGUID
  2
{FAEB1C32-E019-11D5-929B-00C0DF256EC4}
  9
$EXTNAMES
290
     1
  9
$PSVPSCALE
 40
0.0
  9
$OLESTARTUP
290
     0
  9
$SORTENTS
280
   127
  9
$INDEXCTL
280
     0
  9
$HIDETEXT
280
     1
  9
$XCLIPFRAME
290
     0
  9
$HALOGAP
280
     0
  9
$OBSCOLOR
 70
   257
  9
$OBSLTYPE
280
     0
  9
$INTERSECTIONDISPLAY
280
     0
  9
$INTERSECTIONCOLOR
 70
   257
  9
$DIMASSOC
280
     2
  9
$PROJECTNAME
  1

  0
ENDSEC
  0
SECTION
  2
CLASSES
  0
CLASS
  1
ACDBDICTIONARYWDFLT
  2
AcDbDictionaryWithDefault
  3
ObjectDBX Classes
 90
        0
 91
        4
280
     0
281
     0
  0
CLASS
  1
VISUALSTYLE
  2
AcDbVisualStyle
  3
ObjectDBX Classes
 90
     4095
 91
        4
280
     0
281
     0
  0
ENDSEC
  0
SECTION
  2
TABLES
  0
TABLE
  2
VPORT
  5
8
330
0
100
AcDbSymbolTable
 70
     1
  0
VPORT
  5
29
330
8
100
AcDbSymbolTableRecord
100
AcDbViewportTableRecord
  2
*Active
 70
     0
 10
0.0
 20
0.0
 11
1.0
 21
1.0
 12
17.01535632763928
 22
38.18996916101996
 13
0.0
 23
0.0
 14
0.5
 24
0.5
 15
0.5
 25
0.5
 16
0.0
 26
0.0
 36
1.0
 17
0.0
 27
0.0
 37
0.0
 40
77.90807791588192
 41
0.8112715101045769
 42
50.0
 43
0.0
 44
0.0
 50
0.0
 51
0.0
 71
     0
 72
   100
 73
     1
 74
     3
 75
     0
 76
     0
 77
     0
 78
     0
281
     0
 65
     1
110
0.0
120
0.0
130
0.0
111
1.0
121
0.0
131
0.0
112
0.0
122
1.0
132
0.0
 79
     0
146
0.0
  0
ENDTAB
  0
TABLE
  2
LTYPE
  5
5
330
0
100
AcDbSymbolTable
 70
     1
  0
LTYPE
  5
14
330
5
100
AcDbSymbolTableRecord
100
AcDbLinetypeTableRecord
  2
ByBlock
 70
     0
  3

 72
    65
 73
     0
 40
0.0
  0
LTYPE
  5
15
330
5
100
AcDbSymbolTableRecord
100
AcDbLinetypeTableRecord
  2
ByLayer
 70
     0
  3

 72
    65
 73
     0
 40
0.0
  0
LTYPE
  5
16
330
5
100
AcDbSymbolTableRecord
100
AcDbLinetypeTableRecord
  2
Continuous
 70
     0
  3
Solid line
 72
    65
 73
     0
 40
0.0
  0
ENDTAB
  0
TABLE
  2
LAYER
  5
2
330
0
100
AcDbSymbolTable
 70
     4
  0
LAYER
  5
10
330
2
100
AcDbSymbolTableRecord
100
AcDbLayerTableRecord
  2
0
 70
     0
 62
     7
  6
Continuous
370
    -3
390
F
  0
LAYER
  5
3B
330
2
100
AcDbSymbolTableRecord
100
AcDbLayerTableRecord
  2
Default
 70
     0
 62
     7
  6
Continuous
370
    -3
390
F
  0
LAYER
  5
44
330
2
100
AcDbSymbolTableRecord
100
AcDbLayerTableRecord
  2
Make2D visible lines
 70
     0
 62
     7
  6
Continuous
370
    -3
390
F
  0
LAYER
  5
AC
330
2
100
AcDbSymbolTableRecord
100
AcDbLayerTableRecord
  2
Make2D visible lines - Tangent
 70
     0
 62
     7
  6
Continuous
370
    -3
390
F
  0
ENDTAB
  0
TABLE
  2
STYLE
  5
3
330
0
100
AcDbSymbolTable
 70
     1
  0
STYLE
  5
11
330
3
100
AcDbSymbolTableRecord
100
AcDbTextStyleTableRecord
  2
Standard
 70
     0
 40
0.0
 41
1.0
 50
0.0
 71
     0
 42
0.2
  3
txt
  4

  0
ENDTAB
  0
TABLE
  2
VIEW
  5
6
330
0
100
AcDbSymbolTable
 70
     0
  0
ENDTAB
  0
TABLE
  2
UCS
  5
7
330
0
100
AcDbSymbolTable
 70
     0
  0
ENDTAB
  0
TABLE
  2
APPID
  5
9
330
0
100
AcDbSymbolTable
 70
     1
  0
APPID
  5
12
330
9
100
AcDbSymbolTableRecord
100
AcDbRegAppTableRecord
  2
ACAD
 70
     0
  0
ENDTAB
  0
TABLE
  2
DIMSTYLE
  5
A
330
0
100
AcDbSymbolTable
 70
     1
100
AcDbDimStyleTable
  0
DIMSTYLE
105
27
330
A
100
AcDbSymbolTableRecord
100
AcDbDimStyleTableRecord
  2
Standard
 70
     0
340
11
  0
ENDTAB
  0
TABLE
  2
BLOCK_RECORD
  5
1
330
0
100
AcDbSymbolTable
 70
     1
  0
BLOCK_RECORD
  5
1F
330
1
100
AcDbSymbolTableRecord
100
AcDbBlockTableRecord
  2
*Model_Space
340
22
  0
BLOCK_RECORD
  5
1B
330
1
100
AcDbSymbolTableRecord
100
AcDbBlockTableRecord
  2
*Paper_Space
340
1E
  0
BLOCK_RECORD
  5
23
330
1
100
AcDbSymbolTableRecord
100
AcDbBlockTableRecord
  2
*Paper_Space0
340
26
  0
ENDTAB
  0
ENDSEC
  0
SECTION
  2
BLOCKS
  0
BLOCK
  5
20
330
1F
100
AcDbEntity
  8
0
100
AcDbBlockBegin
  2
*Model_Space
 70
     0
 10
0.0
 20
0.0
 30
0.0
  3
*Model_Space
  1

  0
ENDBLK
  5
21
330
1F
100
AcDbEntity
  8
0
100
AcDbBlockEnd
  0
BLOCK
  5
1C
330
1B
100
AcDbEntity
 67
     1
  8
0
100
AcDbBlockBegin
  2
*Paper_Space
 70
     0
 10
0.0
 20
0.0
 30
0.0
  3
*Paper_Space
  1

  0
ENDBLK
  5
1D
330
1B
100
AcDbEntity
 67
     1
  8
0
100
AcDbBlockEnd
  0
BLOCK
  5
24
330
23
100
AcDbEntity
  8
0
100
AcDbBlockBegin
  2
*Paper_Space0
 70
     0
 10
0.0
 20
0.0
 30
0.0
  3
*Paper_Space0
  1

  0
ENDBLK
  5
25
330
23
100
AcDbEntity
  8
0
100
AcDbBlockEnd
  0
ENDSEC
  0
SECTION
  2
ENTITIES
  0
POLYLINE
  5
3C
330
1F
100
AcDbEntity
  8
Default
100
AcDb2dPolyline
 66
     1
 10
0.0
 20
0.0
 30
0.0
  0
VERTEX
  5
3D
330
3C
100
AcDbEntity
  8
Default
100
AcDbVertex
100
AcDb2dVertex
 10
1.923810503571637
 20
0.1525787539957797
 30
0.0
  0
VERTEX
  5
3E
330
3C
100
AcDbEntity
  8
Default
100
AcDbVertex
100
AcDb2dVertex
 10
-1.923810503566337
 20
0.1525787539957797
 30
0.0
  0
SEQEND
  5
3F
330
3C
100
AcDbEntity
  8
Default
  0
POLYLINE
  5
40
330
1F
100
AcDbEntity
  8
Default
100
AcDb2dPolyline
 66
     1
 10
0.0
 20
0.0
 30
0.0
  0
VERTEX
  5
41
330
40
100
AcDbEntity
  8
Default
100
AcDbVertex
100
AcDb2dVertex
 10
-1.943490577741672
 20
0.588749999963412
 30
0.0
  0
VERTEX
  5
42
330
40
100
AcDbEntity
  8
Default
100
AcDbVertex
100
AcDb2dVertex
 10
1.943490577746973
 20
0.588749999963412
 30
0.0
  0
SEQEND
  5
43
330
40
100
AcDbEntity
  8
Default
  0
SPLINE
  5
45
330
1F
100
AcDbEntity
  8
Make2D visible lines
100
AcDbSpline
210
0.0
220
0.0
230
1.0
 70
     8
 71
     3
 72
    12
 73
     8
 74
     0
 42
0.0000000001
 43
0.0000000001
 40
0.0
 40
0.0
 40
0.0
 40
0.0
 40
0.1045449495724591
 40
0.2148937681762403
 40
0.5007879948566512
 40
0.8561420073208538
 40
1.264081239529036
 40
1.264081239529036
 40
1.264081239529036
 40
1.264081239529036
 10
8.246604095512172
 20
0.5946423465464109
 30
0.0
 10
8.280550316408924
 20
0.6020719707281382
 30
0.0
 10
8.34784910936541
 20
0.6310631011182968
 30
0.0
 10
8.463624316938333
 20
0.7555571056216934
 30
0.0
 10
8.547639076535454
 20
0.9968449928249623
 30
0.0
 10
8.563302174806221
 20
1.348128394503139
 30
0.0
 10
8.521299246645253
 20
1.600551821673184
 30
0.0
 10
8.487381968543758
 20
1.732138477176544
 30
0.0
  0
SPLINE
  5
46
330
1F
100
AcDbEntity
  8
Make2D visible lines
100
AcDbSpline
210
0.0
220
0.0
230
1.0
 70
    24
 71
     2
 72
     6
 73
     3
 74
     0
 42
0.0000000001
 43
0.0000000001
 40
0.0
 40
0.0
 40
0.0
 40
10.18306939563208
 40
10.18306939563208
 40
10.18306939563208
 10
8.487381968543758
 20
1.732138477176544
 30
0.0
 10
7.196624356160446
 20
6.664279276977405
 30
0.0
 10
5.905866743777134
 20
11.59642007677827
 30
0.0
  0
LINE
  5
47
330
1F
100
AcDbEntity
  8
Make2D visible lines
100
AcDbLine
 10
6.313222426886018
 20
11.76790423380818
 30
0.0
 11
8.908927380989105
 21
1.849471051043777
 31
0.0
  0
SPLINE
  5
48
330
1F
100
AcDbEntity
  8
Make2D visible lines
100
AcDbSpline
210
0.0
220
0.0
230
1.0
 70
     8
 71
     3
 72
    11
 73
     7
 74
     0
 42
0.0000000001
 43
0.0000000001
 40
0.0
 40
0.0
 40
0.0
 40
0.0
 40
0.1808079666173053
 40
0.3573749741682617
 40
0.6971779454963127
 40
1.284847912810405
 40
1.284847912810405
 40
1.284847912810405
 40
1.284847912810405
 10
8.908927380989105
 20
1.849471051043777
 30
0.0
 10
8.924896261509293
 20
1.787942529339398
 30
0.0
 10
8.951101138419556
 20
1.671789227455212
 30
0.0
 10
8.98617775955389
 20
1.441694512673601
 30
0.0
 10
9.002700310660767
 20
1.073539047268699
 30
0.0
 10
8.941866848536339
 20
0.7646989773466698
 30
0.0
 10
8.85377659937533
 20
0.5887500000162448
 30
0.0
  0
SPLINE
  5
49
330
1F
100
AcDbEntity
  8
Default
100
AcDbSpline
210
0.0
220
0.0
230
1.0
 70
    12
 71
     2
 72
     6
 73
     3
 74
     0
 42
0.0000000001
 43
0.0000000001
 40
-0.211553587540477
 40
-0.211553587540477
 40
-0.211553587540477
 40
0.0
 40
0.0
 40
0.0
 10
6.502477518359122
 20
0.1525787539958214
 30
0.0
 41
1.0
 10
6.539067175211725
 20
0.0438962250914205
 30
0.0
 41
0.8875534162529749
 10
6.649005203126084
 20
0.0112722293835135
 30
0.0
 41
1.0
  0
SPLINE
  5
4A
330
1F
100
AcDbEntity
  8
Default
100
AcDbSpline
210
0.0
220
0.0
230
1.0
 70
     8
 71
     3
 72
     8
 73
     4
 74
     0
 42
0.0000000001
 43
0.0000000001
 40
0.0
 40
0.0
 40
0.0
 40
0.0
 40
1.0
 40
1.0
 40
1.0
 40
1.0
 10
6.649005203126084
 20
0.0112722293835135
 30
0.0
 10
6.672607570326388
 20
0.0042682514074945
 30
0.0
 10
6.697379272188556
 20
0.0000000000000027
 30
0.0
 10
6.721998927851185
 20
0.0000000000000036
 30
0.0
  0
LINE
  5
4B
330
1F
100
AcDbEntity
  8
Default
100
AcDbLine
 10
6.721998927851185
 20
0.0000000000000036
 30
0.0
 11
7.452311446704272
 21
0.0000000000000299
 31
0.0
  0
ARC
  5
4C
330
1F
100
AcDbEntity
  8
Default
100
AcDbCircle
 10
-8.59618659594
 20
0.2238598264421936
 30
0.0
 40
0.2224166428770481
100
AcDbArc
 50
198.6922236255341
 51
258.2725353600697
  0
ARC
  5
4D
330
1F
100
AcDbEntity
  8
Default
100
AcDbCircle
 10
-8.575820583580455
 20
0.3219667312215891
 30
0.0
 40
0.3226151419916679
100
AcDbArc
 50
258.2725353600695
 51
267.206766273397
  0
SPLINE
  5
4E
330
1F
100
AcDbEntity
  8
Default
100
AcDbSpline
210
0.0
220
0.0
230
1.0
 70
    12
 71
     3
 72
    35
 73
    31
 74
     0
 42
0.0000000001
 43
0.0000000001
 40
0.0
 40
0.0
 40
0.0
 40
0.0
 40
0.9122513769519713
 40
0.9122513769519713
 40
0.9122513769519713
 40
1.912251376951971
 40
1.912251376951971
 40
1.912251376951971
 40
2.082430706518049
 40
2.082430706518049
 40
2.082430706518049
 40
2.245705597085521
 40
2.245705597085521
 40
2.245705597085521
 40
3.245705597085521
 40
3.245705597085521
 40
3.245705597085521
 40
4.168715527706236
 40
4.168715527706236
 40
4.168715527706236
 40
5.168715527706236
 40
5.168715527706236
 40
5.168715527706236
 40
5.304502684826552
 40
5.304502684826552
 40
5.304502684826552
 40
5.485477739033714
 40
5.485477739033714
 40
5.485477739033714
 40
5.546420283634844
 40
5.546420283634844
 40
5.546420283634844
 40
5.546420283634844
 10
-8.591542205542737
 20
-0.0002651114711826
 30
0.0
 41
1.0
 10
-8.060479031333617
 20
0.0000000000000023
 30
0.0
 41
1.0
 10
-7.756395239016296
 20
0.0000000000000012
 30
0.0
 41
1.0
 10
-7.452311446698971
 20
0.0
 30
0.0
 41
1.0
 10
-7.35746656496072
 20
-0.0000000000000004
 30
0.0
 41
1.0
 10
-7.238438515071365
 20
0.0810182739360133
 30
0.0
 41
1.0
 10
-7.228198027044499
 20
0.1753086976115603
 30
0.0
 41
1.0
 10
-7.222072356984127
 20
0.2317114807381092
 30
0.0
 41
0.9997177881689924
 10
-7.217160811103144
 20
0.2964983093396986
 30
0.0
 41
0.9997177881689924
 10
-7.213467547690616
 20
0.3696143325877538
 30
0.0
 41
1.0
 10
-7.213431922112052
 20
0.4260478234631951
 30
0.0
 41
0.9308066682344033
 10
-7.238435587153829
 20
0.4766398870310019
 30
0.0
 41
0.9308066682344033
 10
-7.28328828214417
 20
0.5108886229737142
 30
0.0
 41
1.0
 10
-7.305571695375434
 20
0.5279038488330348
 30
0.0
 41
1.0
 10
-7.334163622205661
 20
0.5400000000000098
 30
0.0
 41
1.0
 10
-7.362200533880788
 20
0.5400000000000098
 30
0.0
 41
1.0
 10
-7.669870510754361
 20
0.5400000000000102
 30
0.0
 41
1.0
 10
-7.977540487627934
 20
0.5400000000000108
 30
0.0
 41
1.0
 10
-8.285210464501503
 20
0.5400000000000112
 30
0.0
 41
1.0
 10
-8.326839319245622
 20
0.5400000000000114
 30
0.0
 41
1.0
 10
-8.392541108511754
 20
0.526877196620711
 30
0.0
 41
1.0
 10
-8.397605637993095
 20
0.4855575634127614
 30
0.0
 41
1.0
 10
-8.40311360714462
 20
0.4406200690413195
 30
0.0
 41
0.9994962782114493
 10
-8.406873931081783
 20
0.3954569479266211
 30
0.0
 41
0.9994962782114493
 10
-8.408880927333279
 20
0.3501364490130996
 30
0.0
 41
1.0
 10
-8.41217014042476
 20
0.2884254997444136
 30
0.0
 41
0.955925473531078
 10
-8.437334393463482
 20
0.2319459535361545
 30
0.0
 41
0.955925473531078
 10
-8.481046378839565
 20
0.188165738151248
 30
0.0
 41
1.0
 10
-8.494124661709257
 20
0.1733188843989754
 30
0.0
 41
0.9572798549558303
 10
-8.51005888699122
 20
0.1610610832498368
 30
0.0
 41
0.9278642387305256
 10
-8.528524440888326
 20
0.1523791424077525
 30
0.0
 41
0.9117531513240855
  0
SPLINE
  5
4F
330
1F
100
AcDbEntity
  8
Default
100
AcDbSpline
210
0.0
220
0.0
230
1.0
 70
    24
 71
     2
 72
     6
 73
     3
 74
     0
 42
0.0000000001
 43
0.0000000001
 40
-0.3601265109904084
 40
-0.3601265109904084
 40
-0.3601265109904084
 40
0.0
 40
0.0
 40
0.0
 10
-8.528524440888326
 20
0.1523791424077525
 30
0.0
 10
-8.708635953144636
 20
0.1524789482018744
 30
0.0
 10
-8.888747465400947
 20
0.1525787539959964
 30
0.0
  0
SPLINE
  5
50
330
1F
100
AcDbEntity
  8
Default
100
AcDbSpline
210
0.0
220
0.0
230
1.0
 70
     8
 71
     3
 72
     8
 73
     4
 74
     0
 42
0.0000000001
 43
0.0000000001
 40
-1.0
 40
-1.0
 40
-1.0
 40
-1.0
 40
0.0
 40
0.0
 40
0.0
 40
0.0
 10
-8.888747465400947
 20
0.1525787539959964
 30
0.0
 10
-8.920978778481324
 20
0.1525787539960002
 30
0.0
 10
-8.953390982860348
 20
0.1525183932655625
 30
0.0
 10
-8.985355302735641
 20
0.1566584171538156
 30
0.0
  0
SPLINE
  5
51
330
1F
100
AcDbEntity
  8
Default
100
AcDbSpline
210
0.0
220
0.0
230
1.0
 70
     8
 71
     3
 72
    12
 73
     8
 74
     0
 42
0.0000000001
 43
0.0000000001
 40
-1.882643585528527
 40
-1.882643585528527
 40
-1.882643585528527
 40
-1.882643585528527
 40
-1.503763677712677
 40
-1.061032220590192
 40
-0.5456832805761264
 40
-0.2765128888932682
 40
0.0
 40
0.0
 40
0.0
 40
0.0
 10
-8.985355302735641
 20
0.1566584171538156
 30
0.0
 10
-9.111465104168264
 20
0.1729921790643102
 30
0.0
 10
-9.361862337321163
 20
0.3099004743505681
 30
0.0
 10
-9.604676447760212
 20
0.6956934905061424
 30
0.0
 10
-9.697526439842513
 20
1.09725276203288
 30
0.0
 10
-9.708375353893171
 20
1.452224519479913
 30
0.0
 10
-9.687618172947843
 20
1.633030989492872
 30
0.0
 10
-9.670621564679742
 20
1.72375537629401
 30
0.0
  0
SPLINE
  5
52
330
1F
100
AcDbEntity
  8
Default
100
AcDbSpline
210
0.0
220
0.0
230
1.0
 70
    12
 71
     3
 72
    26
 73
    22
 74
     0
 42
0.0000000001
 43
0.0000000001
 40
-23.82068071894498
 40
-23.82068071894498
 40
-23.82068071894498
 40
-23.82068071894498
 40
-13.58928802782913
 40
-13.58928802782913
 40
-13.58928802782913
 40
-12.58928802782913
 40
-11.58928802782913
 40
-10.58928802782913
 40
-9.589288027829125
 40
-8.589288027829125
 40
-8.589288027829125
 40
-8.589288027829125
 40
-6.749838568985957
 40
-6.749838568985957
 40
-6.749838568985957
 40
-5.749838568985957
 40
-4.749838568985957
 40
-3.749838568985957
 40
-3.749838568985957
 40
-3.749838568985957
 40
0.0
 40
0.0
 40
0.0
 40
0.0
 10
-9.670621564679742
 20
1.72375537629401
 30
0.0
 41
1.0
 10
-9.031489312747638
 20
5.089847101776663
 30
0.0
 41
1.0
 10
-8.394561247918322
 20
8.444329854237838
 30
0.0
 41
1.0
 10
-7.757633183089009
 20
11.79881260669901
 30
0.0
 41
1.0
 10
-7.739396228434174
 20
11.89090412116827
 30
0.0
 41
1.0
 10
-7.686826324959398
 20
12.07212813714344
 30
0.0
 41
1.0
 10
-7.549800235371851
 20
12.32091656899396
 30
0.0
 41
1.0
 10
-7.338972542431033
 20
12.51593629715272
 30
0.0
 41
1.0
 10
-7.056989612822196
 20
12.59432727921582
 30
0.0
 41
1.0
 10
-6.871231658240543
 20
12.53303486293809
 30
0.0
 41
1.0
 10
-6.789607031626787
 20
12.48794463682504
 30
0.0
 41
1.0
 10
-6.252824357134526
 20
12.18891135282014
 30
0.0
 41
0.9957547492158003
 10
-5.677372023588524
 20
11.95000960403209
 30
0.0
 41
0.9957547492158003
 10
-5.070578849399547
 20
11.77428198397008
 30
0.0
 41
1.0
 10
-4.926042872780684
 20
11.74510412946222
 30
0.0
 41
1.0
 10
-4.634383387331349
 20
11.69846325933713
 30
0.0
 41
1.0
 10
-4.192447621785901
 20
11.67189710402615
 30
0.0
 41
1.0
 10
-3.89747405444658
 20
11.66911360858841
 30
0.0
 41
1.0
 10
-3.749919284490332
 20
11.66874999999746
 30
0.0
 41
1.0
 10
-2.499946189659338
 20
11.66874999999737
 30
0.0
 41
1.0
 10
-1.249973094828343
 20
11.66874999999728
 30
0.0
 41
1.0
 10
0.0000000000026503
 20
11.66874999999719
 30
0.0
 41
1.0
  0
SPLINE
  5
53
330
1F
100
AcDbEntity
  8
Default
100
AcDbSpline
210
0.0
220
0.0
230
1.0
 70
    12
 71
     3
 72
    26
 73
    22
 74
     0
 42
0.0000000001
 43
0.0000000001
 40
0.0
 40
0.0
 40
0.0
 40
0.0
 40
3.749838568985957
 40
3.749838568985957
 40
3.749838568985957
 40
4.749838568985957
 40
5.749838568985957
 40
6.749838568985957
 40
6.749838568985957
 40
6.749838568985957
 40
8.589288027829125
 40
8.589288027829125
 40
8.589288027829125
 40
9.589288027829125
 40
10.58928802782913
 40
11.58928802782913
 40
12.58928802782913
 40
13.58928802782913
 40
13.58928802782913
 40
13.58928802782913
 40
23.82068071894498
 40
23.82068071894498
 40
23.82068071894498
 40
23.82068071894498
 10
0.0000000000026503
 20
11.66874999999719
 30
0.0
 41
1.0
 10
1.249973094833644
 20
11.66874999999728
 30
0.0
 41
1.0
 10
2.499946189664639
 20
11.66874999999737
 30
0.0
 41
1.0
 10
3.749919284495633
 20
11.66874999999746
 30
0.0
 41
1.0
 10
3.89747405445188
 20
11.66911360858841
 30
0.0
 41
1.0
 10
4.192447621791201
 20
11.67189710402615
 30
0.0
 41
1.0
 10
4.63438338733665
 20
11.69846325933713
 30
0.0
 41
1.0
 10
4.926042872785985
 20
11.74510412946222
 30
0.0
 41
1.0
 10
5.070578849404848
 20
11.77428198397008
 30
0.0
 41
1.0
 10
5.677372023593824
 20
11.95000960403209
 30
0.0
 41
0.9957547492158003
 10
6.252824357139827
 20
12.18891135282014
 30
0.0
 41
0.9957547492158003
 10
6.789607031632087
 20
12.48794463682504
 30
0.0
 41
1.0
 10
6.871231658245843
 20
12.53303486293809
 30
0.0
 41
1.0
 10
7.056989612827497
 20
12.59432727921582
 30
0.0
 41
1.0
 10
7.338972542436334
 20
12.51593629715272
 30
0.0
 41
1.0
 10
7.549800235377152
 20
12.32091656899396
 30
0.0
 41
1.0
 10
7.686826324964699
 20
12.07212813714344
 30
0.0
 41
1.0
 10
7.739396228439475
 20
11.89090412116827
 30
0.0
 41
1.0
 10
7.75763318309431
 20
11.79881260669901
 30
0.0
 41
1.0
 10
8.394561247923622
 20
8.444329854237838
 30
0.0
 41
1.0
 10
9.031489312752939
 20
5.089847101776663
 30
0.0
 41
1.0
 10
9.670621564685042
 20
1.72375537629401
 30
0.0
 41
1.0
  0
SPLINE
  5
54
330
1F
100
AcDbEntity
  8
Default
100
AcDbSpline
210
0.0
220
0.0
230
1.0
 70
     8
 71
     3
 72
    12
 73
     8
 74
     0
 42
0.0000000001
 43
0.0000000001
 40
0.0
 40
0.0
 40
0.0
 40
0.0
 40
0.2765128888932682
 40
0.5456832805761264
 40
1.061032220590192
 40
1.503763677712677
 40
1.882643585528527
 40
1.882643585528527
 40
1.882643585528527
 40
1.882643585528527
 10
9.670621564685042
 20
1.72375537629401
 30
0.0
 10
9.687618172953144
 20
1.633030989492872
 30
0.0
 10
9.708375353898472
 20
1.452224519479913
 30
0.0
 10
9.697526439847813
 20
1.09725276203288
 30
0.0
 10
9.604676447765513
 20
0.6956934905061424
 30
0.0
 10
9.361862337326464
 20
0.3099004743505681
 30
0.0
 10
9.111465104173565
 20
0.1729921790643102
 30
0.0
 10
8.985355302740942
 20
0.1566584171538156
 30
0.0
  0
SPLINE
  5
55
330
1F
100
AcDbEntity
  8
Default
100
AcDbSpline
210
0.0
220
0.0
230
1.0
 70
     8
 71
     3
 72
     8
 73
     4
 74
     0
 42
0.0000000001
 43
0.0000000001
 40
0.0
 40
0.0
 40
0.0
 40
0.0
 40
1.0
 40
1.0
 40
1.0
 40
1.0
 10
8.985355302740942
 20
0.1566584171538156
 30
0.0
 10
8.953390982865649
 20
0.1525183932655625
 30
0.0
 10
8.920978778486624
 20
0.1525787539960002
 30
0.0
 10
8.888747465406247
 20
0.1525787539959964
 30
0.0
  0
SPLINE
  5
56
330
1F
100
AcDbEntity
  8
Default
100
AcDbSpline
210
0.0
220
0.0
230
1.0
 70
    24
 71
     2
 72
     6
 73
     3
 74
     0
 42
0.0000000001
 43
0.0000000001
 40
0.0
 40
0.0
 40
0.0
 40
0.3601265109904084
 40
0.3601265109904084
 40
0.3601265109904084
 10
8.888747465406247
 20
0.1525787539959964
 30
0.0
 10
8.708635953149937
 20
0.1524789482018744
 30
0.0
 10
8.528524440893626
 20
0.1523791424077525
 30
0.0
  0
SPLINE
  5
57
330
1F
100
AcDbEntity
  8
Default
100
AcDbSpline
210
0.0
220
0.0
230
1.0
 70
    12
 71
     3
 72
    35
 73
    31
 74
     0
 42
0.0000000001
 43
0.0000000001
 40
-5.546420283634844
 40
-5.546420283634844
 40
-5.546420283634844
 40
-5.546420283634844
 40
-5.485477739033714
 40
-5.485477739033714
 40
-5.485477739033714
 40
-5.304502684826552
 40
-5.304502684826552
 40
-5.304502684826552
 40
-5.168715527706236
 40
-5.168715527706236
 40
-5.168715527706236
 40
-4.168715527706236
 40
-4.168715527706236
 40
-4.168715527706236
 40
-3.245705597085521
 40
-3.245705597085521
 40
-3.245705597085521
 40
-2.245705597085521
 40
-2.245705597085521
 40
-2.245705597085521
 40
-2.082430706518049
 40
-2.082430706518049
 40
-2.082430706518049
 40
-1.912251376951971
 40
-1.912251376951971
 40
-1.912251376951971
 40
-0.9122513769519713
 40
-0.9122513769519713
 40
-0.9122513769519713
 40
0.0
 40
0.0
 40
0.0
 40
0.0
 10
8.528524440893626
 20
0.1523791424077525
 30
0.0
 41
0.9117531513240855
 10
8.510058886996521
 20
0.1610610832498368
 30
0.0
 41
0.9278642387305256
 10
8.49412466171456
 20
0.1733188843989754
 30
0.0
 41
0.9572798549558303
 10
8.481046378844866
 20
0.188165738151248
 30
0.0
 41
1.0
 10
8.437334393468781
 20
0.2319459535361545
 30
0.0
 41
0.955925473531078
 10
8.412170140430058
 20
0.2884254997444136
 30
0.0
 41
0.955925473531078
 10
8.40888092733858
 20
0.3501364490130996
 30
0.0
 41
1.0
 10
8.406873931087084
 20
0.3954569479266211
 30
0.0
 41
0.9994962782114493
 10
8.40311360714992
 20
0.4406200690413195
 30
0.0
 41
0.9994962782114493
 10
8.397605637998396
 20
0.4855575634127614
 30
0.0
 41
1.0
 10
8.392541108517054
 20
0.526877196620711
 30
0.0
 41
1.0
 10
8.326839319250922
 20
0.5400000000000114
 30
0.0
 41
1.0
 10
8.285210464506804
 20
0.5400000000000112
 30
0.0
 41
1.0
 10
7.977540487633235
 20
0.5400000000000108
 30
0.0
 41
1.0
 10
7.669870510759662
 20
0.5400000000000102
 30
0.0
 41
1.0
 10
7.362200533886089
 20
0.5400000000000098
 30
0.0
 41
1.0
 10
7.334163622210962
 20
0.5400000000000098
 30
0.0
 41
1.0
 10
7.305571695380735
 20
0.5279038488330348
 30
0.0
 41
1.0
 10
7.283288282149471
 20
0.5108886229737142
 30
0.0
 41
1.0
 10
7.238435587159128
 20
0.4766398870310019
 30
0.0
 41
0.9308066682344033
 10
7.213431922117351
 20
0.4260478234631951
 30
0.0
 41
0.9308066682344033
 10
7.213467547695917
 20
0.3696143325877538
 30
0.0
 41
1.0
 10
7.217160811108446
 20
0.2964983093396986
 30
0.0
 41
0.9997177881689924
 10
7.222072356989427
 20
0.2317114807381092
 30
0.0
 41
0.9997177881689924
 10
7.2281980270498
 20
0.1753086976115603
 30
0.0
 41
1.0
 10
7.238438515076666
 20
0.0810182739360133
 30
0.0
 41
1.0
 10
7.357466564966021
 20
-0.0000000000000004
 30
0.0
 41
1.0
 10
7.452311446704272
 20
0.0
 30
0.0
 41
1.0
 10
7.756395239021597
 20
0.0000000000000012
 30
0.0
 41
1.0
 10
8.060479031338918
 20
0.0000000000000023
 30
0.0
 41
1.0
 10
8.591542205548038
 20
-0.0002651114711826
 30
0.0
 41
1.0
  0
ARC
  5
58
330
1F
100
AcDbEntity
  8
Default
100
AcDbCircle
 10
8.575820583585756
 20
0.3219667312215891
 30
0.0
 40
0.3226151419916679
100
AcDbArc
 50
272.7932337266029
 51
281.7274646399305
  0
ARC
  5
59
330
1F
100
AcDbEntity
  8
Default
100
AcDbCircle
 10
8.596186595945301
 20
0.2238598264421936
 30
0.0
 40
0.2224166428770481
100
AcDbArc
 50
281.7274646399303
 51
341.3077763744659
  0
SPLINE
  5
5A
330
1F
100
AcDbEntity
  8
Default
100
AcDbSpline
210
0.0
220
0.0
230
1.0
 70
    24
 71
     2
 72
     6
 73
     3
 74
     0
 42
0.0000000001
 43
0.0000000001
 40
0.0
 40
0.0
 40
0.0
 40
5.309158539051804
 40
5.309158539051804
 40
5.309158539051804
 10
-7.232969042618141
 20
0.1525787539958415
 30
0.0
 10
-4.578389773092239
 20
0.1525787539958106
 30
0.0
 10
-1.923810503566337
 20
0.1525787539957797
 30
0.0
  0
SPLINE
  5
5B
330
1F
100
AcDbEntity
  8
Default
100
AcDbSpline
210
0.0
220
0.0
230
1.0
 70
    12
 71
     2
 72
     8
 73
     5
 74
     0
 42
0.0000000001
 43
0.0000000001
 40
0.0
 40
0.0
 40
0.0
 40
0.3167097645631024
 40
0.3167097645631024
 40
0.605160883947577
 40
0.605160883947577
 40
0.605160883947577
 10
-1.923810503566337
 20
0.1525787539957797
 30
0.0
 41
1.0
 10
-1.73459107258021
 20
0.2012120727525021
 30
0.0
 41
0.7386023741328179
 10
-1.765790675435264
 20
0.3940741414381114
 30
0.0
 41
1.0
 10
-1.767734106779069
 20
0.5707402431660344
 30
0.0
 41
0.7459465885243229
 10
-1.943490577741672
 20
0.588749999963412
 30
0.0
 41
0.9999999930443638
  0
POLYLINE
  5
5C
330
1F
100
AcDbEntity
  8
Default
100
AcDb2dPolyline
 66
     1
 10
0.0
 20
0.0
 30
0.0
  0
VERTEX
  5
5D
330
5C
100
AcDbEntity
  8
Default
100
AcDbVertex
100
AcDb2dVertex
 10
-1.943490577741672
 20
0.588749999963412
 30
0.0
  0
VERTEX
  5
5E
330
5C
100
AcDbEntity
  8
Default
100
AcDbVertex
100
AcDb2dVertex
 10
-8.908422971651042
 20
0.5887499999999743
 30
0.0
  0
SEQEND
  5
5F
330
5C
100
AcDbEntity
  8
Default
  0
SPLINE
  5
60
330
1F
100
AcDbEntity
  8
Default
100
AcDbSpline
210
0.0
220
0.0
230
1.0
 70
     8
 71
     3
 72
    11
 73
     7
 74
     0
 42
0.0000000001
 43
0.0000000001
 40
0.0
 40
0.0
 40
0.0
 40
0.0
 40
0.0845988574993078
 40
0.1984421163829465
 40
0.4958697716758607
 40
1.189939830360232
 40
1.189939830360232
 40
1.189939830360232
 40
1.189939830360232
 10
-8.908422971651042
 20
0.5887499999999743
 30
0.0
 10
-8.937015453675482
 20
0.5888436509776955
 30
0.0
 10
-8.999875571346163
 20
0.6144104622495807
 30
0.0
 10
-9.11814638788088
 20
0.7336114840239678
 30
0.0
 10
-9.271114683673744
 20
1.07437291399231
 30
0.0
 10
-9.281919128889207
 20
1.414252175010208
 30
0.0
 10
-9.240907669108385
 20
1.641580709923929
 30
0.0
  0
SPLINE
  5
61
330
1F
100
AcDbEntity
  8
Default
100
AcDbSpline
210
0.0
220
0.0
230
1.0
 70
    12
 71
     3
 72
    30
 73
    26
 74
     0
 42
0.0000000001
 43
0.0000000001
 40
-17.8484931894299
 40
-17.8484931894299
 40
-17.8484931894299
 40
-17.8484931894299
 40
-7.615999840475066
 40
-7.615999840475066
 40
-7.615999840475066
 40
-7.52816003568542
 40
-7.445381776445632
 40
-7.297640003543176
 40
-7.1738051283902
 40
-7.091305656952183
 40
-7.091305656952183
 40
-7.091305656952183
 40
-7.0
 40
-7.0
 40
-7.0
 40
-6.0
 40
-5.0
 40
-4.0
 40
-3.0
 40
-2.0
 40
-1.0
 40
0.0
 40
0.0
 40
0.0
 40
3.750000000000004
 40
3.750000000000004
 40
3.750000000000004
 40
3.750000000000004
 10
-9.240907669108385
 20
1.641580709923929
 30
0.0
 41
1.0
 10
-8.601984642009985
 20
5.006568753598065
 30
0.0
 41
1.0
 10
-7.965060421862091
 20
8.361028736880007
 30
0.0
 41
1.0
 10
-7.328136201714198
 20
11.71548872016195
 30
0.0
 41
1.0
 10
-7.322454667446028
 20
11.74420403768131
 30
0.0
 41
1.0
 10
-7.309094107101156
 20
11.79956150224595
 30
0.0
 41
1.0
 10
-7.275956267619204
 20
11.90041419925976
 30
0.0
 41
1.0
 10
-7.224034486267982
 20
12.00722081597929
 30
0.0
 41
1.0
 10
-7.148360556766725
 20
12.09931539010405
 30
0.0
 41
1.0
 10
-7.084624204310717
 20
12.13165304371249
 30
0.0
 41
1.0
 10
-7.056236441000898
 20
12.12811585097298
 30
0.0
 41
1.0
 10
-7.02593021550299
 20
12.12379047909632
 30
0.0
 41
0.9884316066092852
 10
-6.996952262405774
 20
12.11391891757107
 30
0.0
 41
0.9884316066092852
 10
-6.970308266792511
 20
12.09884376071855
 30
0.0
 41
1.0
 10
-6.829531128729148
 20
12.02055637818338
 30
0.0
 41
1.0
 10
-6.543712945106325
 20
11.8718701943614
 30
0.0
 41
1.0
 10
-6.103851757783982
 20
11.67092569413197
 30
0.0
 41
1.0
 10
-5.652272386472159
 20
11.49982142631847
 30
0.0
 41
1.0
 10
-5.194561240719295
 20
11.34014150444726
 30
0.0
 41
1.0
 10
-4.715395276231874
 20
11.26881073540698
 30
0.0
 41
1.0
 10
-4.233343930663601
 20
11.23421136461893
 30
0.0
 41
1.0
 10
-3.911039945280974
 20
11.23178641422753
 30
0.0
 41
1.0
 10
-3.749999999997353
 20
11.23125000000139
 30
0.0
 41
1.0
 10
-2.499999999997351
 20
11.23125000000187
 30
0.0
 41
1.0
 10
-1.249999999997351
 20
11.23125000000235
 30
0.0
 41
1.0
 10
0.0000000000026503
 20
11.23125000000283
 30
0.0
 41
1.0
  0
SPLINE
  5
62
330
1F
100
AcDbEntity
  8
Default
100
AcDbSpline
210
0.0
220
0.0
230
1.0
 70
    12
 71
     3
 72
    30
 73
    26
 74
     0
 42
0.0000000001
 43
0.0000000001
 40
-3.750000000000004
 40
-3.750000000000004
 40
-3.750000000000004
 40
-3.750000000000004
 40
0.0
 40
0.0
 40
0.0
 40
1.0
 40
2.0
 40
3.0
 40
4.0
 40
5.0
 40
6.0
 40
7.0
 40
7.0
 40
7.0
 40
7.091305656952183
 40
7.091305656952183
 40
7.091305656952183
 40
7.1738051283902
 40
7.297640003543176
 40
7.445381776445632
 40
7.52816003568542
 40
7.615999840475066
 40
7.615999840475066
 40
7.615999840475066
 40
17.8484931894299
 40
17.8484931894299
 40
17.8484931894299
 40
17.8484931894299
 10
0.0000000000026503
 20
11.23125000000283
 30
0.0
 41
1.0
 10
1.250000000002652
 20
11.23125000000235
 30
0.0
 41
1.0
 10
2.500000000002652
 20
11.23125000000187
 30
0.0
 41
1.0
 10
3.750000000002654
 20
11.23125000000139
 30
0.0
 41
1.0
 10
3.911039945286275
 20
11.23178641422753
 30
0.0
 41
1.0
 10
4.233343930668902
 20
11.23421136461893
 30
0.0
 41
1.0
 10
4.715395276237174
 20
11.26881073540698
 30
0.0
 41
1.0
 10
5.194561240724596
 20
11.34014150444726
 30
0.0
 41
1.0
 10
5.65227238647746
 20
11.49982142631847
 30
0.0
 41
1.0
 10
6.103851757789283
 20
11.67092569413197
 30
0.0
 41
1.0
 10
6.543712945111626
 20
11.8718701943614
 30
0.0
 41
1.0
 10
6.829531128734448
 20
12.02055637818338
 30
0.0
 41
1.0
 10
6.970308266797812
 20
12.09884376071855
 30
0.0
 41
1.0
 10
6.996952262411074
 20
12.11391891757107
 30
0.0
 41
0.9884316066092852
 10
7.025930215508291
 20
12.12379047909632
 30
0.0
 41
0.9884316066092852
 10
7.056236441006199
 20
12.12811585097298
 30
0.0
 41
1.0
 10
7.084624204316018
 20
12.13165304371249
 30
0.0
 41
1.0
 10
7.148360556772026
 20
12.09931539010405
 30
0.0
 41
1.0
 10
7.224034486273283
 20
12.00722081597929
 30
0.0
 41
1.0
 10
7.275956267624505
 20
11.90041419925976
 30
0.0
 41
1.0
 10
7.309094107106457
 20
11.79956150224595
 30
0.0
 41
1.0
 10
7.322454667451328
 20
11.74420403768131
 30
0.0
 41
1.0
 10
7.328136201719499
 20
11.71548872016195
 30
0.0
 41
1.0
 10
7.965060421867392
 20
8.361028736880007
 30
0.0
 41
1.0
 10
8.601984642015285
 20
5.006568753598065
 30
0.0
 41
1.0
 10
9.240907669113685
 20
1.641580709923929
 30
0.0
 41
1.0
  0
SPLINE
  5
63
330
1F
100
AcDbEntity
  8
Default
100
AcDbSpline
210
0.0
220
0.0
230
1.0
 70
     8
 71
     3
 72
    11
 73
     7
 74
     0
 42
0.0000000001
 43
0.0000000001
 40
-1.189939830360232
 40
-1.189939830360232
 40
-1.189939830360232
 40
-1.189939830360232
 40
-0.4958697716758607
 40
-0.1984421163829465
 40
-0.0845988574993078
 40
0.0
 40
0.0
 40
0.0
 40
0.0
 10
9.240907669113685
 20
1.641580709923929
 30
0.0
 10
9.281919128894508
 20
1.414252175010208
 30
0.0
 10
9.271114683679045
 20
1.07437291399231
 30
0.0
 10
9.118146387886181
 20
0.7336114840239678
 30
0.0
 10
8.999875571351463
 20
0.6144104622495807
 30
0.0
 10
8.937015453680782
 20
0.5888436509776955
 30
0.0
 10
8.908422971656343
 20
0.5887499999999743
 30
0.0
  0
POLYLINE
  5
64
330
1F
100
AcDbEntity
  8
Default
100
AcDb2dPolyline
 66
     1
 10
0.0
 20
0.0
 30
0.0
  0
VERTEX
  5
65
330
64
100
AcDbEntity
  8
Default
100
AcDbVertex
100
AcDb2dVertex
 10
8.908422971656343
 20
0.5887499999999743
 30
0.0
  0
VERTEX
  5
66
330
64
100
AcDbEntity
  8
Default
100
AcDbVertex
100
AcDb2dVertex
 10
1.943490577746973
 20
0.588749999963412
 30
0.0
  0
SEQEND
  5
67
330
64
100
AcDbEntity
  8
Default
  0
SPLINE
  5
68
330
1F
100
AcDbEntity
  8
Default
100
AcDbSpline
210
0.0
220
0.0
230
1.0
 70
    12
 71
     2
 72
     8
 73
     5
 74
     0
 42
0.0000000001
 43
0.0000000001
 40
-0.605160883947577
 40
-0.605160883947577
 40
-0.605160883947577
 40
-0.3167097645631024
 40
-0.3167097645631024
 40
0.0
 40
0.0
 40
0.0
 10
1.943490577746973
 20
0.588749999963412
 30
0.0
 41
0.9999999930443638
 10
1.76773410678437
 20
0.5707402431660344
 30
0.0
 41
0.7459465885243229
 10
1.765790675440565
 20
0.3940741414381114
 30
0.0
 41
1.0
 10
1.734591072585511
 20
0.2012120727525021
 30
0.0
 41
0.7386023741328179
 10
1.923810503571637
 20
0.1525787539957797
 30
0.0
 41
1.0
  0
SPLINE
  5
69
330
1F
100
AcDbEntity
  8
Default
100
AcDbSpline
210
0.0
220
0.0
230
1.0
 70
    24
 71
     2
 72
     6
 73
     3
 74
     0
 42
0.0000000001
 43
0.0000000001
 40
-5.309158539051804
 40
-5.309158539051804
 40
-5.309158539051804
 40
0.0
 40
0.0
 40
0.0
 10
1.923810503571637
 20
0.1525787539957797
 30
0.0
 10
4.578389773097539
 20
0.1525787539958106
 30
0.0
 10
7.232969042623441
 20
0.1525787539958415
 30
0.0
  0
SPLINE
  5
6A
330
1F
100
AcDbEntity
  8
Make2D visible lines
100
AcDbSpline
210
0.0
220
0.0
230
1.0
 70
    12
 71
     2
 72
     6
 73
     3
 74
     0
 42
0.0000000001
 43
0.0000000001
 40
0.0
 40
0.0
 40
0.0
 40
0.6012576679582256
 40
0.6012576679582256
 40
0.6012576679582256
 10
4.938078286857392
 20
11.30375263810943
 30
0.0
 41
1.0
 10
4.685904875097432
 20
11.11119152789185
 30
0.0
 41
0.9924518525083379
 10
4.403383683492304
 20
11.00405581872977
 30
0.0
 41
1.0
  0
SPLINE
  5
6B
330
1F
100
AcDbEntity
  8
Make2D visible lines
100
AcDbSpline
210
0.0
220
0.0
230
1.0
 70
    12
 71
     2
 72
     6
 73
     3
 74
     0
 42
0.0000000001
 43
0.0000000001
 40
0.0
 40
0.0
 40
0.0
 40
1.008606465763914
 40
1.008606465763914
 40
1.008606465763914
 10
4.403383683492304
 20
11.00405581872977
 30
0.0
 41
1.0
 10
3.926853414400399
 20
10.82334934490279
 30
0.0
 41
0.9843578174881131
 10
3.400000000002606
 20
10.84224999999912
 30
0.0
 41
1.0
  0
SPLINE
  5
6C
330
1F
100
AcDbEntity
  8
Make2D visible lines
100
AcDbSpline
210
0.0
220
0.0
230
1.0
 70
    24
 71
     2
 72
     6
 73
     3
 74
     0
 42
0.0000000001
 43
0.0000000001
 40
0.0
 40
0.0
 40
0.0
 40
3.399999999999999
 40
3.399999999999999
 40
3.399999999999999
 10
3.400000000002606
 20
10.84224999999912
 30
0.0
 10
1.700000000002628
 20
10.84224999999748
 30
0.0
 10
0.0000000000026503
 20
10.84224999999585
 30
0.0
  0
SPLINE
  5
6D
330
1F
100
AcDbEntity
  8
Make2D visible lines
100
AcDbSpline
210
0.0
220
0.0
230
1.0
 70
    24
 71
     2
 72
     6
 73
     3
 74
     0
 42
0.0000000001
 43
0.0000000001
 40
-3.399999999999999
 40
-3.399999999999999
 40
-3.399999999999999
 40
0.0
 40
0.0
 40
0.0
 10
0.0000000000026503
 20
10.84224999999585
 30
0.0
 10
-1.699999999997328
 20
10.84224999999748
 30
0.0
 10
-3.399999999997306
 20
10.84224999999912
 30
0.0
  0
SPLINE
  5
6E
330
1F
100
AcDbEntity
  8
Make2D visible lines
100
AcDbSpline
210
0.0
220
0.0
230
1.0
 70
    12
 71
     2
 72
     6
 73
     3
 74
     0
 42
0.0000000001
 43
0.0000000001
 40
-1.008606465763914
 40
-1.008606465763914
 40
-1.008606465763914
 40
0.0
 40
0.0
 40
0.0
 10
-3.399999999997306
 20
10.84224999999912
 30
0.0
 41
1.0
 10
-3.926853414395099
 20
10.82334934490279
 30
0.0
 41
0.9843578174881131
 10
-4.403383683487004
 20
11.00405581872977
 30
0.0
 41
1.0
  0
SPLINE
  5
6F
330
1F
100
AcDbEntity
  8
Make2D visible lines
100
AcDbSpline
210
0.0
220
0.0
230
1.0
 70
    12
 71
     2
 72
     6
 73
     3
 74
     0
 42
0.0000000001
 43
0.0000000001
 40
-0.6012576679582256
 40
-0.6012576679582256
 40
-0.6012576679582256
 40
0.0
 40
0.0
 40
0.0
 10
-4.403383683487004
 20
11.00405581872977
 30
0.0
 41
1.0
 10
-4.685904875092131
 20
11.11119152789185
 30
0.0
 41
0.9924518525083379
 10
-4.938078286852091
 20
11.30375263810943
 30
0.0
 41
1.0
  0
SPLINE
  5
70
330
1F
100
AcDbEntity
  8
Default
100
AcDbSpline
210
0.0
220
0.0
230
1.0
 70
    12
 71
     2
 72
     6
 73
     3
 74
     0
 42
0.0000000001
 43
0.0000000001
 40
-0.211553587540477
 40
-0.211553587540477
 40
-0.211553587540477
 40
0.0
 40
0.0
 40
0.0
 10
-6.502477518353821
 20
0.1525787539958214
 30
0.0
 41
1.0
 10
-6.539067175206425
 20
0.0438962250914205
 30
0.0
 41
0.8875534162529749
 10
-6.649005203120783
 20
0.0112722293835135
 30
0.0
 41
1.0
  0
SPLINE
  5
71
330
1F
100
AcDbEntity
  8
Default
100
AcDbSpline
210
0.0
220
0.0
230
1.0
 70
     8
 71
     3
 72
     8
 73
     4
 74
     0
 42
0.0000000001
 43
0.0000000001
 40
0.0
 40
0.0
 40
0.0
 40
0.0
 40
1.0
 40
1.0
 40
1.0
 40
1.0
 10
-6.649005203120783
 20
0.0112722293835135
 30
0.0
 10
-6.672607570321087
 20
0.0042682514074945
 30
0.0
 10
-6.697379272183255
 20
0.0000000000000027
 30
0.0
 10
-6.721998927845885
 20
0.0000000000000036
 30
0.0
  0
LINE
  5
72
330
1F
100
AcDbEntity
  8
Default
100
AcDbLine
 10
-6.721998927845885
 20
0.0000000000000036
 30
0.0
 11
-7.452311446698971
 21
0.0000000000000299
 31
0.0
  0
LINE
  5
73
330
1F
100
AcDbEntity
  8
Make2D visible lines
100
AcDbLine
 10
-6.313222426880717
 20
11.76790423380818
 30
0.0
 11
-8.908927380983805
 21
1.849471051043777
 31
0.0
  0
SPLINE
  5
74
330
1F
100
AcDbEntity
  8
Make2D visible lines
100
AcDbSpline
210
0.0
220
0.0
230
1.0
 70
     8
 71
     3
 72
    11
 73
     7
 74
     0
 42
0.0000000001
 43
0.0000000001
 40
0.0
 40
0.0
 40
0.0
 40
0.0
 40
0.1808079666173053
 40
0.3573749741682617
 40
0.6971779454963127
 40
1.284847912810405
 40
1.284847912810405
 40
1.284847912810405
 40
1.284847912810405
 10
-8.908927380983805
 20
1.849471051043777
 30
0.0
 10
-8.924896261503992
 20
1.787942529339398
 30
0.0
 10
-8.951101138414256
 20
1.671789227455212
 30
0.0
 10
-8.986177759548589
 20
1.441694512673601
 30
0.0
 10
-9.002700310655467
 20
1.073539047268699
 30
0.0
 10
-8.941866848531038
 20
0.7646989773466698
 30
0.0
 10
-8.853776599370029
 20
0.5887500000162448
 30
0.0
  0
SPLINE
  5
75
330
1F
100
AcDbEntity
  8
Make2D visible lines
100
AcDbSpline
210
0.0
220
0.0
230
1.0
 70
     8
 71
     3
 72
    12
 73
     8
 74
     0
 42
0.0000000001
 43
0.0000000001
 40
0.0
 40
0.0
 40
0.0
 40
0.0
 40
0.1045449495724591
 40
0.2148937681762403
 40
0.5007879948566512
 40
0.8561420073208538
 40
1.264081239529036
 40
1.264081239529036
 40
1.264081239529036
 40
1.264081239529036
 10
-8.246604095506871
 20
0.5946423465464109
 30
0.0
 10
-8.280550316403623
 20
0.6020719707281382
 30
0.0
 10
-8.347849109360109
 20
0.6310631011182968
 30
0.0
 10
-8.463624316933032
 20
0.7555571056216934
 30
0.0
 10
-8.547639076530153
 20
0.9968449928249623
 30
0.0
 10
-8.56330217480092
 20
1.348128394503139
 30
0.0
 10
-8.521299246639952
 20
1.600551821673184
 30
0.0
 10
-8.487381968538457
 20
1.732138477176544
 30
0.0
  0
SPLINE
  5
76
330
1F
100
AcDbEntity
  8
Make2D visible lines
100
AcDbSpline
210
0.0
220
0.0
230
1.0
 70
    24
 71
     2
 72
     6
 73
     3
 74
     0
 42
0.0000000001
 43
0.0000000001
 40
0.0
 40
0.0
 40
0.0
 40
10.18306939563208
 40
10.18306939563208
 40
10.18306939563208
 10
-8.487381968538457
 20
1.732138477176544
 30
0.0
 10
-7.196624356155145
 20
6.664279276977405
 30
0.0
 10
-5.905866743771833
 20
11.59642007677827
 30
0.0
  0
SPLINE
  5
77
330
1F
100
AcDbEntity
  8
Default
100
AcDbSpline
210
0.0
220
0.0
230
1.0
 70
     8
 71
     3
 72
    10
 73
     6
 74
     0
 42
0.0000000001
 43
0.0000000001
 40
0.0
 40
0.0
 40
0.0
 40
0.0
 40
1.0
 40
2.0
 40
3.0
 40
3.0
 40
3.0
 40
3.0
 10
9.451220845788054
 20
22.92203305790868
 30
0.0
 10
9.837165255510062
 20
22.87251703218611
 30
0.0
 10
10.60621124986806
 20
22.75355351136502
 30
0.0
 10
11.75054056906566
 20
22.51821218405863
 30
0.0
 10
12.49347058494109
 20
22.29321571256979
 30
0.0
 10
12.86603319568208
 20
22.18151087039562
 30
0.0
  0
SPLINE
  5
78
330
1F
100
AcDbEntity
  8
Default
100
AcDbSpline
210
0.0
220
0.0
230
1.0
 70
     8
 71
     3
 72
    24
 73
    20
 74
     0
 42
0.0000000001
 43
0.0000000001
 40
-17.0
 40
-17.0
 40
-17.0
 40
-17.0
 40
-16.0
 40
-15.0
 40
-14.0
 40
-13.0
 40
-12.0
 40
-11.0
 40
-10.0
 40
-9.0
 40
-8.0
 40
-7.0
 40
-6.0
 40
-5.0
 40
-4.0
 40
-3.0
 40
-2.0
 40
-1.0
 40
0.0
 40
0.0
 40
0.0
 40
0.0
 10
12.86603319568208
 20
22.18151087039562
 30
0.0
 10
13.04831480642732
 20
22.06307426490492
 30
0.0
 10
13.01143174416587
 20
21.63220431657646
 30
0.0
 10
12.8551323070349
 20
21.09169764011765
 30
0.0
 10
12.62092293699034
 20
20.5568431340079
 30
0.0
 10
12.35657899154999
 20
20.04358390571039
 30
0.0
 10
12.09691471619011
 20
19.52621268227954
 30
0.0
 10
11.82037039949947
 20
19.01801652731555
 30
0.0
 10
11.52266792761303
 20
18.52179668675512
 30
0.0
 10
11.21026727563287
 20
18.03487376150372
 30
0.0
 10
10.88975410030301
 20
17.55306211865459
 30
0.0
 10
10.55151996505419
 20
17.08395674403506
 30
0.0
 10
10.19862732611481
 20
16.62413180869734
 30
0.0
 10
9.780956084325966
 20
16.2221159262316
 30
0.0
 10
9.324398863786229
 20
15.8650979347104
 30
0.0
 10
8.81211054372396
 20
15.59116872929506
 30
0.0
 10
8.264844316289777
 20
15.39957475991609
 30
0.0
 10
7.691505799970269
 20
15.30015120525933
 30
0.0
 10
7.304494249100342
 20
15.3216457442824
 30
0.0
 10
7.112618991909198
 20
15.33855666675004
 30
0.0
  0
SPLINE
  5
79
330
1F
100
AcDbEntity
  8
Default
100
AcDbSpline
210
0.0
220
0.0
230
1.0
 70
     8
 71
     3
 72
    10
 73
     6
 74
     0
 42
0.0000000001
 43
0.0000000001
 40
0.0
 40
0.0
 40
0.0
 40
0.0
 40
1.0
 40
2.0
 40
3.0
 40
3.0
 40
3.0
 40
3.0
 10
-9.451220845788054
 20
22.92203305790868
 30
0.0
 10
-9.837165255510062
 20
22.87251703218611
 30
0.0
 10
-10.60621124986806
 20
22.75355351136502
 30
0.0
 10
-11.75054056906566
 20
22.51821218405863
 30
0.0
 10
-12.49347058494109
 20
22.29321571256979
 30
0.0
 10
-12.86603319568208
 20
22.18151087039562
 30
0.0
  0
SPLINE
  5
7A
330
1F
100
AcDbEntity
  8
Default
100
AcDbSpline
210
0.0
220
0.0
230
1.0
 70
     8
 71
     3
 72
    24
 73
    20
 74
     0
 42
0.0000000001
 43
0.0000000001
 40
-17.0
 40
-17.0
 40
-17.0
 40
-17.0
 40
-16.0
 40
-15.0
 40
-14.0
 40
-13.0
 40
-12.0
 40
-11.0
 40
-10.0
 40
-9.0
 40
-8.0
 40
-7.0
 40
-6.0
 40
-5.0
 40
-4.0
 40
-3.0
 40
-2.0
 40
-1.0
 40
0.0
 40
0.0
 40
0.0
 40
0.0
 10
-12.86603319568208
 20
22.18151087039562
 30
0.0
 10
-13.04831480642732
 20
22.06307426490492
 30
0.0
 10
-13.01143174416587
 20
21.63220431657646
 30
0.0
 10
-12.8551323070349
 20
21.09169764011765
 30
0.0
 10
-12.62092293699034
 20
20.5568431340079
 30
0.0
 10
-12.35657899154999
 20
20.04358390571039
 30
0.0
 10
-12.09691471619011
 20
19.52621268227954
 30
0.0
 10
-11.82037039949947
 20
19.01801652731555
 30
0.0
 10
-11.52266792761303
 20
18.52179668675512
 30
0.0
 10
-11.21026727563287
 20
18.03487376150372
 30
0.0
 10
-10.88975410030301
 20
17.55306211865459
 30
0.0
 10
-10.55151996505419
 20
17.08395674403506
 30
0.0
 10
-10.19862732611481
 20
16.62413180869734
 30
0.0
 10
-9.780956084325966
 20
16.2221159262316
 30
0.0
 10
-9.324398863786229
 20
15.8650979347104
 30
0.0
 10
-8.81211054372396
 20
15.59116872929506
 30
0.0
 10
-8.264844316289777
 20
15.39957475991609
 30
0.0
 10
-7.691505799970269
 20
15.30015120525933
 30
0.0
 10
-7.304494249100342
 20
15.3216457442824
 30
0.0
 10
-7.112618991909198
 20
15.33855666675004
 30
0.0
  0
SPLINE
  5
7B
330
1F
100
AcDbEntity
  8
Default
100
AcDbSpline
210
0.0
220
0.0
230
1.0
 70
     8
 71
     3
 72
    18
 73
    14
 74
     0
 42
0.0000000001
 43
0.0000000001
 40
0.0
 40
0.0
 40
0.0
 40
0.0
 40
0.9254853175734451
 40
1.981547862576412
 40
2.922780702466616
 40
5.202892339369122
 40
6.806635057358396
 40
7.075554889082884
 40
7.35175695964189
 40
8.926946182333468
 40
11.20019661017632
 40
12.15658972317423
 40
14.15002827629614
 40
14.15002827629614
 40
14.15002827629614
 40
14.15002827629614
 10
-7.072084197509799
 20
15.34153395159357
 30
0.0
 10
-6.764392542217433
 20
15.36380191069868
 30
0.0
 10
-6.104832697954772
 20
15.40049323665841
 30
0.0
 10
-5.131016061509472
 20
15.43138852306757
 30
0.0
 10
-3.70547023991605
 20
15.45827358879841
 30
0.0
 10
-2.097203934597269
 20
15.47831443464834
 30
0.0
 10
-0.7132462039742133
 20
15.50619357245398
 30
0.0
 10
0.0029658456222457
 20
15.51895797060074
 30
0.0
 10
0.7096718093917165
 20
15.50628607756123
 30
0.0
 10
2.084238426799125
 20
15.47881379844134
 30
0.0
 10
3.685781661831594
 20
15.45873373947211
 30
0.0
 10
5.426455250949559
 20
15.42596713763502
 30
0.0
 10
6.409254080656499
 20
15.38929951417897
 30
0.0
 10
7.072082199754316
 20
15.34153396748805
 30
0.0
  0
SPLINE
  5
7C
330
1F
100
AcDbEntity
  8
Default
100
AcDbSpline
210
0.0
220
0.0
230
1.0
 70
     8
 71
     3
 72
    19
 73
    15
 74
     0
 42
0.0000000001
 43
0.0000000001
 40
-12.0
 40
-12.0
 40
-12.0
 40
-12.0
 40
-10.99999994264151
 40
-9.999999885283016
 40
-8.999999827924523
 40
-7.99999977056603
 40
-6.999999713207538
 40
-5.999999655849044
 40
-4.999999598490552
 40
-3.99999954113206
 40
-2.999999483773567
 40
-1.999999426415075
 40
-0.9999993690565827
 40
0.0
 40
0.0
 40
0.0
 40
0.0
 10
9.579798477433119
 20
16.06968650902103
 30
0.0
 10
9.417039482098676
 20
16.29790678351425
 30
0.0
 10
8.874193032982522
 20
16.4478446858454
 30
0.0
 10
8.086768703993322
 20
16.59671116121463
 30
0.0
 10
7.280167103544427
 20
16.69643456836718
 30
0.0
 10
6.474585632316312
 20
16.77488854161187
 30
0.0
 10
5.666670408160801
 20
16.8365284757679
 30
0.0
 10
4.858185093227288
 20
16.88616490641667
 30
0.0
 10
4.049086443624999
 20
16.9258061728072
 30
0.0
 10
3.239632264798128
 20
16.95682288749028
 30
0.0
 10
2.429916509209613
 20
16.9801269354912
 30
0.0
 10
1.620031756911371
 20
16.99642162050468
 30
0.0
 10
0.8100413455233895
 20
17.00609213487838
 30
0.0
 10
0.2700137256778342
 20
17.00824168165009
 30
0.0
 10
0.0
 20
17.00824208504878
 30
0.0
  0
SPLINE
  5
7D
330
1F
100
AcDbEntity
  8
Default
100
AcDbSpline
210
0.0
220
0.0
230
1.0
 70
     8
 71
     3
 72
    19
 73
    15
 74
     0
 42
0.0000000001
 43
0.0000000001
 40
0.0
 40
0.0
 40
0.0
 40
0.0
 40
0.9999993690565827
 40
1.999999426415075
 40
2.999999483773567
 40
3.99999954113206
 40
4.999999598490552
 40
5.999999655849044
 40
6.999999713207538
 40
7.99999977056603
 40
8.999999827924523
 40
9.999999885283016
 40
10.99999994264151
 40
12.0
 40
12.0
 40
12.0
 40
12.0
 10
0.0
 20
17.00824208504878
 30
0.0
 10
-0.2700137256778342
 20
17.00824168165009
 30
0.0
 10
-0.8100413455233895
 20
17.00609213487838
 30
0.0
 10
-1.620031756911371
 20
16.99642162050468
 30
0.0
 10
-2.429916509209613
 20
16.9801269354912
 30
0.0
 10
-3.239632264798128
 20
16.95682288749028
 30
0.0
 10
-4.049086443624999
 20
16.9258061728072
 30
0.0
 10
-4.858185093227288
 20
16.88616490641667
 30
0.0
 10
-5.666670408160801
 20
16.8365284757679
 30
0.0
 10
-6.474585632316312
 20
16.77488854161187
 30
0.0
 10
-7.280167103544427
 20
16.69643456836718
 30
0.0
 10
-8.086768703993322
 20
16.59671116121463
 30
0.0
 10
-8.874193032982522
 20
16.4478446858454
 30
0.0
 10
-9.417039482098676
 20
16.29790678351425
 30
0.0
 10
-9.579798477433119
 20
16.06968650902103
 30
0.0
  0
SPLINE
  5
7E
330
1F
100
AcDbEntity
  8
Default
100
AcDbSpline
210
0.0
220
0.0
230
1.0
 70
    12
 71
     3
 72
    12
 73
     8
 74
     0
 42
0.0000000001
 43
0.0000000001
 40
0.0000015244031389
 40
0.0000015244031389
 40
0.0000015244031389
 40
0.0000015244031389
 40
1.655878507711192
 40
1.655878507711192
 40
3.575934564302206
 40
4.856026097711562
 40
5.213941575815037
 40
5.213941575815037
 40
5.213941575815037
 40
5.213941575815037
 10
0.0
 20
39.9587318749178
 30
0.0
 41
1.0
 10
-0.551959599774154
 20
39.95872042086171
 30
0.0
 41
1.0
 10
-1.10353119290996
 20
39.9655408987533
 30
0.0
 41
1.0
 10
-2.291306950749718
 20
39.98521550603073
 30
0.0
 41
1.0
 10
-3.351664890896622
 20
40.00778301800068
 30
0.0
 41
1.0
 10
-4.5229981160604
 20
40.02834646634663
 30
0.0
 41
1.0
 10
-5.060501326416954
 20
40.03507972128131
 30
0.0
 41
1.0
 10
-5.177866684175871
 20
40.03635941434172
 30
0.0
 41
1.0
  0
SPLINE
  5
7F
330
1F
100
AcDbEntity
  8
Default
100
AcDbSpline
210
0.0
220
0.0
230
1.0
 70
     8
 71
     3
 72
     8
 73
     4
 74
     0
 42
0.0000000001
 43
0.0000000001
 40
0.0
 40
0.0
 40
0.0
 40
0.0
 40
1.0
 40
1.0
 40
1.0
 40
1.0
 10
-5.177866684175871
 20
40.03635941434172
 30
0.0
 10
-5.740479531106824
 20
40.04249386295297
 30
0.0
 10
-6.303201445723806
 20
40.04484056586753
 30
0.0
 10
-6.865804854608335
 20
40.03789425007983
 30
0.0
  0
SPLINE
  5
80
330
1F
100
AcDbEntity
  8
Default
100
AcDbSpline
210
0.0
220
0.0
230
1.0
 70
     8
 71
     3
 72
    14
 73
    10
 74
     0
 42
0.0000000001
 43
0.0000000001
 40
0.0
 40
0.0
 40
0.0
 40
0.0
 40
1.0
 40
2.0
 40
3.0
 40
4.0
 40
5.0
 40
6.0
 40
7.0
 40
7.0
 40
7.0
 40
7.0
 10
-6.865804854608335
 20
40.03789425007983
 30
0.0
 10
-7.00125010314264
 20
40.03622194334758
 30
0.0
 10
-7.271751712080109
 20
40.00501860405996
 30
0.0
 10
-7.659443149838179
 20
39.87542654427737
 30
0.0
 10
-8.007193046384305
 20
39.65970020486547
 30
0.0
 10
-8.295807779272742
 20
39.36984908700078
 30
0.0
 10
-8.509237336640245
 20
39.02060685749838
 30
0.0
 10
-8.634592013502607
 20
38.63131315604635
 30
0.0
 10
-8.660424379766914
 20
38.36018054914319
 30
0.0
 10
-8.660342120238935
 20
38.22475874811501
 30
0.0
  0
SPLINE
  5
81
330
1F
100
AcDbEntity
  8
Default
100
AcDbSpline
210
0.0
220
0.0
230
1.0
 70
    12
 71
     2
 72
     6
 73
     3
 74
     0
 42
0.0000000001
 43
0.0000000001
 40
-12.85135725885201
 40
-12.85135725885201
 40
-12.85135725885201
 40
0.0
 40
0.0
 40
0.0
 10
-8.660342120238935
 20
38.22475874811501
 30
0.0
 41
1.0
 10
-8.571758563186432
 20
31.79873840096089
 30
0.0
 41
0.9997777544588874
 10
-8.212369994691802
 20
25.3821642055312
 30
0.0
 41
1.0
  0
SPLINE
  5
82
330
1F
100
AcDbEntity
  8
Default
100
AcDbSpline
210
0.0
220
0.0
230
1.0
 70
     8
 71
     3
 72
    14
 73
    10
 74
     0
 42
0.0000000001
 43
0.0000000001
 40
0.0
 40
0.0
 40
0.0
 40
0.0
 40
1.0
 40
2.0
 40
3.0
 40
4.0
 40
5.0
 40
6.0
 40
7.0
 40
7.0
 40
7.0
 40
7.0
 10
-8.212369994691802
 20
25.3821642055312
 30
0.0
 10
-8.203348670836244
 20
25.24563535587856
 30
0.0
 10
-8.21817292965104
 20
24.97073255833349
 30
0.0
 10
-8.326125425906634
 20
24.57278496869671
 30
0.0
 10
-8.503678497433997
 20
24.20112094452416
 30
0.0
 10
-8.738729102400226
 20
23.86325272906531
 30
0.0
 10
-9.01950286815481
 20
23.56200100349743
 30
0.0
 10
-9.357380843473617
 20
23.3236724933932
 30
0.0
 10
-9.638497564180101
 20
23.22661418062378
 30
0.0
 10
-9.773845312746076
 20
23.20620613058085
 30
0.0
  0
SPLINE
  5
83
330
1F
100
AcDbEntity
  8
Default
100
AcDbSpline
210
0.0
220
0.0
230
1.0
 70
    12
 71
     3
 72
    40
 73
    36
 74
     0
 42
0.0000000001
 43
0.0000000001
 40
-21.96582129936726
 40
-21.96582129936726
 40
-21.96582129936726
 40
-21.96582129936726
 40
-21.47285071712852
 40
-20.96588855570332
 40
-20.03040031456323
 40
-19.32348620733794
 40
-18.36566766884025
 40
-18.36566766884025
 40
-18.36566766884025
 40
-18.0
 40
-18.0
 40
-18.0
 40
-17.0
 40
-16.0
 40
-15.0
 40
-14.0
 40
-13.0
 40
-12.0
 40
-11.0
 40
-10.0
 40
-9.0
 40
-8.0
 40
-7.0
 40
-7.0
 40
-7.0
 40
-6.0
 40
-5.0
 40
-4.0
 40
-3.0
 40
-2.0
 40
-1.0
 40
0.0
 40
0.0
 40
0.0
 40
1.0
 40
1.0
 40
1.0
 40
1.0
 10
-9.773845312746076
 20
23.20620613058085
 30
0.0
 41
1.0
 10
-9.93632958609109
 20
23.18170637187228
 30
0.0
 41
1.0
 10
-10.28729589375195
 20
23.13630385455936
 30
0.0
 41
1.0
 10
-10.92435709398598
 20
23.03430132599465
 30
0.0
 41
1.0
 10
-11.62876551689731
 20
22.90278244178786
 30
0.0
 41
1.0
 10
-12.47190388114772
 20
22.70007759541556
 30
0.0
 41
1.0
 10
-13.09285601967382
 20
22.52079161063758
 30
0.0
 41
1.0
 10
-13.39424867098563
 20
22.41562385420513
 30
0.0
 41
1.0
 10
-13.51000983739903
 20
22.3752302278154
 30
0.0
 41
0.9883581237286712
 10
-13.61623777803105
 20
22.31399931225133
 30
0.0
 41
0.9883581237286712
 10
-13.70922241525749
 20
22.23406963574186
 30
0.0
 41
1.0
 10
-13.85213496313136
 20
22.09911479918652
 30
0.0
 41
1.0
 10
-13.829752876896
 20
21.70256451343009
 30
0.0
 41
1.0
 10
-13.62822427316106
 20
21.19632912323427
 30
0.0
 41
1.0
 10
-13.38162993243203
 20
20.70186034592231
 30
0.0
 41
1.0
 10
-13.13609041941228
 20
20.20954912651086
 30
0.0
 41
1.0
 10
-12.89130475741731
 20
19.71613561413833
 30
0.0
 41
1.0
 10
-12.63719853993839
 20
19.22760341967308
 30
0.0
 41
1.0
 10
-12.36776840158855
 20
18.74726947159866
 30
0.0
 41
1.0
 10
-12.08376260583835
 20
18.27543924808392
 30
0.0
 41
1.0
 10
-11.7866037094319
 20
17.81179555674776
 30
0.0
 41
1.0
 10
-11.47889095853603
 20
17.35509285270125
 30
0.0
 41
1.0
 10
-11.26586715784026
 20
17.05607943144645
 30
0.0
 41
1.0
 10
-11.15765789391559
 20
16.90781769605069
 30
0.0
 41
1.0
 10
-11.03409866176527
 20
16.73481214605997
 30
0.0
 41
1.0
 10
-10.76590832192685
 20
16.40393661734406
 30
0.0
 41
1.0
 10
-10.30682830844912
 20
15.95938474207757
 30
0.0
 41
1.0
 10
-9.792969348286181
 20
15.57922463249453
 30
0.0
 41
1.0
 10
-9.231512476361774
 20
15.27303980744584
 30
0.0
 41
1.0
 10
-8.630694276045052
 20
15.05451833489913
 30
0.0
 41
1.0
 10
-8.002675155631582
 20
14.92846476688039
 30
0.0
 41
1.0
 10
-7.57583504804677
 20
14.92791012105365
 30
0.0
 41
1.0
 10
-7.363562977095139
 20
14.9356053300947
 30
0.0
 41
1.0
 10
-4.909028452583512
 20
15.00731615944997
 30
0.0
 41
1.0
 10
-2.45558184043341
 20
15.15212289970693
 30
0.0
 41
1.0
 10
0.0
 20
15.15212289970693
 30
0.0
 41
1.0
  0
SPLINE
  5
84
330
1F
100
AcDbEntity
  8
Default
100
AcDbSpline
210
0.0
220
0.0
230
1.0
 70
    12
 71
     3
 72
    40
 73
    36
 74
     0
 42
0.0000000001
 43
0.0000000001
 40
-1.0
 40
-1.0
 40
-1.0
 40
-1.0
 40
0.0
 40
0.0
 40
0.0
 40
1.0
 40
2.0
 40
3.0
 40
4.0
 40
5.0
 40
6.0
 40
7.0
 40
7.0
 40
7.0
 40
8.0
 40
9.0
 40
10.0
 40
11.0
 40
12.0
 40
13.0
 40
14.0
 40
15.0
 40
16.0
 40
17.0
 40
18.0
 40
18.0
 40
18.0
 40
18.36566766884025
 40
18.36566766884025
 40
18.36566766884025
 40
19.32348620733794
 40
20.03040031456323
 40
20.96588855570332
 40
21.47285071712852
 40
21.96582129936726
 40
21.96582129936726
 40
21.96582129936726
 40
21.96582129936726
 10
0.0
 20
15.15212289970693
 30
0.0
 41
1.0
 10
2.45558184043341
 20
15.15212289970693
 30
0.0
 41
1.0
 10
4.909028452583512
 20
15.00731615944997
 30
0.0
 41
1.0
 10
7.363562977095139
 20
14.9356053300947
 30
0.0
 41
1.0
 10
7.57583504804677
 20
14.92791012105365
 30
0.0
 41
1.0
 10
8.002675155631582
 20
14.92846476688039
 30
0.0
 41
1.0
 10
8.630694276045052
 20
15.05451833489913
 30
0.0
 41
1.0
 10
9.231512476361774
 20
15.27303980744584
 30
0.0
 41
1.0
 10
9.792969348286181
 20
15.57922463249453
 30
0.0
 41
1.0
 10
10.30682830844912
 20
15.95938474207757
 30
0.0
 41
1.0
 10
10.76590832192685
 20
16.40393661734406
 30
0.0
 41
1.0
 10
11.03409866176527
 20
16.73481214605997
 30
0.0
 41
1.0
 10
11.15765789391559
 20
16.90781769605069
 30
0.0
 41
1.0
 10
11.26586715784026
 20
17.05607943144645
 30
0.0
 41
1.0
 10
11.47889095853603
 20
17.35509285270125
 30
0.0
 41
1.0
 10
11.7866037094319
 20
17.81179555674776
 30
0.0
 41
1.0
 10
12.08376260583835
 20
18.27543924808392
 30
0.0
 41
1.0
 10
12.36776840158855
 20
18.74726947159866
 30
0.0
 41
1.0
 10
12.63719853993839
 20
19.22760341967308
 30
0.0
 41
1.0
 10
12.89130475741731
 20
19.71613561413833
 30
0.0
 41
1.0
 10
13.13609041941228
 20
20.20954912651086
 30
0.0
 41
1.0
 10
13.38162993243203
 20
20.70186034592231
 30
0.0
 41
1.0
 10
13.62822427316106
 20
21.19632912323427
 30
0.0
 41
1.0
 10
13.829752876896
 20
21.70256451343009
 30
0.0
 41
1.0
 10
13.85213496313136
 20
22.09911479918652
 30
0.0
 41
1.0
 10
13.70922241525749
 20
22.23406963574186
 30
0.0
 41
1.0
 10
13.61623777803105
 20
22.31399931225133
 30
0.0
 41
0.9883581237286712
 10
13.51000983739903
 20
22.3752302278154
 30
0.0
 41
0.9883581237286712
 10
13.39424867098563
 20
22.41562385420513
 30
0.0
 41
1.0
 10
13.09285601967382
 20
22.52079161063758
 30
0.0
 41
1.0
 10
12.47190388114772
 20
22.70007759541556
 30
0.0
 41
1.0
 10
11.62876551689731
 20
22.90278244178786
 30
0.0
 41
1.0
 10
10.92435709398598
 20
23.03430132599465
 30
0.0
 41
1.0
 10
10.28729589375195
 20
23.13630385455936
 30
0.0
 41
1.0
 10
9.93632958609109
 20
23.18170637187228
 30
0.0
 41
1.0
 10
9.773845312746076
 20
23.20620613058085
 30
0.0
 41
1.0
  0
SPLINE
  5
85
330
1F
100
AcDbEntity
  8
Default
100
AcDbSpline
210
0.0
220
0.0
230
1.0
 70
     8
 71
     3
 72
    14
 73
    10
 74
     0
 42
0.0000000001
 43
0.0000000001
 40
-7.0
 40
-7.0
 40
-7.0
 40
-7.0
 40
-6.0
 40
-5.0
 40
-4.0
 40
-3.0
 40
-2.0
 40
-1.0
 40
0.0
 40
0.0
 40
0.0
 40
0.0
 10
9.773845312746076
 20
23.20620613058085
 30
0.0
 10
9.638497564180101
 20
23.22661418062378
 30
0.0
 10
9.357380843473617
 20
23.3236724933932
 30
0.0
 10
9.01950286815481
 20
23.56200100349743
 30
0.0
 10
8.738729102400226
 20
23.86325272906531
 30
0.0
 10
8.503678497433997
 20
24.20112094452416
 30
0.0
 10
8.326125425906634
 20
24.57278496869671
 30
0.0
 10
8.21817292965104
 20
24.97073255833349
 30
0.0
 10
8.203348670836244
 20
25.24563535587856
 30
0.0
 10
8.212369994691802
 20
25.3821642055312
 30
0.0
  0
SPLINE
  5
86
330
1F
100
AcDbEntity
  8
Default
100
AcDbSpline
210
0.0
220
0.0
230
1.0
 70
    12
 71
     2
 72
     6
 73
     3
 74
     0
 42
0.0000000001
 43
0.0000000001
 40
0.0
 40
0.0
 40
0.0
 40
12.85135725885201
 40
12.85135725885201
 40
12.85135725885201
 10
8.212369994691802
 20
25.3821642055312
 30
0.0
 41
1.0
 10
8.571758563186432
 20
31.79873840096089
 30
0.0
 41
0.9997777544588874
 10
8.660342120238935
 20
38.22475874811501
 30
0.0
 41
1.0
  0
SPLINE
  5
87
330
1F
100
AcDbEntity
  8
Default
100
AcDbSpline
210
0.0
220
0.0
230
1.0
 70
     8
 71
     3
 72
    14
 73
    10
 74
     0
 42
0.0000000001
 43
0.0000000001
 40
-7.0
 40
-7.0
 40
-7.0
 40
-7.0
 40
-6.0
 40
-5.0
 40
-4.0
 40
-3.0
 40
-2.0
 40
-1.0
 40
0.0
 40
0.0
 40
0.0
 40
0.0
 10
8.660342120238935
 20
38.22475874811501
 30
0.0
 10
8.660424379766914
 20
38.36018054914319
 30
0.0
 10
8.634592013502607
 20
38.63131315604635
 30
0.0
 10
8.509237336640245
 20
39.02060685749838
 30
0.0
 10
8.295807779272742
 20
39.36984908700078
 30
0.0
 10
8.007193046384305
 20
39.65970020486547
 30
0.0
 10
7.659443149838179
 20
39.87542654427737
 30
0.0
 10
7.271751712080109
 20
40.00501860405996
 30
0.0
 10
7.00125010314264
 20
40.03622194334758
 30
0.0
 10
6.865804854608335
 20
40.03789425007983
 30
0.0
  0
SPLINE
  5
88
330
1F
100
AcDbEntity
  8
Default
100
AcDbSpline
210
0.0
220
0.0
230
1.0
 70
     8
 71
     3
 72
     8
 73
     4
 74
     0
 42
0.0000000001
 43
0.0000000001
 40
-1.0
 40
-1.0
 40
-1.0
 40
-1.0
 40
0.0
 40
0.0
 40
0.0
 40
0.0
 10
6.865804854608335
 20
40.03789425007983
 30
0.0
 10
6.303201445723806
 20
40.04484056586753
 30
0.0
 10
5.740479531106824
 20
40.04249386295297
 30
0.0
 10
5.177866684175871
 20
40.03635941434172
 30
0.0
  0
SPLINE
  5
89
330
1F
100
AcDbEntity
  8
Default
100
AcDbSpline
210
0.0
220
0.0
230
1.0
 70
    12
 71
     3
 72
    12
 73
     8
 74
     0
 42
0.0000000001
 43
0.0000000001
 40
-5.213941575815037
 40
-5.213941575815037
 40
-5.213941575815037
 40
-5.213941575815037
 40
-4.856026097711562
 40
-3.575934564302206
 40
-1.655878507711192
 40
-1.655878507711192
 40
-0.0000015244031389
 40
-0.0000015244031389
 40
-0.0000015244031389
 40
-0.0000015244031389
 10
5.177866684175871
 20
40.03635941434172
 30
0.0
 41
1.0
 10
5.060501326416954
 20
40.03507972128131
 30
0.0
 41
1.0
 10
4.5229981160604
 20
40.02834646634663
 30
0.0
 41
1.0
 10
3.351664890896622
 20
40.00778301800068
 30
0.0
 41
1.0
 10
2.291306950749718
 20
39.98521550603073
 30
0.0
 41
1.0
 10
1.10353119290996
 20
39.9655408987533
 30
0.0
 41
1.0
 10
0.551959599774154
 20
39.95872042086171
 30
0.0
 41
1.0
 10
0.0
 20
39.9587318749178
 30
0.0
 41
1.0
  0
SPLINE
  5
8A
330
1F
100
AcDbEntity
  8
Default
100
AcDbSpline
210
0.0
220
0.0
230
1.0
 70
     8
 71
     3
 72
    29
 73
    25
 74
     0
 42
0.0000000001
 43
0.0000000001
 40
0.0
 40
0.0
 40
0.0
 40
0.0
 40
1.0
 40
2.0
 40
3.0
 40
4.0
 40
5.0
 40
6.0
 40
7.0
 40
8.0
 40
9.0
 40
10.0
 40
11.0
 40
12.0
 40
13.0
 40
14.0
 40
15.0
 40
16.0
 40
17.0
 40
18.0
 40
19.0
 40
20.0
 40
21.0
 40
22.0
 40
22.0
 40
22.0
 40
22.0
 10
8.239579142989363
 20
70.79016033414926
 30
0.0
 10
8.402701659739485
 20
70.46100512737922
 30
0.0
 10
8.846397791109776
 20
69.87368217021063
 30
0.0
 10
9.51801697135837
 20
69.0032992759777
 30
0.0
 10
10.21495252003611
 20
68.15132546696307
 30
0.0
 10
10.88067762501288
 20
67.27485450785346
 30
0.0
 10
11.46814151302668
 20
66.3430874332852
 30
0.0
 10
11.99128372799351
 20
65.37451858629495
 30
0.0
 10
12.45029921283445
 20
64.37388231080055
 30
0.0
 10
12.85564005540855
 20
63.35061779378285
 30
0.0
 10
13.21774207904783
 20
62.31128939392931
 30
0.0
 10
13.53578784513505
 20
61.25770463003645
 30
0.0
 10
13.81343520569759
 20
60.19264927892669
 30
0.0
 10
13.99893525591929
 20
59.10563766715321
 30
0.0
 10
13.95282839113374
 20
57.99509981005752
 30
0.0
 10
13.56971602873741
 20
56.9512958053692
 30
0.0
 10
12.941163562417
 20
56.0430822623822
 30
0.0
 10
12.34107937343017
 20
55.12161340773257
 30
0.0
 10
11.65484462528356
 20
54.25953892229795
 30
0.0
 10
10.92648333941442
 20
53.43496223927976
 30
0.0
 10
10.19123328479331
 20
52.61624799918815
 30
0.0
 10
9.449435345451503
 20
51.80350774104537
 30
0.0
 10
8.679566862915088
 20
51.01678805414453
 30
0.0
 10
8.130064166637448
 20
50.52983023310058
 30
0.0
 10
7.842979424568078
 20
50.30147314740999
 30
0.0
  0
SPLINE
  5
8B
330
1F
100
AcDbEntity
  8
Default
100
AcDbSpline
210
0.0
220
0.0
230
1.0
 70
     8
 71
     3
 72
    23
 73
    19
 74
     0
 42
0.0000000001
 43
0.0000000001
 40
-16.0
 40
-16.0
 40
-16.0
 40
-16.0
 40
-14.99999934916018
 40
-13.99999869832036
 40
-12.99999804748054
 40
-11.99999739664072
 40
-10.99999674580089
 40
-9.999996094961073
 40
-8.999995444121252
 40
-7.999994793281431
 40
-6.99999414244161
 40
-5.999993491601789
 40
-4.999992840761967
 40
-3.999992189922146
 40
-2.999991539082325
 40
-1.999990888242504
 40
-0.9999902374026826
 40
0.0
 40
0.0
 40
0.0
 40
0.0
 10
8.232726661722538
 20
70.7711654356378
 30
0.0
 10
8.277542298572362
 20
71.03501868284829
 30
0.0
 10
8.364629781296028
 20
71.56372391528096
 30
0.0
 10
8.482278833713938
 20
72.35673425032098
 30
0.0
 10
8.583241550546663
 20
73.1587560483189
 30
0.0
 10
8.65998729873985
 20
73.93888612422727
 30
0.0
 10
8.716617702359654
 20
74.81233129893505
 30
0.0
 10
7.903232675357361
 20
75.20401048724327
 30
0.0
 10
7.159845818927641
 20
75.4353797201982
 30
0.0
 10
6.365425896875387
 20
75.59619398973447
 30
0.0
 10
5.579911222659731
 20
75.75357652192272
 30
0.0
 10
4.788914623891772
 20
75.89580740736793
 30
0.0
 10
3.99631162485882
 20
76.02454237811094
 30
0.0
 10
3.201128107229222
 20
76.13766796823217
 30
0.0
 10
2.403765578863576
 20
76.2338081089029
 30
0.0
 10
1.604429386481758
 20
76.3122185724448
 30
0.0
 10
0.8030199035430032
 20
76.36628822877898
 30
0.0
 10
0.2676603318612223
 20
76.38017329472282
 30
0.0
 10
-0.0000432965210493
 20
76.3802034335111
 30
0.0
  0
SPLINE
  5
8C
330
1F
100
AcDbEntity
  8
Default
100
AcDbSpline
210
0.0
220
0.0
230
1.0
 70
     8
 71
     3
 72
    23
 73
    19
 74
     0
 42
0.0000000001
 43
0.0000000001
 40
0.0
 40
0.0
 40
0.0
 40
0.0
 40
0.9999902374026826
 40
1.999990888242504
 40
2.999991539082325
 40
3.999992189922146
 40
4.999992840761967
 40
5.999993491601789
 40
6.99999414244161
 40
7.999994793281431
 40
8.999995444121252
 40
9.999996094961073
 40
10.99999674580089
 40
11.99999739664072
 40
12.99999804748054
 40
13.99999869832036
 40
14.99999934916018
 40
16.0
 40
16.0
 40
16.0
 40
16.0
 10
-0.0000432965210493
 20
76.3802034335111
 30
0.0
 10
-0.2677469249033209
 20
76.38017329472282
 30
0.0
 10
-0.8031064965851018
 20
76.36628822877898
 30
0.0
 10
-1.604515979523857
 20
76.3122185724448
 30
0.0
 10
-2.403852171905674
 20
76.2338081089029
 30
0.0
 10
-3.201214700271321
 20
76.13766796823217
 30
0.0
 10
-3.996398217900918
 20
76.02454237811094
 30
0.0
 10
-4.789001216933871
 20
75.89580740736793
 30
0.0
 10
-5.579997815701829
 20
75.75357652192272
 30
0.0
 10
-6.365512489917485
 20
75.59619398973447
 30
0.0
 10
-7.15993241196974
 20
75.4353797201982
 30
0.0
 10
-7.90331926839946
 20
75.20401048724327
 30
0.0
 10
-8.716704295401753
 20
74.81233129893505
 30
0.0
 10
-8.660073891781948
 20
73.93888612422727
 30
0.0
 10
-8.583328143588762
 20
73.1587560483189
 30
0.0
 10
-8.482365426756036
 20
72.35673425032098
 30
0.0
 10
-8.364716374338126
 20
71.56372391528096
 30
0.0
 10
-8.27762889161446
 20
71.03501868284829
 30
0.0
 10
-8.232813254764636
 20
70.7711654356378
 30
0.0
  0
SPLINE
  5
8D
330
1F
100
AcDbEntity
  8
Default
100
AcDbSpline
210
0.0
220
0.0
230
1.0
 70
     8
 71
     3
 72
    29
 73
    25
 74
     0
 42
0.0000000001
 43
0.0000000001
 40
0.0
 40
0.0
 40
0.0
 40
0.0
 40
1.0
 40
2.0
 40
3.0
 40
4.0
 40
5.0
 40
6.0
 40
7.0
 40
8.0
 40
9.0
 40
10.0
 40
11.0
 40
12.0
 40
13.0
 40
14.0
 40
15.0
 40
16.0
 40
17.0
 40
18.0
 40
19.0
 40
20.0
 40
21.0
 40
22.0
 40
22.0
 40
22.0
 40
22.0
 10
-8.239665736031462
 20
70.79016033414926
 30
0.0
 10
-8.402788252781583
 20
70.46100512737922
 30
0.0
 10
-8.846484384151875
 20
69.87368217021063
 30
0.0
 10
-9.51810356440047
 20
69.0032992759777
 30
0.0
 10
-10.21503911307821
 20
68.15132546696307
 30
0.0
 10
-10.88076421805497
 20
67.27485450785346
 30
0.0
 10
-11.46822810606878
 20
66.3430874332852
 30
0.0
 10
-11.99137032103561
 20
65.37451858629495
 30
0.0
 10
-12.45038580587655
 20
64.37388231080055
 30
0.0
 10
-12.85572664845065
 20
63.35061779378285
 30
0.0
 10
-13.21782867208992
 20
62.31128939392931
 30
0.0
 10
-13.53587443817715
 20
61.25770463003645
 30
0.0
 10
-13.81352179873969
 20
60.19264927892669
 30
0.0
 10
-13.99902184896139
 20
59.10563766715321
 30
0.0
 10
-13.95291498417583
 20
57.99509981005752
 30
0.0
 10
-13.56980262177951
 20
56.9512958053692
 30
0.0
 10
-12.9412501554591
 20
56.0430822623822
 30
0.0
 10
-12.34116596647227
 20
55.12161340773257
 30
0.0
 10
-11.65493121832566
 20
54.25953892229795
 30
0.0
 10
-10.92656993245652
 20
53.43496223927976
 30
0.0
 10
-10.19131987783541
 20
52.61624799918815
 30
0.0
 10
-9.449521938493602
 20
51.80350774104537
 30
0.0
 10
-8.679653455957187
 20
51.01678805414453
 30
0.0
 10
-8.130150759679546
 20
50.52983023310058
 30
0.0
 10
-7.843066017610177
 20
50.30147314740999
 30
0.0
  0
SPLINE
  5
8E
330
1F
100
AcDbEntity
  8
Default
100
AcDbSpline
210
0.0
220
0.0
230
1.0
 70
    12
 71
     3
 72
    12
 73
     8
 74
     0
 42
0.0000000001
 43
0.0000000001
 40
-1.0
 40
-1.0
 40
-1.0
 40
-1.0
 40
-0.75
 40
-0.5
 40
-0.25
 40
-0.125
 40
0.0
 40
0.0
 40
0.0
 40
0.0
 10
8.660296154000445
 20
74.23812340877323
 30
0.0
 41
1.0
 10
8.660513168383552
 20
74.29371564766618
 30
0.0
 41
1.0
 10
8.578793296128786
 20
74.42566711548142
 30
0.0
 41
1.0
 10
8.190155189376753
 20
74.6585447955324
 30
0.0
 41
1.0
 10
7.695830573627727
 20
74.84767405947494
 30
0.0
 41
1.0
 10
7.240678189959169
 20
74.98011077962508
 30
0.0
 41
1.0
 10
7.002042758555515
 20
75.03770121047555
 30
0.0
 41
1.0
 10
6.882227881299997
 20
75.06446645230182
 30
0.0
 41
1.0
  0
SPLINE
  5
8F
330
1F
100
AcDbEntity
  8
Default
100
AcDbSpline
210
0.0
220
0.0
230
1.0
 70
    12
 71
     2
 72
     6
 73
     3
 74
     0
 42
0.0000000001
 43
0.0000000001
 40
-1.738615299748421
 40
-1.738615299748421
 40
-1.738615299748421
 40
0.0
 40
0.0
 40
0.0
 10
6.882227881299997
 20
75.06446645230182
 30
0.0
 41
1.0
 10
6.033236565834924
 20
75.25177455876538
 30
0.0
 41
0.9998265244242317
 10
5.177867759314357
 20
75.40738557473978
 30
0.0
 41
0.9999999999903404
  0
SPLINE
  5
90
330
1F
100
AcDbEntity
  8
Default
100
AcDbSpline
210
0.0
220
0.0
230
1.0
 70
     8
 71
     3
 72
    11
 73
     7
 74
     0
 42
0.0000000001
 43
0.0000000001
 40
0.0
 40
0.0
 40
0.0
 40
0.0
 40
0.8055658146296342
 40
1.505207287485617
 40
2.898665587188706
 40
5.215701186741097
 40
5.215701186741097
 40
5.215701186741097
 40
5.215701186741097
 10
5.177867759314358
 20
75.40738557473978
 30
0.0
 10
4.913708455196243
 20
75.4559344014146
 30
0.0
 10
4.419401086521006
 20
75.54110011038472
 30
0.0
 10
3.46466681239847
 20
75.69144241329232
 30
0.0
 10
2.006801200771478
 20
75.87858103751483
 30
0.0
 10
0.7726367429683105
 20
75.97871120093225
 30
0.0
 10
-0.0000432965210493
 20
75.98172871676121
 30
0.0
  0
SPLINE
  5
91
330
1F
100
AcDbEntity
  8
Default
100
AcDbSpline
210
0.0
220
0.0
230
1.0
 70
     8
 71
     3
 72
    11
 73
     7
 74
     0
 42
0.0000000001
 43
0.0000000001
 40
-5.215701186741097
 40
-5.215701186741097
 40
-5.215701186741097
 40
-5.215701186741097
 40
-2.898665587188706
 40
-1.505207287485617
 40
-0.8055658146296342
 40
0.0
 40
0.0
 40
0.0
 40
0.0
 10
-0.0000432965210493
 20
75.98172871676121
 30
0.0
 10
-0.7727233360104091
 20
75.97871120093225
 30
0.0
 10
-2.006887793813577
 20
75.87858103751483
 30
0.0
 10
-3.464753405440568
 20
75.69144241329232
 30
0.0
 10
-4.419487679563105
 20
75.54110011038472
 30
0.0
 10
-4.913795048238342
 20
75.4559344014146
 30
0.0
 10
-5.177954352356457
 20
75.40738557473978
 30
0.0
  0
SPLINE
  5
92
330
1F
100
AcDbEntity
  8
Default
100
AcDbSpline
210
0.0
220
0.0
230
1.0
 70
    12
 71
     2
 72
     6
 73
     3
 74
     0
 42
0.0000000001
 43
0.0000000001
 40
0.0
 40
0.0
 40
0.0
 40
1.738615299748421
 40
1.738615299748421
 40
1.738615299748421
 10
-5.177954352356457
 20
75.40738557473978
 30
0.0
 41
0.9999999999903404
 10
-6.033323158877024
 20
75.25177455876538
 30
0.0
 41
0.9998265244242317
 10
-6.882314474342095
 20
75.06446645230182
 30
0.0
 41
1.0
  0
SPLINE
  5
93
330
1F
100
AcDbEntity
  8
Default
100
AcDbSpline
210
0.0
220
0.0
230
1.0
 70
    12
 71
     3
 72
    12
 73
     8
 74
     0
 42
0.0000000001
 43
0.0000000001
 40
0.0
 40
0.0
 40
0.0
 40
0.0
 40
0.125
 40
0.25
 40
0.5
 40
0.75
 40
1.0
 40
1.0
 40
1.0
 40
1.0
 10
-6.882314474342095
 20
75.06446645230182
 30
0.0
 41
1.0
 10
-7.002129351597613
 20
75.03770121047555
 30
0.0
 41
1.0
 10
-7.240764783001268
 20
74.98011077962508
 30
0.0
 41
1.0
 10
-7.695917166669826
 20
74.84767405947494
 30
0.0
 41
1.0
 10
-8.190241782418852
 20
74.6585447955324
 30
0.0
 41
1.0
 10
-8.578879889170885
 20
74.42566711548142
 30
0.0
 41
1.0
 10
-8.660599761425651
 20
74.29371564766618
 30
0.0
 41
1.0
 10
-8.660382747042544
 20
74.23812340877323
 30
0.0
 41
1.0
  0
SPLINE
  5
94
330
1F
100
AcDbEntity
  8
Default
100
AcDbSpline
210
0.0
220
0.0
230
1.0
 70
     8
 71
     3
 72
    11
 73
     7
 74
     0
 42
0.0000000001
 43
0.0000000001
 40
-3.576711082448426
 40
-3.576711082448426
 40
-3.576711082448426
 40
-3.576711082448426
 40
-2.825677162948847
 40
-1.983666277812516
 40
-1.056257442711363
 40
0.0
 40
0.0
 40
0.0
 40
0.0
 10
-8.660382747042544
 20
74.23812340877323
 30
0.0
 10
-8.64587206302441
 20
73.98822171935777
 30
0.0
 10
-8.603389991819451
 20
73.45880304233526
 30
0.0
 10
-8.508775993405244
 20
72.6239099735383
 30
0.0
 10
-8.377092872692206
 20
71.69120275483769
 30
0.0
 10
-8.271396008092164
 20
71.03845102290934
 30
0.0
 10
-8.212401279026073
 20
70.69128630742067
 30
0.0
  0
SPLINE
  5
95
330
1F
100
AcDbEntity
  8
Default
100
AcDbSpline
210
0.0
220
0.0
230
1.0
 70
     8
 71
     3
 72
    19
 73
    15
 74
     0
 42
0.0000000001
 43
0.0000000001
 40
-12.0
 40
-12.0
 40
-12.0
 40
-12.0
 40
-11.0
 40
-10.0
 40
-9.0
 40
-8.0
 40
-7.0
 40
-6.0
 40
-5.0
 40
-4.0
 40
-3.0
 40
-2.0
 40
-1.0
 40
0.0
 40
0.0
 40
0.0
 40
0.0
 10
-8.212401279026073
 20
70.69128630742067
 30
0.0
 10
-8.251507890844048
 20
70.36188738460513
 30
0.0
 10
-8.67503062734641
 20
69.83278070657299
 30
0.0
 10
-9.257086444300858
 20
69.0463507199075
 30
0.0
 10
-9.87910508152748
 20
68.27800080288307
 30
0.0
 10
-10.49721925980174
 20
67.50971917680695
 30
0.0
 10
-11.05029352278923
 20
66.69180676513768
 30
0.0
 10
-11.55095527150918
 20
65.84160950926577
 30
0.0
 10
-11.99915031694614
 20
64.96246487782709
 30
0.0
 10
-12.39839551853597
 20
64.0601948160179
 30
0.0
 10
-12.75404191469305
 20
63.13996956431234
 30
0.0
 10
-13.07528895850098
 20
62.20726376905446
 30
0.0
 10
-13.36424442090564
 20
61.26400847421075
 30
0.0
 10
-13.52904103459131
 20
60.62725742939268
 30
0.0
 10
-13.60480751818544
 20
60.30733255556143
 30
0.0
  0
SPLINE
  5
96
330
1F
100
AcDbEntity
  8
Default
100
AcDbSpline
210
0.0
220
0.0
230
1.0
 70
    12
 71
     3
 72
    11
 73
     7
 74
     0
 42
0.0000000001
 43
0.0000000001
 40
0.0
 40
0.0
 40
0.0
 40
0.0
 40
0.2499998804336
 40
0.4999997608673
 40
0.7499996413009
 40
1.0
 40
1.0
 40
1.0
 40
1.0
 10
-13.60480751818544
 20
60.30733255556143
 30
0.0
 41
1.0
 10
-13.68644773665723
 20
59.95296226955249
 30
0.0
 41
1.0
 10
-13.82491278573001
 20
59.2402978714738
 30
0.0
 41
1.0
 10
-13.84300675077648
 20
58.20696511553917
 30
0.0
 41
1.0
 10
-13.6282622003209
 20
57.29144053389878
 30
0.0
 41
1.0
 10
-13.3714159920683
 20
56.81157277484714
 30
0.0
 41
1.0
 10
-13.23926009077105
 20
56.6022118857566
 30
0.0
 41
1.0
  0
SPLINE
  5
97
330
1F
100
AcDbEntity
  8
Default
100
AcDbSpline
210
0.0
220
0.0
230
1.0
 70
     8
 71
     3
 72
    19
 73
    15
 74
     0
 42
0.0000000001
 43
0.0000000001
 40
-12.0
 40
-12.0
 40
-12.0
 40
-12.0
 40
-11.0
 40
-10.0
 40
-9.0
 40
-8.0
 40
-7.0
 40
-6.0
 40
-5.0
 40
-4.0
 40
-3.0
 40
-2.0
 40
-1.0
 40
0.0
 40
0.0
 40
0.0
 40
0.0
 10
-13.23926009077105
 20
56.6022118857566
 30
0.0
 10
-13.10533771230319
 20
56.39375103677416
 30
0.0
 10
-12.83984960655869
 20
55.97539909896917
 30
0.0
 10
-12.43444732771676
 20
55.35223184211757
 30
0.0
 10
-11.99347871791213
 20
54.75355655117061
 30
0.0
 10
-11.52936511349361
 20
54.17279151603979
 30
0.0
 10
-11.04017119613447
 20
53.61307274414837
 30
0.0
 10
-10.54842016920999
 20
53.05576332363744
 30
0.0
 10
-10.05381349658435
 20
52.50093394231745
 30
0.0
 10
-9.555714656030126
 20
51.9492277474273
 30
0.0
 10
-9.04495447380871
 20
51.40914130697945
 30
0.0
 10
-8.515663549718907
 20
50.88707143462724
 30
0.0
 10
-7.959623836875532
 20
50.39329069690477
 30
0.0
 10
-7.56610454510813
 20
50.09154763275261
 30
0.0
 10
-7.363871388212438
 20
49.94631433658201
 30
0.0
  0
SPLINE
  5
98
330
1F
100
AcDbEntity
  8
Default
100
AcDbSpline
210
0.0
220
0.0
230
1.0
 70
     8
 71
     3
 72
    12
 73
     8
 74
     0
 42
0.0000000001
 43
0.0000000001
 40
-15.78913311264457
 40
-15.78913311264457
 40
-15.78913311264457
 40
-15.78913311264457
 40
-11.7692665204822
 40
-7.88873615923726
 40
-4.023995779131863
 40
-2.0366405286363
 40
0.0
 40
0.0
 40
0.0
 40
0.0
 10
-7.363871388212438
 20
49.94631433658201
 30
0.0
 10
-6.276342528663077
 20
49.16365457619371
 30
0.0
 10
-3.920294702442684
 20
47.91675550354382
 30
0.0
 10
0.0005199727010599
 20
47.26254238076028
 30
0.0
 10
3.243855264758814
 20
47.80417083696666
 30
0.0
 10
5.667428685303005
 20
48.84260800699676
 30
0.0
 10
6.813249216095425
 20
49.54695179776247
 30
0.0
 10
7.363780132409138
 20
49.94631344549477
 30
0.0
  0
SPLINE
  5
99
330
1F
100
AcDbEntity
  8
Default
100
AcDbSpline
210
0.0
220
0.0
230
1.0
 70
     8
 71
     3
 72
    19
 73
    15
 74
     0
 42
0.0000000001
 43
0.0000000001
 40
0.0
 40
0.0
 40
0.0
 40
0.0
 40
1.0
 40
2.0
 40
3.0
 40
4.0
 40
5.0
 40
6.0
 40
7.0
 40
8.0
 40
9.0
 40
10.0
 40
11.0
 40
12.0
 40
12.0
 40
12.0
 40
12.0
 10
7.363780132409138
 20
49.94631344549477
 30
0.0
 10
7.566017952066032
 20
50.09154763275261
 30
0.0
 10
7.959537243833434
 20
50.39329069690477
 30
0.0
 10
8.515576956676808
 20
50.88707143462724
 30
0.0
 10
9.044867880766612
 20
51.40914130697945
 30
0.0
 10
9.555628062988028
 20
51.9492277474273
 30
0.0
 10
10.05372690354225
 20
52.50093394231745
 30
0.0
 10
10.54833357616789
 20
53.05576332363744
 30
0.0
 10
11.04008460309237
 20
53.61307274414837
 30
0.0
 10
11.52927852045151
 20
54.17279151603979
 30
0.0
 10
11.99339212487003
 20
54.75355655117061
 30
0.0
 10
12.43436073467466
 20
55.35223184211757
 30
0.0
 10
12.83976301351659
 20
55.97539909896917
 30
0.0
 10
13.10525111926109
 20
56.39375103677416
 30
0.0
 10
13.23917349772895
 20
56.6022118857566
 30
0.0
  0
SPLINE
  5
9A
330
1F
100
AcDbEntity
  8
Default
100
AcDbSpline
210
0.0
220
0.0
230
1.0
 70
    12
 71
     3
 72
    11
 73
     7
 74
     0
 42
0.0000000001
 43
0.0000000001
 40
-1.0
 40
-1.0
 40
-1.0
 40
-1.0
 40
-0.7499996413009
 40
-0.4999997608673
 40
-0.2499998804336
 40
0.0
 40
0.0
 40
0.0
 40
0.0
 10
13.23917349772895
 20
56.6022118857566
 30
0.0
 41
1.0
 10
13.3713293990262
 20
56.81157277484714
 30
0.0
 41
1.0
 10
13.6281756072788
 20
57.29144053389878
 30
0.0
 41
1.0
 10
13.84292015773438
 20
58.20696511553917
 30
0.0
 41
1.0
 10
13.82482619268791
 20
59.2402978714738
 30
0.0
 41
1.0
 10
13.68636114361513
 20
59.95296226955249
 30
0.0
 41
1.0
 10
13.60472092514334
 20
60.30733255556143
 30
0.0
 41
1.0
  0
SPLINE
  5
9B
330
1F
100
AcDbEntity
  8
Default
100
AcDbSpline
210
0.0
220
0.0
230
1.0
 70
     8
 71
     3
 72
    19
 73
    15
 74
     0
 42
0.0000000001
 43
0.0000000001
 40
0.0
 40
0.0
 40
0.0
 40
0.0
 40
1.0
 40
2.0
 40
3.0
 40
4.0
 40
5.0
 40
6.0
 40
7.0
 40
8.0
 40
9.0
 40
10.0
 40
11.0
 40
12.0
 40
12.0
 40
12.0
 40
12.0
 10
13.60472092514334
 20
60.30733255556143
 30
0.0
 10
13.52895444154921
 20
60.62725742939268
 30
0.0
 10
13.36415782786354
 20
61.26400847421075
 30
0.0
 10
13.07520236545888
 20
62.20726376905446
 30
0.0
 10
12.75395532165096
 20
63.13996956431234
 30
0.0
 10
12.39830892549387
 20
64.0601948160179
 30
0.0
 10
11.99906372390404
 20
64.96246487782709
 30
0.0
 10
11.55086867846708
 20
65.84160950926577
 30
0.0
 10
11.05020692974713
 20
66.69180676513768
 30
0.0
 10
10.49713266675965
 20
67.50971917680695
 30
0.0
 10
9.879018488485382
 20
68.27800080288307
 30
0.0
 10
9.25699985125876
 20
69.0463507199075
 30
0.0
 10
8.674944034304312
 20
69.83278070657299
 30
0.0
 10
8.251421297801949
 20
70.36188738460513
 30
0.0
 10
8.212314685983975
 20
70.69128630742067
 30
0.0
  0
SPLINE
  5
9C
330
1F
100
AcDbEntity
  8
Default
100
AcDbSpline
210
0.0
220
0.0
230
1.0
 70
     8
 71
     3
 72
    11
 73
     7
 74
     0
 42
0.0000000001
 43
0.0000000001
 40
0.0
 40
0.0
 40
0.0
 40
0.0
 40
1.056257442711363
 40
1.983666277812516
 40
2.825677162948847
 40
3.576711082448426
 40
3.576711082448426
 40
3.576711082448426
 40
3.576711082448426
 10
8.212314685983975
 20
70.69128630742067
 30
0.0
 10
8.271309415050066
 20
71.03845102290934
 30
0.0
 10
8.377006279650107
 20
71.69120275483769
 30
0.0
 10
8.508689400363146
 20
72.6239099735383
 30
0.0
 10
8.603303398777353
 20
73.45880304233526
 30
0.0
 10
8.645785469982311
 20
73.98822171935777
 30
0.0
 10
8.660296154000445
 20
74.23812340877323
 30
0.0
  0
SPLINE
  5
9D
330
1F
100
AcDbEntity
  8
Default
100
AcDbSpline
210
0.0
220
0.0
230
1.0
 70
     8
 71
     3
 72
    12
 73
     8
 74
     0
 42
0.0000000001
 43
0.0000000001
 40
0.0
 40
0.0
 40
0.0
 40
0.0
 40
1.0
 40
2.0
 40
3.0
 40
4.0
 40
5.0
 40
5.0
 40
5.0
 40
5.0
 10
9.451174879549555
 20
67.45898484900894
 30
0.0
 10
9.797302128280947
 20
67.0394186998536
 30
0.0
 10
10.44002678196658
 20
66.15938460556706
 30
0.0
 10
11.24206638278013
 20
64.73524081179926
 30
0.0
 10
11.89078196324115
 20
63.236342086119
 30
0.0
 10
12.43297984836731
 20
61.69657447678289
 30
0.0
 10
12.73727604410141
 20
60.65165458664317
 30
0.0
 10
12.86598722944358
 20
60.12310732978387
 30
0.0
  0
SPLINE
  5
9E
330
1F
100
AcDbEntity
  8
Default
100
AcDbSpline
210
0.0
220
0.0
230
1.0
 70
     8
 71
     3
 72
    10
 73
     6
 74
     0
 42
0.0000000001
 43
0.0000000001
 40
0.0
 40
0.0
 40
0.0
 40
0.0
 40
1.0
 40
2.0
 40
3.0
 40
3.0
 40
3.0
 40
3.0
 10
12.86598722944358
 20
60.12310732978387
 30
0.0
 10
12.94975886550038
 20
59.77182493922306
 30
0.0
 10
13.04291278742246
 20
59.05221396298472
 30
0.0
 10
12.97838192547774
 20
57.9665370186833
 30
0.0
 10
12.76480370266249
 20
57.26647638297761
 30
0.0
 10
12.56996710135975
 20
56.96015427484425
 30
0.0
  0
SPLINE
  5
9F
330
1F
100
AcDbEntity
  8
Default
100
AcDbSpline
210
0.0
220
0.0
230
1.0
 70
     8
 71
     3
 72
    10
 73
     6
 74
     0
 42
0.0000000001
 43
0.0000000001
 40
8.0
 40
8.0
 40
8.0
 40
8.0
 40
9.0
 40
10.0
 40
11.0
 40
11.0
 40
11.0
 40
11.0
 10
12.56996710135975
 20
56.96015427484425
 30
0.0
 10
12.29404503693465
 20
56.54660044538274
 30
0.0
 10
11.75927541829448
 20
55.7065240370427
 30
0.0
 10
10.8204231477497
 20
54.54450945478685
 30
0.0
 10
10.14242968915897
 20
53.81651166730229
 30
0.0
 10
9.808075533339618
 20
53.44838848798111
 30
0.0
  0
ARC
  5
A0
330
1F
100
AcDbEntity
  8
Default
100
AcDbCircle
 10
-2.119445908323445
 20
64.28176325671583
 30
0.0
 40
16.11296920561789
100
AcDbArc
 50
304.0531741729795
 51
317.7521659811162
  0
SPLINE
  5
A1
330
1F
100
AcDbEntity
  8
Default
100
AcDbSpline
210
0.0
220
0.0
230
1.0
 70
     8
 71
     3
 72
    12
 73
     8
 74
     0
 42
0.0000000001
 43
0.0000000001
 40
0.0
 40
0.0
 40
0.0
 40
0.0
 40
1.0
 40
2.0
 40
3.0
 40
4.0
 40
5.0
 40
5.0
 40
5.0
 40
5.0
 10
-9.451261472591654
 20
67.45898484900894
 30
0.0
 10
-9.797388721323046
 20
67.0394186998536
 30
0.0
 10
-10.44011337500868
 20
66.15938460556706
 30
0.0
 10
-11.24215297582223
 20
64.73524081179926
 30
0.0
 10
-11.89086855628325
 20
63.236342086119
 30
0.0
 10
-12.43306644140941
 20
61.69657447678289
 30
0.0
 10
-12.73736263714351
 20
60.65165458664317
 30
0.0
 10
-12.86607382248568
 20
60.12310732978387
 30
0.0
  0
SPLINE
  5
A2
330
1F
100
AcDbEntity
  8
Default
100
AcDbSpline
210
0.0
220
0.0
230
1.0
 70
     8
 71
     3
 72
    10
 73
     6
 74
     0
 42
0.0000000001
 43
0.0000000001
 40
0.0
 40
0.0
 40
0.0
 40
0.0
 40
1.0
 40
2.0
 40
3.0
 40
3.0
 40
3.0
 40
3.0
 10
-12.86607382248568
 20
60.12310732978387
 30
0.0
 10
-12.94984545854247
 20
59.77182493922306
 30
0.0
 10
-13.04299938046456
 20
59.05221396298472
 30
0.0
 10
-12.97846851851984
 20
57.9665370186833
 30
0.0
 10
-12.76489029570459
 20
57.26647638297761
 30
0.0
 10
-12.57005369440185
 20
56.96015427484425
 30
0.0
  0
SPLINE
  5
A3
330
1F
100
AcDbEntity
  8
Default
100
AcDbSpline
210
0.0
220
0.0
230
1.0
 70
     8
 71
     3
 72
    10
 73
     6
 74
     0
 42
0.0000000001
 43
0.0000000001
 40
8.0
 40
8.0
 40
8.0
 40
8.0
 40
9.0
 40
10.0
 40
11.0
 40
11.0
 40
11.0
 40
11.0
 10
-12.57005369440185
 20
56.96015427484425
 30
0.0
 10
-12.29413162997675
 20
56.54660044538274
 30
0.0
 10
-11.75936201133658
 20
55.7065240370427
 30
0.0
 10
-10.8205097407918
 20
54.54450945478685
 30
0.0
 10
-10.14251628220107
 20
53.81651166730229
 30
0.0
 10
-9.808162126381717
 20
53.44838848798111
 30
0.0
  0
ARC
  5
A4
330
1F
100
AcDbEntity
  8
Default
100
AcDbCircle
 10
2.119359315281347
 20
64.28176325671583
 30
0.0
 40
16.11296920561789
100
AcDbArc
 50
222.2478340188838
 51
235.9468258270205
  0
SPLINE
  5
A5
330
1F
100
AcDbEntity
  8
Default
100
AcDbSpline
210
0.0
220
0.0
230
1.0
 70
     8
 71
     3
 72
    12
 73
     8
 74
     0
 42
0.0000000001
 43
0.0000000001
 40
0.0
 40
0.0
 40
0.0
 40
0.0
 40
1.832654236483515
 40
3.669578742657731
 40
7.371880427553495
 40
11.11625269817008
 40
14.89017125660395
 40
14.89017125660395
 40
14.89017125660395
 40
14.89017125660395
 10
-9.625027801402071
 20
57.43789325614391
 30
0.0
 10
-9.625070994019854
 20
56.82482175441415
 30
0.0
 10
-9.499493023213052
 20
55.60237361168549
 30
0.0
 10
-8.763916638372068
 20
53.24375786021688
 30
0.0
 10
-6.96722607007804
 20
50.64880632788753
 30
0.0
 10
-3.764076352581663
 20
48.58342529557411
 30
0.0
 10
-1.258021085163071
 20
48.10261023693967
 30
0.0
 10
-0.0000473895418081
 20
48.10239000997895
 30
0.0
  0
SPLINE
  5
A6
330
1F
100
AcDbEntity
  8
Default
100
AcDbSpline
210
0.0
220
0.0
230
1.0
 70
     8
 71
     3
 72
    12
 73
     8
 74
     0
 42
0.0000000001
 43
0.0000000001
 40
0.0
 40
0.0
 40
0.0
 40
0.0
 40
1.889355098582429
 40
3.774519559296819
 40
7.516682166840944
 40
11.21816918271821
 40
14.89017237659324
 40
14.89017237659324
 40
14.89017237659324
 40
14.89017237659324
 10
-0.0000473895418081
 20
48.10239000997895
 30
0.0
 10
0.6296858803991565
 20
48.10245777797164
 30
0.0
 10
1.887934098485347
 20
48.22347120277719
 30
0.0
 10
4.303000961963562
 20
48.93117154011156
 30
0.0
 10
6.966109399461878
 20
50.64804550765849
 30
0.0
 10
9.118115265596135
 20
53.75486813746189
 30
0.0
 10
9.625268260719654
 20
56.2120635808229
 30
0.0
 10
9.624940199728114
 20
57.43622987470211
 30
0.0
  0
SPLINE
  5
A7
330
1F
100
AcDbEntity
  8
Default
100
AcDbSpline
210
0.0
220
0.0
230
1.0
 70
     8
 71
     3
 72
    12
 73
     8
 74
     0
 42
0.0000000001
 43
0.0000000001
 40
-15.35241646788361
 40
-15.35241646788361
 40
-15.35241646788361
 40
-15.35241646788361
 40
-11.42846722997082
 40
-7.624448880970329
 40
-3.868777336844833
 40
-1.918304869189328
 40
0.0
 40
0.0
 40
0.0
 40
0.0
 10
9.624940199728114
 20
57.43622987470211
 30
0.0
 10
9.624961293273532
 20
58.74361289873983
 30
0.0
 10
9.15949471109736
 20
61.32541893283527
 30
0.0
 10
7.055014967865528
 20
64.61511404982497
 30
0.0
 10
4.375107162834126
 20
66.42982039467886
 30
0.0
 10
1.929178729058821
 20
67.16390538556445
 30
0.0
 10
0.639326583448586
 20
67.28871567242969
 30
0.0
 10
-0.0000465962349363
 20
67.28818501468044
 30
0.0
  0
SPLINE
  5
A8
330
1F
100
AcDbEntity
  8
Default
100
AcDbSpline
210
0.0
220
0.0
230
1.0
 70
     8
 71
     3
 72
    12
 73
     8
 74
     0
 42
0.0000000001
 43
0.0000000001
 40
-15.34910747496398
 40
-15.34910747496398
 40
-15.34910747496398
 40
-15.34910747496398
 40
-11.5840058662532
 40
-7.773657509622694
 40
-3.93663731821901
 40
-1.971105179282632
 40
0.0
 40
0.0
 40
0.0
 40
0.0
 10
-0.0000465962349363
 20
67.28818501468044
 30
0.0
 10
-1.254467103091214
 20
67.28788133414834
 30
0.0
 10
-3.783458977203644
 20
66.81280163206577
 30
0.0
 10
-7.019313478327441
 20
64.66077906237942
 30
0.0
 10
-8.79112911867426
 20
61.91181345084548
 30
0.0
 10
-9.505234028444068
 20
59.40955228909725
 30
0.0
 10
-9.625271652828825
 20
58.09673798038696
 30
0.0
 10
-9.625027801402071
 20
57.43789325614391
 30
0.0
  0
ARC
  5
A9
330
1F
100
AcDbEntity
  8
Make2D visible lines
100
AcDbCircle
 10
-8.840659148086326
 20
70.2728012719497
 30
0.0
 40
0.3328973934103811
100
AcDbArc
 50
38.04231461775505
 51
42.31995156664829
  0
SPLINE
  5
AA
330
1F
100
AcDbEntity
  8
Make2D visible lines
100
AcDbSpline
210
0.0
220
0.0
230
1.0
 70
     8
 71
     3
 72
    14
 73
    10
 74
     0
 42
0.0000000001
 43
0.0000000001
 40
0.0
 40
0.0
 40
0.0
 40
0.0
 40
0.045695301488427
 40
0.0868479478533442
 40
0.2637725671860835
 40
0.4383102277194185
 40
0.594898321062516
 40
0.6670859698705948
 40
0.7981083555705086
 40
0.7981083555705086
 40
0.7981083555705086
 40
0.7981083555705086
 10
-8.594515916168199
 20
70.49693110914306
 30
0.0
 10
-8.604775100687633
 20
70.50819792156786
 30
0.0
 10
-8.62561660779227
 20
70.52837183599522
 30
0.0
 10
-8.697471944316082
 20
70.57960684074868
 30
0.0
 10
-8.83855261916171
 20
70.5965961558129
 30
0.0
 10
-8.980761553111247
 20
70.48157642936354
 30
0.0
 10
-9.000583075894184
 20
70.33911261163041
 30
0.0
 10
-8.954808295693926
 20
70.22710803092187
 30
0.0
 10
-8.915845322152872
 20
70.17142715559282
 30
0.0
 10
-8.893028499430482
 20
70.13421429595934
 30
0.0
  0
SPLINE
  5
AB
330
1F
100
AcDbEntity
  8
Make2D visible lines
100
AcDbSpline
210
0.0
220
0.0
230
1.0
 70
    24
 71
     2
 72
     6
 73
     3
 74
     0
 42
0.0000000001
 43
0.0000000001
 40
0.0
 40
0.0
 40
0.0
 40
0.2039828821921574
 40
0.2039828821921574
 40
0.2039828821921574
 10
-8.893028499430482
 20
70.13421429595934
 30
0.0
 10
-8.837196727438043
 20
70.0482388893322
 30
0.0
 10
-8.781364955445603
 20
69.96226348270504
 30
0.0
  0
SPLINE
  5
AD
330
1F
100
AcDbEntity
  8
Make2D visible lines - Tangent
100
AcDbSpline
210
0.0
220
0.0
230
1.0
 70
    24
 71
     2
 72
     6
 73
     3
 74
     0
 42
0.0000000001
 43
0.0000000001
 40
4.724543253607481
 40
4.724543253607481
 40
4.724543253607481
 40
4.753338576412538
 40
4.753338576412538
 40
4.753338576412538
 10
-8.506284644887065
 20
70.34063458514056
 30
0.0
 10
-8.514126173299811
 20
70.35270948000611
 30
0.0
 10
-8.521967701712555
 20
70.36478437487166
 30
0.0
  0
SPLINE
  5
AE
330
1F
100
AcDbEntity
  8
Make2D visible lines - Tangent
100
AcDbSpline
210
0.0
220
0.0
230
1.0
 70
    12
 71
     2
 72
     8
 73
     5
 74
     0
 42
0.0000000001
 43
0.0000000001
 40
0.0
 40
0.0
 40
0.0
 40
0.1148828009685817
 40
0.1148828009685817
 40
0.1502683343656906
 40
0.1502683343656906
 40
0.1502683343656906
 10
-8.521967701712555
 20
70.36478437487166
 30
0.0
 41
1.0
 10
-8.553508899343957
 20
70.41257329161166
 30
0.0
 41
0.9996906625552111
 10
-8.582634670428341
 20
70.46187153874021
 30
0.0
 41
1.0
 10
-8.593351285218722
 20
70.47619116535522
 30
0.0
 41
0.9787962895982437
 10
-8.596201194282926
 20
70.49389693677718
 30
0.0
 41
0.9993986611253082
  0
SPLINE
  5
AF
330
1F
100
AcDbEntity
  8
Make2D visible lines - Tangent
100
AcDbSpline
210
0.0
220
0.0
230
1.0
 70
    12
 71
     2
 72
    10
 73
     7
 74
     0
 42
0.0000000001
 43
0.0000000001
 40
0.0
 40
0.0
 40
0.0
 40
0.0227365413189648
 40
0.0227365413189648
 40
0.0984034118531442
 40
0.0984034118531442
 40
0.1655127039432473
 40
0.1655127039432473
 40
0.1655127039432473
 10
-8.596201194282926
 20
70.49389693677716
 30
0.0
 41
1.0
 10
-8.585805221502278
 20
70.48670021039293
 30
0.0
 41
0.9943397890228196
 10
-8.578483856909429
 20
70.47794705239798
 30
0.0
 41
1.0
 10
-8.553371081010255
 20
70.44963675511782
 30
0.0
 41
0.9996042777624414
 10
-8.529890145949611
 20
70.41995898340012
 30
0.0
 41
1.0
 10
-8.508932101038663
 20
70.39375404985076
 30
0.0
 41
0.999971908622654
 10
-8.488262915298446
 20
70.36732068174048
 30
0.0
 41
0.9999739303520662
  0
LINE
  5
B0
330
1F
100
AcDbEntity
  8
Make2D visible lines
100
AcDbLine
 10
-8.773267857487715
 20
50.49926984056724
 30
0.0
 11
-8.801985246994732
 21
50.51869415430178
 31
0.0
  0
ARC
  5
B1
330
1F
100
AcDbEntity
  8
Make2D visible lines
100
AcDbCircle
 10
-8.770884598342427
 20
50.56467412834228
 30
0.0
 40
0.0555104346889764
100
AcDbArc
 50
144.3533666786394
 51
235.9257554298866
  0
SPLINE
  5
B2
330
1F
100
AcDbEntity
  8
Make2D visible lines
100
AcDbSpline
210
0.0
220
0.0
230
1.0
 70
    24
 71
     2
 72
     6
 73
     3
 74
     0
 42
0.0000000001
 43
0.0000000001
 40
0.0
 40
0.0
 40
0.0
 40
0.4156140626308855
 40
0.4156140626308855
 40
0.4156140626308855
 10
-8.815993859643125
 20
50.59702475282256
 30
0.0
 10
-8.696102897114429
 20
50.76706922167991
 30
0.0
 10
-8.576211934585734
 20
50.93711369053727
 30
0.0
  0
LINE
  5
B3
330
1F
100
AcDbEntity
  8
Make2D visible lines
100
AcDbLine
 10
-8.415693977754518
 20
50.24718222783661
 30
0.0
 11
-8.387761448674247
 21
50.22664296208006
 31
0.0
  0
ARC
  5
B4
330
1F
100
AcDbEntity
  8
Make2D visible lines
100
AcDbCircle
 10
-8.354902686531934
 20
50.27132948300837
 30
0.0
 40
0.0554669577514513
100
AcDbArc
 50
233.6723200580443
 51
323.4367134050225
  0
SPLINE
  5
B5
330
1F
100
AcDbEntity
  8
Make2D visible lines
100
AcDbSpline
210
0.0
220
0.0
230
1.0
 70
    24
 71
     2
 72
     6
 73
     3
 74
     0
 42
0.0000000001
 43
0.0000000001
 40
0.0
 40
0.0
 40
0.0
 40
0.3455518391435651
 40
0.3455518391435651
 40
0.3455518391435651
 10
-8.310351661939531
 20
50.23828724322399
 30
0.0
 10
-8.210511370115386
 20
50.3798886060589
 30
0.0
 10
-8.11067107829124
 20
50.5214899688938
 30
0.0
  0
SPLINE
  5
B6
330
1F
100
AcDbEntity
  8
Make2D visible lines
100
AcDbSpline
210
0.0
220
0.0
230
1.0
 70
    24
 71
     2
 72
     6
 73
     3
 74
     0
 42
0.0000000001
 43
0.0000000001
 40
1.330278717066204
 40
1.330278717066204
 40
1.330278717066204
 40
3.293043573786101
 40
3.293043573786101
 40
3.293043573786101
 10
-8.50876286302402
 20
50.87442367287371
 30
0.0
 10
-9.07819431008938
 20
50.0667852763454
 30
0.0
 10
-9.647625757154742
 20
49.25914687981708
 30
0.0
  0
SPLINE
  5
B7
330
1F
100
AcDbEntity
  8
Make2D visible lines
100
AcDbSpline
210
0.0
220
0.0
230
1.0
 70
    12
 71
     2
 72
     8
 73
     5
 74
     0
 42
0.0000000001
 43
0.0000000001
 40
0.0
 40
0.0
 40
0.0
 40
0.197163615910639
 40
0.197163615910639
 40
0.3943272318212779
 40
0.3943272318212779
 40
0.3943272318212779
 10
-9.647625757154742
 20
49.25914687981708
 30
0.0
 41
1.0
 10
-9.717082928954984
 20
49.17964473131673
 30
0.0
 41
0.903610101610362
 10
-9.699505604083093
 20
49.07554896780537
 30
0.0
 41
1.0
 10
-9.681928279211201
 20
48.97145320429404
 30
0.0
 41
0.903610101610362
 10
-9.59014942179822
 20
48.91912798925122
 30
0.0
 41
1.0
  0
SPLINE
  5
B8
330
1F
100
AcDbEntity
  8
Make2D visible lines
100
AcDbSpline
210
0.0
220
0.0
230
1.0
 70
    12
 71
     2
 72
     6
 73
     3
 74
     0
 42
0.0000000001
 43
0.0000000001
 40
0.0
 40
0.0
 40
0.0
 40
0.3210187875113308
 40
0.3210187875113308
 40
0.3210187875113308
 10
-9.59014942179822
 20
48.91912798925122
 30
0.0
 41
1.0
 10
-9.41727787729478
 20
48.82401115323766
 30
0.0
 41
0.7427400324777469
 10
-9.304852387233758
 20
48.98606565398682
 30
0.0
 41
1.0
  0
SPLINE
  5
B9
330
1F
100
AcDbEntity
  8
Make2D visible lines
100
AcDbSpline
210
0.0
220
0.0
230
1.0
 70
    24
 71
     2
 72
     6
 73
     3
 74
     0
 42
0.0000000001
 43
0.0000000001
 40
0.0
 40
0.0
 40
0.0
 40
1.922943218990039
 40
1.922943218990039
 40
1.922943218990039
 10
-9.304852387233758
 20
48.98606565398682
 30
0.0
 10
-8.742575640002588
 20
49.78355743662529
 30
0.0
 10
-8.180298892771416
 20
50.58104921926375
 30
0.0
  0
ARC
  5
BA
330
1F
100
AcDbEntity
  8
Make2D visible lines
100
AcDbCircle
 10
8.840659148086326
 20
70.2728012719497
 30
0.0
 40
0.3328973934103811
100
AcDbArc
 50
137.6800484333517
 51
141.9576853822449
  0
SPLINE
  5
BB
330
1F
100
AcDbEntity
  8
Make2D visible lines
100
AcDbSpline
210
0.0
220
0.0
230
1.0
 70
     8
 71
     3
 72
    14
 73
    10
 74
     0
 42
0.0000000001
 43
0.0000000001
 40
0.0
 40
0.0
 40
0.0
 40
0.0
 40
0.045695301488427
 40
0.0868479478533442
 40
0.2637725671860835
 40
0.4383102277194185
 40
0.594898321062516
 40
0.6670859698705948
 40
0.7981083555705086
 40
0.7981083555705086
 40
0.7981083555705086
 40
0.7981083555705086
 10
8.594515916168199
 20
70.49693110914306
 30
0.0
 10
8.604775100687633
 20
70.50819792156786
 30
0.0
 10
8.62561660779227
 20
70.52837183599522
 30
0.0
 10
8.697471944316082
 20
70.57960684074868
 30
0.0
 10
8.83855261916171
 20
70.5965961558129
 30
0.0
 10
8.980761553111247
 20
70.48157642936354
 30
0.0
 10
9.000583075894184
 20
70.33911261163041
 30
0.0
 10
8.954808295693926
 20
70.22710803092187
 30
0.0
 10
8.915845322152872
 20
70.17142715559282
 30
0.0
 10
8.893028499430482
 20
70.13421429595934
 30
0.0
  0
SPLINE
  5
BC
330
1F
100
AcDbEntity
  8
Make2D visible lines
100
AcDbSpline
210
0.0
220
0.0
230
1.0
 70
    24
 71
     2
 72
     6
 73
     3
 74
     0
 42
0.0000000001
 43
0.0000000001
 40
0.0
 40
0.0
 40
0.0
 40
0.2040558140573736
 40
0.2040558140573736
 40
0.2040558140573736
 10
8.893028499430482
 20
70.13421429595934
 30
0.0
 10
8.837176765394041
 20
70.04820814975884
 30
0.0
 10
8.781325031357602
 20
69.96220200355835
 30
0.0
  0
SPLINE
  5
BD
330
1F
100
AcDbEntity
  8
Make2D visible lines - Tangent
100
AcDbSpline
210
0.0
220
0.0
230
1.0
 70
    24
 71
     2
 72
     6
 73
     3
 74
     0
 42
0.0000000001
 43
0.0000000001
 40
4.724465569704244
 40
4.724465569704244
 40
4.724465569704244
 40
4.753338576412538
 40
4.753338576412538
 40
4.753338576412538
 10
8.506242335200971
 20
70.34056943393732
 30
0.0
 10
8.514105018456764
 20
70.35267690440449
 30
0.0
 10
8.521967701712555
 20
70.36478437487166
 30
0.0
  0
SPLINE
  5
BE
330
1F
100
AcDbEntity
  8
Make2D visible lines - Tangent
100
AcDbSpline
210
0.0
220
0.0
230
1.0
 70
    12
 71
     2
 72
     8
 73
     5
 74
     0
 42
0.0000000001
 43
0.0000000001
 40
0.0
 40
0.0
 40
0.0
 40
0.1148828009685817
 40
0.1148828009685817
 40
0.1502683343656906
 40
0.1502683343656906
 40
0.1502683343656906
 10
8.521967701712555
 20
70.36478437487166
 30
0.0
 41
1.0
 10
8.553508899343957
 20
70.41257329161166
 30
0.0
 41
0.9996906625552111
 10
8.582634670428341
 20
70.46187153874021
 30
0.0
 41
1.0
 10
8.593351285218722
 20
70.47619116535522
 30
0.0
 41
0.9787962895982437
 10
8.596201194282926
 20
70.49389693677718
 30
0.0
 41
0.9993986611253082
  0
SPLINE
  5
BF
330
1F
100
AcDbEntity
  8
Make2D visible lines - Tangent
100
AcDbSpline
210
0.0
220
0.0
230
1.0
 70
    12
 71
     2
 72
    10
 73
     7
 74
     0
 42
0.0000000001
 43
0.0000000001
 40
0.0
 40
0.0
 40
0.0
 40
0.0227365413189648
 40
0.0227365413189648
 40
0.0984034118531442
 40
0.0984034118531442
 40
0.1655883640130663
 40
0.1655883640130663
 40
0.1655883640130663
 10
8.596201194282926
 20
70.49389693677716
 30
0.0
 41
1.0
 10
8.585805221502278
 20
70.48670021039293
 30
0.0
 41
0.9943397890228196
 10
8.578483856909429
 20
70.47794705239798
 30
0.0
 41
1.0
 10
8.553371081010255
 20
70.44963675511782
 30
0.0
 41
0.9996042777624414
 10
8.529890145949611
 20
70.41995898340012
 30
0.0
 41
1.0
 10
8.508908471945174
 20
70.39372450516625
 30
0.0
 41
0.999971876951994
 10
8.488216310232326
 20
70.36726107878413
 30
0.0
 41
0.9999739349490009
  0
LINE
  5
C0
330
1F
100
AcDbEntity
  8
Make2D visible lines
100
AcDbLine
 10
8.773267857487715
 20
50.49926984056724
 30
0.0
 11
8.801985246994732
 21
50.51869415430178
 31
0.0
  0
ARC
  5
C1
330
1F
100
AcDbEntity
  8
Make2D visible lines
100
AcDbCircle
 10
8.770884598342427
 20
50.56467412834228
 30
0.0
 40
0.0555104346889764
100
AcDbArc
 50
304.0742445701134
 51
35.6466333213606
  0
SPLINE
  5
C2
330
1F
100
AcDbEntity
  8
Make2D visible lines
100
AcDbSpline
210
0.0
220
0.0
230
1.0
 70
    24
 71
     2
 72
     6
 73
     3
 74
     0
 42
0.0000000001
 43
0.0000000001
 40
0.0
 40
0.0
 40
0.0
 40
0.4156737113078084
 40
0.4156737113078084
 40
0.4156737113078084
 10
8.815993859643125
 20
50.59702475282256
 30
0.0
 10
8.696085690436568
 20
50.76709362635843
 30
0.0
 10
8.576177521230013
 20
50.9371624998943
 30
0.0
  0
LINE
  5
C3
330
1F
100
AcDbEntity
  8
Make2D visible lines
100
AcDbLine
 10
8.415693977754518
 20
50.24718222783661
 30
0.0
 11
8.387761448674247
 21
50.22664296208006
 31
0.0
  0
ARC
  5
C4
330
1F
100
AcDbEntity
  8
Make2D visible lines
100
AcDbCircle
 10
8.354902686531934
 20
50.27132948300837
 30
0.0
 40
0.0554669577514513
100
AcDbArc
 50
216.5632865949774
 51
306.3276799419556
  0
SPLINE
  5
C5
330
1F
100
AcDbEntity
  8
Make2D visible lines
100
AcDbSpline
210
0.0
220
0.0
230
1.0
 70
    24
 71
     2
 72
     6
 73
     3
 74
     0
 42
0.0000000001
 43
0.0000000001
 40
0.0
 40
0.0
 40
0.0
 40
0.3456079366388958
 40
0.3456079366388958
 40
0.3456079366388958
 10
8.310351661939531
 20
50.23828724322399
 30
0.0
 10
8.21049516186623
 20
50.37991159387401
 30
0.0
 10
8.110638661792931
 20
50.52153594452403
 30
0.0
  0
SPLINE
  5
C6
330
1F
100
AcDbEntity
  8
Make2D visible lines
100
AcDbSpline
210
0.0
220
0.0
230
1.0
 70
    24
 71
     2
 72
     6
 73
     3
 74
     0
 42
0.0000000001
 43
0.0000000001
 40
1.330219867060149
 40
1.330219867060149
 40
1.330219867060149
 40
3.293043573786101
 40
3.293043573786101
 40
3.293043573786101
 10
8.508728716249898
 20
50.87447210406949
 30
0.0
 10
9.07817723670232
 20
50.06680949194329
 30
0.0
 10
9.647625757154742
 20
49.25914687981708
 30
0.0
  0
SPLINE
  5
C7
330
1F
100
AcDbEntity
  8
Make2D visible lines
100
AcDbSpline
210
0.0
220
0.0
230
1.0
 70
    12
 71
     2
 72
     8
 73
     5
 74
     0
 42
0.0000000001
 43
0.0000000001
 40
0.0
 40
0.0
 40
0.0
 40
0.197163615910639
 40
0.197163615910639
 40
0.3943272318212779
 40
0.3943272318212779
 40
0.3943272318212779
 10
9.647625757154742
 20
49.25914687981708
 30
0.0
 41
1.0
 10
9.717082928954984
 20
49.17964473131673
 30
0.0
 41
0.903610101610362
 10
9.699505604083093
 20
49.07554896780537
 30
0.0
 41
1.0
 10
9.681928279211201
 20
48.97145320429404
 30
0.0
 41
0.903610101610362
 10
9.59014942179822
 20
48.91912798925122
 30
0.0
 41
1.0
  0
SPLINE
  5
C8
330
1F
100
AcDbEntity
  8
Make2D visible lines
100
AcDbSpline
210
0.0
220
0.0
230
1.0
 70
    12
 71
     2
 72
     6
 73
     3
 74
     0
 42
0.0000000001
 43
0.0000000001
 40
0.0
 40
0.0
 40
0.0
 40
0.3210187875113308
 40
0.3210187875113308
 40
0.3210187875113308
 10
9.59014942179822
 20
48.91912798925122
 30
0.0
 41
1.0
 10
9.41727787729478
 20
48.82401115323766
 30
0.0
 41
0.7427400324777469
 10
9.304852387233758
 20
48.98606565398682
 30
0.0
 41
1.0
  0
SPLINE
  5
C9
330
1F
100
AcDbEntity
  8
Make2D visible lines
100
AcDbSpline
210
0.0
220
0.0
230
1.0
 70
    24
 71
     2
 72
     6
 73
     3
 74
     0
 42
0.0000000001
 43
0.0000000001
 40
0.0
 40
0.0
 40
0.0
 40
1.922999198091934
 40
1.922999198091934
 40
1.922999198091934
 10
9.304852387233758
 20
48.98606565398682
 30
0.0
 10
8.742559271475937
 20
49.78358065253376
 30
0.0
 10
8.180266155718117
 20
50.58109565108069
 30
0.0
  0
SPLINE
  5
CA
330
1F
100
AcDbEntity
  8
Default
100
AcDbSpline
210
0.0
220
0.0
230
1.0
 70
     8
 71
     3
 72
    11
 73
     7
 74
     0
 42
0.0000000001
 43
0.0000000001
 40
0.0
 40
0.0
 40
0.0
 40
0.0
 40
0.1290889925177595
 40
0.2609259994466885
 40
0.5361425090251268
 40
1.198229879357077
 40
1.198229879357077
 40
1.198229879357077
 40
1.198229879357077
 10
-13.76364058738036
 20
22.18292841367238
 30
0.0
 10
-13.7932129268604
 20
22.1517578643685
 30
0.0
 10
-13.84632791415013
 20
22.08215432047403
 30
0.0
 10
-13.92973291458191
 20
21.92380305386218
 30
0.0
 10
-14.00752622179263
 20
21.56958779134625
 30
0.0
 10
-13.92938919087197
 20
21.25620905293075
 30
0.0
 10
-13.85596687457265
 20
21.05004073055343
 30
0.0
  0
SPLINE
  5
CB
330
1F
100
AcDbEntity
  8
Default
100
AcDbSpline
210
0.0
220
0.0
230
1.0
 70
    12
 71
     3
 72
    23
 73
    19
 74
     0
 42
0.0000000001
 43
0.0000000001
 40
0.0
 40
0.0
 40
0.0
 40
0.0
 40
1.0
 40
2.0
 40
3.0
 40
4.0
 40
5.0
 40
6.0
 40
7.0
 40
8.0
 40
9.0
 40
10.0
 40
10.0
 40
10.0
 40
11.0
 40
11.0
 40
11.0
 40
11.28519622436548
 40
11.28519622436548
 40
11.28519622436548
 40
11.28519622436548
 10
-13.85596687457265
 20
21.05004073055343
 30
0.0
 41
1.0
 10
-13.74625544603186
 20
20.74197334303512
 30
0.0
 41
1.0
 10
-13.47744091830254
 20
19.98419005443701
 30
0.0
 41
1.0
 10
-13.16815573947031
 20
19.05305965364025
 30
0.0
 41
1.0
 10
-12.81764204415382
 20
18.13648379734935
 30
0.0
 41
1.0
 10
-12.43363080437166
 20
17.23366429971211
 30
0.0
 41
1.0
 10
-12.03569416761365
 20
16.33690241663999
 30
0.0
 41
1.0
 10
-11.60462288227209
 20
15.45517150656865
 30
0.0
 41
1.0
 10
-11.09673893229347
 20
14.6141529932858
 30
0.0
 41
1.0
 10
-10.48954804152392
 20
13.84071300224325
 30
0.0
 41
1.0
 10
-9.775175162194465
 20
13.1642372858468
 30
0.0
 41
1.0
 10
-9.237078440121339
 20
12.78921717957024
 30
0.0
 41
1.0
 10
-8.954648798320953
 20
12.62431469016412
 30
0.0
 41
1.0
 10
-8.635427227379582
 20
12.43793045873287
 30
0.0
 41
1.0
 10
-8.287948620980622
 20
12.30071668644421
 30
0.0
 41
1.0
 10
-7.938438624406281
 20
12.18036613440935
 30
0.0
 41
1.0
 10
-7.848597378166755
 20
12.14943012775317
 30
0.0
 41
1.0
 10
-7.758487583148002
 20
12.11905988498714
 30
0.0
 41
1.0
 10
-7.668121524222975
 20
12.08946388686767
 30
0.0
 41
1.0
  0
SPLINE
  5
CC
330
1F
100
AcDbEntity
  8
Default
100
AcDbSpline
210
0.0
220
0.0
230
1.0
 70
    12
 71
     3
 72
     9
 73
     5
 74
     0
 42
0.0000000001
 43
0.0000000001
 40
11.72713053180966
 40
11.72713053180966
 40
11.72713053180966
 40
11.72713053180966
 40
11.88929203962941
 40
12.67801236288469
 40
12.67801236288469
 40
12.67801236288469
 40
12.67801236288469
 10
-7.246206249596446
 20
11.95804119612367
 30
0.0
 41
1.0
 10
-7.19437399467872
 20
11.94274973885129
 30
0.0
 41
1.0
 10
-6.88993681888765
 20
11.8547783676176
 30
0.0
 41
1.0
 10
-6.582440547848068
 20
11.77673695766583
 30
0.0
 41
1.0
 10
-6.32561561773553
 20
11.72054868393322
 30
0.0
 41
1.0
  0
SPLINE
  5
CD
330
1F
100
AcDbEntity
  8
Default
100
AcDbSpline
210
0.0
220
0.0
230
1.0
 70
    12
 71
     3
 72
     9
 73
     5
 74
     0
 42
0.0000000001
 43
0.0000000001
 40
-12.67801236287956
 40
-12.67801236287956
 40
-12.67801236287956
 40
-12.67801236287956
 40
-11.88929203962941
 40
-11.72713053180487
 40
-11.72713053180487
 40
-11.72713053180487
 40
-11.72713053180487
 10
6.325615617740541
 20
11.72054868393432
 30
0.0
 41
1.0
 10
6.582440547851386
 20
11.77673695766667
 30
0.0
 41
1.0
 10
6.889936818890841
 20
11.85477836761847
 30
0.0
 41
1.0
 10
7.194373994681787
 20
11.94274973885217
 30
0.0
 41
1.0
 10
7.246206249601038
 20
11.95804119612502
 30
0.0
 41
1.0
  0
SPLINE
  5
CE
330
1F
100
AcDbEntity
  8
Default
100
AcDbSpline
210
0.0
220
0.0
230
1.0
 70
    12
 71
     3
 72
    23
 73
    19
 74
     0
 42
0.0000000001
 43
0.0000000001
 40
-11.2851962243606
 40
-11.2851962243606
 40
-11.2851962243606
 40
-11.2851962243606
 40
-11.0
 40
-11.0
 40
-11.0
 40
-10.0
 40
-10.0
 40
-10.0
 40
-9.0
 40
-8.0
 40
-7.0
 40
-6.0
 40
-5.0
 40
-4.0
 40
-3.0
 40
-2.0
 40
-1.0
 40
0.0
 40
0.0
 40
0.0
 40
0.0
 10
7.668121524227614
 20
12.08946388686919
 30
0.0
 41
1.0
 10
7.758487583151086
 20
12.11905988498818
 30
0.0
 41
1.0
 10
7.848597378168292
 20
12.14943012775369
 30
0.0
 41
1.0
 10
7.938438624406281
 20
12.18036613440935
 30
0.0
 41
1.0
 10
8.287948620980622
 20
12.30071668644421
 30
0.0
 41
1.0
 10
8.635427227379582
 20
12.43793045873287
 30
0.0
 41
1.0
 10
8.954648798320953
 20
12.62431469016412
 30
0.0
 41
1.0
 10
9.237078440121339
 20
12.78921717957024
 30
0.0
 41
1.0
 10
9.775175162194465
 20
13.1642372858468
 30
0.0
 41
1.0
 10
10.48954804152392
 20
13.84071300224325
 30
0.0
 41
1.0
 10
11.09673893229347
 20
14.6141529932858
 30
0.0
 41
1.0
 10
11.60462288227209
 20
15.45517150656865
 30
0.0
 41
1.0
 10
12.03569416761365
 20
16.33690241663999
 30
0.0
 41
1.0
 10
12.43363080437166
 20
17.23366429971211
 30
0.0
 41
1.0
 10
12.81764204415382
 20
18.13648379734935
 30
0.0
 41
1.0
 10
13.16815573947031
 20
19.05305965364025
 30
0.0
 41
1.0
 10
13.47744091830254
 20
19.98419005443701
 30
0.0
 41
1.0
 10
13.74625544603186
 20
20.74197334303512
 30
0.0
 41
1.0
 10
13.85596687457265
 20
21.05004073055343
 30
0.0
 41
1.0
  0
SPLINE
  5
CF
330
1F
100
AcDbEntity
  8
Default
100
AcDbSpline
210
0.0
220
0.0
230
1.0
 70
     8
 71
     3
 72
    11
 73
     7
 74
     0
 42
0.0000000001
 43
0.0000000001
 40
-1.198229879357077
 40
-1.198229879357077
 40
-1.198229879357077
 40
-1.198229879357077
 40
-0.5361425090251268
 40
-0.2609259994466885
 40
-0.1290889925177595
 40
0.0
 40
0.0
 40
0.0
 40
0.0
 10
13.85596687457265
 20
21.05004073055343
 30
0.0
 10
13.92938919087197
 20
21.25620905293075
 30
0.0
 10
14.00752622179263
 20
21.56958779134625
 30
0.0
 10
13.92973291458191
 20
21.92380305386218
 30
0.0
 10
13.84632791415013
 20
22.08215432047403
 30
0.0
 10
13.7932129268604
 20
22.1517578643685
 30
0.0
 10
13.76364058738036
 20
22.18292841367238
 30
0.0
  0
LINE
  5
D0
330
1F
100
AcDbEntity
  8
Make2D visible lines
100
AcDbLine
 10
28.01275179352148
 20
0.1512499999999968
 30
0.0
 11
34.40805929521188
 21
0.1512500000000099
 31
0.0
  0
SPLINE
  5
D1
330
1F
100
AcDbEntity
  8
Make2D visible lines
100
AcDbSpline
210
0.0
220
0.0
230
1.0
 70
     8
 71
     3
 72
    13
 73
     9
 74
     0
 42
0.0000000001
 43
0.0000000001
 40
0.0
 40
0.0
 40
0.0
 40
0.0
 40
0.0669909275443719
 40
0.1332575209594614
 40
0.2649155669711206
 40
0.332668664327405
 40
0.3376075390522567
 40
0.7481878552349414
 40
0.7481878552349414
 40
0.7481878552349414
 40
0.7481878552349414
 10
35.03851661089246
 20
0.3752139673553216
 30
0.0
 10
35.03800151131806
 20
0.3976565949571415
 30
0.0
 10
35.02988436912052
 20
0.4415435685432696
 30
0.0
 10
34.98883543271974
 20
0.5213084423103875
 30
0.0
 10
34.91431185455311
 20
0.5757883745338983
 30
0.0
 10
34.84644455088468
 20
0.5886361654697606
 30
0.0
 10
34.68536803100332
 20
0.5890248407860289
 30
0.0
 10
34.54684213984643
 20
0.5885352940958735
 30
0.0
 10
34.40950802518815
 20
0.5887500186223245
 30
0.0
  0
SPLINE
  5
D2
330
1F
100
AcDbEntity
  8
Make2D visible lines
100
AcDbSpline
210
0.0
220
0.0
230
1.0
 70
    24
 71
     2
 72
     6
 73
     3
 74
     0
 42
0.0000000001
 43
0.0000000001
 40
0.0
 40
0.0
 40
0.0
 40
8.531245711461779
 40
8.531245711461779
 40
8.531245711461779
 10
34.40950802518815
 20
0.5887500186223245
 30
0.0
 10
30.14340225948118
 20
0.5887500093111787
 30
0.0
 10
25.87729649377421
 20
0.588750000000033
 30
0.0
  0
SPLINE
  5
D3
330
1F
100
AcDbEntity
  8
Make2D visible lines
100
AcDbSpline
210
0.0
220
0.0
230
1.0
 70
     8
 71
     3
 72
    12
 73
     8
 74
     0
 42
0.0000000001
 43
0.0000000001
 40
0.0
 40
0.0
 40
0.0
 40
0.0
 40
0.1693085055607524
 40
0.3260743370091164
 40
0.6324790294380792
 40
1.006716325339112
 40
1.461314524040565
 40
1.461314524040565
 40
1.461314524040565
 40
1.461314524040565
 10
25.87729649377421
 20
0.588750000000033
 30
0.0
 10
25.81961223394883
 20
0.5881722851479865
 30
0.0
 10
25.71298941661811
 20
0.6006958467837804
 30
0.0
 10
25.51057704214896
 20
0.6784579728153245
 30
0.0
 10
25.33767917653322
 20
0.915523100227029
 30
0.0
 10
25.3131895414561
 20
1.303334086639778
 30
0.0
 10
25.38471135336875
 20
1.571017573668503
 30
0.0
 10
25.44350029933731
 20
1.716989753589089
 30
0.0
  0
SPLINE
  5
D4
330
1F
100
AcDbEntity
  8
Make2D visible lines
100
AcDbSpline
210
0.0
220
0.0
230
1.0
 70
    24
 71
     2
 72
     6
 73
     3
 74
     0
 42
0.0000000001
 43
0.0000000001
 40
0.0
 40
0.0
 40
0.0
 40
10.6548645082842
 40
10.6548645082842
 40
10.6548645082842
 10
25.44350029933731
 20
1.716989753589089
 30
0.0
 10
27.4367474738355
 20
6.663102504123819
 30
0.0
 10
29.42999464833368
 20
11.60921525465855
 30
0.0
  0
SPLINE
  5
D5
330
1F
100
AcDbEntity
  8
Make2D visible lines
100
AcDbSpline
210
0.0
220
0.0
230
1.0
 70
     8
 71
     3
 72
    12
 73
     8
 74
     0
 42
0.0000000001
 43
0.0000000001
 40
0.0
 40
0.0
 40
0.0
 40
0.0
 40
0.1320490318873899
 40
0.2557655710982562
 40
0.4930712698847956
 40
0.7139044511273421
 40
0.9457968106286055
 40
0.9457968106286055
 40
0.9457968106286055
 40
0.9457968106286055
 10
29.42999464833368
 20
11.60921525465855
 30
0.0
 10
29.44868949519982
 20
11.65452546615029
 30
0.0
 10
29.48833832448774
 20
11.73104089310783
 30
0.0
 10
29.58975513393687
 20
11.86016550873743
 30
0.0
 10
29.75403262087115
 20
11.97414392652546
 30
0.0
 10
29.99157691460271
 20
11.99403633134802
 30
0.0
 10
30.13162841491684
 20
11.92360786310596
 30
0.0
 10
30.1915349704959
 20
11.87557508212785
 30
0.0
  0
LINE
  5
D6
330
1F
100
AcDbEntity
  8
Default
100
AcDbLine
 10
26.29887910443287
 20
0.1512500000000045
 30
0.0
 11
26.32350793284727
 21
0.188123512817642
 31
0.0
  0
ARC
  5
D7
330
1F
100
AcDbEntity
  8
Default
100
AcDbCircle
 10
26.07183060355493
 20
0.3562256892923373
 30
0.0
 40
0.3026546213347083
100
AcDbArc
 50
326.2599541458921
 51
358.8735934699181
  0
SPLINE
  5
D8
330
1F
100
AcDbEntity
  8
Default
100
AcDbSpline
210
0.0
220
0.0
230
1.0
 70
    12
 71
     2
 72
     6
 73
     3
 74
     0
 42
0.0000000001
 43
0.0000000001
 40
-0.1396938593169805
 40
-0.1396938593169805
 40
-0.1396938593169805
 40
0.0
 40
0.0
 40
0.0
 10
26.37442673936629
 20
0.3502760332277354
 30
0.0
 41
1.0
 10
26.37568539952452
 20
0.4214375658324525
 30
0.0
 41
0.977942097569061
 10
26.40578147895063
 20
0.4856289278781711
 30
0.0
 41
1.0
  0
SPLINE
  5
D9
330
1F
100
AcDbEntity
  8
Default
100
AcDbSpline
210
0.0
220
0.0
230
1.0
 70
    12
 71
     2
 72
     6
 73
     3
 74
     0
 42
0.0000000001
 43
0.0000000001
 40
-0.1043707694466919
 40
-0.1043707694466919
 40
-0.1043707694466919
 40
0.0
 40
0.0
 40
0.0
 10
26.40578147895063
 20
0.4856289278781711
 30
0.0
 41
1.0
 10
26.43903103979033
 20
0.5296435445783652
 30
0.0
 41
0.9209949828452051
 10
26.49377269162519
 20
0.5364384937091395
 30
0.0
 41
1.0
  0
SPLINE
  5
DA
330
1F
100
AcDbEntity
  8
Default
100
AcDbSpline
210
0.0
220
0.0
230
1.0
 70
     8
 71
     3
 72
     8
 73
     4
 74
     0
 42
0.0000000001
 43
0.0000000001
 40
0.0
 40
0.0
 40
0.0
 40
0.0
 40
1.0
 40
1.0
 40
1.0
 40
1.0
 10
26.49377269162519
 20
0.5364384937091395
 30
0.0
 10
26.50657576051773
 20
0.5380277077523163
 30
0.0
 10
26.51941112893767
 20
0.5400000000000158
 30
0.0
 10
26.53231245345658
 20
0.5400000000000158
 30
0.0
  0
SPLINE
  5
DB
330
1F
100
AcDbEntity
  8
Default
100
AcDbSpline
210
0.0
220
0.0
230
1.0
 70
    24
 71
     2
 72
     6
 73
     3
 74
     0
 42
0.0000000001
 43
0.0000000001
 40
0.0
 40
0.0
 40
0.0
 40
1.324002867092183
 40
1.324002867092183
 40
1.324002867092183
 10
26.53231245345658
 20
0.5400000000000158
 30
0.0
 10
27.19431388700267
 20
0.5400000000000167
 30
0.0
 10
27.85631532054876
 20
0.5400000000000176
 30
0.0
  0
SPLINE
  5
DC
330
1F
100
AcDbEntity
  8
Default
100
AcDbSpline
210
0.0
220
0.0
230
1.0
 70
     8
 71
     3
 72
     8
 73
     4
 74
     0
 42
0.0000000001
 43
0.0000000001
 40
-1.0
 40
-1.0
 40
-1.0
 40
-1.0
 40
0.0
 40
0.0
 40
0.0
 40
0.0
 10
27.85631532054876
 20
0.5400000000000176
 30
0.0
 10
27.94370895894344
 20
0.5400000000000176
 30
0.0
 10
28.03472187607218
 20
0.4319284955974853
 30
0.0
 10
28.03113246257903
 20
0.3446086001404169
 30
0.0
  0
SPLINE
  5
DD
330
1F
100
AcDbEntity
  8
Default
100
AcDbSpline
210
0.0
220
0.0
230
1.0
 70
    12
 71
     2
 72
     6
 73
     3
 74
     0
 42
0.0000000001
 43
0.0000000001
 40
0.0
 40
0.0
 40
0.0
 40
0.1715427106131254
 40
0.1715427106131254
 40
0.1715427106131254
 10
28.03113246257903
 20
0.3446086001404169
 30
0.0
 41
1.0
 10
28.02760792620051
 20
0.258866974469895
 30
0.0
 41
0.9992541276325925
 10
28.0174768588833
 20
0.1736530659553708
 30
0.0
 41
1.0
  0
SPLINE
  5
DE
330
1F
100
AcDbEntity
  8
Default
100
AcDbSpline
210
0.0
220
0.0
230
1.0
 70
     8
 71
     3
 72
     8
 73
     4
 74
     0
 42
0.0000000001
 43
0.0000000001
 40
0.0
 40
0.0
 40
0.0
 40
0.0
 40
1.0
 40
1.0
 40
1.0
 40
1.0
 10
28.0174768588833
 20
0.1736530659553708
 30
0.0
 10
28.00632713260137
 20
0.0798710659348325
 30
0.0
 10
27.88804652456863
 20
0.0000000000000241
 30
0.0
 10
27.79360405571053
 20
0.0000000000000237
 30
0.0
  0
LINE
  5
DF
330
1F
100
AcDbEntity
  8
Default
100
AcDbLine
 10
27.79360405571053
 20
0.0000000000000237
 30
0.0
 11
26.32573127927651
 21
0.0000000000000122
 31
0.0
  0
SPLINE
  5
E0
330
1F
100
AcDbEntity
  8
Default
100
AcDbSpline
210
0.0
220
0.0
230
1.0
 70
    12
 71
     2
 72
     6
 73
     3
 74
     0
 42
0.0000000001
 43
0.0000000001
 40
-0.2660416618951972
 40
-0.2660416618951972
 40
-0.2660416618951972
 40
0.0
 40
0.0
 40
0.0
 10
26.32573127927651
 20
0.0000000000000122
 30
0.0
 41
1.0
 10
26.17410371555069
 20
0.0071679241737854
 30
0.0
 41
0.8243825005637507
 10
26.1263266266653
 20
0.151250008403655
 30
0.0
 41
1.0
  0
SPLINE
  5
E1
330
1F
100
AcDbEntity
  8
Default
100
AcDbSpline
210
0.0
220
0.0
230
1.0
 70
     8
 71
     3
 72
     9
 73
     5
 74
     0
 42
0.0000000001
 43
0.0000000001
 40
20.16594587105707
 40
20.16594587105707
 40
20.16594587105707
 40
20.16594587105707
 40
21.0
 40
21.78890390221419
 40
21.78890390221419
 40
21.78890390221419
 40
21.78890390221419
 10
30.9618404543516
 20
11.36817232207094
 30
0.0
 10
30.71937476207096
 20
11.4228619815581
 30
0.0
 10
30.25441895898605
 20
11.56082843688526
 30
0.0
 10
29.80872362221974
 20
11.75080669556043
 30
0.0
 10
29.59783889902115
 20
11.85483483281022
 30
0.0
  0
SPLINE
  5
E2
330
1F
100
AcDbEntity
  8
Default
100
AcDbSpline
210
0.0
220
0.0
230
1.0
 70
     8
 71
     3
 72
    16
 73
    12
 74
     0
 42
0.0000000001
 43
0.0000000001
 40
10.20824763343863
 40
10.20824763343863
 40
10.20824763343863
 40
10.20824763343863
 40
11.0
 40
12.0
 40
13.0
 40
14.0
 40
15.0
 40
16.0
 40
17.0
 40
18.0
 40
18.06736273315764
 40
18.06736273315764
 40
18.06736273315764
 40
18.06736273315764
 10
39.8326082585706
 20
11.69853584373661
 30
0.0
 10
39.59941164334653
 20
11.66212297737339
 30
0.0
 10
39.07078875843682
 20
11.58542337669241
 30
0.0
 10
38.24472578670097
 20
11.48371518342793
 30
0.0
 10
37.35450906298873
 20
11.3976747693851
 30
0.0
 10
36.46271885141913
 20
11.32968725262158
 30
0.0
 10
35.56954437171139
 20
11.28391150866032
 30
0.0
 10
34.67617930897343
 20
11.24346231584586
 30
0.0
 10
33.78222752098756
 20
11.21348150794254
 30
0.0
 10
33.16602402690795
 20
11.2128440051388
 30
0.0
 10
32.84774679019259
 20
11.21265073129964
 30
0.0
 10
32.82765957911552
 20
11.21264420015194
 30
0.0
  0
SPLINE
  5
E3
330
1F
100
AcDbEntity
  8
Make2D visible lines
100
AcDbSpline
210
0.0
220
0.0
230
1.0
 70
    12
 71
     2
 72
     6
 73
     3
 74
     0
 42
0.0000000001
 43
0.0000000001
 40
0.0
 40
0.0
 40
0.0
 40
1.946494377530773
 40
1.946494377530773
 40
1.946494377530773
 10
30.21268549353458
 20
11.85866470256931
 30
0.0
 41
1.0
 10
30.98262186998838
 20
11.23950279041793
 30
0.0
 41
0.9777372131974623
 10
31.94199273484757
 20
10.98997997939098
 30
0.0
 41
1.0
  0
SPLINE
  5
E4
330
1F
100
AcDbEntity
  8
Make2D visible lines
100
AcDbSpline
210
0.0
220
0.0
230
1.0
 70
     8
 71
     3
 72
    11
 73
     7
 74
     0
 42
0.0000000001
 43
0.0000000001
 40
0.0
 40
0.0
 40
0.0
 40
0.0
 40
0.4196919291784062
 40
0.6976150775001599
 40
0.7467532413215971
 40
1.039467887128562
 40
1.039467887128562
 40
1.039467887128562
 40
1.039467887128562
 10
31.94199273484757
 20
10.98997997939098
 30
0.0
 10
32.08031162806391
 20
10.95343768147915
 30
0.0
 10
32.30923337031598
 20
10.90875905493618
 30
0.0
 10
32.55182861479058
 20
10.8566789603242
 30
0.0
 10
32.75773028992738
 20
10.82857634371156
 30
0.0
 10
32.86761281113519
 20
10.92239357313235
 30
0.0
 10
32.88483716983617
 20
11.02086743248052
 30
0.0
  0
SPLINE
  5
E5
330
1F
100
AcDbEntity
  8
Make2D visible lines
100
AcDbSpline
210
0.0
220
0.0
230
1.0
 70
     8
 71
     3
 72
    12
 73
     8
 74
     0
 42
0.0000000001
 43
0.0000000001
 40
0.0
 40
0.0
 40
0.0
 40
0.0
 40
0.0705042199092246
 40
0.1431282627150424
 40
0.2852659170048956
 40
0.3344757646873034
 40
1.017718419022621
 40
1.017718419022621
 40
1.017718419022621
 40
1.017718419022621
 10
32.88483716983617
 20
11.02086743248052
 30
0.0
 10
32.88893888745049
 20
11.04495042244621
 30
0.0
 10
32.89040458580618
 20
11.10018216559762
 30
0.0
 10
32.85845420290602
 20
11.18139982255883
 30
0.0
 10
32.79381982159759
 20
11.25818641318619
 30
0.0
 10
32.50820926852687
 20
11.31596622329378
 30
0.0
 10
32.26714582459419
 20
11.35652108466264
 30
0.0
 10
32.0436208105636
 20
11.41556346743971
 30
0.0
  0
SPLINE
  5
E6
330
1F
100
AcDbEntity
  8
Make2D visible lines
100
AcDbSpline
210
0.0
220
0.0
230
1.0
 70
    12
 71
     2
 72
     6
 73
     3
 74
     0
 42
0.0000000001
 43
0.0000000001
 40
0.0
 40
0.0
 40
0.0
 40
1.772140572908841
 40
1.772140572908841
 40
1.772140572908841
 10
32.0436208105636
 20
11.41556346743971
 30
0.0
 41
1.0
 10
31.17024228038422
 20
11.64473868553964
 30
0.0
 41
0.9774902787265793
 10
30.46876892275919
 20
12.21405154153193
 30
0.0
 41
1.0
  0
SPLINE
  5
E7
330
1F
100
AcDbEntity
  8
Make2D visible lines
100
AcDbSpline
210
0.0
220
0.0
230
1.0
 70
     8
 71
     3
 72
    12
 73
     8
 74
     0
 42
0.0000000001
 43
0.0000000001
 40
0.0
 40
0.0
 40
0.0
 40
0.0
 40
0.2156803412029633
 40
0.4368707080375416
 40
0.8635677051415032
 40
1.293573178904501
 40
1.758188522809053
 40
1.758188522809053
 40
1.758188522809053
 40
1.758188522809053
 10
30.46876892275919
 20
12.21405154153193
 30
0.0
 10
30.40984465206973
 20
12.26162128860347
 30
0.0
 10
30.28609637411516
 20
12.33987208957403
 30
0.0
 10
30.01146724676977
 20
12.43389784776257
 30
0.0
 10
29.6410484179536
 20
12.41392740928093
 30
0.0
 10
29.25436877439389
 20
12.17848143615861
 30
0.0
 10
29.08678374406333
 20
11.92399001174881
 30
0.0
 10
29.02557048718095
 20
11.7761097914318
 30
0.0
  0
SPLINE
  5
E8
330
1F
100
AcDbEntity
  8
Make2D visible lines
100
AcDbSpline
210
0.0
220
0.0
230
1.0
 70
    24
 71
     2
 72
     6
 73
     3
 74
     0
 42
0.0000000001
 43
0.0000000001
 40
0.0
 40
0.0
 40
0.0
 40
10.66170904135123
 40
10.66170904135123
 40
10.66170904135123
 10
29.02557048718095
 20
11.7761097914318
 30
0.0
 10
27.03167029898163
 20
6.82838917488401
 30
0.0
 10
25.03777011078231
 20
1.880668558336224
 30
0.0
  0
SPLINE
  5
E9
330
1F
100
AcDbEntity
  8
Make2D visible lines
100
AcDbSpline
210
0.0
220
0.0
230
1.0
 70
     8
 71
     3
 72
    12
 73
     8
 74
     0
 42
0.0000000001
 43
0.0000000001
 40
0.0
 40
0.0
 40
0.0
 40
0.0
 40
0.3467521753746221
 40
0.6716705991412102
 40
1.245376892639522
 40
1.774064081213415
 40
2.318726595427466
 40
2.318726595427466
 40
2.318726595427466
 40
2.318726595427466
 10
25.03777011078231
 20
1.880668558336224
 30
0.0
 10
24.99389689666043
 20
1.772263020368184
 30
0.0
 10
24.92531451610215
 20
1.556958937189357
 30
0.0
 10
24.87001996769095
 20
1.146194563389029
 30
0.0
 10
24.94583037450213
 20
0.6605528456990877
 30
0.0
 10
25.33030701684962
 20
0.2328403624388516
 30
0.0
 10
25.69572041215494
 20
0.1509524442178886
 30
0.0
 10
25.87633067167346
 20
0.1512501707452093
 30
0.0
  0
SPLINE
  5
EA
330
1F
100
AcDbEntity
  8
Make2D visible lines
100
AcDbSpline
210
0.0
220
0.0
230
1.0
 70
    24
 71
     2
 72
     6
 73
     3
 74
     0
 42
0.0000000001
 43
0.0000000001
 40
0.0
 40
0.0
 40
0.0
 40
0.4220655206783377
 40
0.4220655206783377
 40
0.4220655206783377
 10
25.87633067167346
 20
0.1512501707452093
 30
0.0
 10
26.08760488805316
 20
0.1512500853726069
 30
0.0
 10
26.29887910443287
 20
0.1512500000000045
 30
0.0
  0
SPLINE
  5
EB
330
1F
100
AcDbEntity
  8
Make2D visible lines
100
AcDbSpline
210
0.0
220
0.0
230
1.0
 70
     8
 71
     3
 72
    11
 73
     7
 74
     0
 42
0.0000000001
 43
0.0000000001
 40
0.0
 40
0.0
 40
0.0
 40
0.0
 40
0.4159378345350481
 40
0.4818392722098486
 40
0.61768497100472
 40
0.752773533095209
 40
0.752773533095209
 40
0.752773533095209
 40
0.752773533095209
 10
34.40902220751205
 20
0.1512500000556773
 30
0.0
 10
34.54756799115606
 20
0.1583451110739899
 30
0.0
 10
34.70842116767393
 20
0.1414917295164001
 30
0.0
 10
34.91406611140549
 20
0.1588010538891932
 30
0.0
 10
35.00869714783937
 20
0.237433514730164
 30
0.0
 10
35.03837252536117
 20
0.3215601154978443
 30
0.0
 10
35.03857261603829
 20
0.3683607840883141
 30
0.0
  0
LINE
  5
EC
330
1F
100
AcDbEntity
  8
Default
100
AcDbLine
 10
45.0456262572463
 20
0.1512499999999969
 30
0.0
 11
45.0209974288319
 21
0.1881235128176343
 31
0.0
  0
ARC
  5
ED
330
1F
100
AcDbEntity
  8
Default
100
AcDbCircle
 10
45.27267475812424
 20
0.3562256892923296
 30
0.0
 40
0.3026546213347083
100
AcDbArc
 50
181.126406530082
 51
213.740045854108
  0
SPLINE
  5
EE
330
1F
100
AcDbEntity
  8
Default
100
AcDbSpline
210
0.0
220
0.0
230
1.0
 70
    12
 71
     2
 72
     6
 73
     3
 74
     0
 42
0.0000000001
 43
0.0000000001
 40
-0.1396938593169805
 40
-0.1396938593169805
 40
-0.1396938593169805
 40
0.0
 40
0.0
 40
0.0
 10
44.97007862231288
 20
0.3502760332277277
 30
0.0
 41
1.0
 10
44.96881996215465
 20
0.4214375658324448
 30
0.0
 41
0.977942097569061
 10
44.93872388272854
 20
0.4856289278781634
 30
0.0
 41
1.0
  0
SPLINE
  5
EF
330
1F
100
AcDbEntity
  8
Default
100
AcDbSpline
210
0.0
220
0.0
230
1.0
 70
    12
 71
     2
 72
     6
 73
     3
 74
     0
 42
0.0000000001
 43
0.0000000001
 40
-0.1043707694466919
 40
-0.1043707694466919
 40
-0.1043707694466919
 40
0.0
 40
0.0
 40
0.0
 10
44.93872388272854
 20
0.4856289278781634
 30
0.0
 41
1.0
 10
44.90547432188883
 20
0.5296435445783575
 30
0.0
 41
0.9209949828452051
 10
44.85073267005399
 20
0.5364384937091319
 30
0.0
 41
1.0
  0
SPLINE
  5
F0
330
1F
100
AcDbEntity
  8
Default
100
AcDbSpline
210
0.0
220
0.0
230
1.0
 70
     8
 71
     3
 72
     8
 73
     4
 74
     0
 42
0.0000000001
 43
0.0000000001
 40
0.0
 40
0.0
 40
0.0
 40
0.0
 40
1.0
 40
1.0
 40
1.0
 40
1.0
 10
44.85073267005399
 20
0.5364384937091319
 30
0.0
 10
44.83792960116143
 20
0.5380277077523087
 30
0.0
 10
44.82509423274151
 20
0.540000000000008
 30
0.0
 10
44.81219290822258
 20
0.540000000000008
 30
0.0
  0
SPLINE
  5
F1
330
1F
100
AcDbEntity
  8
Default
100
AcDbSpline
210
0.0
220
0.0
230
1.0
 70
    24
 71
     2
 72
     6
 73
     3
 74
     0
 42
0.0000000001
 43
0.0000000001
 40
0.0
 40
0.0
 40
0.0
 40
1.324002867092183
 40
1.324002867092183
 40
1.324002867092183
 10
44.81219290822258
 20
0.540000000000008
 30
0.0
 10
44.1501914746765
 20
0.5400000000000089
 30
0.0
 10
43.48819004113041
 20
0.5400000000000098
 30
0.0
  0
SPLINE
  5
F2
330
1F
100
AcDbEntity
  8
Default
100
AcDbSpline
210
0.0
220
0.0
230
1.0
 70
     8
 71
     3
 72
     8
 73
     4
 74
     0
 42
0.0000000001
 43
0.0000000001
 40
-1.0
 40
-1.0
 40
-1.0
 40
-1.0
 40
0.0
 40
0.0
 40
0.0
 40
0.0
 10
43.48819004113041
 20
0.5400000000000098
 30
0.0
 10
43.40079640273574
 20
0.5400000000000099
 30
0.0
 10
43.30978348560699
 20
0.4319284955974776
 30
0.0
 10
43.31337289910014
 20
0.3446086001404092
 30
0.0
  0
SPLINE
  5
F3
330
1F
100
AcDbEntity
  8
Default
100
AcDbSpline
210
0.0
220
0.0
230
1.0
 70
    12
 71
     2
 72
     6
 73
     3
 74
     0
 42
0.0000000001
 43
0.0000000001
 40
0.0
 40
0.0
 40
0.0
 40
0.1715427106131254
 40
0.1715427106131254
 40
0.1715427106131254
 10
43.31337289910014
 20
0.3446086001404092
 30
0.0
 41
1.0
 10
43.31689743547866
 20
0.2588669744698873
 30
0.0
 41
0.9992541276325925
 10
43.32702850279587
 20
0.1736530659553631
 30
0.0
 41
1.0
  0
SPLINE
  5
F4
330
1F
100
AcDbEntity
  8
Default
100
AcDbSpline
210
0.0
220
0.0
230
1.0
 70
     8
 71
     3
 72
     8
 73
     4
 74
     0
 42
0.0000000001
 43
0.0000000001
 40
0.0
 40
0.0
 40
0.0
 40
0.0
 40
1.0
 40
1.0
 40
1.0
 40
1.0
 10
43.32702850279587
 20
0.1736530659553631
 30
0.0
 10
43.3381782290778
 20
0.0798710659348248
 30
0.0
 10
43.45645883711053
 20
0.0000000000000164
 30
0.0
 10
43.55090130596864
 20
0.000000000000016
 30
0.0
  0
LINE
  5
F5
330
1F
100
AcDbEntity
  8
Default
100
AcDbLine
 10
43.55090130596864
 20
0.000000000000016
 30
0.0
 11
45.01877408240266
 21
0.0000000000000045
 31
0.0
  0
SPLINE
  5
F6
330
1F
100
AcDbEntity
  8
Default
100
AcDbSpline
210
0.0
220
0.0
230
1.0
 70
    12
 71
     2
 72
     6
 73
     3
 74
     0
 42
0.0000000001
 43
0.0000000001
 40
-0.2660416618951972
 40
-0.2660416618951972
 40
-0.2660416618951972
 40
0.0
 40
0.0
 40
0.0
 10
45.01877408240266
 20
0.0000000000000045
 30
0.0
 41
1.0
 10
45.17040164612848
 20
0.0071679241737777
 30
0.0
 41
0.8243825005637507
 10
45.21817873501386
 20
0.1512500084036474
 30
0.0
 41
1.0
  0
SPLINE
  5
F7
330
1F
100
AcDbEntity
  8
Make2D visible lines
100
AcDbSpline
210
0.0
220
0.0
230
1.0
 70
     8
 71
     3
 72
    13
 73
     9
 74
     0
 42
0.0000000001
 43
0.0000000001
 40
0.0
 40
0.0
 40
0.0
 40
0.0
 40
0.0645918922571933
 40
0.127569144864081
 40
0.2513808316523651
 40
0.3175277900059248
 40
0.3207867867362607
 40
0.7170587281926446
 40
0.7170587281926446
 40
0.7170587281926446
 40
0.7170587281926446
 10
35.04038282358192
 20
0.346385892231618
 30
0.0
 10
35.04275512433192
 20
0.3249450831641772
 30
0.0
 10
35.05368505411958
 20
0.2834954290521402
 30
0.0
 10
35.09755317214209
 20
0.210892073592651
 30
0.0
 10
35.17014873160038
 20
0.1618325785058019
 30
0.0
 10
35.23450529111267
 20
0.1512648036215163
 30
0.0
 10
35.38972023699937
 20
0.1512126780757154
 30
0.0
 10
35.52291180446477
 20
0.1512801696995873
 30
0.0
 10
35.66073374698256
 20
0.1512499974492805
 30
0.0
  0
SPLINE
  5
F8
330
1F
100
AcDbEntity
  8
Make2D visible lines
100
AcDbSpline
210
0.0
220
0.0
230
1.0
 70
    24
 71
     2
 72
     6
 73
     3
 74
     0
 42
0.0000000001
 43
0.0000000001
 40
0.0
 40
0.0
 40
0.0
 40
7.66562781082844
 40
7.66562781082844
 40
7.66562781082844
 10
35.66073374698256
 20
0.1512499974492805
 30
0.0
 10
39.49641658858909
 20
0.1512499987246438
 30
0.0
 10
43.33209943019563
 20
0.151250000000007
 30
0.0
  0
SPLINE
  5
F9
330
1F
100
AcDbEntity
  8
Make2D visible lines
100
AcDbSpline
210
0.0
220
0.0
230
1.0
 70
    12
 71
     2
 72
     6
 73
     3
 74
     0
 42
0.0000000001
 43
0.0000000001
 40
0.0
 40
0.0
 40
0.0
 40
0.0069107903204605
 40
0.0069107903204605
 40
0.0069107903204605
 10
32.88419711534695
 20
11.01743659990862
 30
0.0
 41
1.0
 10
32.88488530406871
 20
11.02082306390346
 30
0.0
 41
0.9998752443302995
 10
32.88546618139098
 20
11.02422957584995
 30
0.0
 41
1.0
  0
SPLINE
  5
FA
330
1F
100
AcDbEntity
  8
Default
100
AcDbSpline
210
0.0
220
0.0
230
1.0
 70
    12
 71
     2
 72
     6
 73
     3
 74
     0
 42
0.0000000001
 43
0.0000000001
 40
0.0
 40
0.0
 40
0.0
 40
0.3211240945390638
 40
0.3211240945390638
 40
0.3211240945390638
 10
35.03908487156079
 20
0.3683646126931484
 30
0.0
 41
1.0
 10
35.0376095183863
 20
0.5657029229883656
 30
0.0
 41
0.7425023569909016
 10
35.2337546172765
 20
0.5874212460938948
 30
0.0
 41
1.0
  0
SPLINE
  5
FB
330
1F
100
AcDbEntity
  8
Default
100
AcDbSpline
210
0.0
220
0.0
230
1.0
 70
    24
 71
     2
 72
     6
 73
     3
 74
     0
 42
0.0000000001
 43
0.0000000001
 40
0.0
 40
0.0
 40
0.0
 40
0.4188446961876835
 40
0.4188446961876835
 40
0.4188446961876835
 10
35.2337546172765
 20
0.5874212460938948
 30
0.0
 10
35.44317696537035
 20
0.5874212460490408
 30
0.0
 10
35.65259931346419
 20
0.5874212460041868
 30
0.0
  0
SPLINE
  5
FC
330
1F
100
AcDbEntity
  8
Default
100
AcDbSpline
210
0.0
220
0.0
230
1.0
 70
    24
 71
     2
 72
     6
 73
     3
 74
     0
 42
0.0000000001
 43
0.0000000001
 40
0.0
 40
0.0
 40
0.0
 40
9.878551154483567
 40
9.878551154483567
 40
9.878551154483567
 10
35.65259931346419
 20
0.5874212460041868
 30
0.0
 10
40.59187489070597
 20
0.5874212460041415
 30
0.0
 10
45.53115046794775
 20
0.5874212460040962
 30
0.0
  0
SPLINE
  5
FD
330
1F
100
AcDbEntity
  8
Default
100
AcDbSpline
210
0.0
220
0.0
230
1.0
 70
     8
 71
     3
 72
     8
 73
     4
 74
     0
 42
0.0000000001
 43
0.0000000001
 40
-1.0
 40
-1.0
 40
-1.0
 40
-1.0
 40
0.0
 40
0.0
 40
0.0
 40
0.0
 10
45.53115046794775
 20
0.5874212460040962
 30
0.0
 10
45.56479576556795
 20
0.5874212460040958
 30
0.0
 10
45.59856326612451
 20
0.5908637538263873
 30
0.0
 10
45.63161674514788
 20
0.5971465538712157
 30
0.0
  0
SPLINE
  5
FE
330
1F
100
AcDbEntity
  8
Default
100
AcDbSpline
210
0.0
220
0.0
230
1.0
 70
     8
 71
     3
 72
    12
 73
     8
 74
     0
 42
0.0000000001
 43
0.0000000001
 40
-1.256367916518869
 40
-1.256367916518869
 40
-1.256367916518869
 40
-1.256367916518869
 40
-0.9823984631797978
 40
-0.6757000851809867
 40
-0.3400530620765876
 40
-0.1710042736780821
 40
0.0
 40
0.0
 40
0.0
 40
0.0
 10
45.63161674514788
 20
0.5971465538712157
 30
0.0
 10
45.72165820031154
 20
0.6142616193727569
 30
0.0
 10
45.89729745187456
 20
0.7095271891638906
 30
0.0
 10
46.07724138269542
 20
0.9643176976111016
 30
0.0
 10
46.14476429191988
 20
1.230088982482319
 30
0.0
 10
46.14469670522872
 20
1.456238959567053
 30
0.0
 10
46.1253495578046
 20
1.568271903875915
 30
0.0
 10
46.10966685966748
 20
1.627411950362194
 30
0.0
  0
SPLINE
  5
FF
330
1F
100
AcDbEntity
  8
Default
100
AcDbSpline
210
0.0
220
0.0
230
1.0
 70
    24
 71
     2
 72
     6
 73
     3
 74
     0
 42
0.0000000001
 43
0.0000000001
 40
-10.41363611845926
 40
-10.41363611845926
 40
-10.41363611845926
 40
0.0
 40
0.0
 40
0.0
 10
46.10966685966748
 20
1.627411950362194
 30
0.0
 10
44.75464216488622
 20
6.659117063976371
 30
0.0
 10
43.39961747010496
 20
11.69082217759055
 30
0.0
  0
SPLINE
  5
100
330
1F
100
AcDbEntity
  8
Default
100
AcDbSpline
210
0.0
220
0.0
230
1.0
 70
    12
 71
     3
 72
    10
 73
     6
 74
     0
 42
0.0000000001
 43
0.0000000001
 40
-0.7432422403753207
 40
-0.7432422403753207
 40
-0.7432422403753207
 40
-0.7432422403753207
 40
-0.4087616417526939
 40
-0.2886660316447319
 40
-0.0000142522616549
 40
-0.0000142522616549
 40
-0.0000142522616549
 40
-0.0000142522616549
 10
43.39961747010496
 20
11.69082217759055
 30
0.0
 41
1.0
 10
43.36959144838174
 20
11.79928719277445
 30
0.0
 41
1.0
 10
43.30211295399086
 20
11.92649302819422
 30
0.0
 41
1.0
 10
43.15668016902742
 20
12.06741682048352
 30
0.0
 41
1.0
 10
43.06635149818479
 20
12.10953404820672
 30
0.0
 41
1.0
 10
43.00263350960473
 20
12.12193617116669
 30
0.0
 41
1.0
  0
SPLINE
  5
101
330
1F
100
AcDbEntity
  8
Default
100
AcDbSpline
210
0.0
220
0.0
230
1.0
 70
    12
 71
     2
 72
     6
 73
     3
 74
     0
 42
0.0000000001
 43
0.0000000001
 40
-0.0190705034318554
 40
-0.0190705034318554
 40
-0.0190705034318554
 40
0.0
 40
0.0
 40
0.0
 10
43.00263350960473
 20
12.12193617116669
 30
0.0
 41
1.0
 10
42.9932692330927
 20
12.12375946719421
 30
0.0
 41
0.999683517008335
 10
42.98383487562391
 20
12.12514386983682
 30
0.0
 41
0.999999871234565
  0
SPLINE
  5
102
330
1F
100
AcDbEntity
  8
Default
100
AcDbSpline
210
0.0
220
0.0
230
1.0
 70
    12
 71
     2
 72
     8
 73
     5
 74
     0
 42
0.0000000001
 43
0.0000000001
 40
0.0
 40
0.0
 40
0.0
 40
0.0924484761156222
 40
0.0924484761156222
 40
0.2336560678843569
 40
0.2336560678843569
 40
0.2336560678843569
 10
42.9838348756239
 20
12.12514386983682
 30
0.0
 41
0.9999995706939798
 10
42.93796585083975
 20
12.13210265331877
 30
0.0
 41
0.9945014947976099
 10
42.89165554447639
 20
12.12931942295961
 30
0.0
 41
1.0
 10
42.82060721607156
 20
12.12491311002677
 30
0.0
 41
0.9877784638459917
 10
42.75436772943836
 20
12.09884376071856
 30
0.0
 41
1.0
  0
ARC
  5
103
330
1F
100
AcDbEntity
  8
Default
100
AcDbCircle
 10
37.26353101260096
 20
26.07033683217787
 30
0.0
 40
15.01172563354411
100
AcDbArc
 50
281.427766877163
 51
291.4549686071014
  0
ARC
  5
104
330
1F
100
AcDbEntity
  8
Default
100
AcDbCircle
 10
40.61648318641892
 20
9.483038932934294
 30
0.0
 40
1.911061958284869
100
AcDbArc
 50
101.4277668771629
 51
111.017800297608
  0
SPLINE
  5
105
330
1F
100
AcDbEntity
  8
Default
100
AcDbSpline
210
0.0
220
0.0
230
1.0
 70
    12
 71
     2
 72
     6
 73
     3
 74
     0
 42
0.0000000001
 43
0.0000000001
 40
-0.1178533984600588
 40
-0.1178533984600588
 40
-0.1178533984600588
 40
0.0
 40
0.0
 40
0.0
 10
39.93106558157358
 20
11.26695611581349
 30
0.0
 41
1.0
 10
39.87922277389823
 20
11.2359761148388
 30
0.0
 41
0.9639516831847292
 10
39.81882875790464
 20
11.23597658348235
 30
0.0
 41
1.0
  0
SPLINE
  5
106
330
1F
100
AcDbEntity
  8
Default
100
AcDbSpline
210
0.0
220
0.0
230
1.0
 70
    12
 71
     2
 72
     8
 73
     5
 74
     0
 42
0.0000000001
 43
0.0000000001
 40
0.0
 40
0.0
 40
0.0
 40
0.1717819738134855
 40
0.1717819738134855
 40
0.343563947626971
 40
0.343563947626971
 40
0.343563947626971
 10
39.81882875790464
 20
11.23597658348235
 30
0.0
 41
1.0
 10
39.72823202056261
 20
11.23596297250521
 30
0.0
 41
0.9238778425203193
 10
39.66416139454709
 20
11.30001548131055
 30
0.0
 41
1.0
 10
39.60009076853158
 20
11.36406799011588
 30
0.0
 41
0.9238778425203193
 10
39.60007876625038
 20
11.45470744358629
 30
0.0
 41
1.0
  0
SPLINE
  5
107
330
1F
100
AcDbEntity
  8
Default
100
AcDbSpline
210
0.0
220
0.0
230
1.0
 70
     8
 71
     3
 72
    11
 73
     7
 74
     0
 42
0.0000000001
 43
0.0000000001
 40
-0.6923244433759334
 40
-0.6923244433759334
 40
-0.6923244433759334
 40
-0.6923244433759334
 40
-0.4552812475966863
 40
-0.384497341986419
 40
-0.2824629699385423
 40
0.0
 40
0.0
 40
0.0
 40
0.0
 10
39.60007876625038
 20
11.45470744358629
 30
0.0
 10
39.59820207917281
 20
11.53584121994334
 30
0.0
 10
39.66187225152954
 20
11.63113167107209
 30
0.0
 10
39.78873143616018
 20
11.68428107348924
 30
0.0
 10
39.93238858423584
 20
11.73198281140984
 30
0.0
 10
40.05825527704835
 20
11.75950213171444
 30
0.0
 10
40.15012502074126
 20
11.77914463824212
 30
0.0
  0
SPLINE
  5
108
330
1F
100
AcDbEntity
  8
Default
100
AcDbSpline
210
0.0
220
0.0
230
1.0
 70
    12
 71
     2
 72
     6
 73
     3
 74
     0
 42
0.0000000001
 43
0.0000000001
 40
-2.549388596132513
 40
-2.549388596132513
 40
-2.549388596132513
 40
0.0
 40
0.0
 40
0.0
 10
40.15012502074126
 20
11.77914463824212
 30
0.0
 41
1.0
 10
41.4345933378428
 20
12.03994323602687
 30
0.0
 41
0.9962671304741558
 10
42.62453607432583
 20
12.50578481718578
 30
0.0
 41
1.0
  0
SPLINE
  5
109
330
1F
100
AcDbEntity
  8
Default
100
AcDbSpline
210
0.0
220
0.0
230
1.0
 70
     8
 71
     3
 72
     8
 73
     4
 74
     0
 42
0.0000000001
 43
0.0000000001
 40
0.0
 40
0.0
 40
0.0
 40
0.0
 40
1.0
 40
1.0
 40
1.0
 40
1.0
 10
42.62453607432583
 20
12.50578481718578
 30
0.0
 10
42.88538752914783
 20
12.60790355822792
 30
0.0
 10
43.23847667387808
 20
12.55670018904231
 30
0.0
 10
43.45536398383803
 20
12.37941055727236
 30
0.0
  0
SPLINE
  5
10A
330
1F
100
AcDbEntity
  8
Default
100
AcDbSpline
210
0.0
220
0.0
230
1.0
 70
    12
 71
     2
 72
     6
 73
     3
 74
     0
 42
0.0000000001
 43
0.0000000001
 40
-0.6920571584047958
 40
-0.6920571584047958
 40
-0.6920571584047958
 40
0.0
 40
0.0
 40
0.0
 10
43.45536398383803
 20
12.37941055727236
 30
0.0
 41
1.0
 10
43.73262756415109
 20
12.15276770727804
 30
0.0
 41
0.9501587101388346
 10
43.82207649702951
 20
11.80458501807744
 30
0.0
 41
1.0
  0
SPLINE
  5
10B
330
1F
100
AcDbEntity
  8
Default
100
AcDbSpline
210
0.0
220
0.0
230
1.0
 70
    24
 71
     2
 72
     6
 73
     3
 74
     0
 42
0.0000000001
 43
0.0000000001
 40
-10.4191782813946
 40
-10.4191782813946
 40
-10.4191782813946
 40
0.0
 40
0.0
 40
0.0
 10
43.82207649702951
 20
11.80458501807744
 30
0.0
 10
45.17709932108588
 20
6.77287462359081
 30
0.0
 10
46.53212214514224
 20
1.741164229104183
 30
0.0
  0
SPLINE
  5
10C
330
1F
100
AcDbEntity
  8
Default
100
AcDbSpline
210
0.0
220
0.0
230
1.0
 70
     8
 71
     3
 72
    11
 73
     7
 74
     0
 42
0.0000000001
 43
0.0000000001
 40
-1.726404297546127
 40
-1.726404297546127
 40
-1.726404297546127
 40
-1.726404297546127
 40
-0.838716792329123
 40
-0.4044932505427863
 40
-0.1969251035520202
 40
0.0
 40
0.0
 40
0.0
 40
0.0
 10
46.53212214514224
 20
1.741164229104183
 30
0.0
 10
46.60917252607538
 20
1.454201412764787
 30
0.0
 10
46.58843150891086
 20
0.9921833407259197
 30
0.0
 10
46.32846107008878
 20
0.5445698325663991
 30
0.0
 10
46.12482086740066
 20
0.3506491829157447
 30
0.0
 10
46.0106775679759
 20
0.2779617928821737
 30
0.0
 10
45.95190496223695
 20
0.2486095729242301
 30
0.0
  0
SPLINE
  5
10D
330
1F
100
AcDbEntity
  8
Default
100
AcDbSpline
210
0.0
220
0.0
230
1.0
 70
     8
 71
     3
 72
     8
 73
     4
 74
     0
 42
0.0000000001
 43
0.0000000001
 40
-1.0
 40
-1.0
 40
-1.0
 40
-1.0
 40
0.0
 40
0.0
 40
0.0
 40
0.0
 10
45.95190496223695
 20
0.2486095729242301
 30
0.0
 10
45.82381199841775
 20
0.1846373736008588
 30
0.0
 10
45.67672611119889
 20
0.1512500000000062
 30
0.0
 10
45.5335470286964
 20
0.1512500000000063
 30
0.0
  0
LINE
  5
10E
330
1F
100
AcDbEntity
  8
Default
100
AcDbLine
 10
45.5335470286964
 20
0.1512500000000063
 30
0.0
 11
45.0456262572463
 21
0.1512499999999969
 31
0.0
  0
SPLINE
  5
10F
330
1F
100
AcDbEntity
  8
Default
100
AcDbSpline
210
0.0
220
0.0
230
1.0
 70
     8
 71
     3
 72
    42
 73
    38
 74
     0
 42
0.0000000001
 43
0.0000000001
 40
22.29505230341773
 40
22.29505230341773
 40
22.29505230341773
 40
22.29505230341773
 40
23.0
 40
24.0
 40
25.0
 40
26.0
 40
27.0
 40
28.0
 40
29.0
 40
30.0
 40
31.0
 40
32.0
 40
33.0
 40
34.0
 40
35.0
 40
36.0
 40
37.0
 40
38.0
 40
39.0
 40
40.0
 40
41.0
 40
42.0
 40
43.0
 40
44.0
 40
45.0
 40
46.0
 40
47.0
 40
48.0
 40
49.0
 40
50.0
 40
51.0
 40
52.0
 40
53.0
 40
54.0
 40
55.0
 40
56.0
 40
57.0
 40
57.0
 40
57.0
 40
57.0
 10
29.1993672298601
 20
12.06930647352664
 30
0.0
 10
29.01796033480126
 20
12.17538243301031
 30
0.0
 10
28.59174127298409
 20
12.45343734033706
 30
0.0
 10
27.97059347276095
 20
12.97031821913861
 30
0.0
 10
27.35858356273323
 20
13.62456383670103
 30
0.0
 10
26.8236497964328
 20
14.34279157501182
 30
0.0
 10
26.35696265994703
 20
15.10620741579589
 30
0.0
 10
25.91359009512389
 20
15.88289984396279
 30
0.0
 10
25.49443297437193
 20
16.67303627369085
 30
0.0
 10
25.09705804534557
 20
17.47428691025346
 30
0.0
 10
24.71903550056512
 20
18.2848417523997
 30
0.0
 10
24.35878148862983
 20
19.10343320092195
 30
0.0
 10
24.01462647159681
 20
19.92891719001256
 30
0.0
 10
23.68562218235584
 20
20.7605461895711
 30
0.0
 10
23.37067438657848
 20
21.59759790281343
 30
0.0
 10
23.06863727459519
 20
22.4393825388405
 30
0.0
 10
22.7776184743894
 20
23.28504274678382
 30
0.0
 10
22.49966143035075
 20
24.13509136034926
 30
0.0
 10
22.23496853063467
 20
24.98935968984919
 30
0.0
 10
21.98267705195849
 20
25.84736977387993
 30
0.0
 10
21.74174974154711
 20
26.70863587813458
 30
0.0
 10
21.51124095370704
 20
27.57274313962805
 30
0.0
 10
21.29014336727777
 20
28.43930621795518
 30
0.0
 10
21.07767073652583
 20
29.30802129336202
 30
0.0
 10
20.87329951286452
 20
30.178676666706
 30
0.0
 10
20.67646355226129
 20
31.05106507542551
 30
0.0
 10
20.48657792551829
 20
31.92498990176254
 30
0.0
 10
20.30320321278409
 20
32.80031005975943
 30
0.0
 10
20.12609692169728
 20
33.67689694564616
 30
0.0
 10
19.9549160349533
 20
34.5547449519739
 30
0.0
 10
19.78950961777349
 20
35.43337402800169
 30
0.0
 10
19.62899799580178
 20
36.31412594907093
 30
0.0
 10
19.47517690623364
 20
37.19154063776396
 30
0.0
 10
19.31982259127319
 20
38.08558328951604
 30
0.0
 10
19.19207844316353
 20
38.92133263453056
 30
0.0
 10
18.98160421681534
 20
39.97803100683346
 30
0.0
 10
19.80453835784659
 20
40.0277143872705
 30
0.0
 10
20.06675744435075
 20
40.03288012408714
 30
0.0
  0
SPLINE
  5
110
330
1F
100
AcDbEntity
  8
Default
100
AcDbSpline
210
0.0
220
0.0
230
1.0
 70
    12
 71
     3
 72
     8
 73
     4
 74
     0
 42
0.0000000001
 43
0.0000000001
 40
-19.66375890038411
 40
-19.66375890038411
 40
-19.66375890038411
 40
-19.66375890038411
 40
-19.31745184846394
 40
-19.31745184846394
 40
-19.31745184846394
 40
-19.31745184846394
 10
20.06675744435073
 20
40.03288012408713
 30
0.0
 41
1.000000000038776
 10
20.18207897598235
 20
40.03919670794486
 30
0.0
 41
0.9990122582833316
 10
20.2975826074145
 20
40.03942026066321
 30
0.0
 41
0.9990122582833316
 10
20.41292607536815
 20
40.03355011980512
 30
0.0
 41
1.000000000038776
  0
SPLINE
  5
111
330
1F
100
AcDbEntity
  8
Default
100
AcDbSpline
210
0.0
220
0.0
230
1.0
 70
     8
 71
     3
 72
    24
 73
    20
 74
     0
 42
0.0000000001
 43
0.0000000001
 40
0.0
 40
0.0
 40
0.0
 40
0.0
 40
1.0
 40
2.0
 40
3.0
 40
4.0
 40
5.0
 40
6.0
 40
7.0
 40
8.0
 40
9.0
 40
10.0
 40
11.0
 40
12.0
 40
13.0
 40
14.0
 40
15.0
 40
16.0
 40
17.0
 40
17.0
 40
17.0
 40
17.0
 10
20.41292607536816
 20
40.03355011980512
 30
0.0
 10
20.81727825749338
 20
40.01297154429097
 30
0.0
 10
21.42636663538263
 20
39.52571595734966
 30
0.0
 10
21.87043307591493
 20
38.47629478526519
 30
0.0
 10
22.05211912647233
 20
37.34765009558895
 30
0.0
 10
22.31105952696089
 20
36.24168490656133
 30
0.0
 10
22.5602141707166
 20
35.13207100155264
 30
0.0
 10
22.82288438362037
 20
34.02594722051372
 30
0.0
 10
23.09281349037333
 20
32.92148724253078
 30
0.0
 10
23.37163268335462
 20
31.81925592005286
 30
0.0
 10
23.65897625400417
 20
30.71921925647854
 30
0.0
 10
23.95457498997783
 20
29.62134721596056
 30
0.0
 10
24.25976851108991
 20
28.52618820285458
 30
0.0
 10
24.56935950206349
 20
27.43197962207075
 30
0.0
 10
24.90268885162774
 20
26.3456148975542
 30
0.0
 10
25.18747731544967
 20
25.24167793069916
 30
0.0
 10
25.74963022773687
 20
24.23401810452428
 30
0.0
 10
26.65740864234195
 20
23.51796565901586
 30
0.0
 10
27.3787839188854
 20
23.25400960114869
 30
0.0
 10
27.75586252757655
 20
23.20611523753809
 30
0.0
  0
SPLINE
  5
112
330
1F
100
AcDbEntity
  8
Default
100
AcDbSpline
210
0.0
220
0.0
230
1.0
 70
     8
 71
     3
 72
    24
 73
    20
 74
     0
 42
0.0000000001
 43
0.0000000001
 40
0.0
 40
0.0
 40
0.0
 40
0.0
 40
1.0
 40
2.0
 40
3.0
 40
4.0
 40
5.0
 40
6.0
 40
7.0
 40
8.0
 40
9.0
 40
10.0
 40
11.0
 40
12.0
 40
13.0
 40
14.0
 40
15.0
 40
16.0
 40
17.0
 40
17.0
 40
17.0
 40
17.0
 10
27.75586252757655
 20
23.20611523753809
 30
0.0
 10
28.09517234829866
 20
23.16626649971608
 30
0.0
 10
28.77415418065896
 20
23.08968452741912
 30
0.0
 10
29.79325096800416
 20
22.9805143724704
 30
0.0
 10
30.81250843235609
 20
22.87293066986263
 30
0.0
 10
31.8317990698231
 20
22.76544412966582
 30
0.0
 10
32.85121373371132
 20
22.65992631812532
 30
0.0
 10
33.87078651361463
 20
22.55302203025958
 30
0.0
 10
34.89162582775087
 20
22.46960393425528
 30
0.0
 10
35.9154637221892
 20
22.38228424614999
 30
0.0
 10
36.8963911833807
 20
22.06191650418489
 30
0.0
 10
37.8037314932393
 20
21.57975637349191
 30
0.0
 10
38.6070870148948
 20
20.93038749916136
 30
0.0
 10
39.22441844961477
 20
20.10776734093253
 30
0.0
 10
39.87585758591399
 20
19.31746503910924
 30
0.0
 10
40.5270131097415
 20
18.52567106322327
 30
0.0
 10
41.18330721006629
 20
17.73863728150972
 30
0.0
 10
41.82388485370379
 20
16.93781400687146
 30
0.0
 10
42.30759205857849
 20
16.4526512079403
 30
0.0
 10
42.58048258654375
 20
16.24594104322765
 30
0.0
  0
SPLINE
  5
113
330
1F
100
AcDbEntity
  8
Default
100
AcDbSpline
210
0.0
220
0.0
230
1.0
 70
     8
 71
     3
 72
    10
 73
     6
 74
     0
 42
0.0000000001
 43
0.0000000001
 40
0.0
 40
0.0
 40
0.0
 40
0.0
 40
1.0
 40
2.0
 40
3.0
 40
3.0
 40
3.0
 40
3.0
 10
42.58048258654375
 20
16.24594104322765
 30
0.0
 10
42.82528408087028
 20
16.05483888610704
 30
0.0
 10
43.35355010978283
 20
15.72135063245541
 30
0.0
 10
44.2243017351654
 20
15.38286108220782
 30
0.0
 10
44.84386602533529
 20
15.30656316868868
 30
0.0
 10
45.15640368464673
 20
15.34078683808191
 30
0.0
  0
SPLINE
  5
114
330
1F
100
AcDbEntity
  8
Default
100
AcDbSpline
210
0.0
220
0.0
230
1.0
 70
     8
 71
     3
 72
     8
 73
     4
 74
     0
 42
0.0000000001
 43
0.0000000001
 40
0.0
 40
0.0
 40
0.0
 40
0.0
 40
1.0
 40
1.0
 40
1.0
 40
1.0
 10
45.15640368464673
 20
15.34078683808191
 30
0.0
 10
45.93324643731464
 20
15.42585309728539
 30
0.0
 10
46.7150127832867
 20
15.4574985522813
 30
0.0
 10
47.49434774801183
 20
15.51544631828148
 30
0.0
  0
SPLINE
  5
115
330
1F
100
AcDbEntity
  8
Default
100
AcDbSpline
210
0.0
220
0.0
230
1.0
 70
    12
 71
     3
 72
    11
 73
     7
 74
     0
 42
0.0000000001
 43
0.0000000001
 40
-50.47595879078813
 40
-50.47595879078813
 40
-50.47595879078813
 40
-50.47595879078813
 40
-50.08581481269854
 40
-50.08581481269854
 40
-50.08581481269854
 40
-49.69567083460895
 40
-49.69567083460895
 40
-49.69567083460895
 40
-49.69567083460895
 10
47.49434774801181
 20
15.51544631828147
 30
0.0
 41
1.000000000038863
 10
47.62792469546693
 20
15.52537848614831
 30
0.0
 41
0.943135975376167
 10
47.75412189164056
 20
15.48048175433104
 30
0.0
 41
0.943135975376167
 10
47.8514110951068
 20
15.38841514942535
 30
0.0
 41
1.000000000038863
 10
47.94870029857305
 20
15.29634854451966
 30
0.0
 41
0.943135975376167
 10
48.00051123070274
 20
15.17228490522627
 30
0.0
 41
0.943135975376167
 10
47.9980053571289
 20
15.03738850507791
 30
0.0
 41
1.000000000038863
  0
SPLINE
  5
116
330
1F
100
AcDbEntity
  8
Default
100
AcDbSpline
210
0.0
220
0.0
230
1.0
 70
     8
 71
     3
 72
    14
 73
    10
 74
     0
 42
0.0000000001
 43
0.0000000001
 40
0.0
 40
0.0
 40
0.0
 40
0.0
 40
1.0
 40
2.0
 40
3.0
 40
4.0
 40
5.0
 40
6.0
 40
6.19494339287051
 40
6.19494339287051
 40
6.19494339287051
 40
6.19494339287051
 10
47.99800535712892
 20
15.03738850507791
 30
0.0
 10
48.00672443777394
 20
14.72413994296542
 30
0.0
 10
47.60809675761837
 20
14.23561539126366
 30
0.0
 10
46.85142018820176
 20
13.76430665715277
 30
0.0
 10
46.04017251450927
 20
13.38246783911668
 30
0.0
 10
45.20661402184295
 20
13.05883383268039
 30
0.0
 10
44.36205510751051
 20
12.76409374899167
 30
0.0
 10
43.73702926781608
 20
12.57016666577936
 30
0.0
 10
43.39456809840291
 20
12.47215419345711
 30
0.0
 10
43.33864370497862
 20
12.45635888786408
 30
0.0
  0
ARC
  5
117
330
1F
100
AcDbEntity
  8
Default
100
AcDbCircle
 10
40.42055103296241
 20
86.96845299948345
 30
0.0
 40
72.21373350180218
100
AcDbArc
 50
274.0562104814249
 51
276.0137156351834
  0
SPLINE
  5
118
330
1F
100
AcDbEntity
  8
Default
100
AcDbSpline
210
0.0
220
0.0
230
1.0
 70
     8
 71
     3
 72
    34
 73
    30
 74
     0
 42
0.0000000001
 43
0.0000000001
 40
0.0
 40
0.0
 40
0.0
 40
0.0
 40
1.0
 40
2.0
 40
3.0
 40
4.0
 40
5.0
 40
6.0
 40
7.0
 40
8.0
 40
9.0
 40
10.0
 40
11.0
 40
12.0
 40
13.0
 40
14.0
 40
15.0
 40
16.0
 40
17.0
 40
18.0
 40
19.0
 40
20.0
 40
21.0
 40
22.0
 40
23.0
 40
24.0
 40
25.0
 40
26.0
 40
27.0
 40
27.0
 40
27.0
 40
27.0
 10
45.5285972846395
 20
14.9356051468542
 30
0.0
 10
45.03016647717854
 20
14.90026005508468
 30
0.0
 10
44.05797427505858
 20
15.14894260944872
 30
0.0
 10
42.73568918194321
 20
15.85288350715066
 30
0.0
 10
41.68449422320181
 20
16.91388441088003
 30
0.0
 10
40.77290428205306
 20
18.0851322484766
 30
0.0
 10
39.80613032565357
 20
19.21247897853039
 30
0.0
 10
38.92792285078896
 20
20.41130049291846
 30
0.0
 10
37.87137190907359
 20
21.46505995403108
 30
0.0
 10
36.50522926648178
 20
22.11437470208438
 30
0.0
 10
35.031381885123
 20
22.32269594109172
 30
0.0
 10
33.54951503741182
 20
22.40983805742984
 30
0.0
 10
32.07356267818874
 20
22.57141293795193
 30
0.0
 10
30.59552518252005
 20
22.71091774139186
 30
0.0
 10
29.12152892922103
 20
22.8804822943257
 30
0.0
 10
27.63342354146675
 20
22.95163496434516
 30
0.0
 10
26.19615349378105
 20
23.37066279886836
 30
0.0
 10
25.09587373418602
 20
24.45923850030886
 30
0.0
 10
24.62091330148182
 20
25.87747706264658
 30
0.0
 10
24.1775829260754
 20
27.29108033698424
 30
0.0
 10
23.7437597355622
 20
28.71154986868279
 30
0.0
 10
23.32543281361509
 20
30.13561471190548
 30
0.0
 10
22.92102965095716
 20
31.56400102588267
 30
0.0
 10
22.53110212311138
 20
32.99622141629397
 30
0.0
 10
22.15525818390506
 20
34.43264126398659
 30
0.0
 10
21.79475102490944
 20
35.87141620687156
 30
0.0
 10
21.44518285720435
 20
37.3187058638064
 30
0.0
 10
21.12311033426841
 20
38.75084467590757
 30
0.0
 10
20.80409042747496
 20
39.73341529742996
 30
0.0
 10
20.41292607536816
 20
40.03355011980512
 30
0.0
  0
SPLINE
  5
119
330
1F
100
AcDbEntity
  8
Default
100
AcDbSpline
210
0.0
220
0.0
230
1.0
 70
     8
 71
     3
 72
    11
 73
     7
 74
     0
 42
0.0000000001
 43
0.0000000001
 40
0.0
 40
0.0
 40
0.0
 40
0.0
 40
1.78266746137814
 40
3.289323513938263
 40
4.454045277921154
 40
5.193467344251839
 40
5.193467344251839
 40
5.193467344251839
 40
5.193467344251839
 10
41.91659997740345
 20
16.86148656906505
 30
0.0
 10
42.50985441481762
 20
16.89554203546742
 30
0.0
 10
43.60479473684155
 20
16.95273682590188
 30
0.0
 10
45.08839340674366
 20
17.01140916678521
 30
0.0
 10
46.22509890874223
 20
17.03525642329109
 30
0.0
 10
46.90302355015879
 20
17.03040163442467
 30
0.0
 10
47.14857488139941
 20
17.00824207442758
 30
0.0
  0
SPLINE
  5
11A
330
1F
100
AcDbEntity
  8
Default
100
AcDbSpline
210
0.0
220
0.0
230
1.0
 70
    12
 71
     2
 72
     6
 73
     3
 74
     0
 42
0.0000000001
 43
0.0000000001
 40
-0.3467243252475303
 40
-0.3467243252475303
 40
-0.3467243252475303
 40
0.0
 40
0.0
 40
0.0
 10
47.14857488139941
 20
17.00824207442758
 30
0.0
 41
1.0
 10
47.35552152332435
 20
16.98956636004736
 30
0.0
 41
0.7690462387954597
 10
47.37500385488944
 20
16.7826940959122
 30
0.0
 41
1.0
  0
SPLINE
  5
11B
330
1F
100
AcDbEntity
  8
Default
100
AcDbSpline
210
0.0
220
0.0
230
1.0
 70
    24
 71
     2
 72
     6
 73
     3
 74
     0
 42
0.0000000001
 43
0.0000000001
 40
-1.272855017170293
 40
-1.272855017170293
 40
-1.272855017170293
 40
0.0
 40
0.0
 40
0.0
 10
47.37500385488944
 20
16.7826940959122
 30
0.0
 10
47.43467580145064
 20
16.14907020709684
 30
0.0
 10
47.49434774801183
 20
15.51544631828149
 30
0.0
  0
ENDSEC
  0
SECTION
  2
OBJECTS
  0
DICTIONARY
  5
C
330
0
100
AcDbDictionary
281
     1
  3
ACAD_GROUP
350
D
  3
ACAD_LAYOUT
350
1A
  3
ACAD_MLEADERSTYLE
350
11D
  3
ACAD_MLINESTYLE
350
17
  3
ACAD_PLOTSETTINGS
350
19
  3
ACAD_PLOTSTYLENAME
350
E
  3
ACAD_TABLESTYLE
350
11C
  3
ACAD_VISUALSTYLE
350
2A
  0
DICTIONARY
  5
D
102
{ACAD_REACTORS
330
C
102
}
330
C
100
AcDbDictionary
281
     1
  0
DICTIONARY
  5
1A
102
{ACAD_REACTORS
330
C
102
}
330
C
100
AcDbDictionary
281
     1
  3
Layout1
350
1E
  3
Layout2
350
26
  3
Model
350
22
  0
DICTIONARY
  5
11D
102
{ACAD_REACTORS
330
C
102
}
330
C
100
AcDbDictionary
281
     1
  0
DICTIONARY
  5
17
102
{ACAD_REACTORS
330
C
102
}
330
C
100
AcDbDictionary
281
     1
  3
Standard
350
18
  0
DICTIONARY
  5
19
102
{ACAD_REACTORS
330
C
102
}
330
C
100
AcDbDictionary
281
     1
  0
ACDBDICTIONARYWDFLT
  5
E
102
{ACAD_REACTORS
330
C
102
}
330
C
100
AcDbDictionary
281
     1
  3
Normal
350
F
100
AcDbDictionaryWithDefault
340
F
  0
DICTIONARY
  5
11C
102
{ACAD_REACTORS
330
C
102
}
330
C
100
AcDbDictionary
281
     1
  0
DICTIONARY
  5
2A
102
{ACAD_REACTORS
330
C
102
}
330
C
100
AcDbDictionary
281
     1
  3
2dWireframe
350
2F
  3
3D Hidden
350
31
  3
3dWireframe
350
30
  3
Basic
350
32
  3
Brighten
350
36
  3
ColorChange
350
3A
  3
Conceptual
350
34
  3
Dim
350
35
  3
Facepattern
350
39
  3
Flat
350
2B
  3
FlatWithEdges
350
2C
  3
Gouraud
350
2D
  3
GouraudWithEdges
350
2E
  3
Linepattern
350
38
  3
Realistic
350
33
  3
Thicken
350
37
  0
LAYOUT
  5
1E
102
{ACAD_REACTORS
330
1A
102
}
330
1A
100
AcDbPlotSettings
  1

  2
none_device
  4

  6

 40
0.0
 41
0.0
 42
0.0
 43
0.0
 44
0.0
 45
0.0
 46
0.0
 47
0.0
 48
0.0
 49
0.0
140
0.0
141
0.0
142
1.0
143
1.0
 70
   688
 72
     0
 73
     0
 74
     5
  7

 75
    16
 76
     0
 77
     2
 78
   300
147
1.0
148
0.0
149
0.0
100
AcDbLayout
  1
Layout1
 70
     1
 71
     1
 10
0.0
 20
0.0
 11
12.0
 21
9.0
 12
0.0
 22
0.0
 32
0.0
 14
1.000000000000000E+20
 24
1.000000000000000E+20
 34
1.000000000000000E+20
 15
-1.000000000000000E+20
 25
-1.000000000000000E+20
 35
-1.000000000000000E+20
146
0.0
 13
0.0
 23
0.0
 33
0.0
 16
1.0
 26
0.0
 36
0.0
 17
0.0
 27
1.0
 37
0.0
 76
     0
330
1B
  0
LAYOUT
  5
26
102
{ACAD_REACTORS
330
1A
102
}
330
1A
100
AcDbPlotSettings
  1

  2
none_device
  4

  6

 40
0.0
 41
0.0
 42
0.0
 43
0.0
 44
0.0
 45
0.0
 46
0.0
 47
0.0
 48
0.0
 49
0.0
140
0.0
141
0.0
142
1.0
143
1.0
 70
   688
 72
     0
 73
     0
 74
     5
  7

 75
    16
 76
     0
 77
     2
 78
   300
147
1.0
148
0.0
149
0.0
100
AcDbLayout
  1
Layout2
 70
     1
 71
     2
 10
0.0
 20
0.0
 11
0.0
 21
0.0
 12
0.0
 22
0.0
 32
0.0
 14
0.0
 24
0.0
 34
0.0
 15
0.0
 25
0.0
 35
0.0
146
0.0
 13
0.0
 23
0.0
 33
0.0
 16
1.0
 26
0.0
 36
0.0
 17
0.0
 27
1.0
 37
0.0
 76
     0
330
23
  0
LAYOUT
  5
22
102
{ACAD_REACTORS
330
1A
102
}
330
1A
100
AcDbPlotSettings
  1

  2
none_device
  4

  6

 40
0.0
 41
0.0
 42
0.0
 43
0.0
 44
0.0
 45
0.0
 46
0.0
 47
0.0
 48
0.0
 49
0.0
140
0.0
141
0.0
142
1.0
143
1.0
 70
  1712
 72
     0
 73
     0
 74
     0
  7

 75
     0
 76
     0
 77
     2
 78
   300
147
1.0
148
0.0
149
0.0
100
AcDbLayout
  1
Model
 70
     1
 71
     0
 10
0.0
 20
0.0
 11
12.0
 21
9.0
 12
0.0
 22
0.0
 32
0.0
 14
-13.96729270185218
 24
-0.0002651114711827
 34
0.0
 15
47.99800535713073
 25
76.3802034335111
 35
0.0
146
0.0
 13
0.0
 23
0.0
 33
0.0
 16
1.0
 26
0.0
 36
0.0
 17
0.0
 27
1.0
 37
0.0
 76
     0
330
1F
331
29
  0
MLINESTYLE
  5
18
102
{ACAD_REACTORS
330
17
102
}
330
17
100
AcDbMlineStyle
  2
Standard
 70
     0
  3

 62
   256
 51
90.0
 52
90.0
 71
     2
 49
0.5
 62
   256
  6
BYLAYER
 49
-0.5
 62
   256
  6
BYLAYER
  0
ACDBPLACEHOLDER
  5
F
102
{ACAD_REACTORS
330
E
102
}
330
E
  0
VISUALSTYLE
  5
2F
102
{ACAD_REACTORS
330
2A
102
}
330
2A
100
AcDbVisualStyle
  2
2dWireframe
 70
     4
 71
     0
 72
     2
 73
     0
 90
        0
 40
-0.6
 41
-30.0
 62
     5
 63
     7
421
 16777215
 74
     1
 91
        4
 64
     7
 65
   257
 75
     1
175
     1
 42
1.0
 92
        0
 66
   257
 43
1.0
 76
     1
 77
     6
 78
     2
 67
     7
 79
     5
170
     0
171
     0
290
     0
174
     0
 93
        1
 44
0.0
173
     0
291
     0
 45
0.0
1001
ACAD
1000
AcDbSavedByObjectVersion
1070
     0
  0
VISUALSTYLE
  5
31
102
{ACAD_REACTORS
330
2A
102
}
330
2A
100
AcDbVisualStyle
  2
3D Hidden
 70
     6
 71
     1
 72
     2
 73
     2
 90
        0
 40
-0.6
 41
-30.0
 62
     5
 63
     7
421
 16777215
 74
     2
 91
        2
 64
     7
 65
   257
 75
     2
175
     1
 42
40.0
 92
        0
 66
   257
 43
1.0
 76
     1
 77
     6
 78
     2
 67
     7
 79
     3
170
     0
171
     0
290
     0
174
     0
 93
        1
 44
0.0
173
     0
291
     0
 45
0.0
1001
ACAD
1000
AcDbSavedByObjectVersion
1070
     0
  0
VISUALSTYLE
  5
30
102
{ACAD_REACTORS
330
2A
102
}
330
2A
100
AcDbVisualStyle
  2
3dWireframe
 70
     5
 71
     0
 72
     2
 73
     0
 90
        0
 40
-0.6
 41
-30.0
 62
     5
 63
     7
421
 16777215
 74
     1
 91
        4
 64
     7
 65
   257
 75
     1
175
     1
 42
1.0
 92
        0
 66
   257
 43
1.0
 76
     1
 77
     6
 78
     2
 67
     7
 79
     5
170
     0
171
     0
290
     0
174
     0
 93
        1
 44
0.0
173
     0
291
     0
 45
0.0
1001
ACAD
1000
AcDbSavedByObjectVersion
1070
     0
  0
VISUALSTYLE
  5
32
102
{ACAD_REACTORS
330
2A
102
}
330
2A
100
AcDbVisualStyle
  2
Basic
 70
     7
 71
     1
 72
     0
 73
     1
 90
        0
 40
-0.6
 41
-30.0
 62
     5
 63
     7
421
 16777215
 74
     0
 91
        4
 64
     7
 65
   257
 75
     1
175
     1
 42
1.0
 92
        8
 66
     7
 43
1.0
 76
     1
 77
     6
 78
     2
 67
     7
 79
     5
170
     0
171
     0
290
     0
174
     0
 93
        1
 44
0.0
173
     0
291
     1
 45
0.0
1001
ACAD
1000
AcDbSavedByObjectVersion
1070
     0
  0
VISUALSTYLE
  5
36
102
{ACAD_REACTORS
330
2A
102
}
330
2A
100
AcDbVisualStyle
  2
Brighten
 70
    12
 71
     2
 72
     2
 73
     0
 90
        0
 40
-0.6
 41
-30.0
 62
     5
 63
     7
421
 16777215
 74
     1
 91
        4
 64
     7
 65
   257
 75
     1
175
     1
 42
1.0
 92
        8
 66
     7
 43
1.0
 76
     1
 77
     6
 78
     2
 67
     7
 79
     5
170
     0
171
     0
290
     0
174
     0
 93
        1
 44
50.0
173
     0
291
     1
 45
0.0
1001
ACAD
1000
AcDbSavedByObjectVersion
1070
     0
  0
VISUALSTYLE
  5
3A
102
{ACAD_REACTORS
330
2A
102
}
330
2A
100
AcDbVisualStyle
  2
ColorChange
 70
    16
 71
     2
 72
     2
 73
     3
 90
        0
 40
-0.6
 41
-30.0
 62
     5
 63
     8
421
  8421504
 74
     1
 91
        4
 64
     7
 65
   257
 75
     1
175
     1
 42
1.0
 92
        8
 66
     8
424
  8421504
 43
1.0
 76
     1
 77
     6
 78
     2
 67
     7
 79
     5
170
     0
171
     0
290
     0
174
     0
 93
        1
 44
0.0
173
     0
291
     1
 45
0.0
1001
ACAD
1000
AcDbSavedByObjectVersion
1070
     0
  0
VISUALSTYLE
  5
34
102
{ACAD_REACTORS
330
2A
102
}
330
2A
100
AcDbVisualStyle
  2
Conceptual
 70
     9
 71
     3
 72
     2
 73
     0
 90
        0
 40
-0.6
 41
-30.0
 62
     5
 63
     7
421
 16777215
 74
     2
 91
        2
 64
     7
 65
   257
 75
     1
175
     1
 42
40.0
 92
        8
 66
     7
 43
1.0
 76
     1
 77
     6
 78
     2
 67
     7
 79
     3
170
     0
171
     0
290
     0
174
     0
 93
        1
 44
0.0
173
     0
291
     0
 45
0.0
1001
ACAD
1000
AcDbSavedByObjectVersion
1070
     0
  0
VISUALSTYLE
  5
35
102
{ACAD_REACTORS
330
2A
102
}
330
2A
100
AcDbVisualStyle
  2
Dim
 70
    11
 71
     2
 72
     2
 73
     0
 90
        0
 40
-0.6
 41
-30.0
 62
     5
 63
     7
421
 16777215
 74
     1
 91
        4
 64
     7
 65
   257
 75
     1
175
     1
 42
1.0
 92
        8
 66
     7
 43
1.0
 76
     1
 77
     6
 78
     2
 67
     7
 79
     5
170
     0
171
     0
290
     0
174
     0
 93
        1
 44
-50.0
173
     0
291
     1
 45
0.0
1001
ACAD
1000
AcDbSavedByObjectVersion
1070
     0
  0
VISUALSTYLE
  5
39
102
{ACAD_REACTORS
330
2A
102
}
330
2A
100
AcDbVisualStyle
  2
Facepattern
 70
    15
 71
     2
 72
     2
 73
     0
 90
        0
 40
-0.6
 41
-30.0
 62
     5
 63
     7
421
 16777215
 74
     1
 91
        4
 64
     7
 65
   257
 75
     1
175
     1
 42
1.0
 92
        8
 66
     7
 43
1.0
 76
     1
 77
     6
 78
     2
 67
     7
 79
     5
170
     0
171
     0
290
     0
174
     0
 93
        1
 44
0.0
173
     0
291
     1
 45
0.0
1001
ACAD
1000
AcDbSavedByObjectVersion
1070
     0
  0
VISUALSTYLE
  5
2B
102
{ACAD_REACTORS
330
2A
102
}
330
2A
100
AcDbVisualStyle
  2
Flat
 70
     0
 71
     2
 72
     1
 73
     1
 90
        2
 40
-0.6
 41
30.0
 62
     5
 63
     7
421
 16777215
 74
     0
 91
        4
 64
     7
 65
   257
 75
     1
175
     1
 42
1.0
 92
        8
 66
     7
 43
1.0
 76
     1
 77
     6
 78
     2
 67
     7
 79
     5
170
     0
171
     0
290
     0
174
     0
 93
       13
 44
0.0
173
     0
291
     1
 45
0.0
1001
ACAD
1000
AcDbSavedByObjectVersion
1070
     0
  0
VISUALSTYLE
  5
2C
102
{ACAD_REACTORS
330
2A
102
}
330
2A
100
AcDbVisualStyle
  2
FlatWithEdges
 70
     1
 71
     2
 72
     1
 73
     1
 90
        2
 40
-0.6
 41
30.0
 62
     5
 63
     7
421
 16777215
 74
     1
 91
        4
 64
     7
 65
   257
 75
     1
175
     1
 42
1.0
 92
        0
 66
   257
 43
1.0
 76
     1
 77
     6
 78
     2
 67
     7
 79
     5
170
     0
171
     0
290
     0
174
     0
 93
       13
 44
0.0
173
     0
291
     1
 45
0.0
1001
ACAD
1000
AcDbSavedByObjectVersion
1070
     0
  0
VISUALSTYLE
  5
2D
102
{ACAD_REACTORS
330
2A
102
}
330
2A
100
AcDbVisualStyle
  2
Gouraud
 70
     2
 71
     2
 72
     2
 73
     1
 90
        2
 40
-0.6
 41
30.0
 62
     5
 63
     7
421
 16777215
 74
     0
 91
        4
 64
     7
 65
   257
 75
     1
175
     1
 42
1.0
 92
        0
 66
     7
 43
1.0
 76
     1
 77
     6
 78
     2
 67
     7
 79
     5
170
     0
171
     0
290
     0
174
     0
 93
       13
 44
0.0
173
     0
291
     1
 45
0.0
1001
ACAD
1000
AcDbSavedByObjectVersion
1070
     0
  0
VISUALSTYLE
  5
2E
102
{ACAD_REACTORS
330
2A
102
}
330
2A
100
AcDbVisualStyle
  2
GouraudWithEdges
 70
     3
 71
     2
 72
     2
 73
     1
 90
        2
 40
-0.6
 41
30.0
 62
     5
 63
     7
421
 16777215
 74
     1
 91
        4
 64
     7
 65
   257
 75
     1
175
     1
 42
1.0
 92
        0
 66
   257
 43
1.0
 76
     1
 77
     6
 78
     2
 67
     7
 79
     5
170
     0
171
     0
290
     0
174
     0
 93
       13
 44
0.0
173
     0
291
     1
 45
0.0
1001
ACAD
1000
AcDbSavedByObjectVersion
1070
     0
  0
VISUALSTYLE
  5
38
102
{ACAD_REACTORS
330
2A
102
}
330
2A
100
AcDbVisualStyle
  2
Linepattern
 70
    14
 71
     2
 72
     2
 73
     0
 90
        0
 40
-0.6
 41
-30.0
 62
     5
 63
     7
421
 16777215
 74
     1
 91
        4
 64
     7
 65
   257
 75
     7
175
     7
 42
1.0
 92
        8
 66
     7
 43
1.0
 76
     1
 77
     6
 78
     2
 67
     7
 79
     5
170
     0
171
     0
290
     0
174
     0
 93
        1
 44
0.0
173
     0
291
     1
 45
0.0
1001
ACAD
1000
AcDbSavedByObjectVersion
1070
     0
  0
VISUALSTYLE
  5
33
102
{ACAD_REACTORS
330
2A
102
}
330
2A
100
AcDbVisualStyle
  2
Realistic
 70
     8
 71
     2
 72
     2
 73
     0
 90
        0
 40
-0.6
 41
-30.0
 62
     5
 63
     7
421
 16777215
 74
     1
 91
        0
 64
     7
 65
   257
 75
     1
175
     1
 42
1.0
 92
        8
 66
     8
424
  7895160
 43
1.0
 76
     1
 77
     6
 78
     2
 67
     7
 79
     5
170
     0
171
     0
290
     0
174
     0
 93
       13
 44
0.0
173
     0
291
     0
 45
0.0
1001
ACAD
1000
AcDbSavedByObjectVersion
1070
     0
  0
VISUALSTYLE
  5
37
102
{ACAD_REACTORS
330
2A
102
}
330
2A
100
AcDbVisualStyle
  2
Thicken
 70
    13
 71
     2
 72
     2
 73
     0
 90
        0
 40
-0.6
 41
-30.0
 62
     5
 63
     7
421
 16777215
 74
     1
 91
        4
 64
     7
 65
   257
 75
     1
175
     1
 42
1.0
 92
       12
 66
     7
 43
1.0
 76
     1
 77
     6
 78
     2
 67
     7
 79
     5
170
     0
171
     0
290
     0
174
     0
 93
        1
 44
0.0
173
     0
291
     1
 45
0.0
1001
ACAD
1000
AcDbSavedByObjectVersion
1070
     0
  0
ENDSEC
  0
EOF
