  0
SECTION
  2
HEADER
  9
$ACADVER
  1
AC1018
  9
$ACADMAINTVER
 70
     0
  9
$DWGCODEPAGE
  3
ANSI_1252
  9
$INSBASE
 10
0.0
 20
0.0
 30
0.0
  9
$EXTMIN
 10
-14.64960402052019
 20
0.0000000000000034
 30
0.0
  9
$EXTMAX
 10
57.26436956481862
 20
78.18856570292016
 30
0.0
  9
$LIMMIN
 10
0.0
 20
0.0
  9
$LIMMAX
 10
12.0
 20
9.0
  9
$ORTHOMODE
 70
     0
  9
$REGENMODE
 70
     1
  9
$FILLMODE
 70
     1
  9
$QTEXTMODE
 70
     0
  9
$MIRRTEXT
 70
     1
  9
$LTSCALE
 40
0.0393700787401575
  9
$ATTMODE
 70
     1
  9
$TEXTSIZE
 40
0.2
  9
$TRACEWID
 40
0.05
  9
$TEXTSTYLE
  7
Standard
  9
$CLAYER
  8
Default
  9
$CELTYPE
  6
ByLayer
  9
$CECOLOR
 62
   256
  9
$CELTSCALE
 40
1.0
  9
$DISPSILH
 70
     0
  9
$DIMSCALE
 40
1.0
  9
$DIMASZ
 40
0.18
  9
$DIMEXO
 40
0.0625
  9
$DIMDLI
 40
0.38
  9
$DIMRND
 40
0.0
  9
$DIMDLE
 40
0.0
  9
$DIMEXE
 40
0.18
  9
$DIMTP
 40
0.0
  9
$DIMTM
 40
0.0
  9
$DIMTXT
 40
0.18
  9
$DIMCEN
 40
0.09
  9
$DIMTSZ
 40
0.0
  9
$DIMTOL
 70
     0
  9
$DIMLIM
 70
     0
  9
$DIMTIH
 70
     1
  9
$DIMTOH
 70
     1
  9
$DIMSE1
 70
     0
  9
$DIMSE2
 70
     0
  9
$DIMTAD
 70
     0
  9
$DIMZIN
 70
     0
  9
$DIMBLK
  1

  9
$DIMASO
 70
     1
  9
$DIMSHO
 70
     1
  9
$DIMPOST
  1

  9
$DIMAPOST
  1

  9
$DIMALT
 70
     0
  9
$DIMALTD
 70
     2
  9
$DIMALTF
 40
25.4
  9
$DIMLFAC
 40
1.0
  9
$DIMTOFL
 70
     0
  9
$DIMTVP
 40
0.0
  9
$DIMTIX
 70
     0
  9
$DIMSOXD
 70
     0
  9
$DIMSAH
 70
     0
  9
$DIMBLK1
  1

  9
$DIMBLK2
  1

  9
$DIMSTYLE
  2
Standard
  9
$DIMCLRD
 70
     0
  9
$DIMCLRE
 70
     0
  9
$DIMCLRT
 70
     0
  9
$DIMTFAC
 40
1.0
  9
$DIMGAP
 40
0.09
  9
$DIMJUST
 70
     0
  9
$DIMSD1
 70
     0
  9
$DIMSD2
 70
     0
  9
$DIMTOLJ
 70
     1
  9
$DIMTZIN
 70
     0
  9
$DIMALTZ
 70
     0
  9
$DIMALTTZ
 70
     0
  9
$DIMUPT
 70
     0
  9
$DIMDEC
 70
     4
  9
$DIMTDEC
 70
     4
  9
$DIMALTU
 70
     2
  9
$DIMALTTD
 70
     2
  9
$DIMTXSTY
  7
Standard
  9
$DIMAUNIT
 70
     0
  9
$DIMADEC
 70
     0
  9
$DIMALTRND
 40
0.0
  9
$DIMAZIN
 70
     0
  9
$DIMDSEP
 70
    46
  9
$DIMATFIT
 70
     3
  9
$DIMFRAC
 70
     0
  9
$DIMLDRBLK
  1

  9
$DIMLUNIT
 70
     2
  9
$DIMLWD
 70
    -2
  9
$DIMLWE
 70
    -2
  9
$DIMTMOVE
 70
     2
  9
$LUNITS
 70
     2
  9
$LUPREC
 70
     3
  9
$SKETCHINC
 40
0.1
  9
$FILLETRAD
 40
0.5
  9
$AUNITS
 70
     0
  9
$AUPREC
 70
     0
  9
$MENU
  1
.
  9
$ELEVATION
 40
0.0
  9
$PELEVATION
 40
0.0
  9
$THICKNESS
 40
0.0
  9
$LIMCHECK
 70
     0
  9
$CHAMFERA
 40
0.5
  9
$CHAMFERB
 40
0.5
  9
$CHAMFERC
 40
1.0
  9
$CHAMFERD
 40
0.0
  9
$SKPOLY
 70
     0
  9
$TDCREATE
 40
2456338.481252014
  9
$TDUCREATE
 40
2456338.689585347
  9
$TDUPDATE
 40
2456338.481252025
  9
$TDUUPDATE
 40
2456338.689585359
  9
$TDINDWG
 40
0.0000000116
  9
$TDUSRTIMER
 40
0.0000000116
  9
$USRTIMER
 70
     1
  9
$ANGBASE
 50
0.0
  9
$ANGDIR
 70
     0
  9
$PDMODE
 70
     0
  9
$PDSIZE
 40
0.0
  9
$PLINEWID
 40
0.0
  9
$SPLFRAME
 70
     0
  9
$SPLINETYPE
 70
     6
  9
$SPLINESEGS
 70
     8
  9
$HANDSEED
  5
104
  9
$SURFTAB1
 70
     6
  9
$SURFTAB2
 70
     6
  9
$SURFTYPE
 70
     6
  9
$SURFU
 70
     6
  9
$SURFV
 70
     6
  9
$UCSBASE
  2

  9
$UCSNAME
  2

  9
$UCSORG
 10
0.0
 20
0.0
 30
0.0
  9
$UCSXDIR
 10
1.0
 20
0.0
 30
0.0
  9
$UCSYDIR
 10
0.0
 20
1.0
 30
0.0
  9
$UCSORTHOREF
  2

  9
$UCSORTHOVIEW
 70
     0
  9
$UCSORGTOP
 10
0.0
 20
0.0
 30
0.0
  9
$UCSORGBOTTOM
 10
0.0
 20
0.0
 30
0.0
  9
$UCSORGLEFT
 10
0.0
 20
0.0
 30
0.0
  9
$UCSORGRIGHT
 10
0.0
 20
0.0
 30
0.0
  9
$UCSORGFRONT
 10
0.0
 20
0.0
 30
0.0
  9
$UCSORGBACK
 10
0.0
 20
0.0
 30
0.0
  9
$PUCSBASE
  2

  9
$PUCSNAME
  2

  9
$PUCSORG
 10
0.0
 20
0.0
 30
0.0
  9
$PUCSXDIR
 10
1.0
 20
0.0
 30
0.0
  9
$PUCSYDIR
 10
0.0
 20
1.0
 30
0.0
  9
$PUCSORTHOREF
  2

  9
$PUCSORTHOVIEW
 70
     0
  9
$PUCSORGTOP
 10
0.0
 20
0.0
 30
0.0
  9
$PUCSORGBOTTOM
 10
0.0
 20
0.0
 30
0.0
  9
$PUCSORGLEFT
 10
0.0
 20
0.0
 30
0.0
  9
$PUCSORGRIGHT
 10
0.0
 20
0.0
 30
0.0
  9
$PUCSORGFRONT
 10
0.0
 20
0.0
 30
0.0
  9
$PUCSORGBACK
 10
0.0
 20
0.0
 30
0.0
  9
$USERI1
 70
     0
  9
$USERI2
 70
     0
  9
$USERI3
 70
     0
  9
$USERI4
 70
     0
  9
$USERI5
 70
     0
  9
$USERR1
 40
0.0
  9
$USERR2
 40
0.0
  9
$USERR3
 40
0.0
  9
$USERR4
 40
0.0
  9
$USERR5
 40
0.0
  9
$WORLDVIEW
 70
     1
  9
$SHADEDGE
 70
     3
  9
$SHADEDIF
 70
    70
  9
$TILEMODE
 70
     1
  9
$MAXACTVP
 70
    64
  9
$PINSBASE
 10
0.0
 20
0.0
 30
0.0
  9
$PLIMCHECK
 70
     0
  9
$PEXTMIN
 10
1.000000000000000E+20
 20
1.000000000000000E+20
 30
1.000000000000000E+20
  9
$PEXTMAX
 10
-1.000000000000000E+20
 20
-1.000000000000000E+20
 30
-1.000000000000000E+20
  9
$PLIMMIN
 10
0.0
 20
0.0
  9
$PLIMMAX
 10
12.0
 20
9.0
  9
$UNITMODE
 70
     0
  9
$VISRETAIN
 70
     1
  9
$PLINEGEN
 70
     0
  9
$PSLTSCALE
 70
     1
  9
$TREEDEPTH
 70
  3020
  9
$CMLSTYLE
  2
Standard
  9
$CMLJUST
 70
     0
  9
$CMLSCALE
 40
1.0
  9
$PROXYGRAPHICS
 70
     1
  9
$MEASUREMENT
 70
     0
  9
$CELWEIGHT
370
    -1
  9
$ENDCAPS
280
     0
  9
$JOINSTYLE
280
     0
  9
$LWDISPLAY
290
     0
  9
$INSUNITS
 70
     1
  9
$HYPERLINKBASE
  1

  9
$STYLESHEET
  1

  9
$XEDIT
290
     1
  9
$CEPSNTYPE
380
     0
  9
$PSTYLEMODE
290
     1
  9
$FINGERPRINTGUID
  2
{AA256CF6-59BF-4311-B5CD-308FEE26FD20}
  9
$VERSIONGUID
  2
{FAEB1C32-E019-11D5-929B-00C0DF256EC4}
  9
$EXTNAMES
290
     1
  9
$PSVPSCALE
 40
0.0
  9
$OLESTARTUP
290
     0
  9
$SORTENTS
280
   127
  9
$INDEXCTL
280
     0
  9
$HIDETEXT
280
     1
  9
$XCLIPFRAME
290
     0
  9
$HALOGAP
280
     0
  9
$OBSCOLOR
 70
   257
  9
$OBSLTYPE
280
     0
  9
$INTERSECTIONDISPLAY
280
     0
  9
$INTERSECTIONCOLOR
 70
   257
  9
$DIMASSOC
280
     2
  9
$PROJECTNAME
  1

  0
ENDSEC
  0
SECTION
  2
CLASSES
  0
CLASS
  1
ACDBDICTIONARYWDFLT
  2
AcDbDictionaryWithDefault
  3
ObjectDBX Classes
 90
        0
 91
        4
280
     0
281
     0
  0
CLASS
  1
VISUALSTYLE
  2
AcDbVisualStyle
  3
ObjectDBX Classes
 90
     4095
 91
        4
280
     0
281
     0
  0
ENDSEC
  0
SECTION
  2
TABLES
  0
TABLE
  2
VPORT
  5
8
330
0
100
AcDbSymbolTable
 70
     1
  0
VPORT
  5
29
330
8
100
AcDbSymbolTableRecord
100
AcDbViewportTableRecord
  2
*Active
 70
     0
 10
0.0
 20
0.0
 11
1.0
 21
1.0
 12
21.30738277214921
 22
39.09428285146008
 13
0.0
 23
0.0
 14
0.5
 24
0.5
 15
0.5
 25
0.5
 16
0.0
 26
0.0
 36
1.0
 17
0.0
 27
0.0
 37
0.0
 40
79.75233701697856
 41
0.9197505151658382
 42
50.0
 43
0.0
 44
0.0
 50
0.0
 51
0.0
 71
     0
 72
   100
 73
     1
 74
     3
 75
     0
 76
     0
 77
     0
 78
     0
281
     0
 65
     1
110
0.0
120
0.0
130
0.0
111
1.0
121
0.0
131
0.0
112
0.0
122
1.0
132
0.0
 79
     0
146
0.0
  0
ENDTAB
  0
TABLE
  2
LTYPE
  5
5
330
0
100
AcDbSymbolTable
 70
     1
  0
LTYPE
  5
14
330
5
100
AcDbSymbolTableRecord
100
AcDbLinetypeTableRecord
  2
ByBlock
 70
     0
  3

 72
    65
 73
     0
 40
0.0
  0
LTYPE
  5
15
330
5
100
AcDbSymbolTableRecord
100
AcDbLinetypeTableRecord
  2
ByLayer
 70
     0
  3

 72
    65
 73
     0
 40
0.0
  0
LTYPE
  5
16
330
5
100
AcDbSymbolTableRecord
100
AcDbLinetypeTableRecord
  2
Continuous
 70
     0
  3
Solid line
 72
    65
 73
     0
 40
0.0
  0
ENDTAB
  0
TABLE
  2
LAYER
  5
2
330
0
100
AcDbSymbolTable
 70
     4
  0
LAYER
  5
10
330
2
100
AcDbSymbolTableRecord
100
AcDbLayerTableRecord
  2
0
 70
     0
 62
     7
  6
Continuous
370
    -3
390
F
  0
LAYER
  5
3B
330
2
100
AcDbSymbolTableRecord
100
AcDbLayerTableRecord
  2
Make2D visible lines
 70
     0
 62
     7
  6
Continuous
370
    -3
390
F
  0
LAYER
  5
62
330
2
100
AcDbSymbolTableRecord
100
AcDbLayerTableRecord
  2
Make2D visible lines - Tangent
 70
     0
 62
     7
  6
Continuous
370
    -3
390
F
  0
LAYER
  5
A3
330
2
100
AcDbSymbolTableRecord
100
AcDbLayerTableRecord
  2
Default
 70
     0
 62
     7
  6
Continuous
370
    -3
390
F
  0
ENDTAB
  0
TABLE
  2
STYLE
  5
3
330
0
100
AcDbSymbolTable
 70
     1
  0
STYLE
  5
11
330
3
100
AcDbSymbolTableRecord
100
AcDbTextStyleTableRecord
  2
Standard
 70
     0
 40
0.0
 41
1.0
 50
0.0
 71
     0
 42
0.2
  3
txt
  4

  0
ENDTAB
  0
TABLE
  2
VIEW
  5
6
330
0
100
AcDbSymbolTable
 70
     0
  0
ENDTAB
  0
TABLE
  2
UCS
  5
7
330
0
100
AcDbSymbolTable
 70
     0
  0
ENDTAB
  0
TABLE
  2
APPID
  5
9
330
0
100
AcDbSymbolTable
 70
     1
  0
APPID
  5
12
330
9
100
AcDbSymbolTableRecord
100
AcDbRegAppTableRecord
  2
ACAD
 70
     0
  0
ENDTAB
  0
TABLE
  2
DIMSTYLE
  5
A
330
0
100
AcDbSymbolTable
 70
     1
100
AcDbDimStyleTable
  0
DIMSTYLE
105
27
330
A
100
AcDbSymbolTableRecord
100
AcDbDimStyleTableRecord
  2
Standard
 70
     0
340
11
  0
ENDTAB
  0
TABLE
  2
BLOCK_RECORD
  5
1
330
0
100
AcDbSymbolTable
 70
     1
  0
BLOCK_RECORD
  5
1F
330
1
100
AcDbSymbolTableRecord
100
AcDbBlockTableRecord
  2
*Model_Space
340
22
  0
BLOCK_RECORD
  5
1B
330
1
100
AcDbSymbolTableRecord
100
AcDbBlockTableRecord
  2
*Paper_Space
340
1E
  0
BLOCK_RECORD
  5
23
330
1
100
AcDbSymbolTableRecord
100
AcDbBlockTableRecord
  2
*Paper_Space0
340
26
  0
ENDTAB
  0
ENDSEC
  0
SECTION
  2
BLOCKS
  0
BLOCK
  5
20
330
1F
100
AcDbEntity
  8
0
100
AcDbBlockBegin
  2
*Model_Space
 70
     0
 10
0.0
 20
0.0
 30
0.0
  3
*Model_Space
  1

  0
ENDBLK
  5
21
330
1F
100
AcDbEntity
  8
0
100
AcDbBlockEnd
  0
BLOCK
  5
1C
330
1B
100
AcDbEntity
 67
     1
  8
0
100
AcDbBlockBegin
  2
*Paper_Space
 70
     0
 10
0.0
 20
0.0
 30
0.0
  3
*Paper_Space
  1

  0
ENDBLK
  5
1D
330
1B
100
AcDbEntity
 67
     1
  8
0
100
AcDbBlockEnd
  0
BLOCK
  5
24
330
23
100
AcDbEntity
  8
0
100
AcDbBlockBegin
  2
*Paper_Space0
 70
     0
 10
0.0
 20
0.0
 30
0.0
  3
*Paper_Space0
  1

  0
ENDBLK
  5
25
330
23
100
AcDbEntity
  8
0
100
AcDbBlockEnd
  0
ENDSEC
  0
SECTION
  2
ENTITIES
  0
SPLINE
  5
3C
330
1F
100
AcDbEntity
  8
Make2D visible lines
100
AcDbSpline
210
0.0
220
0.0
230
1.0
 70
     8
 71
     3
 72
     8
 73
     4
 74
     0
 42
0.0000000001
 43
0.0000000001
 40
0.6950384688492743
 40
0.6950384688492743
 40
0.6950384688492743
 40
0.6950384688492743
 40
1.0
 40
1.0
 40
1.0
 40
1.0
 10
43.09182545515017
 20
3.673125576136301
 30
0.0
 10
43.34032008411272
 20
3.670158211529776
 30
0.0
 10
43.58877314422623
 20
3.664870965980719
 30
0.0
 10
43.83711963857024
 20
3.65726383948913
 30
0.0
  0
SPLINE
  5
3D
330
1F
100
AcDbEntity
  8
Make2D visible lines
100
AcDbSpline
210
0.0
220
0.0
230
1.0
 70
    12
 71
     3
 72
     8
 73
     4
 74
     0
 42
0.0000000001
 43
0.0000000001
 40
-0.9983344876344831
 40
-0.9983344876344831
 40
-0.9983344876344831
 40
-0.9983344876344831
 40
0.0
 40
0.0
 40
0.0
 40
0.0
 10
43.83711963857024
 20
3.65726383948913
 30
0.0
 41
1.0
 10
44.29178237733986
 20
3.64333701932616
 30
0.0
 41
1.0
 10
44.7441651531161
 20
3.574404695741988
 30
0.0
 41
1.0
 10
45.19501644368707
 20
3.511811827671384
 30
0.0
 41
1.0
  0
SPLINE
  5
3E
330
1F
100
AcDbEntity
  8
Make2D visible lines
100
AcDbSpline
210
0.0
220
0.0
230
1.0
 70
    24
 71
     2
 72
     6
 73
     3
 74
     0
 42
0.0000000001
 43
0.0000000001
 40
0.0
 40
0.0
 40
0.0
 40
10.36850216633574
 40
10.36850216633574
 40
10.36850216633574
 10
45.19501644368707
 20
3.511811827671384
 30
0.0
 10
50.33001644368707
 20
2.798906298637399
 30
0.0
 10
55.46501644368707
 20
2.086000769603414
 30
0.0
  0
SPLINE
  5
3F
330
1F
100
AcDbEntity
  8
Make2D visible lines
100
AcDbSpline
210
0.0
220
0.0
230
1.0
 70
     8
 71
     3
 72
    13
 73
     9
 74
     0
 42
0.0000000001
 43
0.0000000001
 40
0.0
 40
0.0
 40
0.0
 40
0.0
 40
0.1163337939371243
 40
0.2443108918713642
 40
0.4828690280123605
 40
0.5672189493277444
 40
0.750510233115731
 40
1.83258135608072
 40
1.83258135608072
 40
1.83258135608072
 40
1.83258135608072
 10
55.46501644368707
 20
2.086000769603414
 30
0.0
 10
55.50269536726016
 20
2.080693221901958
 30
0.0
 10
55.58363136125955
 20
2.057218183732865
 30
0.0
 10
55.71601298950972
 20
1.966768126584214
 30
0.0
 10
55.79839677042408
 20
1.830020096093349
 30
0.0
 10
55.80945238927565
 20
1.661268225296924
 30
0.0
 10
55.81752561026681
 20
1.211528658082631
 30
0.0
 10
55.8303508440803
 20
0.7898405850234216
 30
0.0
 10
55.83830116723628
 20
0.429267031622143
 30
0.0
  0
SPLINE
  5
40
330
1F
100
AcDbEntity
  8
Make2D visible lines
100
AcDbSpline
210
0.0
220
0.0
230
1.0
 70
     8
 71
     3
 72
    13
 73
     9
 74
     0
 42
0.0000000001
 43
0.0000000001
 40
-1.83258135608072
 40
-1.83258135608072
 40
-1.83258135608072
 40
-1.83258135608072
 40
-0.750510233115731
 40
-0.5672189493277444
 40
-0.4828690280123605
 40
-0.2443108918713642
 40
-0.1163337939371243
 40
0.0
 40
0.0
 40
0.0
 40
0.0
 10
29.39173172013774
 20
0.429267031622143
 30
0.0
 10
29.39968204329372
 20
0.7898405850234216
 30
0.0
 10
29.41250727710721
 20
1.211528658082631
 30
0.0
 10
29.42058049809838
 20
1.661268225296924
 30
0.0
 10
29.43163611694994
 20
1.830020096093349
 30
0.0
 10
29.5140198978643
 20
1.966768126584214
 30
0.0
 10
29.64640152611447
 20
2.057218183732865
 30
0.0
 10
29.72733752011387
 20
2.080693221901958
 30
0.0
 10
29.76501644368695
 20
2.086000769603414
 30
0.0
  0
SPLINE
  5
41
330
1F
100
AcDbEntity
  8
Make2D visible lines
100
AcDbSpline
210
0.0
220
0.0
230
1.0
 70
    24
 71
     2
 72
     6
 73
     3
 74
     0
 42
0.0000000001
 43
0.0000000001
 40
-10.36850216633574
 40
-10.36850216633574
 40
-10.36850216633574
 40
0.0
 40
0.0
 40
0.0
 10
29.76501644368695
 20
2.086000769603414
 30
0.0
 10
34.90001644368695
 20
2.798906298637399
 30
0.0
 10
40.03501644368696
 20
3.511811827671384
 30
0.0
  0
SPLINE
  5
42
330
1F
100
AcDbEntity
  8
Make2D visible lines
100
AcDbSpline
210
0.0
220
0.0
230
1.0
 70
    12
 71
     3
 72
     8
 73
     4
 74
     0
 42
0.0000000001
 43
0.0000000001
 40
0.0
 40
0.0
 40
0.0
 40
0.0
 40
0.9983344876344831
 40
0.9983344876344831
 40
0.9983344876344831
 40
0.9983344876344831
 10
40.03501644368696
 20
3.511811827671384
 30
0.0
 41
1.0
 10
40.48586773425792
 20
3.574404695741988
 30
0.0
 41
1.0
 10
40.93825051003416
 20
3.64333701932616
 30
0.0
 41
1.0
 10
41.39291324880378
 20
3.65726383948913
 30
0.0
 41
1.0
  0
SPLINE
  5
43
330
1F
100
AcDbEntity
  8
Make2D visible lines
100
AcDbSpline
210
0.0
220
0.0
230
1.0
 70
     8
 71
     3
 72
     8
 73
     4
 74
     0
 42
0.0000000001
 43
0.0000000001
 40
0.0
 40
0.0
 40
0.0
 40
0.0
 40
0.3051876163662417
 40
0.3051876163662417
 40
0.3051876163662417
 40
0.3051876163662417
 10
41.39291324880378
 20
3.65726383948913
 30
0.0
 10
41.64144385643738
 20
3.664876605573444
 30
0.0
 10
41.89008118790549
 20
3.670166049722532
 30
0.0
 10
42.1387601016228
 20
3.673132171936395
 30
0.0
  0
SPLINE
  5
44
330
1F
100
AcDbEntity
  8
Make2D visible lines
100
AcDbSpline
210
0.0
220
0.0
230
1.0
 70
     8
 71
     3
 72
     8
 73
     4
 74
     0
 42
0.0000000001
 43
0.0000000001
 40
0.6950384688492743
 40
0.6950384688492743
 40
0.6950384688492743
 40
0.6950384688492743
 40
1.0
 40
1.0
 40
1.0
 40
1.0
 10
0.4768090114631614
 20
3.673125576136301
 30
0.0
 10
0.7253036404257046
 20
3.670158211529776
 30
0.0
 10
0.9737567005392187
 20
3.664870965980719
 30
0.0
 10
1.222103194883235
 20
3.65726383948913
 30
0.0
  0
SPLINE
  5
45
330
1F
100
AcDbEntity
  8
Make2D visible lines
100
AcDbSpline
210
0.0
220
0.0
230
1.0
 70
    12
 71
     3
 72
     8
 73
     4
 74
     0
 42
0.0000000001
 43
0.0000000001
 40
-0.9983344876344831
 40
-0.9983344876344831
 40
-0.9983344876344831
 40
-0.9983344876344831
 40
0.0
 40
0.0
 40
0.0
 40
0.0
 10
1.222103194883235
 20
3.65726383948913
 30
0.0
 41
1.0
 10
1.676765933652849
 20
3.64333701932616
 30
0.0
 41
1.0
 10
2.129148709429085
 20
3.574404695741988
 30
0.0
 41
1.0
 10
2.580000000000052
 20
3.511811827671384
 30
0.0
 41
1.0
  0
SPLINE
  5
46
330
1F
100
AcDbEntity
  8
Make2D visible lines
100
AcDbSpline
210
0.0
220
0.0
230
1.0
 70
    24
 71
     2
 72
     6
 73
     3
 74
     0
 42
0.0000000001
 43
0.0000000001
 40
0.0
 40
0.0
 40
0.0
 40
10.36850216633574
 40
10.36850216633574
 40
10.36850216633574
 10
2.580000000000052
 20
3.511811827671384
 30
0.0
 10
7.715000000000055
 20
2.798906298637399
 30
0.0
 10
12.85000000000006
 20
2.086000769603414
 30
0.0
  0
SPLINE
  5
47
330
1F
100
AcDbEntity
  8
Make2D visible lines
100
AcDbSpline
210
0.0
220
0.0
230
1.0
 70
     8
 71
     3
 72
    13
 73
     9
 74
     0
 42
0.0000000001
 43
0.0000000001
 40
0.0
 40
0.0
 40
0.0
 40
0.0
 40
0.1163337939371243
 40
0.2443108918713642
 40
0.4828690280123605
 40
0.5672189493277444
 40
0.750510233115731
 40
1.83258135608072
 40
1.83258135608072
 40
1.83258135608072
 40
1.83258135608072
 10
12.85000000000006
 20
2.086000769603414
 30
0.0
 10
12.88767892357314
 20
2.080693221901958
 30
0.0
 10
12.96861491757254
 20
2.057218183732865
 30
0.0
 10
13.10099654582271
 20
1.966768126584214
 30
0.0
 10
13.18338032673707
 20
1.830020096093349
 30
0.0
 10
13.19443594558863
 20
1.661268225296924
 30
0.0
 10
13.2025091665798
 20
1.211528658082631
 30
0.0
 10
13.21533440039329
 20
0.7898405850234216
 30
0.0
 10
13.22328472354927
 20
0.429267031622143
 30
0.0
  0
SPLINE
  5
48
330
1F
100
AcDbEntity
  8
Make2D visible lines
100
AcDbSpline
210
0.0
220
0.0
230
1.0
 70
     8
 71
     3
 72
    13
 73
     9
 74
     0
 42
0.0000000001
 43
0.0000000001
 40
-1.83258135608072
 40
-1.83258135608072
 40
-1.83258135608072
 40
-1.83258135608072
 40
-0.750510233115731
 40
-0.5672189493277444
 40
-0.4828690280123605
 40
-0.2443108918713642
 40
-0.1163337939371243
 40
0.0
 40
0.0
 40
0.0
 40
0.0
 10
-13.22328472354927
 20
0.429267031622143
 30
0.0
 10
-13.21533440039329
 20
0.7898405850234216
 30
0.0
 10
-13.2025091665798
 20
1.211528658082631
 30
0.0
 10
-13.19443594558863
 20
1.661268225296924
 30
0.0
 10
-13.18338032673707
 20
1.830020096093349
 30
0.0
 10
-13.10099654582271
 20
1.966768126584214
 30
0.0
 10
-12.96861491757254
 20
2.057218183732865
 30
0.0
 10
-12.88767892357314
 20
2.080693221901958
 30
0.0
 10
-12.85000000000006
 20
2.086000769603414
 30
0.0
  0
SPLINE
  5
49
330
1F
100
AcDbEntity
  8
Make2D visible lines
100
AcDbSpline
210
0.0
220
0.0
230
1.0
 70
    24
 71
     2
 72
     6
 73
     3
 74
     0
 42
0.0000000001
 43
0.0000000001
 40
-10.36850216633574
 40
-10.36850216633574
 40
-10.36850216633574
 40
0.0
 40
0.0
 40
0.0
 10
-12.85000000000006
 20
2.086000769603414
 30
0.0
 10
-7.715000000000055
 20
2.798906298637399
 30
0.0
 10
-2.580000000000052
 20
3.511811827671384
 30
0.0
  0
SPLINE
  5
4A
330
1F
100
AcDbEntity
  8
Make2D visible lines
100
AcDbSpline
210
0.0
220
0.0
230
1.0
 70
    12
 71
     3
 72
     8
 73
     4
 74
     0
 42
0.0000000001
 43
0.0000000001
 40
0.0
 40
0.0
 40
0.0
 40
0.0
 40
0.9983344876344831
 40
0.9983344876344831
 40
0.9983344876344831
 40
0.9983344876344831
 10
-2.580000000000052
 20
3.511811827671384
 30
0.0
 41
1.0
 10
-2.129148709429085
 20
3.574404695741988
 30
0.0
 41
1.0
 10
-1.676765933652849
 20
3.64333701932616
 30
0.0
 41
1.0
 10
-1.222103194883235
 20
3.65726383948913
 30
0.0
 41
1.0
  0
SPLINE
  5
4B
330
1F
100
AcDbEntity
  8
Make2D visible lines
100
AcDbSpline
210
0.0
220
0.0
230
1.0
 70
     8
 71
     3
 72
     8
 73
     4
 74
     0
 42
0.0000000001
 43
0.0000000001
 40
0.0
 40
0.0
 40
0.0
 40
0.0
 40
0.3051876163662417
 40
0.3051876163662417
 40
0.3051876163662417
 40
0.3051876163662417
 10
-1.222103194883235
 20
3.65726383948913
 30
0.0
 10
-0.9735725872496357
 20
3.664876605573444
 30
0.0
 10
-0.7249352557815157
 20
3.670166049722532
 30
0.0
 10
-0.4762563420642089
 20
3.673132171936395
 30
0.0
  0
SPLINE
  5
4C
330
1F
100
AcDbEntity
  8
Make2D visible lines
100
AcDbSpline
210
0.0
220
0.0
230
1.0
 70
    12
 71
     2
 72
     6
 73
     3
 74
     0
 42
0.0000000001
 43
0.0000000001
 40
-0.0352706514985427
 40
-0.0352706514985427
 40
-0.0352706514985427
 40
0.0
 40
0.0
 40
0.0
 10
-13.24240847747864
 20
0.4020374895150737
 30
0.0
 41
1.0
 10
-13.22377320145242
 20
0.4092798636229074
 30
0.0
 41
0.8321381552760684
 10
-13.22328472354927
 20
0.429267031622143
 30
0.0
 41
1.0
  0
SPLINE
  5
4D
330
1F
100
AcDbEntity
  8
Make2D visible lines
100
AcDbSpline
210
0.0
220
0.0
230
1.0
 70
    12
 71
     2
 72
     6
 73
     3
 74
     0
 42
0.0000000001
 43
0.0000000001
 40
-0.0352706514985427
 40
-0.0352706514985427
 40
-0.0352706514985427
 40
0.0
 40
0.0
 40
0.0
 10
13.24240847747864
 20
0.4020374895150737
 30
0.0
 41
1.0
 10
13.22377320145242
 20
0.4092798636229074
 30
0.0
 41
0.8321381552760684
 10
13.22328472354927
 20
0.429267031622143
 30
0.0
 41
1.0
  0
SPLINE
  5
4E
330
1F
100
AcDbEntity
  8
Make2D visible lines
100
AcDbSpline
210
0.0
220
0.0
230
1.0
 70
    24
 71
     2
 72
     6
 73
     3
 74
     0
 42
0.0000000001
 43
0.0000000001
 40
0.0
 40
0.0
 40
0.0
 40
1.107594207465098
 40
1.107594207465098
 40
1.107594207465098
 10
29.22900663063301
 20
0.0000000000000036
 30
0.0
 10
28.67520952690046
 20
0.0000000000000036
 30
0.0
 10
28.12141242316791
 20
0.0000000000000036
 30
0.0
  0
SPLINE
  5
4F
330
1F
100
AcDbEntity
  8
Make2D visible lines
100
AcDbSpline
210
0.0
220
0.0
230
1.0
 70
    12
 71
     2
 72
     8
 73
     5
 74
     0
 42
0.0000000001
 43
0.0000000001
 40
0.0
 40
0.0
 40
0.0
 40
0.1269465231438366
 40
0.1269465231438366
 40
0.2538930462876731
 40
0.2538930462876731
 40
0.2538930462876731
 10
28.12141242316792
 20
0.0000000000000036
 30
0.0
 41
1.0
 10
28.05418785883256
 20
0.000000000000002
 30
0.0
 41
0.918360064844369
 10
28.00802001672429
 20
0.0488638148853193
 30
0.0
 41
1.0
 10
27.96185217461602
 20
0.0977276297706366
 30
0.0
 41
0.918360064844369
 10
27.96566332256091
 20
0.1648440748599159
 30
0.0
 41
1.0
  0
SPLINE
  5
50
330
1F
100
AcDbEntity
  8
Make2D visible lines
100
AcDbSpline
210
0.0
220
0.0
230
1.0
 70
    12
 71
     2
 72
     6
 73
     3
 74
     0
 42
0.0000000001
 43
0.0000000001
 40
0.0
 40
0.0
 40
0.0
 40
0.2412324278936833
 40
0.2412324278936833
 40
0.2412324278936833
 10
29.38496006303888
 20
0.1521885802082181
 30
0.0
 41
1.0
 10
29.38124065425295
 20
-0.0000000000000105
 30
0.0
 41
0.7156927337036098
 10
29.22900663063302
 20
0.0000000000000034
 30
0.0
 41
1.0
  0
SPLINE
  5
51
330
1F
100
AcDbEntity
  8
Make2D visible lines
100
AcDbSpline
210
0.0
220
0.0
230
1.0
 70
    24
 71
     2
 72
     6
 73
     3
 74
     0
 42
0.0000000001
 43
0.0000000001
 40
0.0
 40
0.0
 40
0.0
 40
0.2325105046476637
 40
0.2325105046476637
 40
0.2325105046476637
 10
29.38496015686773
 20
0.1521924194416825
 30
0.0
 10
29.38780052590369
 20
0.2684129683847045
 30
0.0
 10
29.39064089493965
 20
0.3846335173277264
 30
0.0
  0
SPLINE
  5
52
330
1F
100
AcDbEntity
  8
Make2D visible lines
100
AcDbSpline
210
0.0
220
0.0
230
1.0
 70
    24
 71
     2
 72
     6
 73
     3
 74
     0
 42
0.0000000001
 43
0.0000000001
 40
0.0
 40
0.0
 40
0.0
 40
0.2213623405233084
 40
0.2213623405233084
 40
0.2213623405233084
 10
27.97821297070673
 20
0.3858503918134666
 30
0.0
 10
27.97193814663382
 20
0.2753472333366913
 30
0.0
 10
27.96566332256091
 20
0.164844074859916
 30
0.0
  0
SPLINE
  5
53
330
1F
100
AcDbEntity
  8
Make2D visible lines
100
AcDbSpline
210
0.0
220
0.0
230
1.0
 70
    12
 71
     2
 72
     6
 73
     3
 74
     0
 42
0.0000000001
 43
0.0000000001
 40
0.0
 40
0.0
 40
0.0
 40
0.0224671519842366
 40
0.0224671519842366
 40
0.0224671519842366
 10
27.97822878041718
 20
0.3860938211857499
 30
0.0
 41
1.0
 10
27.97924554556131
 20
0.4000000000000348
 30
0.0
 41
0.7324347794791691
 10
27.99318884576511
 20
0.4000000000000183
 30
0.0
 41
1.0
  0
SPLINE
  5
54
330
1F
100
AcDbEntity
  8
Make2D visible lines
100
AcDbSpline
210
0.0
220
0.0
230
1.0
 70
    24
 71
     2
 72
     6
 73
     3
 74
     0
 42
0.0000000001
 43
0.0000000001
 40
0.0
 40
0.0
 40
0.0
 40
1.379419120443295
 40
1.379419120443295
 40
1.379419120443295
 10
27.99318884576511
 20
0.4000000000000163
 30
0.0
 10
28.68289840598676
 20
0.4000000000000162
 30
0.0
 10
29.37260796620841
 20
0.4000000000000161
 30
0.0
  0
SPLINE
  5
55
330
1F
100
AcDbEntity
  8
Make2D visible lines
100
AcDbSpline
210
0.0
220
0.0
230
1.0
 70
    12
 71
     2
 72
     8
 73
     5
 74
     0
 42
0.0000000001
 43
0.0000000001
 40
0.0
 40
0.0
 40
0.0
 40
0.0119642320224294
 40
0.0119642320224294
 40
0.0239284640448587
 40
0.0239284640448587
 40
0.0239284640448587
 10
29.37564537259291
 20
0.4000000000000163
 30
0.0
 41
1.0
 10
29.38196620065991
 20
0.4000000000000209
 30
0.0
 41
0.9215246294676533
 10
29.38638076359848
 20
0.3954762292814858
 30
0.0
 41
1.0
 10
29.39079532653706
 20
0.3909524585629509
 30
0.0
 41
0.9215246294676533
 10
29.39064089493965
 20
0.3846335173277264
 30
0.0
 41
1.0
  0
SPLINE
  5
56
330
1F
100
AcDbEntity
  8
Make2D visible lines
100
AcDbSpline
210
0.0
220
0.0
230
1.0
 70
    12
 71
     2
 72
     6
 73
     3
 74
     0
 42
0.0000000001
 43
0.0000000001
 40
-0.0371380794388858
 40
-0.0371380794388858
 40
-0.0371380794388858
 40
0.0
 40
0.0
 40
0.0
 10
57.23066002358576
 20
0.4022441987256987
 30
0.0
 41
1.0
 10
57.25043192870287
 20
0.4103542426935238
 30
0.0
 41
0.8144776561050845
 10
57.24922745668005
 20
0.4316908378358253
 30
0.0
 41
1.0
  0
SPLINE
  5
57
330
1F
100
AcDbEntity
  8
Make2D visible lines
100
AcDbSpline
210
0.0
220
0.0
230
1.0
 70
     8
 71
     3
 72
    12
 73
     8
 74
     0
 42
0.0000000001
 43
0.0000000001
 40
0.0
 40
0.0
 40
0.0
 40
0.0
 40
2.024931116884056
 40
2.121300252943487
 40
2.208073208949396
 40
2.641991453438839
 40
3.085460819895622
 40
3.085460819895622
 40
3.085460819895622
 40
3.085460819895622
 10
57.24922745668005
 20
0.4316908378358253
 30
0.0
 10
57.21052358467963
 20
1.105574847750693
 30
0.0
 10
57.17222092501552
 20
1.811593362411049
 30
0.0
 10
57.12939895821921
 20
2.546414843142783
 30
0.0
 10
57.08456473938336
 20
2.747953191239763
 30
0.0
 10
56.91600606378838
 20
3.034556781920432
 30
0.0
 10
56.64534071727383
 20
3.175838551528641
 30
0.0
 10
56.50101644368696
 20
3.205665827232744
 30
0.0
  0
SPLINE
  5
58
330
1F
100
AcDbEntity
  8
Make2D visible lines
100
AcDbSpline
210
0.0
220
0.0
230
1.0
 70
    24
 71
     2
 72
     6
 73
     3
 74
     0
 42
0.0000000001
 43
0.0000000001
 40
-12.2902709571203
 40
-12.2902709571203
 40
-12.2902709571203
 40
0.0
 40
0.0
 40
0.0
 10
56.50101644368696
 20
3.205665827232744
 30
0.0
 10
50.48301644368696
 20
4.449195501128249
 30
0.0
 10
44.46501644368696
 20
5.692725175023753
 30
0.0
  0
SPLINE
  5
59
330
1F
100
AcDbEntity
  8
Make2D visible lines
100
AcDbSpline
210
0.0
220
0.0
230
1.0
 70
    12
 71
     3
 72
    11
 73
     7
 74
     0
 42
0.0000000001
 43
0.0000000001
 40
0.0
 40
0.0
 40
0.0
 40
0.0
 40
0.2500000000000077
 40
0.500000000000056
 40
0.7500000000001044
 40
0.9903549301730069
 40
0.9903549301730069
 40
0.9903549301730069
 40
0.9903549301730069
 10
44.46501644368696
 20
5.692725175023753
 30
0.0
 41
1.0
 10
44.39254870271482
 20
5.707699549616471
 30
0.0
 41
1.0
 10
44.25090124203709
 20
5.771964450750453
 30
0.0
 41
1.0
 10
44.07005319011219
 20
5.941965920377697
 30
0.0
 41
1.0
 10
43.94422657511014
 20
6.15347175039408
 30
0.0
 41
1.0
 10
43.90906875830196
 20
6.303120864095799
 30
0.0
 41
1.0
 10
43.90652355600684
 20
6.378712134379271
 30
0.0
 41
1.0
  0
SPLINE
  5
5A
330
1F
100
AcDbEntity
  8
Make2D visible lines
100
AcDbSpline
210
0.0
220
0.0
230
1.0
 70
    24
 71
     2
 72
     6
 73
     3
 74
     0
 42
0.0000000001
 43
0.0000000001
 40
0.0
 40
0.0
 40
0.0
 40
0.080013140622857
 40
0.080013140622857
 40
0.080013140622857
 10
43.90652355600684
 20
6.378712134379271
 30
0.0
 10
43.90576999984695
 20
6.420856067189643
 30
0.0
 10
43.90501644368706
 20
6.463000000000015
 30
0.0
  0
SPLINE
  5
5B
330
1F
100
AcDbEntity
  8
Make2D visible lines
100
AcDbSpline
210
0.0
220
0.0
230
1.0
 70
    24
 71
     2
 72
     6
 73
     3
 74
     0
 42
0.0000000001
 43
0.0000000001
 40
0.0
 40
0.0
 40
0.0
 40
1.290000000000045
 40
1.290000000000045
 40
1.290000000000045
 10
43.90501644368706
 20
6.463000000000015
 30
0.0
 10
43.26001644368704
 20
6.463000000000015
 30
0.0
 10
42.61501644368701
 20
6.463000000000015
 30
0.0
  0
SPLINE
  5
5C
330
1F
100
AcDbEntity
  8
Make2D visible lines
100
AcDbSpline
210
0.0
220
0.0
230
1.0
 70
    24
 71
     2
 72
     6
 73
     3
 74
     0
 42
0.0000000001
 43
0.0000000001
 40
0.0
 40
0.0
 40
0.0
 40
1.289412297652113
 40
1.289412297652113
 40
1.289412297652113
 10
42.61501644368701
 20
6.463000000000015
 30
0.0
 10
41.97016336927398
 20
6.463000000000015
 30
0.0
 10
41.32531029486093
 20
6.463000000000015
 30
0.0
  0
SPLINE
  5
5D
330
1F
100
AcDbEntity
  8
Make2D visible lines
100
AcDbSpline
210
0.0
220
0.0
230
1.0
 70
    24
 71
     2
 72
     6
 73
     3
 74
     0
 42
0.0000000001
 43
0.0000000001
 40
-0.080013140622857
 40
-0.080013140622857
 40
-0.080013140622857
 40
0.0
 40
0.0
 40
0.0
 10
41.32531029486093
 20
6.463000000000015
 30
0.0
 10
41.32440981311406
 20
6.420856067189643
 30
0.0
 10
41.32350933136718
 20
6.378712134379271
 30
0.0
  0
SPLINE
  5
5E
330
1F
100
AcDbEntity
  8
Make2D visible lines
100
AcDbSpline
210
0.0
220
0.0
230
1.0
 70
    12
 71
     3
 72
    11
 73
     7
 74
     0
 42
0.0000000001
 43
0.0000000001
 40
-0.9903549301730069
 40
-0.9903549301730069
 40
-0.9903549301730069
 40
-0.9903549301730069
 40
-0.7500000000001044
 40
-0.500000000000056
 40
-0.2500000000000077
 40
0.0
 40
0.0
 40
0.0
 40
0.0
 10
41.32350933136718
 20
6.378712134379271
 30
0.0
 41
1.0
 10
41.32096412907207
 20
6.303120864095799
 30
0.0
 41
1.0
 10
41.28580631226389
 20
6.15347175039408
 30
0.0
 41
1.0
 10
41.15997969726183
 20
5.941965920377697
 30
0.0
 41
1.0
 10
40.97913164533693
 20
5.771964450750453
 30
0.0
 41
1.0
 10
40.8374841846592
 20
5.707699549616471
 30
0.0
 41
1.0
 10
40.76501644368707
 20
5.692725175023753
 30
0.0
 41
1.0
  0
SPLINE
  5
5F
330
1F
100
AcDbEntity
  8
Make2D visible lines
100
AcDbSpline
210
0.0
220
0.0
230
1.0
 70
    24
 71
     2
 72
     6
 73
     3
 74
     0
 42
0.0000000001
 43
0.0000000001
 40
0.0
 40
0.0
 40
0.0
 40
12.2902709571203
 40
12.2902709571203
 40
12.2902709571203
 10
40.76501644368707
 20
5.692725175023753
 30
0.0
 10
34.74701644368707
 20
4.449195501128249
 30
0.0
 10
28.72901644368707
 20
3.205665827232744
 30
0.0
  0
SPLINE
  5
60
330
1F
100
AcDbEntity
  8
Make2D visible lines
100
AcDbSpline
210
0.0
220
0.0
230
1.0
 70
     8
 71
     3
 72
    12
 73
     8
 74
     0
 42
0.0000000001
 43
0.0000000001
 40
-3.085460819895622
 40
-3.085460819895622
 40
-3.085460819895622
 40
-3.085460819895622
 40
-2.641991453438839
 40
-2.208073208949396
 40
-2.121300252943487
 40
-2.024931116884056
 40
0.0
 40
0.0
 40
0.0
 40
0.0
 10
28.72901644368707
 20
3.205665827232744
 30
0.0
 10
28.5846921701002
 20
3.175838551528641
 30
0.0
 10
28.31402682358564
 20
3.034556781920432
 30
0.0
 10
28.14546814799066
 20
2.747953191239763
 30
0.0
 10
28.10063392915482
 20
2.546414843142783
 30
0.0
 10
28.0578119623585
 20
1.811593362411049
 30
0.0
 10
28.0195093026944
 20
1.105574847750693
 30
0.0
 10
27.98080543069397
 20
0.4316908378358253
 30
0.0
  0
SPLINE
  5
61
330
1F
100
AcDbEntity
  8
Make2D visible lines
100
AcDbSpline
210
0.0
220
0.0
230
1.0
 70
    12
 71
     2
 72
     6
 73
     3
 74
     0
 42
0.0000000001
 43
0.0000000001
 40
0.0
 40
0.0
 40
0.0
 40
0.0371380794388858
 40
0.0371380794388858
 40
0.0371380794388858
 10
27.98080543069397
 20
0.4316908378358253
 30
0.0
 41
1.0
 10
27.97960095867115
 20
0.4103542426935238
 30
0.0
 41
0.8144776561050845
 10
27.99937286378827
 20
0.4022441987256987
 30
0.0
 41
1.0
  0
SPLINE
  5
63
330
1F
100
AcDbEntity
  8
Make2D visible lines - Tangent
100
AcDbSpline
210
0.0
220
0.0
230
1.0
 70
     8
 71
     3
 72
    54
 73
    50
 74
     0
 42
0.0000000001
 43
0.0000000001
 40
0.0
 40
0.0
 40
0.0
 40
0.0
 40
1.0
 40
2.0
 40
3.0
 40
4.0
 40
5.0
 40
6.0
 40
7.0
 40
8.0
 40
9.0
 40
10.0
 40
11.0
 40
12.0
 40
13.0
 40
14.0
 40
15.0
 40
16.0
 40
17.0
 40
18.0
 40
19.0
 40
20.0
 40
21.0
 40
22.0
 40
23.0
 40
24.0
 40
25.0
 40
26.0
 40
27.0
 40
28.0
 40
29.0
 40
30.0
 40
31.0
 40
32.0
 40
33.0
 40
34.0
 40
35.0
 40
36.0
 40
37.0
 40
38.0
 40
39.0
 40
40.0
 40
41.0
 40
42.0
 40
43.0
 40
44.0
 40
45.0
 40
46.0
 40
47.0
 40
47.0
 40
47.0
 40
47.0
 10
43.00059048277018
 20
0.403329261439214
 30
0.0
 10
43.02586076211671
 20
0.471691761030031
 30
0.0
 10
43.00782364649061
 20
0.6333535261625483
 30
0.0
 10
43.00859470873916
 20
0.8657327374605353
 30
0.0
 10
43.00201707161306
 20
1.100824691898526
 30
0.0
 10
42.99722308779433
 20
1.335184942048012
 30
0.0
 10
42.99193671666011
 20
1.569741898107297
 30
0.0
 10
42.98682619228469
 20
1.804245165096962
 30
0.0
 10
42.9821911742717
 20
2.038780643129261
 30
0.0
 10
42.97686129189375
 20
2.27327054669982
 30
0.0
 10
42.97617445746255
 20
2.50795635439968
 30
0.0
 10
42.99142153070245
 20
2.742035110000107
 30
0.0
 10
43.01659103232997
 20
2.975291767990851
 30
0.0
 10
43.04121813127318
 20
3.208581524431251
 30
0.0
 10
43.06545061147957
 20
3.44180444554645
 30
0.0
 10
43.09601005834661
 20
3.674811437325082
 30
0.0
 10
43.10233314267312
 20
3.908675454710889
 30
0.0
 10
43.08778008622586
 20
4.14316108458999
 30
0.0
 10
43.07723910236287
 20
4.377402299909646
 30
0.0
 10
43.0668766105384
 20
4.611784456659724
 30
0.0
 10
43.0547705111597
 20
4.845964675118837
 30
0.0
 10
43.04302050256182
 20
5.080512320442788
 30
0.0
 10
43.00467764996926
 20
5.312100872344999
 30
0.0
 10
42.92138089225633
 20
5.534912960303022
 30
0.0
 10
42.74117151460975
 20
5.701053020982688
 30
0.0
 10
42.48596175737421
 20
5.700046595423096
 30
0.0
 10
42.30727598235828
 20
5.532266007601516
 30
0.0
 10
42.22464075739712
 20
5.309372210240867
 30
0.0
 10
42.18679935921073
 20
5.077673675160892
 30
0.0
 10
42.17509508673621
 20
4.843140061617282
 30
0.0
 10
42.16306479157247
 20
4.608952622806954
 30
0.0
 10
42.15261953623322
 20
4.374572197465292
 30
0.0
 10
42.14221087605507
 20
4.140337130437424
 30
0.0
 10
42.1272616275431
 20
3.905822607503123
 30
0.0
 10
42.13508572594923
 20
3.67206586450394
 30
0.0
 10
42.16541743624275
 20
3.439049497872843
 30
0.0
 10
42.18906286066223
 20
3.205758678338231
 30
0.0
 10
42.21305976033802
 20
2.972405099167784
 30
0.0
 10
42.23844135696391
 20
2.739167888374083
 30
0.0
 10
42.2540274179712
 20
2.505129568181835
 30
0.0
 10
42.25300358640477
 20
2.270431807711549
 30
0.0
 10
42.24785067199891
 20
2.035943620623493
 30
0.0
 10
42.243108798633
 20
1.801408320125761
 30
0.0
 10
42.23793633349188
 20
1.566909832637999
 30
0.0
 10
42.23259495414857
 20
1.332342661516703
 30
0.0
 10
42.22816908606394
 20
1.098016778736779
 30
0.0
 10
42.22117917199742
 20
0.8627750502036662
 30
0.0
 10
42.22286909087921
 20
0.6309690073439601
 30
0.0
 10
42.20255676793687
 20
0.4678802044313225
 30
0.0
 10
42.23202258852131
 20
0.4021512543515627
 30
0.0
  0
SPLINE
  5
64
330
1F
100
AcDbEntity
  8
Make2D visible lines
100
AcDbSpline
210
0.0
220
0.0
230
1.0
 70
    24
 71
     2
 72
     6
 73
     3
 74
     0
 42
0.0000000001
 43
0.0000000001
 40
0.0
 40
0.0
 40
0.0
 40
2.579999999999997
 40
2.579999999999997
 40
2.579999999999997
 10
41.32501644368702
 20
6.503000000000016
 30
0.0
 10
42.61501644368701
 20
6.503000000000016
 30
0.0
 10
43.90501644368701
 20
6.503000000000016
 30
0.0
  0
SPLINE
  5
65
330
1F
100
AcDbEntity
  8
Make2D visible lines
100
AcDbSpline
210
0.0
220
0.0
230
1.0
 70
    24
 71
     2
 72
     6
 73
     3
 74
     0
 42
0.0000000001
 43
0.0000000001
 40
0.0
 40
0.0
 40
0.0
 40
0.0400060931217547
 40
0.0400060931217547
 40
0.0400060931217547
 10
41.41431824108963
 20
6.463000000000022
 30
0.0
 10
41.41466734238818
 20
6.483000000000022
 30
0.0
 10
41.41501644368672
 20
6.503000000000021
 30
0.0
  0
SPLINE
  5
66
330
1F
100
AcDbEntity
  8
Make2D visible lines
100
AcDbSpline
210
0.0
220
0.0
230
1.0
 70
    24
 71
     2
 72
     6
 73
     3
 74
     0
 42
0.0000000001
 43
0.0000000001
 40
0.0
 40
0.0
 40
0.0
 40
0.0400060931217547
 40
0.0400060931217547
 40
0.0400060931217547
 10
43.8150164436873
 20
6.503000000000021
 30
0.0
 10
43.81536554498584
 20
6.483000000000022
 30
0.0
 10
43.81571464628439
 20
6.463000000000022
 30
0.0
  0
SPLINE
  5
67
330
1F
100
AcDbEntity
  8
Make2D visible lines
100
AcDbSpline
210
0.0
220
0.0
230
1.0
 70
    24
 71
     2
 72
     6
 73
     3
 74
     0
 42
0.0000000001
 43
0.0000000001
 40
0.0
 40
0.0
 40
0.0
 40
1.107594207465098
 40
1.107594207465098
 40
1.107594207465098
 10
56.00102625674101
 20
0.0000000000000036
 30
0.0
 10
56.55482336047356
 20
0.0000000000000036
 30
0.0
 10
57.10862046420611
 20
0.0000000000000036
 30
0.0
  0
SPLINE
  5
68
330
1F
100
AcDbEntity
  8
Make2D visible lines
100
AcDbSpline
210
0.0
220
0.0
230
1.0
 70
    12
 71
     2
 72
     8
 73
     5
 74
     0
 42
0.0000000001
 43
0.0000000001
 40
0.0
 40
0.0
 40
0.0
 40
0.1269465231438366
 40
0.1269465231438366
 40
0.2538930462876731
 40
0.2538930462876731
 40
0.2538930462876731
 10
57.1086204642061
 20
0.0000000000000036
 30
0.0
 41
1.0
 10
57.17584502854147
 20
0.000000000000002
 30
0.0
 41
0.918360064844369
 10
57.22201287064973
 20
0.0488638148853193
 30
0.0
 41
1.0
 10
57.268180712758
 20
0.0977276297706366
 30
0.0
 41
0.918360064844369
 10
57.26436956481311
 20
0.1648440748599159
 30
0.0
 41
1.0
  0
SPLINE
  5
69
330
1F
100
AcDbEntity
  8
Make2D visible lines
100
AcDbSpline
210
0.0
220
0.0
230
1.0
 70
    12
 71
     2
 72
     6
 73
     3
 74
     0
 42
0.0000000001
 43
0.0000000001
 40
0.0
 40
0.0
 40
0.0
 40
0.2412324278936833
 40
0.2412324278936833
 40
0.2412324278936833
 10
55.84507282433514
 20
0.1521885802082181
 30
0.0
 41
1.0
 10
55.84879223312107
 20
-0.0000000000000105
 30
0.0
 41
0.7156927337036098
 10
56.00102625674101
 20
0.0000000000000034
 30
0.0
 41
1.0
  0
SPLINE
  5
6A
330
1F
100
AcDbEntity
  8
Make2D visible lines
100
AcDbSpline
210
0.0
220
0.0
230
1.0
 70
    24
 71
     2
 72
     6
 73
     3
 74
     0
 42
0.0000000001
 43
0.0000000001
 40
0.0
 40
0.0
 40
0.0
 40
0.2325105046476637
 40
0.2325105046476637
 40
0.2325105046476637
 10
55.84507273050629
 20
0.1521924194416825
 30
0.0
 10
55.84223236147033
 20
0.2684129683847045
 30
0.0
 10
55.83939199243437
 20
0.3846335173277264
 30
0.0
  0
SPLINE
  5
6B
330
1F
100
AcDbEntity
  8
Make2D visible lines
100
AcDbSpline
210
0.0
220
0.0
230
1.0
 70
    24
 71
     2
 72
     6
 73
     3
 74
     0
 42
0.0000000001
 43
0.0000000001
 40
0.0
 40
0.0
 40
0.0
 40
0.2213623405233084
 40
0.2213623405233084
 40
0.2213623405233084
 10
57.25181991666729
 20
0.3858503918134666
 30
0.0
 10
57.2580947407402
 20
0.2753472333366913
 30
0.0
 10
57.26436956481312
 20
0.164844074859916
 30
0.0
  0
SPLINE
  5
6C
330
1F
100
AcDbEntity
  8
Make2D visible lines
100
AcDbSpline
210
0.0
220
0.0
230
1.0
 70
    12
 71
     2
 72
     6
 73
     3
 74
     0
 42
0.0000000001
 43
0.0000000001
 40
0.0
 40
0.0
 40
0.0
 40
0.0224671519842366
 40
0.0224671519842366
 40
0.0224671519842366
 10
57.25180410695684
 20
0.3860938211857499
 30
0.0
 41
1.0
 10
57.25078734181271
 20
0.4000000000000348
 30
0.0
 41
0.7324347794791691
 10
57.23684404160891
 20
0.4000000000000183
 30
0.0
 41
1.0
  0
SPLINE
  5
6D
330
1F
100
AcDbEntity
  8
Make2D visible lines
100
AcDbSpline
210
0.0
220
0.0
230
1.0
 70
    24
 71
     2
 72
     6
 73
     3
 74
     0
 42
0.0000000001
 43
0.0000000001
 40
0.0
 40
0.0
 40
0.0
 40
1.379419120443295
 40
1.379419120443295
 40
1.379419120443295
 10
57.23684404160891
 20
0.4000000000000163
 30
0.0
 10
56.54713448138726
 20
0.4000000000000162
 30
0.0
 10
55.85742492116562
 20
0.4000000000000161
 30
0.0
  0
SPLINE
  5
6E
330
1F
100
AcDbEntity
  8
Make2D visible lines
100
AcDbSpline
210
0.0
220
0.0
230
1.0
 70
    12
 71
     2
 72
     8
 73
     5
 74
     0
 42
0.0000000001
 43
0.0000000001
 40
0.0
 40
0.0
 40
0.0
 40
0.0119642320224294
 40
0.0119642320224294
 40
0.0239284640448587
 40
0.0239284640448587
 40
0.0239284640448587
 10
55.85438751478111
 20
0.4000000000000163
 30
0.0
 41
1.0
 10
55.84806668671413
 20
0.4000000000000209
 30
0.0
 41
0.9215246294676533
 10
55.84365212377554
 20
0.3954762292814858
 30
0.0
 41
1.0
 10
55.83923756083698
 20
0.3909524585629509
 30
0.0
 41
0.9215246294676533
 10
55.83939199243437
 20
0.3846335173277264
 30
0.0
 41
1.0
  0
SPLINE
  5
6F
330
1F
100
AcDbEntity
  8
Make2D visible lines
100
AcDbSpline
210
0.0
220
0.0
230
1.0
 70
    24
 71
     3
 72
     9
 73
     5
 74
     0
 42
0.0000000001
 43
0.0000000001
 40
0.0
 40
0.0
 40
0.0
 40
0.0
 40
0.0000682360840525
 40
0.251869451330915
 40
0.251869451330915
 40
0.251869451330915
 40
0.251869451330915
 10
42.36328346702261
 20
0.0000000000000036
 30
0.0
 10
42.36317398704254
 20
0.0000000000000036
 30
0.0
 10
42.44712013153413
 20
0.0000000000000036
 30
0.0
 10
42.53108562855708
 20
0.0000000000000036
 30
0.0
 10
42.61501644618542
 20
0.0000000000000036
 30
0.0
  0
SPLINE
  5
70
330
1F
100
AcDbEntity
  8
Make2D visible lines
100
AcDbSpline
210
0.0
220
0.0
230
1.0
 70
    24
 71
     2
 72
     6
 73
     3
 74
     0
 42
0.0000000001
 43
0.0000000001
 40
0.0
 40
0.0
 40
0.0
 40
0.2517559204860955
 40
0.2517559204860955
 40
0.2517559204860955
 10
42.61501644618542
 20
0.0000000000000036
 30
0.0
 10
42.74089440642847
 20
0.0000000000000036
 30
0.0
 10
42.86677236667152
 20
0.0000000000000036
 30
0.0
  0
SPLINE
  5
71
330
1F
100
AcDbEntity
  8
Make2D visible lines
100
AcDbSpline
210
0.0
220
0.0
230
1.0
 70
    24
 71
     2
 72
     6
 73
     3
 74
     0
 42
0.0000000001
 43
0.0000000001
 40
0.0
 40
0.0
 40
0.0
 40
0.3876534637036499
 40
0.3876534637036499
 40
0.3876534637036499
 10
42.61501644379415
 20
0.4000000000000163
 30
0.0
 10
42.42118971194232
 20
0.4000000000000162
 30
0.0
 10
42.2273629800905
 20
0.4000000000000161
 30
0.0
  0
SPLINE
  5
72
330
1F
100
AcDbEntity
  8
Make2D visible lines
100
AcDbSpline
210
0.0
220
0.0
230
1.0
 70
    24
 71
     2
 72
     6
 73
     3
 74
     0
 42
0.0000000001
 43
0.0000000001
 40
0.0
 40
0.0
 40
0.0
 40
0.3863627208447955
 40
0.3863627208447955
 40
0.3863627208447955
 10
43.00137947410477
 20
0.4000000000000166
 30
0.0
 10
42.80819811368237
 20
0.4000000000000165
 30
0.0
 10
42.61501675325997
 20
0.4000000000000163
 30
0.0
  0
SPLINE
  5
73
330
1F
100
AcDbEntity
  8
Make2D visible lines
100
AcDbSpline
210
0.0
220
0.0
230
1.0
 70
    12
 71
     2
 72
     8
 73
     5
 74
     0
 42
0.0000000001
 43
0.0000000001
 40
0.0
 40
0.0
 40
0.0
 40
0.1240063772075993
 40
0.1240063772075993
 40
0.2480127544151987
 40
0.2480127544151987
 40
0.2480127544151987
 10
42.36321470484675
 20
0.000000000001096
 30
0.0
 41
1.0
 10
42.29772477079248
 20
-0.0000119099018914
 30
0.0
 41
0.9220189045496352
 10
42.25185774604606
 20
0.0467336529376692
 30
0.0
 41
1.0
 10
42.20599072129961
 20
0.0934792157772298
 30
0.0
 41
0.9220189045496352
 10
42.20724501362697
 20
0.1589571384308644
 30
0.0
 41
1.0
  0
SPLINE
  5
74
330
1F
100
AcDbEntity
  8
Make2D visible lines
100
AcDbSpline
210
0.0
220
0.0
230
1.0
 70
    12
 71
     2
 72
     8
 73
     5
 74
     0
 42
0.0000000001
 43
0.0000000001
 40
0.0
 40
0.0
 40
0.0
 40
0.1242318577480881
 40
0.1242318577480881
 40
0.2484637154961761
 40
0.2484637154961761
 40
0.2484637154961761
 10
43.02277802222789
 20
0.1594215907425355
 30
0.0
 41
1.0
 10
43.0242176128818
 20
0.0938162002370285
 30
0.0
 41
0.9217678869813357
 10
42.97832852070015
 20
0.0469085153295885
 30
0.0
 41
1.0
 10
42.93243942851851
 20
0.0000008304221485
 30
0.0
 41
0.9217678869813357
 10
42.86681824532329
 20
0.0000000000011417
 30
0.0
 41
1.0
  0
SPLINE
  5
75
330
1F
100
AcDbEntity
  8
Make2D visible lines
100
AcDbSpline
210
0.0
220
0.0
230
1.0
 70
    12
 71
     2
 72
     6
 73
     3
 74
     0
 42
0.0000000001
 43
0.0000000001
 40
0.0
 40
0.0
 40
0.0
 40
0.2253642768281202
 40
0.2253642768281202
 40
0.2253642768281202
 10
43.01783672021335
 20
0.385325058594006
 30
0.0
 41
1.0
 10
43.02029582951432
 20
0.2726697563467351
 30
0.0
 41
0.9999999984988344
 10
43.02276728436502
 20
0.1600147242624911
 30
0.0
 41
1.0
  0
SPLINE
  5
76
330
1F
100
AcDbEntity
  8
Make2D visible lines
100
AcDbSpline
210
0.0
220
0.0
230
1.0
 70
    12
 71
     2
 72
     6
 73
     3
 74
     0
 42
0.0000000001
 43
0.0000000001
 40
0.0
 40
0.0
 40
0.0
 40
0.2259576718196235
 40
0.2259576718196235
 40
0.2259576718196235
 10
42.20725259171238
 20
0.1594216323489093
 30
0.0
 41
1.0
 10
42.20973058622484
 20
0.2723732898507527
 30
0.0
 41
0.9999999984910576
 10
42.21219617065994
 20
0.3853252189294936
 30
0.0
 41
1.0
  0
SPLINE
  5
77
330
1F
100
AcDbEntity
  8
Make2D visible lines
100
AcDbSpline
210
0.0
220
0.0
230
1.0
 70
    12
 71
     2
 72
     6
 73
     3
 74
     0
 42
0.0000000001
 43
0.0000000001
 40
0.0
 40
0.0
 40
0.0
 40
0.0232125536774005
 40
0.0232125536774005
 40
0.0232125536774005
 10
42.21219807522409
 20
0.3853269610145591
 30
0.0
 41
1.0
 10
42.21256458756184
 20
0.3999502926109969
 30
0.0
 41
0.7170957278319929
 10
42.22719242702815
 20
0.3999999999617776
 30
0.0
 41
1.0
  0
SPLINE
  5
78
330
1F
100
AcDbEntity
  8
Make2D visible lines
100
AcDbSpline
210
0.0
220
0.0
230
1.0
 70
    12
 71
     2
 72
     6
 73
     3
 74
     0
 42
0.0000000001
 43
0.0000000001
 40
0.0
 40
0.0
 40
0.0
 40
0.0232077921390905
 40
0.0232077921390905
 40
0.0232077921390905
 10
43.00284082610177
 20
0.3999999999470365
 30
0.0
 41
1.0
 10
43.0174580003221
 20
0.3999392744149043
 30
0.0
 41
0.7176120634141828
 10
43.01783485464624
 20
0.3853268327778507
 30
0.0
 41
1.0
  0
SPLINE
  5
79
330
1F
100
AcDbEntity
  8
Make2D visible lines
100
AcDbSpline
210
0.0
220
0.0
230
1.0
 70
    24
 71
     2
 72
     6
 73
     3
 74
     0
 42
0.0000000001
 43
0.0000000001
 40
0.0
 40
0.0
 40
0.0
 40
1.107594207465098
 40
1.107594207465098
 40
1.107594207465098
 10
-13.386009813054
 20
0.0000000000000036
 30
0.0
 10
-13.93980691678655
 20
0.0000000000000036
 30
0.0
 10
-14.4936040205191
 20
0.0000000000000036
 30
0.0
  0
SPLINE
  5
7A
330
1F
100
AcDbEntity
  8
Make2D visible lines
100
AcDbSpline
210
0.0
220
0.0
230
1.0
 70
    12
 71
     2
 72
     8
 73
     5
 74
     0
 42
0.0000000001
 43
0.0000000001
 40
0.0
 40
0.0
 40
0.0
 40
0.1269465231438366
 40
0.1269465231438366
 40
0.2538930462876731
 40
0.2538930462876731
 40
0.2538930462876731
 10
-14.49360402051909
 20
0.0000000000000036
 30
0.0
 41
1.0
 10
-14.56082858485446
 20
0.000000000000002
 30
0.0
 41
0.918360064844369
 10
-14.60699642696272
 20
0.0488638148853193
 30
0.0
 41
1.0
 10
-14.65316426907099
 20
0.0977276297706366
 30
0.0
 41
0.918360064844369
 10
-14.6493531211261
 20
0.1648440748599159
 30
0.0
 41
1.0
  0
SPLINE
  5
7B
330
1F
100
AcDbEntity
  8
Make2D visible lines
100
AcDbSpline
210
0.0
220
0.0
230
1.0
 70
    12
 71
     2
 72
     6
 73
     3
 74
     0
 42
0.0000000001
 43
0.0000000001
 40
0.0
 40
0.0
 40
0.0
 40
0.2412324278936833
 40
0.2412324278936833
 40
0.2412324278936833
 10
-13.23005638064813
 20
0.1521885802082181
 30
0.0
 41
1.0
 10
-13.23377578943406
 20
-0.0000000000000105
 30
0.0
 41
0.7156927337036098
 10
-13.386009813054
 20
0.0000000000000034
 30
0.0
 41
1.0
  0
SPLINE
  5
7C
330
1F
100
AcDbEntity
  8
Make2D visible lines
100
AcDbSpline
210
0.0
220
0.0
230
1.0
 70
    24
 71
     2
 72
     6
 73
     3
 74
     0
 42
0.0000000001
 43
0.0000000001
 40
0.0
 40
0.0
 40
0.0
 40
0.2325105046476637
 40
0.2325105046476637
 40
0.2325105046476637
 10
-13.23005628681928
 20
0.1521924194416825
 30
0.0
 10
-13.22721591778332
 20
0.2684129683847045
 30
0.0
 10
-13.22437554874736
 20
0.3846335173277264
 30
0.0
  0
SPLINE
  5
7D
330
1F
100
AcDbEntity
  8
Make2D visible lines
100
AcDbSpline
210
0.0
220
0.0
230
1.0
 70
    24
 71
     2
 72
     6
 73
     3
 74
     0
 42
0.0000000001
 43
0.0000000001
 40
0.0
 40
0.0
 40
0.0
 40
0.2213623405233084
 40
0.2213623405233084
 40
0.2213623405233084
 10
-14.63680347298028
 20
0.3858503918134666
 30
0.0
 10
-14.64307829705319
 20
0.2753472333366913
 30
0.0
 10
-14.6493531211261
 20
0.164844074859916
 30
0.0
  0
SPLINE
  5
7E
330
1F
100
AcDbEntity
  8
Make2D visible lines
100
AcDbSpline
210
0.0
220
0.0
230
1.0
 70
    12
 71
     2
 72
     6
 73
     3
 74
     0
 42
0.0000000001
 43
0.0000000001
 40
0.0
 40
0.0
 40
0.0
 40
0.0224671519842366
 40
0.0224671519842366
 40
0.0224671519842366
 10
-14.63678766326983
 20
0.3860938211857499
 30
0.0
 41
1.0
 10
-14.6357708981257
 20
0.4000000000000348
 30
0.0
 41
0.7324347794791691
 10
-14.6218275979219
 20
0.4000000000000183
 30
0.0
 41
1.0
  0
SPLINE
  5
7F
330
1F
100
AcDbEntity
  8
Make2D visible lines
100
AcDbSpline
210
0.0
220
0.0
230
1.0
 70
    24
 71
     2
 72
     6
 73
     3
 74
     0
 42
0.0000000001
 43
0.0000000001
 40
0.0
 40
0.0
 40
0.0
 40
1.379419120443295
 40
1.379419120443295
 40
1.379419120443295
 10
-14.6218275979219
 20
0.4000000000000163
 30
0.0
 10
-13.93211803770025
 20
0.4000000000000162
 30
0.0
 10
-13.24240847747861
 20
0.4000000000000161
 30
0.0
  0
SPLINE
  5
80
330
1F
100
AcDbEntity
  8
Make2D visible lines
100
AcDbSpline
210
0.0
220
0.0
230
1.0
 70
    12
 71
     2
 72
     8
 73
     5
 74
     0
 42
0.0000000001
 43
0.0000000001
 40
0.0
 40
0.0
 40
0.0
 40
0.0119642320224294
 40
0.0119642320224294
 40
0.0239284640448587
 40
0.0239284640448587
 40
0.0239284640448587
 10
-13.2393710710941
 20
0.4000000000000163
 30
0.0
 41
1.0
 10
-13.23305024302711
 20
0.4000000000000209
 30
0.0
 41
0.9215246294676533
 10
-13.22863568008853
 20
0.3954762292814858
 30
0.0
 41
1.0
 10
-13.22422111714996
 20
0.3909524585629509
 30
0.0
 41
0.9215246294676533
 10
-13.22437554874736
 20
0.3846335173277264
 30
0.0
 41
1.0
  0
SPLINE
  5
81
330
1F
100
AcDbEntity
  8
Make2D visible lines
100
AcDbSpline
210
0.0
220
0.0
230
1.0
 70
    12
 71
     2
 72
     6
 73
     3
 74
     0
 42
0.0000000001
 43
0.0000000001
 40
-0.0371380794388858
 40
-0.0371380794388858
 40
-0.0371380794388858
 40
0.0
 40
0.0
 40
0.0
 10
14.61564357989874
 20
0.4022441987256987
 30
0.0
 41
1.0
 10
14.63541548501586
 20
0.4103542426935238
 30
0.0
 41
0.8144776561050845
 10
14.63421101299304
 20
0.4316908378358253
 30
0.0
 41
1.0
  0
SPLINE
  5
82
330
1F
100
AcDbEntity
  8
Make2D visible lines
100
AcDbSpline
210
0.0
220
0.0
230
1.0
 70
     8
 71
     3
 72
    12
 73
     8
 74
     0
 42
0.0000000001
 43
0.0000000001
 40
0.0
 40
0.0
 40
0.0
 40
0.0
 40
2.024931116884056
 40
2.121300252943487
 40
2.208073208949396
 40
2.641991453438839
 40
3.085460819895622
 40
3.085460819895622
 40
3.085460819895622
 40
3.085460819895622
 10
14.63421101299304
 20
0.4316908378358253
 30
0.0
 10
14.59550714099262
 20
1.105574847750693
 30
0.0
 10
14.55720448132851
 20
1.811593362411049
 30
0.0
 10
14.51438251453219
 20
2.546414843142783
 30
0.0
 10
14.46954829569635
 20
2.747953191239763
 30
0.0
 10
14.30098962010137
 20
3.034556781920432
 30
0.0
 10
14.03032427358681
 20
3.175838551528641
 30
0.0
 10
13.88599999999995
 20
3.205665827232744
 30
0.0
  0
SPLINE
  5
83
330
1F
100
AcDbEntity
  8
Make2D visible lines
100
AcDbSpline
210
0.0
220
0.0
230
1.0
 70
    24
 71
     2
 72
     6
 73
     3
 74
     0
 42
0.0000000001
 43
0.0000000001
 40
-12.2902709571203
 40
-12.2902709571203
 40
-12.2902709571203
 40
0.0
 40
0.0
 40
0.0
 10
13.88599999999995
 20
3.205665827232744
 30
0.0
 10
7.867999999999946
 20
4.449195501128249
 30
0.0
 10
1.849999999999945
 20
5.692725175023753
 30
0.0
  0
SPLINE
  5
84
330
1F
100
AcDbEntity
  8
Make2D visible lines
100
AcDbSpline
210
0.0
220
0.0
230
1.0
 70
    12
 71
     3
 72
    11
 73
     7
 74
     0
 42
0.0000000001
 43
0.0000000001
 40
0.0
 40
0.0
 40
0.0
 40
0.0
 40
0.2500000000000077
 40
0.500000000000056
 40
0.7500000000001044
 40
0.9903549301730069
 40
0.9903549301730069
 40
0.9903549301730069
 40
0.9903549301730069
 10
1.849999999999945
 20
5.692725175023753
 30
0.0
 41
1.0
 10
1.777532259027804
 20
5.707699549616471
 30
0.0
 41
1.0
 10
1.635884798350073
 20
5.771964450750453
 30
0.0
 41
1.0
 10
1.455036746425176
 20
5.941965920377697
 30
0.0
 41
1.0
 10
1.329210131423126
 20
6.15347175039408
 30
0.0
 41
1.0
 10
1.294052314614946
 20
6.303120864095799
 30
0.0
 41
1.0
 10
1.291507112319829
 20
6.378712134379271
 30
0.0
 41
1.0
  0
SPLINE
  5
85
330
1F
100
AcDbEntity
  8
Make2D visible lines
100
AcDbSpline
210
0.0
220
0.0
230
1.0
 70
    24
 71
     2
 72
     6
 73
     3
 74
     0
 42
0.0000000001
 43
0.0000000001
 40
0.0
 40
0.0
 40
0.0
 40
0.080013140622857
 40
0.080013140622857
 40
0.080013140622857
 10
1.291507112319829
 20
6.378712134379271
 30
0.0
 10
1.290753556159937
 20
6.420856067189643
 30
0.0
 10
1.290000000000045
 20
6.463000000000015
 30
0.0
  0
SPLINE
  5
86
330
1F
100
AcDbEntity
  8
Make2D visible lines
100
AcDbSpline
210
0.0
220
0.0
230
1.0
 70
    24
 71
     2
 72
     6
 73
     3
 74
     0
 42
0.0000000001
 43
0.0000000001
 40
0.0
 40
0.0
 40
0.0
 40
1.290000000000045
 40
1.290000000000045
 40
1.290000000000045
 10
1.290000000000045
 20
6.463000000000015
 30
0.0
 10
0.6450000000000227
 20
6.463000000000015
 30
0.0
 10
0.0
 20
6.463000000000015
 30
0.0
  0
SPLINE
  5
87
330
1F
100
AcDbEntity
  8
Make2D visible lines
100
AcDbSpline
210
0.0
220
0.0
230
1.0
 70
    24
 71
     2
 72
     6
 73
     3
 74
     0
 42
0.0000000001
 43
0.0000000001
 40
0.0
 40
0.0
 40
0.0
 40
1.289412297652113
 40
1.289412297652113
 40
1.289412297652113
 10
0.0
 20
6.463000000000015
 30
0.0
 10
-0.6448530744130396
 20
6.463000000000015
 30
0.0
 10
-1.289706148826079
 20
6.463000000000015
 30
0.0
  0
SPLINE
  5
88
330
1F
100
AcDbEntity
  8
Make2D visible lines
100
AcDbSpline
210
0.0
220
0.0
230
1.0
 70
    24
 71
     2
 72
     6
 73
     3
 74
     0
 42
0.0000000001
 43
0.0000000001
 40
-0.080013140622857
 40
-0.080013140622857
 40
-0.080013140622857
 40
0.0
 40
0.0
 40
0.0
 10
-1.289706148826079
 20
6.463000000000015
 30
0.0
 10
-1.290606630572954
 20
6.420856067189643
 30
0.0
 10
-1.291507112319829
 20
6.378712134379271
 30
0.0
  0
SPLINE
  5
89
330
1F
100
AcDbEntity
  8
Make2D visible lines
100
AcDbSpline
210
0.0
220
0.0
230
1.0
 70
    12
 71
     3
 72
    11
 73
     7
 74
     0
 42
0.0000000001
 43
0.0000000001
 40
-0.9903549301730069
 40
-0.9903549301730069
 40
-0.9903549301730069
 40
-0.9903549301730069
 40
-0.7500000000001044
 40
-0.500000000000056
 40
-0.2500000000000077
 40
0.0
 40
0.0
 40
0.0
 40
0.0
 10
-1.291507112319829
 20
6.378712134379271
 30
0.0
 41
1.0
 10
-1.294052314614946
 20
6.303120864095799
 30
0.0
 41
1.0
 10
-1.329210131423126
 20
6.15347175039408
 30
0.0
 41
1.0
 10
-1.455036746425176
 20
5.941965920377697
 30
0.0
 41
1.0
 10
-1.635884798350073
 20
5.771964450750453
 30
0.0
 41
1.0
 10
-1.777532259027804
 20
5.707699549616471
 30
0.0
 41
1.0
 10
-1.849999999999945
 20
5.692725175023753
 30
0.0
 41
1.0
  0
SPLINE
  5
8A
330
1F
100
AcDbEntity
  8
Make2D visible lines
100
AcDbSpline
210
0.0
220
0.0
230
1.0
 70
    24
 71
     2
 72
     6
 73
     3
 74
     0
 42
0.0000000001
 43
0.0000000001
 40
0.0
 40
0.0
 40
0.0
 40
12.2902709571203
 40
12.2902709571203
 40
12.2902709571203
 10
-1.849999999999945
 20
5.692725175023753
 30
0.0
 10
-7.867999999999946
 20
4.449195501128249
 30
0.0
 10
-13.88599999999995
 20
3.205665827232744
 30
0.0
  0
SPLINE
  5
8B
330
1F
100
AcDbEntity
  8
Make2D visible lines
100
AcDbSpline
210
0.0
220
0.0
230
1.0
 70
     8
 71
     3
 72
    12
 73
     8
 74
     0
 42
0.0000000001
 43
0.0000000001
 40
-3.085460819895622
 40
-3.085460819895622
 40
-3.085460819895622
 40
-3.085460819895622
 40
-2.641991453438839
 40
-2.208073208949396
 40
-2.121300252943487
 40
-2.024931116884056
 40
0.0
 40
0.0
 40
0.0
 40
0.0
 10
-13.88599999999995
 20
3.205665827232744
 30
0.0
 10
-14.03032427358681
 20
3.175838551528641
 30
0.0
 10
-14.30098962010137
 20
3.034556781920432
 30
0.0
 10
-14.46954829569635
 20
2.747953191239763
 30
0.0
 10
-14.51438251453219
 20
2.546414843142783
 30
0.0
 10
-14.55720448132851
 20
1.811593362411049
 30
0.0
 10
-14.59550714099262
 20
1.105574847750693
 30
0.0
 10
-14.63421101299304
 20
0.4316908378358253
 30
0.0
  0
SPLINE
  5
8C
330
1F
100
AcDbEntity
  8
Make2D visible lines
100
AcDbSpline
210
0.0
220
0.0
230
1.0
 70
    12
 71
     2
 72
     6
 73
     3
 74
     0
 42
0.0000000001
 43
0.0000000001
 40
0.0
 40
0.0
 40
0.0
 40
0.0371380794388858
 40
0.0371380794388858
 40
0.0371380794388858
 10
-14.63421101299304
 20
0.4316908378358253
 30
0.0
 41
1.0
 10
-14.63541548501586
 20
0.4103542426935238
 30
0.0
 41
0.8144776561050845
 10
-14.61564357989874
 20
0.4022441987256987
 30
0.0
 41
1.0
  0
SPLINE
  5
8D
330
1F
100
AcDbEntity
  8
Make2D visible lines - Tangent
100
AcDbSpline
210
0.0
220
0.0
230
1.0
 70
     8
 71
     3
 72
    54
 73
    50
 74
     0
 42
0.0000000001
 43
0.0000000001
 40
0.0
 40
0.0
 40
0.0
 40
0.0
 40
1.0
 40
2.0
 40
3.0
 40
4.0
 40
5.0
 40
6.0
 40
7.0
 40
8.0
 40
9.0
 40
10.0
 40
11.0
 40
12.0
 40
13.0
 40
14.0
 40
15.0
 40
16.0
 40
17.0
 40
18.0
 40
19.0
 40
20.0
 40
21.0
 40
22.0
 40
23.0
 40
24.0
 40
25.0
 40
26.0
 40
27.0
 40
28.0
 40
29.0
 40
30.0
 40
31.0
 40
32.0
 40
33.0
 40
34.0
 40
35.0
 40
36.0
 40
37.0
 40
38.0
 40
39.0
 40
40.0
 40
41.0
 40
42.0
 40
43.0
 40
44.0
 40
45.0
 40
46.0
 40
47.0
 40
47.0
 40
47.0
 40
47.0
 10
0.3855740390831688
 20
0.403329261439214
 30
0.0
 10
0.4108443184297055
 20
0.471691761030031
 30
0.0
 10
0.3928072028035972
 20
0.6333535261625483
 30
0.0
 10
0.3935782650521504
 20
0.8657327374605353
 30
0.0
 10
0.3870006279260478
 20
1.100824691898526
 30
0.0
 10
0.3822066441073212
 20
1.335184942048012
 30
0.0
 10
0.376920272973096
 20
1.569741898107297
 30
0.0
 10
0.3718097485976801
 20
1.804245165096962
 30
0.0
 10
0.367174730584694
 20
2.038780643129261
 30
0.0
 10
0.3618448482067402
 20
2.27327054669982
 30
0.0
 10
0.3611580137755363
 20
2.50795635439968
 30
0.0
 10
0.376405087015441
 20
2.742035110000107
 30
0.0
 10
0.4015745886429593
 20
2.975291767990851
 30
0.0
 10
0.4262016875861679
 20
3.208581524431251
 30
0.0
 10
0.4504341677925552
 20
3.44180444554645
 30
0.0
 10
0.4809936146595975
 20
3.674811437325082
 30
0.0
 10
0.4873166989861086
 20
3.908675454710889
 30
0.0
 10
0.4727636425388441
 20
4.14316108458999
 30
0.0
 10
0.4622226586758619
 20
4.377402299909646
 30
0.0
 10
0.4518601668513925
 20
4.611784456659724
 30
0.0
 10
0.4397540674726934
 20
4.845964675118837
 30
0.0
 10
0.4280040588748157
 20
5.080512320442788
 30
0.0
 10
0.3896612062822467
 20
5.312100872344999
 30
0.0
 10
0.306364448569322
 20
5.534912960303022
 30
0.0
 10
0.1261550709227438
 20
5.701053020982688
 30
0.0
 10
-0.1290546863127963
 20
5.700046595423096
 30
0.0
 10
-0.3077404613287302
 20
5.532266007601516
 30
0.0
 10
-0.3903756862898934
 20
5.309372210240867
 30
0.0
 10
-0.428217084476282
 20
5.077673675160892
 30
0.0
 10
-0.4399213569507985
 20
4.843140061617282
 30
0.0
 10
-0.4519516521145414
 20
4.608952622806954
 30
0.0
 10
-0.4623969074537961
 20
4.374572197465292
 30
0.0
 10
-0.4728055676319354
 20
4.140337130437424
 30
0.0
 10
-0.4877548161439153
 20
3.905822607503123
 30
0.0
 10
-0.4799307177377822
 20
3.67206586450394
 30
0.0
 10
-0.4495990074442647
 20
3.439049497872843
 30
0.0
 10
-0.4259535830247766
 20
3.205758678338231
 30
0.0
 10
-0.4019566833489902
 20
2.972405099167784
 30
0.0
 10
-0.3765750867231028
 20
2.739167888374083
 30
0.0
 10
-0.3609890257158116
 20
2.505129568181835
 30
0.0
 10
-0.362012857282243
 20
2.270431807711549
 30
0.0
 10
-0.3671657716880983
 20
2.035943620623493
 30
0.0
 10
-0.3719076450540077
 20
1.801408320125761
 30
0.0
 10
-0.3770801101951297
 20
1.566909832637999
 30
0.0
 10
-0.3824214895384378
 20
1.332342661516703
 30
0.0
 10
-0.386847357623071
 20
1.098016778736779
 30
0.0
 10
-0.39383727168959
 20
0.8627750502036662
 30
0.0
 10
-0.3921473528078007
 20
0.6309690073439601
 30
0.0
 10
-0.412459675750142
 20
0.4678802044313225
 30
0.0
 10
-0.3829938551656991
 20
0.4021512543515627
 30
0.0
  0
SPLINE
  5
8E
330
1F
100
AcDbEntity
  8
Make2D visible lines
100
AcDbSpline
210
0.0
220
0.0
230
1.0
 70
    24
 71
     2
 72
     6
 73
     3
 74
     0
 42
0.0000000001
 43
0.0000000001
 40
0.0
 40
0.0
 40
0.0
 40
2.579999999999997
 40
2.579999999999997
 40
2.579999999999997
 10
-1.289999999999996
 20
6.503000000000016
 30
0.0
 10
0.0000000000000027
 20
6.503000000000016
 30
0.0
 10
1.290000000000001
 20
6.503000000000016
 30
0.0
  0
SPLINE
  5
8F
330
1F
100
AcDbEntity
  8
Make2D visible lines
100
AcDbSpline
210
0.0
220
0.0
230
1.0
 70
    24
 71
     2
 72
     6
 73
     3
 74
     0
 42
0.0000000001
 43
0.0000000001
 40
0.0
 40
0.0
 40
0.0
 40
0.0400060931217547
 40
0.0400060931217547
 40
0.0400060931217547
 10
-1.200698202597376
 20
6.463000000000022
 30
0.0
 10
-1.200349101298833
 20
6.483000000000022
 30
0.0
 10
-1.200000000000291
 20
6.503000000000021
 30
0.0
  0
SPLINE
  5
90
330
1F
100
AcDbEntity
  8
Make2D visible lines
100
AcDbSpline
210
0.0
220
0.0
230
1.0
 70
    24
 71
     2
 72
     6
 73
     3
 74
     0
 42
0.0000000001
 43
0.0000000001
 40
0.0
 40
0.0
 40
0.0
 40
0.0400060931217547
 40
0.0400060931217547
 40
0.0400060931217547
 10
1.200000000000291
 20
6.503000000000021
 30
0.0
 10
1.200349101298833
 20
6.483000000000022
 30
0.0
 10
1.200698202597376
 20
6.463000000000022
 30
0.0
  0
SPLINE
  5
91
330
1F
100
AcDbEntity
  8
Make2D visible lines
100
AcDbSpline
210
0.0
220
0.0
230
1.0
 70
    24
 71
     2
 72
     6
 73
     3
 74
     0
 42
0.0000000001
 43
0.0000000001
 40
0.0
 40
0.0
 40
0.0
 40
1.107594207465098
 40
1.107594207465098
 40
1.107594207465098
 10
13.386009813054
 20
0.0000000000000036
 30
0.0
 10
13.93980691678655
 20
0.0000000000000036
 30
0.0
 10
14.4936040205191
 20
0.0000000000000036
 30
0.0
  0
SPLINE
  5
92
330
1F
100
AcDbEntity
  8
Make2D visible lines
100
AcDbSpline
210
0.0
220
0.0
230
1.0
 70
    12
 71
     2
 72
     8
 73
     5
 74
     0
 42
0.0000000001
 43
0.0000000001
 40
0.0
 40
0.0
 40
0.0
 40
0.1269465231438366
 40
0.1269465231438366
 40
0.2538930462876731
 40
0.2538930462876731
 40
0.2538930462876731
 10
14.49360402051909
 20
0.0000000000000036
 30
0.0
 41
1.0
 10
14.56082858485446
 20
0.000000000000002
 30
0.0
 41
0.918360064844369
 10
14.60699642696272
 20
0.0488638148853193
 30
0.0
 41
1.0
 10
14.65316426907099
 20
0.0977276297706366
 30
0.0
 41
0.918360064844369
 10
14.6493531211261
 20
0.1648440748599159
 30
0.0
 41
1.0
  0
SPLINE
  5
93
330
1F
100
AcDbEntity
  8
Make2D visible lines
100
AcDbSpline
210
0.0
220
0.0
230
1.0
 70
    12
 71
     2
 72
     6
 73
     3
 74
     0
 42
0.0000000001
 43
0.0000000001
 40
0.0
 40
0.0
 40
0.0
 40
0.2412324278936833
 40
0.2412324278936833
 40
0.2412324278936833
 10
13.23005638064813
 20
0.1521885802082181
 30
0.0
 41
1.0
 10
13.23377578943406
 20
-0.0000000000000105
 30
0.0
 41
0.7156927337036098
 10
13.386009813054
 20
0.0000000000000034
 30
0.0
 41
1.0
  0
SPLINE
  5
94
330
1F
100
AcDbEntity
  8
Make2D visible lines
100
AcDbSpline
210
0.0
220
0.0
230
1.0
 70
    24
 71
     2
 72
     6
 73
     3
 74
     0
 42
0.0000000001
 43
0.0000000001
 40
0.0
 40
0.0
 40
0.0
 40
0.2325105046476637
 40
0.2325105046476637
 40
0.2325105046476637
 10
13.23005628681928
 20
0.1521924194416825
 30
0.0
 10
13.22721591778332
 20
0.2684129683847045
 30
0.0
 10
13.22437554874736
 20
0.3846335173277264
 30
0.0
  0
SPLINE
  5
95
330
1F
100
AcDbEntity
  8
Make2D visible lines
100
AcDbSpline
210
0.0
220
0.0
230
1.0
 70
    24
 71
     2
 72
     6
 73
     3
 74
     0
 42
0.0000000001
 43
0.0000000001
 40
0.0
 40
0.0
 40
0.0
 40
0.2213623405233084
 40
0.2213623405233084
 40
0.2213623405233084
 10
14.63680347298028
 20
0.3858503918134666
 30
0.0
 10
14.64307829705319
 20
0.2753472333366913
 30
0.0
 10
14.6493531211261
 20
0.164844074859916
 30
0.0
  0
SPLINE
  5
96
330
1F
100
AcDbEntity
  8
Make2D visible lines
100
AcDbSpline
210
0.0
220
0.0
230
1.0
 70
    12
 71
     2
 72
     6
 73
     3
 74
     0
 42
0.0000000001
 43
0.0000000001
 40
0.0
 40
0.0
 40
0.0
 40
0.0224671519842366
 40
0.0224671519842366
 40
0.0224671519842366
 10
14.63678766326983
 20
0.3860938211857499
 30
0.0
 41
1.0
 10
14.6357708981257
 20
0.4000000000000348
 30
0.0
 41
0.7324347794791691
 10
14.6218275979219
 20
0.4000000000000183
 30
0.0
 41
1.0
  0
SPLINE
  5
97
330
1F
100
AcDbEntity
  8
Make2D visible lines
100
AcDbSpline
210
0.0
220
0.0
230
1.0
 70
    24
 71
     2
 72
     6
 73
     3
 74
     0
 42
0.0000000001
 43
0.0000000001
 40
0.0
 40
0.0
 40
0.0
 40
1.379419120443295
 40
1.379419120443295
 40
1.379419120443295
 10
14.6218275979219
 20
0.4000000000000163
 30
0.0
 10
13.93211803770025
 20
0.4000000000000162
 30
0.0
 10
13.24240847747861
 20
0.4000000000000161
 30
0.0
  0
SPLINE
  5
98
330
1F
100
AcDbEntity
  8
Make2D visible lines
100
AcDbSpline
210
0.0
220
0.0
230
1.0
 70
    12
 71
     2
 72
     8
 73
     5
 74
     0
 42
0.0000000001
 43
0.0000000001
 40
0.0
 40
0.0
 40
0.0
 40
0.0119642320224294
 40
0.0119642320224294
 40
0.0239284640448587
 40
0.0239284640448587
 40
0.0239284640448587
 10
13.2393710710941
 20
0.4000000000000163
 30
0.0
 41
1.0
 10
13.23305024302711
 20
0.4000000000000209
 30
0.0
 41
0.9215246294676533
 10
13.22863568008853
 20
0.3954762292814858
 30
0.0
 41
1.0
 10
13.22422111714996
 20
0.3909524585629509
 30
0.0
 41
0.9215246294676533
 10
13.22437554874736
 20
0.3846335173277264
 30
0.0
 41
1.0
  0
SPLINE
  5
99
330
1F
100
AcDbEntity
  8
Make2D visible lines
100
AcDbSpline
210
0.0
220
0.0
230
1.0
 70
    24
 71
     3
 72
     9
 73
     5
 74
     0
 42
0.0000000001
 43
0.0000000001
 40
0.0
 40
0.0
 40
0.0
 40
0.0
 40
0.0000682360840525
 40
0.251869451330915
 40
0.251869451330915
 40
0.251869451330915
 40
0.251869451330915
 10
-0.2517329766643961
 20
0.0000000000000036
 30
0.0
 10
-0.2518424566444732
 20
0.0000000000000036
 30
0.0
 10
-0.1678963121528749
 20
0.0000000000000036
 30
0.0
 10
-0.0839308151299303
 20
0.0000000000000036
 30
0.0
 10
0.0000000024984139
 20
0.0000000000000036
 30
0.0
  0
SPLINE
  5
9A
330
1F
100
AcDbEntity
  8
Make2D visible lines
100
AcDbSpline
210
0.0
220
0.0
230
1.0
 70
    24
 71
     2
 72
     6
 73
     3
 74
     0
 42
0.0000000001
 43
0.0000000001
 40
0.0
 40
0.0
 40
0.0
 40
0.2517559204860955
 40
0.2517559204860955
 40
0.2517559204860955
 10
0.0000000024984139
 20
0.0000000000000036
 30
0.0
 10
0.1258779627414617
 20
0.0000000000000036
 30
0.0
 10
0.2517559229845094
 20
0.0000000000000036
 30
0.0
  0
SPLINE
  5
9B
330
1F
100
AcDbEntity
  8
Make2D visible lines
100
AcDbSpline
210
0.0
220
0.0
230
1.0
 70
    24
 71
     2
 72
     6
 73
     3
 74
     0
 42
0.0000000001
 43
0.0000000001
 40
0.0
 40
0.0
 40
0.0
 40
0.3876534637036499
 40
0.3876534637036499
 40
0.3876534637036499
 10
0.0000000001071356
 20
0.4000000000000163
 30
0.0
 10
-0.1938267317446893
 20
0.4000000000000162
 30
0.0
 10
-0.3876534635965143
 20
0.4000000000000161
 30
0.0
  0
SPLINE
  5
9C
330
1F
100
AcDbEntity
  8
Make2D visible lines
100
AcDbSpline
210
0.0
220
0.0
230
1.0
 70
    24
 71
     2
 72
     6
 73
     3
 74
     0
 42
0.0000000001
 43
0.0000000001
 40
0.0
 40
0.0
 40
0.0
 40
0.3863627208447955
 40
0.3863627208447955
 40
0.3863627208447955
 10
0.3863630304177565
 20
0.4000000000000166
 30
0.0
 10
0.1931816699953588
 20
0.4000000000000165
 30
0.0
 10
0.000000309572961
 20
0.4000000000000163
 30
0.0
  0
SPLINE
  5
9D
330
1F
100
AcDbEntity
  8
Make2D visible lines
100
AcDbSpline
210
0.0
220
0.0
230
1.0
 70
    12
 71
     2
 72
     8
 73
     5
 74
     0
 42
0.0000000001
 43
0.0000000001
 40
0.0
 40
0.0
 40
0.0
 40
0.1240063772075993
 40
0.1240063772075993
 40
0.2480127544151987
 40
0.2480127544151987
 40
0.2480127544151987
 10
-0.2518017388402534
 20
0.000000000001096
 30
0.0
 41
1.0
 10
-0.3172916728945204
 20
-0.0000119099018914
 30
0.0
 41
0.9220189045496352
 10
-0.3631586976409586
 20
0.0467336529376692
 30
0.0
 41
1.0
 10
-0.4090257223873984
 20
0.0934792157772298
 30
0.0
 41
0.9220189045496352
 10
-0.4077714300600412
 20
0.1589571384308644
 30
0.0
 41
1.0
  0
SPLINE
  5
9E
330
1F
100
AcDbEntity
  8
Make2D visible lines
100
AcDbSpline
210
0.0
220
0.0
230
1.0
 70
    12
 71
     2
 72
     8
 73
     5
 74
     0
 42
0.0000000001
 43
0.0000000001
 40
0.0
 40
0.0
 40
0.0
 40
0.1242318577480881
 40
0.1242318577480881
 40
0.2484637154961761
 40
0.2484637154961761
 40
0.2484637154961761
 10
0.4077615785408764
 20
0.1594215907425355
 30
0.0
 41
1.0
 10
0.4092011691947805
 20
0.0938162002370285
 30
0.0
 41
0.9217678869813357
 10
0.3633120770131395
 20
0.0469085153295885
 30
0.0
 41
1.0
 10
0.3174229848314968
 20
0.0000008304221485
 30
0.0
 41
0.9217678869813357
 10
0.2518018016362724
 20
0.0000000000011417
 30
0.0
 41
1.0
  0
SPLINE
  5
9F
330
1F
100
AcDbEntity
  8
Make2D visible lines
100
AcDbSpline
210
0.0
220
0.0
230
1.0
 70
    12
 71
     2
 72
     6
 73
     3
 74
     0
 42
0.0000000001
 43
0.0000000001
 40
0.0
 40
0.0
 40
0.0
 40
0.2253642768281202
 40
0.2253642768281202
 40
0.2253642768281202
 10
0.4028202765263416
 20
0.385325058594006
 30
0.0
 41
1.0
 10
0.4052793858273148
 20
0.2726697563467351
 30
0.0
 41
0.9999999984988344
 10
0.4077508406780019
 20
0.1600147242624911
 30
0.0
 41
1.0
  0
SPLINE
  5
A0
330
1F
100
AcDbEntity
  8
Make2D visible lines
100
AcDbSpline
210
0.0
220
0.0
230
1.0
 70
    12
 71
     2
 72
     6
 73
     3
 74
     0
 42
0.0000000001
 43
0.0000000001
 40
0.0
 40
0.0
 40
0.0
 40
0.2259576718196235
 40
0.2259576718196235
 40
0.2259576718196235
 10
-0.4077638519746358
 20
0.1594216323489093
 30
0.0
 41
1.0
 10
-0.4052858574621696
 20
0.2723732898507527
 30
0.0
 41
0.9999999984910576
 10
-0.4028202730270731
 20
0.3853252189294936
 30
0.0
 41
1.0
  0
SPLINE
  5
A1
330
1F
100
AcDbEntity
  8
Make2D visible lines
100
AcDbSpline
210
0.0
220
0.0
230
1.0
 70
    12
 71
     2
 72
     6
 73
     3
 74
     0
 42
0.0000000001
 43
0.0000000001
 40
0.0
 40
0.0
 40
0.0
 40
0.0232125536774005
 40
0.0232125536774005
 40
0.0232125536774005
 10
-0.4028183684629205
 20
0.3853269610145591
 30
0.0
 41
1.0
 10
-0.4024518561251791
 20
0.3999502926109969
 30
0.0
 41
0.7170957278319929
 10
-0.3878240166588611
 20
0.3999999999617776
 30
0.0
 41
1.0
  0
SPLINE
  5
A2
330
1F
100
AcDbEntity
  8
Make2D visible lines
100
AcDbSpline
210
0.0
220
0.0
230
1.0
 70
    12
 71
     2
 72
     6
 73
     3
 74
     0
 42
0.0000000001
 43
0.0000000001
 40
0.0
 40
0.0
 40
0.0
 40
0.0232077921390905
 40
0.0232077921390905
 40
0.0232077921390905
 10
0.387824382414756
 20
0.3999999999470365
 30
0.0
 41
1.0
 10
0.4024415566350914
 20
0.3999392744149043
 30
0.0
 41
0.7176120634141828
 10
0.4028184109592292
 20
0.3853268327778507
 30
0.0
 41
1.0
  0
SPLINE
  5
A4
330
1F
100
AcDbEntity
  8
Default
100
AcDbSpline
210
0.0
220
0.0
230
1.0
 70
     8
 71
     3
 72
    10
 73
     6
 74
     0
 42
0.0000000001
 43
0.0000000001
 40
0.0
 40
0.0
 40
0.0
 40
0.0
 40
1.0
 40
2.0
 40
3.0
 40
3.0
 40
3.0
 40
3.0
 10
9.451220845788054
 20
22.76733521369506
 30
0.0
 10
9.837165255510062
 20
22.71781918797249
 30
0.0
 10
10.60621124986806
 20
22.59885566715139
 30
0.0
 10
11.75054056906566
 20
22.363514339845
 30
0.0
 10
12.49347058494109
 20
22.13851786835616
 30
0.0
 10
12.86603319568208
 20
22.02681302618199
 30
0.0
  0
SPLINE
  5
A5
330
1F
100
AcDbEntity
  8
Default
100
AcDbSpline
210
0.0
220
0.0
230
1.0
 70
     8
 71
     3
 72
    24
 73
    20
 74
     0
 42
0.0000000001
 43
0.0000000001
 40
-17.0
 40
-17.0
 40
-17.0
 40
-17.0
 40
-16.0
 40
-15.0
 40
-14.0
 40
-13.0
 40
-12.0
 40
-11.0
 40
-10.0
 40
-9.0
 40
-8.0
 40
-7.0
 40
-6.0
 40
-5.0
 40
-4.0
 40
-3.0
 40
-2.0
 40
-1.0
 40
0.0
 40
0.0
 40
0.0
 40
0.0
 10
12.86603319568208
 20
22.02681302618199
 30
0.0
 10
13.04831480642732
 20
21.90837642069129
 30
0.0
 10
13.01143174416587
 20
21.47750647236283
 30
0.0
 10
12.8551323070349
 20
20.93699979590403
 30
0.0
 10
12.62092293699034
 20
20.40214528979427
 30
0.0
 10
12.35657899154999
 20
19.88888606149677
 30
0.0
 10
12.09691471619011
 20
19.37151483806592
 30
0.0
 10
11.82037039949947
 20
18.86331868310192
 30
0.0
 10
11.52266792761303
 20
18.36709884254149
 30
0.0
 10
11.21026727563287
 20
17.8801759172901
 30
0.0
 10
10.88975410030301
 20
17.39836427444097
 30
0.0
 10
10.55151996505419
 20
16.92925889982143
 30
0.0
 10
10.19862732611481
 20
16.46943396448372
 30
0.0
 10
9.780956084325966
 20
16.06741808201798
 30
0.0
 10
9.324398863786229
 20
15.71040009049677
 30
0.0
 10
8.81211054372396
 20
15.43647088508143
 30
0.0
 10
8.264844316289777
 20
15.24487691570247
 30
0.0
 10
7.691505799970269
 20
15.1454533610457
 30
0.0
 10
7.304494249100342
 20
15.16694790006878
 30
0.0
 10
7.112618991909198
 20
15.18385882253642
 30
0.0
  0
SPLINE
  5
A6
330
1F
100
AcDbEntity
  8
Default
100
AcDbSpline
210
0.0
220
0.0
230
1.0
 70
     8
 71
     3
 72
    10
 73
     6
 74
     0
 42
0.0000000001
 43
0.0000000001
 40
0.0
 40
0.0
 40
0.0
 40
0.0
 40
1.0
 40
2.0
 40
3.0
 40
3.0
 40
3.0
 40
3.0
 10
-9.451220845788054
 20
22.76733521369506
 30
0.0
 10
-9.837165255510062
 20
22.71781918797249
 30
0.0
 10
-10.60621124986806
 20
22.59885566715139
 30
0.0
 10
-11.75054056906566
 20
22.363514339845
 30
0.0
 10
-12.49347058494109
 20
22.13851786835616
 30
0.0
 10
-12.86603319568208
 20
22.02681302618199
 30
0.0
  0
SPLINE
  5
A7
330
1F
100
AcDbEntity
  8
Default
100
AcDbSpline
210
0.0
220
0.0
230
1.0
 70
     8
 71
     3
 72
    24
 73
    20
 74
     0
 42
0.0000000001
 43
0.0000000001
 40
-17.0
 40
-17.0
 40
-17.0
 40
-17.0
 40
-16.0
 40
-15.0
 40
-14.0
 40
-13.0
 40
-12.0
 40
-11.0
 40
-10.0
 40
-9.0
 40
-8.0
 40
-7.0
 40
-6.0
 40
-5.0
 40
-4.0
 40
-3.0
 40
-2.0
 40
-1.0
 40
0.0
 40
0.0
 40
0.0
 40
0.0
 10
-12.86603319568208
 20
22.02681302618199
 30
0.0
 10
-13.04831480642732
 20
21.90837642069129
 30
0.0
 10
-13.01143174416587
 20
21.47750647236283
 30
0.0
 10
-12.8551323070349
 20
20.93699979590403
 30
0.0
 10
-12.62092293699034
 20
20.40214528979427
 30
0.0
 10
-12.35657899154999
 20
19.88888606149677
 30
0.0
 10
-12.09691471619011
 20
19.37151483806592
 30
0.0
 10
-11.82037039949947
 20
18.86331868310192
 30
0.0
 10
-11.52266792761303
 20
18.36709884254149
 30
0.0
 10
-11.21026727563287
 20
17.8801759172901
 30
0.0
 10
-10.88975410030301
 20
17.39836427444097
 30
0.0
 10
-10.55151996505419
 20
16.92925889982143
 30
0.0
 10
-10.19862732611481
 20
16.46943396448372
 30
0.0
 10
-9.780956084325966
 20
16.06741808201798
 30
0.0
 10
-9.324398863786229
 20
15.71040009049677
 30
0.0
 10
-8.81211054372396
 20
15.43647088508143
 30
0.0
 10
-8.264844316289777
 20
15.24487691570247
 30
0.0
 10
-7.691505799970269
 20
15.1454533610457
 30
0.0
 10
-7.304494249100342
 20
15.16694790006878
 30
0.0
 10
-7.112618991909198
 20
15.18385882253642
 30
0.0
  0
SPLINE
  5
A8
330
1F
100
AcDbEntity
  8
Default
100
AcDbSpline
210
0.0
220
0.0
230
1.0
 70
    12
 71
     2
 72
     6
 73
     3
 74
     0
 42
0.0000000001
 43
0.0000000001
 40
0.0
 40
0.0
 40
0.0
 40
0.0638453656619469
 40
0.0638453656619469
 40
0.0638453656619469
 10
-4.500000525700468
 20
11.35465688830298
 30
0.0
 41
1.0
 10
-4.500000143414471
 20
11.32273420547383
 30
0.0
 41
0.9999999999776903
 10
-4.499999334655723
 20
11.29081152265262
 30
0.0
 41
1.0
  0
SPLINE
  5
A9
330
1F
100
AcDbEntity
  8
Default
100
AcDbSpline
210
0.0
220
0.0
230
1.0
 70
     8
 71
     3
 72
    18
 73
    14
 74
     0
 42
0.0000000001
 43
0.0000000001
 40
0.0
 40
0.0
 40
0.0
 40
0.0
 40
0.9254853175734451
 40
1.981547862576412
 40
2.922780702466616
 40
5.202892339369122
 40
6.806635057358396
 40
7.075554889082884
 40
7.35175695964189
 40
8.926946182333468
 40
11.20019661017632
 40
12.15658972317423
 40
14.15002827629614
 40
14.15002827629614
 40
14.15002827629614
 40
14.15002827629614
 10
-7.072084197509799
 20
15.18683610737995
 30
0.0
 10
-6.764392542217433
 20
15.20910406648505
 30
0.0
 10
-6.104832697954772
 20
15.24579539244479
 30
0.0
 10
-5.131016061509472
 20
15.27669067885395
 30
0.0
 10
-3.70547023991605
 20
15.30357574458479
 30
0.0
 10
-2.097203934597269
 20
15.32361659043471
 30
0.0
 10
-0.7132462039742133
 20
15.35149572824035
 30
0.0
 10
0.0029658456222457
 20
15.36426012638712
 30
0.0
 10
0.7096718093917165
 20
15.3515882333476
 30
0.0
 10
2.084238426799125
 20
15.32411595422772
 30
0.0
 10
3.685781661831594
 20
15.30403589525848
 30
0.0
 10
5.426455250949559
 20
15.2712692934214
 30
0.0
 10
6.409254080656499
 20
15.23460166996534
 30
0.0
 10
7.072082199754316
 20
15.18683612327443
 30
0.0
  0
SPLINE
  5
AA
330
1F
100
AcDbEntity
  8
Default
100
AcDbSpline
210
0.0
220
0.0
230
1.0
 70
     8
 71
     3
 72
    19
 73
    15
 74
     0
 42
0.0000000001
 43
0.0000000001
 40
-12.0
 40
-12.0
 40
-12.0
 40
-12.0
 40
-10.99999994264151
 40
-9.999999885283016
 40
-8.999999827924523
 40
-7.99999977056603
 40
-6.999999713207538
 40
-5.999999655849044
 40
-4.999999598490552
 40
-3.99999954113206
 40
-2.999999483773567
 40
-1.999999426415075
 40
-0.9999993690565827
 40
0.0
 40
0.0
 40
0.0
 40
0.0
 10
9.579798477433119
 20
15.9149886648074
 30
0.0
 10
9.417039482098676
 20
16.14320893930063
 30
0.0
 10
8.874193032982522
 20
16.29314684163177
 30
0.0
 10
8.086768703993322
 20
16.44201331700101
 30
0.0
 10
7.280167103544427
 20
16.54173672415356
 30
0.0
 10
6.474585632316312
 20
16.62019069739825
 30
0.0
 10
5.666670408160801
 20
16.68183063155427
 30
0.0
 10
4.858185093227288
 20
16.73146706220304
 30
0.0
 10
4.049086443624999
 20
16.77110832859358
 30
0.0
 10
3.239632264798128
 20
16.80212504327666
 30
0.0
 10
2.429916509209613
 20
16.82542909127757
 30
0.0
 10
1.620031756911371
 20
16.84172377629105
 30
0.0
 10
0.8100413455233895
 20
16.85139429066475
 30
0.0
 10
0.2700137256778342
 20
16.85354383743647
 30
0.0
 10
0.0
 20
16.85354424083515
 30
0.0
  0
SPLINE
  5
AB
330
1F
100
AcDbEntity
  8
Default
100
AcDbSpline
210
0.0
220
0.0
230
1.0
 70
     8
 71
     3
 72
    19
 73
    15
 74
     0
 42
0.0000000001
 43
0.0000000001
 40
0.0
 40
0.0
 40
0.0
 40
0.0
 40
0.9999993690565827
 40
1.999999426415075
 40
2.999999483773567
 40
3.99999954113206
 40
4.999999598490552
 40
5.999999655849044
 40
6.999999713207538
 40
7.99999977056603
 40
8.999999827924523
 40
9.999999885283016
 40
10.99999994264151
 40
12.0
 40
12.0
 40
12.0
 40
12.0
 10
0.0
 20
16.85354424083515
 30
0.0
 10
-0.2700137256778342
 20
16.85354383743647
 30
0.0
 10
-0.8100413455233895
 20
16.85139429066475
 30
0.0
 10
-1.620031756911371
 20
16.84172377629105
 30
0.0
 10
-2.429916509209613
 20
16.82542909127757
 30
0.0
 10
-3.239632264798128
 20
16.80212504327666
 30
0.0
 10
-4.049086443624999
 20
16.77110832859358
 30
0.0
 10
-4.858185093227288
 20
16.73146706220304
 30
0.0
 10
-5.666670408160801
 20
16.68183063155427
 30
0.0
 10
-6.474585632316312
 20
16.62019069739825
 30
0.0
 10
-7.280167103544427
 20
16.54173672415356
 30
0.0
 10
-8.086768703993322
 20
16.44201331700101
 30
0.0
 10
-8.874193032982522
 20
16.29314684163177
 30
0.0
 10
-9.417039482098676
 20
16.14320893930063
 30
0.0
 10
-9.579798477433119
 20
15.9149886648074
 30
0.0
  0
SPLINE
  5
AC
330
1F
100
AcDbEntity
  8
Default
100
AcDbSpline
210
0.0
220
0.0
230
1.0
 70
    12
 71
     3
 72
    12
 73
     8
 74
     0
 42
0.0000000001
 43
0.0000000001
 40
0.0000015244031389
 40
0.0000015244031389
 40
0.0000015244031389
 40
0.0000015244031389
 40
1.655878507711192
 40
1.655878507711192
 40
3.575934564302206
 40
4.856026097711562
 40
5.213941575815037
 40
5.213941575815037
 40
5.213941575815037
 40
5.213941575815037
 10
0.0
 20
39.80403403070417
 30
0.0
 41
1.0
 10
-0.551959599774154
 20
39.80402257664809
 30
0.0
 41
1.0
 10
-1.10353119290996
 20
39.81084305453967
 30
0.0
 41
1.0
 10
-2.291306950749718
 20
39.8305176618171
 30
0.0
 41
1.0
 10
-3.351664890896622
 20
39.85308517378705
 30
0.0
 41
1.0
 10
-4.5229981160604
 20
39.873648622133
 30
0.0
 41
1.0
 10
-5.060501326416954
 20
39.88038187706769
 30
0.0
 41
1.0
 10
-5.177866684175871
 20
39.88166157012809
 30
0.0
 41
1.0
  0
SPLINE
  5
AD
330
1F
100
AcDbEntity
  8
Default
100
AcDbSpline
210
0.0
220
0.0
230
1.0
 70
     8
 71
     3
 72
     8
 73
     4
 74
     0
 42
0.0000000001
 43
0.0000000001
 40
0.0
 40
0.0
 40
0.0
 40
0.0
 40
1.0
 40
1.0
 40
1.0
 40
1.0
 10
-5.177866684175871
 20
39.88166157012809
 30
0.0
 10
-5.740479531106824
 20
39.88779601873934
 30
0.0
 10
-6.303201445723806
 20
39.8901427216539
 30
0.0
 10
-6.865804854608335
 20
39.8831964058662
 30
0.0
  0
SPLINE
  5
AE
330
1F
100
AcDbEntity
  8
Default
100
AcDbSpline
210
0.0
220
0.0
230
1.0
 70
     8
 71
     3
 72
    14
 73
    10
 74
     0
 42
0.0000000001
 43
0.0000000001
 40
0.0
 40
0.0
 40
0.0
 40
0.0
 40
1.0
 40
2.0
 40
3.0
 40
4.0
 40
5.0
 40
6.0
 40
7.0
 40
7.0
 40
7.0
 40
7.0
 10
-6.865804854608335
 20
39.8831964058662
 30
0.0
 10
-7.00125010314264
 20
39.88152409913396
 30
0.0
 10
-7.271751712080109
 20
39.85032075984633
 30
0.0
 10
-7.659443149838179
 20
39.72072870006375
 30
0.0
 10
-8.007193046384305
 20
39.50500236065185
 30
0.0
 10
-8.295807779272742
 20
39.21515124278716
 30
0.0
 10
-8.509237336640245
 20
38.86590901328475
 30
0.0
 10
-8.634592013502607
 20
38.47661531183273
 30
0.0
 10
-8.660424379766914
 20
38.20548270492957
 30
0.0
 10
-8.660342120238935
 20
38.07006090390138
 30
0.0
  0
SPLINE
  5
AF
330
1F
100
AcDbEntity
  8
Default
100
AcDbSpline
210
0.0
220
0.0
230
1.0
 70
    12
 71
     2
 72
     6
 73
     3
 74
     0
 42
0.0000000001
 43
0.0000000001
 40
-12.85135725885201
 40
-12.85135725885201
 40
-12.85135725885201
 40
0.0
 40
0.0
 40
0.0
 10
-8.660342120238935
 20
38.07006090390138
 30
0.0
 41
1.0
 10
-8.571758563186432
 20
31.64404055674726
 30
0.0
 41
0.9997777544588874
 10
-8.212369994691802
 20
25.22746636131757
 30
0.0
 41
1.0
  0
SPLINE
  5
B0
330
1F
100
AcDbEntity
  8
Default
100
AcDbSpline
210
0.0
220
0.0
230
1.0
 70
     8
 71
     3
 72
    14
 73
    10
 74
     0
 42
0.0000000001
 43
0.0000000001
 40
0.0
 40
0.0
 40
0.0
 40
0.0
 40
1.0
 40
2.0
 40
3.0
 40
4.0
 40
5.0
 40
6.0
 40
7.0
 40
7.0
 40
7.0
 40
7.0
 10
-8.212369994691802
 20
25.22746636131757
 30
0.0
 10
-8.203348670836244
 20
25.09093751166493
 30
0.0
 10
-8.21817292965104
 20
24.81603471411986
 30
0.0
 10
-8.326125425906634
 20
24.41808712448309
 30
0.0
 10
-8.503678497433997
 20
24.04642310031053
 30
0.0
 10
-8.738729102400226
 20
23.70855488485169
 30
0.0
 10
-9.01950286815481
 20
23.4073031592838
 30
0.0
 10
-9.357380843473617
 20
23.16897464917958
 30
0.0
 10
-9.638497564180101
 20
23.07191633641015
 30
0.0
 10
-9.773845312746076
 20
23.05150828636722
 30
0.0
  0
SPLINE
  5
B1
330
1F
100
AcDbEntity
  8
Default
100
AcDbSpline
210
0.0
220
0.0
230
1.0
 70
    12
 71
     3
 72
    40
 73
    36
 74
     0
 42
0.0000000001
 43
0.0000000001
 40
-21.96582129936726
 40
-21.96582129936726
 40
-21.96582129936726
 40
-21.96582129936726
 40
-21.47285071712852
 40
-20.96588855570332
 40
-20.03040031456323
 40
-19.32348620733794
 40
-18.36566766884025
 40
-18.36566766884025
 40
-18.36566766884025
 40
-18.0
 40
-18.0
 40
-18.0
 40
-17.0
 40
-16.0
 40
-15.0
 40
-14.0
 40
-13.0
 40
-12.0
 40
-11.0
 40
-10.0
 40
-9.0
 40
-8.0
 40
-7.0
 40
-7.0
 40
-7.0
 40
-6.0
 40
-5.0
 40
-4.0
 40
-3.0
 40
-2.0
 40
-1.0
 40
0.0
 40
0.0
 40
0.0
 40
1.0
 40
1.0
 40
1.0
 40
1.0
 10
-9.773845312746076
 20
23.05150828636722
 30
0.0
 41
1.0
 10
-9.93632958609109
 20
23.02700852765865
 30
0.0
 41
1.0
 10
-10.28729589375195
 20
22.98160601034573
 30
0.0
 41
1.0
 10
-10.92435709398598
 20
22.87960348178102
 30
0.0
 41
1.0
 10
-11.62876551689731
 20
22.74808459757424
 30
0.0
 41
1.0
 10
-12.47190388114772
 20
22.54537975120193
 30
0.0
 41
1.0
 10
-13.09285601967382
 20
22.36609376642396
 30
0.0
 41
1.0
 10
-13.39424867098563
 20
22.26092600999151
 30
0.0
 41
1.0
 10
-13.51000983739903
 20
22.22053238360177
 30
0.0
 41
0.9883581237286712
 10
-13.61623777803105
 20
22.1593014680377
 30
0.0
 41
0.9883581237286712
 10
-13.70922241525749
 20
22.07937179152824
 30
0.0
 41
1.0
 10
-13.85213496313136
 20
21.94441695497289
 30
0.0
 41
1.0
 10
-13.829752876896
 20
21.54786666921647
 30
0.0
 41
1.0
 10
-13.62822427316106
 20
21.04163127902065
 30
0.0
 41
1.0
 10
-13.38162993243203
 20
20.54716250170868
 30
0.0
 41
1.0
 10
-13.13609041941228
 20
20.05485128229724
 30
0.0
 41
1.0
 10
-12.89130475741731
 20
19.56143776992471
 30
0.0
 41
1.0
 10
-12.63719853993839
 20
19.07290557545946
 30
0.0
 41
1.0
 10
-12.36776840158855
 20
18.59257162738503
 30
0.0
 41
1.0
 10
-12.08376260583835
 20
18.12074140387029
 30
0.0
 41
1.0
 10
-11.7866037094319
 20
17.65709771253413
 30
0.0
 41
1.0
 10
-11.47889095853603
 20
17.20039500848763
 30
0.0
 41
1.0
 10
-11.26586715784026
 20
16.90138158723282
 30
0.0
 41
1.0
 10
-11.15765789391559
 20
16.75311985183706
 30
0.0
 41
1.0
 10
-11.03409866176527
 20
16.58011430184635
 30
0.0
 41
1.0
 10
-10.76590832192685
 20
16.24923877313044
 30
0.0
 41
1.0
 10
-10.30682830844912
 20
15.80468689786395
 30
0.0
 41
1.0
 10
-9.792969348286181
 20
15.4245267882809
 30
0.0
 41
1.0
 10
-9.231512476361774
 20
15.11834196323222
 30
0.0
 41
1.0
 10
-8.630694276045052
 20
14.89982049068551
 30
0.0
 41
1.0
 10
-8.002675155631582
 20
14.77376692266676
 30
0.0
 41
1.0
 10
-7.57583504804677
 20
14.77321227684003
 30
0.0
 41
1.0
 10
-7.363562977095139
 20
14.78090748588107
 30
0.0
 41
1.0
 10
-4.909028452583512
 20
14.85261831523635
 30
0.0
 41
1.0
 10
-2.45558184043341
 20
14.99742505549331
 30
0.0
 41
1.0
 10
0.0
 20
14.9974250554933
 30
0.0
 41
1.0
  0
SPLINE
  5
B2
330
1F
100
AcDbEntity
  8
Default
100
AcDbSpline
210
0.0
220
0.0
230
1.0
 70
    12
 71
     3
 72
    40
 73
    36
 74
     0
 42
0.0000000001
 43
0.0000000001
 40
-1.0
 40
-1.0
 40
-1.0
 40
-1.0
 40
0.0
 40
0.0
 40
0.0
 40
1.0
 40
2.0
 40
3.0
 40
4.0
 40
5.0
 40
6.0
 40
7.0
 40
7.0
 40
7.0
 40
8.0
 40
9.0
 40
10.0
 40
11.0
 40
12.0
 40
13.0
 40
14.0
 40
15.0
 40
16.0
 40
17.0
 40
18.0
 40
18.0
 40
18.0
 40
18.36566766884025
 40
18.36566766884025
 40
18.36566766884025
 40
19.32348620733794
 40
20.03040031456323
 40
20.96588855570332
 40
21.47285071712852
 40
21.96582129936726
 40
21.96582129936726
 40
21.96582129936726
 40
21.96582129936726
 10
0.0
 20
14.9974250554933
 30
0.0
 41
1.0
 10
2.45558184043341
 20
14.99742505549331
 30
0.0
 41
1.0
 10
4.909028452583512
 20
14.85261831523635
 30
0.0
 41
1.0
 10
7.363562977095139
 20
14.78090748588107
 30
0.0
 41
1.0
 10
7.57583504804677
 20
14.77321227684003
 30
0.0
 41
1.0
 10
8.002675155631582
 20
14.77376692266676
 30
0.0
 41
1.0
 10
8.630694276045052
 20
14.89982049068551
 30
0.0
 41
1.0
 10
9.231512476361774
 20
15.11834196323222
 30
0.0
 41
1.0
 10
9.792969348286181
 20
15.4245267882809
 30
0.0
 41
1.0
 10
10.30682830844912
 20
15.80468689786395
 30
0.0
 41
1.0
 10
10.76590832192685
 20
16.24923877313044
 30
0.0
 41
1.0
 10
11.03409866176527
 20
16.58011430184635
 30
0.0
 41
1.0
 10
11.15765789391559
 20
16.75311985183706
 30
0.0
 41
1.0
 10
11.26586715784026
 20
16.90138158723282
 30
0.0
 41
1.0
 10
11.47889095853603
 20
17.20039500848763
 30
0.0
 41
1.0
 10
11.7866037094319
 20
17.65709771253413
 30
0.0
 41
1.0
 10
12.08376260583835
 20
18.12074140387029
 30
0.0
 41
1.0
 10
12.36776840158855
 20
18.59257162738503
 30
0.0
 41
1.0
 10
12.63719853993839
 20
19.07290557545946
 30
0.0
 41
1.0
 10
12.89130475741731
 20
19.56143776992471
 30
0.0
 41
1.0
 10
13.13609041941228
 20
20.05485128229724
 30
0.0
 41
1.0
 10
13.38162993243203
 20
20.54716250170868
 30
0.0
 41
1.0
 10
13.62822427316106
 20
21.04163127902065
 30
0.0
 41
1.0
 10
13.829752876896
 20
21.54786666921647
 30
0.0
 41
1.0
 10
13.85213496313136
 20
21.94441695497289
 30
0.0
 41
1.0
 10
13.70922241525749
 20
22.07937179152824
 30
0.0
 41
1.0
 10
13.61623777803105
 20
22.1593014680377
 30
0.0
 41
0.9883581237286712
 10
13.51000983739903
 20
22.22053238360177
 30
0.0
 41
0.9883581237286712
 10
13.39424867098563
 20
22.26092600999151
 30
0.0
 41
1.0
 10
13.09285601967382
 20
22.36609376642396
 30
0.0
 41
1.0
 10
12.47190388114772
 20
22.54537975120193
 30
0.0
 41
1.0
 10
11.62876551689731
 20
22.74808459757424
 30
0.0
 41
1.0
 10
10.92435709398598
 20
22.87960348178102
 30
0.0
 41
1.0
 10
10.28729589375195
 20
22.98160601034573
 30
0.0
 41
1.0
 10
9.93632958609109
 20
23.02700852765865
 30
0.0
 41
1.0
 10
9.773845312746076
 20
23.05150828636722
 30
0.0
 41
1.0
  0
SPLINE
  5
B3
330
1F
100
AcDbEntity
  8
Default
100
AcDbSpline
210
0.0
220
0.0
230
1.0
 70
     8
 71
     3
 72
    14
 73
    10
 74
     0
 42
0.0000000001
 43
0.0000000001
 40
-7.0
 40
-7.0
 40
-7.0
 40
-7.0
 40
-6.0
 40
-5.0
 40
-4.0
 40
-3.0
 40
-2.0
 40
-1.0
 40
0.0
 40
0.0
 40
0.0
 40
0.0
 10
9.773845312746076
 20
23.05150828636722
 30
0.0
 10
9.638497564180101
 20
23.07191633641015
 30
0.0
 10
9.357380843473617
 20
23.16897464917958
 30
0.0
 10
9.01950286815481
 20
23.4073031592838
 30
0.0
 10
8.738729102400226
 20
23.70855488485169
 30
0.0
 10
8.503678497433997
 20
24.04642310031053
 30
0.0
 10
8.326125425906634
 20
24.41808712448309
 30
0.0
 10
8.21817292965104
 20
24.81603471411986
 30
0.0
 10
8.203348670836244
 20
25.09093751166493
 30
0.0
 10
8.212369994691802
 20
25.22746636131757
 30
0.0
  0
SPLINE
  5
B4
330
1F
100
AcDbEntity
  8
Default
100
AcDbSpline
210
0.0
220
0.0
230
1.0
 70
    12
 71
     2
 72
     6
 73
     3
 74
     0
 42
0.0000000001
 43
0.0000000001
 40
0.0
 40
0.0
 40
0.0
 40
12.85135725885201
 40
12.85135725885201
 40
12.85135725885201
 10
8.212369994691802
 20
25.22746636131757
 30
0.0
 41
1.0
 10
8.571758563186432
 20
31.64404055674726
 30
0.0
 41
0.9997777544588874
 10
8.660342120238935
 20
38.07006090390138
 30
0.0
 41
1.0
  0
SPLINE
  5
B5
330
1F
100
AcDbEntity
  8
Default
100
AcDbSpline
210
0.0
220
0.0
230
1.0
 70
     8
 71
     3
 72
    14
 73
    10
 74
     0
 42
0.0000000001
 43
0.0000000001
 40
-7.0
 40
-7.0
 40
-7.0
 40
-7.0
 40
-6.0
 40
-5.0
 40
-4.0
 40
-3.0
 40
-2.0
 40
-1.0
 40
0.0
 40
0.0
 40
0.0
 40
0.0
 10
8.660342120238935
 20
38.07006090390138
 30
0.0
 10
8.660424379766914
 20
38.20548270492957
 30
0.0
 10
8.634592013502607
 20
38.47661531183273
 30
0.0
 10
8.509237336640245
 20
38.86590901328475
 30
0.0
 10
8.295807779272742
 20
39.21515124278716
 30
0.0
 10
8.007193046384305
 20
39.50500236065185
 30
0.0
 10
7.659443149838179
 20
39.72072870006375
 30
0.0
 10
7.271751712080109
 20
39.85032075984633
 30
0.0
 10
7.00125010314264
 20
39.88152409913396
 30
0.0
 10
6.865804854608335
 20
39.8831964058662
 30
0.0
  0
SPLINE
  5
B6
330
1F
100
AcDbEntity
  8
Default
100
AcDbSpline
210
0.0
220
0.0
230
1.0
 70
     8
 71
     3
 72
     8
 73
     4
 74
     0
 42
0.0000000001
 43
0.0000000001
 40
-1.0
 40
-1.0
 40
-1.0
 40
-1.0
 40
0.0
 40
0.0
 40
0.0
 40
0.0
 10
6.865804854608335
 20
39.8831964058662
 30
0.0
 10
6.303201445723806
 20
39.8901427216539
 30
0.0
 10
5.740479531106824
 20
39.88779601873934
 30
0.0
 10
5.177866684175871
 20
39.88166157012809
 30
0.0
  0
SPLINE
  5
B7
330
1F
100
AcDbEntity
  8
Default
100
AcDbSpline
210
0.0
220
0.0
230
1.0
 70
    12
 71
     3
 72
    12
 73
     8
 74
     0
 42
0.0000000001
 43
0.0000000001
 40
-5.213941575815037
 40
-5.213941575815037
 40
-5.213941575815037
 40
-5.213941575815037
 40
-4.856026097711562
 40
-3.575934564302206
 40
-1.655878507711192
 40
-1.655878507711192
 40
-0.0000015244031389
 40
-0.0000015244031389
 40
-0.0000015244031389
 40
-0.0000015244031389
 10
5.177866684175871
 20
39.88166157012809
 30
0.0
 41
1.0
 10
5.060501326416954
 20
39.88038187706769
 30
0.0
 41
1.0
 10
4.5229981160604
 20
39.873648622133
 30
0.0
 41
1.0
 10
3.351664890896622
 20
39.85308517378705
 30
0.0
 41
1.0
 10
2.291306950749718
 20
39.8305176618171
 30
0.0
 41
1.0
 10
1.10353119290996
 20
39.81084305453967
 30
0.0
 41
1.0
 10
0.551959599774154
 20
39.80402257664809
 30
0.0
 41
1.0
 10
0.0
 20
39.80403403070417
 30
0.0
 41
1.0
  0
SPLINE
  5
B8
330
1F
100
AcDbEntity
  8
Default
100
AcDbSpline
210
0.0
220
0.0
230
1.0
 70
     8
 71
     3
 72
    11
 73
     7
 74
     0
 42
0.0000000001
 43
0.0000000001
 40
0.0
 40
0.0
 40
0.0
 40
0.0
 40
0.1290889925177595
 40
0.2609259994466885
 40
0.5361425090251268
 40
1.198229879357077
 40
1.198229879357077
 40
1.198229879357077
 40
1.198229879357077
 10
-13.76364058738036
 20
22.02823056945875
 30
0.0
 10
-13.7932129268604
 20
21.99706002015487
 30
0.0
 10
-13.84632791415013
 20
21.92745647626041
 30
0.0
 10
-13.92973291458191
 20
21.76910520964855
 30
0.0
 10
-14.00752622179263
 20
21.41488994713262
 30
0.0
 10
-13.92938919087197
 20
21.10151120871712
 30
0.0
 10
-13.85596687457265
 20
20.8953428863398
 30
0.0
  0
SPLINE
  5
B9
330
1F
100
AcDbEntity
  8
Default
100
AcDbSpline
210
0.0
220
0.0
230
1.0
 70
    12
 71
     3
 72
    29
 73
    25
 74
     0
 42
0.0000000001
 43
0.0000000001
 40
0.0
 40
0.0
 40
0.0
 40
0.0
 40
1.0
 40
2.0
 40
3.0
 40
4.0
 40
5.0
 40
6.0
 40
7.0
 40
8.0
 40
9.0
 40
10.0
 40
10.0
 40
10.0
 40
11.0
 40
11.0
 40
11.0
 40
11.45028914945505
 40
11.88929203962941
 40
12.71985186552332
 40
14.52546266253197
 40
14.52546266253197
 40
14.52546266253197
 40
19.03331969655663
 40
19.03331969655663
 40
19.03331969655663
 40
19.03331969655663
 10
-13.85596687457265
 20
20.8953428863398
 30
0.0
 41
1.0
 10
-13.74625544603186
 20
20.5872754988215
 30
0.0
 41
1.0
 10
-13.47744091830254
 20
19.82949221022339
 30
0.0
 41
1.0
 10
-13.16815573947031
 20
18.89836180942662
 30
0.0
 41
1.0
 10
-12.81764204415382
 20
17.98178595313573
 30
0.0
 41
1.0
 10
-12.43363080437166
 20
17.07896645549848
 30
0.0
 41
1.0
 10
-12.03569416761365
 20
16.18220457242636
 30
0.0
 41
1.0
 10
-11.60462288227209
 20
15.30047366235502
 30
0.0
 41
1.0
 10
-11.09673893229347
 20
14.45945514907217
 30
0.0
 41
1.0
 10
-10.48954804152392
 20
13.68601515802963
 30
0.0
 41
1.0
 10
-9.775175162194465
 20
13.00953944163318
 30
0.0
 41
1.0
 10
-9.237078440121339
 20
12.63451933535662
 30
0.0
 41
1.0
 10
-8.954648798320953
 20
12.46961684595049
 30
0.0
 41
1.0
 10
-8.635427227379582
 20
12.28323261451925
 30
0.0
 41
1.0
 10
-8.287948620980622
 20
12.14601884223059
 30
0.0
 41
1.0
 10
-7.938438624406281
 20
12.02566829019572
 30
0.0
 41
1.0
 10
-7.796590539126807
 20
11.97682420694833
 30
0.0
 41
1.0
 10
-7.515127593791302
 20
11.8831456658847
 30
0.0
 41
1.0
 10
-6.966105543417811
 20
11.71880362202298
 30
0.0
 41
1.0
 10
-5.971220287392828
 20
11.46782895104999
 30
0.0
 41
1.0
 10
-5.098805287844538
 20
11.34914556480112
 30
0.0
 41
1.0
 10
-4.500373116418732
 20
11.28387810996113
 30
0.0
 41
1.0
 10
-3.004817538208456
 20
11.12890409506243
 30
0.0
 41
0.9990783173093772
 10
-1.503309251871535
 20
11.05276342711075
 30
0.0
 41
0.9990783173093772
 10
0.0
 20
11.0556666387132
 30
0.0
 41
1.0
  0
SPLINE
  5
BA
330
1F
100
AcDbEntity
  8
Default
100
AcDbSpline
210
0.0
220
0.0
230
1.0
 70
    12
 71
     3
 72
    29
 73
    25
 74
     0
 42
0.0000000001
 43
0.0000000001
 40
-19.03331969655663
 40
-19.03331969655663
 40
-19.03331969655663
 40
-19.03331969655663
 40
-14.52546266253197
 40
-14.52546266253197
 40
-14.52546266253197
 40
-12.71985186552332
 40
-11.88929203962941
 40
-11.45028914945505
 40
-11.0
 40
-11.0
 40
-11.0
 40
-10.0
 40
-10.0
 40
-10.0
 40
-9.0
 40
-8.0
 40
-7.0
 40
-6.0
 40
-5.0
 40
-4.0
 40
-3.0
 40
-2.0
 40
-1.0
 40
0.0
 40
0.0
 40
0.0
 40
0.0
 10
0.0
 20
11.0556666387132
 30
0.0
 41
1.0
 10
1.503309251871535
 20
11.05276342711075
 30
0.0
 41
0.9990783173093772
 10
3.004817538208456
 20
11.12890409506243
 30
0.0
 41
0.9990783173093772
 10
4.500373116418732
 20
11.28387810996113
 30
0.0
 41
1.0
 10
5.098805287844538
 20
11.34914556480112
 30
0.0
 41
1.0
 10
5.971220287392828
 20
11.46782895104999
 30
0.0
 41
1.0
 10
6.966105543417811
 20
11.71880362202298
 30
0.0
 41
1.0
 10
7.515127593791302
 20
11.8831456658847
 30
0.0
 41
1.0
 10
7.796590539126807
 20
11.97682420694833
 30
0.0
 41
1.0
 10
7.938438624406281
 20
12.02566829019572
 30
0.0
 41
1.0
 10
8.287948620980622
 20
12.14601884223059
 30
0.0
 41
1.0
 10
8.635427227379582
 20
12.28323261451925
 30
0.0
 41
1.0
 10
8.954648798320953
 20
12.46961684595049
 30
0.0
 41
1.0
 10
9.237078440121339
 20
12.63451933535662
 30
0.0
 41
1.0
 10
9.775175162194465
 20
13.00953944163318
 30
0.0
 41
1.0
 10
10.48954804152392
 20
13.68601515802963
 30
0.0
 41
1.0
 10
11.09673893229347
 20
14.45945514907217
 30
0.0
 41
1.0
 10
11.60462288227209
 20
15.30047366235502
 30
0.0
 41
1.0
 10
12.03569416761365
 20
16.18220457242636
 30
0.0
 41
1.0
 10
12.43363080437166
 20
17.07896645549848
 30
0.0
 41
1.0
 10
12.81764204415382
 20
17.98178595313573
 30
0.0
 41
1.0
 10
13.16815573947031
 20
18.89836180942662
 30
0.0
 41
1.0
 10
13.47744091830254
 20
19.82949221022339
 30
0.0
 41
1.0
 10
13.74625544603186
 20
20.5872754988215
 30
0.0
 41
1.0
 10
13.85596687457265
 20
20.8953428863398
 30
0.0
 41
1.0
  0
SPLINE
  5
BB
330
1F
100
AcDbEntity
  8
Default
100
AcDbSpline
210
0.0
220
0.0
230
1.0
 70
     8
 71
     3
 72
    11
 73
     7
 74
     0
 42
0.0000000001
 43
0.0000000001
 40
-1.198229879357077
 40
-1.198229879357077
 40
-1.198229879357077
 40
-1.198229879357077
 40
-0.5361425090251268
 40
-0.2609259994466885
 40
-0.1290889925177595
 40
0.0
 40
0.0
 40
0.0
 40
0.0
 10
13.85596687457265
 20
20.8953428863398
 30
0.0
 10
13.92938919087197
 20
21.10151120871712
 30
0.0
 10
14.00752622179263
 20
21.41488994713262
 30
0.0
 10
13.92973291458191
 20
21.76910520964855
 30
0.0
 10
13.84632791415013
 20
21.92745647626041
 30
0.0
 10
13.7932129268604
 20
21.99706002015487
 30
0.0
 10
13.76364058738036
 20
22.02823056945875
 30
0.0
  0
ARC
  5
BC
330
1F
100
AcDbEntity
  8
Default
100
AcDbCircle
 10
47.13286696443877
 20
86.81375515526976
 30
0.0
 40
72.21373350180218
100
AcDbArc
 50
274.0562104814249
 51
276.0137156351834
  0
SPLINE
  5
BD
330
1F
100
AcDbEntity
  8
Default
100
AcDbSpline
210
0.0
220
0.0
230
1.0
 70
     8
 71
     3
 72
    34
 73
    30
 74
     0
 42
0.0000000001
 43
0.0000000001
 40
0.0
 40
0.0
 40
0.0
 40
0.0
 40
1.0
 40
2.0
 40
3.0
 40
4.0
 40
5.0
 40
6.0
 40
7.0
 40
8.0
 40
9.0
 40
10.0
 40
11.0
 40
12.0
 40
13.0
 40
14.0
 40
15.0
 40
16.0
 40
17.0
 40
18.0
 40
19.0
 40
20.0
 40
21.0
 40
22.0
 40
23.0
 40
24.0
 40
25.0
 40
26.0
 40
27.0
 40
27.0
 40
27.0
 40
27.0
 10
52.24091321611586
 20
14.78090730264053
 30
0.0
 10
51.7424824086549
 20
14.745562210871
 30
0.0
 10
50.77029020653494
 20
14.99424476523505
 30
0.0
 10
49.44800511341958
 20
15.69818566293698
 30
0.0
 10
48.39681015467817
 20
16.75918656666635
 30
0.0
 10
47.48522021352942
 20
17.93043440426293
 30
0.0
 10
46.51844625712993
 20
19.05778113431672
 30
0.0
 10
45.64023878226532
 20
20.25660264870479
 30
0.0
 10
44.58368784054995
 20
21.3103621098174
 30
0.0
 10
43.21754519795814
 20
21.9596768578707
 30
0.0
 10
41.74369781659936
 20
22.16799809687804
 30
0.0
 10
40.26183096888818
 20
22.25514021321617
 30
0.0
 10
38.7858786096651
 20
22.41671509373826
 30
0.0
 10
37.30784111399641
 20
22.55621989717819
 30
0.0
 10
35.83384486069739
 20
22.72578445011203
 30
0.0
 10
34.34573947294312
 20
22.79693712013149
 30
0.0
 10
32.90846942525742
 20
23.21596495465469
 30
0.0
 10
31.80818966566239
 20
24.30454065609518
 30
0.0
 10
31.33322923295818
 20
25.7227792184329
 30
0.0
 10
30.88989885755176
 20
27.13638249277057
 30
0.0
 10
30.45607566703857
 20
28.55685202446912
 30
0.0
 10
30.03774874509146
 20
29.9809168676918
 30
0.0
 10
29.63334558243353
 20
31.40930318166899
 30
0.0
 10
29.24341805458774
 20
32.84152357208029
 30
0.0
 10
28.86757411538142
 20
34.27794341977292
 30
0.0
 10
28.50706695638581
 20
35.71671836265789
 30
0.0
 10
28.15749878868072
 20
37.16400801959273
 30
0.0
 10
27.83542626574478
 20
38.5961468316939
 30
0.0
 10
27.51640635895132
 20
39.57871745321629
 30
0.0
 10
27.12524200684452
 20
39.87885227559144
 30
0.0
  0
SPLINE
  5
BE
330
1F
100
AcDbEntity
  8
Default
100
AcDbSpline
210
0.0
220
0.0
230
1.0
 70
     8
 71
     3
 72
    11
 73
     7
 74
     0
 42
0.0000000001
 43
0.0000000001
 40
0.0
 40
0.0
 40
0.0
 40
0.0
 40
1.78266746137814
 40
3.289323513938263
 40
4.454045277921154
 40
5.193467344251839
 40
5.193467344251839
 40
5.193467344251839
 40
5.193467344251839
 10
48.62891590887981
 20
16.70678872485137
 30
0.0
 10
49.22217034629399
 20
16.74084419125375
 30
0.0
 10
50.31711066831792
 20
16.79803898168821
 30
0.0
 10
51.80070933822002
 20
16.85671132257154
 30
0.0
 10
52.93741484021859
 20
16.88055857907741
 30
0.0
 10
53.61533948163515
 20
16.875703790211
 30
0.0
 10
53.86089081287577
 20
16.85354423021391
 30
0.0
  0
SPLINE
  5
BF
330
1F
100
AcDbEntity
  8
Default
100
AcDbSpline
210
0.0
220
0.0
230
1.0
 70
    12
 71
     2
 72
     6
 73
     3
 74
     0
 42
0.0000000001
 43
0.0000000001
 40
-0.3467243252475303
 40
-0.3467243252475303
 40
-0.3467243252475303
 40
0.0
 40
0.0
 40
0.0
 10
53.86089081287577
 20
16.85354423021391
 30
0.0
 41
1.0
 10
54.06783745480071
 20
16.83486851583369
 30
0.0
 41
0.7690462387954597
 10
54.0873197863658
 20
16.62799625169853
 30
0.0
 41
1.0
  0
SPLINE
  5
C0
330
1F
100
AcDbEntity
  8
Default
100
AcDbSpline
210
0.0
220
0.0
230
1.0
 70
    24
 71
     2
 72
     6
 73
     3
 74
     0
 42
0.0000000001
 43
0.0000000001
 40
-1.272855017170293
 40
-1.272855017170293
 40
-1.272855017170293
 40
0.0
 40
0.0
 40
0.0
 10
54.0873197863658
 20
16.62799625169853
 30
0.0
 10
54.146991732927
 20
15.99437236288317
 30
0.0
 10
54.20666367948819
 20
15.36074847406782
 30
0.0
  0
SPLINE
  5
C1
330
1F
100
AcDbEntity
  8
Default
100
AcDbSpline
210
0.0
220
0.0
230
1.0
 70
     8
 71
     3
 72
    10
 73
     6
 74
     0
 42
0.0000000001
 43
0.0000000001
 40
0.0
 40
0.0
 40
0.0
 40
0.0
 40
1.0
 40
2.0
 40
3.0
 40
3.0
 40
3.0
 40
3.0
 10
49.29279851802011
 20
16.09124319901398
 30
0.0
 10
49.53760001234664
 20
15.90014104189336
 30
0.0
 10
50.06586604125919
 20
15.56665278824174
 30
0.0
 10
50.93661766664176
 20
15.22816323799415
 30
0.0
 10
51.55618195681165
 20
15.151865324475
 30
0.0
 10
51.86871961612309
 20
15.18608899386824
 30
0.0
  0
SPLINE
  5
C2
330
1F
100
AcDbEntity
  8
Default
100
AcDbSpline
210
0.0
220
0.0
230
1.0
 70
     8
 71
     3
 72
     8
 73
     4
 74
     0
 42
0.0000000001
 43
0.0000000001
 40
0.0
 40
0.0
 40
0.0
 40
0.0
 40
1.0
 40
1.0
 40
1.0
 40
1.0
 10
51.86871961612309
 20
15.18608899386824
 30
0.0
 10
52.645562368791
 20
15.27115525307171
 30
0.0
 10
53.42732871476306
 20
15.30280070806763
 30
0.0
 10
54.20666367948819
 20
15.3607484740678
 30
0.0
  0
SPLINE
  5
C3
330
1F
100
AcDbEntity
  8
Default
100
AcDbSpline
210
0.0
220
0.0
230
1.0
 70
    12
 71
     3
 72
    11
 73
     7
 74
     0
 42
0.0000000001
 43
0.0000000001
 40
-50.47595879078813
 40
-50.47595879078813
 40
-50.47595879078813
 40
-50.47595879078813
 40
-50.08581481269854
 40
-50.08581481269854
 40
-50.08581481269854
 40
-49.69567083460895
 40
-49.69567083460895
 40
-49.69567083460895
 40
-49.69567083460895
 10
54.20666367948818
 20
15.3607484740678
 30
0.0
 41
1.000000000038863
 10
54.34024062694329
 20
15.37068064193464
 30
0.0
 41
0.943135975376167
 10
54.46643782311693
 20
15.32578391011737
 30
0.0
 41
0.943135975376167
 10
54.56372702658317
 20
15.23371730521168
 30
0.0
 41
1.000000000038863
 10
54.66101623004942
 20
15.14165070030599
 30
0.0
 41
0.943135975376167
 10
54.7128271621791
 20
15.01758706101259
 30
0.0
 41
0.943135975376167
 10
54.71032128860526
 20
14.88269066086424
 30
0.0
 41
1.000000000038863
  0
SPLINE
  5
C4
330
1F
100
AcDbEntity
  8
Default
100
AcDbSpline
210
0.0
220
0.0
230
1.0
 70
     8
 71
     3
 72
    64
 73
    60
 74
     0
 42
0.0000000001
 43
0.0000000001
 40
0.0
 40
0.0
 40
0.0
 40
0.0
 40
1.0
 40
2.0
 40
3.0
 40
4.0
 40
5.0
 40
6.0
 40
7.0
 40
8.0
 40
9.0
 40
10.0
 40
11.0
 40
12.0
 40
13.0
 40
14.0
 40
15.0
 40
16.0
 40
17.0
 40
18.0
 40
19.0
 40
20.0
 40
21.0
 40
22.0
 40
23.0
 40
24.0
 40
25.0
 40
26.0
 40
27.0
 40
28.0
 40
29.0
 40
30.0
 40
31.0
 40
32.0
 40
33.0
 40
34.0
 40
35.0
 40
36.0
 40
37.0
 40
38.0
 40
39.0
 40
40.0
 40
41.0
 40
42.0
 40
43.0
 40
44.0
 40
45.0
 40
46.0
 40
47.0
 40
48.0
 40
49.0
 40
50.0
 40
51.0
 40
52.0
 40
53.0
 40
54.0
 40
55.0
 40
56.0
 40
57.0
 40
57.0
 40
57.0
 40
57.0
 10
54.71032128860528
 20
14.88269066086424
 30
0.0
 10
54.7190403692503
 20
14.56944209875174
 30
0.0
 10
54.32041268909473
 20
14.08091754704999
 30
0.0
 10
53.56373611967812
 20
13.6096088129391
 30
0.0
 10
52.75248844598563
 20
13.22776999490301
 30
0.0
 10
51.91892995331931
 20
12.90413598846671
 30
0.0
 10
51.07437103898688
 20
12.609395904778
 30
0.0
 10
50.22009956885521
 20
12.34434066393368
 30
0.0
 10
49.35661525933985
 20
12.11106461672395
 30
0.0
 10
48.48648397166216
 20
11.90405427854423
 30
0.0
 10
47.6102938195445
 20
11.72445253951176
 30
0.0
 10
46.7295167304399
 20
11.56895637984216
 30
0.0
 10
45.84472392985571
 20
11.43831234096588
 30
0.0
 10
44.95704171817733
 20
11.32901733921426
 30
0.0
 10
44.06682499446509
 20
11.24297692517143
 30
0.0
 10
43.17503478289549
 20
11.17498940840791
 30
0.0
 10
42.28186030318775
 20
11.12921366444664
 30
0.0
 10
41.38849524044979
 20
11.08876447163219
 30
0.0
 10
40.49454345246392
 20
11.05878366372886
 30
0.0
 10
39.60035567758066
 20
11.05785856801125
 30
0.0
 10
38.70544988988163
 20
11.05764900699122
 30
0.0
 10
37.81467469823622
 20
11.15876161609272
 30
0.0
 10
36.95157443693392
 20
11.40395889803322
 30
0.0
 10
36.13234779563106
 20
11.76763441709574
 30
0.0
 10
35.37181122774536
 20
12.2423587779026
 30
0.0
 10
34.68290940423731
 20
12.81562037492494
 30
0.0
 10
34.07089949420959
 20
13.46986599248736
 30
0.0
 10
33.53596572790916
 20
14.18809373079815
 30
0.0
 10
33.06927859142339
 20
14.95150957158221
 30
0.0
 10
32.62590602660025
 20
15.72820199974911
 30
0.0
 10
32.20674890584829
 20
16.51833842947718
 30
0.0
 10
31.80937397682194
 20
17.31958906603979
 30
0.0
 10
31.43135143204149
 20
18.13014390818602
 30
0.0
 10
31.07109742010619
 20
18.94873535670828
 30
0.0
 10
30.72694240307317
 20
19.77421934579888
 30
0.0
 10
30.3979381138322
 20
20.60584834535743
 30
0.0
 10
30.08299031805485
 20
21.44290005859975
 30
0.0
 10
29.78095320607155
 20
22.28468469462683
 30
0.0
 10
29.48993440586576
 20
23.13034490257015
 30
0.0
 10
29.21197736182712
 20
23.98039351613559
 30
0.0
 10
28.94728446211104
 20
24.83466184563552
 30
0.0
 10
28.69499298343485
 20
25.69267192966626
 30
0.0
 10
28.45406567302347
 20
26.55393803392091
 30
0.0
 10
28.22355688518341
 20
27.41804529541438
 30
0.0
 10
28.00245929875414
 20
28.2846083737415
 30
0.0
 10
27.78998666800219
 20
29.15332344914835
 30
0.0
 10
27.58561544434088
 20
30.02397882249232
 30
0.0
 10
27.38877948373766
 20
30.89636723121183
 30
0.0
 10
27.19889385699465
 20
31.77029205754887
 30
0.0
 10
27.01551914426046
 20
32.64561221554575
 30
0.0
 10
26.83841285317364
 20
33.52219910143248
 30
0.0
 10
26.66723196642966
 20
34.40004710776023
 30
0.0
 10
26.50182554924985
 20
35.27867618378802
 30
0.0
 10
26.34131392727814
 20
36.15942810485726
 30
0.0
 10
26.18749283771
 20
37.03684279355029
 30
0.0
 10
26.03213852274956
 20
37.93088544530237
 30
0.0
 10
25.9043943746399
 20
38.76663479031689
 30
0.0
 10
25.6939201482917
 20
39.82333316261979
 30
0.0
 10
26.51685428932296
 20
39.87301654305683
 30
0.0
 10
26.77907337582712
 20
39.87818227987346
 30
0.0
  0
SPLINE
  5
C5
330
1F
100
AcDbEntity
  8
Default
100
AcDbSpline
210
0.0
220
0.0
230
1.0
 70
    12
 71
     3
 72
     8
 73
     4
 74
     0
 42
0.0000000001
 43
0.0000000001
 40
-19.66375890038411
 40
-19.66375890038411
 40
-19.66375890038411
 40
-19.66375890038411
 40
-19.31745184846394
 40
-19.31745184846394
 40
-19.31745184846394
 40
-19.31745184846394
 10
26.7790733758271
 20
39.87818227987346
 30
0.0
 41
1.000000000038776
 10
26.89439490745872
 20
39.88449886373118
 30
0.0
 41
0.9990122582833316
 10
27.00989853889086
 20
39.88472241644953
 30
0.0
 41
0.9990122582833316
 10
27.12524200684451
 20
39.87885227559145
 30
0.0
 41
1.000000000038776
  0
SPLINE
  5
C6
330
1F
100
AcDbEntity
  8
Default
100
AcDbSpline
210
0.0
220
0.0
230
1.0
 70
     8
 71
     3
 72
    24
 73
    20
 74
     0
 42
0.0000000001
 43
0.0000000001
 40
0.0
 40
0.0
 40
0.0
 40
0.0
 40
1.0
 40
2.0
 40
3.0
 40
4.0
 40
5.0
 40
6.0
 40
7.0
 40
8.0
 40
9.0
 40
10.0
 40
11.0
 40
12.0
 40
13.0
 40
14.0
 40
15.0
 40
16.0
 40
17.0
 40
17.0
 40
17.0
 40
17.0
 10
27.12524200684452
 20
39.87885227559144
 30
0.0
 10
27.52959418896975
 20
39.85827370007729
 30
0.0
 10
28.138682566859
 20
39.37101811313599
 30
0.0
 10
28.58274900739129
 20
38.32159694105151
 30
0.0
 10
28.7644350579487
 20
37.19295225137527
 30
0.0
 10
29.02337545843725
 20
36.08698706234766
 30
0.0
 10
29.27253010219297
 20
34.97737315733897
 30
0.0
 10
29.53520031509674
 20
33.87124937630004
 30
0.0
 10
29.80512942184969
 20
32.7667893983171
 30
0.0
 10
30.08394861483098
 20
31.66455807583919
 30
0.0
 10
30.37129218548053
 20
30.56452141226486
 30
0.0
 10
30.66689092145419
 20
29.46664937174689
 30
0.0
 10
30.97208444256628
 20
28.3714903586409
 30
0.0
 10
31.28167543353985
 20
27.27728177785707
 30
0.0
 10
31.61500478310411
 20
26.19091705334053
 30
0.0
 10
31.89979324692603
 20
25.08698008648549
 30
0.0
 10
32.46194615921323
 20
24.07932026031061
 30
0.0
 10
33.36972457381831
 20
23.36326781480219
 30
0.0
 10
34.09109985036176
 20
23.09931175693502
 30
0.0
 10
34.46817845905291
 20
23.05141739332441
 30
0.0
  0
SPLINE
  5
C7
330
1F
100
AcDbEntity
  8
Default
100
AcDbSpline
210
0.0
220
0.0
230
1.0
 70
     8
 71
     3
 72
    24
 73
    20
 74
     0
 42
0.0000000001
 43
0.0000000001
 40
0.0
 40
0.0
 40
0.0
 40
0.0
 40
1.0
 40
2.0
 40
3.0
 40
4.0
 40
5.0
 40
6.0
 40
7.0
 40
8.0
 40
9.0
 40
10.0
 40
11.0
 40
12.0
 40
13.0
 40
14.0
 40
15.0
 40
16.0
 40
17.0
 40
17.0
 40
17.0
 40
17.0
 10
34.46817845905291
 20
23.05141739332441
 30
0.0
 10
34.80748827977502
 20
23.01156865550241
 30
0.0
 10
35.48647011213533
 20
22.93498668320544
 30
0.0
 10
36.50556689948052
 20
22.82581652825672
 30
0.0
 10
37.52482436383246
 20
22.71823282564896
 30
0.0
 10
38.54411500129947
 20
22.61074628545214
 30
0.0
 10
39.56352966518768
 20
22.50522847391165
 30
0.0
 10
40.58310244509099
 20
22.39832418604591
 30
0.0
 10
41.60394175922723
 20
22.3149060900416
 30
0.0
 10
42.62777965366556
 20
22.22758640193632
 30
0.0
 10
43.60870711485706
 20
21.90721865997121
 30
0.0
 10
44.51604742471566
 20
21.42505852927824
 30
0.0
 10
45.31940294637116
 20
20.77568965494769
 30
0.0
 10
45.93673438109114
 20
19.95306949671885
 30
0.0
 10
46.58817351739035
 20
19.16276719489557
 30
0.0
 10
47.23932904121786
 20
18.3709732190096
 30
0.0
 10
47.89562314154265
 20
17.58393943729604
 30
0.0
 10
48.53620078518015
 20
16.78311616265778
 30
0.0
 10
49.01990799005485
 20
16.29795336372663
 30
0.0
 10
49.29279851802011
 20
16.09124319901398
 30
0.0
  0
SPLINE
  5
C8
330
1F
100
AcDbEntity
  8
Make2D visible lines
100
AcDbSpline
210
0.0
220
0.0
230
1.0
 70
    24
 71
     2
 72
     6
 73
     3
 74
     0
 42
0.0000000001
 43
0.0000000001
 40
0.7104039842854342
 40
0.7104039842854342
 40
0.7104039842854342
 40
5.280000000000005
 40
5.280000000000005
 40
5.280000000000005
 10
1.289999999999999
 20
11.07259601571459
 30
0.0
 10
1.289999999999999
 20
8.787798007857303
 30
0.0
 10
1.289999999999999
 20
6.503000000000018
 30
0.0
  0
SPLINE
  5
C9
330
1F
100
AcDbEntity
  8
Make2D visible lines
100
AcDbSpline
210
0.0
220
0.0
230
1.0
 70
    24
 71
     2
 72
     6
 73
     3
 74
     0
 42
0.0000000001
 43
0.0000000001
 40
0.0
 40
0.0
 40
0.0
 40
4.569596015714571
 40
4.569596015714571
 40
4.569596015714571
 10
-1.289999999999999
 20
6.503000000000018
 30
0.0
 10
-1.289999999999999
 20
8.787798007857305
 30
0.0
 10
-1.289999999999999
 20
11.07259601571459
 30
0.0
  0
SPLINE
  5
CA
330
1F
100
AcDbEntity
  8
Make2D visible lines
100
AcDbSpline
210
0.0
220
0.0
230
1.0
 70
    24
 71
     2
 72
     6
 73
     3
 74
     0
 42
0.0000000001
 43
0.0000000001
 40
0.5506745508342229
 40
0.5506745508342229
 40
0.5506745508342229
 40
5.280000000000005
 40
5.280000000000005
 40
5.280000000000005
 10
43.90501644368701
 20
11.2323254491658
 30
0.0
 10
43.90501644368701
 20
8.867662724582908
 30
0.0
 10
43.90501644368701
 20
6.503000000000018
 30
0.0
  0
SPLINE
  5
CB
330
1F
100
AcDbEntity
  8
Make2D visible lines
100
AcDbSpline
210
0.0
220
0.0
230
1.0
 70
    24
 71
     2
 72
     6
 73
     3
 74
     0
 42
0.0000000001
 43
0.0000000001
 40
0.0
 40
0.0
 40
0.0
 40
4.585039135747251
 40
4.585039135747251
 40
4.585039135747251
 10
41.32501644368701
 20
6.503000000000018
 30
0.0
 10
41.32501644368701
 20
8.795519567873644
 30
0.0
 10
41.32501644368701
 20
11.08803913574727
 30
0.0
  0
SPLINE
  5
CC
330
1F
100
AcDbEntity
  8
Default
100
AcDbSpline
210
0.0
220
0.0
230
1.0
 70
     8
 71
     3
 72
    12
 73
     8
 74
     0
 42
0.0000000001
 43
0.0000000001
 40
0.0
 40
0.0
 40
0.0
 40
0.0
 40
1.0
 40
2.0
 40
3.0
 40
4.0
 40
5.0
 40
5.0
 40
5.0
 40
5.0
 10
-9.45146907546271
 20
69.26734711841797
 30
0.0
 10
-9.797596324194101
 20
68.84778096926263
 30
0.0
 10
-10.44032097787973
 20
67.96774687497609
 30
0.0
 10
-11.24236057869328
 20
66.54360308120829
 30
0.0
 10
-11.89107615915431
 20
65.04470435552804
 30
0.0
 10
-12.43327404428046
 20
63.50493674619192
 30
0.0
 10
-12.73757024001456
 20
62.46001685605221
 30
0.0
 10
-12.86628142535673
 20
61.93146959919291
 30
0.0
  0
SPLINE
  5
CD
330
1F
100
AcDbEntity
  8
Default
100
AcDbSpline
210
0.0
220
0.0
230
1.0
 70
     8
 71
     3
 72
    10
 73
     6
 74
     0
 42
0.0000000001
 43
0.0000000001
 40
0.0
 40
0.0
 40
0.0
 40
0.0
 40
1.0
 40
2.0
 40
3.0
 40
3.0
 40
3.0
 40
3.0
 10
-12.86628142535673
 20
61.93146959919291
 30
0.0
 10
-12.95005306141353
 20
61.5801872086321
 30
0.0
 10
-13.04320698333561
 20
60.86057623239376
 30
0.0
 10
-12.9786761213909
 20
59.77489928809234
 30
0.0
 10
-12.76509789857565
 20
59.07483865238665
 30
0.0
 10
-12.57026129727291
 20
58.76851654425329
 30
0.0
  0
SPLINE
  5
CE
330
1F
100
AcDbEntity
  8
Default
100
AcDbSpline
210
0.0
220
0.0
230
1.0
 70
     8
 71
     3
 72
    10
 73
     6
 74
     0
 42
0.0000000001
 43
0.0000000001
 40
8.0
 40
8.0
 40
8.0
 40
8.0
 40
9.0
 40
10.0
 40
11.0
 40
11.0
 40
11.0
 40
11.0
 10
-12.57026129727291
 20
58.76851654425329
 30
0.0
 10
-12.2943392328478
 20
58.35496271479178
 30
0.0
 10
-11.75956961420764
 20
57.51488630645174
 30
0.0
 10
-10.82071734366286
 20
56.35287172419589
 30
0.0
 10
-10.14272388507212
 20
55.62487393671132
 30
0.0
 10
-9.808369729252773
 20
55.25675075739014
 30
0.0
  0
ARC
  5
CF
330
1F
100
AcDbEntity
  8
Default
100
AcDbCircle
 10
2.119151712410291
 20
66.09012552612488
 30
0.0
 40
16.11296920561789
100
AcDbArc
 50
222.2478340188841
 51
235.9468258270208
  0
SPLINE
  5
D0
330
1F
100
AcDbEntity
  8
Make2D visible lines - Tangent
100
AcDbSpline
210
0.0
220
0.0
230
1.0
 70
     8
 71
     3
 72
    12
 73
     8
 74
     0
 42
0.0000000001
 43
0.0000000001
 40
0.0233213089280598
 40
0.0233213089280598
 40
0.0233213089280598
 40
0.0233213089280598
 40
0.1510110321465192
 40
0.3037660471064116
 40
0.5900965017365678
 40
0.8249401141264362
 40
1.014583801502342
 40
1.014583801502342
 40
1.014583801502342
 40
1.014583801502342
 10
-13.84248395697311
 20
61.78259472478251
 30
0.0
 10
-13.88492061057602
 20
61.78596248910056
 30
0.0
 10
-13.97843096505174
 20
61.78859877730375
 30
0.0
 10
-14.16711493481469
 20
61.77206712704092
 30
0.0
 10
-14.38525820952555
 20
61.711614790529
 30
0.0
 10
-14.58611297398117
 20
61.57686696260429
 30
0.0
 10
-14.6508575002071
 20
61.44304972627006
 30
0.0
 10
-14.6496040205182
 20
61.3786989829937
 30
0.0
  0
SPLINE
  5
D1
330
1F
100
AcDbEntity
  8
Make2D visible lines - Tangent
100
AcDbSpline
210
0.0
220
0.0
230
1.0
 70
     8
 71
     3
 72
    12
 73
     8
 74
     0
 42
0.0000000001
 43
0.0000000001
 40
-1.014583801502342
 40
-1.014583801502342
 40
-1.014583801502342
 40
-1.014583801502342
 40
-0.8249401141264362
 40
-0.5900965017365678
 40
-0.3037660471064116
 40
-0.1510110321465192
 40
-0.1373714078112773
 40
-0.1373714078112773
 40
-0.1373714078112773
 40
-0.1373714078112773
 10
-14.6496040205182
 20
61.3786989829937
 30
0.0
 10
-14.6508575002071
 20
61.31434823971735
 30
0.0
 10
-14.58611297398117
 20
61.18053100338312
 30
0.0
 10
-14.38525820952555
 20
61.04578317545841
 30
0.0
 10
-14.16711493481469
 20
60.98533083894649
 30
0.0
 10
-14.01639915011381
 20
60.97212579219612
 30
0.0
 10
-13.96095292541787
 20
60.97108009987932
 30
0.0
 10
-13.95640777057598
 20
60.97101987676547
 30
0.0
  0
SPLINE
  5
D2
330
1F
100
AcDbEntity
  8
Make2D visible lines - Tangent
100
AcDbSpline
210
0.0
220
0.0
230
1.0
 70
    12
 71
     2
 72
     6
 73
     3
 74
     0
 42
0.0000000001
 43
0.0000000001
 40
-1.285009379341731
 40
-1.285009379341731
 40
-1.285009379341731
 40
0.0
 40
0.0
 40
0.0
 10
0.3832196028126656
 20
49.29262096287206
 30
0.0
 41
0.9999999993052572
 10
0.3760946137810521
 20
48.64974818468415
 30
0.0
 41
0.9999999996056131
 10
0.368978209363922
 20
48.00682014521134
 30
0.0
 41
1.0
  0
SPLINE
  5
D3
330
1F
100
AcDbEntity
  8
Make2D visible lines - Tangent
100
AcDbSpline
210
0.0
220
0.0
230
1.0
 70
     8
 71
     3
 72
     9
 73
     5
 74
     0
 42
0.0000000001
 43
0.0000000001
 40
0.0
 40
0.0
 40
0.0
 40
0.0
 40
1.0
 40
1.370413651381909
 40
1.370413651381909
 40
1.370413651381909
 40
1.370413651381909
 10
0.368978209363922
 20
48.00682014521134
 30
0.0
 10
0.3679283206412023
 20
47.9365145321663
 30
0.0
 10
0.3540206320824094
 20
47.84563147909831
 30
0.0
 10
0.3227914464647764
 20
47.75993703898231
 30
0.0
 10
0.3129301606055557
 20
47.7374159726829
 30
0.0
  0
SPLINE
  5
D4
330
1F
100
AcDbEntity
  8
Default
100
AcDbSpline
210
0.0
220
0.0
230
1.0
 70
     8
 71
     3
 72
    12
 73
     8
 74
     0
 42
0.0000000001
 43
0.0000000001
 40
0.0
 40
0.0
 40
0.0
 40
0.0
 40
1.0
 40
2.0
 40
3.0
 40
4.0
 40
5.0
 40
5.0
 40
5.0
 40
5.0
 10
9.4509672766785
 20
69.26734711841797
 30
0.0
 10
9.797094525409891
 20
68.84778096926263
 30
0.0
 10
10.43981917909552
 20
67.96774687497609
 30
0.0
 10
11.24185877990907
 20
66.54360308120829
 30
0.0
 10
11.8905743603701
 20
65.04470435552804
 30
0.0
 10
12.43277224549625
 20
63.50493674619192
 30
0.0
 10
12.73706844123035
 20
62.46001685605221
 30
0.0
 10
12.86577962657252
 20
61.93146959919291
 30
0.0
  0
SPLINE
  5
D5
330
1F
100
AcDbEntity
  8
Default
100
AcDbSpline
210
0.0
220
0.0
230
1.0
 70
     8
 71
     3
 72
    10
 73
     6
 74
     0
 42
0.0000000001
 43
0.0000000001
 40
0.0
 40
0.0
 40
0.0
 40
0.0
 40
1.0
 40
2.0
 40
3.0
 40
3.0
 40
3.0
 40
3.0
 10
12.86577962657252
 20
61.93146959919291
 30
0.0
 10
12.94955126262932
 20
61.5801872086321
 30
0.0
 10
13.0427051845514
 20
60.86057623239376
 30
0.0
 10
12.97817432260669
 20
59.77489928809234
 30
0.0
 10
12.76459609979144
 20
59.07483865238665
 30
0.0
 10
12.5697594984887
 20
58.76851654425329
 30
0.0
  0
SPLINE
  5
D6
330
1F
100
AcDbEntity
  8
Default
100
AcDbSpline
210
0.0
220
0.0
230
1.0
 70
     8
 71
     3
 72
    10
 73
     6
 74
     0
 42
0.0000000001
 43
0.0000000001
 40
8.0
 40
8.0
 40
8.0
 40
8.0
 40
9.0
 40
10.0
 40
11.0
 40
11.0
 40
11.0
 40
11.0
 10
12.5697594984887
 20
58.76851654425329
 30
0.0
 10
12.29383743406359
 20
58.35496271479178
 30
0.0
 10
11.75906781542343
 20
57.51488630645174
 30
0.0
 10
10.82021554487865
 20
56.35287172419589
 30
0.0
 10
10.14222208628791
 20
55.62487393671132
 30
0.0
 10
9.807867930468563
 20
55.25675075739014
 30
0.0
  0
ARC
  5
D7
330
1F
100
AcDbEntity
  8
Default
100
AcDbCircle
 10
-2.119653511194501
 20
66.09012552612488
 30
0.0
 40
16.11296920561789
100
AcDbArc
 50
304.0531741729792
 51
317.7521659811159
  0
SPLINE
  5
D8
330
1F
100
AcDbEntity
  8
Make2D visible lines - Tangent
100
AcDbSpline
210
0.0
220
0.0
230
1.0
 70
     8
 71
     3
 72
    13
 73
     9
 74
     0
 42
0.0000000001
 43
0.0000000001
 40
1.897225376310323
 40
1.897225376310323
 40
1.897225376310323
 40
1.897225376310323
 40
2.0
 40
3.0
 40
4.0
 40
5.0
 40
6.0
 40
7.0
 40
7.0
 40
7.0
 40
7.0
 10
13.95543817178649
 20
60.97720759181755
 30
0.0
 10
13.96120536403234
 20
60.9773446472367
 30
0.0
 10
14.02307600481654
 20
60.97925646546889
 30
0.0
 10
14.14067459644482
 20
60.99188320208395
 30
0.0
 10
14.30442039183026
 20
61.03341256612
 30
0.0
 10
14.45828792675677
 20
61.10390094029708
 30
0.0
 10
14.58924741582255
 20
61.21400604815824
 30
0.0
 10
14.63446761931735
 20
61.32201549340667
 30
0.0
 10
14.63396011361041
 20
61.37869949104081
 30
0.0
  0
SPLINE
  5
D9
330
1F
100
AcDbEntity
  8
Make2D visible lines - Tangent
100
AcDbSpline
210
0.0
220
0.0
230
1.0
 70
     8
 71
     3
 72
    13
 73
     9
 74
     0
 42
0.0000000001
 43
0.0000000001
 40
-7.0
 40
-7.0
 40
-7.0
 40
-7.0
 40
-6.0
 40
-5.0
 40
-4.0
 40
-3.0
 40
-2.0
 40
-1.228813139962752
 40
-1.228813139962752
 40
-1.228813139962752
 40
-1.228813139962752
 10
14.63396011361041
 20
61.37869949104081
 30
0.0
 10
14.63446761931735
 20
61.43538348867494
 30
0.0
 10
14.58924741582255
 20
61.54339293392337
 30
0.0
 10
14.45828792675677
 20
61.65349804178452
 30
0.0
 10
14.30442039183026
 20
61.7239864159616
 30
0.0
 10
14.14067459644482
 20
61.76551577999766
 30
0.0
 10
13.98569475780318
 20
61.7821561969965
 30
0.0
 10
13.8861309160936
 20
61.78064150905748
 30
0.0
 10
13.84295562867636
 20
61.77759022404435
 30
0.0
  0
SPLINE
  5
DA
330
1F
100
AcDbEntity
  8
Make2D visible lines - Tangent
100
AcDbSpline
210
0.0
220
0.0
230
1.0
 70
     8
 71
     3
 72
    12
 73
     8
 74
     0
 42
0.0000000001
 43
0.0000000001
 40
1.370413651381909
 40
1.370413651381909
 40
1.370413651381909
 40
1.370413651381909
 40
2.0
 40
3.0
 40
4.0
 40
5.0
 40
5.590629067654461
 40
5.590629067654461
 40
5.590629067654461
 40
5.590629067654461
 10
0.3129301606055557
 20
47.7374159726829
 30
0.0
 10
0.2961690857001797
 20
47.69913726495836
 30
0.0
 10
0.2421657068365201
 20
47.60485613443822
 30
0.0
 10
0.1024514305723055
 20
47.48669037520497
 30
0.0
 10
-0.1107360343711191
 20
47.49006768949514
 30
0.0
 10
-0.2455837779727522
 20
47.60921185449222
 30
0.0
 10
-0.2977079409101888
 20
47.70151758561134
 30
0.0
 10
-0.3134407106747762
 20
47.73741820333679
 30
0.0
  0
SPLINE
  5
DB
330
1F
100
AcDbEntity
  8
Make2D visible lines - Tangent
100
AcDbSpline
210
0.0
220
0.0
230
1.0
 70
     8
 71
     3
 72
    12
 73
     8
 74
     0
 42
0.0000000001
 43
0.0000000001
 40
0.1373714069500869
 40
0.1373714069500869
 40
0.1373714069500869
 40
0.1373714069500869
 40
0.1510110321465192
 40
0.3037660471064116
 40
0.5900965017365678
 40
0.8249401141264362
 40
1.014583801502342
 40
1.014583801502342
 40
1.014583801502342
 40
1.014583801502342
 10
13.95590597093084
 20
60.97101988824109
 30
0.0
 10
13.96045112605972
 20
60.97108011135552
 30
0.0
 10
14.0158973510429
 20
60.97212580365804
 30
0.0
 10
14.16661313603048
 20
60.98533085043352
 30
0.0
 10
14.38475641074134
 20
61.04578318694544
 30
0.0
 10
14.58561117519696
 20
61.18053101487015
 30
0.0
 10
14.65035570142289
 20
61.31434825120438
 30
0.0
 10
14.64910222173399
 20
61.37869899448074
 30
0.0
  0
SPLINE
  5
DC
330
1F
100
AcDbEntity
  8
Make2D visible lines - Tangent
100
AcDbSpline
210
0.0
220
0.0
230
1.0
 70
     8
 71
     3
 72
    12
 73
     8
 74
     0
 42
0.0000000001
 43
0.0000000001
 40
-1.014583801502342
 40
-1.014583801502342
 40
-1.014583801502342
 40
-1.014583801502342
 40
-0.8249401141264362
 40
-0.5900965017365678
 40
-0.3037660471064116
 40
-0.1510110321465192
 40
-0.0233213067180445
 40
-0.0233213067180445
 40
-0.0233213067180445
 40
-0.0233213067180445
 10
14.64910222173399
 20
61.37869899448074
 30
0.0
 10
14.65035570142289
 20
61.44304973775709
 30
0.0
 10
14.58561117519696
 20
61.57686697409132
 30
0.0
 10
14.38475641074134
 20
61.71161480201603
 30
0.0
 10
14.16661313603048
 20
61.77206713852795
 30
0.0
 10
13.97792916553179
 20
61.78859878885525
 30
0.0
 10
13.884418810318
 20
61.78596250054604
 30
0.0
 10
13.84198215598546
 20
61.78259473609467
 30
0.0
  0
SPLINE
  5
DD
330
1F
100
AcDbEntity
  8
Make2D visible lines - Tangent
100
AcDbSpline
210
0.0
220
0.0
230
1.0
 70
     8
 71
     3
 72
    13
 73
     9
 74
     0
 42
0.0000000001
 43
0.0000000001
 40
1.228814286116157
 40
1.228814286116157
 40
1.228814286116157
 40
1.228814286116157
 40
2.0
 40
3.0
 40
4.0
 40
5.0
 40
6.0
 40
7.0
 40
7.0
 40
7.0
 40
7.0
 10
-13.84345761996452
 20
61.77758923304182
 30
0.0
 10
-13.88663284373541
 20
61.78064050641066
 30
0.0
 10
-13.98619662068652
 20
61.78215518550692
 30
0.0
 10
-14.14117639522904
 20
61.76551477539049
 30
0.0
 10
-14.30492219061447
 20
61.72398541135444
 30
0.0
 10
-14.45878972554098
 20
61.65349703717736
 30
0.0
 10
-14.58974921460676
 20
61.5433919293162
 30
0.0
 10
-14.63496941810156
 20
61.43538248406777
 30
0.0
 10
-14.63446191239463
 20
61.37869848643363
 30
0.0
  0
SPLINE
  5
DE
330
1F
100
AcDbEntity
  8
Make2D visible lines - Tangent
100
AcDbSpline
210
0.0
220
0.0
230
1.0
 70
     8
 71
     3
 72
    13
 73
     9
 74
     0
 42
0.0000000001
 43
0.0000000001
 40
-7.0
 40
-7.0
 40
-7.0
 40
-7.0
 40
-6.0
 40
-5.0
 40
-4.0
 40
-3.0
 40
-2.0
 40
-1.897225830095257
 40
-1.897225830095257
 40
-1.897225830095257
 40
-1.897225830095257
 10
-14.63446191239463
 20
61.37869848643363
 30
0.0
 10
-14.63496941810156
 20
61.3220144887995
 30
0.0
 10
-14.58974921460676
 20
61.21400504355107
 30
0.0
 10
-14.45878972554098
 20
61.10389993568992
 30
0.0
 10
-14.30492219061447
 20
61.03341156151284
 30
0.0
 10
-14.14117639522904
 20
60.99188219747678
 30
0.0
 10
-14.02357782897888
 20
60.97925546358662
 30
0.0
 10
-13.96170721373533
 20
60.97734364420293
 30
0.0
 10
-13.95594004696305
 20
60.97720658902582
 30
0.0
  0
SPLINE
  5
DF
330
1F
100
AcDbEntity
  8
Make2D visible lines - Tangent
100
AcDbSpline
210
0.0
220
0.0
230
1.0
 70
     8
 71
     3
 72
     9
 73
     5
 74
     0
 42
0.0000000001
 43
0.0000000001
 40
5.590629067654461
 40
5.590629067654461
 40
5.590629067654461
 40
5.590629067654461
 40
6.0
 40
7.0
 40
7.0
 40
7.0
 40
7.0
 10
-0.3134407106747762
 20
47.73741820333679
 30
0.0
 10
-0.3243452512394388
 20
47.76230128165938
 30
0.0
 10
-0.3558968511303884
 20
47.85065706426967
 30
0.0
 10
-0.3692210562649737
 20
47.94426558037848
 30
0.0
 10
-0.3692508993932266
 20
48.01069898873723
 30
0.0
  0
SPLINE
  5
E0
330
1F
100
AcDbEntity
  8
Make2D visible lines - Tangent
100
AcDbSpline
210
0.0
220
0.0
230
1.0
 70
    12
 71
     2
 72
     6
 73
     3
 74
     0
 42
0.0000000001
 43
0.0000000001
 40
0.0
 40
0.0
 40
0.0
 40
1.282058153156399
 40
1.282058153156399
 40
1.282058153156399
 10
-0.3692508993932266
 20
48.01069898873723
 30
0.0
 41
1.0
 10
-0.3763185267240962
 20
48.6516891018277
 30
0.0
 41
0.9999999996065189
 10
-0.3833985568087064
 20
49.29267907804402
 30
0.0
 41
0.9999999993066373
  0
SPLINE
  5
E1
330
1F
100
AcDbEntity
  8
Default
100
AcDbSpline
210
0.0
220
0.0
230
1.0
 70
     8
 71
     3
 72
    12
 73
     8
 74
     0
 42
0.0000000001
 43
0.0000000001
 40
0.0
 40
0.0
 40
0.0
 40
0.0
 40
1.832654236483515
 40
3.669578742657731
 40
7.371880427553495
 40
11.11625269817008
 40
14.89017125660395
 40
14.89017125660395
 40
14.89017125660395
 40
14.89017125660395
 10
-9.625235404273127
 20
59.24625552555295
 30
0.0
 10
-9.62527859689091
 20
58.63318402382318
 30
0.0
 10
-9.499700626084108
 20
57.41073588109452
 30
0.0
 10
-8.764124241243124
 20
55.05212012962592
 30
0.0
 10
-6.967433672949096
 20
52.45716859729657
 30
0.0
 10
-3.764283955452719
 20
50.39178756498315
 30
0.0
 10
-1.258228688034126
 20
49.91097250634871
 30
0.0
 10
-0.0002549924128639
 20
49.91075227938799
 30
0.0
  0
SPLINE
  5
E2
330
1F
100
AcDbEntity
  8
Default
100
AcDbSpline
210
0.0
220
0.0
230
1.0
 70
     8
 71
     3
 72
    12
 73
     8
 74
     0
 42
0.0000000001
 43
0.0000000001
 40
0.0
 40
0.0
 40
0.0
 40
0.0
 40
1.889355098582429
 40
3.774519559296819
 40
7.516682166840944
 40
11.21816918271821
 40
14.89017237659324
 40
14.89017237659324
 40
14.89017237659324
 40
14.89017237659324
 10
-0.0002549924128639
 20
49.91075227938799
 30
0.0
 10
0.6294782775281007
 20
49.91082004738068
 30
0.0
 10
1.887726495614292
 20
50.03183347218623
 30
0.0
 10
4.302793359092506
 20
50.7395338095206
 30
0.0
 10
6.965901796590822
 20
52.45640777706753
 30
0.0
 10
9.117907662725079
 20
55.56323040687093
 30
0.0
 10
9.625060657848598
 20
58.02042585023194
 30
0.0
 10
9.624732596857058
 20
59.24459214411115
 30
0.0
  0
SPLINE
  5
E3
330
1F
100
AcDbEntity
  8
Default
100
AcDbSpline
210
0.0
220
0.0
230
1.0
 70
     8
 71
     3
 72
    12
 73
     8
 74
     0
 42
0.0000000001
 43
0.0000000001
 40
-15.35241646788361
 40
-15.35241646788361
 40
-15.35241646788361
 40
-15.35241646788361
 40
-11.42846722997082
 40
-7.624448880970329
 40
-3.868777336844833
 40
-1.918304869189328
 40
0.0
 40
0.0
 40
0.0
 40
0.0
 10
9.624732596857058
 20
59.24459214411115
 30
0.0
 10
9.624753690402477
 20
60.55197516814886
 30
0.0
 10
9.159287108226303
 20
63.13378120224431
 30
0.0
 10
7.054807364994472
 20
66.423476319234
 30
0.0
 10
4.374899559963071
 20
68.2381826640879
 30
0.0
 10
1.928971126187765
 20
68.97226765497348
 30
0.0
 10
0.6391189805775301
 20
69.09707794183873
 30
0.0
 10
-0.0002541991059921
 20
69.09654728408947
 30
0.0
  0
SPLINE
  5
E4
330
1F
100
AcDbEntity
  8
Default
100
AcDbSpline
210
0.0
220
0.0
230
1.0
 70
     8
 71
     3
 72
    12
 73
     8
 74
     0
 42
0.0000000001
 43
0.0000000001
 40
-15.34910747496398
 40
-15.34910747496398
 40
-15.34910747496398
 40
-15.34910747496398
 40
-11.5840058662532
 40
-7.773657509622694
 40
-3.93663731821901
 40
-1.971105179282632
 40
0.0
 40
0.0
 40
0.0
 40
0.0
 10
-0.0002541991059921
 20
69.09654728408947
 30
0.0
 10
-1.25467470596227
 20
69.09624360355738
 30
0.0
 10
-3.7836665800747
 20
68.6211639014748
 30
0.0
 10
-7.019521081198497
 20
66.46914133178845
 30
0.0
 10
-8.791336721545315
 20
63.72017572025452
 30
0.0
 10
-9.505441631315124
 20
61.21791455850629
 30
0.0
 10
-9.625479255699881
 20
59.905100249796
 30
0.0
 10
-9.625235404273127
 20
59.24625552555295
 30
0.0
  0
SPLINE
  5
E5
330
1F
100
AcDbEntity
  8
Default
100
AcDbSpline
210
0.0
220
0.0
230
1.0
 70
    12
 71
     3
 72
    12
 73
     8
 74
     0
 42
0.0000000001
 43
0.0000000001
 40
-1.0
 40
-1.0
 40
-1.0
 40
-1.0
 40
-0.75
 40
-0.5
 40
-0.25
 40
-0.125
 40
0.0
 40
0.0
 40
0.0
 40
0.0
 10
8.66008855112939
 20
76.04648567818228
 30
0.0
 41
1.0
 10
8.660305565512497
 20
76.1020779170752
 30
0.0
 41
1.0
 10
8.57858569325773
 20
76.23402938489045
 30
0.0
 41
1.0
 10
8.189947586505697
 20
76.46690706494144
 30
0.0
 41
1.0
 10
7.695622970756672
 20
76.65603632888397
 30
0.0
 41
1.0
 10
7.240470587088113
 20
76.78847304903414
 30
0.0
 41
1.0
 10
7.001835155684459
 20
76.8460634798846
 30
0.0
 41
1.0
 10
6.882020278428941
 20
76.87282872171087
 30
0.0
 41
1.0
  0
SPLINE
  5
E6
330
1F
100
AcDbEntity
  8
Default
100
AcDbSpline
210
0.0
220
0.0
230
1.0
 70
    12
 71
     2
 72
     6
 73
     3
 74
     0
 42
0.0000000001
 43
0.0000000001
 40
-1.738615299748421
 40
-1.738615299748421
 40
-1.738615299748421
 40
0.0
 40
0.0
 40
0.0
 10
6.882020278428941
 20
76.87282872171087
 30
0.0
 41
1.0
 10
6.033028962963868
 20
77.06013682817444
 30
0.0
 41
0.9998265244242317
 10
5.177660156443302
 20
77.21574784414882
 30
0.0
 41
0.9999999999903404
  0
SPLINE
  5
E7
330
1F
100
AcDbEntity
  8
Default
100
AcDbSpline
210
0.0
220
0.0
230
1.0
 70
     8
 71
     3
 72
    11
 73
     7
 74
     0
 42
0.0000000001
 43
0.0000000001
 40
0.0
 40
0.0
 40
0.0
 40
0.0
 40
0.8055658146296342
 40
1.505207287485617
 40
2.898665587188706
 40
5.215701186741097
 40
5.215701186741097
 40
5.215701186741097
 40
5.215701186741097
 10
5.177660156443302
 20
77.21574784414881
 30
0.0
 10
4.913500852325187
 20
77.26429667082365
 30
0.0
 10
4.41919348364995
 20
77.34946237979378
 30
0.0
 10
3.464459209527414
 20
77.49980468270135
 30
0.0
 10
2.006593597900422
 20
77.68694330692387
 30
0.0
 10
0.7724291400972547
 20
77.78707347034131
 30
0.0
 10
-0.0002508993921051
 20
77.79009098617024
 30
0.0
  0
SPLINE
  5
E8
330
1F
100
AcDbEntity
  8
Default
100
AcDbSpline
210
0.0
220
0.0
230
1.0
 70
     8
 71
     3
 72
    11
 73
     7
 74
     0
 42
0.0000000001
 43
0.0000000001
 40
-5.215701186741097
 40
-5.215701186741097
 40
-5.215701186741097
 40
-5.215701186741097
 40
-2.898665587188706
 40
-1.505207287485617
 40
-0.8055658146296342
 40
0.0
 40
0.0
 40
0.0
 40
0.0
 10
-0.0002508993921051
 20
77.79009098617024
 30
0.0
 10
-0.7729309388814649
 20
77.78707347034131
 30
0.0
 10
-2.007095396684632
 20
77.68694330692387
 30
0.0
 10
-3.464961008311624
 20
77.49980468270135
 30
0.0
 10
-4.41969528243416
 20
77.34946237979378
 30
0.0
 10
-4.914002651109397
 20
77.26429667082365
 30
0.0
 10
-5.178161955227512
 20
77.21574784414881
 30
0.0
  0
SPLINE
  5
E9
330
1F
100
AcDbEntity
  8
Default
100
AcDbSpline
210
0.0
220
0.0
230
1.0
 70
    12
 71
     2
 72
     6
 73
     3
 74
     0
 42
0.0000000001
 43
0.0000000001
 40
0.0
 40
0.0
 40
0.0
 40
1.738615299748421
 40
1.738615299748421
 40
1.738615299748421
 10
-5.178161955227512
 20
77.21574784414882
 30
0.0
 41
0.9999999999903404
 10
-6.03353076174808
 20
77.06013682817444
 30
0.0
 41
0.9998265244242317
 10
-6.882522077213151
 20
76.87282872171087
 30
0.0
 41
1.0
  0
SPLINE
  5
EA
330
1F
100
AcDbEntity
  8
Default
100
AcDbSpline
210
0.0
220
0.0
230
1.0
 70
    12
 71
     3
 72
    12
 73
     8
 74
     0
 42
0.0000000001
 43
0.0000000001
 40
0.0
 40
0.0
 40
0.0
 40
0.0
 40
0.125
 40
0.25
 40
0.5
 40
0.75
 40
1.0
 40
1.0
 40
1.0
 40
1.0
 10
-6.882522077213151
 20
76.87282872171087
 30
0.0
 41
1.0
 10
-7.002336954468669
 20
76.8460634798846
 30
0.0
 41
1.0
 10
-7.240972385872324
 20
76.78847304903414
 30
0.0
 41
1.0
 10
-7.696124769540882
 20
76.65603632888397
 30
0.0
 41
1.0
 10
-8.190449385289908
 20
76.46690706494144
 30
0.0
 41
1.0
 10
-8.57908749204194
 20
76.23402938489045
 30
0.0
 41
1.0
 10
-8.660807364296707
 20
76.1020779170752
 30
0.0
 41
1.0
 10
-8.6605903499136
 20
76.04648567818228
 30
0.0
 41
1.0
  0
SPLINE
  5
EB
330
1F
100
AcDbEntity
  8
Default
100
AcDbSpline
210
0.0
220
0.0
230
1.0
 70
     8
 71
     3
 72
    11
 73
     7
 74
     0
 42
0.0000000001
 43
0.0000000001
 40
-3.576711082448426
 40
-3.576711082448426
 40
-3.576711082448426
 40
-3.576711082448426
 40
-2.825677162948847
 40
-1.983666277812516
 40
-1.056257442711363
 40
0.0
 40
0.0
 40
0.0
 40
0.0
 10
-8.6605903499136
 20
76.04648567818228
 30
0.0
 10
-8.646079665895465
 20
75.7965839887668
 30
0.0
 10
-8.603597594690507
 20
75.2671653117443
 30
0.0
 10
-8.5089835962763
 20
74.43227224294733
 30
0.0
 10
-8.377300475563262
 20
73.49956502424672
 30
0.0
 10
-8.27160361096322
 20
72.84681329231839
 30
0.0
 10
-8.212608881897129
 20
72.49964857682971
 30
0.0
  0
SPLINE
  5
EC
330
1F
100
AcDbEntity
  8
Default
100
AcDbSpline
210
0.0
220
0.0
230
1.0
 70
     8
 71
     3
 72
    19
 73
    15
 74
     0
 42
0.0000000001
 43
0.0000000001
 40
-12.0
 40
-12.0
 40
-12.0
 40
-12.0
 40
-11.0
 40
-10.0
 40
-9.0
 40
-8.0
 40
-7.0
 40
-6.0
 40
-5.0
 40
-4.0
 40
-3.0
 40
-2.0
 40
-1.0
 40
0.0
 40
0.0
 40
0.0
 40
0.0
 10
-8.212608881897129
 20
72.49964857682971
 30
0.0
 10
-8.251715493715103
 20
72.17024965401416
 30
0.0
 10
-8.675238230217467
 20
71.64114297598204
 30
0.0
 10
-9.257294047171914
 20
70.85471298931654
 30
0.0
 10
-9.879312684398537
 20
70.0863630722921
 30
0.0
 10
-10.4974268626728
 20
69.31808144621598
 30
0.0
 10
-11.05050112566028
 20
68.50016903454673
 30
0.0
 10
-11.55116287438024
 20
67.6499717786748
 30
0.0
 10
-11.9993579198172
 20
66.77082714723613
 30
0.0
 10
-12.39860312140703
 20
65.86855708542694
 30
0.0
 10
-12.75424951756411
 20
64.94833183372137
 30
0.0
 10
-13.07549656137203
 20
64.0156260384635
 30
0.0
 10
-13.36445202377669
 20
63.07237074361979
 30
0.0
 10
-13.52924863746236
 20
62.43561969880172
 30
0.0
 10
-13.60501512105649
 20
62.11569482497047
 30
0.0
  0
SPLINE
  5
ED
330
1F
100
AcDbEntity
  8
Default
100
AcDbSpline
210
0.0
220
0.0
230
1.0
 70
    12
 71
     3
 72
    11
 73
     7
 74
     0
 42
0.0000000001
 43
0.0000000001
 40
0.0
 40
0.0
 40
0.0
 40
0.0
 40
0.2499998804336
 40
0.4999997608673
 40
0.7499996413009
 40
1.0
 40
1.0
 40
1.0
 40
1.0
 10
-13.60501512105649
 20
62.11569482497047
 30
0.0
 41
1.0
 10
-13.68665533952828
 20
61.76132453896152
 30
0.0
 41
1.0
 10
-13.82512038860106
 20
61.04866014088284
 30
0.0
 41
1.0
 10
-13.84321435364754
 20
60.01532738494821
 30
0.0
 41
1.0
 10
-13.62846980319195
 20
59.09980280330782
 30
0.0
 41
1.0
 10
-13.37162359493936
 20
58.61993504425618
 30
0.0
 41
1.0
 10
-13.2394676936421
 20
58.41057415516564
 30
0.0
 41
1.0
  0
SPLINE
  5
EE
330
1F
100
AcDbEntity
  8
Default
100
AcDbSpline
210
0.0
220
0.0
230
1.0
 70
     8
 71
     3
 72
    19
 73
    15
 74
     0
 42
0.0000000001
 43
0.0000000001
 40
-12.0
 40
-12.0
 40
-12.0
 40
-12.0
 40
-11.0
 40
-10.0
 40
-9.0
 40
-8.0
 40
-7.0
 40
-6.0
 40
-5.0
 40
-4.0
 40
-3.0
 40
-2.0
 40
-1.0
 40
0.0
 40
0.0
 40
0.0
 40
0.0
 10
-13.2394676936421
 20
58.41057415516564
 30
0.0
 10
-13.10554531517425
 20
58.2021133061832
 30
0.0
 10
-12.84005720942975
 20
57.78376136837821
 30
0.0
 10
-12.43465493058782
 20
57.16059411152661
 30
0.0
 10
-11.99368632078318
 20
56.56191882057965
 30
0.0
 10
-11.52957271636467
 20
55.98115378544883
 30
0.0
 10
-11.04037879900552
 20
55.42143501355741
 30
0.0
 10
-10.54862777208105
 20
54.86412559304647
 30
0.0
 10
-10.05402109945541
 20
54.30929621172648
 30
0.0
 10
-9.555922258901182
 20
53.75759001683634
 30
0.0
 10
-9.045162076679766
 20
53.21750357638849
 30
0.0
 10
-8.515871152589963
 20
52.69543370403628
 30
0.0
 10
-7.959831439746588
 20
52.20165296631381
 30
0.0
 10
-7.566312147979186
 20
51.89990990216165
 30
0.0
 10
-7.364078991083494
 20
51.75467660599104
 30
0.0
  0
SPLINE
  5
EF
330
1F
100
AcDbEntity
  8
Default
100
AcDbSpline
210
0.0
220
0.0
230
1.0
 70
     8
 71
     3
 72
    12
 73
     8
 74
     0
 42
0.0000000001
 43
0.0000000001
 40
-15.78913311264457
 40
-15.78913311264457
 40
-15.78913311264457
 40
-15.78913311264457
 40
-11.7692665204822
 40
-7.88873615923726
 40
-4.023995779131863
 40
-2.0366405286363
 40
0.0
 40
0.0
 40
0.0
 40
0.0
 10
-7.364078991083494
 20
51.75467660599104
 30
0.0
 10
-6.276550131534133
 20
50.97201684560275
 30
0.0
 10
-3.92050230531374
 20
49.72511777295286
 30
0.0
 10
0.000312369830004
 20
49.07090465016932
 30
0.0
 10
3.243647661887758
 20
49.61253310637569
 30
0.0
 10
5.667221082431949
 20
50.6509702764058
 30
0.0
 10
6.813041613224369
 20
51.35531406717151
 30
0.0
 10
7.363572529538082
 20
51.7546757149038
 30
0.0
  0
SPLINE
  5
F0
330
1F
100
AcDbEntity
  8
Default
100
AcDbSpline
210
0.0
220
0.0
230
1.0
 70
     8
 71
     3
 72
    19
 73
    15
 74
     0
 42
0.0000000001
 43
0.0000000001
 40
0.0
 40
0.0
 40
0.0
 40
0.0
 40
1.0
 40
2.0
 40
3.0
 40
4.0
 40
5.0
 40
6.0
 40
7.0
 40
8.0
 40
9.0
 40
10.0
 40
11.0
 40
12.0
 40
12.0
 40
12.0
 40
12.0
 10
7.363572529538082
 20
51.7546757149038
 30
0.0
 10
7.565810349194976
 20
51.89990990216165
 30
0.0
 10
7.959329640962378
 20
52.20165296631381
 30
0.0
 10
8.515369353805752
 20
52.69543370403628
 30
0.0
 10
9.044660277895556
 20
53.21750357638849
 30
0.0
 10
9.555420460116972
 20
53.75759001683634
 30
0.0
 10
10.0535193006712
 20
54.30929621172648
 30
0.0
 10
10.54812597329684
 20
54.86412559304647
 30
0.0
 10
11.03987700022131
 20
55.42143501355741
 30
0.0
 10
11.52907091758046
 20
55.98115378544883
 30
0.0
 10
11.99318452199897
 20
56.56191882057965
 30
0.0
 10
12.43415313180361
 20
57.16059411152661
 30
0.0
 10
12.83955541064554
 20
57.78376136837821
 30
0.0
 10
13.10504351639004
 20
58.2021133061832
 30
0.0
 10
13.23896589485789
 20
58.41057415516564
 30
0.0
  0
SPLINE
  5
F1
330
1F
100
AcDbEntity
  8
Default
100
AcDbSpline
210
0.0
220
0.0
230
1.0
 70
    12
 71
     3
 72
    11
 73
     7
 74
     0
 42
0.0000000001
 43
0.0000000001
 40
-1.0
 40
-1.0
 40
-1.0
 40
-1.0
 40
-0.7499996413009
 40
-0.4999997608673
 40
-0.2499998804336
 40
0.0
 40
0.0
 40
0.0
 40
0.0
 10
13.23896589485789
 20
58.41057415516564
 30
0.0
 41
1.0
 10
13.37112179615515
 20
58.61993504425618
 30
0.0
 41
1.0
 10
13.62796800440774
 20
59.09980280330782
 30
0.0
 41
1.0
 10
13.84271255486333
 20
60.01532738494821
 30
0.0
 41
1.0
 10
13.82461858981685
 20
61.04866014088284
 30
0.0
 41
1.0
 10
13.68615354074407
 20
61.76132453896152
 30
0.0
 41
1.0
 10
13.60451332227228
 20
62.11569482497047
 30
0.0
 41
1.0
  0
SPLINE
  5
F2
330
1F
100
AcDbEntity
  8
Default
100
AcDbSpline
210
0.0
220
0.0
230
1.0
 70
     8
 71
     3
 72
    19
 73
    15
 74
     0
 42
0.0000000001
 43
0.0000000001
 40
0.0
 40
0.0
 40
0.0
 40
0.0
 40
1.0
 40
2.0
 40
3.0
 40
4.0
 40
5.0
 40
6.0
 40
7.0
 40
8.0
 40
9.0
 40
10.0
 40
11.0
 40
12.0
 40
12.0
 40
12.0
 40
12.0
 10
13.60451332227228
 20
62.11569482497047
 30
0.0
 10
13.52874683867815
 20
62.43561969880172
 30
0.0
 10
13.36395022499248
 20
63.07237074361979
 30
0.0
 10
13.07499476258782
 20
64.0156260384635
 30
0.0
 10
12.7537477187799
 20
64.94833183372137
 30
0.0
 10
12.39810132262282
 20
65.86855708542694
 30
0.0
 10
11.99885612103299
 20
66.77082714723613
 30
0.0
 10
11.55066107559603
 20
67.6499717786748
 30
0.0
 10
11.04999932687607
 20
68.50016903454673
 30
0.0
 10
10.49692506388859
 20
69.31808144621598
 30
0.0
 10
9.878810885614326
 20
70.0863630722921
 30
0.0
 10
9.256792248387704
 20
70.85471298931654
 30
0.0
 10
8.674736431433256
 20
71.64114297598204
 30
0.0
 10
8.251213694930893
 20
72.17024965401416
 30
0.0
 10
8.212107083112919
 20
72.49964857682971
 30
0.0
  0
SPLINE
  5
F3
330
1F
100
AcDbEntity
  8
Default
100
AcDbSpline
210
0.0
220
0.0
230
1.0
 70
     8
 71
     3
 72
    11
 73
     7
 74
     0
 42
0.0000000001
 43
0.0000000001
 40
0.0
 40
0.0
 40
0.0
 40
0.0
 40
1.056257442711363
 40
1.983666277812516
 40
2.825677162948847
 40
3.576711082448426
 40
3.576711082448426
 40
3.576711082448426
 40
3.576711082448426
 10
8.212107083112919
 20
72.49964857682971
 30
0.0
 10
8.27110181217901
 20
72.84681329231839
 30
0.0
 10
8.376798676779051
 20
73.49956502424672
 30
0.0
 10
8.50848179749209
 20
74.43227224294733
 30
0.0
 10
8.603095795906297
 20
75.2671653117443
 30
0.0
 10
8.645577867111255
 20
75.7965839887668
 30
0.0
 10
8.66008855112939
 20
76.04648567818228
 30
0.0
  0
SPLINE
  5
F4
330
1F
100
AcDbEntity
  8
Default
100
AcDbSpline
210
0.0
220
0.0
230
1.0
 70
     8
 71
     3
 72
    23
 73
    19
 74
     0
 42
0.0000000001
 43
0.0000000001
 40
-16.0
 40
-16.0
 40
-16.0
 40
-16.0
 40
-14.99999934916018
 40
-13.99999869832036
 40
-12.99999804748054
 40
-11.99999739664072
 40
-10.99999674580089
 40
-9.999996094961073
 40
-8.999995444121252
 40
-7.999994793281431
 40
-6.99999414244161
 40
-5.999993491601789
 40
-4.999992840761967
 40
-3.999992189922146
 40
-2.999991539082325
 40
-1.999990888242504
 40
-0.9999902374026826
 40
0.0
 40
0.0
 40
0.0
 40
0.0
 10
8.232519058851482
 20
72.57952770504684
 30
0.0
 10
8.277334695701306
 20
72.84338095225735
 30
0.0
 10
8.364422178424972
 20
73.37208618469
 30
0.0
 10
8.482071230842882
 20
74.16509651973001
 30
0.0
 10
8.583033947675608
 20
74.96711831772797
 30
0.0
 10
8.659779695868794
 20
75.74724839363631
 30
0.0
 10
8.716410099488598
 20
76.62069356834408
 30
0.0
 10
7.903025072486305
 20
77.0123727566523
 30
0.0
 10
7.159638216056585
 20
77.24374198960726
 30
0.0
 10
6.365218294004331
 20
77.40455625914353
 30
0.0
 10
5.579703619788675
 20
77.56193879133178
 30
0.0
 10
4.788707021020716
 20
77.70416967677698
 30
0.0
 10
3.996104021987764
 20
77.83290464752
 30
0.0
 10
3.200920504358166
 20
77.9460302376412
 30
0.0
 10
2.40355797599252
 20
78.04217037831197
 30
0.0
 10
1.604221783610703
 20
78.12058084185384
 30
0.0
 10
0.8028123006719474
 20
78.17465049818802
 30
0.0
 10
0.2674527289901665
 20
78.18853556413188
 30
0.0
 10
-0.0002508993921051
 20
78.18856570292016
 30
0.0
  0
SPLINE
  5
F5
330
1F
100
AcDbEntity
  8
Default
100
AcDbSpline
210
0.0
220
0.0
230
1.0
 70
     8
 71
     3
 72
    23
 73
    19
 74
     0
 42
0.0000000001
 43
0.0000000001
 40
0.0
 40
0.0
 40
0.0
 40
0.0
 40
0.9999902374026826
 40
1.999990888242504
 40
2.999991539082325
 40
3.999992189922146
 40
4.999992840761967
 40
5.999993491601789
 40
6.99999414244161
 40
7.999994793281431
 40
8.999995444121252
 40
9.999996094961073
 40
10.99999674580089
 40
11.99999739664072
 40
12.99999804748054
 40
13.99999869832036
 40
14.99999934916018
 40
16.0
 40
16.0
 40
16.0
 40
16.0
 10
-0.0002508993921051
 20
78.18856570292016
 30
0.0
 10
-0.2679545277743767
 20
78.18853556413188
 30
0.0
 10
-0.8033140994561576
 20
78.17465049818802
 30
0.0
 10
-1.604723582394913
 20
78.12058084185384
 30
0.0
 10
-2.40405977477673
 20
78.04217037831197
 30
0.0
 10
-3.201422303142377
 20
77.9460302376412
 30
0.0
 10
-3.996605820771974
 20
77.83290464752
 30
0.0
 10
-4.789208819804927
 20
77.70416967677698
 30
0.0
 10
-5.580205418572885
 20
77.56193879133178
 30
0.0
 10
-6.365720092788541
 20
77.40455625914353
 30
0.0
 10
-7.160140014840795
 20
77.24374198960726
 30
0.0
 10
-7.903526871270516
 20
77.0123727566523
 30
0.0
 10
-8.716911898272809
 20
76.62069356834408
 30
0.0
 10
-8.660281494653004
 20
75.74724839363631
 30
0.0
 10
-8.583535746459818
 20
74.96711831772797
 30
0.0
 10
-8.482573029627092
 20
74.16509651973001
 30
0.0
 10
-8.364923977209182
 20
73.37208618469
 30
0.0
 10
-8.277836494485516
 20
72.84338095225735
 30
0.0
 10
-8.233020857635692
 20
72.57952770504684
 30
0.0
  0
SPLINE
  5
F6
330
1F
100
AcDbEntity
  8
Default
100
AcDbSpline
210
0.0
220
0.0
230
1.0
 70
     8
 71
     3
 72
    29
 73
    25
 74
     0
 42
0.0000000001
 43
0.0000000001
 40
0.0
 40
0.0
 40
0.0
 40
0.0
 40
1.0
 40
2.0
 40
3.0
 40
4.0
 40
5.0
 40
6.0
 40
7.0
 40
8.0
 40
9.0
 40
10.0
 40
11.0
 40
12.0
 40
13.0
 40
14.0
 40
15.0
 40
16.0
 40
17.0
 40
18.0
 40
19.0
 40
20.0
 40
21.0
 40
22.0
 40
22.0
 40
22.0
 40
22.0
 10
8.239371540118308
 20
72.59852260355831
 30
0.0
 10
8.402494056868429
 20
72.26936739678825
 30
0.0
 10
8.84619018823872
 20
71.68204443961966
 30
0.0
 10
9.517809368487315
 20
70.81166154538673
 30
0.0
 10
10.21474491716505
 20
69.9596877363721
 30
0.0
 10
10.88047002214182
 20
69.08321677726249
 30
0.0
 10
11.46793391015563
 20
68.15144970269424
 30
0.0
 10
11.99107612512245
 20
67.18288085570398
 30
0.0
 10
12.45009160996339
 20
66.18224458020958
 30
0.0
 10
12.8554324525375
 20
65.15898006319189
 30
0.0
 10
13.21753447617677
 20
64.11965166333835
 30
0.0
 10
13.535580242264
 20
63.06606689944549
 30
0.0
 10
13.81322760282653
 20
62.00101154833573
 30
0.0
 10
13.99872765304823
 20
60.91399993656225
 30
0.0
 10
13.95262078826268
 20
59.80346207946656
 30
0.0
 10
13.56950842586636
 20
58.75965807477824
 30
0.0
 10
12.94095595954594
 20
57.85144453179124
 30
0.0
 10
12.34087177055911
 20
56.92997567714161
 30
0.0
 10
11.6546370224125
 20
56.06790119170699
 30
0.0
 10
10.92627573654336
 20
55.24332450868879
 30
0.0
 10
10.19102568192225
 20
54.42461026859718
 30
0.0
 10
9.449227742580447
 20
53.6118700104544
 30
0.0
 10
8.679359260044032
 20
52.82515032355357
 30
0.0
 10
8.129856563766392
 20
52.33819250250961
 30
0.0
 10
7.842771821697022
 20
52.10983541681903
 30
0.0
  0
SPLINE
  5
F7
330
1F
100
AcDbEntity
  8
Make2D visible lines
100
AcDbSpline
210
0.0
220
0.0
230
1.0
 70
    12
 71
     2
 72
     6
 73
     3
 74
     0
 42
0.0000000001
 43
0.0000000001
 40
0.0
 40
0.0
 40
0.0
 40
0.0853474550214741
 40
0.0853474550214741
 40
0.0853474550214741
 10
0.4045437767722273
 20
47.52465644149597
 30
0.0
 41
1.0
 10
0.407531154734965
 20
47.48207020301624
 30
0.0
 41
0.9993970637774641
 10
0.4075558872688809
 20
47.43937931964231
 30
0.0
 41
1.0
  0
SPLINE
  5
F8
330
1F
100
AcDbEntity
  8
Make2D visible lines - Tangent
100
AcDbSpline
210
0.0
220
0.0
230
1.0
 70
    12
 71
     2
 72
     6
 73
     3
 74
     0
 42
0.0000000001
 43
0.0000000001
 40
0.0
 40
0.0
 40
0.0
 40
0.1369528492222414
 40
0.1369528492222414
 40
0.1369528492222414
 10
-0.3678616769873102
 20
47.93905957702797
 30
0.0
 41
1.0
 10
-0.3664321413690675
 20
47.87059925175728
 30
0.0
 41
0.9999966913238282
 10
-0.3671838082863803
 20
47.80210001637331
 30
0.0
 41
0.9999959461296658
  0
ARC
  5
F9
330
1F
100
AcDbEntity
  8
Make2D visible lines - Tangent
100
AcDbCircle
 10
-0.8671161965538576
 20
47.79387765897557
 30
0.0
 40
0.5
100
AcDbArc
 50
348.4871521735349
 51
0.9422552251317675
  0
SPLINE
  5
FA
330
1F
100
AcDbEntity
  8
Make2D visible lines - Tangent
100
AcDbSpline
210
0.0
220
0.0
230
1.0
 70
     8
 71
     3
 72
    14
 73
    10
 74
     0
 42
0.0000000001
 43
0.0000000001
 40
0.2772630823298201
 40
0.2772630823298201
 40
0.2772630823298201
 40
0.2772630823298201
 40
1.0
 40
2.0
 40
3.0
 40
4.0
 40
5.0
 40
6.0
 40
7.0
 40
7.0
 40
7.0
 40
7.0
 10
-0.3771762093825908
 20
47.69408382664803
 30
0.0
 10
-0.3852734717199438
 20
47.65433014134339
 30
0.0
 10
-0.4003397105781008
 20
47.55870436333446
 30
0.0
 10
-0.4050810797033629
 20
47.40554980659091
 30
0.0
 10
-0.3870666860453736
 20
47.23777349290029
 30
0.0
 10
-0.3455373220093247
 20
47.07402769751486
 30
0.0
 10
-0.2750489478322445
 20
46.92016016258835
 30
0.0
 10
-0.1649438399710883
 20
46.78920067352256
 30
0.0
 10
-0.0569343947226571
 20
46.74398047002776
 30
0.0
 10
-0.0002503970885233
 20
46.7444879757347
 30
0.0
  0
SPLINE
  5
FB
330
1F
100
AcDbEntity
  8
Make2D visible lines - Tangent
100
AcDbSpline
210
0.0
220
0.0
230
1.0
 70
     8
 71
     3
 72
    14
 73
    10
 74
     0
 42
0.0000000001
 43
0.0000000001
 40
-7.0
 40
-7.0
 40
-7.0
 40
-7.0
 40
-6.0
 40
-5.0
 40
-4.0
 40
-3.0
 40
-2.0
 40
-1.0
 40
-0.2482205602640466
 40
-0.2482205602640466
 40
-0.2482205602640466
 40
-0.2482205602640466
 10
-0.0002503970885233
 20
46.7444879757347
 30
0.0
 10
0.0564336005456106
 20
46.74398047002776
 30
0.0
 10
0.1644430457940418
 20
46.78920067352256
 30
0.0
 10
0.274548153655198
 20
46.92016016258835
 30
0.0
 10
0.3450365278322782
 20
47.07402769751486
 30
0.0
 10
0.3865658918683271
 20
47.23777349290029
 30
0.0
 10
0.4045802855263164
 20
47.40554980659091
 30
0.0
 10
0.3997883418058561
 20
47.56033801165532
 30
0.0
 10
0.3842612640488078
 20
47.65755396587841
 30
0.0
 10
0.3756906883844119
 20
47.69887445059726
 30
0.0
  0
ARC
  5
FC
330
1F
100
AcDbEntity
  8
Make2D visible lines - Tangent
100
AcDbCircle
 10
0.8652702727112507
 20
47.80042163475497
 30
0.0
 40
0.5
100
AcDbArc
 50
178.9775798079559
 51
191.7179678781667
  0
SPLINE
  5
FD
330
1F
100
AcDbEntity
  8
Make2D visible lines - Tangent
100
AcDbSpline
210
0.0
220
0.0
230
1.0
 70
    12
 71
     2
 72
     6
 73
     3
 74
     0
 42
0.0000000001
 43
0.0000000001
 40
-0.1297405451143296
 40
-0.1297405451143296
 40
-0.1297405451143296
 40
0.0
 40
0.0
 40
0.0
 10
0.3653498780244278
 20
47.80934346058667
 30
0.0
 41
0.9999960316975589
 10
0.3665074009040286
 20
47.8742034237537
 30
0.0
 41
0.9999968655123173
 10
0.3678616769873102
 20
47.93905957702797
 30
0.0
 41
1.0
  0
SPLINE
  5
FE
330
1F
100
AcDbEntity
  8
Default
100
AcDbSpline
210
0.0
220
0.0
230
1.0
 70
     8
 71
     3
 72
    29
 73
    25
 74
     0
 42
0.0000000001
 43
0.0000000001
 40
0.0
 40
0.0
 40
0.0
 40
0.0
 40
1.0
 40
2.0
 40
3.0
 40
4.0
 40
5.0
 40
6.0
 40
7.0
 40
8.0
 40
9.0
 40
10.0
 40
11.0
 40
12.0
 40
13.0
 40
14.0
 40
15.0
 40
16.0
 40
17.0
 40
18.0
 40
19.0
 40
20.0
 40
21.0
 40
22.0
 40
22.0
 40
22.0
 40
22.0
 10
-8.239873338902518
 20
72.59852260355831
 30
0.0
 10
-8.40299585565264
 20
72.26936739678825
 30
0.0
 10
-8.84669198702293
 20
71.68204443961966
 30
0.0
 10
-9.518311167271525
 20
70.81166154538673
 30
0.0
 10
-10.21524671594926
 20
69.9596877363721
 30
0.0
 10
-10.88097182092603
 20
69.08321677726249
 30
0.0
 10
-11.46843570893984
 20
68.15144970269424
 30
0.0
 10
-11.99157792390666
 20
67.18288085570398
 30
0.0
 10
-12.4505934087476
 20
66.18224458020958
 30
0.0
 10
-12.85593425132171
 20
65.15898006319189
 30
0.0
 10
-13.21803627496098
 20
64.11965166333835
 30
0.0
 10
-13.53608204104821
 20
63.06606689944549
 30
0.0
 10
-13.81372940161075
 20
62.00101154833573
 30
0.0
 10
-13.99922945183244
 20
60.91399993656225
 30
0.0
 10
-13.95312258704689
 20
59.80346207946656
 30
0.0
 10
-13.57001022465057
 20
58.75965807477824
 30
0.0
 10
-12.94145775833015
 20
57.85144453179124
 30
0.0
 10
-12.34137356934332
 20
56.92997567714161
 30
0.0
 10
-11.65513882119671
 20
56.06790119170699
 30
0.0
 10
-10.92677753532757
 20
55.24332450868879
 30
0.0
 10
-10.19152748070646
 20
54.42461026859718
 30
0.0
 10
-9.449729541364658
 20
53.6118700104544
 30
0.0
 10
-8.679861058828243
 20
52.82515032355357
 30
0.0
 10
-8.130358362550602
 20
52.33819250250961
 30
0.0
 10
-7.843273620481233
 20
52.10983541681903
 30
0.0
  0
SPLINE
  5
FF
330
1F
100
AcDbEntity
  8
Make2D visible lines
100
AcDbSpline
210
0.0
220
0.0
230
1.0
 70
    12
 71
     2
 72
     6
 73
     3
 74
     0
 42
0.0000000001
 43
0.0000000001
 40
0.0
 40
0.0
 40
0.0
 40
0.0853474550214741
 40
0.0853474550214741
 40
0.0853474550214741
 10
13.85379164784914
 20
61.78349366490156
 30
0.0
 41
1.0
 10
13.89637788632888
 20
61.7864810428643
 30
0.0
 41
0.9993970637774641
 10
13.93906876970281
 20
61.7865057753982
 30
0.0
 41
1.0
  0
SPLINE
  5
100
330
1F
100
AcDbEntity
  8
Make2D visible lines - Tangent
100
AcDbSpline
210
0.0
220
0.0
230
1.0
 70
     8
 71
     3
 72
    12
 73
     8
 74
     0
 42
0.0000000001
 43
0.0000000001
 40
0.0
 40
0.0
 40
0.0
 40
0.0
 40
0.1510110321465192
 40
0.3037660471064116
 40
0.5900965017365678
 40
0.8249401141264362
 40
1.014583801502342
 40
1.014583801502342
 40
1.014583801502342
 40
1.014583801502342
 10
-0.402084921046864
 20
47.55970286299178
 30
0.0
 10
-0.4070011434067684
 20
47.5095826265654
 30
0.0
 10
-0.4108309218993007
 20
47.40828277231525
 30
0.0
 10
-0.3936190376958084
 20
47.21183495331464
 30
0.0
 10
-0.3331667011838846
 20
46.99369167860377
 30
0.0
 10
-0.198418873259179
 20
46.79283691414815
 30
0.0
 10
-0.064601636924948
 20
46.72809238792222
 30
0.0
 10
-0.000250893648591
 20
46.72934586761112
 30
0.0
  0
SPLINE
  5
101
330
1F
100
AcDbEntity
  8
Make2D visible lines - Tangent
100
AcDbSpline
210
0.0
220
0.0
230
1.0
 70
     8
 71
     3
 72
    12
 73
     8
 74
     0
 42
0.0000000001
 43
0.0000000001
 40
-1.014583801502342
 40
-1.014583801502342
 40
-1.014583801502342
 40
-1.014583801502342
 40
-0.8249401141264362
 40
-0.5900965017365678
 40
-0.3037660471064116
 40
-0.1510110321465192
 40
0.0
 40
0.0
 40
0.0
 40
0.0
 10
-0.000250893648591
 20
46.72934586761112
 30
0.0
 10
0.064099849627766
 20
46.72809238792222
 30
0.0
 10
0.197917085961997
 20
46.79283691414815
 30
0.0
 10
0.3326649138867026
 20
46.99369167860377
 30
0.0
 10
0.3931172503986264
 20
47.21183495331464
 30
0.0
 10
0.4103291346021187
 20
47.40828277231525
 30
0.0
 10
0.4064993561095864
 20
47.5095826265654
 30
0.0
 10
0.401583133749682
 20
47.55970286299178
 30
0.0
  0
ENDSEC
  0
SECTION
  2
OBJECTS
  0
DICTIONARY
  5
C
330
0
100
AcDbDictionary
281
     1
  3
ACAD_GROUP
350
D
  3
ACAD_LAYOUT
350
1A
  3
ACAD_MLEADERSTYLE
350
103
  3
ACAD_MLINESTYLE
350
17
  3
ACAD_PLOTSETTINGS
350
19
  3
ACAD_PLOTSTYLENAME
350
E
  3
ACAD_TABLESTYLE
350
102
  3
ACAD_VISUALSTYLE
350
2A
  0
DICTIONARY
  5
D
102
{ACAD_REACTORS
330
C
102
}
330
C
100
AcDbDictionary
281
     1
  0
DICTIONARY
  5
1A
102
{ACAD_REACTORS
330
C
102
}
330
C
100
AcDbDictionary
281
     1
  3
Layout1
350
1E
  3
Layout2
350
26
  3
Model
350
22
  0
DICTIONARY
  5
103
102
{ACAD_REACTORS
330
C
102
}
330
C
100
AcDbDictionary
281
     1
  0
DICTIONARY
  5
17
102
{ACAD_REACTORS
330
C
102
}
330
C
100
AcDbDictionary
281
     1
  3
Standard
350
18
  0
DICTIONARY
  5
19
102
{ACAD_REACTORS
330
C
102
}
330
C
100
AcDbDictionary
281
     1
  0
ACDBDICTIONARYWDFLT
  5
E
102
{ACAD_REACTORS
330
C
102
}
330
C
100
AcDbDictionary
281
     1
  3
Normal
350
F
100
AcDbDictionaryWithDefault
340
F
  0
DICTIONARY
  5
102
102
{ACAD_REACTORS
330
C
102
}
330
C
100
AcDbDictionary
281
     1
  0
DICTIONARY
  5
2A
102
{ACAD_REACTORS
330
C
102
}
330
C
100
AcDbDictionary
281
     1
  3
2dWireframe
350
2F
  3
3D Hidden
350
31
  3
3dWireframe
350
30
  3
Basic
350
32
  3
Brighten
350
36
  3
ColorChange
350
3A
  3
Conceptual
350
34
  3
Dim
350
35
  3
Facepattern
350
39
  3
Flat
350
2B
  3
FlatWithEdges
350
2C
  3
Gouraud
350
2D
  3
GouraudWithEdges
350
2E
  3
Linepattern
350
38
  3
Realistic
350
33
  3
Thicken
350
37
  0
LAYOUT
  5
1E
102
{ACAD_REACTORS
330
1A
102
}
330
1A
100
AcDbPlotSettings
  1

  2
none_device
  4

  6

 40
0.0
 41
0.0
 42
0.0
 43
0.0
 44
0.0
 45
0.0
 46
0.0
 47
0.0
 48
0.0
 49
0.0
140
0.0
141
0.0
142
1.0
143
1.0
 70
   688
 72
     0
 73
     0
 74
     5
  7

 75
    16
 76
     0
 77
     2
 78
   300
147
1.0
148
0.0
149
0.0
100
AcDbLayout
  1
Layout1
 70
     1
 71
     1
 10
0.0
 20
0.0
 11
12.0
 21
9.0
 12
0.0
 22
0.0
 32
0.0
 14
1.000000000000000E+20
 24
1.000000000000000E+20
 34
1.000000000000000E+20
 15
-1.000000000000000E+20
 25
-1.000000000000000E+20
 35
-1.000000000000000E+20
146
0.0
 13
0.0
 23
0.0
 33
0.0
 16
1.0
 26
0.0
 36
0.0
 17
0.0
 27
1.0
 37
0.0
 76
     0
330
1B
  0
LAYOUT
  5
26
102
{ACAD_REACTORS
330
1A
102
}
330
1A
100
AcDbPlotSettings
  1

  2
none_device
  4

  6

 40
0.0
 41
0.0
 42
0.0
 43
0.0
 44
0.0
 45
0.0
 46
0.0
 47
0.0
 48
0.0
 49
0.0
140
0.0
141
0.0
142
1.0
143
1.0
 70
   688
 72
     0
 73
     0
 74
     5
  7

 75
    16
 76
     0
 77
     2
 78
   300
147
1.0
148
0.0
149
0.0
100
AcDbLayout
  1
Layout2
 70
     1
 71
     2
 10
0.0
 20
0.0
 11
0.0
 21
0.0
 12
0.0
 22
0.0
 32
0.0
 14
0.0
 24
0.0
 34
0.0
 15
0.0
 25
0.0
 35
0.0
146
0.0
 13
0.0
 23
0.0
 33
0.0
 16
1.0
 26
0.0
 36
0.0
 17
0.0
 27
1.0
 37
0.0
 76
     0
330
23
  0
LAYOUT
  5
22
102
{ACAD_REACTORS
330
1A
102
}
330
1A
100
AcDbPlotSettings
  1

  2
none_device
  4

  6

 40
0.0
 41
0.0
 42
0.0
 43
0.0
 44
0.0
 45
0.0
 46
0.0
 47
0.0
 48
0.0
 49
0.0
140
0.0
141
0.0
142
1.0
143
1.0
 70
  1712
 72
     0
 73
     0
 74
     0
  7

 75
     0
 76
     0
 77
     2
 78
   300
147
1.0
148
0.0
149
0.0
100
AcDbLayout
  1
Model
 70
     1
 71
     0
 10
0.0
 20
0.0
 11
12.0
 21
9.0
 12
0.0
 22
0.0
 32
0.0
 14
-14.64960402052019
 24
0.0000000000000034
 34
0.0
 15
57.26436956481862
 25
78.18856570292016
 35
0.0
146
0.0
 13
0.0
 23
0.0
 33
0.0
 16
1.0
 26
0.0
 36
0.0
 17
0.0
 27
1.0
 37
0.0
 76
     0
330
1F
331
29
  0
MLINESTYLE
  5
18
102
{ACAD_REACTORS
330
17
102
}
330
17
100
AcDbMlineStyle
  2
Standard
 70
     0
  3

 62
   256
 51
90.0
 52
90.0
 71
     2
 49
0.5
 62
   256
  6
BYLAYER
 49
-0.5
 62
   256
  6
BYLAYER
  0
ACDBPLACEHOLDER
  5
F
102
{ACAD_REACTORS
330
E
102
}
330
E
  0
VISUALSTYLE
  5
2F
102
{ACAD_REACTORS
330
2A
102
}
330
2A
100
AcDbVisualStyle
  2
2dWireframe
 70
     4
 71
     0
 72
     2
 73
     0
 90
        0
 40
-0.6
 41
-30.0
 62
     5
 63
     7
421
 16777215
 74
     1
 91
        4
 64
     7
 65
   257
 75
     1
175
     1
 42
1.0
 92
        0
 66
   257
 43
1.0
 76
     1
 77
     6
 78
     2
 67
     7
 79
     5
170
     0
171
     0
290
     0
174
     0
 93
        1
 44
0.0
173
     0
291
     0
 45
0.0
1001
ACAD
1000
AcDbSavedByObjectVersion
1070
     0
  0
VISUALSTYLE
  5
31
102
{ACAD_REACTORS
330
2A
102
}
330
2A
100
AcDbVisualStyle
  2
3D Hidden
 70
     6
 71
     1
 72
     2
 73
     2
 90
        0
 40
-0.6
 41
-30.0
 62
     5
 63
     7
421
 16777215
 74
     2
 91
        2
 64
     7
 65
   257
 75
     2
175
     1
 42
40.0
 92
        0
 66
   257
 43
1.0
 76
     1
 77
     6
 78
     2
 67
     7
 79
     3
170
     0
171
     0
290
     0
174
     0
 93
        1
 44
0.0
173
     0
291
     0
 45
0.0
1001
ACAD
1000
AcDbSavedByObjectVersion
1070
     0
  0
VISUALSTYLE
  5
30
102
{ACAD_REACTORS
330
2A
102
}
330
2A
100
AcDbVisualStyle
  2
3dWireframe
 70
     5
 71
     0
 72
     2
 73
     0
 90
        0
 40
-0.6
 41
-30.0
 62
     5
 63
     7
421
 16777215
 74
     1
 91
        4
 64
     7
 65
   257
 75
     1
175
     1
 42
1.0
 92
        0
 66
   257
 43
1.0
 76
     1
 77
     6
 78
     2
 67
     7
 79
     5
170
     0
171
     0
290
     0
174
     0
 93
        1
 44
0.0
173
     0
291
     0
 45
0.0
1001
ACAD
1000
AcDbSavedByObjectVersion
1070
     0
  0
VISUALSTYLE
  5
32
102
{ACAD_REACTORS
330
2A
102
}
330
2A
100
AcDbVisualStyle
  2
Basic
 70
     7
 71
     1
 72
     0
 73
     1
 90
        0
 40
-0.6
 41
-30.0
 62
     5
 63
     7
421
 16777215
 74
     0
 91
        4
 64
     7
 65
   257
 75
     1
175
     1
 42
1.0
 92
        8
 66
     7
 43
1.0
 76
     1
 77
     6
 78
     2
 67
     7
 79
     5
170
     0
171
     0
290
     0
174
     0
 93
        1
 44
0.0
173
     0
291
     1
 45
0.0
1001
ACAD
1000
AcDbSavedByObjectVersion
1070
     0
  0
VISUALSTYLE
  5
36
102
{ACAD_REACTORS
330
2A
102
}
330
2A
100
AcDbVisualStyle
  2
Brighten
 70
    12
 71
     2
 72
     2
 73
     0
 90
        0
 40
-0.6
 41
-30.0
 62
     5
 63
     7
421
 16777215
 74
     1
 91
        4
 64
     7
 65
   257
 75
     1
175
     1
 42
1.0
 92
        8
 66
     7
 43
1.0
 76
     1
 77
     6
 78
     2
 67
     7
 79
     5
170
     0
171
     0
290
     0
174
     0
 93
        1
 44
50.0
173
     0
291
     1
 45
0.0
1001
ACAD
1000
AcDbSavedByObjectVersion
1070
     0
  0
VISUALSTYLE
  5
3A
102
{ACAD_REACTORS
330
2A
102
}
330
2A
100
AcDbVisualStyle
  2
ColorChange
 70
    16
 71
     2
 72
     2
 73
     3
 90
        0
 40
-0.6
 41
-30.0
 62
     5
 63
     8
421
  8421504
 74
     1
 91
        4
 64
     7
 65
   257
 75
     1
175
     1
 42
1.0
 92
        8
 66
     8
424
  8421504
 43
1.0
 76
     1
 77
     6
 78
     2
 67
     7
 79
     5
170
     0
171
     0
290
     0
174
     0
 93
        1
 44
0.0
173
     0
291
     1
 45
0.0
1001
ACAD
1000
AcDbSavedByObjectVersion
1070
     0
  0
VISUALSTYLE
  5
34
102
{ACAD_REACTORS
330
2A
102
}
330
2A
100
AcDbVisualStyle
  2
Conceptual
 70
     9
 71
     3
 72
     2
 73
     0
 90
        0
 40
-0.6
 41
-30.0
 62
     5
 63
     7
421
 16777215
 74
     2
 91
        2
 64
     7
 65
   257
 75
     1
175
     1
 42
40.0
 92
        8
 66
     7
 43
1.0
 76
     1
 77
     6
 78
     2
 67
     7
 79
     3
170
     0
171
     0
290
     0
174
     0
 93
        1
 44
0.0
173
     0
291
     0
 45
0.0
1001
ACAD
1000
AcDbSavedByObjectVersion
1070
     0
  0
VISUALSTYLE
  5
35
102
{ACAD_REACTORS
330
2A
102
}
330
2A
100
AcDbVisualStyle
  2
Dim
 70
    11
 71
     2
 72
     2
 73
     0
 90
        0
 40
-0.6
 41
-30.0
 62
     5
 63
     7
421
 16777215
 74
     1
 91
        4
 64
     7
 65
   257
 75
     1
175
     1
 42
1.0
 92
        8
 66
     7
 43
1.0
 76
     1
 77
     6
 78
     2
 67
     7
 79
     5
170
     0
171
     0
290
     0
174
     0
 93
        1
 44
-50.0
173
     0
291
     1
 45
0.0
1001
ACAD
1000
AcDbSavedByObjectVersion
1070
     0
  0
VISUALSTYLE
  5
39
102
{ACAD_REACTORS
330
2A
102
}
330
2A
100
AcDbVisualStyle
  2
Facepattern
 70
    15
 71
     2
 72
     2
 73
     0
 90
        0
 40
-0.6
 41
-30.0
 62
     5
 63
     7
421
 16777215
 74
     1
 91
        4
 64
     7
 65
   257
 75
     1
175
     1
 42
1.0
 92
        8
 66
     7
 43
1.0
 76
     1
 77
     6
 78
     2
 67
     7
 79
     5
170
     0
171
     0
290
     0
174
     0
 93
        1
 44
0.0
173
     0
291
     1
 45
0.0
1001
ACAD
1000
AcDbSavedByObjectVersion
1070
     0
  0
VISUALSTYLE
  5
2B
102
{ACAD_REACTORS
330
2A
102
}
330
2A
100
AcDbVisualStyle
  2
Flat
 70
     0
 71
     2
 72
     1
 73
     1
 90
        2
 40
-0.6
 41
30.0
 62
     5
 63
     7
421
 16777215
 74
     0
 91
        4
 64
     7
 65
   257
 75
     1
175
     1
 42
1.0
 92
        8
 66
     7
 43
1.0
 76
     1
 77
     6
 78
     2
 67
     7
 79
     5
170
     0
171
     0
290
     0
174
     0
 93
       13
 44
0.0
173
     0
291
     1
 45
0.0
1001
ACAD
1000
AcDbSavedByObjectVersion
1070
     0
  0
VISUALSTYLE
  5
2C
102
{ACAD_REACTORS
330
2A
102
}
330
2A
100
AcDbVisualStyle
  2
FlatWithEdges
 70
     1
 71
     2
 72
     1
 73
     1
 90
        2
 40
-0.6
 41
30.0
 62
     5
 63
     7
421
 16777215
 74
     1
 91
        4
 64
     7
 65
   257
 75
     1
175
     1
 42
1.0
 92
        0
 66
   257
 43
1.0
 76
     1
 77
     6
 78
     2
 67
     7
 79
     5
170
     0
171
     0
290
     0
174
     0
 93
       13
 44
0.0
173
     0
291
     1
 45
0.0
1001
ACAD
1000
AcDbSavedByObjectVersion
1070
     0
  0
VISUALSTYLE
  5
2D
102
{ACAD_REACTORS
330
2A
102
}
330
2A
100
AcDbVisualStyle
  2
Gouraud
 70
     2
 71
     2
 72
     2
 73
     1
 90
        2
 40
-0.6
 41
30.0
 62
     5
 63
     7
421
 16777215
 74
     0
 91
        4
 64
     7
 65
   257
 75
     1
175
     1
 42
1.0
 92
        0
 66
     7
 43
1.0
 76
     1
 77
     6
 78
     2
 67
     7
 79
     5
170
     0
171
     0
290
     0
174
     0
 93
       13
 44
0.0
173
     0
291
     1
 45
0.0
1001
ACAD
1000
AcDbSavedByObjectVersion
1070
     0
  0
VISUALSTYLE
  5
2E
102
{ACAD_REACTORS
330
2A
102
}
330
2A
100
AcDbVisualStyle
  2
GouraudWithEdges
 70
     3
 71
     2
 72
     2
 73
     1
 90
        2
 40
-0.6
 41
30.0
 62
     5
 63
     7
421
 16777215
 74
     1
 91
        4
 64
     7
 65
   257
 75
     1
175
     1
 42
1.0
 92
        0
 66
   257
 43
1.0
 76
     1
 77
     6
 78
     2
 67
     7
 79
     5
170
     0
171
     0
290
     0
174
     0
 93
       13
 44
0.0
173
     0
291
     1
 45
0.0
1001
ACAD
1000
AcDbSavedByObjectVersion
1070
     0
  0
VISUALSTYLE
  5
38
102
{ACAD_REACTORS
330
2A
102
}
330
2A
100
AcDbVisualStyle
  2
Linepattern
 70
    14
 71
     2
 72
     2
 73
     0
 90
        0
 40
-0.6
 41
-30.0
 62
     5
 63
     7
421
 16777215
 74
     1
 91
        4
 64
     7
 65
   257
 75
     7
175
     7
 42
1.0
 92
        8
 66
     7
 43
1.0
 76
     1
 77
     6
 78
     2
 67
     7
 79
     5
170
     0
171
     0
290
     0
174
     0
 93
        1
 44
0.0
173
     0
291
     1
 45
0.0
1001
ACAD
1000
AcDbSavedByObjectVersion
1070
     0
  0
VISUALSTYLE
  5
33
102
{ACAD_REACTORS
330
2A
102
}
330
2A
100
AcDbVisualStyle
  2
Realistic
 70
     8
 71
     2
 72
     2
 73
     0
 90
        0
 40
-0.6
 41
-30.0
 62
     5
 63
     7
421
 16777215
 74
     1
 91
        0
 64
     7
 65
   257
 75
     1
175
     1
 42
1.0
 92
        8
 66
     8
424
  7895160
 43
1.0
 76
     1
 77
     6
 78
     2
 67
     7
 79
     5
170
     0
171
     0
290
     0
174
     0
 93
       13
 44
0.0
173
     0
291
     0
 45
0.0
1001
ACAD
1000
AcDbSavedByObjectVersion
1070
     0
  0
VISUALSTYLE
  5
37
102
{ACAD_REACTORS
330
2A
102
}
330
2A
100
AcDbVisualStyle
  2
Thicken
 70
    13
 71
     2
 72
     2
 73
     0
 90
        0
 40
-0.6
 41
-30.0
 62
     5
 63
     7
421
 16777215
 74
     1
 91
        4
 64
     7
 65
   257
 75
     1
175
     1
 42
1.0
 92
       12
 66
     7
 43
1.0
 76
     1
 77
     6
 78
     2
 67
     7
 79
     5
170
     0
171
     0
290
     0
174
     0
 93
        1
 44
0.0
173
     0
291
     1
 45
0.0
1001
ACAD
1000
AcDbSavedByObjectVersion
1070
     0
  0
ENDSEC
  0
EOF
