  0
SECTION
  2
HEADER
  9
$ACADVER
  1
AC1018
  9
$ACADMAINTVER
 70
     0
  9
$DWGCODEPAGE
  3
ANSI_1252
  9
$INSBASE
 10
0.0
 20
0.0
 30
0.0
  9
$EXTMIN
 10
-21.94529949049637
 20
0.0000000000000034
 30
0.0
  9
$EXTMAX
 10
66.79255956574454
 20
84.59748850640543
 30
0.0
  9
$LIMMIN
 10
0.0
 20
0.0
  9
$LIMMAX
 10
12.0
 20
9.0
  9
$ORTHOMODE
 70
     0
  9
$REGENMODE
 70
     1
  9
$FILLMODE
 70
     1
  9
$QTEXTMODE
 70
     0
  9
$MIRRTEXT
 70
     1
  9
$LTSCALE
 40
0.0393700787401575
  9
$ATTMODE
 70
     1
  9
$TEXTSIZE
 40
0.2
  9
$TRACEWID
 40
0.05
  9
$TEXTSTYLE
  7
Standard
  9
$CLAYER
  8
Default
  9
$CELTYPE
  6
ByLayer
  9
$CECOLOR
 62
   256
  9
$CELTSCALE
 40
1.0
  9
$DISPSILH
 70
     0
  9
$DIMSCALE
 40
1.0
  9
$DIMASZ
 40
0.18
  9
$DIMEXO
 40
0.0625
  9
$DIMDLI
 40
0.38
  9
$DIMRND
 40
0.0
  9
$DIMDLE
 40
0.0
  9
$DIMEXE
 40
0.18
  9
$DIMTP
 40
0.0
  9
$DIMTM
 40
0.0
  9
$DIMTXT
 40
0.18
  9
$DIMCEN
 40
0.09
  9
$DIMTSZ
 40
0.0
  9
$DIMTOL
 70
     0
  9
$DIMLIM
 70
     0
  9
$DIMTIH
 70
     1
  9
$DIMTOH
 70
     1
  9
$DIMSE1
 70
     0
  9
$DIMSE2
 70
     0
  9
$DIMTAD
 70
     0
  9
$DIMZIN
 70
     0
  9
$DIMBLK
  1

  9
$DIMASO
 70
     1
  9
$DIMSHO
 70
     1
  9
$DIMPOST
  1

  9
$DIMAPOST
  1

  9
$DIMALT
 70
     0
  9
$DIMALTD
 70
     2
  9
$DIMALTF
 40
25.4
  9
$DIMLFAC
 40
1.0
  9
$DIMTOFL
 70
     0
  9
$DIMTVP
 40
0.0
  9
$DIMTIX
 70
     0
  9
$DIMSOXD
 70
     0
  9
$DIMSAH
 70
     0
  9
$DIMBLK1
  1

  9
$DIMBLK2
  1

  9
$DIMSTYLE
  2
Standard
  9
$DIMCLRD
 70
     0
  9
$DIMCLRE
 70
     0
  9
$DIMCLRT
 70
     0
  9
$DIMTFAC
 40
1.0
  9
$DIMGAP
 40
0.09
  9
$DIMJUST
 70
     0
  9
$DIMSD1
 70
     0
  9
$DIMSD2
 70
     0
  9
$DIMTOLJ
 70
     1
  9
$DIMTZIN
 70
     0
  9
$DIMALTZ
 70
     0
  9
$DIMALTTZ
 70
     0
  9
$DIMUPT
 70
     0
  9
$DIMDEC
 70
     4
  9
$DIMTDEC
 70
     4
  9
$DIMALTU
 70
     2
  9
$DIMALTTD
 70
     2
  9
$DIMTXSTY
  7
Standard
  9
$DIMAUNIT
 70
     0
  9
$DIMADEC
 70
     0
  9
$DIMALTRND
 40
0.0
  9
$DIMAZIN
 70
     0
  9
$DIMDSEP
 70
    46
  9
$DIMATFIT
 70
     3
  9
$DIMFRAC
 70
     0
  9
$DIMLDRBLK
  1

  9
$DIMLUNIT
 70
     2
  9
$DIMLWD
 70
    -2
  9
$DIMLWE
 70
    -2
  9
$DIMTMOVE
 70
     2
  9
$LUNITS
 70
     2
  9
$LUPREC
 70
     3
  9
$SKETCHINC
 40
0.1
  9
$FILLETRAD
 40
0.5
  9
$AUNITS
 70
     0
  9
$AUPREC
 70
     0
  9
$MENU
  1
.
  9
$ELEVATION
 40
0.0
  9
$PELEVATION
 40
0.0
  9
$THICKNESS
 40
0.0
  9
$LIMCHECK
 70
     0
  9
$CHAMFERA
 40
0.5
  9
$CHAMFERB
 40
0.5
  9
$CHAMFERC
 40
1.0
  9
$CHAMFERD
 40
0.0
  9
$SKPOLY
 70
     0
  9
$TDCREATE
 40
2456338.481821644
  9
$TDUCREATE
 40
2456338.690154977
  9
$TDUPDATE
 40
2456338.481821655
  9
$TDUUPDATE
 40
2456338.690154988
  9
$TDINDWG
 40
0.0000000116
  9
$TDUSRTIMER
 40
0.0000000116
  9
$USRTIMER
 70
     1
  9
$ANGBASE
 50
0.0
  9
$ANGDIR
 70
     0
  9
$PDMODE
 70
     0
  9
$PDSIZE
 40
0.0
  9
$PLINEWID
 40
0.0
  9
$SPLFRAME
 70
     0
  9
$SPLINETYPE
 70
     6
  9
$SPLINESEGS
 70
     8
  9
$HANDSEED
  5
156
  9
$SURFTAB1
 70
     6
  9
$SURFTAB2
 70
     6
  9
$SURFTYPE
 70
     6
  9
$SURFU
 70
     6
  9
$SURFV
 70
     6
  9
$UCSBASE
  2

  9
$UCSNAME
  2

  9
$UCSORG
 10
0.0
 20
0.0
 30
0.0
  9
$UCSXDIR
 10
1.0
 20
0.0
 30
0.0
  9
$UCSYDIR
 10
0.0
 20
1.0
 30
0.0
  9
$UCSORTHOREF
  2

  9
$UCSORTHOVIEW
 70
     0
  9
$UCSORGTOP
 10
0.0
 20
0.0
 30
0.0
  9
$UCSORGBOTTOM
 10
0.0
 20
0.0
 30
0.0
  9
$UCSORGLEFT
 10
0.0
 20
0.0
 30
0.0
  9
$UCSORGRIGHT
 10
0.0
 20
0.0
 30
0.0
  9
$UCSORGFRONT
 10
0.0
 20
0.0
 30
0.0
  9
$UCSORGBACK
 10
0.0
 20
0.0
 30
0.0
  9
$PUCSBASE
  2

  9
$PUCSNAME
  2

  9
$PUCSORG
 10
0.0
 20
0.0
 30
0.0
  9
$PUCSXDIR
 10
1.0
 20
0.0
 30
0.0
  9
$PUCSYDIR
 10
0.0
 20
1.0
 30
0.0
  9
$PUCSORTHOREF
  2

  9
$PUCSORTHOVIEW
 70
     0
  9
$PUCSORGTOP
 10
0.0
 20
0.0
 30
0.0
  9
$PUCSORGBOTTOM
 10
0.0
 20
0.0
 30
0.0
  9
$PUCSORGLEFT
 10
0.0
 20
0.0
 30
0.0
  9
$PUCSORGRIGHT
 10
0.0
 20
0.0
 30
0.0
  9
$PUCSORGFRONT
 10
0.0
 20
0.0
 30
0.0
  9
$PUCSORGBACK
 10
0.0
 20
0.0
 30
0.0
  9
$USERI1
 70
     0
  9
$USERI2
 70
     0
  9
$USERI3
 70
     0
  9
$USERI4
 70
     0
  9
$USERI5
 70
     0
  9
$USERR1
 40
0.0
  9
$USERR2
 40
0.0
  9
$USERR3
 40
0.0
  9
$USERR4
 40
0.0
  9
$USERR5
 40
0.0
  9
$WORLDVIEW
 70
     1
  9
$SHADEDGE
 70
     3
  9
$SHADEDIF
 70
    70
  9
$TILEMODE
 70
     1
  9
$MAXACTVP
 70
    64
  9
$PINSBASE
 10
0.0
 20
0.0
 30
0.0
  9
$PLIMCHECK
 70
     0
  9
$PEXTMIN
 10
1.000000000000000E+20
 20
1.000000000000000E+20
 30
1.000000000000000E+20
  9
$PEXTMAX
 10
-1.000000000000000E+20
 20
-1.000000000000000E+20
 30
-1.000000000000000E+20
  9
$PLIMMIN
 10
0.0
 20
0.0
  9
$PLIMMAX
 10
12.0
 20
9.0
  9
$UNITMODE
 70
     0
  9
$VISRETAIN
 70
     1
  9
$PLINEGEN
 70
     0
  9
$PSLTSCALE
 70
     1
  9
$TREEDEPTH
 70
  3020
  9
$CMLSTYLE
  2
Standard
  9
$CMLJUST
 70
     0
  9
$CMLSCALE
 40
1.0
  9
$PROXYGRAPHICS
 70
     1
  9
$MEASUREMENT
 70
     0
  9
$CELWEIGHT
370
    -1
  9
$ENDCAPS
280
     0
  9
$JOINSTYLE
280
     0
  9
$LWDISPLAY
290
     0
  9
$INSUNITS
 70
     1
  9
$HYPERLINKBASE
  1

  9
$STYLESHEET
  1

  9
$XEDIT
290
     1
  9
$CEPSNTYPE
380
     0
  9
$PSTYLEMODE
290
     1
  9
$FINGERPRINTGUID
  2
{B80150CA-3109-4424-A3F4-B87DCEE83513}
  9
$VERSIONGUID
  2
{FAEB1C32-E019-11D5-929B-00C0DF256EC4}
  9
$EXTNAMES
290
     1
  9
$PSVPSCALE
 40
0.0
  9
$OLESTARTUP
290
     0
  9
$SORTENTS
280
   127
  9
$INDEXCTL
280
     0
  9
$HIDETEXT
280
     1
  9
$XCLIPFRAME
290
     0
  9
$HALOGAP
280
     0
  9
$OBSCOLOR
 70
   257
  9
$OBSLTYPE
280
     0
  9
$INTERSECTIONDISPLAY
280
     0
  9
$INTERSECTIONCOLOR
 70
   257
  9
$DIMASSOC
280
     2
  9
$PROJECTNAME
  1

  0
ENDSEC
  0
SECTION
  2
CLASSES
  0
CLASS
  1
ACDBDICTIONARYWDFLT
  2
AcDbDictionaryWithDefault
  3
ObjectDBX Classes
 90
        0
 91
        4
280
     0
281
     0
  0
CLASS
  1
VISUALSTYLE
  2
AcDbVisualStyle
  3
ObjectDBX Classes
 90
     4095
 91
        4
280
     0
281
     0
  0
ENDSEC
  0
SECTION
  2
TABLES
  0
TABLE
  2
VPORT
  5
8
330
0
100
AcDbSymbolTable
 70
     1
  0
VPORT
  5
29
330
8
100
AcDbSymbolTableRecord
100
AcDbViewportTableRecord
  2
*Active
 70
     0
 10
0.0
 20
0.0
 11
1.0
 21
1.0
 12
22.42363003762409
 22
42.29874425320271
 13
0.0
 23
0.0
 14
0.5
 24
0.5
 15
0.5
 25
0.5
 16
0.0
 26
0.0
 36
1.0
 17
0.0
 27
0.0
 37
0.0
 40
86.28943827653353
 41
1.048942003160318
 42
50.0
 43
0.0
 44
0.0
 50
0.0
 51
0.0
 71
     0
 72
   100
 73
     1
 74
     3
 75
     0
 76
     0
 77
     0
 78
     0
281
     0
 65
     1
110
0.0
120
0.0
130
0.0
111
1.0
121
0.0
131
0.0
112
0.0
122
1.0
132
0.0
 79
     0
146
0.0
  0
ENDTAB
  0
TABLE
  2
LTYPE
  5
5
330
0
100
AcDbSymbolTable
 70
     1
  0
LTYPE
  5
14
330
5
100
AcDbSymbolTableRecord
100
AcDbLinetypeTableRecord
  2
ByBlock
 70
     0
  3

 72
    65
 73
     0
 40
0.0
  0
LTYPE
  5
15
330
5
100
AcDbSymbolTableRecord
100
AcDbLinetypeTableRecord
  2
ByLayer
 70
     0
  3

 72
    65
 73
     0
 40
0.0
  0
LTYPE
  5
16
330
5
100
AcDbSymbolTableRecord
100
AcDbLinetypeTableRecord
  2
Continuous
 70
     0
  3
Solid line
 72
    65
 73
     0
 40
0.0
  0
ENDTAB
  0
TABLE
  2
LAYER
  5
2
330
0
100
AcDbSymbolTable
 70
     4
  0
LAYER
  5
10
330
2
100
AcDbSymbolTableRecord
100
AcDbLayerTableRecord
  2
0
 70
     0
 62
     7
  6
Continuous
370
    -3
390
F
  0
LAYER
  5
3B
330
2
100
AcDbSymbolTableRecord
100
AcDbLayerTableRecord
  2
Default
 70
     0
 62
     7
  6
Continuous
370
    -3
390
F
  0
LAYER
  5
40
330
2
100
AcDbSymbolTableRecord
100
AcDbLayerTableRecord
  2
Make2D visible lines
 70
     0
 62
     7
  6
Continuous
370
    -3
390
F
  0
LAYER
  5
78
330
2
100
AcDbSymbolTableRecord
100
AcDbLayerTableRecord
  2
Make2D visible lines - Tangent
 70
     0
 62
     7
  6
Continuous
370
    -3
390
F
  0
ENDTAB
  0
TABLE
  2
STYLE
  5
3
330
0
100
AcDbSymbolTable
 70
     1
  0
STYLE
  5
11
330
3
100
AcDbSymbolTableRecord
100
AcDbTextStyleTableRecord
  2
Standard
 70
     0
 40
0.0
 41
1.0
 50
0.0
 71
     0
 42
0.2
  3
txt
  4

  0
ENDTAB
  0
TABLE
  2
VIEW
  5
6
330
0
100
AcDbSymbolTable
 70
     0
  0
ENDTAB
  0
TABLE
  2
UCS
  5
7
330
0
100
AcDbSymbolTable
 70
     0
  0
ENDTAB
  0
TABLE
  2
APPID
  5
9
330
0
100
AcDbSymbolTable
 70
     1
  0
APPID
  5
12
330
9
100
AcDbSymbolTableRecord
100
AcDbRegAppTableRecord
  2
ACAD
 70
     0
  0
ENDTAB
  0
TABLE
  2
DIMSTYLE
  5
A
330
0
100
AcDbSymbolTable
 70
     1
100
AcDbDimStyleTable
  0
DIMSTYLE
105
27
330
A
100
AcDbSymbolTableRecord
100
AcDbDimStyleTableRecord
  2
Standard
 70
     0
340
11
  0
ENDTAB
  0
TABLE
  2
BLOCK_RECORD
  5
1
330
0
100
AcDbSymbolTable
 70
     1
  0
BLOCK_RECORD
  5
1F
330
1
100
AcDbSymbolTableRecord
100
AcDbBlockTableRecord
  2
*Model_Space
340
22
  0
BLOCK_RECORD
  5
1B
330
1
100
AcDbSymbolTableRecord
100
AcDbBlockTableRecord
  2
*Paper_Space
340
1E
  0
BLOCK_RECORD
  5
23
330
1
100
AcDbSymbolTableRecord
100
AcDbBlockTableRecord
  2
*Paper_Space0
340
26
  0
ENDTAB
  0
ENDSEC
  0
SECTION
  2
BLOCKS
  0
BLOCK
  5
20
330
1F
100
AcDbEntity
  8
0
100
AcDbBlockBegin
  2
*Model_Space
 70
     0
 10
0.0
 20
0.0
 30
0.0
  3
*Model_Space
  1

  0
ENDBLK
  5
21
330
1F
100
AcDbEntity
  8
0
100
AcDbBlockEnd
  0
BLOCK
  5
1C
330
1B
100
AcDbEntity
 67
     1
  8
0
100
AcDbBlockBegin
  2
*Paper_Space
 70
     0
 10
0.0
 20
0.0
 30
0.0
  3
*Paper_Space
  1

  0
ENDBLK
  5
1D
330
1B
100
AcDbEntity
 67
     1
  8
0
100
AcDbBlockEnd
  0
BLOCK
  5
24
330
23
100
AcDbEntity
  8
0
100
AcDbBlockBegin
  2
*Paper_Space0
 70
     0
 10
0.0
 20
0.0
 30
0.0
  3
*Paper_Space0
  1

  0
ENDBLK
  5
25
330
23
100
AcDbEntity
  8
0
100
AcDbBlockEnd
  0
ENDSEC
  0
SECTION
  2
ENTITIES
  0
SPLINE
  5
3C
330
1F
100
AcDbEntity
  8
Default
100
AcDbSpline
210
0.0
220
0.0
230
1.0
 70
    12
 71
     3
 72
    14
 73
    10
 74
     0
 42
0.0000000001
 43
0.0000000001
 40
0.0
 40
0.0
 40
0.0
 40
0.0
 40
2.738070880085492
 40
2.738070880085492
 40
2.738070880085492
 40
3.738070880085492
 40
3.738070880085492
 40
3.738070880085492
 40
10.0982367506281
 40
10.0982367506281
 40
10.0982367506281
 40
10.0982367506281
 10
58.62279427887471
 20
24.61698045436065
 30
0.0
 41
1.0
 10
58.43107992514835
 20
23.72465042441085
 30
0.0
 41
0.999995553249477
 10
58.24262601853141
 20
22.83162612415036
 30
0.0
 41
0.999995553249477
 10
58.05743507304638
 20
21.93791946674801
 30
0.0
 41
1.0
 10
58.01056140951761
 20
21.71171345520253
 30
0.0
 41
1.0
 10
57.98514057636354
 20
21.48016480989474
 30
0.0
 41
1.0
 10
57.98015640200707
 20
21.24920711247396
 30
0.0
 41
1.0
 10
57.93441526932452
 20
19.12964508951428
 30
0.0
 41
0.9999997804119717
 10
57.89039447888701
 20
17.0100466392409
 30
0.0
 41
0.9999997804119717
 10
57.84756601843517
 20
14.86526492847472
 30
0.0
 41
1.0
  0
SPLINE
  5
3D
330
1F
100
AcDbEntity
  8
Default
100
AcDbSpline
210
0.0
220
0.0
230
1.0
 70
     8
 71
     3
 72
    12
 73
     8
 74
     0
 42
0.0000000001
 43
0.0000000001
 40
0.0
 40
0.0
 40
0.0
 40
0.0
 40
0.734171097111815
 40
1.389037115062323
 40
2.477792613121731
 40
3.469609426476286
 40
4.491698434972608
 40
4.491698434972608
 40
4.491698434972608
 40
4.491698434972608
 10
57.84756601843517
 20
14.86526492847472
 30
0.0
 10
57.84203833890697
 20
14.62111212585674
 30
0.0
 10
57.81930034795551
 20
14.15695025661434
 30
0.0
 10
57.71513287734795
 20
13.33938308769229
 30
0.0
 10
57.48314007460254
 20
12.44794394918895
 30
0.0
 10
56.90158502348421
 20
11.57499518523299
 30
0.0
 10
56.37207186187659
 20
11.15133032278984
 30
0.0
 10
56.07725269097243
 20
10.97508945814597
 30
0.0
  0
LINE
  5
3E
330
1F
100
AcDbEntity
  8
Default
100
AcDbLine
 10
56.07725269097243
 20
10.97508945814597
 30
0.0
 11
50.75094862896972
 21
7.78034929902472
 31
0.0
  0
SPLINE
  5
3F
330
1F
100
AcDbEntity
  8
Default
100
AcDbSpline
210
0.0
220
0.0
230
1.0
 70
    12
 71
     3
 72
     8
 73
     4
 74
     0
 42
0.0000000001
 43
0.0000000001
 40
-0.4964376332803108
 40
-0.4964376332803108
 40
-0.4964376332803108
 40
-0.4964376332803108
 40
0.0
 40
0.0
 40
0.0
 40
0.0
 10
50.75094862896972
 20
7.78034929902472
 30
0.0
 41
0.9156675536327253
 10
50.68117486337638
 20
7.666440532614299
 30
0.0
 41
0.8872573437122231
 10
50.64224036946762
 20
7.508514561170021
 30
0.0
 41
0.9130793517795608
 10
50.64221982033196
 20
7.333777840749015
 30
0.0
 41
1.0
  0
SPLINE
  5
41
330
1F
100
AcDbEntity
  8
Make2D visible lines
100
AcDbSpline
210
0.0
220
0.0
230
1.0
 70
    12
 71
     3
 72
    14
 73
    10
 74
     0
 42
0.0000000001
 43
0.0000000001
 40
-9.369194023568344
 40
-9.369194023568344
 40
-9.369194023568344
 40
-9.369194023568344
 40
-6.644620846041471
 40
-6.644620846041471
 40
-6.644620846041471
 40
-5.644620846041471
 40
-5.644620846041471
 40
-5.644620846041471
 40
0.0
 40
0.0
 40
0.0
 40
0.0
 10
56.24781982352167
 20
24.61689621905553
 30
0.0
 41
1.0
 10
56.42421913778361
 20
23.72596983649513
 30
0.0
 41
0.9999326719119793
 10
56.58793900698301
 20
22.83262648612889
 30
0.0
 41
0.9999326719119793
 10
56.7389463622826
 20
21.93704660925599
 30
0.0
 41
1.0
 10
56.7760273890605
 20
21.71713002750946
 30
0.0
 41
1.0
 10
56.79279378257527
 20
21.49301932749712
 30
0.0
 41
1.0
 10
56.79092663516651
 20
21.27000628026772
 30
0.0
 41
1.0
 10
56.77517423558678
 20
19.38853156919292
 30
0.0
 41
0.9999996063308121
 10
56.75737716854886
 20
17.50707508792333
 30
0.0
 41
0.9999996063308121
 10
56.73740125666713
 20
15.61317500847246
 30
0.0
 41
1.0
  0
SPLINE
  5
42
330
1F
100
AcDbEntity
  8
Make2D visible lines
100
AcDbSpline
210
0.0
220
0.0
230
1.0
 70
     8
 71
     3
 72
    15
 73
    11
 74
     0
 42
0.0000000001
 43
0.0000000001
 40
-4.153347557483698
 40
-4.153347557483698
 40
-4.153347557483698
 40
-4.153347557483698
 40
-3.295975673650196
 40
-2.616913012557761
 40
-2.082597737094207
 40
-1.65699777635294
 40
-1.302977998228093
 40
-0.9532165727599612
 40
-0.5355895472125215
 40
0.0
 40
0.0
 40
0.0
 40
0.0
 10
56.73740125666713
 20
15.61317500847246
 30
0.0
 10
56.73423511882353
 20
15.32741300333841
 30
0.0
 10
56.72128764090991
 20
14.81529994090117
 30
0.0
 10
56.66813491762009
 20
14.12679507586071
 30
0.0
 10
56.58048004098456
 20
13.58676174159199
 30
0.0
 10
56.4520416590125
 20
13.16656577060321
 30
0.0
 10
56.26752142065794
 20
12.83493691942002
 30
0.0
 10
56.00543382510835
 20
12.56457860210507
 30
0.0
 10
55.64391017452476
 20
12.32127211812947
 30
0.0
 10
55.36051988824797
 20
12.17719228482401
 30
0.0
 10
55.19893345177432
 20
12.1011428008692
 30
0.0
  0
SPLINE
  5
43
330
1F
100
AcDbEntity
  8
Make2D visible lines
100
AcDbSpline
210
0.0
220
0.0
230
1.0
 70
    12
 71
     2
 72
     6
 73
     3
 74
     0
 42
0.0000000001
 43
0.0000000001
 40
-4.882455989528093
 40
-4.882455989528093
 40
-4.882455989528093
 40
-0.0648357019554221
 40
-0.0648357019554221
 40
-0.0648357019554221
 10
55.19893345177432
 20
12.1011428008692
 30
0.0
 41
1.0
 10
53.00862684893553
 20
11.07078637567836
 30
0.0
 41
0.9999998925932001
 10
50.82785816180991
 20
10.04737720350293
 30
0.0
 41
0.9999999971474212
  0
SPLINE
  5
44
330
1F
100
AcDbEntity
  8
Make2D visible lines
100
AcDbSpline
210
0.0
220
0.0
230
1.0
 70
    12
 71
     3
 72
     8
 73
     4
 74
     0
 42
0.0000000001
 43
0.0000000001
 40
-0.5668263165431112
 40
-0.5668263165431112
 40
-0.5668263165431112
 40
-0.5668263165431112
 40
0.0
 40
0.0
 40
0.0
 40
0.0
 10
50.82785816180991
 20
10.04737720350293
 30
0.0
 41
0.8623499803984138
 10
50.71273863152193
 20
10.07966932510136
 30
0.0
 41
0.756694382114321
 10
50.64221980409845
 20
10.24456426802436
 30
0.0
 41
0.8025777219815275
 10
50.64221982033194
 20
10.44884868170901
 30
0.0
 41
1.0
  0
POLYLINE
  5
45
330
1F
100
AcDbEntity
  8
Default
100
AcDb2dPolyline
 66
     1
 10
0.0
 20
0.0
 30
0.0
  0
VERTEX
  5
46
330
45
100
AcDbEntity
  8
Default
100
AcDbVertex
100
AcDb2dVertex
 10
66.76652134535755
 20
24.77163328823512
 30
0.0
  0
VERTEX
  5
47
330
45
100
AcDbEntity
  8
Default
100
AcDbVertex
100
AcDb2dVertex
 10
51.06859778613155
 20
24.77163328823512
 30
0.0
  0
SEQEND
  5
48
330
45
100
AcDbEntity
  8
Default
  0
SPLINE
  5
49
330
1F
100
AcDbEntity
  8
Default
100
AcDbSpline
210
0.0
220
0.0
230
1.0
 70
    12
 71
     2
 72
     6
 73
     3
 74
     0
 42
0.0000000001
 43
0.0000000001
 40
0.0
 40
0.0
 40
0.0
 40
0.0431172320695658
 40
0.0431172320695658
 40
0.0431172320695658
 10
51.06859778613155
 20
24.77163328823512
 30
0.0
 41
1.0
 10
51.04264109757289
 20
24.77517364985712
 30
0.0
 41
0.754396026161636
 10
51.04255956574455
 20
24.80137054268636
 30
0.0
 41
1.0
  0
SPLINE
  5
4A
330
1F
100
AcDbEntity
  8
Default
100
AcDbSpline
210
0.0
220
0.0
230
1.0
 70
    24
 71
     2
 72
     6
 73
     3
 74
     0
 42
0.0000000001
 43
0.0000000001
 40
0.0
 40
0.0
 40
0.0
 40
0.1037317171327032
 40
0.1037317171327032
 40
0.1037317171327032
 10
51.04255956574455
 20
24.80137054268636
 30
0.0
 10
51.04255956574455
 20
24.85323640125272
 30
0.0
 10
51.04255956574455
 20
24.90510225981907
 30
0.0
  0
SPLINE
  5
4B
330
1F
100
AcDbEntity
  8
Default
100
AcDbSpline
210
0.0
220
0.0
230
1.0
 70
    12
 71
     2
 72
     6
 73
     3
 74
     0
 42
0.0000000001
 43
0.0000000001
 40
0.0
 40
0.0
 40
0.0
 40
0.0470942880630165
 40
0.0470942880630165
 40
0.0470942880630165
 10
51.04255956574455
 20
24.90510225981907
 30
0.0
 41
1.0
 10
51.04262786464861
 20
24.93503368509901
 30
0.0
 41
0.7087216954127066
 10
51.07255928929791
 20
24.9351022598178
 30
0.0
 41
1.0
  0
POLYLINE
  5
4C
330
1F
100
AcDbEntity
  8
Default
100
AcDb2dPolyline
 66
     1
 10
0.0
 20
0.0
 30
0.0
  0
VERTEX
  5
4D
330
4C
100
AcDbEntity
  8
Default
100
AcDbVertex
100
AcDb2dVertex
 10
51.07255928929791
 20
24.9351022598178
 30
0.0
  0
VERTEX
  5
4E
330
4C
100
AcDbEntity
  8
Default
100
AcDbVertex
100
AcDb2dVertex
 10
66.7625598421912
 20
24.9351022598178
 30
0.0
  0
SEQEND
  5
4F
330
4C
100
AcDbEntity
  8
Default
  0
SPLINE
  5
50
330
1F
100
AcDbEntity
  8
Default
100
AcDbSpline
210
0.0
220
0.0
230
1.0
 70
    12
 71
     2
 72
     6
 73
     3
 74
     0
 42
0.0000000001
 43
0.0000000001
 40
0.0
 40
0.0
 40
0.0
 40
0.0470830900804005
 40
0.0470830900804005
 40
0.0470830900804005
 10
66.7625598421912
 20
24.9351022598178
 30
0.0
 41
1.0
 10
66.7924652002487
 20
24.93500761874742
 30
0.0
 41
0.709337752437847
 10
66.79255956574454
 20
24.90510225981907
 30
0.0
 41
1.0
  0
SPLINE
  5
51
330
1F
100
AcDbEntity
  8
Default
100
AcDbSpline
210
0.0
220
0.0
230
1.0
 70
    24
 71
     2
 72
     6
 73
     3
 74
     0
 42
0.0000000001
 43
0.0000000001
 40
0.0
 40
0.0
 40
0.0
 40
0.1037317171327068
 40
0.1037317171327068
 40
0.1037317171327068
 10
66.79255956574454
 20
24.90510225981907
 30
0.0
 10
66.79255956574454
 20
24.85323640125272
 30
0.0
 10
66.79255956574454
 20
24.80137054268636
 30
0.0
  0
SPLINE
  5
52
330
1F
100
AcDbEntity
  8
Default
100
AcDbSpline
210
0.0
220
0.0
230
1.0
 70
    12
 71
     2
 72
     6
 73
     3
 74
     0
 42
0.0000000001
 43
0.0000000001
 40
0.0
 40
0.0
 40
0.0
 40
0.0431192810070287
 40
0.0431192810070287
 40
0.0431192810070287
 10
66.79255956574454
 20
24.80137054268636
 30
0.0
 41
1.0
 10
66.79248305484613
 20
24.77516925348354
 30
0.0
 41
0.7542698814906877
 10
66.76652134535755
 20
24.77163328823512
 30
0.0
 41
1.0
  0
LINE
  5
53
330
1F
100
AcDbEntity
  8
Make2D visible lines
100
AcDbLine
 10
66.76652134535755
 20
24.77163328823514
 30
0.0
 11
65.60505956574454
 21
24.61689621905553
 31
0.0
  0
POLYLINE
  5
54
330
1F
100
AcDbEntity
  8
Make2D visible lines
100
AcDb2dPolyline
 66
     1
 10
0.0
 20
0.0
 30
0.0
  0
VERTEX
  5
55
330
54
100
AcDbEntity
  8
Make2D visible lines
100
AcDbVertex
100
AcDb2dVertex
 10
65.60505956574454
 20
24.61689621905553
 30
0.0
  0
VERTEX
  5
56
330
54
100
AcDbEntity
  8
Make2D visible lines
100
AcDbVertex
100
AcDb2dVertex
 10
52.23005956574457
 20
24.61689621905553
 30
0.0
  0
SEQEND
  5
57
330
54
100
AcDbEntity
  8
Make2D visible lines
  0
LINE
  5
58
330
1F
100
AcDbEntity
  8
Make2D visible lines
100
AcDbLine
 10
52.23005956574457
 20
24.61689621905553
 30
0.0
 11
51.06859778613156
 21
24.77163328823515
 31
0.0
  0
SPLINE
  5
59
330
1F
100
AcDbEntity
  8
Default
100
AcDbSpline
210
0.0
220
0.0
230
1.0
 70
    12
 71
     3
 72
    14
 73
    10
 74
     0
 42
0.0000000001
 43
0.0000000001
 40
-7.851921632594228
 40
-7.851921632594228
 40
-7.851921632594228
 40
-7.851921632594228
 40
-7.223416780340785
 40
-7.223416780340785
 40
-7.223416780340785
 40
-7.182234897653156
 40
-7.182234897653156
 40
-7.182234897653156
 40
0.0
 40
0.0
 40
0.0
 40
0.0
 10
-1.087974965098564
 20
10.44884868170901
 30
0.0
 41
1.108373166011991
 10
-1.087974976881124
 20
10.21610556041002
 30
0.0
 41
0.8657452370177615
 10
-1.225557066866899
 20
10.04284414402172
 30
0.0
 41
0.829620848347081
 10
-1.43039787579814
 20
10.04284794089273
 30
0.0
 41
1.0
 10
-1.444170991176403
 20
10.04268090055419
 30
0.0
 41
0.9932183010949919
 10
-1.457830731021889
 20
10.04447591790557
 30
0.0
 41
0.9932183010949919
 10
-1.47109918660634
 20
10.04819647314525
 30
0.0
 41
1.0
 10
-3.764198876764564
 20
10.73618918902576
 30
0.0
 41
0.9999999997107566
 10
-6.057275352476235
 20
11.4242486427083
 30
0.0
 41
0.9999999997107566
 10
-8.36959752570557
 20
12.11815760052702
 30
0.0
 41
1.0
  0
SPLINE
  5
5A
330
1F
100
AcDbEntity
  8
Default
100
AcDbSpline
210
0.0
220
0.0
230
1.0
 70
     8
 71
     3
 72
    15
 73
    11
 74
     0
 42
0.0000000001
 43
0.0000000001
 40
-4.985347559037918
 40
-4.985347559037918
 40
-4.985347559037918
 40
-4.985347559037918
 40
-4.144504839433057
 40
-3.519413160475471
 40
-3.029507512421486
 40
-2.598100727174707
 40
-2.14945976211948
 40
-1.608302902920508
 40
-0.9168011467460935
 40
0.0
 40
0.0
 40
0.0
 40
0.0
 10
-8.36959752570557
 20
12.11815760052702
 30
0.0
 10
-8.63796658046054
 20
12.19884520687978
 30
0.0
 10
-9.10337868749894
 20
12.34896647745966
 30
0.0
 10
-9.703783760020746
 20
12.60540361662879
 30
0.0
 10
-10.1415504763274
 20
12.88276062913774
 30
0.0
 10
-10.45524394216001
 20
13.22127281169374
 30
0.0
 10
-10.66544254571284
 20
13.65044490752243
 30
0.0
 10
-10.79908163061076
 20
14.19656326678415
 30
0.0
 10
-10.87723585570718
 20
14.90961794479225
 30
0.0
 10
-10.89500067800051
 20
15.44560999231419
 30
0.0
 10
-10.89959272190302
 20
15.75118283601881
 30
0.0
  0
SPLINE
  5
5B
330
1F
100
AcDbEntity
  8
Default
100
AcDbSpline
210
0.0
220
0.0
230
1.0
 70
    12
 71
     3
 72
    14
 73
    10
 74
     0
 42
0.0000000001
 43
0.0000000001
 40
-9.335342694068547
 40
-9.335342694068547
 40
-9.335342694068547
 40
-9.335342694068547
 40
-3.773257194535608
 40
-3.773257194535608
 40
-3.773257194535608
 40
-2.773257194535608
 40
-2.773257194535608
 40
-2.773257194535608
 40
0.0
 40
0.0
 40
0.0
 40
0.0
 10
-10.89959272190302
 20
15.75118283601881
 30
0.0
 41
1.0
 10
-10.92596412764134
 20
17.61846981170457
 30
0.0
 41
0.9999998387315352
 10
-10.95085091483679
 20
19.47233142477224
 30
0.0
 41
0.9999998387315352
 10
-10.97444822186661
 20
21.32620989966851
 30
0.0
 41
1.0
 10
-10.97675638270533
 20
21.50754625682535
 30
0.0
 41
1.0
 10
-10.96614448582388
 20
21.68946093783767
 30
0.0
 41
1.0
 10
-10.94334695547599
 20
21.86937334609071
 30
0.0
 41
1.0
 10
-10.82713630358629
 20
22.78647874860963
 30
0.0
 41
0.9999571404114421
 10
-10.70053399543317
 20
23.70220746963586
 30
0.0
 41
0.9999571404114421
 10
-10.56355630938515
 20
24.61644176590076
 30
0.0
 41
1.0
  0
SPLINE
  5
5C
330
1F
100
AcDbEntity
  8
Make2D visible lines
100
AcDbSpline
210
0.0
220
0.0
230
1.0
 70
    24
 71
     2
 72
     6
 73
     3
 74
     0
 42
0.0000000001
 43
0.0000000001
 40
0.0
 40
0.0
 40
0.0
 40
0.0003850834689041
 40
0.0003850834689041
 40
0.0003850834689041
 10
-10.89978780275879
 20
15.76462114998707
 30
0.0
 10
-10.89978505912628
 20
15.76442862780137
 30
0.0
 10
-10.89978231549377
 20
15.76423610561567
 30
0.0
  0
SPLINE
  5
5D
330
1F
100
AcDbEntity
  8
Default
100
AcDbSpline
210
0.0
220
0.0
230
1.0
 70
    12
 71
     2
 72
     6
 73
     3
 74
     0
 42
0.0000000001
 43
0.0000000001
 40
0.0
 40
0.0
 40
0.0
 40
0.2848297924636928
 40
0.2848297924636928
 40
0.2848297924636928
 10
-1.269417757372509
 20
7.709739291697887
 30
0.0
 41
1.0
 10
-1.32778273475247
 20
7.848723593973444
 30
0.0
 41
0.9191630720278404
 10
-1.472551539644218
 20
7.903851089859234
 30
0.0
 41
1.0
  0
SPLINE
  5
5E
330
1F
100
AcDbEntity
  8
Default
100
AcDbSpline
210
0.0
220
0.0
230
1.0
 70
    12
 71
     2
 72
     6
 73
     3
 74
     0
 42
0.0000000001
 43
0.0000000001
 40
0.0
 40
0.0
 40
0.0
 40
8.55403057480208
 40
8.55403057480208
 40
8.55403057480208
 10
-1.472551539644218
 20
7.903851089859234
 30
0.0
 41
1.0
 10
-5.473122242455539
 20
9.428306444791495
 30
0.0
 41
0.9999999995230491
 10
-9.47308002427927
 20
10.95219539814218
 30
0.0
 41
1.0
  0
SPLINE
  5
5F
330
1F
100
AcDbEntity
  8
Default
100
AcDbSpline
210
0.0
220
0.0
230
1.0
 70
     8
 71
     3
 72
    12
 73
     8
 74
     0
 42
0.0000000001
 43
0.0000000001
 40
0.0
 40
0.0
 40
0.0
 40
0.0
 40
0.6930437478149829
 40
1.32765868136064
 40
2.492549863782481
 40
3.645157442336307
 40
4.986886914207258
 40
4.986886914207258
 40
4.986886914207258
 40
4.986886914207258
 10
-9.47308002427927
 20
10.95219539814218
 30
0.0
 10
-9.691697883740517
 20
11.0352440642686
 30
0.0
 10
-10.09875123338559
 20
11.21467091072427
 30
0.0
 10
-10.81031599211447
 20
11.64226616118724
 30
0.0
 10
-11.53434037217971
 20
12.3345263903745
 30
0.0
 10
-12.0399228728535
 20
13.46584885399771
 30
0.0
 10
-12.13779583903439
 20
14.29784564060567
 30
0.0
 10
-12.15473555885995
 20
14.74857118979213
 30
0.0
  0
SPLINE
  5
60
330
1F
100
AcDbEntity
  8
Default
100
AcDbSpline
210
0.0
220
0.0
230
1.0
 70
    12
 71
     2
 72
     6
 73
     3
 74
     0
 42
0.0000000001
 43
0.0000000001
 40
0.0
 40
0.0
 40
0.0
 40
6.582689554136967
 40
6.582689554136967
 40
6.582689554136967
 10
-12.15473555885995
 20
14.74857118979213
 30
0.0
 41
1.0
 10
-12.26577399261657
 20
18.04219716040329
 30
0.0
 41
0.999999699257555
 10
-12.38177294557348
 20
21.33149785026954
 30
0.0
 41
1.0
  0
SPLINE
  5
61
330
1F
100
AcDbEntity
  8
Default
100
AcDbSpline
210
0.0
220
0.0
230
1.0
 70
     8
 71
     3
 72
     8
 73
     4
 74
     0
 42
0.0000000001
 43
0.0000000001
 40
-1.0
 40
-1.0
 40
-1.0
 40
-1.0
 40
0.0
 40
0.0
 40
0.0
 40
0.0
 10
-12.38177294557348
 20
21.33149785026954
 30
0.0
 10
-12.38795514194017
 20
21.50680204272541
 30
0.0
 10
-12.40581252079217
 20
21.68214855950679
 30
0.0
 10
-12.43612224210331
 20
21.8549232689945
 30
0.0
  0
SPLINE
  5
62
330
1F
100
AcDbEntity
  8
Default
100
AcDbSpline
210
0.0
220
0.0
230
1.0
 70
    12
 71
     2
 72
     6
 73
     3
 74
     0
 42
0.0000000001
 43
0.0000000001
 40
0.0
 40
0.0
 40
0.0
 40
2.806836410498757
 40
2.806836410498757
 40
2.806836410498757
 10
-12.43612224210331
 20
21.8549232689945
 30
0.0
 41
1.0
 10
-12.67862266597285
 20
23.23725007611397
 30
0.0
 41
0.9999805045748583
 10
-12.93836698962393
 20
24.61644068788199
 30
0.0
 41
1.0
  0
LINE
  5
63
330
1F
100
AcDbEntity
  8
Make2D visible lines
100
AcDbLine
 10
-6.221337710883378
 20
24.77117775706166
 30
0.0
 11
-7.382799490496385
 21
24.61644068788204
 31
0.0
  0
POLYLINE
  5
64
330
1F
100
AcDbEntity
  8
Make2D visible lines
100
AcDb2dPolyline
 66
     1
 10
0.0
 20
0.0
 30
0.0
  0
VERTEX
  5
65
330
64
100
AcDbEntity
  8
Make2D visible lines
100
AcDbVertex
100
AcDb2dVertex
 10
-7.382799490496385
 20
24.61644068788204
 30
0.0
  0
VERTEX
  5
66
330
64
100
AcDbEntity
  8
Make2D visible lines
100
AcDbVertex
100
AcDb2dVertex
 10
-20.75779949049634
 20
24.61644068788204
 30
0.0
  0
SEQEND
  5
67
330
64
100
AcDbEntity
  8
Make2D visible lines
  0
LINE
  5
68
330
1F
100
AcDbEntity
  8
Make2D visible lines
100
AcDbLine
 10
-20.75779949049634
 20
24.61644068788204
 30
0.0
 11
-21.91926127010935
 21
24.77117775706167
 31
0.0
  0
POLYLINE
  5
69
330
1F
100
AcDbEntity
  8
Default
100
AcDb2dPolyline
 66
     1
 10
0.0
 20
0.0
 30
0.0
  0
VERTEX
  5
6A
330
69
100
AcDbEntity
  8
Default
100
AcDbVertex
100
AcDb2dVertex
 10
-6.221337710883375
 20
24.77117775706164
 30
0.0
  0
VERTEX
  5
6B
330
69
100
AcDbEntity
  8
Default
100
AcDbVertex
100
AcDb2dVertex
 10
-21.91926127010936
 20
24.77117775706164
 30
0.0
  0
SEQEND
  5
6C
330
69
100
AcDbEntity
  8
Default
  0
SPLINE
  5
6D
330
1F
100
AcDbEntity
  8
Default
100
AcDbSpline
210
0.0
220
0.0
230
1.0
 70
    12
 71
     2
 72
     6
 73
     3
 74
     0
 42
0.0000000001
 43
0.0000000001
 40
0.0
 40
0.0
 40
0.0
 40
0.0431172320695658
 40
0.0431172320695658
 40
0.0431172320695658
 10
-21.91926127010936
 20
24.77117775706164
 30
0.0
 41
1.0
 10
-21.94521795866801
 20
24.77471811868364
 30
0.0
 41
0.754396026161636
 10
-21.94529949049636
 20
24.80091501151288
 30
0.0
 41
1.0
  0
SPLINE
  5
6E
330
1F
100
AcDbEntity
  8
Default
100
AcDbSpline
210
0.0
220
0.0
230
1.0
 70
    24
 71
     2
 72
     6
 73
     3
 74
     0
 42
0.0000000001
 43
0.0000000001
 40
0.0
 40
0.0
 40
0.0
 40
0.1037317171327032
 40
0.1037317171327032
 40
0.1037317171327032
 10
-21.94529949049636
 20
24.80091501151288
 30
0.0
 10
-21.94529949049636
 20
24.85278087007924
 30
0.0
 10
-21.94529949049636
 20
24.90464672864559
 30
0.0
  0
SPLINE
  5
6F
330
1F
100
AcDbEntity
  8
Default
100
AcDbSpline
210
0.0
220
0.0
230
1.0
 70
    12
 71
     2
 72
     6
 73
     3
 74
     0
 42
0.0000000001
 43
0.0000000001
 40
0.0
 40
0.0
 40
0.0
 40
0.0470942880630165
 40
0.0470942880630165
 40
0.0470942880630165
 10
-21.94529949049636
 20
24.90464672864559
 30
0.0
 41
1.0
 10
-21.94523119159231
 20
24.93457815392553
 30
0.0
 41
0.7087216954127066
 10
-21.915299766943
 20
24.93464672864432
 30
0.0
 41
1.0
  0
POLYLINE
  5
70
330
1F
100
AcDbEntity
  8
Default
100
AcDb2dPolyline
 66
     1
 10
0.0
 20
0.0
 30
0.0
  0
VERTEX
  5
71
330
70
100
AcDbEntity
  8
Default
100
AcDbVertex
100
AcDb2dVertex
 10
-21.915299766943
 20
24.93464672864432
 30
0.0
  0
VERTEX
  5
72
330
70
100
AcDbEntity
  8
Default
100
AcDbVertex
100
AcDb2dVertex
 10
-6.225299214049731
 20
24.93464672864431
 30
0.0
  0
SEQEND
  5
73
330
70
100
AcDbEntity
  8
Default
  0
SPLINE
  5
74
330
1F
100
AcDbEntity
  8
Default
100
AcDbSpline
210
0.0
220
0.0
230
1.0
 70
    12
 71
     2
 72
     6
 73
     3
 74
     0
 42
0.0000000001
 43
0.0000000001
 40
0.0
 40
0.0
 40
0.0
 40
0.0470830900804005
 40
0.0470830900804005
 40
0.0470830900804005
 10
-6.225299214049731
 20
24.93464672864431
 30
0.0
 41
1.0
 10
-6.195393855992204
 20
24.93455208757395
 30
0.0
 41
0.709337752437847
 10
-6.195299490496366
 20
24.90464672864558
 30
0.0
 41
1.0
  0
SPLINE
  5
75
330
1F
100
AcDbEntity
  8
Default
100
AcDbSpline
210
0.0
220
0.0
230
1.0
 70
    24
 71
     2
 72
     6
 73
     3
 74
     0
 42
0.0000000001
 43
0.0000000001
 40
0.0
 40
0.0
 40
0.0
 40
0.1037317171327068
 40
0.1037317171327068
 40
0.1037317171327068
 10
-6.195299490496367
 20
24.9046467286456
 30
0.0
 10
-6.195299490496367
 20
24.85278087007924
 30
0.0
 10
-6.195299490496367
 20
24.80091501151288
 30
0.0
  0
SPLINE
  5
76
330
1F
100
AcDbEntity
  8
Default
100
AcDbSpline
210
0.0
220
0.0
230
1.0
 70
    12
 71
     2
 72
     6
 73
     3
 74
     0
 42
0.0000000001
 43
0.0000000001
 40
0.0
 40
0.0
 40
0.0
 40
0.0431192810070287
 40
0.0431192810070287
 40
0.0431192810070287
 10
-6.195299490496367
 20
24.80091501151288
 30
0.0
 41
1.0
 10
-6.195376001394783
 20
24.77471372231005
 30
0.0
 41
0.7542698814906877
 10
-6.221337710883375
 20
24.77117775706164
 30
0.0
 41
1.0
  0
CIRCLE
  5
77
330
1F
100
AcDbEntity
  8
Default
100
AcDbCircle
 10
-14.07029949049637
 20
58.82385242617243
 30
0.0
 40
7.875000000000004
  0
SPLINE
  5
79
330
1F
100
AcDbEntity
  8
Make2D visible lines - Tangent
100
AcDbSpline
210
0.0
220
0.0
230
1.0
 70
    12
 71
     2
 72
     6
 73
     3
 74
     0
 42
0.0000000001
 43
0.0000000001
 40
0.0
 40
0.0
 40
0.0
 40
0.1369528492222414
 40
0.1369528492222414
 40
0.1369528492222414
 10
-0.3676107775952093
 20
54.34798238051323
 30
0.0
 41
1.0
 10
-0.3661812419769666
 20
54.27952205524254
 30
0.0
 41
0.9999966913238282
 10
-0.3669329088942793
 20
54.21102281985857
 30
0.0
 41
0.9999959461296658
  0
ARC
  5
7A
330
1F
100
AcDbEntity
  8
Make2D visible lines - Tangent
100
AcDbCircle
 10
-0.8668652971617566
 20
54.20280046246084
 30
0.0
 40
0.5
100
AcDbArc
 50
348.4871521735349
 51
0.9422552251317675
  0
SPLINE
  5
7B
330
1F
100
AcDbEntity
  8
Make2D visible lines - Tangent
100
AcDbSpline
210
0.0
220
0.0
230
1.0
 70
     8
 71
     3
 72
    14
 73
    10
 74
     0
 42
0.0000000001
 43
0.0000000001
 40
0.2772630823298201
 40
0.2772630823298201
 40
0.2772630823298201
 40
0.2772630823298201
 40
1.0
 40
2.0
 40
3.0
 40
4.0
 40
5.0
 40
6.0
 40
7.0
 40
7.0
 40
7.0
 40
7.0
 10
-0.3769253099904898
 20
54.10300663013329
 30
0.0
 10
-0.3850225723278429
 20
54.06325294482865
 30
0.0
 10
-0.4000888111859999
 20
53.96762716681972
 30
0.0
 10
-0.4048301803112619
 20
53.81447261007617
 30
0.0
 10
-0.3868157866532727
 20
53.64669629638555
 30
0.0
 10
-0.3452864226172238
 20
53.48295050100012
 30
0.0
 10
-0.2747980484401435
 20
53.32908296607361
 30
0.0
 10
-0.1646929405789873
 20
53.19812347700783
 30
0.0
 10
-0.0566834953305561
 20
53.15290327351303
 30
0.0
 10
0.0000005023035777
 20
53.15341077921996
 30
0.0
  0
SPLINE
  5
7C
330
1F
100
AcDbEntity
  8
Make2D visible lines - Tangent
100
AcDbSpline
210
0.0
220
0.0
230
1.0
 70
     8
 71
     3
 72
    14
 73
    10
 74
     0
 42
0.0000000001
 43
0.0000000001
 40
-7.0
 40
-7.0
 40
-7.0
 40
-7.0
 40
-6.0
 40
-5.0
 40
-4.0
 40
-3.0
 40
-2.0
 40
-1.0
 40
-0.2482205602640466
 40
-0.2482205602640466
 40
-0.2482205602640466
 40
-0.2482205602640466
 10
0.0000005023035777
 20
53.15341077921996
 30
0.0
 10
0.0566844999377115
 20
53.15290327351303
 30
0.0
 10
0.1646939451861427
 20
53.19812347700783
 30
0.0
 10
0.2747990530472989
 20
53.32908296607361
 30
0.0
 10
0.3452874272243791
 20
53.48295050100012
 30
0.0
 10
0.3868167912604281
 20
53.64669629638555
 30
0.0
 10
0.4048311849184173
 20
53.81447261007617
 30
0.0
 10
0.400039241197957
 20
53.96926081514058
 30
0.0
 10
0.3845121634409088
 20
54.06647676936367
 30
0.0
 10
0.3759415877765128
 20
54.10779725408252
 30
0.0
  0
ARC
  5
7D
330
1F
100
AcDbEntity
  8
Make2D visible lines - Tangent
100
AcDbCircle
 10
0.8655211721033517
 20
54.20934443824023
 30
0.0
 40
0.5
100
AcDbArc
 50
178.9775798079559
 51
191.7179678781667
  0
SPLINE
  5
7E
330
1F
100
AcDbEntity
  8
Make2D visible lines - Tangent
100
AcDbSpline
210
0.0
220
0.0
230
1.0
 70
    12
 71
     2
 72
     6
 73
     3
 74
     0
 42
0.0000000001
 43
0.0000000001
 40
-0.1297405451143296
 40
-0.1297405451143296
 40
-0.1297405451143296
 40
0.0
 40
0.0
 40
0.0
 10
0.3656007774165287
 20
54.21826626407193
 30
0.0
 41
0.9999960316975589
 10
0.3667583002961295
 20
54.28312622723896
 30
0.0
 41
0.9999968655123173
 10
0.3681125763794111
 20
54.34798238051323
 30
0.0
 41
1.0
  0
SPLINE
  5
7F
330
1F
100
AcDbEntity
  8
Make2D visible lines - Tangent
100
AcDbSpline
210
0.0
220
0.0
230
1.0
 70
     8
 71
     3
 72
    12
 73
     8
 74
     0
 42
0.0000000001
 43
0.0000000001
 40
0.0
 40
0.0
 40
0.0
 40
0.0
 40
0.1510110321465192
 40
0.3037660471064116
 40
0.5900965017365678
 40
0.8249401141264362
 40
1.014583801502342
 40
1.014583801502342
 40
1.014583801502342
 40
1.014583801502342
 10
-0.4018340216547631
 20
53.96862566647704
 30
0.0
 10
-0.4067502440146675
 20
53.91850543005066
 30
0.0
 10
-0.4105800225071998
 20
53.81720557580051
 30
0.0
 10
-0.3933681383037075
 20
53.6207577567999
 30
0.0
 10
-0.3329158017917836
 20
53.40261448208904
 30
0.0
 10
-0.198167973867078
 20
53.20175971763341
 30
0.0
 10
-0.0643507375328471
 20
53.13701519140749
 30
0.0
 10
0.00000000574351
 20
53.13826867109638
 30
0.0
  0
SPLINE
  5
80
330
1F
100
AcDbEntity
  8
Make2D visible lines - Tangent
100
AcDbSpline
210
0.0
220
0.0
230
1.0
 70
     8
 71
     3
 72
    12
 73
     8
 74
     0
 42
0.0000000001
 43
0.0000000001
 40
-1.014583801502342
 40
-1.014583801502342
 40
-1.014583801502342
 40
-1.014583801502342
 40
-0.8249401141264362
 40
-0.5900965017365678
 40
-0.3037660471064116
 40
-0.1510110321465192
 40
0.0
 40
0.0
 40
0.0
 40
0.0
 10
0.00000000574351
 20
53.13826867109638
 30
0.0
 10
0.064350749019867
 20
53.13701519140749
 30
0.0
 10
0.1981679853540979
 20
53.20175971763341
 30
0.0
 10
0.3329158132788035
 20
53.40261448208904
 30
0.0
 10
0.3933681497907274
 20
53.6207577567999
 30
0.0
 10
0.4105800339942197
 20
53.81720557580051
 30
0.0
 10
0.4067502555016874
 20
53.91850543005066
 30
0.0
 10
0.401834033141783
 20
53.96862566647704
 30
0.0
  0
SPLINE
  5
81
330
1F
100
AcDbEntity
  8
Make2D visible lines
100
AcDbSpline
210
0.0
220
0.0
230
1.0
 70
    12
 71
     2
 72
     6
 73
     3
 74
     0
 42
0.0000000001
 43
0.0000000001
 40
0.0
 40
0.0
 40
0.0
 40
0.0853474550214741
 40
0.0853474550214741
 40
0.0853474550214741
 10
0.4047946761643282
 20
53.93357924498123
 30
0.0
 41
1.0
 10
0.4077820541270659
 20
53.8909930065015
 30
0.0
 41
0.9993970637774641
 10
0.4078067866609819
 20
53.84830212312757
 30
0.0
 41
1.0
  0
SPLINE
  5
82
330
1F
100
AcDbEntity
  8
Make2D visible lines
100
AcDbSpline
210
0.0
220
0.0
230
1.0
 70
    12
 71
     2
 72
     6
 73
     3
 74
     0
 42
0.0000000001
 43
0.0000000001
 40
0.0
 40
0.0
 40
0.0
 40
0.0232077921390905
 40
0.0232077921390905
 40
0.0232077921390905
 10
50.33663385680541
 20
0.3999999999470365
 30
0.0
 41
1.0
 10
50.35125103102574
 20
0.3999392744149043
 30
0.0
 41
0.7176120634141828
 10
50.35162788534988
 20
0.3853268327778507
 30
0.0
 41
1.0
  0
SPLINE
  5
83
330
1F
100
AcDbEntity
  8
Make2D visible lines
100
AcDbSpline
210
0.0
220
0.0
230
1.0
 70
    12
 71
     2
 72
     6
 73
     3
 74
     0
 42
0.0000000001
 43
0.0000000001
 40
0.0
 40
0.0
 40
0.0
 40
0.0232125536774005
 40
0.0232125536774005
 40
0.0232125536774005
 10
49.54599110592773
 20
0.3853269610145591
 30
0.0
 41
1.0
 10
49.54635761826547
 20
0.3999502926109969
 30
0.0
 41
0.7170957278319929
 10
49.56098545773179
 20
0.3999999999617776
 30
0.0
 41
1.0
  0
SPLINE
  5
84
330
1F
100
AcDbEntity
  8
Make2D visible lines
100
AcDbSpline
210
0.0
220
0.0
230
1.0
 70
    12
 71
     2
 72
     6
 73
     3
 74
     0
 42
0.0000000001
 43
0.0000000001
 40
0.0
 40
0.0
 40
0.0
 40
0.2259576718196235
 40
0.2259576718196235
 40
0.2259576718196235
 10
49.54104562241601
 20
0.1594216323489093
 30
0.0
 41
1.0
 10
49.54352361692849
 20
0.2723732898507527
 30
0.0
 41
0.9999999984910576
 10
49.54598920136358
 20
0.3853252189294936
 30
0.0
 41
1.0
  0
SPLINE
  5
85
330
1F
100
AcDbEntity
  8
Make2D visible lines
100
AcDbSpline
210
0.0
220
0.0
230
1.0
 70
    12
 71
     2
 72
     6
 73
     3
 74
     0
 42
0.0000000001
 43
0.0000000001
 40
0.0
 40
0.0
 40
0.0
 40
0.2253642768281202
 40
0.2253642768281202
 40
0.2253642768281202
 10
50.35162975091699
 20
0.385325058594006
 30
0.0
 41
1.0
 10
50.35408886021796
 20
0.2726697563467351
 30
0.0
 41
0.9999999984988344
 10
50.35656031506866
 20
0.1600147242624911
 30
0.0
 41
1.0
  0
SPLINE
  5
86
330
1F
100
AcDbEntity
  8
Make2D visible lines
100
AcDbSpline
210
0.0
220
0.0
230
1.0
 70
    12
 71
     2
 72
     8
 73
     5
 74
     0
 42
0.0000000001
 43
0.0000000001
 40
0.0
 40
0.0
 40
0.0
 40
0.1242318577480881
 40
0.1242318577480881
 40
0.2484637154961761
 40
0.2484637154961761
 40
0.2484637154961761
 10
50.35657105293153
 20
0.1594215907425355
 30
0.0
 41
1.0
 10
50.35801064358544
 20
0.0938162002370285
 30
0.0
 41
0.9217678869813357
 10
50.31212155140379
 20
0.0469085153295885
 30
0.0
 41
1.0
 10
50.26623245922216
 20
0.0000008304221485
 30
0.0
 41
0.9217678869813357
 10
50.20061127602693
 20
0.0000000000011417
 30
0.0
 41
1.0
  0
SPLINE
  5
87
330
1F
100
AcDbEntity
  8
Make2D visible lines
100
AcDbSpline
210
0.0
220
0.0
230
1.0
 70
    12
 71
     2
 72
     8
 73
     5
 74
     0
 42
0.0000000001
 43
0.0000000001
 40
0.0
 40
0.0
 40
0.0
 40
0.1240063772075993
 40
0.1240063772075993
 40
0.2480127544151987
 40
0.2480127544151987
 40
0.2480127544151987
 10
49.69700773555039
 20
0.000000000001096
 30
0.0
 41
1.0
 10
49.63151780149612
 20
-0.0000119099018914
 30
0.0
 41
0.9220189045496352
 10
49.5856507767497
 20
0.0467336529376692
 30
0.0
 41
1.0
 10
49.53978375200325
 20
0.0934792157772298
 30
0.0
 41
0.9220189045496352
 10
49.54103804433061
 20
0.1589571384308644
 30
0.0
 41
1.0
  0
SPLINE
  5
88
330
1F
100
AcDbEntity
  8
Make2D visible lines
100
AcDbSpline
210
0.0
220
0.0
230
1.0
 70
    24
 71
     2
 72
     6
 73
     3
 74
     0
 42
0.0000000001
 43
0.0000000001
 40
0.0
 40
0.0
 40
0.0
 40
0.3863627208447955
 40
0.3863627208447955
 40
0.3863627208447955
 10
50.3351725048084
 20
0.4000000000000166
 30
0.0
 10
50.14199114438601
 20
0.4000000000000165
 30
0.0
 10
49.94880978396361
 20
0.4000000000000163
 30
0.0
  0
SPLINE
  5
89
330
1F
100
AcDbEntity
  8
Make2D visible lines
100
AcDbSpline
210
0.0
220
0.0
230
1.0
 70
    24
 71
     2
 72
     6
 73
     3
 74
     0
 42
0.0000000001
 43
0.0000000001
 40
0.0
 40
0.0
 40
0.0
 40
0.3876534637036499
 40
0.3876534637036499
 40
0.3876534637036499
 10
49.94880947449779
 20
0.4000000000000163
 30
0.0
 10
49.75498274264596
 20
0.4000000000000162
 30
0.0
 10
49.56115601079414
 20
0.4000000000000161
 30
0.0
  0
SPLINE
  5
8A
330
1F
100
AcDbEntity
  8
Make2D visible lines
100
AcDbSpline
210
0.0
220
0.0
230
1.0
 70
    24
 71
     2
 72
     6
 73
     3
 74
     0
 42
0.0000000001
 43
0.0000000001
 40
0.0
 40
0.0
 40
0.0
 40
0.2517559204860955
 40
0.2517559204860955
 40
0.2517559204860955
 10
49.94880947688906
 20
0.0000000000000036
 30
0.0
 10
50.07468743713211
 20
0.0000000000000036
 30
0.0
 10
50.20056539737516
 20
0.0000000000000036
 30
0.0
  0
SPLINE
  5
8B
330
1F
100
AcDbEntity
  8
Make2D visible lines
100
AcDbSpline
210
0.0
220
0.0
230
1.0
 70
    24
 71
     3
 72
     9
 73
     5
 74
     0
 42
0.0000000001
 43
0.0000000001
 40
0.0
 40
0.0
 40
0.0
 40
0.0
 40
0.0000682360840525
 40
0.251869451330915
 40
0.251869451330915
 40
0.251869451330915
 40
0.251869451330915
 10
49.69707649772625
 20
0.0000000000000036
 30
0.0
 10
49.69696701774618
 20
0.0000000000000036
 30
0.0
 10
49.78091316223777
 20
0.0000000000000036
 30
0.0
 10
49.86487865926072
 20
0.0000000000000036
 30
0.0
 10
49.94880947688906
 20
0.0000000000000036
 30
0.0
  0
SPLINE
  5
8C
330
1F
100
AcDbEntity
  8
Make2D visible lines
100
AcDbSpline
210
0.0
220
0.0
230
1.0
 70
    12
 71
     2
 72
     8
 73
     5
 74
     0
 42
0.0000000001
 43
0.0000000001
 40
0.0
 40
0.0
 40
0.0
 40
0.0119642320224294
 40
0.0119642320224294
 40
0.0239284640448587
 40
0.0239284640448587
 40
0.0239284640448587
 10
63.18818054548475
 20
0.4000000000000163
 30
0.0
 41
1.0
 10
63.18185971741777
 20
0.4000000000000209
 30
0.0
 41
0.9215246294676533
 10
63.17744515447918
 20
0.3954762292814858
 30
0.0
 41
1.0
 10
63.17303059154062
 20
0.3909524585629509
 30
0.0
 41
0.9215246294676533
 10
63.17318502313801
 20
0.3846335173277264
 30
0.0
 41
1.0
  0
SPLINE
  5
8D
330
1F
100
AcDbEntity
  8
Make2D visible lines
100
AcDbSpline
210
0.0
220
0.0
230
1.0
 70
    24
 71
     2
 72
     6
 73
     3
 74
     0
 42
0.0000000001
 43
0.0000000001
 40
0.0
 40
0.0
 40
0.0
 40
1.379419120443295
 40
1.379419120443295
 40
1.379419120443295
 10
64.57063707231255
 20
0.4000000000000163
 30
0.0
 10
63.88092751209091
 20
0.4000000000000162
 30
0.0
 10
63.19121795186926
 20
0.4000000000000161
 30
0.0
  0
SPLINE
  5
8E
330
1F
100
AcDbEntity
  8
Make2D visible lines
100
AcDbSpline
210
0.0
220
0.0
230
1.0
 70
    12
 71
     2
 72
     6
 73
     3
 74
     0
 42
0.0000000001
 43
0.0000000001
 40
0.0
 40
0.0
 40
0.0
 40
0.0224671519842366
 40
0.0224671519842366
 40
0.0224671519842366
 10
64.58559713766047
 20
0.3860938211857499
 30
0.0
 41
1.0
 10
64.58458037251636
 20
0.4000000000000348
 30
0.0
 41
0.7324347794791691
 10
64.57063707231255
 20
0.4000000000000183
 30
0.0
 41
1.0
  0
SPLINE
  5
8F
330
1F
100
AcDbEntity
  8
Make2D visible lines
100
AcDbSpline
210
0.0
220
0.0
230
1.0
 70
    24
 71
     2
 72
     6
 73
     3
 74
     0
 42
0.0000000001
 43
0.0000000001
 40
0.0
 40
0.0
 40
0.0
 40
0.2213623405233084
 40
0.2213623405233084
 40
0.2213623405233084
 10
64.58561294737093
 20
0.3858503918134666
 30
0.0
 10
64.59188777144385
 20
0.2753472333366913
 30
0.0
 10
64.59816259551675
 20
0.164844074859916
 30
0.0
  0
SPLINE
  5
90
330
1F
100
AcDbEntity
  8
Make2D visible lines
100
AcDbSpline
210
0.0
220
0.0
230
1.0
 70
    24
 71
     2
 72
     6
 73
     3
 74
     0
 42
0.0000000001
 43
0.0000000001
 40
0.0
 40
0.0
 40
0.0
 40
0.2325105046476637
 40
0.2325105046476637
 40
0.2325105046476637
 10
63.17886576120993
 20
0.1521924194416825
 30
0.0
 10
63.17602539217397
 20
0.2684129683847045
 30
0.0
 10
63.17318502313801
 20
0.3846335173277264
 30
0.0
  0
SPLINE
  5
91
330
1F
100
AcDbEntity
  8
Make2D visible lines
100
AcDbSpline
210
0.0
220
0.0
230
1.0
 70
    12
 71
     2
 72
     6
 73
     3
 74
     0
 42
0.0000000001
 43
0.0000000001
 40
0.0
 40
0.0
 40
0.0
 40
0.2412324278936833
 40
0.2412324278936833
 40
0.2412324278936833
 10
63.17886585503878
 20
0.1521885802082181
 30
0.0
 41
1.0
 10
63.18258526382471
 20
-0.0000000000000105
 30
0.0
 41
0.7156927337036098
 10
63.33481928744465
 20
0.0000000000000034
 30
0.0
 41
1.0
  0
SPLINE
  5
92
330
1F
100
AcDbEntity
  8
Make2D visible lines
100
AcDbSpline
210
0.0
220
0.0
230
1.0
 70
    12
 71
     2
 72
     8
 73
     5
 74
     0
 42
0.0000000001
 43
0.0000000001
 40
0.0
 40
0.0
 40
0.0
 40
0.1269465231438366
 40
0.1269465231438366
 40
0.2538930462876731
 40
0.2538930462876731
 40
0.2538930462876731
 10
64.44241349490974
 20
0.0000000000000036
 30
0.0
 41
1.0
 10
64.50963805924512
 20
0.000000000000002
 30
0.0
 41
0.918360064844369
 10
64.55580590135338
 20
0.0488638148853193
 30
0.0
 41
1.0
 10
64.60197374346164
 20
0.0977276297706366
 30
0.0
 41
0.918360064844369
 10
64.59816259551675
 20
0.1648440748599159
 30
0.0
 41
1.0
  0
SPLINE
  5
93
330
1F
100
AcDbEntity
  8
Make2D visible lines
100
AcDbSpline
210
0.0
220
0.0
230
1.0
 70
    24
 71
     2
 72
     6
 73
     3
 74
     0
 42
0.0000000001
 43
0.0000000001
 40
0.0
 40
0.0
 40
0.0
 40
1.107594207465098
 40
1.107594207465098
 40
1.107594207465098
 10
63.33481928744465
 20
0.0000000000000036
 30
0.0
 10
63.88861639117719
 20
0.0000000000000036
 30
0.0
 10
64.44241349490974
 20
0.0000000000000036
 30
0.0
  0
SPLINE
  5
94
330
1F
100
AcDbEntity
  8
Make2D visible lines
100
AcDbSpline
210
0.0
220
0.0
230
1.0
 70
    24
 71
     2
 72
     6
 73
     3
 74
     0
 42
0.0000000001
 43
0.0000000001
 40
0.0
 40
0.0
 40
0.0
 40
0.0400060931217547
 40
0.0400060931217547
 40
0.0400060931217547
 10
51.14880947439094
 20
6.503000000000021
 30
0.0
 10
51.14915857568948
 20
6.483000000000022
 30
0.0
 10
51.14950767698803
 20
6.463000000000022
 30
0.0
  0
SPLINE
  5
95
330
1F
100
AcDbEntity
  8
Make2D visible lines
100
AcDbSpline
210
0.0
220
0.0
230
1.0
 70
    24
 71
     2
 72
     6
 73
     3
 74
     0
 42
0.0000000001
 43
0.0000000001
 40
0.0
 40
0.0
 40
0.0
 40
0.0400060931217547
 40
0.0400060931217547
 40
0.0400060931217547
 10
48.74811127179327
 20
6.463000000000022
 30
0.0
 10
48.74846037309182
 20
6.483000000000022
 30
0.0
 10
48.74880947439036
 20
6.503000000000021
 30
0.0
  0
SPLINE
  5
96
330
1F
100
AcDbEntity
  8
Make2D visible lines - Tangent
100
AcDbSpline
210
0.0
220
0.0
230
1.0
 70
     8
 71
     3
 72
    54
 73
    50
 74
     0
 42
0.0000000001
 43
0.0000000001
 40
0.0
 40
0.0
 40
0.0
 40
0.0
 40
1.0
 40
2.0
 40
3.0
 40
4.0
 40
5.0
 40
6.0
 40
7.0
 40
8.0
 40
9.0
 40
10.0
 40
11.0
 40
12.0
 40
13.0
 40
14.0
 40
15.0
 40
16.0
 40
17.0
 40
18.0
 40
19.0
 40
20.0
 40
21.0
 40
22.0
 40
23.0
 40
24.0
 40
25.0
 40
26.0
 40
27.0
 40
28.0
 40
29.0
 40
30.0
 40
31.0
 40
32.0
 40
33.0
 40
34.0
 40
35.0
 40
36.0
 40
37.0
 40
38.0
 40
39.0
 40
40.0
 40
41.0
 40
42.0
 40
43.0
 40
44.0
 40
45.0
 40
46.0
 40
47.0
 40
47.0
 40
47.0
 40
47.0
 10
50.33438351347382
 20
0.403329261439214
 30
0.0
 10
50.35965379282035
 20
0.471691761030031
 30
0.0
 10
50.34161667719425
 20
0.6333535261625483
 30
0.0
 10
50.3423877394428
 20
0.8657327374605353
 30
0.0
 10
50.3358101023167
 20
1.100824691898526
 30
0.0
 10
50.33101611849797
 20
1.335184942048012
 30
0.0
 10
50.32572974736375
 20
1.569741898107297
 30
0.0
 10
50.32061922298833
 20
1.804245165096962
 30
0.0
 10
50.31598420497534
 20
2.038780643129261
 30
0.0
 10
50.31065432259739
 20
2.27327054669982
 30
0.0
 10
50.30996748816619
 20
2.50795635439968
 30
0.0
 10
50.32521456140609
 20
2.742035110000107
 30
0.0
 10
50.35038406303361
 20
2.975291767990851
 30
0.0
 10
50.37501116197681
 20
3.208581524431251
 30
0.0
 10
50.39924364218321
 20
3.44180444554645
 30
0.0
 10
50.42980308905025
 20
3.674811437325082
 30
0.0
 10
50.43612617337676
 20
3.908675454710889
 30
0.0
 10
50.42157311692949
 20
4.14316108458999
 30
0.0
 10
50.41103213306651
 20
4.377402299909646
 30
0.0
 10
50.40066964124204
 20
4.611784456659724
 30
0.0
 10
50.38856354186334
 20
4.845964675118837
 30
0.0
 10
50.37681353326546
 20
5.080512320442788
 30
0.0
 10
50.3384706806729
 20
5.312100872344999
 30
0.0
 10
50.25517392295997
 20
5.534912960303022
 30
0.0
 10
50.07496454531339
 20
5.701053020982688
 30
0.0
 10
49.81975478807785
 20
5.700046595423096
 30
0.0
 10
49.64106901306192
 20
5.532266007601516
 30
0.0
 10
49.55843378810076
 20
5.309372210240867
 30
0.0
 10
49.52059238991437
 20
5.077673675160892
 30
0.0
 10
49.50888811743985
 20
4.843140061617282
 30
0.0
 10
49.49685782227611
 20
4.608952622806954
 30
0.0
 10
49.48641256693686
 20
4.374572197465292
 30
0.0
 10
49.47600390675871
 20
4.140337130437424
 30
0.0
 10
49.46105465824674
 20
3.905822607503123
 30
0.0
 10
49.46887875665287
 20
3.67206586450394
 30
0.0
 10
49.49921046694639
 20
3.439049497872843
 30
0.0
 10
49.52285589136587
 20
3.205758678338231
 30
0.0
 10
49.54685279104166
 20
2.972405099167784
 30
0.0
 10
49.57223438766755
 20
2.739167888374083
 30
0.0
 10
49.58782044867484
 20
2.505129568181835
 30
0.0
 10
49.5867966171084
 20
2.270431807711549
 30
0.0
 10
49.58164370270255
 20
2.035943620623493
 30
0.0
 10
49.57690182933664
 20
1.801408320125761
 30
0.0
 10
49.57172936419552
 20
1.566909832637999
 30
0.0
 10
49.56638798485221
 20
1.332342661516703
 30
0.0
 10
49.56196211676758
 20
1.098016778736779
 30
0.0
 10
49.55497220270106
 20
0.8627750502036662
 30
0.0
 10
49.55666212158285
 20
0.6309690073439601
 30
0.0
 10
49.53634979864051
 20
0.4678802044313225
 30
0.0
 10
49.56581561922495
 20
0.4021512543515627
 30
0.0
  0
SPLINE
  5
97
330
1F
100
AcDbEntity
  8
Make2D visible lines
100
AcDbSpline
210
0.0
220
0.0
230
1.0
 70
    12
 71
     2
 72
     6
 73
     3
 74
     0
 42
0.0000000001
 43
0.0000000001
 40
-0.0371380794388858
 40
-0.0371380794388858
 40
-0.0371380794388858
 40
0.0
 40
0.0
 40
0.0
 10
64.5644530542894
 20
0.4022441987256987
 30
0.0
 41
1.0
 10
64.5842249594065
 20
0.4103542426935238
 30
0.0
 41
0.8144776561050845
 10
64.58302048738369
 20
0.4316908378358253
 30
0.0
 41
1.0
  0
SPLINE
  5
98
330
1F
100
AcDbEntity
  8
Make2D visible lines
100
AcDbSpline
210
0.0
220
0.0
230
1.0
 70
     8
 71
     3
 72
    12
 73
     8
 74
     0
 42
0.0000000001
 43
0.0000000001
 40
0.0
 40
0.0
 40
0.0
 40
0.0
 40
2.024931116884056
 40
2.121300252943487
 40
2.208073208949396
 40
2.641991453438839
 40
3.085460819895622
 40
3.085460819895622
 40
3.085460819895622
 40
3.085460819895622
 10
64.58302048738369
 20
0.4316908378358253
 30
0.0
 10
64.54431661538327
 20
1.105574847750693
 30
0.0
 10
64.50601395571917
 20
1.811593362411049
 30
0.0
 10
64.46319198892284
 20
2.546414843142783
 30
0.0
 10
64.418357770087
 20
2.747953191239763
 30
0.0
 10
64.24979909449202
 20
3.034556781920432
 30
0.0
 10
63.97913374797746
 20
3.175838551528641
 30
0.0
 10
63.8348094743906
 20
3.205665827232744
 30
0.0
  0
SPLINE
  5
99
330
1F
100
AcDbEntity
  8
Make2D visible lines
100
AcDbSpline
210
0.0
220
0.0
230
1.0
 70
    24
 71
     2
 72
     6
 73
     3
 74
     0
 42
0.0000000001
 43
0.0000000001
 40
-12.2902709571203
 40
-12.2902709571203
 40
-12.2902709571203
 40
0.0
 40
0.0
 40
0.0
 10
63.8348094743906
 20
3.205665827232744
 30
0.0
 10
57.8168094743906
 20
4.449195501128249
 30
0.0
 10
51.79880947439059
 20
5.692725175023753
 30
0.0
  0
SPLINE
  5
9A
330
1F
100
AcDbEntity
  8
Make2D visible lines
100
AcDbSpline
210
0.0
220
0.0
230
1.0
 70
    12
 71
     3
 72
    11
 73
     7
 74
     0
 42
0.0000000001
 43
0.0000000001
 40
0.0
 40
0.0
 40
0.0
 40
0.0
 40
0.2500000000000077
 40
0.500000000000056
 40
0.7500000000001044
 40
0.9903549301730069
 40
0.9903549301730069
 40
0.9903549301730069
 40
0.9903549301730069
 10
51.79880947439059
 20
5.692725175023753
 30
0.0
 41
1.0
 10
51.72634173341846
 20
5.707699549616471
 30
0.0
 41
1.0
 10
51.58469427274073
 20
5.771964450750453
 30
0.0
 41
1.0
 10
51.40384622081583
 20
5.941965920377697
 30
0.0
 41
1.0
 10
51.27801960581377
 20
6.15347175039408
 30
0.0
 41
1.0
 10
51.24286178900559
 20
6.303120864095799
 30
0.0
 41
1.0
 10
51.24031658671048
 20
6.378712134379271
 30
0.0
 41
1.0
  0
SPLINE
  5
9B
330
1F
100
AcDbEntity
  8
Make2D visible lines
100
AcDbSpline
210
0.0
220
0.0
230
1.0
 70
    24
 71
     2
 72
     6
 73
     3
 74
     0
 42
0.0000000001
 43
0.0000000001
 40
0.0
 40
0.0
 40
0.0
 40
0.080013140622857
 40
0.080013140622857
 40
0.080013140622857
 10
51.24031658671048
 20
6.378712134379271
 30
0.0
 10
51.23956303055058
 20
6.420856067189643
 30
0.0
 10
51.2388094743907
 20
6.463000000000015
 30
0.0
  0
SPLINE
  5
9C
330
1F
100
AcDbEntity
  8
Make2D visible lines
100
AcDbSpline
210
0.0
220
0.0
230
1.0
 70
    24
 71
     2
 72
     6
 73
     3
 74
     0
 42
0.0000000001
 43
0.0000000001
 40
0.0
 40
0.0
 40
0.0
 40
1.290000000000045
 40
1.290000000000045
 40
1.290000000000045
 10
51.2388094743907
 20
6.463000000000015
 30
0.0
 10
50.59380947439067
 20
6.463000000000015
 30
0.0
 10
49.94880947439065
 20
6.463000000000015
 30
0.0
  0
SPLINE
  5
9D
330
1F
100
AcDbEntity
  8
Make2D visible lines
100
AcDbSpline
210
0.0
220
0.0
230
1.0
 70
    24
 71
     2
 72
     6
 73
     3
 74
     0
 42
0.0000000001
 43
0.0000000001
 40
0.0
 40
0.0
 40
0.0
 40
1.289412297652113
 40
1.289412297652113
 40
1.289412297652113
 10
49.94880947439065
 20
6.463000000000015
 30
0.0
 10
49.30395639997761
 20
6.463000000000015
 30
0.0
 10
48.65910332556457
 20
6.463000000000015
 30
0.0
  0
SPLINE
  5
9E
330
1F
100
AcDbEntity
  8
Make2D visible lines
100
AcDbSpline
210
0.0
220
0.0
230
1.0
 70
    24
 71
     2
 72
     6
 73
     3
 74
     0
 42
0.0000000001
 43
0.0000000001
 40
-0.080013140622857
 40
-0.080013140622857
 40
-0.080013140622857
 40
0.0
 40
0.0
 40
0.0
 10
48.65910332556457
 20
6.463000000000015
 30
0.0
 10
48.6582028438177
 20
6.420856067189643
 30
0.0
 10
48.65730236207082
 20
6.378712134379271
 30
0.0
  0
SPLINE
  5
9F
330
1F
100
AcDbEntity
  8
Make2D visible lines
100
AcDbSpline
210
0.0
220
0.0
230
1.0
 70
    12
 71
     3
 72
    11
 73
     7
 74
     0
 42
0.0000000001
 43
0.0000000001
 40
-0.9903549301730069
 40
-0.9903549301730069
 40
-0.9903549301730069
 40
-0.9903549301730069
 40
-0.7500000000001044
 40
-0.500000000000056
 40
-0.2500000000000077
 40
0.0
 40
0.0
 40
0.0
 40
0.0
 10
48.65730236207082
 20
6.378712134379271
 30
0.0
 41
1.0
 10
48.65475715977571
 20
6.303120864095799
 30
0.0
 41
1.0
 10
48.61959934296753
 20
6.15347175039408
 30
0.0
 41
1.0
 10
48.49377272796547
 20
5.941965920377697
 30
0.0
 41
1.0
 10
48.31292467604057
 20
5.771964450750453
 30
0.0
 41
1.0
 10
48.17127721536284
 20
5.707699549616471
 30
0.0
 41
1.0
 10
48.09880947439071
 20
5.692725175023753
 30
0.0
 41
1.0
  0
SPLINE
  5
A0
330
1F
100
AcDbEntity
  8
Make2D visible lines
100
AcDbSpline
210
0.0
220
0.0
230
1.0
 70
    24
 71
     2
 72
     6
 73
     3
 74
     0
 42
0.0000000001
 43
0.0000000001
 40
0.0
 40
0.0
 40
0.0
 40
12.2902709571203
 40
12.2902709571203
 40
12.2902709571203
 10
48.09880947439071
 20
5.692725175023753
 30
0.0
 10
42.0808094743907
 20
4.449195501128249
 30
0.0
 10
36.0628094743907
 20
3.205665827232744
 30
0.0
  0
SPLINE
  5
A1
330
1F
100
AcDbEntity
  8
Make2D visible lines
100
AcDbSpline
210
0.0
220
0.0
230
1.0
 70
     8
 71
     3
 72
    12
 73
     8
 74
     0
 42
0.0000000001
 43
0.0000000001
 40
-3.085460819895622
 40
-3.085460819895622
 40
-3.085460819895622
 40
-3.085460819895622
 40
-2.641991453438839
 40
-2.208073208949396
 40
-2.121300252943487
 40
-2.024931116884056
 40
0.0
 40
0.0
 40
0.0
 40
0.0
 10
36.0628094743907
 20
3.205665827232744
 30
0.0
 10
35.91848520080384
 20
3.175838551528641
 30
0.0
 10
35.64781985428928
 20
3.034556781920432
 30
0.0
 10
35.4792611786943
 20
2.747953191239763
 30
0.0
 10
35.43442695985846
 20
2.546414843142783
 30
0.0
 10
35.39160499306214
 20
1.811593362411049
 30
0.0
 10
35.35330233339803
 20
1.105574847750693
 30
0.0
 10
35.31459846139761
 20
0.4316908378358253
 30
0.0
  0
SPLINE
  5
A2
330
1F
100
AcDbEntity
  8
Make2D visible lines
100
AcDbSpline
210
0.0
220
0.0
230
1.0
 70
    12
 71
     2
 72
     6
 73
     3
 74
     0
 42
0.0000000001
 43
0.0000000001
 40
0.0
 40
0.0
 40
0.0
 40
0.0371380794388858
 40
0.0371380794388858
 40
0.0371380794388858
 10
35.31459846139761
 20
0.4316908378358253
 30
0.0
 41
1.0
 10
35.3133939893748
 20
0.4103542426935238
 30
0.0
 41
0.8144776561050845
 10
35.33316589449191
 20
0.4022441987256987
 30
0.0
 41
1.0
  0
SPLINE
  5
A3
330
1F
100
AcDbEntity
  8
Make2D visible lines
100
AcDbSpline
210
0.0
220
0.0
230
1.0
 70
    12
 71
     2
 72
     8
 73
     5
 74
     0
 42
0.0000000001
 43
0.0000000001
 40
0.0
 40
0.0
 40
0.0
 40
0.0119642320224294
 40
0.0119642320224294
 40
0.0239284640448587
 40
0.0239284640448587
 40
0.0239284640448587
 10
36.70943840329655
 20
0.4000000000000163
 30
0.0
 41
1.0
 10
36.71575923136355
 20
0.4000000000000209
 30
0.0
 41
0.9215246294676533
 10
36.72017379430212
 20
0.3954762292814858
 30
0.0
 41
1.0
 10
36.7245883572407
 20
0.3909524585629509
 30
0.0
 41
0.9215246294676533
 10
36.72443392564329
 20
0.3846335173277264
 30
0.0
 41
1.0
  0
SPLINE
  5
A4
330
1F
100
AcDbEntity
  8
Make2D visible lines
100
AcDbSpline
210
0.0
220
0.0
230
1.0
 70
    24
 71
     2
 72
     6
 73
     3
 74
     0
 42
0.0000000001
 43
0.0000000001
 40
0.0
 40
0.0
 40
0.0
 40
1.379419120443295
 40
1.379419120443295
 40
1.379419120443295
 10
35.32698187646875
 20
0.4000000000000163
 30
0.0
 10
36.01669143669039
 20
0.4000000000000162
 30
0.0
 10
36.70640099691204
 20
0.4000000000000161
 30
0.0
  0
SPLINE
  5
A5
330
1F
100
AcDbEntity
  8
Make2D visible lines
100
AcDbSpline
210
0.0
220
0.0
230
1.0
 70
    12
 71
     2
 72
     6
 73
     3
 74
     0
 42
0.0000000001
 43
0.0000000001
 40
0.0
 40
0.0
 40
0.0
 40
0.0224671519842366
 40
0.0224671519842366
 40
0.0224671519842366
 10
35.31202181112081
 20
0.3860938211857499
 30
0.0
 41
1.0
 10
35.31303857626495
 20
0.4000000000000348
 30
0.0
 41
0.7324347794791691
 10
35.32698187646875
 20
0.4000000000000183
 30
0.0
 41
1.0
  0
SPLINE
  5
A6
330
1F
100
AcDbEntity
  8
Make2D visible lines
100
AcDbSpline
210
0.0
220
0.0
230
1.0
 70
    24
 71
     2
 72
     6
 73
     3
 74
     0
 42
0.0000000001
 43
0.0000000001
 40
0.0
 40
0.0
 40
0.0
 40
0.2213623405233084
 40
0.2213623405233084
 40
0.2213623405233084
 10
35.31200600141037
 20
0.3858503918134666
 30
0.0
 10
35.30573117733746
 20
0.2753472333366913
 30
0.0
 10
35.29945635326455
 20
0.164844074859916
 30
0.0
  0
SPLINE
  5
A7
330
1F
100
AcDbEntity
  8
Make2D visible lines
100
AcDbSpline
210
0.0
220
0.0
230
1.0
 70
    24
 71
     2
 72
     6
 73
     3
 74
     0
 42
0.0000000001
 43
0.0000000001
 40
0.0
 40
0.0
 40
0.0
 40
0.2325105046476637
 40
0.2325105046476637
 40
0.2325105046476637
 10
36.71875318757137
 20
0.1521924194416825
 30
0.0
 10
36.72159355660733
 20
0.2684129683847045
 30
0.0
 10
36.72443392564329
 20
0.3846335173277264
 30
0.0
  0
SPLINE
  5
A8
330
1F
100
AcDbEntity
  8
Make2D visible lines
100
AcDbSpline
210
0.0
220
0.0
230
1.0
 70
    12
 71
     2
 72
     6
 73
     3
 74
     0
 42
0.0000000001
 43
0.0000000001
 40
0.0
 40
0.0
 40
0.0
 40
0.2412324278936833
 40
0.2412324278936833
 40
0.2412324278936833
 10
36.71875309374252
 20
0.1521885802082181
 30
0.0
 41
1.0
 10
36.71503368495658
 20
-0.0000000000000105
 30
0.0
 41
0.7156927337036098
 10
36.56279966133665
 20
0.0000000000000034
 30
0.0
 41
1.0
  0
SPLINE
  5
A9
330
1F
100
AcDbEntity
  8
Make2D visible lines
100
AcDbSpline
210
0.0
220
0.0
230
1.0
 70
    12
 71
     2
 72
     8
 73
     5
 74
     0
 42
0.0000000001
 43
0.0000000001
 40
0.0
 40
0.0
 40
0.0
 40
0.1269465231438366
 40
0.1269465231438366
 40
0.2538930462876731
 40
0.2538930462876731
 40
0.2538930462876731
 10
35.45520545387156
 20
0.0000000000000036
 30
0.0
 41
1.0
 10
35.38798088953619
 20
0.000000000000002
 30
0.0
 41
0.918360064844369
 10
35.34181304742793
 20
0.0488638148853193
 30
0.0
 41
1.0
 10
35.29564520531966
 20
0.0977276297706366
 30
0.0
 41
0.918360064844369
 10
35.29945635326455
 20
0.1648440748599159
 30
0.0
 41
1.0
  0
SPLINE
  5
AA
330
1F
100
AcDbEntity
  8
Make2D visible lines
100
AcDbSpline
210
0.0
220
0.0
230
1.0
 70
    24
 71
     2
 72
     6
 73
     3
 74
     0
 42
0.0000000001
 43
0.0000000001
 40
0.0
 40
0.0
 40
0.0
 40
1.107594207465098
 40
1.107594207465098
 40
1.107594207465098
 10
36.56279966133665
 20
0.0000000000000036
 30
0.0
 10
36.0090025576041
 20
0.0000000000000036
 30
0.0
 10
35.45520545387155
 20
0.0000000000000036
 30
0.0
  0
SPLINE
  5
AB
330
1F
100
AcDbEntity
  8
Make2D visible lines
100
AcDbSpline
210
0.0
220
0.0
230
1.0
 70
     8
 71
     3
 72
    13
 73
     9
 74
     0
 42
0.0000000001
 43
0.0000000001
 40
-1.83258135608072
 40
-1.83258135608072
 40
-1.83258135608072
 40
-1.83258135608072
 40
-0.750510233115731
 40
-0.5672189493277444
 40
-0.4828690280123605
 40
-0.2443108918713642
 40
-0.1163337939371243
 40
0.0
 40
0.0
 40
0.0
 40
0.0
 10
36.72552475084138
 20
0.429267031622143
 30
0.0
 10
36.73347507399735
 20
0.7898405850234216
 30
0.0
 10
36.74630030781086
 20
1.211528658082631
 30
0.0
 10
36.75437352880202
 20
1.661268225296924
 30
0.0
 10
36.76542914765358
 20
1.830020096093349
 30
0.0
 10
36.84781292856793
 20
1.966768126584214
 30
0.0
 10
36.98019455681811
 20
2.057218183732865
 30
0.0
 10
37.06113055081751
 20
2.080693221901958
 30
0.0
 10
37.09880947439059
 20
2.086000769603414
 30
0.0
  0
SPLINE
  5
AC
330
1F
100
AcDbEntity
  8
Make2D visible lines
100
AcDbSpline
210
0.0
220
0.0
230
1.0
 70
    24
 71
     2
 72
     6
 73
     3
 74
     0
 42
0.0000000001
 43
0.0000000001
 40
-10.36850216633574
 40
-10.36850216633574
 40
-10.36850216633574
 40
0.0
 40
0.0
 40
0.0
 10
37.09880947439059
 20
2.086000769603414
 30
0.0
 10
42.2338094743906
 20
2.798906298637399
 30
0.0
 10
47.36880947439059
 20
3.511811827671384
 30
0.0
  0
SPLINE
  5
AD
330
1F
100
AcDbEntity
  8
Make2D visible lines
100
AcDbSpline
210
0.0
220
0.0
230
1.0
 70
    12
 71
     3
 72
     8
 73
     4
 74
     0
 42
0.0000000001
 43
0.0000000001
 40
0.0
 40
0.0
 40
0.0
 40
0.0
 40
0.9983344876344831
 40
0.9983344876344831
 40
0.9983344876344831
 40
0.9983344876344831
 10
47.36880947439059
 20
3.511811827671384
 30
0.0
 41
1.0
 10
47.81966076496156
 20
3.574404695741988
 30
0.0
 41
1.0
 10
48.2720435407378
 20
3.64333701932616
 30
0.0
 41
1.0
 10
48.72670627950742
 20
3.65726383948913
 30
0.0
 41
1.0
  0
SPLINE
  5
AE
330
1F
100
AcDbEntity
  8
Make2D visible lines
100
AcDbSpline
210
0.0
220
0.0
230
1.0
 70
     8
 71
     3
 72
     8
 73
     4
 74
     0
 42
0.0000000001
 43
0.0000000001
 40
0.0
 40
0.0
 40
0.0
 40
0.0
 40
0.3051876163662417
 40
0.3051876163662417
 40
0.3051876163662417
 40
0.3051876163662417
 10
48.72670627950742
 20
3.65726383948913
 30
0.0
 10
48.97523688714102
 20
3.664876605573444
 30
0.0
 10
49.22387421860913
 20
3.670166049722532
 30
0.0
 10
49.47255313232644
 20
3.673132171936395
 30
0.0
  0
SPLINE
  5
AF
330
1F
100
AcDbEntity
  8
Make2D visible lines
100
AcDbSpline
210
0.0
220
0.0
230
1.0
 70
     8
 71
     3
 72
     8
 73
     4
 74
     0
 42
0.0000000001
 43
0.0000000001
 40
0.6950384688492743
 40
0.6950384688492743
 40
0.6950384688492743
 40
0.6950384688492743
 40
1.0
 40
1.0
 40
1.0
 40
1.0
 10
50.42561848585381
 20
3.673125576136301
 30
0.0
 10
50.67411311481636
 20
3.670158211529776
 30
0.0
 10
50.92256617492987
 20
3.664870965980719
 30
0.0
 10
51.17091266927388
 20
3.65726383948913
 30
0.0
  0
SPLINE
  5
B0
330
1F
100
AcDbEntity
  8
Make2D visible lines
100
AcDbSpline
210
0.0
220
0.0
230
1.0
 70
    12
 71
     3
 72
     8
 73
     4
 74
     0
 42
0.0000000001
 43
0.0000000001
 40
-0.9983344876344831
 40
-0.9983344876344831
 40
-0.9983344876344831
 40
-0.9983344876344831
 40
0.0
 40
0.0
 40
0.0
 40
0.0
 10
51.17091266927388
 20
3.65726383948913
 30
0.0
 41
1.0
 10
51.6255754080435
 20
3.64333701932616
 30
0.0
 41
1.0
 10
52.07795818381974
 20
3.574404695741988
 30
0.0
 41
1.0
 10
52.52880947439071
 20
3.511811827671384
 30
0.0
 41
1.0
  0
SPLINE
  5
B1
330
1F
100
AcDbEntity
  8
Make2D visible lines
100
AcDbSpline
210
0.0
220
0.0
230
1.0
 70
    24
 71
     2
 72
     6
 73
     3
 74
     0
 42
0.0000000001
 43
0.0000000001
 40
0.0
 40
0.0
 40
0.0
 40
10.36850216633574
 40
10.36850216633574
 40
10.36850216633574
 10
52.52880947439071
 20
3.511811827671384
 30
0.0
 10
57.6638094743907
 20
2.798906298637399
 30
0.0
 10
62.79880947439071
 20
2.086000769603414
 30
0.0
  0
SPLINE
  5
B2
330
1F
100
AcDbEntity
  8
Make2D visible lines
100
AcDbSpline
210
0.0
220
0.0
230
1.0
 70
     8
 71
     3
 72
    13
 73
     9
 74
     0
 42
0.0000000001
 43
0.0000000001
 40
0.0
 40
0.0
 40
0.0
 40
0.0
 40
0.1163337939371243
 40
0.2443108918713642
 40
0.4828690280123605
 40
0.5672189493277444
 40
0.750510233115731
 40
1.83258135608072
 40
1.83258135608072
 40
1.83258135608072
 40
1.83258135608072
 10
62.79880947439071
 20
2.086000769603414
 30
0.0
 10
62.8364883979638
 20
2.080693221901958
 30
0.0
 10
62.91742439196319
 20
2.057218183732865
 30
0.0
 10
63.04980602021336
 20
1.966768126584214
 30
0.0
 10
63.13218980112772
 20
1.830020096093349
 30
0.0
 10
63.14324541997929
 20
1.661268225296924
 30
0.0
 10
63.15131864097045
 20
1.211528658082631
 30
0.0
 10
63.16414387478394
 20
0.7898405850234216
 30
0.0
 10
63.17209419793992
 20
0.429267031622143
 30
0.0
  0
SPLINE
  5
B3
330
1F
100
AcDbEntity
  8
Make2D visible lines
100
AcDbSpline
210
0.0
220
0.0
230
1.0
 70
    12
 71
     2
 72
     6
 73
     3
 74
     0
 42
0.0000000001
 43
0.0000000001
 40
0.0
 40
0.0
 40
0.0
 40
0.0232077921390905
 40
0.0232077921390905
 40
0.0232077921390905
 10
0.387824382414756
 20
0.3999999999470365
 30
0.0
 41
1.0
 10
0.4024415566350914
 20
0.3999392744149043
 30
0.0
 41
0.7176120634141828
 10
0.4028184109592292
 20
0.3853268327778507
 30
0.0
 41
1.0
  0
SPLINE
  5
B4
330
1F
100
AcDbEntity
  8
Make2D visible lines
100
AcDbSpline
210
0.0
220
0.0
230
1.0
 70
    12
 71
     2
 72
     6
 73
     3
 74
     0
 42
0.0000000001
 43
0.0000000001
 40
0.0
 40
0.0
 40
0.0
 40
0.0232125536774005
 40
0.0232125536774005
 40
0.0232125536774005
 10
-0.4028183684629205
 20
0.3853269610145591
 30
0.0
 41
1.0
 10
-0.4024518561251791
 20
0.3999502926109969
 30
0.0
 41
0.7170957278319929
 10
-0.3878240166588611
 20
0.3999999999617776
 30
0.0
 41
1.0
  0
SPLINE
  5
B5
330
1F
100
AcDbEntity
  8
Make2D visible lines
100
AcDbSpline
210
0.0
220
0.0
230
1.0
 70
    12
 71
     2
 72
     6
 73
     3
 74
     0
 42
0.0000000001
 43
0.0000000001
 40
0.0
 40
0.0
 40
0.0
 40
0.2259576718196235
 40
0.2259576718196235
 40
0.2259576718196235
 10
-0.4077638519746358
 20
0.1594216323489093
 30
0.0
 41
1.0
 10
-0.4052858574621696
 20
0.2723732898507527
 30
0.0
 41
0.9999999984910576
 10
-0.4028202730270731
 20
0.3853252189294936
 30
0.0
 41
1.0
  0
SPLINE
  5
B6
330
1F
100
AcDbEntity
  8
Make2D visible lines
100
AcDbSpline
210
0.0
220
0.0
230
1.0
 70
    12
 71
     2
 72
     6
 73
     3
 74
     0
 42
0.0000000001
 43
0.0000000001
 40
0.0
 40
0.0
 40
0.0
 40
0.2253642768281202
 40
0.2253642768281202
 40
0.2253642768281202
 10
0.4028202765263416
 20
0.385325058594006
 30
0.0
 41
1.0
 10
0.4052793858273148
 20
0.2726697563467351
 30
0.0
 41
0.9999999984988344
 10
0.4077508406780019
 20
0.1600147242624911
 30
0.0
 41
1.0
  0
SPLINE
  5
B7
330
1F
100
AcDbEntity
  8
Make2D visible lines
100
AcDbSpline
210
0.0
220
0.0
230
1.0
 70
    12
 71
     2
 72
     8
 73
     5
 74
     0
 42
0.0000000001
 43
0.0000000001
 40
0.0
 40
0.0
 40
0.0
 40
0.1242318577480881
 40
0.1242318577480881
 40
0.2484637154961761
 40
0.2484637154961761
 40
0.2484637154961761
 10
0.4077615785408764
 20
0.1594215907425355
 30
0.0
 41
1.0
 10
0.4092011691947805
 20
0.0938162002370285
 30
0.0
 41
0.9217678869813357
 10
0.3633120770131395
 20
0.0469085153295885
 30
0.0
 41
1.0
 10
0.3174229848314968
 20
0.0000008304221485
 30
0.0
 41
0.9217678869813357
 10
0.2518018016362724
 20
0.0000000000011417
 30
0.0
 41
1.0
  0
SPLINE
  5
B8
330
1F
100
AcDbEntity
  8
Make2D visible lines
100
AcDbSpline
210
0.0
220
0.0
230
1.0
 70
    12
 71
     2
 72
     8
 73
     5
 74
     0
 42
0.0000000001
 43
0.0000000001
 40
0.0
 40
0.0
 40
0.0
 40
0.1240063772075993
 40
0.1240063772075993
 40
0.2480127544151987
 40
0.2480127544151987
 40
0.2480127544151987
 10
-0.2518017388402534
 20
0.000000000001096
 30
0.0
 41
1.0
 10
-0.3172916728945204
 20
-0.0000119099018914
 30
0.0
 41
0.9220189045496352
 10
-0.3631586976409586
 20
0.0467336529376692
 30
0.0
 41
1.0
 10
-0.4090257223873984
 20
0.0934792157772298
 30
0.0
 41
0.9220189045496352
 10
-0.4077714300600412
 20
0.1589571384308644
 30
0.0
 41
1.0
  0
SPLINE
  5
B9
330
1F
100
AcDbEntity
  8
Make2D visible lines
100
AcDbSpline
210
0.0
220
0.0
230
1.0
 70
    24
 71
     2
 72
     6
 73
     3
 74
     0
 42
0.0000000001
 43
0.0000000001
 40
0.0
 40
0.0
 40
0.0
 40
0.3863627208447955
 40
0.3863627208447955
 40
0.3863627208447955
 10
0.3863630304177565
 20
0.4000000000000166
 30
0.0
 10
0.1931816699953588
 20
0.4000000000000165
 30
0.0
 10
0.000000309572961
 20
0.4000000000000163
 30
0.0
  0
SPLINE
  5
BA
330
1F
100
AcDbEntity
  8
Make2D visible lines
100
AcDbSpline
210
0.0
220
0.0
230
1.0
 70
    24
 71
     2
 72
     6
 73
     3
 74
     0
 42
0.0000000001
 43
0.0000000001
 40
0.0
 40
0.0
 40
0.0
 40
0.3876534637036499
 40
0.3876534637036499
 40
0.3876534637036499
 10
0.0000000001071356
 20
0.4000000000000163
 30
0.0
 10
-0.1938267317446893
 20
0.4000000000000162
 30
0.0
 10
-0.3876534635965143
 20
0.4000000000000161
 30
0.0
  0
SPLINE
  5
BB
330
1F
100
AcDbEntity
  8
Make2D visible lines
100
AcDbSpline
210
0.0
220
0.0
230
1.0
 70
    24
 71
     2
 72
     6
 73
     3
 74
     0
 42
0.0000000001
 43
0.0000000001
 40
0.0
 40
0.0
 40
0.0
 40
0.2517559204860955
 40
0.2517559204860955
 40
0.2517559204860955
 10
0.0000000024984139
 20
0.0000000000000036
 30
0.0
 10
0.1258779627414617
 20
0.0000000000000036
 30
0.0
 10
0.2517559229845094
 20
0.0000000000000036
 30
0.0
  0
SPLINE
  5
BC
330
1F
100
AcDbEntity
  8
Make2D visible lines
100
AcDbSpline
210
0.0
220
0.0
230
1.0
 70
    24
 71
     3
 72
     9
 73
     5
 74
     0
 42
0.0000000001
 43
0.0000000001
 40
0.0
 40
0.0
 40
0.0
 40
0.0
 40
0.0000682360840525
 40
0.251869451330915
 40
0.251869451330915
 40
0.251869451330915
 40
0.251869451330915
 10
-0.2517329766643961
 20
0.0000000000000036
 30
0.0
 10
-0.2518424566444732
 20
0.0000000000000036
 30
0.0
 10
-0.1678963121528749
 20
0.0000000000000036
 30
0.0
 10
-0.0839308151299303
 20
0.0000000000000036
 30
0.0
 10
0.0000000024984139
 20
0.0000000000000036
 30
0.0
  0
SPLINE
  5
BD
330
1F
100
AcDbEntity
  8
Make2D visible lines
100
AcDbSpline
210
0.0
220
0.0
230
1.0
 70
    12
 71
     2
 72
     8
 73
     5
 74
     0
 42
0.0000000001
 43
0.0000000001
 40
0.0
 40
0.0
 40
0.0
 40
0.0119642320224294
 40
0.0119642320224294
 40
0.0239284640448587
 40
0.0239284640448587
 40
0.0239284640448587
 10
13.2393710710941
 20
0.4000000000000163
 30
0.0
 41
1.0
 10
13.23305024302711
 20
0.4000000000000209
 30
0.0
 41
0.9215246294676533
 10
13.22863568008853
 20
0.3954762292814858
 30
0.0
 41
1.0
 10
13.22422111714996
 20
0.3909524585629509
 30
0.0
 41
0.9215246294676533
 10
13.22437554874736
 20
0.3846335173277264
 30
0.0
 41
1.0
  0
SPLINE
  5
BE
330
1F
100
AcDbEntity
  8
Make2D visible lines
100
AcDbSpline
210
0.0
220
0.0
230
1.0
 70
    24
 71
     2
 72
     6
 73
     3
 74
     0
 42
0.0000000001
 43
0.0000000001
 40
0.0
 40
0.0
 40
0.0
 40
1.379419120443295
 40
1.379419120443295
 40
1.379419120443295
 10
14.6218275979219
 20
0.4000000000000163
 30
0.0
 10
13.93211803770025
 20
0.4000000000000162
 30
0.0
 10
13.24240847747861
 20
0.4000000000000161
 30
0.0
  0
SPLINE
  5
BF
330
1F
100
AcDbEntity
  8
Make2D visible lines
100
AcDbSpline
210
0.0
220
0.0
230
1.0
 70
    12
 71
     2
 72
     6
 73
     3
 74
     0
 42
0.0000000001
 43
0.0000000001
 40
0.0
 40
0.0
 40
0.0
 40
0.0224671519842366
 40
0.0224671519842366
 40
0.0224671519842366
 10
14.63678766326983
 20
0.3860938211857499
 30
0.0
 41
1.0
 10
14.6357708981257
 20
0.4000000000000348
 30
0.0
 41
0.7324347794791691
 10
14.6218275979219
 20
0.4000000000000183
 30
0.0
 41
1.0
  0
SPLINE
  5
C0
330
1F
100
AcDbEntity
  8
Make2D visible lines
100
AcDbSpline
210
0.0
220
0.0
230
1.0
 70
    24
 71
     2
 72
     6
 73
     3
 74
     0
 42
0.0000000001
 43
0.0000000001
 40
0.0
 40
0.0
 40
0.0
 40
0.2213623405233084
 40
0.2213623405233084
 40
0.2213623405233084
 10
14.63680347298028
 20
0.3858503918134666
 30
0.0
 10
14.64307829705319
 20
0.2753472333366913
 30
0.0
 10
14.6493531211261
 20
0.164844074859916
 30
0.0
  0
SPLINE
  5
C1
330
1F
100
AcDbEntity
  8
Make2D visible lines
100
AcDbSpline
210
0.0
220
0.0
230
1.0
 70
    24
 71
     2
 72
     6
 73
     3
 74
     0
 42
0.0000000001
 43
0.0000000001
 40
0.0
 40
0.0
 40
0.0
 40
0.2325105046476637
 40
0.2325105046476637
 40
0.2325105046476637
 10
13.23005628681928
 20
0.1521924194416825
 30
0.0
 10
13.22721591778332
 20
0.2684129683847045
 30
0.0
 10
13.22437554874736
 20
0.3846335173277264
 30
0.0
  0
SPLINE
  5
C2
330
1F
100
AcDbEntity
  8
Make2D visible lines
100
AcDbSpline
210
0.0
220
0.0
230
1.0
 70
    12
 71
     2
 72
     6
 73
     3
 74
     0
 42
0.0000000001
 43
0.0000000001
 40
0.0
 40
0.0
 40
0.0
 40
0.2412324278936833
 40
0.2412324278936833
 40
0.2412324278936833
 10
13.23005638064813
 20
0.1521885802082181
 30
0.0
 41
1.0
 10
13.23377578943406
 20
-0.0000000000000105
 30
0.0
 41
0.7156927337036098
 10
13.386009813054
 20
0.0000000000000034
 30
0.0
 41
1.0
  0
SPLINE
  5
C3
330
1F
100
AcDbEntity
  8
Make2D visible lines
100
AcDbSpline
210
0.0
220
0.0
230
1.0
 70
    12
 71
     2
 72
     8
 73
     5
 74
     0
 42
0.0000000001
 43
0.0000000001
 40
0.0
 40
0.0
 40
0.0
 40
0.1269465231438366
 40
0.1269465231438366
 40
0.2538930462876731
 40
0.2538930462876731
 40
0.2538930462876731
 10
14.49360402051909
 20
0.0000000000000036
 30
0.0
 41
1.0
 10
14.56082858485446
 20
0.000000000000002
 30
0.0
 41
0.918360064844369
 10
14.60699642696272
 20
0.0488638148853193
 30
0.0
 41
1.0
 10
14.65316426907099
 20
0.0977276297706366
 30
0.0
 41
0.918360064844369
 10
14.6493531211261
 20
0.1648440748599159
 30
0.0
 41
1.0
  0
SPLINE
  5
C4
330
1F
100
AcDbEntity
  8
Make2D visible lines
100
AcDbSpline
210
0.0
220
0.0
230
1.0
 70
    24
 71
     2
 72
     6
 73
     3
 74
     0
 42
0.0000000001
 43
0.0000000001
 40
0.0
 40
0.0
 40
0.0
 40
1.107594207465098
 40
1.107594207465098
 40
1.107594207465098
 10
13.386009813054
 20
0.0000000000000036
 30
0.0
 10
13.93980691678655
 20
0.0000000000000036
 30
0.0
 10
14.4936040205191
 20
0.0000000000000036
 30
0.0
  0
SPLINE
  5
C5
330
1F
100
AcDbEntity
  8
Make2D visible lines
100
AcDbSpline
210
0.0
220
0.0
230
1.0
 70
    24
 71
     2
 72
     6
 73
     3
 74
     0
 42
0.0000000001
 43
0.0000000001
 40
0.0
 40
0.0
 40
0.0
 40
0.0400060931217547
 40
0.0400060931217547
 40
0.0400060931217547
 10
1.200000000000291
 20
6.503000000000021
 30
0.0
 10
1.200349101298833
 20
6.483000000000022
 30
0.0
 10
1.200698202597376
 20
6.463000000000022
 30
0.0
  0
SPLINE
  5
C6
330
1F
100
AcDbEntity
  8
Make2D visible lines
100
AcDbSpline
210
0.0
220
0.0
230
1.0
 70
    24
 71
     2
 72
     6
 73
     3
 74
     0
 42
0.0000000001
 43
0.0000000001
 40
0.0
 40
0.0
 40
0.0
 40
0.0400060931217547
 40
0.0400060931217547
 40
0.0400060931217547
 10
-1.200698202597376
 20
6.463000000000022
 30
0.0
 10
-1.200349101298833
 20
6.483000000000022
 30
0.0
 10
-1.200000000000291
 20
6.503000000000021
 30
0.0
  0
SPLINE
  5
C7
330
1F
100
AcDbEntity
  8
Make2D visible lines - Tangent
100
AcDbSpline
210
0.0
220
0.0
230
1.0
 70
     8
 71
     3
 72
    54
 73
    50
 74
     0
 42
0.0000000001
 43
0.0000000001
 40
0.0
 40
0.0
 40
0.0
 40
0.0
 40
1.0
 40
2.0
 40
3.0
 40
4.0
 40
5.0
 40
6.0
 40
7.0
 40
8.0
 40
9.0
 40
10.0
 40
11.0
 40
12.0
 40
13.0
 40
14.0
 40
15.0
 40
16.0
 40
17.0
 40
18.0
 40
19.0
 40
20.0
 40
21.0
 40
22.0
 40
23.0
 40
24.0
 40
25.0
 40
26.0
 40
27.0
 40
28.0
 40
29.0
 40
30.0
 40
31.0
 40
32.0
 40
33.0
 40
34.0
 40
35.0
 40
36.0
 40
37.0
 40
38.0
 40
39.0
 40
40.0
 40
41.0
 40
42.0
 40
43.0
 40
44.0
 40
45.0
 40
46.0
 40
47.0
 40
47.0
 40
47.0
 40
47.0
 10
0.3855740390831688
 20
0.403329261439214
 30
0.0
 10
0.4108443184297055
 20
0.471691761030031
 30
0.0
 10
0.3928072028035972
 20
0.6333535261625483
 30
0.0
 10
0.3935782650521504
 20
0.8657327374605353
 30
0.0
 10
0.3870006279260478
 20
1.100824691898526
 30
0.0
 10
0.3822066441073212
 20
1.335184942048012
 30
0.0
 10
0.376920272973096
 20
1.569741898107297
 30
0.0
 10
0.3718097485976801
 20
1.804245165096962
 30
0.0
 10
0.367174730584694
 20
2.038780643129261
 30
0.0
 10
0.3618448482067402
 20
2.27327054669982
 30
0.0
 10
0.3611580137755363
 20
2.50795635439968
 30
0.0
 10
0.376405087015441
 20
2.742035110000107
 30
0.0
 10
0.4015745886429593
 20
2.975291767990851
 30
0.0
 10
0.4262016875861679
 20
3.208581524431251
 30
0.0
 10
0.4504341677925552
 20
3.44180444554645
 30
0.0
 10
0.4809936146595975
 20
3.674811437325082
 30
0.0
 10
0.4873166989861086
 20
3.908675454710889
 30
0.0
 10
0.4727636425388441
 20
4.14316108458999
 30
0.0
 10
0.4622226586758619
 20
4.377402299909646
 30
0.0
 10
0.4518601668513925
 20
4.611784456659724
 30
0.0
 10
0.4397540674726934
 20
4.845964675118837
 30
0.0
 10
0.4280040588748157
 20
5.080512320442788
 30
0.0
 10
0.3896612062822467
 20
5.312100872344999
 30
0.0
 10
0.306364448569322
 20
5.534912960303022
 30
0.0
 10
0.1261550709227438
 20
5.701053020982688
 30
0.0
 10
-0.1290546863127963
 20
5.700046595423096
 30
0.0
 10
-0.3077404613287302
 20
5.532266007601516
 30
0.0
 10
-0.3903756862898934
 20
5.309372210240867
 30
0.0
 10
-0.428217084476282
 20
5.077673675160892
 30
0.0
 10
-0.4399213569507985
 20
4.843140061617282
 30
0.0
 10
-0.4519516521145414
 20
4.608952622806954
 30
0.0
 10
-0.4623969074537961
 20
4.374572197465292
 30
0.0
 10
-0.4728055676319354
 20
4.140337130437424
 30
0.0
 10
-0.4877548161439153
 20
3.905822607503123
 30
0.0
 10
-0.4799307177377822
 20
3.67206586450394
 30
0.0
 10
-0.4495990074442647
 20
3.439049497872843
 30
0.0
 10
-0.4259535830247766
 20
3.205758678338231
 30
0.0
 10
-0.4019566833489902
 20
2.972405099167784
 30
0.0
 10
-0.3765750867231028
 20
2.739167888374083
 30
0.0
 10
-0.3609890257158116
 20
2.505129568181835
 30
0.0
 10
-0.362012857282243
 20
2.270431807711549
 30
0.0
 10
-0.3671657716880983
 20
2.035943620623493
 30
0.0
 10
-0.3719076450540077
 20
1.801408320125761
 30
0.0
 10
-0.3770801101951297
 20
1.566909832637999
 30
0.0
 10
-0.3824214895384378
 20
1.332342661516703
 30
0.0
 10
-0.386847357623071
 20
1.098016778736779
 30
0.0
 10
-0.39383727168959
 20
0.8627750502036662
 30
0.0
 10
-0.3921473528078007
 20
0.6309690073439601
 30
0.0
 10
-0.412459675750142
 20
0.4678802044313225
 30
0.0
 10
-0.3829938551656991
 20
0.4021512543515627
 30
0.0
  0
SPLINE
  5
C8
330
1F
100
AcDbEntity
  8
Make2D visible lines
100
AcDbSpline
210
0.0
220
0.0
230
1.0
 70
    12
 71
     2
 72
     6
 73
     3
 74
     0
 42
0.0000000001
 43
0.0000000001
 40
-0.0371380794388858
 40
-0.0371380794388858
 40
-0.0371380794388858
 40
0.0
 40
0.0
 40
0.0
 10
14.61564357989874
 20
0.4022441987256987
 30
0.0
 41
1.0
 10
14.63541548501586
 20
0.4103542426935238
 30
0.0
 41
0.8144776561050845
 10
14.63421101299304
 20
0.4316908378358253
 30
0.0
 41
1.0
  0
SPLINE
  5
C9
330
1F
100
AcDbEntity
  8
Make2D visible lines
100
AcDbSpline
210
0.0
220
0.0
230
1.0
 70
     8
 71
     3
 72
    12
 73
     8
 74
     0
 42
0.0000000001
 43
0.0000000001
 40
0.0
 40
0.0
 40
0.0
 40
0.0
 40
2.024931116884056
 40
2.121300252943487
 40
2.208073208949396
 40
2.641991453438839
 40
3.085460819895622
 40
3.085460819895622
 40
3.085460819895622
 40
3.085460819895622
 10
14.63421101299304
 20
0.4316908378358253
 30
0.0
 10
14.59550714099262
 20
1.105574847750693
 30
0.0
 10
14.55720448132851
 20
1.811593362411049
 30
0.0
 10
14.51438251453219
 20
2.546414843142783
 30
0.0
 10
14.46954829569635
 20
2.747953191239763
 30
0.0
 10
14.30098962010137
 20
3.034556781920432
 30
0.0
 10
14.03032427358681
 20
3.175838551528641
 30
0.0
 10
13.88599999999995
 20
3.205665827232744
 30
0.0
  0
SPLINE
  5
CA
330
1F
100
AcDbEntity
  8
Make2D visible lines
100
AcDbSpline
210
0.0
220
0.0
230
1.0
 70
    24
 71
     2
 72
     6
 73
     3
 74
     0
 42
0.0000000001
 43
0.0000000001
 40
-12.2902709571203
 40
-12.2902709571203
 40
-12.2902709571203
 40
0.0
 40
0.0
 40
0.0
 10
13.88599999999995
 20
3.205665827232744
 30
0.0
 10
7.867999999999946
 20
4.449195501128249
 30
0.0
 10
1.849999999999945
 20
5.692725175023753
 30
0.0
  0
SPLINE
  5
CB
330
1F
100
AcDbEntity
  8
Make2D visible lines
100
AcDbSpline
210
0.0
220
0.0
230
1.0
 70
    12
 71
     3
 72
    11
 73
     7
 74
     0
 42
0.0000000001
 43
0.0000000001
 40
0.0
 40
0.0
 40
0.0
 40
0.0
 40
0.2500000000000077
 40
0.500000000000056
 40
0.7500000000001044
 40
0.9903549301730069
 40
0.9903549301730069
 40
0.9903549301730069
 40
0.9903549301730069
 10
1.849999999999945
 20
5.692725175023753
 30
0.0
 41
1.0
 10
1.777532259027804
 20
5.707699549616471
 30
0.0
 41
1.0
 10
1.635884798350073
 20
5.771964450750453
 30
0.0
 41
1.0
 10
1.455036746425176
 20
5.941965920377697
 30
0.0
 41
1.0
 10
1.329210131423126
 20
6.15347175039408
 30
0.0
 41
1.0
 10
1.294052314614946
 20
6.303120864095799
 30
0.0
 41
1.0
 10
1.291507112319829
 20
6.378712134379271
 30
0.0
 41
1.0
  0
SPLINE
  5
CC
330
1F
100
AcDbEntity
  8
Make2D visible lines
100
AcDbSpline
210
0.0
220
0.0
230
1.0
 70
    24
 71
     2
 72
     6
 73
     3
 74
     0
 42
0.0000000001
 43
0.0000000001
 40
0.0
 40
0.0
 40
0.0
 40
0.080013140622857
 40
0.080013140622857
 40
0.080013140622857
 10
1.291507112319829
 20
6.378712134379271
 30
0.0
 10
1.290753556159937
 20
6.420856067189643
 30
0.0
 10
1.290000000000045
 20
6.463000000000015
 30
0.0
  0
SPLINE
  5
CD
330
1F
100
AcDbEntity
  8
Make2D visible lines
100
AcDbSpline
210
0.0
220
0.0
230
1.0
 70
    24
 71
     2
 72
     6
 73
     3
 74
     0
 42
0.0000000001
 43
0.0000000001
 40
0.0
 40
0.0
 40
0.0
 40
1.290000000000045
 40
1.290000000000045
 40
1.290000000000045
 10
1.290000000000045
 20
6.463000000000015
 30
0.0
 10
0.6450000000000227
 20
6.463000000000015
 30
0.0
 10
0.0
 20
6.463000000000015
 30
0.0
  0
SPLINE
  5
CE
330
1F
100
AcDbEntity
  8
Make2D visible lines
100
AcDbSpline
210
0.0
220
0.0
230
1.0
 70
    24
 71
     2
 72
     6
 73
     3
 74
     0
 42
0.0000000001
 43
0.0000000001
 40
0.0
 40
0.0
 40
0.0
 40
1.289412297652113
 40
1.289412297652113
 40
1.289412297652113
 10
0.0
 20
6.463000000000015
 30
0.0
 10
-0.6448530744130396
 20
6.463000000000015
 30
0.0
 10
-1.289706148826079
 20
6.463000000000015
 30
0.0
  0
SPLINE
  5
CF
330
1F
100
AcDbEntity
  8
Make2D visible lines
100
AcDbSpline
210
0.0
220
0.0
230
1.0
 70
    24
 71
     2
 72
     6
 73
     3
 74
     0
 42
0.0000000001
 43
0.0000000001
 40
-0.080013140622857
 40
-0.080013140622857
 40
-0.080013140622857
 40
0.0
 40
0.0
 40
0.0
 10
-1.289706148826079
 20
6.463000000000015
 30
0.0
 10
-1.290606630572954
 20
6.420856067189643
 30
0.0
 10
-1.291507112319829
 20
6.378712134379271
 30
0.0
  0
SPLINE
  5
D0
330
1F
100
AcDbEntity
  8
Make2D visible lines
100
AcDbSpline
210
0.0
220
0.0
230
1.0
 70
    12
 71
     3
 72
    11
 73
     7
 74
     0
 42
0.0000000001
 43
0.0000000001
 40
-0.9903549301730069
 40
-0.9903549301730069
 40
-0.9903549301730069
 40
-0.9903549301730069
 40
-0.7500000000001044
 40
-0.500000000000056
 40
-0.2500000000000077
 40
0.0
 40
0.0
 40
0.0
 40
0.0
 10
-1.291507112319829
 20
6.378712134379271
 30
0.0
 41
1.0
 10
-1.294052314614946
 20
6.303120864095799
 30
0.0
 41
1.0
 10
-1.329210131423126
 20
6.15347175039408
 30
0.0
 41
1.0
 10
-1.455036746425176
 20
5.941965920377697
 30
0.0
 41
1.0
 10
-1.635884798350073
 20
5.771964450750453
 30
0.0
 41
1.0
 10
-1.777532259027804
 20
5.707699549616471
 30
0.0
 41
1.0
 10
-1.849999999999945
 20
5.692725175023753
 30
0.0
 41
1.0
  0
SPLINE
  5
D1
330
1F
100
AcDbEntity
  8
Make2D visible lines
100
AcDbSpline
210
0.0
220
0.0
230
1.0
 70
    24
 71
     2
 72
     6
 73
     3
 74
     0
 42
0.0000000001
 43
0.0000000001
 40
0.0
 40
0.0
 40
0.0
 40
12.2902709571203
 40
12.2902709571203
 40
12.2902709571203
 10
-1.849999999999945
 20
5.692725175023753
 30
0.0
 10
-7.867999999999946
 20
4.449195501128249
 30
0.0
 10
-13.88599999999995
 20
3.205665827232744
 30
0.0
  0
SPLINE
  5
D2
330
1F
100
AcDbEntity
  8
Make2D visible lines
100
AcDbSpline
210
0.0
220
0.0
230
1.0
 70
     8
 71
     3
 72
    12
 73
     8
 74
     0
 42
0.0000000001
 43
0.0000000001
 40
-3.085460819895622
 40
-3.085460819895622
 40
-3.085460819895622
 40
-3.085460819895622
 40
-2.641991453438839
 40
-2.208073208949396
 40
-2.121300252943487
 40
-2.024931116884056
 40
0.0
 40
0.0
 40
0.0
 40
0.0
 10
-13.88599999999995
 20
3.205665827232744
 30
0.0
 10
-14.03032427358681
 20
3.175838551528641
 30
0.0
 10
-14.30098962010137
 20
3.034556781920432
 30
0.0
 10
-14.46954829569635
 20
2.747953191239763
 30
0.0
 10
-14.51438251453219
 20
2.546414843142783
 30
0.0
 10
-14.55720448132851
 20
1.811593362411049
 30
0.0
 10
-14.59550714099262
 20
1.105574847750693
 30
0.0
 10
-14.63421101299304
 20
0.4316908378358253
 30
0.0
  0
SPLINE
  5
D3
330
1F
100
AcDbEntity
  8
Make2D visible lines
100
AcDbSpline
210
0.0
220
0.0
230
1.0
 70
    12
 71
     2
 72
     6
 73
     3
 74
     0
 42
0.0000000001
 43
0.0000000001
 40
0.0
 40
0.0
 40
0.0
 40
0.0371380794388858
 40
0.0371380794388858
 40
0.0371380794388858
 10
-14.63421101299304
 20
0.4316908378358253
 30
0.0
 41
1.0
 10
-14.63541548501586
 20
0.4103542426935238
 30
0.0
 41
0.8144776561050845
 10
-14.61564357989874
 20
0.4022441987256987
 30
0.0
 41
1.0
  0
SPLINE
  5
D4
330
1F
100
AcDbEntity
  8
Make2D visible lines
100
AcDbSpline
210
0.0
220
0.0
230
1.0
 70
    12
 71
     2
 72
     8
 73
     5
 74
     0
 42
0.0000000001
 43
0.0000000001
 40
0.0
 40
0.0
 40
0.0
 40
0.0119642320224294
 40
0.0119642320224294
 40
0.0239284640448587
 40
0.0239284640448587
 40
0.0239284640448587
 10
-13.2393710710941
 20
0.4000000000000163
 30
0.0
 41
1.0
 10
-13.23305024302711
 20
0.4000000000000209
 30
0.0
 41
0.9215246294676533
 10
-13.22863568008853
 20
0.3954762292814858
 30
0.0
 41
1.0
 10
-13.22422111714996
 20
0.3909524585629509
 30
0.0
 41
0.9215246294676533
 10
-13.22437554874736
 20
0.3846335173277264
 30
0.0
 41
1.0
  0
SPLINE
  5
D5
330
1F
100
AcDbEntity
  8
Make2D visible lines
100
AcDbSpline
210
0.0
220
0.0
230
1.0
 70
    24
 71
     2
 72
     6
 73
     3
 74
     0
 42
0.0000000001
 43
0.0000000001
 40
0.0
 40
0.0
 40
0.0
 40
1.379419120443295
 40
1.379419120443295
 40
1.379419120443295
 10
-14.6218275979219
 20
0.4000000000000163
 30
0.0
 10
-13.93211803770025
 20
0.4000000000000162
 30
0.0
 10
-13.24240847747861
 20
0.4000000000000161
 30
0.0
  0
SPLINE
  5
D6
330
1F
100
AcDbEntity
  8
Make2D visible lines
100
AcDbSpline
210
0.0
220
0.0
230
1.0
 70
    12
 71
     2
 72
     6
 73
     3
 74
     0
 42
0.0000000001
 43
0.0000000001
 40
0.0
 40
0.0
 40
0.0
 40
0.0224671519842366
 40
0.0224671519842366
 40
0.0224671519842366
 10
-14.63678766326983
 20
0.3860938211857499
 30
0.0
 41
1.0
 10
-14.6357708981257
 20
0.4000000000000348
 30
0.0
 41
0.7324347794791691
 10
-14.6218275979219
 20
0.4000000000000183
 30
0.0
 41
1.0
  0
SPLINE
  5
D7
330
1F
100
AcDbEntity
  8
Make2D visible lines
100
AcDbSpline
210
0.0
220
0.0
230
1.0
 70
    24
 71
     2
 72
     6
 73
     3
 74
     0
 42
0.0000000001
 43
0.0000000001
 40
0.0
 40
0.0
 40
0.0
 40
0.2213623405233084
 40
0.2213623405233084
 40
0.2213623405233084
 10
-14.63680347298028
 20
0.3858503918134666
 30
0.0
 10
-14.64307829705319
 20
0.2753472333366913
 30
0.0
 10
-14.6493531211261
 20
0.164844074859916
 30
0.0
  0
SPLINE
  5
D8
330
1F
100
AcDbEntity
  8
Make2D visible lines
100
AcDbSpline
210
0.0
220
0.0
230
1.0
 70
    24
 71
     2
 72
     6
 73
     3
 74
     0
 42
0.0000000001
 43
0.0000000001
 40
0.0
 40
0.0
 40
0.0
 40
0.2325105046476637
 40
0.2325105046476637
 40
0.2325105046476637
 10
-13.23005628681928
 20
0.1521924194416825
 30
0.0
 10
-13.22721591778332
 20
0.2684129683847045
 30
0.0
 10
-13.22437554874736
 20
0.3846335173277264
 30
0.0
  0
SPLINE
  5
D9
330
1F
100
AcDbEntity
  8
Make2D visible lines
100
AcDbSpline
210
0.0
220
0.0
230
1.0
 70
    12
 71
     2
 72
     6
 73
     3
 74
     0
 42
0.0000000001
 43
0.0000000001
 40
0.0
 40
0.0
 40
0.0
 40
0.2412324278936833
 40
0.2412324278936833
 40
0.2412324278936833
 10
-13.23005638064813
 20
0.1521885802082181
 30
0.0
 41
1.0
 10
-13.23377578943406
 20
-0.0000000000000105
 30
0.0
 41
0.7156927337036098
 10
-13.386009813054
 20
0.0000000000000034
 30
0.0
 41
1.0
  0
SPLINE
  5
DA
330
1F
100
AcDbEntity
  8
Make2D visible lines
100
AcDbSpline
210
0.0
220
0.0
230
1.0
 70
    12
 71
     2
 72
     8
 73
     5
 74
     0
 42
0.0000000001
 43
0.0000000001
 40
0.0
 40
0.0
 40
0.0
 40
0.1269465231438366
 40
0.1269465231438366
 40
0.2538930462876731
 40
0.2538930462876731
 40
0.2538930462876731
 10
-14.49360402051909
 20
0.0000000000000036
 30
0.0
 41
1.0
 10
-14.56082858485446
 20
0.000000000000002
 30
0.0
 41
0.918360064844369
 10
-14.60699642696272
 20
0.0488638148853193
 30
0.0
 41
1.0
 10
-14.65316426907099
 20
0.0977276297706366
 30
0.0
 41
0.918360064844369
 10
-14.6493531211261
 20
0.1648440748599159
 30
0.0
 41
1.0
  0
SPLINE
  5
DB
330
1F
100
AcDbEntity
  8
Make2D visible lines
100
AcDbSpline
210
0.0
220
0.0
230
1.0
 70
    24
 71
     2
 72
     6
 73
     3
 74
     0
 42
0.0000000001
 43
0.0000000001
 40
0.0
 40
0.0
 40
0.0
 40
1.107594207465098
 40
1.107594207465098
 40
1.107594207465098
 10
-13.386009813054
 20
0.0000000000000036
 30
0.0
 10
-13.93980691678655
 20
0.0000000000000036
 30
0.0
 10
-14.4936040205191
 20
0.0000000000000036
 30
0.0
  0
SPLINE
  5
DC
330
1F
100
AcDbEntity
  8
Make2D visible lines
100
AcDbSpline
210
0.0
220
0.0
230
1.0
 70
    12
 71
     2
 72
     6
 73
     3
 74
     0
 42
0.0000000001
 43
0.0000000001
 40
-0.0352706514985427
 40
-0.0352706514985427
 40
-0.0352706514985427
 40
0.0
 40
0.0
 40
0.0
 10
13.24240847747864
 20
0.4020374895150737
 30
0.0
 41
1.0
 10
13.22377320145242
 20
0.4092798636229074
 30
0.0
 41
0.8321381552760684
 10
13.22328472354927
 20
0.429267031622143
 30
0.0
 41
1.0
  0
SPLINE
  5
DD
330
1F
100
AcDbEntity
  8
Make2D visible lines
100
AcDbSpline
210
0.0
220
0.0
230
1.0
 70
    12
 71
     2
 72
     6
 73
     3
 74
     0
 42
0.0000000001
 43
0.0000000001
 40
-0.0352706514985427
 40
-0.0352706514985427
 40
-0.0352706514985427
 40
0.0
 40
0.0
 40
0.0
 10
-13.24240847747864
 20
0.4020374895150737
 30
0.0
 41
1.0
 10
-13.22377320145242
 20
0.4092798636229074
 30
0.0
 41
0.8321381552760684
 10
-13.22328472354927
 20
0.429267031622143
 30
0.0
 41
1.0
  0
SPLINE
  5
DE
330
1F
100
AcDbEntity
  8
Make2D visible lines
100
AcDbSpline
210
0.0
220
0.0
230
1.0
 70
     8
 71
     3
 72
    13
 73
     9
 74
     0
 42
0.0000000001
 43
0.0000000001
 40
-1.83258135608072
 40
-1.83258135608072
 40
-1.83258135608072
 40
-1.83258135608072
 40
-0.750510233115731
 40
-0.5672189493277444
 40
-0.4828690280123605
 40
-0.2443108918713642
 40
-0.1163337939371243
 40
0.0
 40
0.0
 40
0.0
 40
0.0
 10
-13.22328472354927
 20
0.429267031622143
 30
0.0
 10
-13.21533440039329
 20
0.7898405850234216
 30
0.0
 10
-13.2025091665798
 20
1.211528658082631
 30
0.0
 10
-13.19443594558863
 20
1.661268225296924
 30
0.0
 10
-13.18338032673707
 20
1.830020096093349
 30
0.0
 10
-13.10099654582271
 20
1.966768126584214
 30
0.0
 10
-12.96861491757254
 20
2.057218183732865
 30
0.0
 10
-12.88767892357314
 20
2.080693221901958
 30
0.0
 10
-12.85000000000006
 20
2.086000769603414
 30
0.0
  0
SPLINE
  5
DF
330
1F
100
AcDbEntity
  8
Make2D visible lines
100
AcDbSpline
210
0.0
220
0.0
230
1.0
 70
    24
 71
     2
 72
     6
 73
     3
 74
     0
 42
0.0000000001
 43
0.0000000001
 40
-10.36850216633574
 40
-10.36850216633574
 40
-10.36850216633574
 40
0.0
 40
0.0
 40
0.0
 10
-12.85000000000006
 20
2.086000769603414
 30
0.0
 10
-7.715000000000055
 20
2.798906298637399
 30
0.0
 10
-2.580000000000052
 20
3.511811827671384
 30
0.0
  0
SPLINE
  5
E0
330
1F
100
AcDbEntity
  8
Make2D visible lines
100
AcDbSpline
210
0.0
220
0.0
230
1.0
 70
    12
 71
     3
 72
     8
 73
     4
 74
     0
 42
0.0000000001
 43
0.0000000001
 40
0.0
 40
0.0
 40
0.0
 40
0.0
 40
0.9983344876344831
 40
0.9983344876344831
 40
0.9983344876344831
 40
0.9983344876344831
 10
-2.580000000000052
 20
3.511811827671384
 30
0.0
 41
1.0
 10
-2.129148709429085
 20
3.574404695741988
 30
0.0
 41
1.0
 10
-1.676765933652849
 20
3.64333701932616
 30
0.0
 41
1.0
 10
-1.222103194883235
 20
3.65726383948913
 30
0.0
 41
1.0
  0
SPLINE
  5
E1
330
1F
100
AcDbEntity
  8
Make2D visible lines
100
AcDbSpline
210
0.0
220
0.0
230
1.0
 70
     8
 71
     3
 72
     8
 73
     4
 74
     0
 42
0.0000000001
 43
0.0000000001
 40
0.0
 40
0.0
 40
0.0
 40
0.0
 40
0.3051876163662417
 40
0.3051876163662417
 40
0.3051876163662417
 40
0.3051876163662417
 10
-1.222103194883235
 20
3.65726383948913
 30
0.0
 10
-0.9735725872496357
 20
3.664876605573444
 30
0.0
 10
-0.7249352557815157
 20
3.670166049722532
 30
0.0
 10
-0.4762563420642089
 20
3.673132171936395
 30
0.0
  0
SPLINE
  5
E2
330
1F
100
AcDbEntity
  8
Make2D visible lines
100
AcDbSpline
210
0.0
220
0.0
230
1.0
 70
     8
 71
     3
 72
     8
 73
     4
 74
     0
 42
0.0000000001
 43
0.0000000001
 40
0.6950384688492743
 40
0.6950384688492743
 40
0.6950384688492743
 40
0.6950384688492743
 40
1.0
 40
1.0
 40
1.0
 40
1.0
 10
0.4768090114631614
 20
3.673125576136301
 30
0.0
 10
0.7253036404257046
 20
3.670158211529776
 30
0.0
 10
0.9737567005392187
 20
3.664870965980719
 30
0.0
 10
1.222103194883235
 20
3.65726383948913
 30
0.0
  0
SPLINE
  5
E3
330
1F
100
AcDbEntity
  8
Make2D visible lines
100
AcDbSpline
210
0.0
220
0.0
230
1.0
 70
    12
 71
     3
 72
     8
 73
     4
 74
     0
 42
0.0000000001
 43
0.0000000001
 40
-0.9983344876344831
 40
-0.9983344876344831
 40
-0.9983344876344831
 40
-0.9983344876344831
 40
0.0
 40
0.0
 40
0.0
 40
0.0
 10
1.222103194883235
 20
3.65726383948913
 30
0.0
 41
1.0
 10
1.676765933652849
 20
3.64333701932616
 30
0.0
 41
1.0
 10
2.129148709429085
 20
3.574404695741988
 30
0.0
 41
1.0
 10
2.580000000000052
 20
3.511811827671384
 30
0.0
 41
1.0
  0
SPLINE
  5
E4
330
1F
100
AcDbEntity
  8
Make2D visible lines
100
AcDbSpline
210
0.0
220
0.0
230
1.0
 70
    24
 71
     2
 72
     6
 73
     3
 74
     0
 42
0.0000000001
 43
0.0000000001
 40
0.0
 40
0.0
 40
0.0
 40
10.36850216633574
 40
10.36850216633574
 40
10.36850216633574
 10
2.580000000000052
 20
3.511811827671384
 30
0.0
 10
7.715000000000055
 20
2.798906298637399
 30
0.0
 10
12.85000000000006
 20
2.086000769603414
 30
0.0
  0
SPLINE
  5
E5
330
1F
100
AcDbEntity
  8
Make2D visible lines
100
AcDbSpline
210
0.0
220
0.0
230
1.0
 70
     8
 71
     3
 72
    13
 73
     9
 74
     0
 42
0.0000000001
 43
0.0000000001
 40
0.0
 40
0.0
 40
0.0
 40
0.0
 40
0.1163337939371243
 40
0.2443108918713642
 40
0.4828690280123605
 40
0.5672189493277444
 40
0.750510233115731
 40
1.83258135608072
 40
1.83258135608072
 40
1.83258135608072
 40
1.83258135608072
 10
12.85000000000006
 20
2.086000769603414
 30
0.0
 10
12.88767892357314
 20
2.080693221901958
 30
0.0
 10
12.96861491757254
 20
2.057218183732865
 30
0.0
 10
13.10099654582271
 20
1.966768126584214
 30
0.0
 10
13.18338032673707
 20
1.830020096093349
 30
0.0
 10
13.19443594558863
 20
1.661268225296924
 30
0.0
 10
13.2025091665798
 20
1.211528658082631
 30
0.0
 10
13.21533440039329
 20
0.7898405850234216
 30
0.0
 10
13.22328472354927
 20
0.429267031622143
 30
0.0
  0
SPLINE
  5
E6
330
1F
100
AcDbEntity
  8
Make2D visible lines - Tangent
100
AcDbSpline
210
0.0
220
0.0
230
1.0
 70
    12
 71
     2
 72
     6
 73
     3
 74
     0
 42
0.0000000001
 43
0.0000000001
 40
0.0
 40
0.0
 40
0.0
 40
0.0587632096241838
 40
0.0587632096241838
 40
0.0587632096241838
 10
0.0581358437700779
 20
53.15825195070984
 30
0.0
 41
1.0
 10
0.029537873752985
 20
53.1508621166768
 30
0.0
 41
0.9921107855315546
 10
0.0000005817660913
 20
53.15081831924298
 30
0.0
 41
1.0
  0
SPLINE
  5
E7
330
1F
100
AcDbEntity
  8
Make2D visible lines - Tangent
100
AcDbSpline
210
0.0
220
0.0
230
1.0
 70
    24
 71
     2
 72
     6
 73
     3
 74
     0
 42
0.0000000001
 43
0.0000000001
 40
0.0
 40
0.0
 40
0.0
 40
0.0114467396849787
 40
0.0114467396849787
 40
0.0114467396849787
 10
0.0000000000871161
 20
53.15081831924221
 30
0.0
 10
0.0000000026667664
 20
53.14509494939972
 30
0.0
 10
0.0000000052464166
 20
53.13937157955723
 30
0.0
  0
SPLINE
  5
E8
330
1F
100
AcDbEntity
  8
Make2D visible lines - Tangent
100
AcDbSpline
210
0.0
220
0.0
230
1.0
 70
    12
 71
     2
 72
     6
 73
     3
 74
     0
 42
0.0000000001
 43
0.0000000001
 40
0.0
 40
0.0
 40
0.0
 40
0.0586712320260919
 40
0.0586712320260919
 40
0.0586712320260919
 10
0.0000000000871161
 20
53.15081831924221
 30
0.0
 41
1.0
 10
-0.0294905925234669
 20
53.15086180044351
 30
0.0
 41
0.9921343149382713
 10
-0.0580461792410674
 20
53.15822898513996
 30
0.0
 41
1.0
  0
SPLINE
  5
E9
330
1F
100
AcDbEntity
  8
Make2D visible lines - Tangent
100
AcDbSpline
210
0.0
220
0.0
230
1.0
 70
    12
 71
     3
 72
     8
 73
     4
 74
     0
 42
0.0000000001
 43
0.0000000001
 40
0.0
 40
0.0
 40
0.0
 40
0.0
 40
0.7485252977771374
 40
0.7485252977771374
 40
0.7485252977771374
 40
0.7485252977771374
 10
-1.087974965098603
 20
7.333777840749014
 30
0.0
 41
1.0
 10
-1.08795422357794
 20
7.610627428485982
 30
0.0
 41
0.8689416359064603
 10
-1.228530999854747
 20
7.820448948771346
 30
0.0
 41
0.8767873884333912
 10
-1.435811815169476
 20
7.89934516098998
 30
0.0
 41
1.0
  0
SPLINE
  5
EA
330
1F
100
AcDbEntity
  8
Make2D visible lines - Tangent
100
AcDbSpline
210
0.0
220
0.0
230
1.0
 70
    12
 71
     2
 72
     6
 73
     3
 74
     0
 42
0.0000000001
 43
0.0000000001
 40
0.0
 40
0.0
 40
0.0
 40
0.0308046280168251
 40
0.0308046280168251
 40
0.0308046280168251
 10
-9.44598419310422
 20
10.94849961452236
 30
0.0
 41
1.0
 10
-9.461553906619582
 20
10.94817719742534
 30
0.0
 41
0.9836353730027907
 10
-9.47622706802109
 20
10.95339431024951
 30
0.0
 41
1.0
  0
SPLINE
  5
EB
330
1F
100
AcDbEntity
  8
Make2D visible lines
100
AcDbSpline
210
0.0
220
0.0
230
1.0
 70
    12
 71
     2
 72
     6
 73
     3
 74
     0
 42
0.0000000001
 43
0.0000000001
 40
0.0
 40
0.0
 40
0.0
 40
0.1386895252079068
 40
0.1386895252079068
 40
0.1386895252079068
 10
-1.354624701347504
 20
10.05722983915138
 30
0.0
 41
1.0
 10
-1.286703259670559
 20
10.08106939445078
 30
0.0
 41
0.9459069102561863
 10
-1.247712816708233
 20
10.14157883168127
 30
0.0
 41
1.0
  0
SPLINE
  5
EC
330
1F
100
AcDbEntity
  8
Make2D visible lines
100
AcDbSpline
210
0.0
220
0.0
230
1.0
 70
    24
 71
     2
 72
     6
 73
     3
 74
     0
 42
0.0000000001
 43
0.0000000001
 40
0.0
 40
0.0
 40
0.0
 40
0.0480073117461094
 40
0.0480073117461094
 40
0.0480073117461094
 10
48.74917314582385
 20
6.507000000000013
 30
0.0
 10
48.74875422426557
 20
6.483000000000012
 30
0.0
 10
48.74833530270729
 20
6.459000000000011
 30
0.0
  0
SPLINE
  5
ED
330
1F
100
AcDbEntity
  8
Default
100
AcDbSpline
210
0.0
220
0.0
230
1.0
 70
     8
 71
     3
 72
    19
 73
    15
 74
     0
 42
0.0000000001
 43
0.0000000001
 40
-12.0
 40
-12.0
 40
-12.0
 40
-12.0
 40
-10.99999994264151
 40
-9.999999885283016
 40
-8.999999827924523
 40
-7.99999977056603
 40
-6.999999713207538
 40
-5.999999655849044
 40
-4.999999598490552
 40
-3.99999954113206
 40
-2.999999483773567
 40
-1.999999426415075
 40
-0.9999993690565827
 40
0.0
 40
0.0
 40
0.0
 40
0.0
 10
9.579798477433119
 20
15.83998866480733
 30
0.0
 10
9.417039482098676
 20
16.06820893930055
 30
0.0
 10
8.874193032982522
 20
16.2181468416317
 30
0.0
 10
8.086768703993322
 20
16.36701331700093
 30
0.0
 10
7.280167103544427
 20
16.46673672415348
 30
0.0
 10
6.474585632316312
 20
16.54519069739817
 30
0.0
 10
5.666670408160801
 20
16.6068306315542
 30
0.0
 10
4.858185093227288
 20
16.65646706220297
 30
0.0
 10
4.049086443624999
 20
16.6961083285935
 30
0.0
 10
3.239632264798128
 20
16.72712504327658
 30
0.0
 10
2.429916509209613
 20
16.7504290912775
 30
0.0
 10
1.620031756911371
 20
16.76672377629098
 30
0.0
 10
0.8100413455233895
 20
16.77639429066468
 30
0.0
 10
0.2700137256778342
 20
16.77854383743639
 30
0.0
 10
0.0
 20
16.77854424083508
 30
0.0
  0
SPLINE
  5
EE
330
1F
100
AcDbEntity
  8
Default
100
AcDbSpline
210
0.0
220
0.0
230
1.0
 70
     8
 71
     3
 72
    19
 73
    15
 74
     0
 42
0.0000000001
 43
0.0000000001
 40
0.0
 40
0.0
 40
0.0
 40
0.0
 40
0.9999993690565827
 40
1.999999426415075
 40
2.999999483773567
 40
3.99999954113206
 40
4.999999598490552
 40
5.999999655849044
 40
6.999999713207538
 40
7.99999977056603
 40
8.999999827924523
 40
9.999999885283016
 40
10.99999994264151
 40
12.0
 40
12.0
 40
12.0
 40
12.0
 10
0.0
 20
16.77854424083508
 30
0.0
 10
-0.2700137256778342
 20
16.77854383743639
 30
0.0
 10
-0.8100413455233895
 20
16.77639429066468
 30
0.0
 10
-1.620031756911371
 20
16.76672377629098
 30
0.0
 10
-2.429916509209613
 20
16.7504290912775
 30
0.0
 10
-3.239632264798128
 20
16.72712504327658
 30
0.0
 10
-4.049086443624999
 20
16.6961083285935
 30
0.0
 10
-4.858185093227288
 20
16.65646706220297
 30
0.0
 10
-5.666670408160801
 20
16.6068306315542
 30
0.0
 10
-6.474585632316312
 20
16.54519069739817
 30
0.0
 10
-7.280167103544427
 20
16.46673672415348
 30
0.0
 10
-8.086768703993322
 20
16.36701331700093
 30
0.0
 10
-8.874193032982522
 20
16.2181468416317
 30
0.0
 10
-9.417039482098676
 20
16.06820893930055
 30
0.0
 10
-9.579798477433119
 20
15.83998866480733
 30
0.0
  0
SPLINE
  5
EF
330
1F
100
AcDbEntity
  8
Default
100
AcDbSpline
210
0.0
220
0.0
230
1.0
 70
     8
 71
     3
 72
    18
 73
    14
 74
     0
 42
0.0000000001
 43
0.0000000001
 40
0.0
 40
0.0
 40
0.0
 40
0.0
 40
0.9254853175734451
 40
1.981547862576412
 40
2.922780702466616
 40
5.202892339369122
 40
6.806635057358396
 40
7.075554889082884
 40
7.35175695964189
 40
8.926946182333468
 40
11.20019661017632
 40
12.15658972317423
 40
14.15002827629614
 40
14.15002827629614
 40
14.15002827629614
 40
14.15002827629614
 10
-7.072084197509799
 20
15.11183610737987
 30
0.0
 10
-6.764392542217433
 20
15.13410406648498
 30
0.0
 10
-6.104832697954772
 20
15.17079539244471
 30
0.0
 10
-5.131016061509472
 20
15.20169067885387
 30
0.0
 10
-3.70547023991605
 20
15.22857574458471
 30
0.0
 10
-2.097203934597269
 20
15.24861659043464
 30
0.0
 10
-0.7132462039742133
 20
15.27649572824028
 30
0.0
 10
0.0029658456222457
 20
15.28926012638704
 30
0.0
 10
0.7096718093917165
 20
15.27658823334753
 30
0.0
 10
2.084238426799125
 20
15.24911595422764
 30
0.0
 10
3.685781661831594
 20
15.22903589525841
 30
0.0
 10
5.426455250949559
 20
15.19626929342132
 30
0.0
 10
6.409254080656499
 20
15.15960166996527
 30
0.0
 10
7.072082199754316
 20
15.11183612327435
 30
0.0
  0
SPLINE
  5
F0
330
1F
100
AcDbEntity
  8
Default
100
AcDbSpline
210
0.0
220
0.0
230
1.0
 70
    12
 71
     2
 72
     6
 73
     3
 74
     0
 42
0.0000000001
 43
0.0000000001
 40
0.0
 40
0.0
 40
0.0
 40
0.0638453656619469
 40
0.0638453656619469
 40
0.0638453656619469
 10
-4.500000525700468
 20
11.27965688830291
 30
0.0
 41
1.0
 10
-4.500000143414471
 20
11.24773420547375
 30
0.0
 41
0.9999999999776903
 10
-4.499999334655723
 20
11.21581152265255
 30
0.0
 41
1.0
  0
SPLINE
  5
F1
330
1F
100
AcDbEntity
  8
Default
100
AcDbSpline
210
0.0
220
0.0
230
1.0
 70
     8
 71
     3
 72
    10
 73
     6
 74
     0
 42
0.0000000001
 43
0.0000000001
 40
0.0
 40
0.0
 40
0.0
 40
0.0
 40
1.0
 40
2.0
 40
3.0
 40
3.0
 40
3.0
 40
3.0
 10
9.451220845788054
 20
22.69233521369498
 30
0.0
 10
9.837165255510062
 20
22.64281918797241
 30
0.0
 10
10.60621124986806
 20
22.52385566715132
 30
0.0
 10
11.75054056906566
 20
22.28851433984493
 30
0.0
 10
12.49347058494109
 20
22.06351786835609
 30
0.0
 10
12.86603319568208
 20
21.95181302618192
 30
0.0
  0
SPLINE
  5
F2
330
1F
100
AcDbEntity
  8
Default
100
AcDbSpline
210
0.0
220
0.0
230
1.0
 70
     8
 71
     3
 72
    24
 73
    20
 74
     0
 42
0.0000000001
 43
0.0000000001
 40
-17.0
 40
-17.0
 40
-17.0
 40
-17.0
 40
-16.0
 40
-15.0
 40
-14.0
 40
-13.0
 40
-12.0
 40
-11.0
 40
-10.0
 40
-9.0
 40
-8.0
 40
-7.0
 40
-6.0
 40
-5.0
 40
-4.0
 40
-3.0
 40
-2.0
 40
-1.0
 40
0.0
 40
0.0
 40
0.0
 40
0.0
 10
12.86603319568208
 20
21.95181302618192
 30
0.0
 10
13.04831480642732
 20
21.83337642069122
 30
0.0
 10
13.01143174416587
 20
21.40250647236276
 30
0.0
 10
12.8551323070349
 20
20.86199979590396
 30
0.0
 10
12.62092293699034
 20
20.3271452897942
 30
0.0
 10
12.35657899154999
 20
19.8138860614967
 30
0.0
 10
12.09691471619011
 20
19.29651483806584
 30
0.0
 10
11.82037039949947
 20
18.78831868310185
 30
0.0
 10
11.52266792761303
 20
18.29209884254142
 30
0.0
 10
11.21026727563287
 20
17.80517591729002
 30
0.0
 10
10.88975410030301
 20
17.3233642744409
 30
0.0
 10
10.55151996505419
 20
16.85425889982136
 30
0.0
 10
10.19862732611481
 20
16.39443396448364
 30
0.0
 10
9.780956084325966
 20
15.9924180820179
 30
0.0
 10
9.324398863786229
 20
15.6354000904967
 30
0.0
 10
8.81211054372396
 20
15.36147088508136
 30
0.0
 10
8.264844316289777
 20
15.16987691570239
 30
0.0
 10
7.691505799970269
 20
15.07045336104563
 30
0.0
 10
7.304494249100342
 20
15.0919479000687
 30
0.0
 10
7.112618991909198
 20
15.10885882253634
 30
0.0
  0
SPLINE
  5
F3
330
1F
100
AcDbEntity
  8
Default
100
AcDbSpline
210
0.0
220
0.0
230
1.0
 70
     8
 71
     3
 72
    29
 73
    25
 74
     0
 42
0.0000000001
 43
0.0000000001
 40
0.0
 40
0.0
 40
0.0
 40
0.0
 40
1.0
 40
2.0
 40
3.0
 40
4.0
 40
5.0
 40
6.0
 40
7.0
 40
8.0
 40
9.0
 40
10.0
 40
11.0
 40
12.0
 40
13.0
 40
14.0
 40
15.0
 40
16.0
 40
17.0
 40
18.0
 40
19.0
 40
20.0
 40
21.0
 40
22.0
 40
22.0
 40
22.0
 40
22.0
 10
8.23962243951041
 20
79.00744540704358
 30
0.0
 10
8.40274495626053
 20
78.67829020027352
 30
0.0
 10
8.846441087630822
 20
78.09096724310493
 30
0.0
 10
9.518060267879417
 20
77.220584348872
 30
0.0
 10
10.21499581655715
 20
76.36861053985737
 30
0.0
 10
10.88072092153392
 20
75.49213958074776
 30
0.0
 10
11.46818480954773
 20
74.5603725061795
 30
0.0
 10
11.99132702451455
 20
73.59180365918925
 30
0.0
 10
12.4503425093555
 20
72.59116738369485
 30
0.0
 10
12.8556833519296
 20
71.56790286667717
 30
0.0
 10
13.21778537556887
 20
70.52857446682361
 30
0.0
 10
13.5358311416561
 20
69.47498970293077
 30
0.0
 10
13.81347850221864
 20
68.40993435182101
 30
0.0
 10
13.99897855244033
 20
67.32292274004752
 30
0.0
 10
13.95287168765478
 20
66.21238488295182
 30
0.0
 10
13.56975932525846
 20
65.16858087826351
 30
0.0
 10
12.94120685893805
 20
64.26036733527651
 30
0.0
 10
12.34112266995121
 20
63.33889848062688
 30
0.0
 10
11.6548879218046
 20
62.47682399519226
 30
0.0
 10
10.92652663593546
 20
61.65224731217407
 30
0.0
 10
10.19127658131435
 20
60.83353307208246
 30
0.0
 10
9.449478641972549
 20
60.02079281393968
 30
0.0
 10
8.679610159436134
 20
59.23407312703885
 30
0.0
 10
8.130107463158494
 20
58.74711530599489
 30
0.0
 10
7.843022721089124
 20
58.51875822030431
 30
0.0
  0
SPLINE
  5
F4
330
1F
100
AcDbEntity
  8
Default
100
AcDbSpline
210
0.0
220
0.0
230
1.0
 70
     8
 71
     3
 72
    23
 73
    19
 74
     0
 42
0.0000000001
 43
0.0000000001
 40
-16.0
 40
-16.0
 40
-16.0
 40
-16.0
 40
-14.99999934916018
 40
-13.99999869832036
 40
-12.99999804748054
 40
-11.99999739664072
 40
-10.99999674580089
 40
-9.999996094961073
 40
-8.999995444121252
 40
-7.999994793281431
 40
-6.99999414244161
 40
-5.999993491601789
 40
-4.999992840761967
 40
-3.999992189922146
 40
-2.999991539082325
 40
-1.999990888242504
 40
-0.9999902374026826
 40
0.0
 40
0.0
 40
0.0
 40
0.0
 10
8.232769958243583
 20
78.98845050853211
 30
0.0
 10
8.277585595093408
 20
79.25230375574262
 30
0.0
 10
8.364673077817073
 20
79.78100898817527
 30
0.0
 10
8.482322130234984
 20
80.57401932321528
 30
0.0
 10
8.58328484706771
 20
81.37604112121323
 30
0.0
 10
8.660030595260896
 20
82.15617119712158
 30
0.0
 10
8.7166609988807
 20
83.02961637182935
 30
0.0
 10
7.903275971878407
 20
83.42129556013757
 30
0.0
 10
7.159889115448687
 20
83.65266479309253
 30
0.0
 10
6.365469193396432
 20
83.8134790626288
 30
0.0
 10
5.579954519180776
 20
83.97086159481705
 30
0.0
 10
4.788957920412818
 20
84.11309248026225
 30
0.0
 10
3.996354921379865
 20
84.24182745100526
 30
0.0
 10
3.201171403750268
 20
84.35495304112646
 30
0.0
 10
2.403808875384621
 20
84.45109318179723
 30
0.0
 10
1.604472683002804
 20
84.5295036453391
 30
0.0
 10
0.803063200064049
 20
84.58357330167328
 30
0.0
 10
0.2677036283822681
 20
84.59745836761715
 30
0.0
 10
-0.0000000000000036
 20
84.59748850640543
 30
0.0
  0
SPLINE
  5
F5
330
1F
100
AcDbEntity
  8
Default
100
AcDbSpline
210
0.0
220
0.0
230
1.0
 70
     8
 71
     3
 72
    23
 73
    19
 74
     0
 42
0.0000000001
 43
0.0000000001
 40
0.0
 40
0.0
 40
0.0
 40
0.0
 40
0.9999902374026826
 40
1.999990888242504
 40
2.999991539082325
 40
3.999992189922146
 40
4.999992840761967
 40
5.999993491601789
 40
6.99999414244161
 40
7.999994793281431
 40
8.999995444121252
 40
9.999996094961073
 40
10.99999674580089
 40
11.99999739664072
 40
12.99999804748054
 40
13.99999869832036
 40
14.99999934916018
 40
16.0
 40
16.0
 40
16.0
 40
16.0
 10
-0.0000000000000036
 20
84.59748850640543
 30
0.0
 10
-0.2677036283822752
 20
84.59745836761715
 30
0.0
 10
-0.8030632000640561
 20
84.58357330167328
 30
0.0
 10
-1.604472683002811
 20
84.5295036453391
 30
0.0
 10
-2.403808875384629
 20
84.45109318179723
 30
0.0
 10
-3.201171403750275
 20
84.35495304112646
 30
0.0
 10
-3.996354921379873
 20
84.24182745100526
 30
0.0
 10
-4.788957920412825
 20
84.11309248026225
 30
0.0
 10
-5.579954519180784
 20
83.97086159481705
 30
0.0
 10
-6.365469193396439
 20
83.8134790626288
 30
0.0
 10
-7.159889115448694
 20
83.65266479309253
 30
0.0
 10
-7.903275971878414
 20
83.42129556013757
 30
0.0
 10
-8.716660998880707
 20
83.02961637182935
 30
0.0
 10
-8.660030595260903
 20
82.15617119712158
 30
0.0
 10
-8.583284847067716
 20
81.37604112121323
 30
0.0
 10
-8.48232213023499
 20
80.57401932321528
 30
0.0
 10
-8.36467307781708
 20
79.78100898817527
 30
0.0
 10
-8.277585595093415
 20
79.25230375574262
 30
0.0
 10
-8.23276995824359
 20
78.98845050853211
 30
0.0
  0
SPLINE
  5
F6
330
1F
100
AcDbEntity
  8
Default
100
AcDbSpline
210
0.0
220
0.0
230
1.0
 70
     8
 71
     3
 72
    12
 73
     8
 74
     0
 42
0.0000000001
 43
0.0000000001
 40
0.0
 40
0.0
 40
0.0
 40
0.0
 40
1.0
 40
2.0
 40
3.0
 40
4.0
 40
5.0
 40
5.0
 40
5.0
 40
5.0
 10
9.4512181760706
 20
75.67626992190324
 30
0.0
 10
9.797345424801993
 20
75.2567037727479
 30
0.0
 10
10.44007007848763
 20
74.37666967846135
 30
0.0
 10
11.24210967930118
 20
72.95252588469356
 30
0.0
 10
11.8908252597622
 20
71.45362715901331
 30
0.0
 10
12.43302314488835
 20
69.9138595496772
 30
0.0
 10
12.73731934062245
 20
68.86893965953749
 30
0.0
 10
12.86603052596463
 20
68.34039240267819
 30
0.0
  0
SPLINE
  5
F7
330
1F
100
AcDbEntity
  8
Default
100
AcDbSpline
210
0.0
220
0.0
230
1.0
 70
     8
 71
     3
 72
    10
 73
     6
 74
     0
 42
0.0000000001
 43
0.0000000001
 40
0.0
 40
0.0
 40
0.0
 40
0.0
 40
1.0
 40
2.0
 40
3.0
 40
3.0
 40
3.0
 40
3.0
 10
12.86603052596463
 20
68.34039240267819
 30
0.0
 10
12.94980216202142
 20
67.98911001211738
 30
0.0
 10
13.0429560839435
 20
67.26949903587904
 30
0.0
 10
12.97842522199879
 20
66.18382209157761
 30
0.0
 10
12.76484699918354
 20
65.48376145587193
 30
0.0
 10
12.5700103978808
 20
65.17743934773856
 30
0.0
  0
SPLINE
  5
F8
330
1F
100
AcDbEntity
  8
Default
100
AcDbSpline
210
0.0
220
0.0
230
1.0
 70
     8
 71
     3
 72
    10
 73
     6
 74
     0
 42
0.0000000001
 43
0.0000000001
 40
8.0
 40
8.0
 40
8.0
 40
8.0
 40
9.0
 40
10.0
 40
11.0
 40
11.0
 40
11.0
 40
11.0
 10
12.5700103978808
 20
65.17743934773856
 30
0.0
 10
12.2940883334557
 20
64.76388551827705
 30
0.0
 10
11.75931871481553
 20
63.92380910993702
 30
0.0
 10
10.82046644427075
 20
62.76179452768117
 30
0.0
 10
10.14247298568002
 20
62.0337967401966
 30
0.0
 10
9.808118829860664
 20
61.66567356087542
 30
0.0
  0
ARC
  5
F9
330
1F
100
AcDbEntity
  8
Default
100
AcDbCircle
 10
-2.119402611802399
 20
72.49904832961016
 30
0.0
 40
16.11296920561789
100
AcDbArc
 50
304.0531741729792
 51
317.7521659811159
  0
SPLINE
  5
FA
330
1F
100
AcDbEntity
  8
Make2D visible lines - Tangent
100
AcDbSpline
210
0.0
220
0.0
230
1.0
 70
     8
 71
     3
 72
    13
 73
     9
 74
     0
 42
0.0000000001
 43
0.0000000001
 40
1.228814286116176
 40
1.228814286116176
 40
1.228814286116176
 40
1.228814286116176
 40
2.0
 40
3.0
 40
4.0
 40
5.0
 40
6.0
 40
7.0
 40
7.0
 40
7.0
 40
7.0
 10
-13.84320672057242
 20
68.18651203652708
 30
0.0
 10
-13.88638194434331
 20
68.18956330989592
 30
0.0
 10
-13.98594572129442
 20
68.19107798899219
 30
0.0
 10
-14.14092549583694
 20
68.17443757887574
 30
0.0
 10
-14.30467129122237
 20
68.1329082148397
 30
0.0
 10
-14.45853882614888
 20
68.06241984066261
 30
0.0
 10
-14.58949831521466
 20
67.95231473280145
 30
0.0
 10
-14.63471851870946
 20
67.84430528755303
 30
0.0
 10
-14.63421101300253
 20
67.78762128991889
 30
0.0
  0
SPLINE
  5
FB
330
1F
100
AcDbEntity
  8
Make2D visible lines - Tangent
100
AcDbSpline
210
0.0
220
0.0
230
1.0
 70
     8
 71
     3
 72
    13
 73
     9
 74
     0
 42
0.0000000001
 43
0.0000000001
 40
-7.0
 40
-7.0
 40
-7.0
 40
-7.0
 40
-6.0
 40
-5.0
 40
-4.0
 40
-3.0
 40
-2.0
 40
-1.897225830095242
 40
-1.897225830095242
 40
-1.897225830095242
 40
-1.897225830095242
 10
-14.63421101300253
 20
67.78762128991889
 30
0.0
 10
-14.63471851870946
 20
67.73093729228476
 30
0.0
 10
-14.58949831521466
 20
67.62292784703632
 30
0.0
 10
-14.45853882614888
 20
67.51282273917518
 30
0.0
 10
-14.30467129122237
 20
67.44233436499809
 30
0.0
 10
-14.14092549583694
 20
67.40080500096204
 30
0.0
 10
-14.02332692958678
 20
67.38817826707188
 30
0.0
 10
-13.96145631434322
 20
67.38626644768819
 30
0.0
 10
-13.95568914757095
 20
67.38612939251108
 30
0.0
  0
SPLINE
  5
FC
330
1F
100
AcDbEntity
  8
Make2D visible lines - Tangent
100
AcDbSpline
210
0.0
220
0.0
230
1.0
 70
     8
 71
     3
 72
    12
 73
     8
 74
     0
 42
0.0000000001
 43
0.0000000001
 40
0.0233213089280674
 40
0.0233213089280674
 40
0.0233213089280674
 40
0.0233213089280674
 40
0.1510110321465192
 40
0.3037660471064116
 40
0.5900965017365678
 40
0.8249401141264362
 40
1.014583801502342
 40
1.014583801502342
 40
1.014583801502342
 40
1.014583801502342
 10
-13.84223305758102
 20
68.19151752826778
 30
0.0
 10
-13.88466971118392
 20
68.19488529258582
 30
0.0
 10
-13.97818006565964
 20
68.19752158078902
 30
0.0
 10
-14.16686403542259
 20
68.18098993052618
 30
0.0
 10
-14.38500731013345
 20
68.12053759401425
 30
0.0
 10
-14.58586207458907
 20
67.98578976608955
 30
0.0
 10
-14.650606600815
 20
67.85197252975533
 30
0.0
 10
-14.6493531211261
 20
67.78762178647897
 30
0.0
  0
SPLINE
  5
FD
330
1F
100
AcDbEntity
  8
Make2D visible lines - Tangent
100
AcDbSpline
210
0.0
220
0.0
230
1.0
 70
     8
 71
     3
 72
    12
 73
     8
 74
     0
 42
0.0000000001
 43
0.0000000001
 40
-1.014583801502342
 40
-1.014583801502342
 40
-1.014583801502342
 40
-1.014583801502342
 40
-0.8249401141264362
 40
-0.5900965017365678
 40
-0.3037660471064116
 40
-0.1510110321465192
 40
-0.1373714078112775
 40
-0.1373714078112775
 40
-0.1373714078112775
 40
-0.1373714078112775
 10
-14.6493531211261
 20
67.78762178647897
 30
0.0
 10
-14.650606600815
 20
67.7232710432026
 30
0.0
 10
-14.58586207458907
 20
67.58945380686838
 30
0.0
 10
-14.38500731013345
 20
67.45470597894368
 30
0.0
 10
-14.16686403542259
 20
67.39425364243175
 30
0.0
 10
-14.01614825072171
 20
67.38104859568139
 30
0.0
 10
-13.96070202602576
 20
67.38000290336458
 30
0.0
 10
-13.95615687118388
 20
67.37994268025074
 30
0.0
  0
SPLINE
  5
FE
330
1F
100
AcDbEntity
  8
Make2D visible lines - Tangent
100
AcDbSpline
210
0.0
220
0.0
230
1.0
 70
     8
 71
     3
 72
    13
 73
     9
 74
     0
 42
0.0000000001
 43
0.0000000001
 40
1.897225376310333
 40
1.897225376310333
 40
1.897225376310333
 40
1.897225376310333
 40
2.0
 40
3.0
 40
4.0
 40
5.0
 40
6.0
 40
7.0
 40
7.0
 40
7.0
 40
7.0
 10
13.95568907117859
 20
67.38613039530281
 30
0.0
 10
13.96145626342444
 20
67.38626745072196
 30
0.0
 10
14.02332690420865
 20
67.38817926895415
 30
0.0
 10
14.14092549583693
 20
67.40080600556922
 30
0.0
 10
14.30467129122236
 20
67.44233536960526
 30
0.0
 10
14.45853882614887
 20
67.51282374378235
 30
0.0
 10
14.58949831521465
 20
67.62292885164351
 30
0.0
 10
14.63471851870945
 20
67.73093829689194
 30
0.0
 10
14.63421101300252
 20
67.78762229452607
 30
0.0
  0
SPLINE
  5
FF
330
1F
100
AcDbEntity
  8
Make2D visible lines - Tangent
100
AcDbSpline
210
0.0
220
0.0
230
1.0
 70
     8
 71
     3
 72
    13
 73
     9
 74
     0
 42
0.0000000001
 43
0.0000000001
 40
-7.0
 40
-7.0
 40
-7.0
 40
-7.0
 40
-6.0
 40
-5.0
 40
-4.0
 40
-3.0
 40
-2.0
 40
-1.228813139962753
 40
-1.228813139962753
 40
-1.228813139962753
 40
-1.228813139962753
 10
14.63421101300252
 20
67.78762229452607
 30
0.0
 10
14.63471851870945
 20
67.8443062921602
 30
0.0
 10
14.58949831521465
 20
67.95231573740864
 30
0.0
 10
14.45853882614887
 20
68.06242084526978
 30
0.0
 10
14.30467129122236
 20
68.13290921944687
 30
0.0
 10
14.14092549583693
 20
68.17443858348292
 30
0.0
 10
13.98594565719528
 20
68.19107900048176
 30
0.0
 10
13.8863818154857
 20
68.18956431254274
 30
0.0
 10
13.84320652806847
 20
68.1865130275296
 30
0.0
  0
SPLINE
  5
100
330
1F
100
AcDbEntity
  8
Make2D visible lines - Tangent
100
AcDbSpline
210
0.0
220
0.0
230
1.0
 70
     8
 71
     3
 72
    12
 73
     8
 74
     0
 42
0.0000000001
 43
0.0000000001
 40
0.1373714069500897
 40
0.1373714069500897
 40
0.1373714069500897
 40
0.1373714069500897
 40
0.1510110321465192
 40
0.3037660471064116
 40
0.5900965017365678
 40
0.8249401141264362
 40
1.014583801502342
 40
1.014583801502342
 40
1.014583801502342
 40
1.014583801502342
 10
13.95615687032295
 20
67.37994269172636
 30
0.0
 10
13.96070202545182
 20
67.38000291484079
 30
0.0
 10
14.016148250435
 20
67.3810486071433
 30
0.0
 10
14.16686403542258
 20
67.39425365391878
 30
0.0
 10
14.38500731013344
 20
67.45470599043071
 30
0.0
 10
14.58586207458906
 20
67.58945381835541
 30
0.0
 10
14.65060660081499
 20
67.72327105468963
 30
0.0
 10
14.64935312112609
 20
67.787621797966
 30
0.0
  0
SPLINE
  5
101
330
1F
100
AcDbEntity
  8
Make2D visible lines - Tangent
100
AcDbSpline
210
0.0
220
0.0
230
1.0
 70
     8
 71
     3
 72
    12
 73
     8
 74
     0
 42
0.0000000001
 43
0.0000000001
 40
-1.014583801502342
 40
-1.014583801502342
 40
-1.014583801502342
 40
-1.014583801502342
 40
-0.8249401141264362
 40
-0.5900965017365678
 40
-0.3037660471064116
 40
-0.1510110321465192
 40
-0.0233213067180476
 40
-0.0233213067180476
 40
-0.0233213067180476
 40
-0.0233213067180476
 10
14.64935312112609
 20
67.787621797966
 30
0.0
 10
14.65060660081499
 20
67.85197254124236
 30
0.0
 10
14.58586207458906
 20
67.98578977757658
 30
0.0
 10
14.38500731013344
 20
68.12053760550128
 30
0.0
 10
14.16686403542258
 20
68.18098994201321
 30
0.0
 10
13.9781800649239
 20
68.19752159234051
 30
0.0
 10
13.88466970971011
 20
68.1948853040313
 30
0.0
 10
13.84223305537756
 20
68.19151753957993
 30
0.0
  0
SPLINE
  5
102
330
1F
100
AcDbEntity
  8
Make2D visible lines - Tangent
100
AcDbSpline
210
0.0
220
0.0
230
1.0
 70
    12
 71
     2
 72
     6
 73
     3
 74
     0
 42
0.0000000001
 43
0.0000000001
 40
-1.285009379341759
 40
-1.285009379341759
 40
-1.285009379341759
 40
0.0
 40
0.0
 40
0.0
 10
0.383470502204767
 20
55.70154376635735
 30
0.0
 41
0.9999999993052572
 10
0.3763455131731533
 20
55.05867098816942
 30
0.0
 41
0.9999999996056131
 10
0.3692291087560229
 20
54.4157429486966
 30
0.0
 41
1.0
  0
SPLINE
  5
103
330
1F
100
AcDbEntity
  8
Make2D visible lines - Tangent
100
AcDbSpline
210
0.0
220
0.0
230
1.0
 70
     8
 71
     3
 72
    14
 73
    10
 74
     0
 42
0.0000000001
 43
0.0000000001
 40
0.0
 40
0.0
 40
0.0
 40
0.0
 40
1.0
 40
2.0
 40
3.0
 40
4.0
 40
5.0
 40
6.0
 40
7.0
 40
7.0
 40
7.0
 40
7.0
 10
0.3692291087560229
 20
54.4157429486966
 30
0.0
 10
0.3681792200333033
 20
54.34543733565156
 30
0.0
 10
0.3478821534581585
 20
54.21280139324637
 30
0.0
 10
0.2620972967860562
 20
54.03042422145596
 30
0.0
 10
0.1027023299644065
 20
53.89561317869023
 30
0.0
 10
-0.1104851349790182
 20
53.8989904929804
 30
0.0
 10
-0.2666415048182441
 20
54.03696180637837
 30
0.0
 10
-0.3500621393612435
 20
54.22035108182995
 30
0.0
 10
-0.3689701568728728
 20
54.35318838386375
 30
0.0
 10
-0.3690000000011257
 20
54.41962179222249
 30
0.0
  0
SPLINE
  5
104
330
1F
100
AcDbEntity
  8
Make2D visible lines - Tangent
100
AcDbSpline
210
0.0
220
0.0
230
1.0
 70
    12
 71
     2
 72
     6
 73
     3
 74
     0
 42
0.0000000001
 43
0.0000000001
 40
0.0
 40
0.0
 40
0.0
 40
1.282058153156399
 40
1.282058153156399
 40
1.282058153156399
 10
-0.3690000000011257
 20
54.41962179222249
 30
0.0
 41
1.0
 10
-0.3760676273319952
 20
55.06061190531296
 30
0.0
 41
0.9999999996065189
 10
-0.3831476574166054
 20
55.70160188152929
 30
0.0
 41
0.9999999993066373
  0
SPLINE
  5
105
330
1F
100
AcDbEntity
  8
Make2D visible lines
100
AcDbSpline
210
0.0
220
0.0
230
1.0
 70
    24
 71
     2
 72
     6
 73
     3
 74
     0
 42
0.0000000001
 43
0.0000000001
 40
0.0
 40
0.0
 40
0.0
 40
0.4463586863427782
 40
0.4463586863427782
 40
0.4463586863427782
 10
-1.289999999999999
 20
10.09404148372123
 30
0.0
 10
-1.289999999999999
 20
10.31722082689262
 30
0.0
 10
-1.289999999999999
 20
10.54040017006401
 30
0.0
  0
SPLINE
  5
106
330
1F
100
AcDbEntity
  8
Make2D visible lines
100
AcDbSpline
210
0.0
220
0.0
230
1.0
 70
    12
 71
     2
 72
     6
 73
     3
 74
     0
 42
0.0000000001
 43
0.0000000001
 40
0.0
 40
0.0
 40
0.0
 40
0.5030916309596009
 40
0.5030916309596009
 40
0.5030916309596009
 10
-1.289999999999999
 20
10.54040017006401
 30
0.0
 41
1.0
 10
-1.290016121506839
 20
10.80455154022166
 30
0.0
 41
0.9202434346574274
 10
-1.464543282694518
 20
11.00287117299211
 30
0.0
 41
0.9674086948981813
  0
SPLINE
  5
107
330
1F
100
AcDbEntity
  8
Make2D visible lines
100
AcDbSpline
210
0.0
220
0.0
230
1.0
 70
    12
 71
     2
 72
     6
 73
     3
 74
     0
 42
0.0000000001
 43
0.0000000001
 40
0.1291878439604294
 40
0.1291878439604294
 40
0.1291878439604294
 40
0.6322790145841365
 40
0.6322790145841365
 40
0.6322790145841365
 10
1.464539998246811
 20
11.00287106702952
 30
0.0
 41
0.9674049622675811
 10
1.290009958598193
 20
10.80455258120984
 30
0.0
 41
0.9202356905031281
 10
1.289999999999999
 20
10.54040017006401
 30
0.0
 41
1.0
  0
SPLINE
  5
108
330
1F
100
AcDbEntity
  8
Make2D visible lines
100
AcDbSpline
210
0.0
220
0.0
230
1.0
 70
    24
 71
     2
 72
     6
 73
     3
 74
     0
 42
0.0000000001
 43
0.0000000001
 40
0.0
 40
0.0
 40
0.0
 40
4.033400170063998
 40
4.033400170063998
 40
4.033400170063998
 10
1.289999999999999
 20
10.54040017006401
 30
0.0
 10
1.29
 20
8.522700085032014
 30
0.0
 10
1.29
 20
6.505000000000015
 30
0.0
  0
SPLINE
  5
109
330
1F
100
AcDbEntity
  8
Make2D visible lines
100
AcDbSpline
210
0.0
220
0.0
230
1.0
 70
    24
 71
     2
 72
     6
 73
     3
 74
     0
 42
0.0000000001
 43
0.0000000001
 40
-2.579999999999997
 40
-2.579999999999997
 40
-2.579999999999997
 40
0.0
 40
0.0
 40
0.0
 10
1.29
 20
6.505000000000015
 30
0.0
 10
0.0000000000000013
 20
6.505000000000015
 30
0.0
 10
-1.289999999999997
 20
6.505000000000015
 30
0.0
  0
SPLINE
  5
10A
330
1F
100
AcDbEntity
  8
Make2D visible lines
100
AcDbSpline
210
0.0
220
0.0
230
1.0
 70
    24
 71
     2
 72
     6
 73
     3
 74
     0
 42
0.0000000001
 43
0.0000000001
 40
0.0
 40
0.0
 40
0.0
 40
1.245843365086012
 40
1.245843365086012
 40
1.245843365086012
 10
-1.289999999999997
 20
6.505000000000015
 30
0.0
 10
-1.289999999999998
 20
7.12892168254302
 30
0.0
 10
-1.289999999999999
 20
7.752843365086025
 30
0.0
  0
SPLINE
  5
10B
330
1F
100
AcDbEntity
  8
Make2D visible lines
100
AcDbSpline
210
0.0
220
0.0
230
1.0
 70
    24
 71
     2
 72
     6
 73
     3
 74
     0
 42
0.0000000001
 43
0.0000000001
 40
2.467690004424522
 40
2.467690004424522
 40
2.467690004424522
 40
4.033400170063998
 40
4.033400170063998
 40
4.033400170063998
 10
51.23910332556456
 20
8.073486537980253
 30
0.0
 10
51.23910332556456
 20
7.290243268990133
 30
0.0
 10
51.23910332556456
 20
6.507000000000012
 30
0.0
  0
POLYLINE
  5
10C
330
1F
100
AcDbEntity
  8
Make2D visible lines
100
AcDb2dPolyline
 66
     1
 10
0.0
 20
0.0
 30
0.0
  0
VERTEX
  5
10D
330
10C
100
AcDbEntity
  8
Make2D visible lines
100
AcDbVertex
100
AcDb2dVertex
 10
51.23910332556456
 20
6.507000000000012
 30
0.0
  0
VERTEX
  5
10E
330
10C
100
AcDbEntity
  8
Make2D visible lines
100
AcDbVertex
100
AcDb2dVertex
 10
48.65910332556457
 20
6.507000000000012
 30
0.0
  0
SEQEND
  5
10F
330
10C
100
AcDbEntity
  8
Make2D visible lines
  0
LINE
  5
110
330
1F
100
AcDbEntity
  8
Make2D visible lines
100
AcDbLine
 10
48.65910332556457
 20
6.507000000000012
 30
0.0
 11
48.65910332556457
 21
10.54240017006401
 31
0.0
  0
SPLINE
  5
111
330
1F
100
AcDbEntity
  8
Make2D visible lines
100
AcDbSpline
210
0.0
220
0.0
230
1.0
 70
    12
 71
     2
 72
     6
 73
     3
 74
     0
 42
0.0000000001
 43
0.0000000001
 40
0.0
 40
0.0
 40
0.0
 40
0.5052834962411948
 40
0.5052834962411948
 40
0.5052834962411948
 10
48.65910332556457
 20
10.54240017006401
 30
0.0
 41
1.0
 10
48.6590871277034
 20
10.80780260824771
 30
0.0
 41
0.9198959519409685
 10
48.48311117059081
 20
11.00651238288282
 30
0.0
 41
0.9678220824800523
  0
SPLINE
  5
112
330
1F
100
AcDbEntity
  8
Make2D visible lines
100
AcDbSpline
210
0.0
220
0.0
230
1.0
 70
    24
 71
     2
 72
     6
 73
     3
 74
     0
 42
0.0000000001
 43
0.0000000001
 40
0.7188655066837502
 40
0.7188655066837502
 40
0.7188655066837502
 40
0.8793882784309069
 40
0.8793882784309069
 40
0.8793882784309069
 10
51.63198248771073
 20
11.19160978545276
 30
0.0
 10
51.56889130225878
 20
11.14189055735048
 30
0.0
 10
51.50580011680684
 20
11.0921713292482
 30
0.0
  0
SPLINE
  5
113
330
1F
100
AcDbEntity
  8
Make2D visible lines
100
AcDbSpline
210
0.0
220
0.0
230
1.0
 70
    12
 71
     2
 72
     6
 73
     3
 74
     0
 42
0.0000000001
 43
0.0000000001
 40
0.0
 40
0.0
 40
0.0
 40
0.6322790145841365
 40
0.6322790145841365
 40
0.6322790145841365
 10
51.50580011680684
 20
11.0921713292482
 30
0.0
 41
1.0
 10
51.23911612633101
 20
10.88194126350768
 30
0.0
 41
0.8997531621452598
 10
51.23910332556456
 20
10.54240017006401
 30
0.0
 41
1.0
  0
SPLINE
  5
114
330
1F
100
AcDbEntity
  8
Make2D visible lines
100
AcDbSpline
210
0.0
220
0.0
230
1.0
 70
    24
 71
     2
 72
     6
 73
     3
 74
     0
 42
0.0000000001
 43
0.0000000001
 40
0.0
 40
0.0
 40
0.0
 40
0.3018629644594117
 40
0.3018629644594117
 40
0.3018629644594117
 10
51.23910332556456
 20
10.54240017006401
 30
0.0
 10
51.23910332556456
 20
10.39139384701719
 30
0.0
 10
51.23910332556456
 20
10.24038752397038
 30
0.0
  0
SPLINE
  5
115
330
1F
100
AcDbEntity
  8
Default
100
AcDbSpline
210
0.0
220
0.0
230
1.0
 70
     8
 71
     3
 72
    12
 73
     8
 74
     0
 42
0.0000000001
 43
0.0000000001
 40
0.0
 40
0.0
 40
0.0
 40
0.0
 40
1.0
 40
2.0
 40
3.0
 40
4.0
 40
5.0
 40
5.0
 40
5.0
 40
5.0
 10
-9.451218176070608
 20
75.67626992190324
 30
0.0
 10
-9.797345424802
 20
75.2567037727479
 30
0.0
 10
-10.44007007848763
 20
74.37666967846135
 30
0.0
 10
-11.24210967930118
 20
72.95252588469356
 30
0.0
 10
-11.89082525976221
 20
71.45362715901331
 30
0.0
 10
-12.43302314488836
 20
69.9138595496772
 30
0.0
 10
-12.73731934062246
 20
68.86893965953749
 30
0.0
 10
-12.86603052596463
 20
68.34039240267819
 30
0.0
  0
SPLINE
  5
116
330
1F
100
AcDbEntity
  8
Default
100
AcDbSpline
210
0.0
220
0.0
230
1.0
 70
     8
 71
     3
 72
     9
 73
     5
 74
     0
 42
0.0000000001
 43
0.0000000001
 40
0.0
 40
0.0
 40
0.0
 40
0.0
 40
1.0
 40
1.594850239419803
 40
1.594850239419803
 40
1.594850239419803
 40
1.594850239419803
 10
-12.86603052596463
 20
68.34039240267819
 30
0.0
 10
-12.94980216202143
 20
67.98911001211738
 30
0.0
 10
-13.02408543936159
 20
67.41527414324597
 30
0.0
 10
-13.01177714891397
 20
66.83878430324596
 30
0.0
 10
-12.99333086010742
 20
66.62486284592951
 30
0.0
  0
SPLINE
  5
117
330
1F
100
AcDbEntity
  8
Default
100
AcDbSpline
210
0.0
220
0.0
230
1.0
 70
     8
 71
     3
 72
     9
 73
     5
 74
     0
 42
0.0000000001
 43
0.0000000001
 40
8.181805200341758
 40
8.181805200341758
 40
8.181805200341758
 40
8.181805200341758
 40
11.11625269817008
 40
14.89017125660395
 40
14.89017125660395
 40
14.89017125660395
 40
14.89017125660395
 10
-6.201344536722736
 20
58.51535131518287
 30
0.0
 10
-5.443689277070601
 20
57.89692030915581
 30
0.0
 10
-3.494062621395325
 20
56.7489134859093
 30
0.0
 10
-1.257977788642025
 20
56.31989530983398
 30
0.0
 10
-0.0000040930207623
 20
56.31967508287326
 30
0.0
  0
SPLINE
  5
118
330
1F
100
AcDbEntity
  8
Default
100
AcDbSpline
210
0.0
220
0.0
230
1.0
 70
     8
 71
     3
 72
    12
 73
     8
 74
     0
 42
0.0000000001
 43
0.0000000001
 40
0.0
 40
0.0
 40
0.0
 40
0.0
 40
1.889355098582429
 40
3.774519559296819
 40
7.516682166840944
 40
11.21816918271821
 40
14.89017237659324
 40
14.89017237659324
 40
14.89017237659324
 40
14.89017237659324
 10
-0.0000040930207623
 20
56.31967508287326
 30
0.0
 10
0.6297291769202022
 20
56.31974285086596
 30
0.0
 10
1.887977395006393
 20
56.4407562756715
 30
0.0
 10
4.303044258484608
 20
57.14845661300588
 30
0.0
 10
6.966152695982924
 20
58.86533058055281
 30
0.0
 10
9.11815856211718
 20
61.9721532103562
 30
0.0
 10
9.6253115572407
 20
64.42934865371721
 30
0.0
 10
9.62498349624916
 20
65.65351494759642
 30
0.0
  0
SPLINE
  5
119
330
1F
100
AcDbEntity
  8
Default
100
AcDbSpline
210
0.0
220
0.0
230
1.0
 70
     8
 71
     3
 72
    12
 73
     8
 74
     0
 42
0.0000000001
 43
0.0000000001
 40
-15.35241646788361
 40
-15.35241646788361
 40
-15.35241646788361
 40
-15.35241646788361
 40
-11.42846722997082
 40
-7.624448880970329
 40
-3.868777336844833
 40
-1.918304869189328
 40
0.0
 40
0.0
 40
0.0
 40
0.0
 10
9.62498349624916
 20
65.65351494759642
 30
0.0
 10
9.625004589794578
 20
66.96089797163414
 30
0.0
 10
9.159538007618405
 20
69.54270400572958
 30
0.0
 10
7.055058264386574
 20
72.83239912271927
 30
0.0
 10
4.375150459355172
 20
74.64710546757317
 30
0.0
 10
1.929222025579866
 20
75.38119045845875
 30
0.0
 10
0.6393698799696317
 20
75.506000745324
 30
0.0
 10
-0.0000032997138906
 20
75.50547008757474
 30
0.0
  0
SPLINE
  5
11A
330
1F
100
AcDbEntity
  8
Default
100
AcDbSpline
210
0.0
220
0.0
230
1.0
 70
     8
 71
     3
 72
    12
 73
     8
 74
     0
 42
0.0000000001
 43
0.0000000001
 40
-15.34910747496398
 40
-15.34910747496398
 40
-15.34910747496398
 40
-15.34910747496398
 40
-11.5840058662532
 40
-7.773657509622694
 40
-3.93663731821901
 40
-1.971105179282632
 40
0.0
 40
0.0
 40
0.0
 40
0.0
 10
-0.0000032997138906
 20
75.50547008757474
 30
0.0
 10
-1.254423806570168
 20
75.50516640704265
 30
0.0
 10
-3.783415680682598
 20
75.03008670496007
 30
0.0
 10
-7.019270181806395
 20
72.87806413527372
 30
0.0
 10
-8.791085822153214
 20
70.1290985237398
 30
0.0
 10
-9.505190731923022
 20
67.62683736199156
 30
0.0
 10
-9.62522835630778
 20
66.31402305328128
 30
0.0
 10
-9.624984504881025
 20
65.65517832903822
 30
0.0
  0
SPLINE
  5
11B
330
1F
100
AcDbEntity
  8
Default
100
AcDbSpline
210
0.0
220
0.0
230
1.0
 70
     8
 71
     3
 72
     8
 73
     4
 74
     0
 42
0.0000000001
 43
0.0000000001
 40
0.0
 40
0.0
 40
0.0
 40
0.0
 40
0.3343350160628103
 40
0.3343350160628103
 40
0.3343350160628103
 40
0.3343350160628103
 10
-9.624984504881025
 20
65.65517832903822
 30
0.0
 10
-9.624992384602292
 20
65.54333438908598
 30
0.0
 10
-9.622911548101566
 20
65.43157560674942
 30
0.0
 10
-9.618758720215874
 20
65.3199597044223
 30
0.0
  0
SPLINE
  5
11C
330
1F
100
AcDbEntity
  8
Default
100
AcDbSpline
210
0.0
220
0.0
230
1.0
 70
     8
 71
     3
 72
    12
 73
     8
 74
     0
 42
0.0000000001
 43
0.0000000001
 40
-14.53163356043369
 40
-14.53163356043369
 40
-14.53163356043369
 40
-14.53163356043369
 40
-11.7692665204822
 40
-7.88873615923726
 40
-4.023995779131863
 40
-2.0366405286363
 40
0.0
 40
0.0
 40
0.0
 40
0.0
 10
-6.311768081292455
 20
57.47447650657239
 30
0.0
 10
-5.519265864264068
 20
57.00446401464406
 30
0.0
 10
-3.501180845287304
 20
56.06411596054713
 30
0.0
 10
0.0005632692221056
 20
55.47982745365459
 30
0.0
 10
3.24389856127986
 20
56.02145590986097
 30
0.0
 10
5.66747198182405
 20
57.05989307989108
 30
0.0
 10
6.813292512616471
 20
57.76423687065678
 30
0.0
 10
7.363823428930184
 20
58.16359851838908
 30
0.0
  0
SPLINE
  5
11D
330
1F
100
AcDbEntity
  8
Default
100
AcDbSpline
210
0.0
220
0.0
230
1.0
 70
     8
 71
     3
 72
    19
 73
    15
 74
     0
 42
0.0000000001
 43
0.0000000001
 40
0.0
 40
0.0
 40
0.0
 40
0.0
 40
1.0
 40
2.0
 40
3.0
 40
4.0
 40
5.0
 40
6.0
 40
7.0
 40
8.0
 40
9.0
 40
10.0
 40
11.0
 40
12.0
 40
12.0
 40
12.0
 40
12.0
 10
7.363823428930184
 20
58.16359851838908
 30
0.0
 10
7.566061248587078
 20
58.30883270564692
 30
0.0
 10
7.959580540354479
 20
58.61057576979908
 30
0.0
 10
8.515620253197854
 20
59.10435650752155
 30
0.0
 10
9.044911177287657
 20
59.62642637987376
 30
0.0
 10
9.555671359509073
 20
60.16651282032161
 30
0.0
 10
10.0537702000633
 20
60.71821901521176
 30
0.0
 10
10.54837687268894
 20
61.27304839653175
 30
0.0
 10
11.04012789961341
 20
61.83035781704268
 30
0.0
 10
11.52932181697256
 20
62.3900765889341
 30
0.0
 10
11.99343542139107
 20
62.97084162406492
 30
0.0
 10
12.43440403119571
 20
63.56951691501188
 30
0.0
 10
12.83980631003764
 20
64.19268417186348
 30
0.0
 10
13.10529441578214
 20
64.61103610966848
 30
0.0
 10
13.23921679424999
 20
64.81949695865092
 30
0.0
  0
SPLINE
  5
11E
330
1F
100
AcDbEntity
  8
Default
100
AcDbSpline
210
0.0
220
0.0
230
1.0
 70
    12
 71
     3
 72
    11
 73
     7
 74
     0
 42
0.0000000001
 43
0.0000000001
 40
-1.0
 40
-1.0
 40
-1.0
 40
-1.0
 40
-0.7499996413009
 40
-0.4999997608673
 40
-0.2499998804336
 40
0.0
 40
0.0
 40
0.0
 40
0.0
 10
13.23921679424999
 20
64.81949695865092
 30
0.0
 41
1.0
 10
13.37137269554725
 20
65.02885784774145
 30
0.0
 41
1.0
 10
13.62821890379984
 20
65.50872560679309
 30
0.0
 41
1.0
 10
13.84296345425543
 20
66.42425018843349
 30
0.0
 41
1.0
 10
13.82486948920895
 20
67.45758294436811
 30
0.0
 41
1.0
 10
13.68640444013618
 20
68.1702473424468
 30
0.0
 41
1.0
 10
13.60476422166439
 20
68.52461762845574
 30
0.0
 41
1.0
  0
SPLINE
  5
11F
330
1F
100
AcDbEntity
  8
Default
100
AcDbSpline
210
0.0
220
0.0
230
1.0
 70
     8
 71
     3
 72
    19
 73
    15
 74
     0
 42
0.0000000001
 43
0.0000000001
 40
0.0
 40
0.0
 40
0.0
 40
0.0
 40
1.0
 40
2.0
 40
3.0
 40
4.0
 40
5.0
 40
6.0
 40
7.0
 40
8.0
 40
9.0
 40
10.0
 40
11.0
 40
12.0
 40
12.0
 40
12.0
 40
12.0
 10
13.60476422166439
 20
68.52461762845574
 30
0.0
 10
13.52899773807025
 20
68.844542502287
 30
0.0
 10
13.36420112438458
 20
69.48129354710505
 30
0.0
 10
13.07524566197992
 20
70.42454884194876
 30
0.0
 10
12.753998618172
 20
71.35725463720664
 30
0.0
 10
12.39835222201492
 20
72.27747988891221
 30
0.0
 10
11.99910702042509
 20
73.1797499507214
 30
0.0
 10
11.55091197498813
 20
74.05889458216006
 30
0.0
 10
11.05025022626817
 20
74.909091838032
 30
0.0
 10
10.49717596328069
 20
75.72700424970125
 30
0.0
 10
9.879061785006428
 20
76.49528587577737
 30
0.0
 10
9.257043147779806
 20
77.26363579280181
 30
0.0
 10
8.674987330825358
 20
78.0500657794673
 30
0.0
 10
8.251464594322995
 20
78.57917245749942
 30
0.0
 10
8.21235798250502
 20
78.90857138031498
 30
0.0
  0
SPLINE
  5
120
330
1F
100
AcDbEntity
  8
Default
100
AcDbSpline
210
0.0
220
0.0
230
1.0
 70
     8
 71
     3
 72
    11
 73
     7
 74
     0
 42
0.0000000001
 43
0.0000000001
 40
0.0
 40
0.0
 40
0.0
 40
0.0
 40
1.056257442711363
 40
1.983666277812516
 40
2.825677162948847
 40
3.576711082448426
 40
3.576711082448426
 40
3.576711082448426
 40
3.576711082448426
 10
8.21235798250502
 20
78.90857138031498
 30
0.0
 10
8.271352711571112
 20
79.25573609580366
 30
0.0
 10
8.377049576171153
 20
79.90848782773199
 30
0.0
 10
8.508732696884191
 20
80.8411950464326
 30
0.0
 10
8.603346695298399
 20
81.67608811522956
 30
0.0
 10
8.645828766503357
 20
82.20550679225207
 30
0.0
 10
8.66033945052149
 20
82.45540848166755
 30
0.0
  0
SPLINE
  5
121
330
1F
100
AcDbEntity
  8
Default
100
AcDbSpline
210
0.0
220
0.0
230
1.0
 70
    12
 71
     3
 72
    12
 73
     8
 74
     0
 42
0.0000000001
 43
0.0000000001
 40
-1.0
 40
-1.0
 40
-1.0
 40
-1.0
 40
-0.75
 40
-0.5
 40
-0.25
 40
-0.125
 40
0.0
 40
0.0
 40
0.0
 40
0.0
 10
8.66033945052149
 20
82.45540848166755
 30
0.0
 41
1.0
 10
8.660556464904598
 20
82.51100072056047
 30
0.0
 41
1.0
 10
8.578836592649832
 20
82.64295218837572
 30
0.0
 41
1.0
 10
8.190198485897799
 20
82.8758298684267
 30
0.0
 41
1.0
 10
7.695873870148773
 20
83.06495913236924
 30
0.0
 41
1.0
 10
7.240721486480215
 20
83.1973958525194
 30
0.0
 41
1.0
 10
7.00208605507656
 20
83.25498628336987
 30
0.0
 41
1.0
 10
6.882271177821043
 20
83.28175152519614
 30
0.0
 41
1.0
  0
SPLINE
  5
122
330
1F
100
AcDbEntity
  8
Default
100
AcDbSpline
210
0.0
220
0.0
230
1.0
 70
    12
 71
     2
 72
     6
 73
     3
 74
     0
 42
0.0000000001
 43
0.0000000001
 40
-1.738615299748421
 40
-1.738615299748421
 40
-1.738615299748421
 40
0.0
 40
0.0
 40
0.0
 10
6.882271177821043
 20
83.28175152519614
 30
0.0
 41
1.0
 10
6.03327986235597
 20
83.46905963165972
 30
0.0
 41
0.9998265244242317
 10
5.177911055835404
 20
83.6246706476341
 30
0.0
 41
0.9999999999903404
  0
SPLINE
  5
123
330
1F
100
AcDbEntity
  8
Default
100
AcDbSpline
210
0.0
220
0.0
230
1.0
 70
     8
 71
     3
 72
    11
 73
     7
 74
     0
 42
0.0000000001
 43
0.0000000001
 40
0.0
 40
0.0
 40
0.0
 40
0.0
 40
0.8055658146296342
 40
1.505207287485617
 40
2.898665587188706
 40
5.215701186741097
 40
5.215701186741097
 40
5.215701186741097
 40
5.215701186741097
 10
5.177911055835404
 20
83.62467064763408
 30
0.0
 10
4.913751751717289
 20
83.67321947430892
 30
0.0
 10
4.419444383042052
 20
83.75838518327905
 30
0.0
 10
3.464710108919515
 20
83.90872748618662
 30
0.0
 10
2.006844497292524
 20
84.09586611040913
 30
0.0
 10
0.7726800394893563
 20
84.19599627382658
 30
0.0
 10
-0.0000000000000036
 20
84.19901378965551
 30
0.0
  0
SPLINE
  5
124
330
1F
100
AcDbEntity
  8
Default
100
AcDbSpline
210
0.0
220
0.0
230
1.0
 70
     8
 71
     3
 72
    11
 73
     7
 74
     0
 42
0.0000000001
 43
0.0000000001
 40
-5.215701186741097
 40
-5.215701186741097
 40
-5.215701186741097
 40
-5.215701186741097
 40
-2.898665587188706
 40
-1.505207287485617
 40
-0.8055658146296342
 40
0.0
 40
0.0
 40
0.0
 40
0.0
 10
-0.0000000000000036
 20
84.19901378965551
 30
0.0
 10
-0.7726800394893634
 20
84.19599627382658
 30
0.0
 10
-2.006844497292531
 20
84.09586611040913
 30
0.0
 10
-3.464710108919522
 20
83.90872748618662
 30
0.0
 10
-4.419444383042059
 20
83.75838518327905
 30
0.0
 10
-4.913751751717296
 20
83.67321947430892
 30
0.0
 10
-5.177911055835411
 20
83.62467064763408
 30
0.0
  0
SPLINE
  5
125
330
1F
100
AcDbEntity
  8
Default
100
AcDbSpline
210
0.0
220
0.0
230
1.0
 70
    12
 71
     2
 72
     6
 73
     3
 74
     0
 42
0.0000000001
 43
0.0000000001
 40
0.0
 40
0.0
 40
0.0
 40
1.738615299748421
 40
1.738615299748421
 40
1.738615299748421
 10
-5.177911055835411
 20
83.6246706476341
 30
0.0
 41
0.9999999999903404
 10
-6.033279862355977
 20
83.46905963165972
 30
0.0
 41
0.9998265244242317
 10
-6.88227117782105
 20
83.28175152519614
 30
0.0
 41
1.0
  0
SPLINE
  5
126
330
1F
100
AcDbEntity
  8
Default
100
AcDbSpline
210
0.0
220
0.0
230
1.0
 70
    12
 71
     3
 72
    12
 73
     8
 74
     0
 42
0.0000000001
 43
0.0000000001
 40
0.0
 40
0.0
 40
0.0
 40
0.0
 40
0.125
 40
0.25
 40
0.5
 40
0.75
 40
1.0
 40
1.0
 40
1.0
 40
1.0
 10
-6.88227117782105
 20
83.28175152519614
 30
0.0
 41
1.0
 10
-7.002086055076568
 20
83.25498628336987
 30
0.0
 41
1.0
 10
-7.240721486480222
 20
83.1973958525194
 30
0.0
 41
1.0
 10
-7.69587387014878
 20
83.06495913236924
 30
0.0
 41
1.0
 10
-8.190198485897806
 20
82.8758298684267
 30
0.0
 41
1.0
 10
-8.57883659264984
 20
82.64295218837572
 30
0.0
 41
1.0
 10
-8.660556464904605
 20
82.51100072056047
 30
0.0
 41
1.0
 10
-8.660339450521498
 20
82.45540848166755
 30
0.0
 41
1.0
  0
SPLINE
  5
127
330
1F
100
AcDbEntity
  8
Default
100
AcDbSpline
210
0.0
220
0.0
230
1.0
 70
     8
 71
     3
 72
    11
 73
     7
 74
     0
 42
0.0000000001
 43
0.0000000001
 40
-3.576711082448426
 40
-3.576711082448426
 40
-3.576711082448426
 40
-3.576711082448426
 40
-2.825677162948847
 40
-1.983666277812516
 40
-1.056257442711363
 40
0.0
 40
0.0
 40
0.0
 40
0.0
 10
-8.660339450521498
 20
82.45540848166755
 30
0.0
 10
-8.645828766503364
 20
82.20550679225207
 30
0.0
 10
-8.603346695298406
 20
81.67608811522956
 30
0.0
 10
-8.508732696884199
 20
80.8411950464326
 30
0.0
 10
-8.37704957617116
 20
79.90848782773199
 30
0.0
 10
-8.271352711571119
 20
79.25573609580366
 30
0.0
 10
-8.212357982505027
 20
78.90857138031498
 30
0.0
  0
SPLINE
  5
128
330
1F
100
AcDbEntity
  8
Default
100
AcDbSpline
210
0.0
220
0.0
230
1.0
 70
     8
 71
     3
 72
    19
 73
    15
 74
     0
 42
0.0000000001
 43
0.0000000001
 40
-12.0
 40
-12.0
 40
-12.0
 40
-12.0
 40
-11.0
 40
-10.0
 40
-9.0
 40
-8.0
 40
-7.0
 40
-6.0
 40
-5.0
 40
-4.0
 40
-3.0
 40
-2.0
 40
-1.0
 40
0.0
 40
0.0
 40
0.0
 40
0.0
 10
-8.212357982505027
 20
78.90857138031498
 30
0.0
 10
-8.251464594323002
 20
78.57917245749942
 30
0.0
 10
-8.674987330825365
 20
78.0500657794673
 30
0.0
 10
-9.257043147779813
 20
77.26363579280181
 30
0.0
 10
-9.879061785006435
 20
76.49528587577737
 30
0.0
 10
-10.4971759632807
 20
75.72700424970125
 30
0.0
 10
-11.05025022626818
 20
74.909091838032
 30
0.0
 10
-11.55091197498814
 20
74.05889458216006
 30
0.0
 10
-11.99910702042509
 20
73.1797499507214
 30
0.0
 10
-12.39835222201493
 20
72.27747988891221
 30
0.0
 10
-12.75399861817201
 20
71.35725463720664
 30
0.0
 10
-13.07524566197993
 20
70.42454884194876
 30
0.0
 10
-13.36420112438459
 20
69.48129354710505
 30
0.0
 10
-13.52899773807026
 20
68.844542502287
 30
0.0
 10
-13.60476422166439
 20
68.52461762845574
 30
0.0
  0
SPLINE
  5
129
330
1F
100
AcDbEntity
  8
Default
100
AcDbSpline
210
0.0
220
0.0
230
1.0
 70
    12
 71
     3
 72
     9
 73
     5
 74
     0
 42
0.0000000001
 43
0.0000000001
 40
0.0
 40
0.0
 40
0.0
 40
0.0
 40
0.2499998804336
 40
0.4365090260516311
 40
0.4365090260516311
 40
0.4365090260516311
 40
0.4365090260516311
 10
-13.60476422166439
 20
68.52461762845574
 30
0.0
 41
1.0
 10
-13.68640444013618
 20
68.1702473424468
 30
0.0
 41
1.0
 10
-13.80728698537602
 20
67.5480781602708
 30
0.0
 41
1.0
 10
-13.83183051528935
 20
66.94403004323914
 30
0.0
 41
1.0
 10
-13.82173734708403
 20
66.69492870968425
 30
0.0
 41
1.0
  0
SPLINE
  5
12A
330
1F
100
AcDbEntity
  8
Default
100
AcDbSpline
210
0.0
220
0.0
230
1.0
 70
     8
 71
     3
 72
    20
 73
    16
 74
     0
 42
0.0000000001
 43
0.0000000001
 40
0.0
 40
0.0
 40
0.0
 40
0.0
 40
1.0
 40
2.0
 40
3.0
 40
4.0
 40
5.0
 40
6.0
 40
7.0
 40
8.0
 40
9.0
 40
10.0
 40
11.0
 40
12.0
 40
12.56415876883477
 40
12.56415876883477
 40
12.56415876883477
 40
12.56415876883477
 10
-8.239622439510416
 20
79.00744540704358
 30
0.0
 10
-8.402744956260538
 20
78.67829020027352
 30
0.0
 10
-8.84644108763083
 20
78.09096724310493
 30
0.0
 10
-9.518060267879424
 20
77.220584348872
 30
0.0
 10
-10.21499581655716
 20
76.36861053985737
 30
0.0
 10
-10.88072092153393
 20
75.49213958074776
 30
0.0
 10
-11.46818480954773
 20
74.5603725061795
 30
0.0
 10
-11.99132702451456
 20
73.59180365918925
 30
0.0
 10
-12.4503425093555
 20
72.59116738369485
 30
0.0
 10
-12.85568335192961
 20
71.56790286667717
 30
0.0
 10
-13.21778537556888
 20
70.52857446682361
 30
0.0
 10
-13.5358311416561
 20
69.47498970293077
 30
0.0
 10
-13.81347850221864
 20
68.40993435182101
 30
0.0
 10
-13.97202902901706
 20
67.48084423310294
 30
0.0
 10
-13.97430490959145
 20
66.90449812847864
 30
0.0
 10
-13.95968579714815
 20
66.69807553774629
 30
0.0
  0
ARC
  5
12B
330
1F
100
AcDbEntity
  8
Default
100
AcDbCircle
 10
54.46695384631631
 20
86.73875515526969
 30
0.0
 40
72.21373350180218
100
AcDbArc
 50
274.0562104814249
 51
276.0137156351834
  0
SPLINE
  5
12C
330
1F
100
AcDbEntity
  8
Default
100
AcDbSpline
210
0.0
220
0.0
230
1.0
 70
     8
 71
     3
 72
     9
 73
     5
 74
     0
 42
0.0000000001
 43
0.0000000001
 40
0.0
 40
0.0
 40
0.0
 40
0.0
 40
1.0
 40
1.19989240399552
 40
1.19989240399552
 40
1.19989240399552
 40
1.19989240399552
 10
59.57500009799341
 20
14.70590730264045
 30
0.0
 10
59.07656929053245
 20
14.67056221087093
 30
0.0
 10
58.49330627125874
 20
14.81975836486474
 30
0.0
 10
57.94267816930214
 20
15.04836037323281
 30
0.0
 10
57.8520335034215
 20
15.08868216716187
 30
0.0
  0
SPLINE
  5
12D
330
1F
100
AcDbEntity
  8
Default
100
AcDbSpline
210
0.0
220
0.0
230
1.0
 70
     8
 71
     3
 72
    32
 73
    28
 74
     0
 42
0.0000000001
 43
0.0000000001
 40
2.075154647062163
 40
2.075154647062163
 40
2.075154647062163
 40
2.075154647062163
 40
3.0
 40
4.0
 40
5.0
 40
6.0
 40
7.0
 40
8.0
 40
9.0
 40
10.0
 40
11.0
 40
12.0
 40
13.0
 40
14.0
 40
15.0
 40
16.0
 40
17.0
 40
18.0
 40
19.0
 40
20.0
 40
21.0
 40
22.0
 40
23.0
 40
24.0
 40
25.0
 40
26.0
 40
27.0
 40
27.0
 40
27.0
 40
27.0
 10
56.73884094269375
 20
15.75000836831937
 30
0.0
 10
56.37915697163626
 20
16.03011584632236
 30
0.0
 10
55.70806029645824
 20
16.71352813928524
 30
0.0
 10
54.81930709540697
 20
17.85543440426286
 30
0.0
 10
53.85253313900748
 20
18.98278113431664
 30
0.0
 10
52.97432566414287
 20
20.18160264870471
 30
0.0
 10
51.9177747224275
 20
21.23536210981733
 30
0.0
 10
50.55163207983568
 20
21.88467685787063
 30
0.0
 10
49.0777846984769
 20
22.09299809687797
 30
0.0
 10
47.59591785076573
 20
22.1801402132161
 30
0.0
 10
46.11996549154264
 20
22.34171509373818
 30
0.0
 10
44.64192799587396
 20
22.48121989717811
 30
0.0
 10
43.16793174257494
 20
22.65078445011196
 30
0.0
 10
41.67982635482066
 20
22.72193712013141
 30
0.0
 10
40.24255630713496
 20
23.14096495465461
 30
0.0
 10
39.14227654753994
 20
24.22954065609511
 30
0.0
 10
38.66731611483573
 20
25.64777921843283
 30
0.0
 10
38.22398573942931
 20
27.06138249277049
 30
0.0
 10
37.79016254891611
 20
28.48185202446905
 30
0.0
 10
37.371835626969
 20
29.90591686769173
 30
0.0
 10
36.96743246431107
 20
31.33430318166892
 30
0.0
 10
36.57750493646529
 20
32.76652357208022
 30
0.0
 10
36.20166099725897
 20
34.20294341977284
 30
0.0
 10
35.84115383826335
 20
35.64171836265781
 30
0.0
 10
35.49158567055827
 20
37.08900801959265
 30
0.0
 10
35.16951314762233
 20
38.52114683169383
 30
0.0
 10
34.85049324082887
 20
39.50371745321622
 30
0.0
 10
34.45932888872207
 20
39.80385227559137
 30
0.0
  0
SPLINE
  5
12E
330
1F
100
AcDbEntity
  8
Default
100
AcDbSpline
210
0.0
220
0.0
230
1.0
 70
     8
 71
     3
 72
     8
 73
     4
 74
     0
 42
0.0000000001
 43
0.0000000001
 40
0.0
 40
0.0
 40
0.0
 40
0.0
 40
0.7865696620275126
 40
0.7865696620275126
 40
0.7865696620275126
 40
0.7865696620275126
 10
55.96300279075736
 20
16.6317887248513
 30
0.0
 10
56.22476554373454
 20
16.64681508129671
 30
0.0
 10
56.48655840599181
 20
16.66124600629012
 30
0.0
 10
56.74838577864926
 20
16.67499439744965
 30
0.0
  0
SPLINE
  5
12F
330
1F
100
AcDbEntity
  8
Default
100
AcDbSpline
210
0.0
220
0.0
230
1.0
 70
     8
 71
     3
 72
    10
 73
     6
 74
     0
 42
0.0000000001
 43
0.0000000001
 40
1.924762786188824
 40
1.924762786188824
 40
1.924762786188824
 40
1.924762786188824
 40
3.289323513938263
 40
4.454045277921154
 40
5.193467344251839
 40
5.193467344251839
 40
5.193467344251839
 40
5.193467344251839
 10
57.88523528586504
 20
16.730124712736
 30
0.0
 10
58.33964898950487
 20
16.75021861462846
 30
0.0
 10
59.18215183844728
 20
16.78270480907768
 30
0.0
 10
60.27150172209613
 20
16.80555857907734
 30
0.0
 10
60.9494263635127
 20
16.80070379021092
 30
0.0
 10
61.19497769475332
 20
16.77854423021383
 30
0.0
  0
SPLINE
  5
130
330
1F
100
AcDbEntity
  8
Default
100
AcDbSpline
210
0.0
220
0.0
230
1.0
 70
    12
 71
     2
 72
     6
 73
     3
 74
     0
 42
0.0000000001
 43
0.0000000001
 40
-0.3467243252475303
 40
-0.3467243252475303
 40
-0.3467243252475303
 40
0.0
 40
0.0
 40
0.0
 10
61.19497769475332
 20
16.77854423021383
 30
0.0
 41
1.0
 10
61.40192433667826
 20
16.75986851583362
 30
0.0
 41
0.7690462387954597
 10
61.42140666824335
 20
16.55299625169845
 30
0.0
 41
1.0
  0
SPLINE
  5
131
330
1F
100
AcDbEntity
  8
Default
100
AcDbSpline
210
0.0
220
0.0
230
1.0
 70
    24
 71
     2
 72
     6
 73
     3
 74
     0
 42
0.0000000001
 43
0.0000000001
 40
-1.272855017170293
 40
-1.272855017170293
 40
-1.272855017170293
 40
0.0
 40
0.0
 40
0.0
 10
61.42140666824335
 20
16.55299625169845
 30
0.0
 10
61.48107861480455
 20
15.9193723628831
 30
0.0
 10
61.54075056136574
 20
15.28574847406774
 30
0.0
  0
SPLINE
  5
132
330
1F
100
AcDbEntity
  8
Default
100
AcDbSpline
210
0.0
220
0.0
230
1.0
 70
     8
 71
     3
 72
     9
 73
     5
 74
     0
 42
0.0000000001
 43
0.0000000001
 40
1.521356372443375
 40
1.521356372443375
 40
1.521356372443375
 40
1.521356372443375
 40
2.0
 40
3.0
 40
3.0
 40
3.0
 40
3.0
 10
57.8567407413849
 20
15.32342670450813
 30
0.0
 10
57.99550587070833
 20
15.27132341440362
 30
0.0
 10
58.43221144392852
 20
15.13327403628541
 30
0.0
 10
58.8902688386892
 20
15.07686532447493
 30
0.0
 10
59.20280649800064
 20
15.11108899386817
 30
0.0
  0
SPLINE
  5
133
330
1F
100
AcDbEntity
  8
Default
100
AcDbSpline
210
0.0
220
0.0
230
1.0
 70
     8
 71
     3
 72
     8
 73
     4
 74
     0
 42
0.0000000001
 43
0.0000000001
 40
0.0
 40
0.0
 40
0.0
 40
0.0
 40
1.0
 40
1.0
 40
1.0
 40
1.0
 10
59.20280649800064
 20
15.11108899386817
 30
0.0
 10
59.97964925066854
 20
15.19615525307164
 30
0.0
 10
60.7614155966406
 20
15.22780070806755
 30
0.0
 10
61.54075056136574
 20
15.28574847406773
 30
0.0
  0
SPLINE
  5
134
330
1F
100
AcDbEntity
  8
Default
100
AcDbSpline
210
0.0
220
0.0
230
1.0
 70
    12
 71
     3
 72
    11
 73
     7
 74
     0
 42
0.0000000001
 43
0.0000000001
 40
-50.47595879078813
 40
-50.47595879078813
 40
-50.47595879078813
 40
-50.47595879078813
 40
-50.08581481269854
 40
-50.08581481269854
 40
-50.08581481269854
 40
-49.69567083460895
 40
-49.69567083460895
 40
-49.69567083460895
 40
-49.69567083460895
 10
61.54075056136573
 20
15.28574847406773
 30
0.0
 41
1.000000000038863
 10
61.67432750882084
 20
15.29568064193457
 30
0.0
 41
0.943135975376167
 10
61.80052470499447
 20
15.25078391011729
 30
0.0
 41
0.943135975376167
 10
61.89781390846072
 20
15.1587173052116
 30
0.0
 41
1.000000000038863
 10
61.99510311192697
 20
15.06665070030592
 30
0.0
 41
0.943135975376167
 10
62.04691404405665
 20
14.94258706101252
 30
0.0
 41
0.943135975376167
 10
62.04440817048281
 20
14.80769066086416
 30
0.0
 41
1.000000000038863
  0
SPLINE
  5
135
330
1F
100
AcDbEntity
  8
Default
100
AcDbSpline
210
0.0
220
0.0
230
1.0
 70
     8
 71
     3
 72
    14
 73
    10
 74
     0
 42
0.0000000001
 43
0.0000000001
 40
0.0
 40
0.0
 40
0.0
 40
0.0
 40
1.0
 40
2.0
 40
3.0
 40
4.0
 40
5.0
 40
6.0
 40
6.301451920700829
 40
6.301451920700829
 40
6.301451920700829
 40
6.301451920700829
 10
62.04440817048282
 20
14.80769066086416
 30
0.0
 10
62.05312725112785
 20
14.49444209875167
 30
0.0
 10
61.65449957097228
 20
14.00591754704991
 30
0.0
 10
60.89782300155566
 20
13.53460881293902
 30
0.0
 10
60.08657532786317
 20
13.15276999490293
 30
0.0
 10
59.25301683519686
 20
12.82913598846664
 30
0.0
 10
58.40845792086442
 20
12.53439590477793
 30
0.0
 10
57.75310301561961
 20
12.33105860706693
 30
0.0
 10
57.37990451768676
 20
12.22504420138654
 30
0.0
 10
57.29333370242314
 20
12.20094450105379
 30
0.0
  0
SPLINE
  5
136
330
1F
100
AcDbEntity
  8
Default
100
AcDbSpline
210
0.0
220
0.0
230
1.0
 70
     8
 71
     3
 72
    54
 73
    50
 74
     0
 42
0.0000000001
 43
0.0000000001
 40
10.25004024839448
 40
10.25004024839448
 40
10.25004024839448
 40
10.25004024839448
 40
11.0
 40
12.0
 40
13.0
 40
14.0
 40
15.0
 40
16.0
 40
17.0
 40
18.0
 40
19.0
 40
20.0
 40
21.0
 40
22.0
 40
23.0
 40
24.0
 40
25.0
 40
26.0
 40
27.0
 40
28.0
 40
29.0
 40
30.0
 40
31.0
 40
32.0
 40
33.0
 40
34.0
 40
35.0
 40
36.0
 40
37.0
 40
38.0
 40
39.0
 40
40.0
 40
41.0
 40
42.0
 40
43.0
 40
44.0
 40
45.0
 40
46.0
 40
47.0
 40
48.0
 40
49.0
 40
50.0
 40
51.0
 40
52.0
 40
53.0
 40
54.0
 40
55.0
 40
56.0
 40
57.0
 40
57.0
 40
57.0
 40
57.0
 10
53.84207996328035
 20
11.46309286865321
 30
0.0
 10
53.62115336330805
 20
11.42885331234326
 30
0.0
 10
53.10482538483212
 20
11.35420295783706
 30
0.0
 10
52.29112860005488
 20
11.25401733921419
 30
0.0
 10
51.40091187634263
 20
11.16797692517136
 30
0.0
 10
50.50912166477303
 20
11.09998940840784
 30
0.0
 10
49.61594718506529
 20
11.05421366444657
 30
0.0
 10
48.72258212232734
 20
11.01376447163211
 30
0.0
 10
47.82863033434147
 20
10.98378366372879
 30
0.0
 10
46.9344425594582
 20
10.98285856801117
 30
0.0
 10
46.03953677175917
 20
10.98264900699114
 30
0.0
 10
45.14876158011377
 20
11.08376161609264
 30
0.0
 10
44.28566131881146
 20
11.32895889803315
 30
0.0
 10
43.4664346775086
 20
11.69263441709566
 30
0.0
 10
42.70589810962291
 20
12.16735877790252
 30
0.0
 10
42.01699628611486
 20
12.74062037492486
 30
0.0
 10
41.40498637608714
 20
13.39486599248729
 30
0.0
 10
40.87005260978671
 20
14.11309373079808
 30
0.0
 10
40.40336547330094
 20
14.87650957158214
 30
0.0
 10
39.9599929084778
 20
15.65320199974904
 30
0.0
 10
39.54083578772584
 20
16.44333842947711
 30
0.0
 10
39.14346085869948
 20
17.24458906603971
 30
0.0
 10
38.76543831391903
 20
18.05514390818595
 30
0.0
 10
38.40518430198374
 20
18.8737353567082
 30
0.0
 10
38.06102928495072
 20
19.69921934579881
 30
0.0
 10
37.73202499570975
 20
20.53084834535735
 30
0.0
 10
37.41707719993239
 20
21.36790005859968
 30
0.0
 10
37.1150400879491
 20
22.20968469462676
 30
0.0
 10
36.82402128774331
 20
23.05534490257008
 30
0.0
 10
36.54606424370466
 20
23.90539351613552
 30
0.0
 10
36.28137134398858
 20
24.75966184563545
 30
0.0
 10
36.0290798653124
 20
25.61767192966618
 30
0.0
 10
35.78815255490102
 20
26.47893803392083
 30
0.0
 10
35.55764376706095
 20
27.3430452954143
 30
0.0
 10
35.33654618063169
 20
28.20960837374143
 30
0.0
 10
35.12407354987974
 20
29.07832344914828
 30
0.0
 10
34.91970232621843
 20
29.94897882249225
 30
0.0
 10
34.7228663656152
 20
30.82136723121176
 30
0.0
 10
34.5329807388722
 20
31.69529205754879
 30
0.0
 10
34.34960602613801
 20
32.57061221554568
 30
0.0
 10
34.17249973505119
 20
33.44719910143241
 30
0.0
 10
34.00131884830721
 20
34.32504710776016
 30
0.0
 10
33.8359124311274
 20
35.20367618378795
 30
0.0
 10
33.67540080915569
 20
36.08442810485718
 30
0.0
 10
33.52157971958755
 20
36.96184279355022
 30
0.0
 10
33.3662254046271
 20
37.85588544530229
 30
0.0
 10
33.23848125651745
 20
38.69163479031681
 30
0.0
 10
33.02800703016925
 20
39.74833316261972
 30
0.0
 10
33.8509411712005
 20
39.79801654305675
 30
0.0
 10
34.11316025770466
 20
39.80318227987338
 30
0.0
  0
SPLINE
  5
137
330
1F
100
AcDbEntity
  8
Default
100
AcDbSpline
210
0.0
220
0.0
230
1.0
 70
    12
 71
     3
 72
     8
 73
     4
 74
     0
 42
0.0000000001
 43
0.0000000001
 40
-19.66375890038411
 40
-19.66375890038411
 40
-19.66375890038411
 40
-19.66375890038411
 40
-19.31745184846394
 40
-19.31745184846394
 40
-19.31745184846394
 40
-19.31745184846394
 10
34.11316025770464
 20
39.80318227987339
 30
0.0
 41
1.000000000038776
 10
34.22848178933626
 20
39.80949886373111
 30
0.0
 41
0.9990122582833316
 10
34.34398542076841
 20
39.80972241644945
 30
0.0
 41
0.9990122582833316
 10
34.45932888872206
 20
39.80385227559137
 30
0.0
 41
1.000000000038776
  0
SPLINE
  5
138
330
1F
100
AcDbEntity
  8
Default
100
AcDbSpline
210
0.0
220
0.0
230
1.0
 70
     8
 71
     3
 72
    24
 73
    20
 74
     0
 42
0.0000000001
 43
0.0000000001
 40
0.0
 40
0.0
 40
0.0
 40
0.0
 40
1.0
 40
2.0
 40
3.0
 40
4.0
 40
5.0
 40
6.0
 40
7.0
 40
8.0
 40
9.0
 40
10.0
 40
11.0
 40
12.0
 40
13.0
 40
14.0
 40
15.0
 40
16.0
 40
17.0
 40
17.0
 40
17.0
 40
17.0
 10
34.45932888872207
 20
39.80385227559137
 30
0.0
 10
34.86368107084729
 20
39.78327370007722
 30
0.0
 10
35.47276944873654
 20
39.29601811313591
 30
0.0
 10
35.91683588926884
 20
38.24659694105144
 30
0.0
 10
36.09852193982624
 20
37.1179522513752
 30
0.0
 10
36.3574623403148
 20
36.01198706234759
 30
0.0
 10
36.60661698407051
 20
34.90237315733889
 30
0.0
 10
36.86928719697428
 20
33.79624937629997
 30
0.0
 10
37.13921630372724
 20
32.69178939831703
 30
0.0
 10
37.41803549670853
 20
31.58955807583911
 30
0.0
 10
37.70537906735808
 20
30.48952141226479
 30
0.0
 10
38.00097780333174
 20
29.39164937174682
 30
0.0
 10
38.30617132444382
 20
28.29649035864083
 30
0.0
 10
38.6157623154174
 20
27.202281777857
 30
0.0
 10
38.94909166498165
 20
26.11591705334045
 30
0.0
 10
39.23388012880358
 20
25.01198008648541
 30
0.0
 10
39.79603304109078
 20
24.00432026031053
 30
0.0
 10
40.70381145569586
 20
23.28826781480211
 30
0.0
 10
41.42518673223931
 20
23.02431175693494
 30
0.0
 10
41.80226534093046
 20
22.97641739332434
 30
0.0
  0
SPLINE
  5
139
330
1F
100
AcDbEntity
  8
Default
100
AcDbSpline
210
0.0
220
0.0
230
1.0
 70
     8
 71
     3
 72
    24
 73
    20
 74
     0
 42
0.0000000001
 43
0.0000000001
 40
0.0
 40
0.0
 40
0.0
 40
0.0
 40
1.0
 40
2.0
 40
3.0
 40
4.0
 40
5.0
 40
6.0
 40
7.0
 40
8.0
 40
9.0
 40
10.0
 40
11.0
 40
12.0
 40
13.0
 40
14.0
 40
15.0
 40
16.0
 40
17.0
 40
17.0
 40
17.0
 40
17.0
 10
41.80226534093046
 20
22.97641739332434
 30
0.0
 10
42.14157516165257
 20
22.93656865550233
 30
0.0
 10
42.82055699401288
 20
22.85998668320537
 30
0.0
 10
43.83965378135807
 20
22.75081652825665
 30
0.0
 10
44.85891124571
 20
22.64323282564889
 30
0.0
 10
45.87820188317701
 20
22.53574628545207
 30
0.0
 10
46.89761654706523
 20
22.43022847391158
 30
0.0
 10
47.91718932696854
 20
22.32332418604584
 30
0.0
 10
48.93802864110478
 20
22.23990609004153
 30
0.0
 10
49.96186653554311
 20
22.15258640193624
 30
0.0
 10
50.94279399673461
 20
21.83221865997114
 30
0.0
 10
51.8501343065932
 20
21.35005852927816
 30
0.0
 10
52.65348982824871
 20
20.70068965494761
 30
0.0
 10
53.27082126296868
 20
19.87806949671878
 30
0.0
 10
53.9222603992679
 20
19.08776719489549
 30
0.0
 10
54.57341592309541
 20
18.29597321900953
 30
0.0
 10
55.2297100234202
 20
17.50893943729597
 30
0.0
 10
55.8702876670577
 20
16.70811616265771
 30
0.0
 10
56.3539948719324
 20
16.22295336372655
 30
0.0
 10
56.62688539989766
 20
16.01624319901391
 30
0.0
  0
SPLINE
  5
13A
330
1F
100
AcDbEntity
  8
Default
100
AcDbSpline
210
0.0
220
0.0
230
1.0
 70
     8
 71
     3
 72
     8
 73
     4
 74
     0
 42
0.0000000001
 43
0.0000000001
 40
0.0
 40
0.0
 40
0.0
 40
0.0
 40
0.153187491600069
 40
0.153187491600069
 40
0.153187491600069
 40
0.153187491600069
 10
56.62688539989766
 20
16.01624319901391
 30
0.0
 10
56.66438592675349
 20
15.98696873892524
 30
0.0
 10
56.70234009493988
 20
15.95826587430338
 30
0.0
 10
56.74072535540209
 20
15.93014394831838
 30
0.0
  0
SPLINE
  5
13B
330
1F
100
AcDbEntity
  8
Default
100
AcDbSpline
210
0.0
220
0.0
230
1.0
 70
     8
 71
     3
 72
     9
 73
     5
 74
     0
 42
0.0000000001
 43
0.0000000001
 40
0.0
 40
0.0
 40
0.0
 40
0.0
 40
1.0
 40
1.227956764487729
 40
1.227956764487729
 40
1.227956764487729
 40
1.227956764487729
 10
-9.451220845788054
 20
22.69233521369498
 30
0.0
 10
-9.837165255510062
 20
22.64281918797241
 30
0.0
 10
-10.30934287099711
 20
22.56977815791264
 30
0.0
 10
-10.77919843699372
 20
22.48243841357571
 30
0.0
 10
-10.86630111326533
 20
22.4656426332257
 30
0.0
  0
SPLINE
  5
13C
330
1F
100
AcDbEntity
  8
Default
100
AcDbSpline
210
0.0
220
0.0
230
1.0
 70
     8
 71
     3
 72
     8
 73
     4
 74
     0
 42
0.0000000001
 43
0.0000000001
 40
2.648923567939023
 40
2.648923567939023
 40
2.648923567939023
 40
2.648923567939023
 40
3.0
 40
3.0
 40
3.0
 40
3.0
 10
-12.47378181294196
 20
22.06898614839454
 30
0.0
 10
-12.60457257614713
 20
22.03034469050646
 30
0.0
 10
-12.73523524358381
 20
21.99102996361636
 30
0.0
 10
-12.86603319568208
 20
21.95181302618192
 30
0.0
  0
SPLINE
  5
13D
330
1F
100
AcDbEntity
  8
Default
100
AcDbSpline
210
0.0
220
0.0
230
1.0
 70
     8
 71
     3
 72
    12
 73
     8
 74
     0
 42
0.0000000001
 43
0.0000000001
 40
-17.0
 40
-17.0
 40
-17.0
 40
-17.0
 40
-16.0
 40
-15.0
 40
-14.0
 40
-13.0
 40
-12.88162847552231
 40
-12.88162847552231
 40
-12.88162847552231
 40
-12.88162847552231
 10
-12.86603319568208
 20
21.95181302618192
 30
0.0
 10
-13.04831480642732
 20
21.83337642069122
 30
0.0
 10
-13.01143174416587
 20
21.40250647236276
 30
0.0
 10
-12.8551323070349
 20
20.86199979590396
 30
0.0
 10
-12.62092293699034
 20
20.3271452897942
 30
0.0
 10
-12.4342633747607
 20
19.96472071182726
 30
0.0
 10
-12.33669398103251
 20
19.77252536030529
 30
0.0
 10
-12.32637193611447
 20
19.75217694482685
 30
0.0
  0
SPLINE
  5
13E
330
1F
100
AcDbEntity
  8
Default
100
AcDbSpline
210
0.0
220
0.0
230
1.0
 70
     8
 71
     3
 72
    16
 73
    12
 74
     0
 42
0.0000000001
 43
0.0000000001
 40
-8.107852277475914
 40
-8.107852277475914
 40
-8.107852277475914
 40
-8.107852277475914
 40
-8.0
 40
-7.0
 40
-6.0
 40
-5.0
 40
-4.0
 40
-3.0
 40
-2.0
 40
-1.0
 40
0.0
 40
0.0
 40
0.0
 40
0.0
 10
-10.92222324877983
 20
17.37683358115533
 30
0.0
 10
-10.91044871752192
 20
17.35969280794694
 30
0.0
 10
-10.78916916248896
 20
17.18386051057735
 30
0.0
 10
-10.55151996505419
 20
16.85425889982136
 30
0.0
 10
-10.19862732611481
 20
16.39443396448364
 30
0.0
 10
-9.780956084325966
 20
15.9924180820179
 30
0.0
 10
-9.324398863786229
 20
15.6354000904967
 30
0.0
 10
-8.81211054372396
 20
15.36147088508136
 30
0.0
 10
-8.264844316289777
 20
15.16987691570239
 30
0.0
 10
-7.691505799970269
 20
15.07045336104563
 30
0.0
 10
-7.304494249100342
 20
15.0919479000687
 30
0.0
 10
-7.112618991909198
 20
15.10885882253634
 30
0.0
  0
SPLINE
  5
13F
330
1F
100
AcDbEntity
  8
Default
100
AcDbSpline
210
0.0
220
0.0
230
1.0
 70
     8
 71
     3
 72
    13
 73
     9
 74
     0
 42
0.0000000001
 43
0.0000000001
 40
1.315373017748101
 40
1.315373017748101
 40
1.315373017748101
 40
1.315373017748101
 40
2.0
 40
3.0
 40
4.0
 40
5.0
 40
6.0
 40
7.0
 40
7.0
 40
7.0
 40
7.0
 10
-8.257166396971463
 20
24.61644068788205
 30
0.0
 10
-8.278007711911803
 20
24.52515325725952
 30
0.0
 10
-8.344790575232643
 20
24.30401618951911
 30
0.0
 10
-8.503678497433997
 20
23.97142310031046
 30
0.0
 10
-8.738729102400226
 20
23.63355488485161
 30
0.0
 10
-9.01950286815481
 20
23.33230315928373
 30
0.0
 10
-9.357380843473617
 20
23.0939746491795
 30
0.0
 10
-9.638497564180101
 20
22.99691633641008
 30
0.0
 10
-9.773845312746076
 20
22.97650828636715
 30
0.0
  0
SPLINE
  5
140
330
1F
100
AcDbEntity
  8
Default
100
AcDbSpline
210
0.0
220
0.0
230
1.0
 70
    12
 71
     3
 72
    10
 73
     6
 74
     0
 42
0.0000000001
 43
0.0000000001
 40
-21.96582129936726
 40
-21.96582129936726
 40
-21.96582129936726
 40
-21.96582129936726
 40
-21.47285071712852
 40
-20.96588855570332
 40
-20.9292560862069
 40
-20.9292560862069
 40
-20.9292560862069
 40
-20.9292560862069
 10
-9.773845312746076
 20
22.97650828636715
 30
0.0
 41
1.0
 10
-9.93632958609109
 20
22.95200852765858
 30
0.0
 41
1.0
 10
-10.28729589375195
 20
22.90660601034566
 30
0.0
 41
1.0
 10
-10.62849064362888
 20
22.85197589442011
 30
0.0
 41
1.0
 10
-10.80712669515743
 20
22.82158827397383
 30
0.0
 41
1.0
 10
-10.81916346658751
 20
22.81953235049478
 30
0.0
 41
1.0
  0
SPLINE
  5
141
330
1F
100
AcDbEntity
  8
Default
100
AcDbSpline
210
0.0
220
0.0
230
1.0
 70
    12
 71
     3
 72
    21
 73
    17
 74
     0
 42
0.0000000001
 43
0.0000000001
 40
-19.19400623193001
 40
-19.19400623193001
 40
-19.19400623193001
 40
-19.19400623193001
 40
-18.36566766884025
 40
-18.36566766884025
 40
-18.36566766884025
 40
-18.0
 40
-18.0
 40
-18.0
 40
-17.0
 40
-16.0
 40
-15.0
 40
-14.0
 40
-13.0
 40
-12.0
 40
-11.0
 40
-10.68837255045577
 40
-10.68837255045577
 40
-10.68837255045577
 40
-10.68837255045577
 10
-12.54044315366209
 20
22.44496199608767
 30
0.0
 41
1.0
 10
-12.83115776641556
 20
22.36632163044288
 30
0.0
 41
1.0
 10
-13.13359892818047
 20
22.27687696233285
 30
0.0
 41
1.0
 10
-13.39424867098563
 20
22.18592600999143
 30
0.0
 41
1.0
 10
-13.51000983739903
 20
22.1455323836017
 30
0.0
 41
0.9883581237286712
 10
-13.61623777803105
 20
22.08430146803763
 30
0.0
 41
0.9883581237286712
 10
-13.70922241525749
 20
22.00437179152816
 30
0.0
 41
1.0
 10
-13.85213496313136
 20
21.86941695497282
 30
0.0
 41
1.0
 10
-13.829752876896
 20
21.47286666921639
 30
0.0
 41
1.0
 10
-13.62822427316106
 20
20.96663127902058
 30
0.0
 41
1.0
 10
-13.38162993243203
 20
20.47216250170861
 30
0.0
 41
1.0
 10
-13.13609041941228
 20
19.97985128229716
 30
0.0
 41
1.0
 10
-12.89130475741731
 20
19.48643776992463
 30
0.0
 41
1.0
 10
-12.63719853993839
 20
18.99790557545938
 30
0.0
 41
1.0
 10
-12.4295911720904
 20
18.62778786235378
 30
0.0
 41
1.0
 10
-12.30761460474654
 20
18.42021971917672
 30
0.0
 41
1.0
 10
-12.27840565290296
 20
18.37103997422928
 30
0.0
 41
1.0
  0
SPLINE
  5
142
330
1F
100
AcDbEntity
  8
Default
100
AcDbSpline
210
0.0
220
0.0
230
1.0
 70
    12
 71
     3
 72
    17
 73
    13
 74
     0
 42
0.0000000001
 43
0.0000000001
 40
-6.36080487704762
 40
-6.36080487704762
 40
-6.36080487704762
 40
-6.36080487704762
 40
-6.0
 40
-5.0
 40
-4.0
 40
-3.0
 40
-2.0
 40
-1.0
 40
0.0
 40
0.0
 40
0.0
 40
1.0
 40
1.0
 40
1.0
 40
1.0
 10
-10.90808798708674
 20
16.35591945524078
 30
0.0
 41
1.0
 10
-10.85880527895121
 20
16.29714497482804
 30
0.0
 41
1.0
 10
-10.66809442004022
 20
16.07952030960714
 30
0.0
 41
1.0
 10
-10.30682830844912
 20
15.72968689786387
 30
0.0
 41
1.0
 10
-9.792969348286181
 20
15.34952678828083
 30
0.0
 41
1.0
 10
-9.231512476361774
 20
15.04334196323214
 30
0.0
 41
1.0
 10
-8.630694276045052
 20
14.82482049068543
 30
0.0
 41
1.0
 10
-8.002675155631582
 20
14.69876692266669
 30
0.0
 41
1.0
 10
-7.57583504804677
 20
14.69821227683995
 30
0.0
 41
1.0
 10
-7.363562977095139
 20
14.705907485881
 30
0.0
 41
1.0
 10
-4.909028452583512
 20
14.77761831523627
 30
0.0
 41
1.0
 10
-2.45558184043341
 20
14.92242505549323
 30
0.0
 41
1.0
 10
0.0
 20
14.92242505549323
 30
0.0
 41
1.0
  0
SPLINE
  5
143
330
1F
100
AcDbEntity
  8
Default
100
AcDbSpline
210
0.0
220
0.0
230
1.0
 70
    12
 71
     3
 72
    40
 73
    36
 74
     0
 42
0.0000000001
 43
0.0000000001
 40
-1.0
 40
-1.0
 40
-1.0
 40
-1.0
 40
0.0
 40
0.0
 40
0.0
 40
1.0
 40
2.0
 40
3.0
 40
4.0
 40
5.0
 40
6.0
 40
7.0
 40
7.0
 40
7.0
 40
8.0
 40
9.0
 40
10.0
 40
11.0
 40
12.0
 40
13.0
 40
14.0
 40
15.0
 40
16.0
 40
17.0
 40
18.0
 40
18.0
 40
18.0
 40
18.36566766884025
 40
18.36566766884025
 40
18.36566766884025
 40
19.32348620733794
 40
20.03040031456323
 40
20.96588855570332
 40
21.47285071712852
 40
21.96582129936726
 40
21.96582129936726
 40
21.96582129936726
 40
21.96582129936726
 10
0.0
 20
14.92242505549323
 30
0.0
 41
1.0
 10
2.45558184043341
 20
14.92242505549323
 30
0.0
 41
1.0
 10
4.909028452583512
 20
14.77761831523627
 30
0.0
 41
1.0
 10
7.363562977095139
 20
14.705907485881
 30
0.0
 41
1.0
 10
7.57583504804677
 20
14.69821227683995
 30
0.0
 41
1.0
 10
8.002675155631582
 20
14.69876692266669
 30
0.0
 41
1.0
 10
8.630694276045052
 20
14.82482049068543
 30
0.0
 41
1.0
 10
9.231512476361774
 20
15.04334196323214
 30
0.0
 41
1.0
 10
9.792969348286181
 20
15.34952678828083
 30
0.0
 41
1.0
 10
10.30682830844912
 20
15.72968689786387
 30
0.0
 41
1.0
 10
10.76590832192685
 20
16.17423877313036
 30
0.0
 41
1.0
 10
11.03409866176527
 20
16.50511430184627
 30
0.0
 41
1.0
 10
11.15765789391559
 20
16.67811985183699
 30
0.0
 41
1.0
 10
11.26586715784026
 20
16.82638158723275
 30
0.0
 41
1.0
 10
11.47889095853603
 20
17.12539500848755
 30
0.0
 41
1.0
 10
11.7866037094319
 20
17.58209771253406
 30
0.0
 41
1.0
 10
12.08376260583835
 20
18.04574140387022
 30
0.0
 41
1.0
 10
12.36776840158855
 20
18.51757162738496
 30
0.0
 41
1.0
 10
12.63719853993839
 20
18.99790557545938
 30
0.0
 41
1.0
 10
12.89130475741731
 20
19.48643776992463
 30
0.0
 41
1.0
 10
13.13609041941228
 20
19.97985128229716
 30
0.0
 41
1.0
 10
13.38162993243203
 20
20.47216250170861
 30
0.0
 41
1.0
 10
13.62822427316106
 20
20.96663127902058
 30
0.0
 41
1.0
 10
13.829752876896
 20
21.47286666921639
 30
0.0
 41
1.0
 10
13.85213496313136
 20
21.86941695497282
 30
0.0
 41
1.0
 10
13.70922241525749
 20
22.00437179152816
 30
0.0
 41
1.0
 10
13.61623777803105
 20
22.08430146803763
 30
0.0
 41
0.9883581237286712
 10
13.51000983739903
 20
22.1455323836017
 30
0.0
 41
0.9883581237286712
 10
13.39424867098563
 20
22.18592600999143
 30
0.0
 41
1.0
 10
13.09285601967382
 20
22.29109376642388
 30
0.0
 41
1.0
 10
12.47190388114772
 20
22.47037975120186
 30
0.0
 41
1.0
 10
11.62876551689731
 20
22.67308459757416
 30
0.0
 41
1.0
 10
10.92435709398598
 20
22.80460348178095
 30
0.0
 41
1.0
 10
10.28729589375195
 20
22.90660601034566
 30
0.0
 41
1.0
 10
9.93632958609109
 20
22.95200852765858
 30
0.0
 41
1.0
 10
9.773845312746076
 20
22.97650828636715
 30
0.0
 41
1.0
  0
SPLINE
  5
144
330
1F
100
AcDbEntity
  8
Default
100
AcDbSpline
210
0.0
220
0.0
230
1.0
 70
     8
 71
     3
 72
    14
 73
    10
 74
     0
 42
0.0000000001
 43
0.0000000001
 40
-7.0
 40
-7.0
 40
-7.0
 40
-7.0
 40
-6.0
 40
-5.0
 40
-4.0
 40
-3.0
 40
-2.0
 40
-1.0
 40
0.0
 40
0.0
 40
0.0
 40
0.0
 10
9.773845312746076
 20
22.97650828636715
 30
0.0
 10
9.638497564180101
 20
22.99691633641008
 30
0.0
 10
9.357380843473617
 20
23.0939746491795
 30
0.0
 10
9.01950286815481
 20
23.33230315928373
 30
0.0
 10
8.738729102400226
 20
23.63355488485161
 30
0.0
 10
8.503678497433997
 20
23.97142310031046
 30
0.0
 10
8.326125425906634
 20
24.34308712448301
 30
0.0
 10
8.21817292965104
 20
24.74103471411979
 30
0.0
 10
8.203348670836244
 20
25.01593751166486
 30
0.0
 10
8.212369994691802
 20
25.1524663613175
 30
0.0
  0
SPLINE
  5
145
330
1F
100
AcDbEntity
  8
Default
100
AcDbSpline
210
0.0
220
0.0
230
1.0
 70
    12
 71
     2
 72
     6
 73
     3
 74
     0
 42
0.0000000001
 43
0.0000000001
 40
0.0
 40
0.0
 40
0.0
 40
12.85135725885201
 40
12.85135725885201
 40
12.85135725885201
 10
8.212369994691802
 20
25.1524663613175
 30
0.0
 41
1.0
 10
8.571758563186432
 20
31.56904055674719
 30
0.0
 41
0.9997777544588874
 10
8.660342120238935
 20
37.9950609039013
 30
0.0
 41
1.0
  0
SPLINE
  5
146
330
1F
100
AcDbEntity
  8
Default
100
AcDbSpline
210
0.0
220
0.0
230
1.0
 70
     8
 71
     3
 72
    14
 73
    10
 74
     0
 42
0.0000000001
 43
0.0000000001
 40
-7.0
 40
-7.0
 40
-7.0
 40
-7.0
 40
-6.0
 40
-5.0
 40
-4.0
 40
-3.0
 40
-2.0
 40
-1.0
 40
0.0
 40
0.0
 40
0.0
 40
0.0
 10
8.660342120238935
 20
37.9950609039013
 30
0.0
 10
8.660424379766914
 20
38.1304827049295
 30
0.0
 10
8.634592013502607
 20
38.40161531183266
 30
0.0
 10
8.509237336640245
 20
38.79090901328468
 30
0.0
 10
8.295807779272742
 20
39.14015124278708
 30
0.0
 10
8.007193046384305
 20
39.43000236065178
 30
0.0
 10
7.659443149838179
 20
39.64572870006367
 30
0.0
 10
7.271751712080109
 20
39.77532075984626
 30
0.0
 10
7.00125010314264
 20
39.80652409913388
 30
0.0
 10
6.865804854608335
 20
39.80819640586613
 30
0.0
  0
SPLINE
  5
147
330
1F
100
AcDbEntity
  8
Default
100
AcDbSpline
210
0.0
220
0.0
230
1.0
 70
     8
 71
     3
 72
     8
 73
     4
 74
     0
 42
0.0000000001
 43
0.0000000001
 40
-1.0
 40
-1.0
 40
-1.0
 40
-1.0
 40
0.0
 40
0.0
 40
0.0
 40
0.0
 10
6.865804854608335
 20
39.80819640586613
 30
0.0
 10
6.303201445723806
 20
39.81514272165383
 30
0.0
 10
5.740479531106824
 20
39.81279601873926
 30
0.0
 10
5.177866684175871
 20
39.80666157012801
 30
0.0
  0
SPLINE
  5
148
330
1F
100
AcDbEntity
  8
Default
100
AcDbSpline
210
0.0
220
0.0
230
1.0
 70
    12
 71
     3
 72
    12
 73
     8
 74
     0
 42
0.0000000001
 43
0.0000000001
 40
-5.213941575815037
 40
-5.213941575815037
 40
-5.213941575815037
 40
-5.213941575815037
 40
-4.856026097711562
 40
-3.575934564302206
 40
-1.655878507711192
 40
-1.655878507711192
 40
-0.0000015244031389
 40
-0.0000015244031389
 40
-0.0000015244031389
 40
-0.0000015244031389
 10
5.177866684175871
 20
39.80666157012801
 30
0.0
 41
1.0
 10
5.060501326416954
 20
39.80538187706762
 30
0.0
 41
1.0
 10
4.5229981160604
 20
39.79864862213293
 30
0.0
 41
1.0
 10
3.351664890896622
 20
39.77808517378698
 30
0.0
 41
1.0
 10
2.291306950749718
 20
39.75551766181702
 30
0.0
 41
1.0
 10
1.10353119290996
 20
39.7358430545396
 30
0.0
 41
1.0
 10
0.551959599774154
 20
39.72902257664801
 30
0.0
 41
1.0
 10
0.0
 20
39.7290340307041
 30
0.0
 41
1.0
  0
SPLINE
  5
149
330
1F
100
AcDbEntity
  8
Default
100
AcDbSpline
210
0.0
220
0.0
230
1.0
 70
    12
 71
     3
 72
    12
 73
     8
 74
     0
 42
0.0000000001
 43
0.0000000001
 40
0.0000015244031389
 40
0.0000015244031389
 40
0.0000015244031389
 40
0.0000015244031389
 40
1.655878507711192
 40
1.655878507711192
 40
3.575934564302206
 40
4.856026097711562
 40
5.213941575815037
 40
5.213941575815037
 40
5.213941575815037
 40
5.213941575815037
 10
0.0
 20
39.7290340307041
 30
0.0
 41
1.0
 10
-0.551959599774154
 20
39.72902257664801
 30
0.0
 41
1.0
 10
-1.10353119290996
 20
39.7358430545396
 30
0.0
 41
1.0
 10
-2.291306950749718
 20
39.75551766181702
 30
0.0
 41
1.0
 10
-3.351664890896622
 20
39.77808517378698
 30
0.0
 41
1.0
 10
-4.5229981160604
 20
39.79864862213293
 30
0.0
 41
1.0
 10
-5.060501326416954
 20
39.80538187706762
 30
0.0
 41
1.0
 10
-5.177866684175871
 20
39.80666157012801
 30
0.0
 41
1.0
  0
SPLINE
  5
14A
330
1F
100
AcDbEntity
  8
Default
100
AcDbSpline
210
0.0
220
0.0
230
1.0
 70
     8
 71
     3
 72
     8
 73
     4
 74
     0
 42
0.0000000001
 43
0.0000000001
 40
0.0
 40
0.0
 40
0.0
 40
0.0
 40
1.0
 40
1.0
 40
1.0
 40
1.0
 10
-5.177866684175871
 20
39.80666157012801
 30
0.0
 10
-5.740479531106824
 20
39.81279601873926
 30
0.0
 10
-6.303201445723806
 20
39.81514272165383
 30
0.0
 10
-6.865804854608335
 20
39.80819640586613
 30
0.0
  0
SPLINE
  5
14B
330
1F
100
AcDbEntity
  8
Default
100
AcDbSpline
210
0.0
220
0.0
230
1.0
 70
     8
 71
     3
 72
    14
 73
    10
 74
     0
 42
0.0000000001
 43
0.0000000001
 40
0.0
 40
0.0
 40
0.0
 40
0.0
 40
1.0
 40
2.0
 40
3.0
 40
4.0
 40
5.0
 40
6.0
 40
7.0
 40
7.0
 40
7.0
 40
7.0
 10
-6.865804854608335
 20
39.80819640586613
 30
0.0
 10
-7.00125010314264
 20
39.80652409913388
 30
0.0
 10
-7.271751712080109
 20
39.77532075984626
 30
0.0
 10
-7.659443149838179
 20
39.64572870006367
 30
0.0
 10
-8.007193046384305
 20
39.43000236065178
 30
0.0
 10
-8.295807779272742
 20
39.14015124278708
 30
0.0
 10
-8.509237336640245
 20
38.79090901328468
 30
0.0
 10
-8.634592013502607
 20
38.40161531183266
 30
0.0
 10
-8.660424379766914
 20
38.1304827049295
 30
0.0
 10
-8.660342120238935
 20
37.9950609039013
 30
0.0
  0
SPLINE
  5
14C
330
1F
100
AcDbEntity
  8
Default
100
AcDbSpline
210
0.0
220
0.0
230
1.0
 70
    12
 71
     2
 72
     6
 73
     3
 74
     0
 42
0.0000000001
 43
0.0000000001
 40
-12.85135725885201
 40
-12.85135725885201
 40
-12.85135725885201
 40
0.0
 40
0.0
 40
0.0
 10
-8.660342120238935
 20
37.9950609039013
 30
0.0
 41
1.0
 10
-8.571758563186432
 20
31.56904055674719
 30
0.0
 41
0.9997777544588874
 10
-8.212369994691802
 20
25.1524663613175
 30
0.0
 41
1.0
  0
SPLINE
  5
14D
330
1F
100
AcDbEntity
  8
Default
100
AcDbSpline
210
0.0
220
0.0
230
1.0
 70
     8
 71
     3
 72
     8
 73
     4
 74
     0
 42
0.0000000001
 43
0.0000000001
 40
0.0
 40
0.0
 40
0.0
 40
0.0
 40
0.5311133174690355
 40
0.5311133174690355
 40
0.5311133174690355
 40
0.5311133174690355
 10
-8.212369994691802
 20
25.1524663613175
 30
0.0
 10
-8.207578649450914
 20
25.07995407104826
 30
0.0
 10
-8.207422874990089
 20
25.0071815468723
 30
0.0
 10
-8.211580948647518
 20
24.93464672864431
 30
0.0
  0
SPLINE
  5
14E
330
1F
100
AcDbEntity
  8
Default
100
AcDbSpline
210
0.0
220
0.0
230
1.0
 70
     8
 71
     3
 72
    11
 73
     7
 74
     0
 42
0.0000000001
 43
0.0000000001
 40
0.0
 40
0.0
 40
0.0
 40
0.0
 40
0.1290889925177595
 40
0.2609259994466885
 40
0.5361425090251268
 40
1.198229879357077
 40
1.198229879357077
 40
1.198229879357077
 40
1.198229879357077
 10
-13.76364058738036
 20
21.95323056945868
 30
0.0
 10
-13.7932129268604
 20
21.9220600201548
 30
0.0
 10
-13.84632791415013
 20
21.85245647626033
 30
0.0
 10
-13.92973291458191
 20
21.69410520964848
 30
0.0
 10
-14.00752622179263
 20
21.33988994713255
 30
0.0
 10
-13.92938919087197
 20
21.02651120871705
 30
0.0
 10
-13.85596687457265
 20
20.82034288633973
 30
0.0
  0
SPLINE
  5
14F
330
1F
100
AcDbEntity
  8
Default
100
AcDbSpline
210
0.0
220
0.0
230
1.0
 70
    12
 71
     3
 72
    12
 73
     8
 74
     0
 42
0.0000000001
 43
0.0000000001
 40
0.0
 40
0.0
 40
0.0
 40
0.0
 40
1.0
 40
2.0
 40
3.0
 40
4.0
 40
4.547596547827088
 40
4.547596547827088
 40
4.547596547827088
 40
4.547596547827088
 10
-13.85596687457265
 20
20.82034288633973
 30
0.0
 41
1.0
 10
-13.74625544603186
 20
20.51227549882142
 30
0.0
 41
1.0
 10
-13.47744091830254
 20
19.75449221022331
 30
0.0
 41
1.0
 10
-13.16815573947031
 20
18.82336180942655
 30
0.0
 41
1.0
 10
-12.81764204415382
 20
17.90678595313565
 30
0.0
 41
1.0
 10
-12.49154014122187
 20
17.14011267463844
 30
0.0
 41
1.0
 10
-12.28788330276794
 20
16.67679728210459
 30
0.0
 41
1.0
 10
-12.21460037341781
 20
16.5134075822382
 30
0.0
 41
1.0
  0
SPLINE
  5
150
330
1F
100
AcDbEntity
  8
Default
100
AcDbSpline
210
0.0
220
0.0
230
1.0
 70
    12
 71
     3
 72
    13
 73
     9
 74
     0
 42
0.0000000001
 43
0.0000000001
 40
7.596934473645246
 40
7.596934473645246
 40
7.596934473645246
 40
7.596934473645246
 40
8.0
 40
9.0
 40
10.0
 40
10.0
 40
10.0
 40
10.5243493867946
 40
10.5243493867946
 40
10.5243493867946
 40
10.5243493867946
 10
-10.72940223132099
 20
13.92693717554016
 30
0.0
 41
1.0
 10
-10.64634114550343
 20
13.82460504846554
 30
0.0
 41
1.0
 10
-10.34740344195426
 20
13.47641126612925
 30
0.0
 41
1.0
 10
-9.775175162194465
 20
12.93453944163311
 30
0.0
 41
1.0
 10
-9.237078440121339
 20
12.55951933535654
 30
0.0
 41
1.0
 10
-8.954648798320953
 20
12.39461684595042
 30
0.0
 41
1.0
 10
-8.787265163346238
 20
12.29688638849126
 30
0.0
 41
1.0
 10
-8.612112474632825
 20
12.21267496914948
 30
0.0
 41
1.0
 10
-8.43297157372309
 20
12.13732498848011
 30
0.0
 41
1.0
  0
SPLINE
  5
151
330
1F
100
AcDbEntity
  8
Default
100
AcDbSpline
210
0.0
220
0.0
230
1.0
 70
    12
 71
     3
 72
    11
 73
     7
 74
     0
 42
0.0000000001
 43
0.0000000001
 40
12.83928285628408
 40
12.83928285628408
 40
12.83928285628408
 40
12.83928285628408
 40
14.52546266253197
 40
14.52546266253197
 40
14.52546266253197
 40
19.03331969655663
 40
19.03331969655663
 40
19.03331969655663
 40
19.03331969655663
 10
-6.16785810426568
 20
11.45745608947263
 30
0.0
 41
1.0
 10
-5.617301690492687
 20
11.34475247311975
 30
0.0
 41
1.0
 10
-5.059222368172755
 20
11.26982849004225
 30
0.0
 41
1.0
 10
-4.500373116418732
 20
11.20887810996106
 30
0.0
 41
1.0
 10
-3.004817538208456
 20
11.05390409506236
 30
0.0
 41
0.9990783173093772
 10
-1.503309251871535
 20
10.97776342711068
 30
0.0
 41
0.9990783173093772
 10
0.0
 20
10.98066663871313
 30
0.0
 41
1.0
  0
SPLINE
  5
152
330
1F
100
AcDbEntity
  8
Default
100
AcDbSpline
210
0.0
220
0.0
230
1.0
 70
    12
 71
     3
 72
    29
 73
    25
 74
     0
 42
0.0000000001
 43
0.0000000001
 40
-19.03331969655663
 40
-19.03331969655663
 40
-19.03331969655663
 40
-19.03331969655663
 40
-14.52546266253197
 40
-14.52546266253197
 40
-14.52546266253197
 40
-12.71985186552332
 40
-11.88929203962941
 40
-11.45028914945505
 40
-11.0
 40
-11.0
 40
-11.0
 40
-10.0
 40
-10.0
 40
-10.0
 40
-9.0
 40
-8.0
 40
-7.0
 40
-6.0
 40
-5.0
 40
-4.0
 40
-3.0
 40
-2.0
 40
-1.0
 40
0.0
 40
0.0
 40
0.0
 40
0.0
 10
0.0
 20
10.98066663871313
 30
0.0
 41
1.0
 10
1.503309251871535
 20
10.97776342711068
 30
0.0
 41
0.9990783173093772
 10
3.004817538208456
 20
11.05390409506236
 30
0.0
 41
0.9990783173093772
 10
4.500373116418732
 20
11.20887810996106
 30
0.0
 41
1.0
 10
5.098805287844538
 20
11.27414556480104
 30
0.0
 41
1.0
 10
5.971220287392828
 20
11.39282895104991
 30
0.0
 41
1.0
 10
6.966105543417811
 20
11.6438036220229
 30
0.0
 41
1.0
 10
7.515127593791302
 20
11.80814566588463
 30
0.0
 41
1.0
 10
7.796590539126807
 20
11.90182420694826
 30
0.0
 41
1.0
 10
7.938438624406281
 20
11.95066829019565
 30
0.0
 41
1.0
 10
8.287948620980622
 20
12.07101884223052
 30
0.0
 41
1.0
 10
8.635427227379582
 20
12.20823261451918
 30
0.0
 41
1.0
 10
8.954648798320953
 20
12.39461684595042
 30
0.0
 41
1.0
 10
9.237078440121339
 20
12.55951933535654
 30
0.0
 41
1.0
 10
9.775175162194465
 20
12.93453944163311
 30
0.0
 41
1.0
 10
10.48954804152392
 20
13.61101515802955
 30
0.0
 41
1.0
 10
11.09673893229347
 20
14.3844551490721
 30
0.0
 41
1.0
 10
11.60462288227209
 20
15.22547366235495
 30
0.0
 41
1.0
 10
12.03569416761365
 20
16.10720457242629
 30
0.0
 41
1.0
 10
12.43363080437166
 20
17.00396645549841
 30
0.0
 41
1.0
 10
12.81764204415382
 20
17.90678595313565
 30
0.0
 41
1.0
 10
13.16815573947031
 20
18.82336180942655
 30
0.0
 41
1.0
 10
13.47744091830254
 20
19.75449221022331
 30
0.0
 41
1.0
 10
13.74625544603186
 20
20.51227549882142
 30
0.0
 41
1.0
 10
13.85596687457265
 20
20.82034288633973
 30
0.0
 41
1.0
  0
SPLINE
  5
153
330
1F
100
AcDbEntity
  8
Default
100
AcDbSpline
210
0.0
220
0.0
230
1.0
 70
     8
 71
     3
 72
    11
 73
     7
 74
     0
 42
0.0000000001
 43
0.0000000001
 40
-1.198229879357077
 40
-1.198229879357077
 40
-1.198229879357077
 40
-1.198229879357077
 40
-0.5361425090251268
 40
-0.2609259994466885
 40
-0.1290889925177595
 40
0.0
 40
0.0
 40
0.0
 40
0.0
 10
13.85596687457265
 20
20.82034288633973
 30
0.0
 10
13.92938919087197
 20
21.02651120871705
 30
0.0
 10
14.00752622179263
 20
21.33988994713255
 30
0.0
 10
13.92973291458191
 20
21.69410520964848
 30
0.0
 10
13.84632791415013
 20
21.85245647626033
 30
0.0
 10
13.7932129268604
 20
21.9220600201548
 30
0.0
 10
13.76364058738036
 20
21.95323056945868
 30
0.0
  0
ENDSEC
  0
SECTION
  2
OBJECTS
  0
DICTIONARY
  5
C
330
0
100
AcDbDictionary
281
     1
  3
ACAD_GROUP
350
D
  3
ACAD_LAYOUT
350
1A
  3
ACAD_MLEADERSTYLE
350
155
  3
ACAD_MLINESTYLE
350
17
  3
ACAD_PLOTSETTINGS
350
19
  3
ACAD_PLOTSTYLENAME
350
E
  3
ACAD_TABLESTYLE
350
154
  3
ACAD_VISUALSTYLE
350
2A
  0
DICTIONARY
  5
D
102
{ACAD_REACTORS
330
C
102
}
330
C
100
AcDbDictionary
281
     1
  0
DICTIONARY
  5
1A
102
{ACAD_REACTORS
330
C
102
}
330
C
100
AcDbDictionary
281
     1
  3
Layout1
350
1E
  3
Layout2
350
26
  3
Model
350
22
  0
DICTIONARY
  5
155
102
{ACAD_REACTORS
330
C
102
}
330
C
100
AcDbDictionary
281
     1
  0
DICTIONARY
  5
17
102
{ACAD_REACTORS
330
C
102
}
330
C
100
AcDbDictionary
281
     1
  3
Standard
350
18
  0
DICTIONARY
  5
19
102
{ACAD_REACTORS
330
C
102
}
330
C
100
AcDbDictionary
281
     1
  0
ACDBDICTIONARYWDFLT
  5
E
102
{ACAD_REACTORS
330
C
102
}
330
C
100
AcDbDictionary
281
     1
  3
Normal
350
F
100
AcDbDictionaryWithDefault
340
F
  0
DICTIONARY
  5
154
102
{ACAD_REACTORS
330
C
102
}
330
C
100
AcDbDictionary
281
     1
  0
DICTIONARY
  5
2A
102
{ACAD_REACTORS
330
C
102
}
330
C
100
AcDbDictionary
281
     1
  3
2dWireframe
350
2F
  3
3D Hidden
350
31
  3
3dWireframe
350
30
  3
Basic
350
32
  3
Brighten
350
36
  3
ColorChange
350
3A
  3
Conceptual
350
34
  3
Dim
350
35
  3
Facepattern
350
39
  3
Flat
350
2B
  3
FlatWithEdges
350
2C
  3
Gouraud
350
2D
  3
GouraudWithEdges
350
2E
  3
Linepattern
350
38
  3
Realistic
350
33
  3
Thicken
350
37
  0
LAYOUT
  5
1E
102
{ACAD_REACTORS
330
1A
102
}
330
1A
100
AcDbPlotSettings
  1

  2
none_device
  4

  6

 40
0.0
 41
0.0
 42
0.0
 43
0.0
 44
0.0
 45
0.0
 46
0.0
 47
0.0
 48
0.0
 49
0.0
140
0.0
141
0.0
142
1.0
143
1.0
 70
   688
 72
     0
 73
     0
 74
     5
  7

 75
    16
 76
     0
 77
     2
 78
   300
147
1.0
148
0.0
149
0.0
100
AcDbLayout
  1
Layout1
 70
     1
 71
     1
 10
0.0
 20
0.0
 11
12.0
 21
9.0
 12
0.0
 22
0.0
 32
0.0
 14
1.000000000000000E+20
 24
1.000000000000000E+20
 34
1.000000000000000E+20
 15
-1.000000000000000E+20
 25
-1.000000000000000E+20
 35
-1.000000000000000E+20
146
0.0
 13
0.0
 23
0.0
 33
0.0
 16
1.0
 26
0.0
 36
0.0
 17
0.0
 27
1.0
 37
0.0
 76
     0
330
1B
  0
LAYOUT
  5
26
102
{ACAD_REACTORS
330
1A
102
}
330
1A
100
AcDbPlotSettings
  1

  2
none_device
  4

  6

 40
0.0
 41
0.0
 42
0.0
 43
0.0
 44
0.0
 45
0.0
 46
0.0
 47
0.0
 48
0.0
 49
0.0
140
0.0
141
0.0
142
1.0
143
1.0
 70
   688
 72
     0
 73
     0
 74
     5
  7

 75
    16
 76
     0
 77
     2
 78
   300
147
1.0
148
0.0
149
0.0
100
AcDbLayout
  1
Layout2
 70
     1
 71
     2
 10
0.0
 20
0.0
 11
0.0
 21
0.0
 12
0.0
 22
0.0
 32
0.0
 14
0.0
 24
0.0
 34
0.0
 15
0.0
 25
0.0
 35
0.0
146
0.0
 13
0.0
 23
0.0
 33
0.0
 16
1.0
 26
0.0
 36
0.0
 17
0.0
 27
1.0
 37
0.0
 76
     0
330
23
  0
LAYOUT
  5
22
102
{ACAD_REACTORS
330
1A
102
}
330
1A
100
AcDbPlotSettings
  1

  2
none_device
  4

  6

 40
0.0
 41
0.0
 42
0.0
 43
0.0
 44
0.0
 45
0.0
 46
0.0
 47
0.0
 48
0.0
 49
0.0
140
0.0
141
0.0
142
1.0
143
1.0
 70
  1712
 72
     0
 73
     0
 74
     0
  7

 75
     0
 76
     0
 77
     2
 78
   300
147
1.0
148
0.0
149
0.0
100
AcDbLayout
  1
Model
 70
     1
 71
     0
 10
0.0
 20
0.0
 11
12.0
 21
9.0
 12
0.0
 22
0.0
 32
0.0
 14
-21.94529949049637
 24
0.0000000000000034
 34
0.0
 15
66.79255956574454
 25
84.59748850640543
 35
0.0
146
0.0
 13
0.0
 23
0.0
 33
0.0
 16
1.0
 26
0.0
 36
0.0
 17
0.0
 27
1.0
 37
0.0
 76
     0
330
1F
331
29
  0
MLINESTYLE
  5
18
102
{ACAD_REACTORS
330
17
102
}
330
17
100
AcDbMlineStyle
  2
Standard
 70
     0
  3

 62
   256
 51
90.0
 52
90.0
 71
     2
 49
0.5
 62
   256
  6
BYLAYER
 49
-0.5
 62
   256
  6
BYLAYER
  0
ACDBPLACEHOLDER
  5
F
102
{ACAD_REACTORS
330
E
102
}
330
E
  0
VISUALSTYLE
  5
2F
102
{ACAD_REACTORS
330
2A
102
}
330
2A
100
AcDbVisualStyle
  2
2dWireframe
 70
     4
 71
     0
 72
     2
 73
     0
 90
        0
 40
-0.6
 41
-30.0
 62
     5
 63
     7
421
 16777215
 74
     1
 91
        4
 64
     7
 65
   257
 75
     1
175
     1
 42
1.0
 92
        0
 66
   257
 43
1.0
 76
     1
 77
     6
 78
     2
 67
     7
 79
     5
170
     0
171
     0
290
     0
174
     0
 93
        1
 44
0.0
173
     0
291
     0
 45
0.0
1001
ACAD
1000
AcDbSavedByObjectVersion
1070
     0
  0
VISUALSTYLE
  5
31
102
{ACAD_REACTORS
330
2A
102
}
330
2A
100
AcDbVisualStyle
  2
3D Hidden
 70
     6
 71
     1
 72
     2
 73
     2
 90
        0
 40
-0.6
 41
-30.0
 62
     5
 63
     7
421
 16777215
 74
     2
 91
        2
 64
     7
 65
   257
 75
     2
175
     1
 42
40.0
 92
        0
 66
   257
 43
1.0
 76
     1
 77
     6
 78
     2
 67
     7
 79
     3
170
     0
171
     0
290
     0
174
     0
 93
        1
 44
0.0
173
     0
291
     0
 45
0.0
1001
ACAD
1000
AcDbSavedByObjectVersion
1070
     0
  0
VISUALSTYLE
  5
30
102
{ACAD_REACTORS
330
2A
102
}
330
2A
100
AcDbVisualStyle
  2
3dWireframe
 70
     5
 71
     0
 72
     2
 73
     0
 90
        0
 40
-0.6
 41
-30.0
 62
     5
 63
     7
421
 16777215
 74
     1
 91
        4
 64
     7
 65
   257
 75
     1
175
     1
 42
1.0
 92
        0
 66
   257
 43
1.0
 76
     1
 77
     6
 78
     2
 67
     7
 79
     5
170
     0
171
     0
290
     0
174
     0
 93
        1
 44
0.0
173
     0
291
     0
 45
0.0
1001
ACAD
1000
AcDbSavedByObjectVersion
1070
     0
  0
VISUALSTYLE
  5
32
102
{ACAD_REACTORS
330
2A
102
}
330
2A
100
AcDbVisualStyle
  2
Basic
 70
     7
 71
     1
 72
     0
 73
     1
 90
        0
 40
-0.6
 41
-30.0
 62
     5
 63
     7
421
 16777215
 74
     0
 91
        4
 64
     7
 65
   257
 75
     1
175
     1
 42
1.0
 92
        8
 66
     7
 43
1.0
 76
     1
 77
     6
 78
     2
 67
     7
 79
     5
170
     0
171
     0
290
     0
174
     0
 93
        1
 44
0.0
173
     0
291
     1
 45
0.0
1001
ACAD
1000
AcDbSavedByObjectVersion
1070
     0
  0
VISUALSTYLE
  5
36
102
{ACAD_REACTORS
330
2A
102
}
330
2A
100
AcDbVisualStyle
  2
Brighten
 70
    12
 71
     2
 72
     2
 73
     0
 90
        0
 40
-0.6
 41
-30.0
 62
     5
 63
     7
421
 16777215
 74
     1
 91
        4
 64
     7
 65
   257
 75
     1
175
     1
 42
1.0
 92
        8
 66
     7
 43
1.0
 76
     1
 77
     6
 78
     2
 67
     7
 79
     5
170
     0
171
     0
290
     0
174
     0
 93
        1
 44
50.0
173
     0
291
     1
 45
0.0
1001
ACAD
1000
AcDbSavedByObjectVersion
1070
     0
  0
VISUALSTYLE
  5
3A
102
{ACAD_REACTORS
330
2A
102
}
330
2A
100
AcDbVisualStyle
  2
ColorChange
 70
    16
 71
     2
 72
     2
 73
     3
 90
        0
 40
-0.6
 41
-30.0
 62
     5
 63
     8
421
  8421504
 74
     1
 91
        4
 64
     7
 65
   257
 75
     1
175
     1
 42
1.0
 92
        8
 66
     8
424
  8421504
 43
1.0
 76
     1
 77
     6
 78
     2
 67
     7
 79
     5
170
     0
171
     0
290
     0
174
     0
 93
        1
 44
0.0
173
     0
291
     1
 45
0.0
1001
ACAD
1000
AcDbSavedByObjectVersion
1070
     0
  0
VISUALSTYLE
  5
34
102
{ACAD_REACTORS
330
2A
102
}
330
2A
100
AcDbVisualStyle
  2
Conceptual
 70
     9
 71
     3
 72
     2
 73
     0
 90
        0
 40
-0.6
 41
-30.0
 62
     5
 63
     7
421
 16777215
 74
     2
 91
        2
 64
     7
 65
   257
 75
     1
175
     1
 42
40.0
 92
        8
 66
     7
 43
1.0
 76
     1
 77
     6
 78
     2
 67
     7
 79
     3
170
     0
171
     0
290
     0
174
     0
 93
        1
 44
0.0
173
     0
291
     0
 45
0.0
1001
ACAD
1000
AcDbSavedByObjectVersion
1070
     0
  0
VISUALSTYLE
  5
35
102
{ACAD_REACTORS
330
2A
102
}
330
2A
100
AcDbVisualStyle
  2
Dim
 70
    11
 71
     2
 72
     2
 73
     0
 90
        0
 40
-0.6
 41
-30.0
 62
     5
 63
     7
421
 16777215
 74
     1
 91
        4
 64
     7
 65
   257
 75
     1
175
     1
 42
1.0
 92
        8
 66
     7
 43
1.0
 76
     1
 77
     6
 78
     2
 67
     7
 79
     5
170
     0
171
     0
290
     0
174
     0
 93
        1
 44
-50.0
173
     0
291
     1
 45
0.0
1001
ACAD
1000
AcDbSavedByObjectVersion
1070
     0
  0
VISUALSTYLE
  5
39
102
{ACAD_REACTORS
330
2A
102
}
330
2A
100
AcDbVisualStyle
  2
Facepattern
 70
    15
 71
     2
 72
     2
 73
     0
 90
        0
 40
-0.6
 41
-30.0
 62
     5
 63
     7
421
 16777215
 74
     1
 91
        4
 64
     7
 65
   257
 75
     1
175
     1
 42
1.0
 92
        8
 66
     7
 43
1.0
 76
     1
 77
     6
 78
     2
 67
     7
 79
     5
170
     0
171
     0
290
     0
174
     0
 93
        1
 44
0.0
173
     0
291
     1
 45
0.0
1001
ACAD
1000
AcDbSavedByObjectVersion
1070
     0
  0
VISUALSTYLE
  5
2B
102
{ACAD_REACTORS
330
2A
102
}
330
2A
100
AcDbVisualStyle
  2
Flat
 70
     0
 71
     2
 72
     1
 73
     1
 90
        2
 40
-0.6
 41
30.0
 62
     5
 63
     7
421
 16777215
 74
     0
 91
        4
 64
     7
 65
   257
 75
     1
175
     1
 42
1.0
 92
        8
 66
     7
 43
1.0
 76
     1
 77
     6
 78
     2
 67
     7
 79
     5
170
     0
171
     0
290
     0
174
     0
 93
       13
 44
0.0
173
     0
291
     1
 45
0.0
1001
ACAD
1000
AcDbSavedByObjectVersion
1070
     0
  0
VISUALSTYLE
  5
2C
102
{ACAD_REACTORS
330
2A
102
}
330
2A
100
AcDbVisualStyle
  2
FlatWithEdges
 70
     1
 71
     2
 72
     1
 73
     1
 90
        2
 40
-0.6
 41
30.0
 62
     5
 63
     7
421
 16777215
 74
     1
 91
        4
 64
     7
 65
   257
 75
     1
175
     1
 42
1.0
 92
        0
 66
   257
 43
1.0
 76
     1
 77
     6
 78
     2
 67
     7
 79
     5
170
     0
171
     0
290
     0
174
     0
 93
       13
 44
0.0
173
     0
291
     1
 45
0.0
1001
ACAD
1000
AcDbSavedByObjectVersion
1070
     0
  0
VISUALSTYLE
  5
2D
102
{ACAD_REACTORS
330
2A
102
}
330
2A
100
AcDbVisualStyle
  2
Gouraud
 70
     2
 71
     2
 72
     2
 73
     1
 90
        2
 40
-0.6
 41
30.0
 62
     5
 63
     7
421
 16777215
 74
     0
 91
        4
 64
     7
 65
   257
 75
     1
175
     1
 42
1.0
 92
        0
 66
     7
 43
1.0
 76
     1
 77
     6
 78
     2
 67
     7
 79
     5
170
     0
171
     0
290
     0
174
     0
 93
       13
 44
0.0
173
     0
291
     1
 45
0.0
1001
ACAD
1000
AcDbSavedByObjectVersion
1070
     0
  0
VISUALSTYLE
  5
2E
102
{ACAD_REACTORS
330
2A
102
}
330
2A
100
AcDbVisualStyle
  2
GouraudWithEdges
 70
     3
 71
     2
 72
     2
 73
     1
 90
        2
 40
-0.6
 41
30.0
 62
     5
 63
     7
421
 16777215
 74
     1
 91
        4
 64
     7
 65
   257
 75
     1
175
     1
 42
1.0
 92
        0
 66
   257
 43
1.0
 76
     1
 77
     6
 78
     2
 67
     7
 79
     5
170
     0
171
     0
290
     0
174
     0
 93
       13
 44
0.0
173
     0
291
     1
 45
0.0
1001
ACAD
1000
AcDbSavedByObjectVersion
1070
     0
  0
VISUALSTYLE
  5
38
102
{ACAD_REACTORS
330
2A
102
}
330
2A
100
AcDbVisualStyle
  2
Linepattern
 70
    14
 71
     2
 72
     2
 73
     0
 90
        0
 40
-0.6
 41
-30.0
 62
     5
 63
     7
421
 16777215
 74
     1
 91
        4
 64
     7
 65
   257
 75
     7
175
     7
 42
1.0
 92
        8
 66
     7
 43
1.0
 76
     1
 77
     6
 78
     2
 67
     7
 79
     5
170
     0
171
     0
290
     0
174
     0
 93
        1
 44
0.0
173
     0
291
     1
 45
0.0
1001
ACAD
1000
AcDbSavedByObjectVersion
1070
     0
  0
VISUALSTYLE
  5
33
102
{ACAD_REACTORS
330
2A
102
}
330
2A
100
AcDbVisualStyle
  2
Realistic
 70
     8
 71
     2
 72
     2
 73
     0
 90
        0
 40
-0.6
 41
-30.0
 62
     5
 63
     7
421
 16777215
 74
     1
 91
        0
 64
     7
 65
   257
 75
     1
175
     1
 42
1.0
 92
        8
 66
     8
424
  7895160
 43
1.0
 76
     1
 77
     6
 78
     2
 67
     7
 79
     5
170
     0
171
     0
290
     0
174
     0
 93
       13
 44
0.0
173
     0
291
     0
 45
0.0
1001
ACAD
1000
AcDbSavedByObjectVersion
1070
     0
  0
VISUALSTYLE
  5
37
102
{ACAD_REACTORS
330
2A
102
}
330
2A
100
AcDbVisualStyle
  2
Thicken
 70
    13
 71
     2
 72
     2
 73
     0
 90
        0
 40
-0.6
 41
-30.0
 62
     5
 63
     7
421
 16777215
 74
     1
 91
        4
 64
     7
 65
   257
 75
     1
175
     1
 42
1.0
 92
       12
 66
     7
 43
1.0
 76
     1
 77
     6
 78
     2
 67
     7
 79
     5
170
     0
171
     0
290
     0
174
     0
 93
        1
 44
0.0
173
     0
291
     1
 45
0.0
1001
ACAD
1000
AcDbSavedByObjectVersion
1070
     0
  0
ENDSEC
  0
EOF
