  0
SECTION
  2
HEADER
  9
$ACADVER
  1
AC1018
  9
$ACADMAINTVER
 70
     0
  9
$DWGCODEPAGE
  3
ANSI_1252
  9
$INSBASE
 10
0.0
 20
0.0
 30
0.0
  9
$EXTMIN
 10
-13.96753701667519
 20
-0.0000000000000001
 30
0.0
  9
$EXTMAX
 10
56.2168833029301
 20
79.4379484292491
 30
0.0
  9
$LIMMIN
 10
0.0
 20
0.0
  9
$LIMMAX
 10
12.0
 20
9.0
  9
$ORTHOMODE
 70
     0
  9
$REGENMODE
 70
     1
  9
$FILLMODE
 70
     1
  9
$QTEXTMODE
 70
     0
  9
$MIRRTEXT
 70
     1
  9
$LTSCALE
 40
0.0393700787401575
  9
$ATTMODE
 70
     1
  9
$TEXTSIZE
 40
0.2
  9
$TRACEWID
 40
0.05
  9
$TEXTSTYLE
  7
Standard
  9
$CLAYER
  8
Default
  9
$CELTYPE
  6
ByLayer
  9
$CECOLOR
 62
   256
  9
$CELTSCALE
 40
1.0
  9
$DISPSILH
 70
     0
  9
$DIMSCALE
 40
1.0
  9
$DIMASZ
 40
0.18
  9
$DIMEXO
 40
0.0625
  9
$DIMDLI
 40
0.38
  9
$DIMRND
 40
0.0
  9
$DIMDLE
 40
0.0
  9
$DIMEXE
 40
0.18
  9
$DIMTP
 40
0.0
  9
$DIMTM
 40
0.0
  9
$DIMTXT
 40
0.18
  9
$DIMCEN
 40
0.09
  9
$DIMTSZ
 40
0.0
  9
$DIMTOL
 70
     0
  9
$DIMLIM
 70
     0
  9
$DIMTIH
 70
     1
  9
$DIMTOH
 70
     1
  9
$DIMSE1
 70
     0
  9
$DIMSE2
 70
     0
  9
$DIMTAD
 70
     0
  9
$DIMZIN
 70
     0
  9
$DIMBLK
  1

  9
$DIMASO
 70
     1
  9
$DIMSHO
 70
     1
  9
$DIMPOST
  1

  9
$DIMAPOST
  1

  9
$DIMALT
 70
     0
  9
$DIMALTD
 70
     2
  9
$DIMALTF
 40
25.4
  9
$DIMLFAC
 40
1.0
  9
$DIMTOFL
 70
     0
  9
$DIMTVP
 40
0.0
  9
$DIMTIX
 70
     0
  9
$DIMSOXD
 70
     0
  9
$DIMSAH
 70
     0
  9
$DIMBLK1
  1

  9
$DIMBLK2
  1

  9
$DIMSTYLE
  2
Standard
  9
$DIMCLRD
 70
     0
  9
$DIMCLRE
 70
     0
  9
$DIMCLRT
 70
     0
  9
$DIMTFAC
 40
1.0
  9
$DIMGAP
 40
0.09
  9
$DIMJUST
 70
     0
  9
$DIMSD1
 70
     0
  9
$DIMSD2
 70
     0
  9
$DIMTOLJ
 70
     1
  9
$DIMTZIN
 70
     0
  9
$DIMALTZ
 70
     0
  9
$DIMALTTZ
 70
     0
  9
$DIMUPT
 70
     0
  9
$DIMDEC
 70
     4
  9
$DIMTDEC
 70
     4
  9
$DIMALTU
 70
     2
  9
$DIMALTTD
 70
     2
  9
$DIMTXSTY
  7
Standard
  9
$DIMAUNIT
 70
     0
  9
$DIMADEC
 70
     0
  9
$DIMALTRND
 40
0.0
  9
$DIMAZIN
 70
     0
  9
$DIMDSEP
 70
    46
  9
$DIMATFIT
 70
     3
  9
$DIMFRAC
 70
     0
  9
$DIMLDRBLK
  1

  9
$DIMLUNIT
 70
     2
  9
$DIMLWD
 70
    -2
  9
$DIMLWE
 70
    -2
  9
$DIMTMOVE
 70
     2
  9
$LUNITS
 70
     2
  9
$LUPREC
 70
     3
  9
$SKETCHINC
 40
0.1
  9
$FILLETRAD
 40
0.5
  9
$AUNITS
 70
     0
  9
$AUPREC
 70
     0
  9
$MENU
  1
.
  9
$ELEVATION
 40
0.0
  9
$PELEVATION
 40
0.0
  9
$THICKNESS
 40
0.0
  9
$LIMCHECK
 70
     0
  9
$CHAMFERA
 40
0.5
  9
$CHAMFERB
 40
0.5
  9
$CHAMFERC
 40
1.0
  9
$CHAMFERD
 40
0.0
  9
$SKPOLY
 70
     0
  9
$TDCREATE
 40
2456338.482394525
  9
$TDUCREATE
 40
2456338.690727859
  9
$TDUPDATE
 40
2456338.482394537
  9
$TDUUPDATE
 40
2456338.69072787
  9
$TDINDWG
 40
0.0000000116
  9
$TDUSRTIMER
 40
0.0000000116
  9
$USRTIMER
 70
     1
  9
$ANGBASE
 50
0.0
  9
$ANGDIR
 70
     0
  9
$PDMODE
 70
     0
  9
$PDSIZE
 40
0.0
  9
$PLINEWID
 40
0.0
  9
$SPLFRAME
 70
     0
  9
$SPLINETYPE
 70
     6
  9
$SPLINESEGS
 70
     8
  9
$HANDSEED
  5
1FF
  9
$SURFTAB1
 70
     6
  9
$SURFTAB2
 70
     6
  9
$SURFTYPE
 70
     6
  9
$SURFU
 70
     6
  9
$SURFV
 70
     6
  9
$UCSBASE
  2

  9
$UCSNAME
  2

  9
$UCSORG
 10
0.0
 20
0.0
 30
0.0
  9
$UCSXDIR
 10
1.0
 20
0.0
 30
0.0
  9
$UCSYDIR
 10
0.0
 20
1.0
 30
0.0
  9
$UCSORTHOREF
  2

  9
$UCSORTHOVIEW
 70
     0
  9
$UCSORGTOP
 10
0.0
 20
0.0
 30
0.0
  9
$UCSORGBOTTOM
 10
0.0
 20
0.0
 30
0.0
  9
$UCSORGLEFT
 10
0.0
 20
0.0
 30
0.0
  9
$UCSORGRIGHT
 10
0.0
 20
0.0
 30
0.0
  9
$UCSORGFRONT
 10
0.0
 20
0.0
 30
0.0
  9
$UCSORGBACK
 10
0.0
 20
0.0
 30
0.0
  9
$PUCSBASE
  2

  9
$PUCSNAME
  2

  9
$PUCSORG
 10
0.0
 20
0.0
 30
0.0
  9
$PUCSXDIR
 10
1.0
 20
0.0
 30
0.0
  9
$PUCSYDIR
 10
0.0
 20
1.0
 30
0.0
  9
$PUCSORTHOREF
  2

  9
$PUCSORTHOVIEW
 70
     0
  9
$PUCSORGTOP
 10
0.0
 20
0.0
 30
0.0
  9
$PUCSORGBOTTOM
 10
0.0
 20
0.0
 30
0.0
  9
$PUCSORGLEFT
 10
0.0
 20
0.0
 30
0.0
  9
$PUCSORGRIGHT
 10
0.0
 20
0.0
 30
0.0
  9
$PUCSORGFRONT
 10
0.0
 20
0.0
 30
0.0
  9
$PUCSORGBACK
 10
0.0
 20
0.0
 30
0.0
  9
$USERI1
 70
     0
  9
$USERI2
 70
     0
  9
$USERI3
 70
     0
  9
$USERI4
 70
     0
  9
$USERI5
 70
     0
  9
$USERR1
 40
0.0
  9
$USERR2
 40
0.0
  9
$USERR3
 40
0.0
  9
$USERR4
 40
0.0
  9
$USERR5
 40
0.0
  9
$WORLDVIEW
 70
     1
  9
$SHADEDGE
 70
     3
  9
$SHADEDIF
 70
    70
  9
$TILEMODE
 70
     1
  9
$MAXACTVP
 70
    64
  9
$PINSBASE
 10
0.0
 20
0.0
 30
0.0
  9
$PLIMCHECK
 70
     0
  9
$PEXTMIN
 10
1.000000000000000E+20
 20
1.000000000000000E+20
 30
1.000000000000000E+20
  9
$PEXTMAX
 10
-1.000000000000000E+20
 20
-1.000000000000000E+20
 30
-1.000000000000000E+20
  9
$PLIMMIN
 10
0.0
 20
0.0
  9
$PLIMMAX
 10
12.0
 20
9.0
  9
$UNITMODE
 70
     0
  9
$VISRETAIN
 70
     1
  9
$PLINEGEN
 70
     0
  9
$PSLTSCALE
 70
     1
  9
$TREEDEPTH
 70
  3020
  9
$CMLSTYLE
  2
Standard
  9
$CMLJUST
 70
     0
  9
$CMLSCALE
 40
1.0
  9
$PROXYGRAPHICS
 70
     1
  9
$MEASUREMENT
 70
     0
  9
$CELWEIGHT
370
    -1
  9
$ENDCAPS
280
     0
  9
$JOINSTYLE
280
     0
  9
$LWDISPLAY
290
     0
  9
$INSUNITS
 70
     1
  9
$HYPERLINKBASE
  1

  9
$STYLESHEET
  1

  9
$XEDIT
290
     1
  9
$CEPSNTYPE
380
     0
  9
$PSTYLEMODE
290
     1
  9
$FINGERPRINTGUID
  2
{E80751BF-74D5-4A85-942C-4F550C3FCC5A}
  9
$VERSIONGUID
  2
{FAEB1C32-E019-11D5-929B-00C0DF256EC4}
  9
$EXTNAMES
290
     1
  9
$PSVPSCALE
 40
0.0
  9
$OLESTARTUP
290
     0
  9
$SORTENTS
280
   127
  9
$INDEXCTL
280
     0
  9
$HIDETEXT
280
     1
  9
$XCLIPFRAME
290
     0
  9
$HALOGAP
280
     0
  9
$OBSCOLOR
 70
   257
  9
$OBSLTYPE
280
     0
  9
$INTERSECTIONDISPLAY
280
     0
  9
$INTERSECTIONCOLOR
 70
   257
  9
$DIMASSOC
280
     2
  9
$PROJECTNAME
  1

  0
ENDSEC
  0
SECTION
  2
CLASSES
  0
CLASS
  1
ACDBDICTIONARYWDFLT
  2
AcDbDictionaryWithDefault
  3
ObjectDBX Classes
 90
        0
 91
        4
280
     0
281
     0
  0
CLASS
  1
VISUALSTYLE
  2
AcDbVisualStyle
  3
ObjectDBX Classes
 90
     4095
 91
        4
280
     0
281
     0
  0
ENDSEC
  0
SECTION
  2
TABLES
  0
TABLE
  2
VPORT
  5
8
330
0
100
AcDbSymbolTable
 70
     1
  0
VPORT
  5
29
330
8
100
AcDbSymbolTableRecord
100
AcDbViewportTableRecord
  2
*Active
 70
     0
 10
0.0
 20
0.0
 11
1.0
 21
1.0
 12
21.12467314312745
 22
39.71897421462455
 13
0.0
 23
0.0
 14
0.5
 24
0.5
 15
0.5
 25
0.5
 16
0.0
 26
0.0
 36
1.0
 17
0.0
 27
0.0
 37
0.0
 40
81.02670739783409
 41
0.8835124988419684
 42
50.0
 43
0.0
 44
0.0
 50
0.0
 51
0.0
 71
     0
 72
   100
 73
     1
 74
     3
 75
     0
 76
     0
 77
     0
 78
     0
281
     0
 65
     1
110
0.0
120
0.0
130
0.0
111
1.0
121
0.0
131
0.0
112
0.0
122
1.0
132
0.0
 79
     0
146
0.0
  0
ENDTAB
  0
TABLE
  2
LTYPE
  5
5
330
0
100
AcDbSymbolTable
 70
     1
  0
LTYPE
  5
14
330
5
100
AcDbSymbolTableRecord
100
AcDbLinetypeTableRecord
  2
ByBlock
 70
     0
  3

 72
    65
 73
     0
 40
0.0
  0
LTYPE
  5
15
330
5
100
AcDbSymbolTableRecord
100
AcDbLinetypeTableRecord
  2
ByLayer
 70
     0
  3

 72
    65
 73
     0
 40
0.0
  0
LTYPE
  5
16
330
5
100
AcDbSymbolTableRecord
100
AcDbLinetypeTableRecord
  2
Continuous
 70
     0
  3
Solid line
 72
    65
 73
     0
 40
0.0
  0
ENDTAB
  0
TABLE
  2
LAYER
  5
2
330
0
100
AcDbSymbolTable
 70
     4
  0
LAYER
  5
10
330
2
100
AcDbSymbolTableRecord
100
AcDbLayerTableRecord
  2
0
 70
     0
 62
     7
  6
Continuous
370
    -3
390
F
  0
LAYER
  5
3B
330
2
100
AcDbSymbolTableRecord
100
AcDbLayerTableRecord
  2
Make2D visible lines
 70
     0
 62
     7
  6
Continuous
370
    -3
390
F
  0
LAYER
  5
49
330
2
100
AcDbSymbolTableRecord
100
AcDbLayerTableRecord
  2
Default
 70
     0
 62
     7
  6
Continuous
370
    -3
390
F
  0
LAYER
  5
52
330
2
100
AcDbSymbolTableRecord
100
AcDbLayerTableRecord
  2
Make2D visible lines - Tangent
 70
     0
 62
     7
  6
Continuous
370
    -3
390
F
  0
ENDTAB
  0
TABLE
  2
STYLE
  5
3
330
0
100
AcDbSymbolTable
 70
     1
  0
STYLE
  5
11
330
3
100
AcDbSymbolTableRecord
100
AcDbTextStyleTableRecord
  2
Standard
 70
     0
 40
0.0
 41
1.0
 50
0.0
 71
     0
 42
0.2
  3
txt
  4

  0
ENDTAB
  0
TABLE
  2
VIEW
  5
6
330
0
100
AcDbSymbolTable
 70
     0
  0
ENDTAB
  0
TABLE
  2
UCS
  5
7
330
0
100
AcDbSymbolTable
 70
     0
  0
ENDTAB
  0
TABLE
  2
APPID
  5
9
330
0
100
AcDbSymbolTable
 70
     1
  0
APPID
  5
12
330
9
100
AcDbSymbolTableRecord
100
AcDbRegAppTableRecord
  2
ACAD
 70
     0
  0
ENDTAB
  0
TABLE
  2
DIMSTYLE
  5
A
330
0
100
AcDbSymbolTable
 70
     1
100
AcDbDimStyleTable
  0
DIMSTYLE
105
27
330
A
100
AcDbSymbolTableRecord
100
AcDbDimStyleTableRecord
  2
Standard
 70
     0
340
11
  0
ENDTAB
  0
TABLE
  2
BLOCK_RECORD
  5
1
330
0
100
AcDbSymbolTable
 70
     1
  0
BLOCK_RECORD
  5
1F
330
1
100
AcDbSymbolTableRecord
100
AcDbBlockTableRecord
  2
*Model_Space
340
22
  0
BLOCK_RECORD
  5
1B
330
1
100
AcDbSymbolTableRecord
100
AcDbBlockTableRecord
  2
*Paper_Space
340
1E
  0
BLOCK_RECORD
  5
23
330
1
100
AcDbSymbolTableRecord
100
AcDbBlockTableRecord
  2
*Paper_Space0
340
26
  0
ENDTAB
  0
ENDSEC
  0
SECTION
  2
BLOCKS
  0
BLOCK
  5
20
330
1F
100
AcDbEntity
  8
0
100
AcDbBlockBegin
  2
*Model_Space
 70
     0
 10
0.0
 20
0.0
 30
0.0
  3
*Model_Space
  1

  0
ENDBLK
  5
21
330
1F
100
AcDbEntity
  8
0
100
AcDbBlockEnd
  0
BLOCK
  5
1C
330
1B
100
AcDbEntity
 67
     1
  8
0
100
AcDbBlockBegin
  2
*Paper_Space
 70
     0
 10
0.0
 20
0.0
 30
0.0
  3
*Paper_Space
  1

  0
ENDBLK
  5
1D
330
1B
100
AcDbEntity
 67
     1
  8
0
100
AcDbBlockEnd
  0
BLOCK
  5
24
330
23
100
AcDbEntity
  8
0
100
AcDbBlockBegin
  2
*Paper_Space0
 70
     0
 10
0.0
 20
0.0
 30
0.0
  3
*Paper_Space0
  1

  0
ENDBLK
  5
25
330
23
100
AcDbEntity
  8
0
100
AcDbBlockEnd
  0
ENDSEC
  0
SECTION
  2
ENTITIES
  0
SPLINE
  5
3C
330
1F
100
AcDbEntity
  8
Make2D visible lines
100
AcDbSpline
210
0.0
220
0.0
230
1.0
 70
    24
 71
     2
 72
     6
 73
     3
 74
     0
 42
0.0000000001
 43
0.0000000001
 40
-0.9827469620957527
 40
-0.9827469620957527
 40
-0.9827469620957527
 40
0.0
 40
0.0
 40
0.0
 10
41.22707574398305
 20
6.297402715026605
 30
0.0
 10
41.2356513936868
 20
6.788701357513297
 30
0.0
 10
41.24422704339055
 20
7.279999999999989
 30
0.0
  0
POLYLINE
  5
3D
330
1F
100
AcDbEntity
  8
Make2D visible lines
100
AcDb2dPolyline
 66
     1
 10
0.0
 20
0.0
 30
0.0
  0
VERTEX
  5
3E
330
3D
100
AcDbEntity
  8
Make2D visible lines
100
AcDbVertex
100
AcDb2dVertex
 10
41.24422704339055
 20
7.279999999999989
 30
0.0
  0
VERTEX
  5
3F
330
3D
100
AcDbEntity
  8
Make2D visible lines
100
AcDbVertex
100
AcDb2dVertex
 10
43.82422704338968
 20
7.279999999999992
 30
0.0
  0
SEQEND
  5
40
330
3D
100
AcDbEntity
  8
Make2D visible lines
  0
SPLINE
  5
41
330
1F
100
AcDbEntity
  8
Make2D visible lines
100
AcDbSpline
210
0.0
220
0.0
230
1.0
 70
    24
 71
     2
 72
     6
 73
     3
 74
     0
 42
0.0000000001
 43
0.0000000001
 40
-0.4258449300514819
 40
-0.4258449300514819
 40
-0.4258449300514819
 40
0.0
 40
0.0
 40
0.0
 10
43.82422704338968
 20
7.279999999999992
 30
0.0
 10
43.82798730353385
 20
7.065134040521362
 30
0.0
 10
43.83174756367801
 20
6.850268081042731
 30
0.0
  0
SPLINE
  5
42
330
1F
100
AcDbEntity
  8
Make2D visible lines
100
AcDbSpline
210
0.0
220
0.0
230
1.0
 70
    12
 71
     2
 72
     6
 73
     3
 74
     0
 42
0.0000000001
 43
0.0000000001
 40
0.0
 40
0.0
 40
0.0
 40
0.977584328121768
 40
0.977584328121768
 40
0.977584328121768
 10
43.83174756367801
 20
6.850268081042731
 30
0.0
 41
1.0
 10
43.83570005451622
 20
6.260934156416845
 30
0.0
 41
0.7698935221867936
 10
44.41393459345402
 20
6.155765846807277
 30
0.0
 41
1.0
  0
SPLINE
  5
43
330
1F
100
AcDbEntity
  8
Make2D visible lines
100
AcDbSpline
210
0.0
220
0.0
230
1.0
 70
    24
 71
     2
 72
     6
 73
     3
 74
     0
 42
0.0000000001
 43
0.0000000001
 40
0.0
 40
0.0
 40
0.0
 40
11.14055117956391
 40
11.14055117956391
 40
11.14055117956391
 10
44.41393459345402
 20
6.155765846807277
 30
0.0
 10
49.90815904388703
 20
5.231414615036349
 30
0.0
 10
55.40238349432002
 20
4.307063383265421
 30
0.0
  0
SPLINE
  5
44
330
1F
100
AcDbEntity
  8
Make2D visible lines
100
AcDbSpline
210
0.0
220
0.0
230
1.0
 70
     8
 71
     3
 72
    14
 73
    10
 74
     0
 42
0.0000000001
 43
0.0000000001
 40
0.0
 40
0.0
 40
0.0
 40
0.0
 40
0.2009292250050245
 40
0.3900776916751833
 40
0.738926480845994
 40
1.049164478402313
 40
1.137757166010446
 40
1.199819143043104
 40
1.855059888109911
 40
1.855059888109911
 40
1.855059888109911
 40
1.855059888109911
 10
55.40238349432002
 20
4.307063383265421
 30
0.0
 10
55.46910845621657
 20
4.296369501303224
 30
0.0
 10
55.59390528429078
 20
4.26335958837537
 30
0.0
 10
55.81816523025749
 20
4.152397479629055
 30
0.0
 10
55.99968407582755
 20
3.923038130909009
 30
0.0
 10
56.05247031095725
 20
3.67475121925238
 30
0.0
 10
56.06188503402196
 20
3.522097085215826
 30
0.0
 10
56.07069673014058
 20
3.25325305058155
 30
0.0
 10
56.08029836832762
 20
3.014683261766395
 30
0.0
 10
56.0879063832672
 20
2.796273513372244
 30
0.0
  0
SPLINE
  5
45
330
1F
100
AcDbEntity
  8
Make2D visible lines
100
AcDbSpline
210
0.0
220
0.0
230
1.0
 70
    12
 71
     2
 72
     8
 73
     5
 74
     0
 42
0.0000000001
 43
0.0000000001
 40
0.0
 40
0.0
 40
0.0
 40
0.0281258329950497
 40
0.0281258329950497
 40
0.0562516659900993
 40
0.0562516659900993
 40
0.0562516659900993
 10
56.0879063832672
 20
2.796273513372244
 30
0.0
 41
1.0
 10
56.08844751664589
 20
2.781411379274648
 30
0.0
 41
0.9203594822606724
 10
56.07812452944997
 20
2.770705689636832
 30
0.0
 41
1.0
 10
56.06780154225404
 20
2.759999999999016
 30
0.0
 41
0.9203594822606724
 10
56.05292956003012
 20
2.760000000000001
 30
0.0
 41
1.0
  0
SPLINE
  5
46
330
1F
100
AcDbEntity
  8
Make2D visible lines
100
AcDbSpline
210
0.0
220
0.0
230
1.0
 70
     8
 71
     3
 72
    11
 73
     7
 74
     0
 42
0.0000000001
 43
0.0000000001
 40
0.0
 40
0.0
 40
0.0
 40
0.0
 40
7.085634484360607
 40
7.361795627002613
 40
7.606429217984398
 40
8.018050506220703
 40
8.018050506220703
 40
8.018050506220703
 40
8.018050506220703
 10
46.8877527922233
 20
3.874115775828577
 30
0.0
 10
49.24053348203658
 20
3.667069193534316
 30
0.0
 10
51.6854725752973
 20
3.456951130207616
 30
0.0
 10
54.21091831661785
 20
3.231811002775113
 30
0.0
 10
54.5170814383803
 20
3.174001529508094
 30
0.0
 10
54.73124967992756
 20
3.13160921158711
 30
0.0
 10
54.86124645485328
 20
3.08563051079437
 30
0.0
  0
SPLINE
  5
47
330
1F
100
AcDbEntity
  8
Make2D visible lines
100
AcDbSpline
210
0.0
220
0.0
230
1.0
 70
    12
 71
     3
 72
    12
 73
     8
 74
     0
 42
0.0000000001
 43
0.0000000001
 40
-1.0
 40
-1.0
 40
-1.0
 40
-1.0
 40
-0.5
 40
-0.5
 40
-0.25
 40
-0.25
 40
0.0
 40
0.0
 40
0.0
 40
0.0
 10
54.86124645485328
 20
3.08563051079437
 30
0.0
 41
1.0
 10
54.95360569284149
 20
3.054549965754353
 30
0.0
 41
1.0
 10
55.04043843381774
 20
3.018012276253865
 30
0.0
 41
1.0
 10
55.15450040350812
 20
2.947221946362584
 30
0.0
 41
1.0
 10
55.18978524161751
 20
2.920923717901369
 30
0.0
 41
1.0
 10
55.25150540159225
 20
2.85958884565809
 30
0.0
 41
1.0
 10
55.27821565778595
 20
2.824823681549516
 30
0.0
 41
1.0
 10
55.2962818742165
 20
2.781523030934368
 30
0.0
 41
1.0
  0
SPLINE
  5
48
330
1F
100
AcDbEntity
  8
Make2D visible lines
100
AcDbSpline
210
0.0
220
0.0
230
1.0
 70
    12
 71
     2
 72
     6
 73
     3
 74
     0
 42
0.0000000001
 43
0.0000000001
 40
0.0
 40
0.0
 40
0.0
 40
0.0411434641823458
 40
0.0411434641823458
 40
0.0411434641823458
 10
55.2962818742165
 20
2.781523030934368
 30
0.0
 41
1.0
 10
55.30526187167848
 20
2.759999999851287
 30
0.0
 41
0.832182746877927
 10
55.32858313282408
 20
2.760000000000002
 30
0.0
 41
1.0
  0
SPLINE
  5
4A
330
1F
100
AcDbEntity
  8
Default
100
AcDbSpline
210
0.0
220
0.0
230
1.0
 70
     8
 71
     3
 72
    11
 73
     7
 74
     0
 42
0.0000000001
 43
0.0000000001
 40
-3.23693309777242
 40
-3.23693309777242
 40
-3.23693309777242
 40
-3.23693309777242
 40
-3.132310362624433
 40
-3.011080897647895
 40
-1.234264891972177
 40
0.0
 40
0.0
 40
0.0
 40
0.0
 10
46.17236864406316
 20
3.17135933350005
 30
0.0
 10
46.14562288775758
 20
3.192067525842577
 30
0.0
 10
46.08387731399355
 20
3.240432042913576
 30
0.0
 10
45.44225781908411
 20
3.425133923439871
 30
0.0
 10
44.43607326218437
 20
3.703516645529733
 30
0.0
 10
43.46828505141367
 20
3.96984400884104
 30
0.0
 10
43.07080946496255
 20
4.076000563448354
 30
0.0
  0
ARC
  5
4B
330
1F
100
AcDbEntity
  8
Default
100
AcDbCircle
 10
42.41601257174904
 20
1.624284038744178
 30
0.0
 40
2.537651057350004
100
AcDbArc
 50
75.04663993689317
 51
84.65383226446174
  0
SPLINE
  5
4C
330
1F
100
AcDbEntity
  8
Default
100
AcDbSpline
210
0.0
220
0.0
230
1.0
 70
     8
 71
     3
 72
     8
 73
     4
 74
     0
 42
0.0000000001
 43
0.0000000001
 40
0.0
 40
0.0
 40
0.0
 40
0.0
 40
1.0
 40
1.0
 40
1.0
 40
1.0
 10
42.65245285817102
 20
4.150896173565485
 30
0.0
 10
42.45571780243947
 20
4.169306634073188
 30
0.0
 10
42.25732829661943
 20
4.190528803100828
 30
0.0
 10
42.06022607298281
 20
4.176588191661652
 30
0.0
  0
ARC
  5
4D
330
1F
100
AcDbEntity
  8
Default
100
AcDbCircle
 10
44.60985828464562
 20
-31.87191517326658
 30
0.0
 40
36.13855585473762
100
AcDbArc
 50
94.04566874948716
 51
96.1443254190237
  0
SPLINE
  5
4E
330
1F
100
AcDbEntity
  8
Default
100
AcDbSpline
210
0.0
220
0.0
230
1.0
 70
     8
 71
     3
 72
    14
 73
    10
 74
     0
 42
0.0000000001
 43
0.0000000001
 40
-8.204530470148132
 40
-8.204530470148132
 40
-8.204530470148132
 40
-8.204530470148132
 40
-4.787868609135582
 40
-1.282026189816285
 40
-0.9685074939250532
 40
-0.751754173128408
 40
-0.3313090765086819
 40
-0.1541283884282293
 40
-0.0000000000000001
 40
-0.0000000000000001
 40
-0.0000000000000001
 40
-0.0000000000000001
 10
40.74182998480518
 20
4.059040510344508
 30
0.0
 10
39.60948821191114
 20
3.937141998620706
 30
0.0
 10
37.31524545755271
 20
3.690029071923173
 30
0.0
 10
34.91724439419822
 20
3.430629161754085
 30
0.0
 10
33.57963029266554
 20
3.28617039100558
 30
0.0
 10
33.26450171299744
 20
3.253040106642492
 30
0.0
 10
32.9957981720577
 20
3.212278789253769
 30
0.0
 10
32.75267149571809
 20
3.150567211404313
 30
0.0
 10
32.64801398022674
 20
3.11515039554157
 30
0.0
 10
32.60034066910423
 20
3.095924204151559
 30
0.0
  0
SPLINE
  5
4F
330
1F
100
AcDbEntity
  8
Default
100
AcDbSpline
210
0.0
220
0.0
230
1.0
 70
    12
 71
     3
 72
    14
 73
    10
 74
     0
 42
0.0000000001
 43
0.0000000001
 40
-0.4850350027423287
 40
-0.4850350027423287
 40
-0.4850350027423287
 40
-0.4850350027423287
 40
-0.2503328357454272
 40
-0.2049997550560486
 40
-0.1554078339195929
 40
-0.0419729879099941
 40
-0.0419729879099941
 40
-0.0419729879099941
 40
0.0
 40
0.0
 40
0.0
 40
0.0
 10
32.60034066910423
 20
3.095924204151559
 30
0.0
 41
1.0
 10
32.528752551715
 20
3.06705339963289
 30
0.0
 41
1.0
 10
32.42331119647116
 20
3.016166851016364
 30
0.0
 41
1.0
 10
32.35141200148576
 20
2.932110820384092
 30
0.0
 41
1.0
 10
32.31622134300277
 20
2.872078965798318
 30
0.0
 41
1.0
 10
32.29579315024961
 20
2.821506951458777
 30
0.0
 41
1.0
 10
32.28401774542542
 20
2.78237710155552
 30
0.0
 41
1.0
 10
32.27862170323721
 20
2.768493375786194
 30
0.0
 41
0.8842711137923068
 10
32.26634481685517
 20
2.760058141746936
 30
0.0
 41
0.8842711137923068
 10
32.25144945744056
 20
2.76000000015854
 30
0.0
 41
1.0
  0
SPLINE
  5
50
330
1F
100
AcDbEntity
  8
Make2D visible lines
100
AcDbSpline
210
0.0
220
0.0
230
1.0
 70
    12
 71
     2
 72
     6
 73
     3
 74
     0
 42
0.0000000001
 43
0.0000000001
 40
0.0
 40
0.0
 40
0.0
 40
0.4169760767400937
 40
0.4169760767400937
 40
0.4169760767400937
 10
46.1680770374853
 20
3.208276559050868
 30
0.0
 41
1.0
 10
46.1923105534038
 20
3.001160442240106
 30
0.0
 41
0.9997052877389728
 10
46.20650878958405
 20
2.792587652478247
 30
0.0
 41
1.0
  0
SPLINE
  5
51
330
1F
100
AcDbEntity
  8
Make2D visible lines
100
AcDbSpline
210
0.0
220
0.0
230
1.0
 70
    12
 71
     2
 72
     6
 73
     3
 74
     0
 42
0.0000000001
 43
0.0000000001
 40
0.0
 40
0.0
 40
0.0
 40
0.051971837302968
 40
0.051971837302968
 40
0.051971837302968
 10
46.20650878958405
 20
2.792587652478247
 30
0.0
 41
1.0
 10
46.20937244969211
 20
2.76013975595634
 30
0.0
 41
0.7390041367116041
 10
46.24141957536038
 20
2.760000000351793
 30
0.0
 41
1.0
  0
SPLINE
  5
53
330
1F
100
AcDbEntity
  8
Make2D visible lines - Tangent
100
AcDbSpline
210
0.0
220
0.0
230
1.0
 70
    12
 71
     2
 72
     8
 73
     5
 74
     0
 42
0.0000000001
 43
0.0000000001
 40
0.0
 40
0.0
 40
0.0
 40
0.0281548017607272
 40
0.0281548017607272
 40
0.0563096035214544
 40
0.0563096035214544
 40
0.0563096035214544
 10
46.95733073402843
 20
2.760000000033036
 30
0.0
 41
1.0
 10
46.97221379424539
 20
2.760054355659916
 30
0.0
 41
0.9207353083954195
 10
46.98252601148238
 20
2.770785926449538
 30
0.0
 41
1.0
 10
46.99283822871938
 20
2.781517497239162
 30
0.0
 41
0.9207353083954195
 10
46.99229074987021
 20
2.796598376530821
 30
0.0
 41
1.0
  0
SPLINE
  5
54
330
1F
100
AcDbEntity
  8
Make2D visible lines - Tangent
100
AcDbSpline
210
0.0
220
0.0
230
1.0
 70
     8
 71
     3
 72
    12
 73
     8
 74
     0
 42
0.0000000001
 43
0.0000000001
 40
0.0
 40
0.0
 40
0.0
 40
0.0
 40
0.7038593348424074
 40
0.8875771840295935
 40
1.044695281968214
 40
1.349887694187137
 40
1.596737400594657
 40
1.596737400594657
 40
1.596737400594657
 40
1.596737400594657
 10
46.99229074987021
 20
2.796598376530821
 30
0.0
 10
46.97807099863914
 20
3.030987480241414
 30
0.0
 10
46.97212989710464
 20
3.327017596735619
 30
0.0
 10
46.9353229179937
 20
3.673605593349178
 30
0.0
 10
46.89059098228081
 20
3.884293732777643
 30
0.0
 10
46.8081663675716
 20
4.108619079247838
 30
0.0
 10
46.67701320804596
 20
4.245611079291696
 30
0.0
 10
46.6036876377931
 20
4.283844356305368
 30
0.0
  0
SPLINE
  5
55
330
1F
100
AcDbEntity
  8
Make2D visible lines - Tangent
100
AcDbSpline
210
0.0
220
0.0
230
1.0
 70
    12
 71
     3
 72
    15
 73
    11
 74
     0
 42
0.0000000001
 43
0.0000000001
 40
-4.541433547693557
 40
-4.541433547693557
 40
-4.541433547693557
 40
-4.541433547693557
 40
-0.7414861370963696
 40
-0.7414861370963696
 40
-0.7414861370963696
 40
-0.6324431721007214
 40
-0.4665084344538327
 40
-0.2470339465480142
 40
-0.1247233484072336
 40
0.0
 40
0.0
 40
0.0
 40
0.0
 10
46.6036876377931
 20
4.283844356305368
 30
0.0
 41
1.0
 10
45.45286137361983
 20
4.913329891125925
 30
0.0
 41
0.9999999265147085
 10
44.34160957630249
 20
5.521211126879812
 30
0.0
 41
0.9999999265147085
 10
43.23007248465569
 20
6.128570532599579
 30
0.0
 41
1.0
 10
43.19799596683734
 20
6.147219312783745
 30
0.0
 41
1.0
 10
43.14465971802119
 20
6.224084365870708
 30
0.0
 41
1.0
 10
43.09273381969665
 20
6.381173536448476
 30
0.0
 41
1.0
 10
43.06486453605228
 20
6.548509628443595
 30
0.0
 41
1.0
 10
43.05212238919944
 20
6.703489724570181
 30
0.0
 41
1.0
 10
43.04964014868564
 20
6.785854574524041
 30
0.0
 41
1.0
 10
43.04943104409698
 20
6.827417844695098
 30
0.0
 41
1.0
  0
SPLINE
  5
56
330
1F
100
AcDbEntity
  8
Make2D visible lines - Tangent
100
AcDbSpline
210
0.0
220
0.0
230
1.0
 70
    12
 71
     2
 72
     8
 73
     5
 74
     0
 42
0.0000000001
 43
0.0000000001
 40
0.0
 40
0.0
 40
0.0
 40
0.3253370284247422
 40
0.3253370284247422
 40
9.403473663300316
 40
9.403473663300316
 40
9.403473663300316
 10
41.26036375897669
 20
6.351205542801027
 30
0.0
 41
1.0
 10
41.17967512294175
 20
6.197832513434677
 30
0.0
 41
0.9103553742893397
 10
41.0113501666971
 20
6.156574902357635
 30
0.0
 41
0.9999882185796083
 10
36.56750997750365
 20
5.231819142811508
 30
0.0
 41
0.9999882185796083
 10
32.02926671454115
 20
4.28497752956617
 30
0.0
 41
0.9999882185796083
  0
SPLINE
  5
57
330
1F
100
AcDbEntity
  8
Make2D visible lines - Tangent
100
AcDbSpline
210
0.0
220
0.0
230
1.0
 70
     8
 71
     3
 72
    13
 73
     9
 74
     0
 42
0.0000000001
 43
0.0000000001
 40
0.0
 40
0.0
 40
0.0
 40
0.0
 40
0.1566065189818115
 40
0.3091157047045195
 40
0.6293465835033908
 40
0.9251044512314791
 40
1.003042613551681
 40
1.701534992922182
 40
1.701534992922182
 40
1.701534992922182
 40
1.701534992922182
 10
32.02926671454115
 20
4.28497752956617
 30
0.0
 10
31.97912576302207
 20
4.269366604121733
 30
0.0
 10
31.88493610553407
 20
4.228651035824123
 30
0.0
 10
31.71375900475238
 20
4.101424990536445
 30
0.0
 10
31.58277517988888
 20
3.874486075735164
 30
0.0
 10
31.53895878040768
 20
3.645405860434806
 30
0.0
 10
31.51797838106987
 20
3.288771884172197
 30
0.0
 10
31.51016063997254
 20
3.029889099970676
 30
0.0
 10
31.49526191233829
 20
2.797297258530311
 30
0.0
  0
SPLINE
  5
58
330
1F
100
AcDbEntity
  8
Make2D visible lines - Tangent
100
AcDbSpline
210
0.0
220
0.0
230
1.0
 70
    12
 71
     2
 72
     8
 73
     5
 74
     0
 42
0.0000000001
 43
0.0000000001
 40
0.0
 40
0.0
 40
0.0
 40
0.0284675552628037
 40
0.0284675552628037
 40
0.0569351105256074
 40
0.0569351105256074
 40
0.0569351105256074
 10
31.49526191233829
 20
2.797297258530311
 30
0.0
 41
1.0
 10
31.49443780777759
 20
2.781980459771884
 30
0.0
 41
0.919080792879801
 10
31.50477862320187
 20
2.771022345236603
 30
0.0
 41
1.0
 10
31.51511943862616
 20
2.760064230701323
 30
0.0
 41
0.919080792879801
 10
31.53018624360358
 20
2.760000000023431
 30
0.0
 41
1.0
  0
SPLINE
  5
59
330
1F
100
AcDbEntity
  8
Default
100
AcDbSpline
210
0.0
220
0.0
230
1.0
 70
    24
 71
     2
 72
     6
 73
     3
 74
     0
 42
0.0000000001
 43
0.0000000001
 40
0.0
 40
0.0
 40
0.0
 40
0.8769692108444929
 40
0.8769692108444929
 40
0.8769692108444929
 10
56.09072704339221
 20
1.843030789155513
 30
0.0
 10
56.09072704339221
 20
2.281515394577759
 30
0.0
 10
56.09072704339221
 20
2.720000000000006
 30
0.0
  0
SPLINE
  5
5A
330
1F
100
AcDbEntity
  8
Default
100
AcDbSpline
210
0.0
220
0.0
230
1.0
 70
    12
 71
     2
 72
     6
 73
     3
 74
     0
 42
0.0000000001
 43
0.0000000001
 40
0.0
 40
0.0
 40
0.0
 40
0.061047366478666
 40
0.061047366478666
 40
0.061047366478666
 10
56.09072704339221
 20
2.720000000000006
 30
0.0
 41
1.0
 10
56.09065798892391
 20
2.758209518474061
 30
0.0
 41
0.7238690675884838
 10
56.05248915062788
 20
2.759973563164377
 30
0.0
 41
1.0
  0
POLYLINE
  5
5B
330
1F
100
AcDbEntity
  8
Default
100
AcDb2dPolyline
 66
     1
 10
0.0
 20
0.0
 30
0.0
  0
VERTEX
  5
5C
330
5B
100
AcDbEntity
  8
Default
100
AcDbVertex
100
AcDb2dVertex
 10
56.05248915062788
 20
2.759973563164377
 30
0.0
  0
VERTEX
  5
5D
330
5B
100
AcDbEntity
  8
Default
100
AcDbVertex
100
AcDb2dVertex
 10
55.34272704340154
 20
2.760000000000005
 30
0.0
  0
SEQEND
  5
5E
330
5B
100
AcDbEntity
  8
Default
  0
SPLINE
  5
5F
330
1F
100
AcDbEntity
  8
Default
100
AcDbSpline
210
0.0
220
0.0
230
1.0
 70
    12
 71
     2
 72
     6
 73
     3
 74
     0
 42
0.0000000001
 43
0.0000000001
 40
0.0
 40
0.0
 40
0.0
 40
0.0627492515484099
 40
0.0627492515484099
 40
0.0627492515484099
 10
55.34272704340154
 20
2.760000000000005
 30
0.0
 41
1.0
 10
55.30291934232757
 20
2.759807701073936
 30
0.0
 41
0.7105143094883521
 10
55.3027270433922
 20
2.720000000000006
 30
0.0
 41
1.0
  0
SPLINE
  5
60
330
1F
100
AcDbEntity
  8
Default
100
AcDbSpline
210
0.0
220
0.0
230
1.0
 70
    24
 71
     2
 72
     6
 73
     3
 74
     0
 42
0.0000000001
 43
0.0000000001
 40
0.0
 40
0.0
 40
0.0
 40
0.2133911288261197
 40
0.2133911288261197
 40
0.2133911288261197
 10
55.3027270433922
 20
2.720000000000006
 30
0.0
 10
55.3027270433922
 20
2.613304435586945
 30
0.0
 10
55.3027270433922
 20
2.506608871173886
 30
0.0
  0
SPLINE
  5
61
330
1F
100
AcDbEntity
  8
Make2D visible lines
100
AcDbSpline
210
0.0
220
0.0
230
1.0
 70
    12
 71
     2
 72
     8
 73
     5
 74
     0
 42
0.0000000001
 43
0.0000000001
 40
0.0
 40
0.0
 40
0.0
 40
2.010619298297465
 40
2.010619298297465
 40
4.021238596594936
 40
4.021238596594936
 40
4.021238596594936
 10
54.9368833029301
 20
0.0000000000000049
 30
0.0
 41
1.0
 10
56.21688330293012
 20
0.0000000000000049
 30
0.0
 41
0.7071067811865468
 10
56.2168833029301
 20
1.280000000000004
 30
0.0
 41
1.0
 10
56.21688330293011
 20
2.560000000000008
 30
0.0
 41
0.7071067811865471
 10
54.9368833029301
 20
2.560000000000007
 30
0.0
 41
1.0
  0
SPLINE
  5
62
330
1F
100
AcDbEntity
  8
Make2D visible lines - Tangent
100
AcDbSpline
210
0.0
220
0.0
230
1.0
 70
    12
 71
     2
 72
     8
 73
     5
 74
     0
 42
0.0000000001
 43
0.0000000001
 40
0.0
 40
0.0
 40
0.0
 40
1.520766455445226
 40
1.520766455445226
 40
3.041532910890458
 40
3.041532910890458
 40
3.041532910890458
 10
54.9368833029301
 20
2.248149994689804
 30
0.0
 41
1.0
 10
55.90503329761991
 20
2.248149994689789
 30
0.0
 41
0.7071067811865557
 10
55.90503329761989
 20
1.280000000000004
 30
0.0
 41
1.0
 10
55.90503329761988
 20
0.3118500053102227
 30
0.0
 41
0.7071067811865631
 10
54.9368833029301
 20
0.3118500053101942
 30
0.0
 41
1.0
  0
SPLINE
  5
63
330
1F
100
AcDbEntity
  8
Make2D visible lines - Tangent
100
AcDbSpline
210
0.0
220
0.0
230
1.0
 70
    12
 71
     2
 72
     8
 73
     5
 74
     0
 42
0.0000000001
 43
0.0000000001
 40
0.0
 40
0.0
 40
0.0
 40
1.520766455445231
 40
1.520766455445231
 40
3.04153291089047
 40
3.04153291089047
 40
3.04153291089047
 10
54.9368833029301
 20
0.3118500053102049
 30
0.0
 41
1.0
 10
53.96873330824029
 20
0.3118500053102049
 30
0.0
 41
0.7071067811865446
 10
53.9687333082403
 20
1.280000000000004
 30
0.0
 41
1.0
 10
53.9687333082403
 20
2.24814999468981
 30
0.0
 41
0.707106781186544
 10
54.9368833029301
 20
2.24814999468981
 30
0.0
 41
1.0
  0
SPLINE
  5
64
330
1F
100
AcDbEntity
  8
Make2D visible lines
100
AcDbSpline
210
0.0
220
0.0
230
1.0
 70
    12
 71
     2
 72
     8
 73
     5
 74
     0
 42
0.0000000001
 43
0.0000000001
 40
0.0
 40
0.0
 40
0.0
 40
2.010589900836999
 40
2.010589900836999
 40
4.021209199134468
 40
4.021209199134468
 40
4.021209199134468
 10
54.93685390546965
 20
2.559999999662423
 30
0.0
 41
1.0
 10
53.6568833029301
 20
2.559970602877128
 30
0.0
 41
0.7071149011179003
 10
53.65688330293013
 20
1.280000000000004
 30
0.0
 41
1.0
 10
53.65688330293008
 20
-0.0000000000000207
 30
0.0
 41
0.7071067811865291
 10
54.9368833029301
 20
0.0000000000000078
 30
0.0
 41
1.0
  0
SPLINE
  5
65
330
1F
100
AcDbEntity
  8
Make2D visible lines
100
AcDbSpline
210
0.0
220
0.0
230
1.0
 70
    12
 71
     2
 72
     8
 73
     5
 74
     0
 42
0.0000000001
 43
0.0000000001
 40
0.0
 40
0.0
 40
0.0
 40
1.497204518884547
 40
1.497204518884547
 40
2.994409037769108
 40
2.994409037769108
 40
2.994409037769108
 10
54.9368833029301
 20
2.233150000000005
 30
0.0
 41
1.0
 10
53.9837333029301
 20
2.233150000000006
 30
0.0
 41
0.7071067811865408
 10
53.98373330293012
 20
1.280000000000004
 30
0.0
 41
1.0
 10
53.98373330293009
 20
0.3268499999999954
 30
0.0
 41
0.7071067811865419
 10
54.9368833029301
 20
0.3268499999999954
 30
0.0
 41
1.0
  0
SPLINE
  5
66
330
1F
100
AcDbEntity
  8
Make2D visible lines
100
AcDbSpline
210
0.0
220
0.0
230
1.0
 70
    12
 71
     2
 72
     8
 73
     5
 74
     0
 42
0.0000000001
 43
0.0000000001
 40
0.0
 40
0.0
 40
0.0
 40
1.497204518884545
 40
1.497204518884545
 40
2.994409037769103
 40
2.994409037769103
 40
2.994409037769103
 10
54.9368833029301
 20
0.3268500000000052
 30
0.0
 41
1.0
 10
55.89003330293007
 20
0.3268500000000336
 30
0.0
 41
0.7071067811865704
 10
55.89003330293011
 20
1.280000000000004
 30
0.0
 41
1.0
 10
55.8900333029301
 20
2.233149999999986
 30
0.0
 41
0.7071067811865678
 10
54.9368833029301
 20
2.233150000000014
 30
0.0
 41
1.0
  0
SPLINE
  5
67
330
1F
100
AcDbEntity
  8
Default
100
AcDbSpline
210
0.0
220
0.0
230
1.0
 70
    24
 71
     2
 72
     6
 73
     3
 74
     0
 42
0.0000000001
 43
0.0000000001
 40
0.0
 40
0.0
 40
0.0
 40
0.8769692108444929
 40
0.8769692108444929
 40
0.8769692108444929
 10
46.99566323185019
 20
1.843030789155511
 30
0.0
 10
46.99566323185019
 20
2.281515394577757
 30
0.0
 10
46.99566323185019
 20
2.720000000000004
 30
0.0
  0
SPLINE
  5
68
330
1F
100
AcDbEntity
  8
Default
100
AcDbSpline
210
0.0
220
0.0
230
1.0
 70
    12
 71
     2
 72
     6
 73
     3
 74
     0
 42
0.0000000001
 43
0.0000000001
 40
0.0
 40
0.0
 40
0.0
 40
0.061047366478666
 40
0.061047366478666
 40
0.061047366478666
 10
46.99566323185019
 20
2.720000000000004
 30
0.0
 41
1.0
 10
46.9955941773819
 20
2.758209518474059
 30
0.0
 41
0.7238690675884838
 10
46.95742533908587
 20
2.759973563164376
 30
0.0
 41
1.0
  0
POLYLINE
  5
69
330
1F
100
AcDbEntity
  8
Default
100
AcDb2dPolyline
 66
     1
 10
0.0
 20
0.0
 30
0.0
  0
VERTEX
  5
6A
330
69
100
AcDbEntity
  8
Default
100
AcDbVertex
100
AcDb2dVertex
 10
46.95742533908587
 20
2.759973563164376
 30
0.0
  0
VERTEX
  5
6B
330
69
100
AcDbEntity
  8
Default
100
AcDbVertex
100
AcDb2dVertex
 10
46.24766323185953
 20
2.760000000000003
 30
0.0
  0
SEQEND
  5
6C
330
69
100
AcDbEntity
  8
Default
  0
SPLINE
  5
6D
330
1F
100
AcDbEntity
  8
Default
100
AcDbSpline
210
0.0
220
0.0
230
1.0
 70
    12
 71
     2
 72
     6
 73
     3
 74
     0
 42
0.0000000001
 43
0.0000000001
 40
0.0
 40
0.0
 40
0.0
 40
0.0627492515484099
 40
0.0627492515484099
 40
0.0627492515484099
 10
46.24766323185953
 20
2.760000000000003
 30
0.0
 41
1.0
 10
46.20785553078555
 20
2.759807701073934
 30
0.0
 41
0.7105143094883521
 10
46.20766323185019
 20
2.720000000000004
 30
0.0
 41
1.0
  0
SPLINE
  5
6E
330
1F
100
AcDbEntity
  8
Default
100
AcDbSpline
210
0.0
220
0.0
230
1.0
 70
    24
 71
     2
 72
     6
 73
     3
 74
     0
 42
0.0000000001
 43
0.0000000001
 40
0.0
 40
0.0
 40
0.0
 40
0.2133911288261197
 40
0.2133911288261197
 40
0.2133911288261197
 10
46.20766323185019
 20
2.720000000000004
 30
0.0
 10
46.20766323185019
 20
2.613304435586944
 30
0.0
 10
46.20766323185018
 20
2.506608871173884
 30
0.0
  0
SPLINE
  5
6F
330
1F
100
AcDbEntity
  8
Make2D visible lines
100
AcDbSpline
210
0.0
220
0.0
230
1.0
 70
    12
 71
     2
 72
     8
 73
     5
 74
     0
 42
0.0000000001
 43
0.0000000001
 40
0.0
 40
0.0
 40
0.0
 40
2.010619298297465
 40
2.010619298297465
 40
4.021238596594936
 40
4.021238596594936
 40
4.021238596594936
 10
45.84181949138809
 20
0.0000000000000031
 30
0.0
 41
1.0
 10
47.12181949138811
 20
0.0000000000000031
 30
0.0
 41
0.7071067811865468
 10
47.12181949138809
 20
1.280000000000002
 30
0.0
 41
1.0
 10
47.12181949138809
 20
2.560000000000005
 30
0.0
 41
0.7071067811865471
 10
45.84181949138809
 20
2.560000000000005
 30
0.0
 41
1.0
  0
SPLINE
  5
70
330
1F
100
AcDbEntity
  8
Make2D visible lines - Tangent
100
AcDbSpline
210
0.0
220
0.0
230
1.0
 70
    12
 71
     2
 72
     8
 73
     5
 74
     0
 42
0.0000000001
 43
0.0000000001
 40
0.0
 40
0.0
 40
0.0
 40
1.520766455445226
 40
1.520766455445226
 40
3.041532910890458
 40
3.041532910890458
 40
3.041532910890458
 10
45.84181949138809
 20
2.248149994689802
 30
0.0
 41
1.0
 10
46.80996948607789
 20
2.248149994689788
 30
0.0
 41
0.7071067811865557
 10
46.80996948607788
 20
1.280000000000002
 30
0.0
 41
1.0
 10
46.80996948607788
 20
0.3118500053102209
 30
0.0
 41
0.7071067811865631
 10
45.84181949138809
 20
0.3118500053101925
 30
0.0
 41
1.0
  0
SPLINE
  5
71
330
1F
100
AcDbEntity
  8
Make2D visible lines - Tangent
100
AcDbSpline
210
0.0
220
0.0
230
1.0
 70
    12
 71
     2
 72
     8
 73
     5
 74
     0
 42
0.0000000001
 43
0.0000000001
 40
0.0
 40
0.0
 40
0.0
 40
1.520766455445231
 40
1.520766455445231
 40
3.04153291089047
 40
3.04153291089047
 40
3.04153291089047
 10
45.84181949138809
 20
0.3118500053102031
 30
0.0
 41
1.0
 10
44.87366949669828
 20
0.3118500053102032
 30
0.0
 41
0.7071067811865446
 10
44.87366949669829
 20
1.280000000000002
 30
0.0
 41
1.0
 10
44.87366949669829
 20
2.248149994689808
 30
0.0
 41
0.707106781186544
 10
45.84181949138809
 20
2.248149994689808
 30
0.0
 41
1.0
  0
SPLINE
  5
72
330
1F
100
AcDbEntity
  8
Make2D visible lines
100
AcDbSpline
210
0.0
220
0.0
230
1.0
 70
    12
 71
     2
 72
     8
 73
     5
 74
     0
 42
0.0000000001
 43
0.0000000001
 40
0.0
 40
0.0
 40
0.0
 40
2.010589900836999
 40
2.010589900836999
 40
4.021209199134468
 40
4.021209199134468
 40
4.021209199134468
 10
45.84179009392764
 20
2.559999999662421
 30
0.0
 41
1.0
 10
44.56181949138809
 20
2.559970602877126
 30
0.0
 41
0.7071149011179003
 10
44.56181949138811
 20
1.280000000000003
 30
0.0
 41
1.0
 10
44.56181949138806
 20
-0.0000000000000225
 30
0.0
 41
0.7071067811865291
 10
45.84181949138809
 20
0.000000000000006
 30
0.0
 41
1.0
  0
SPLINE
  5
73
330
1F
100
AcDbEntity
  8
Make2D visible lines
100
AcDbSpline
210
0.0
220
0.0
230
1.0
 70
    12
 71
     2
 72
     8
 73
     5
 74
     0
 42
0.0000000001
 43
0.0000000001
 40
0.0
 40
0.0
 40
0.0
 40
1.497204518884547
 40
1.497204518884547
 40
2.994409037769108
 40
2.994409037769108
 40
2.994409037769108
 10
45.84181949138809
 20
2.233150000000003
 30
0.0
 41
1.0
 10
44.88866949138809
 20
2.233150000000003
 30
0.0
 41
0.7071067811865408
 10
44.88866949138811
 20
1.280000000000002
 30
0.0
 41
1.0
 10
44.88866949138808
 20
0.3268499999999936
 30
0.0
 41
0.7071067811865419
 10
45.84181949138809
 20
0.3268499999999936
 30
0.0
 41
1.0
  0
SPLINE
  5
74
330
1F
100
AcDbEntity
  8
Make2D visible lines
100
AcDbSpline
210
0.0
220
0.0
230
1.0
 70
    12
 71
     2
 72
     8
 73
     5
 74
     0
 42
0.0000000001
 43
0.0000000001
 40
0.0
 40
0.0
 40
0.0
 40
1.497204518884545
 40
1.497204518884545
 40
2.994409037769103
 40
2.994409037769103
 40
2.994409037769103
 10
45.84181949138809
 20
0.3268500000000034
 30
0.0
 41
1.0
 10
46.79496949138805
 20
0.3268500000000318
 30
0.0
 41
0.7071067811865704
 10
46.79496949138809
 20
1.280000000000002
 30
0.0
 41
1.0
 10
46.79496949138809
 20
2.233149999999984
 30
0.0
 41
0.7071067811865678
 10
45.84181949138809
 20
2.233150000000013
 30
0.0
 41
1.0
  0
SPLINE
  5
75
330
1F
100
AcDbEntity
  8
Default
100
AcDbSpline
210
0.0
220
0.0
230
1.0
 70
    24
 71
     2
 72
     6
 73
     3
 74
     0
 42
0.0000000001
 43
0.0000000001
 40
0.0
 40
0.0
 40
0.0
 40
0.8769692108444929
 40
0.8769692108444929
 40
0.8769692108444929
 10
32.27954085493222
 20
1.843030789155508
 30
0.0
 10
32.27954085493222
 20
2.281515394577754
 30
0.0
 10
32.27954085493222
 20
2.720000000000001
 30
0.0
  0
SPLINE
  5
76
330
1F
100
AcDbEntity
  8
Default
100
AcDbSpline
210
0.0
220
0.0
230
1.0
 70
    12
 71
     2
 72
     6
 73
     3
 74
     0
 42
0.0000000001
 43
0.0000000001
 40
0.0
 40
0.0
 40
0.0
 40
0.061047366478666
 40
0.061047366478666
 40
0.061047366478666
 10
32.27954085493222
 20
2.720000000000001
 30
0.0
 41
1.0
 10
32.27947180046392
 20
2.758209518474056
 30
0.0
 41
0.7238690675884838
 10
32.24130296216789
 20
2.759973563164372
 30
0.0
 41
1.0
  0
POLYLINE
  5
77
330
1F
100
AcDbEntity
  8
Default
100
AcDb2dPolyline
 66
     1
 10
0.0
 20
0.0
 30
0.0
  0
VERTEX
  5
78
330
77
100
AcDbEntity
  8
Default
100
AcDbVertex
100
AcDb2dVertex
 10
32.24130296216789
 20
2.759973563164372
 30
0.0
  0
VERTEX
  5
79
330
77
100
AcDbEntity
  8
Default
100
AcDbVertex
100
AcDb2dVertex
 10
31.53154085494155
 20
2.76
 30
0.0
  0
SEQEND
  5
7A
330
77
100
AcDbEntity
  8
Default
  0
SPLINE
  5
7B
330
1F
100
AcDbEntity
  8
Default
100
AcDbSpline
210
0.0
220
0.0
230
1.0
 70
    12
 71
     2
 72
     6
 73
     3
 74
     0
 42
0.0000000001
 43
0.0000000001
 40
0.0
 40
0.0
 40
0.0
 40
0.0627492515484099
 40
0.0627492515484099
 40
0.0627492515484099
 10
31.53154085494155
 20
2.76
 30
0.0
 41
1.0
 10
31.49173315386758
 20
2.759807701073931
 30
0.0
 41
0.7105143094883521
 10
31.49154085493222
 20
2.720000000000001
 30
0.0
 41
1.0
  0
SPLINE
  5
7C
330
1F
100
AcDbEntity
  8
Default
100
AcDbSpline
210
0.0
220
0.0
230
1.0
 70
    24
 71
     2
 72
     6
 73
     3
 74
     0
 42
0.0000000001
 43
0.0000000001
 40
0.0
 40
0.0
 40
0.0
 40
0.2133911288261197
 40
0.2133911288261197
 40
0.2133911288261197
 10
31.49154085493222
 20
2.720000000000001
 30
0.0
 10
31.49154085493221
 20
2.613304435586941
 30
0.0
 10
31.49154085493221
 20
2.506608871173881
 30
0.0
  0
SPLINE
  5
7D
330
1F
100
AcDbEntity
  8
Default
100
AcDbSpline
210
0.0
220
0.0
230
1.0
 70
     8
 71
     3
 72
    11
 73
     7
 74
     0
 42
0.0000000001
 43
0.0000000001
 40
0.0
 40
0.0
 40
0.0
 40
0.0
 40
0.1253255972496818
 40
0.2513039754497304
 40
0.4987317322664389
 40
0.9688442191042036
 40
0.9688442191042036
 40
0.9688442191042036
 40
0.9688442191042036
 10
-1.233931175928038
 20
6.854219928194
 30
0.0
 10
-1.23467305222108
 20
6.812556320277297
 30
0.0
 10
-1.242264625258811
 20
6.728608986485762
 30
0.0
 10
-1.283946118584169
 20
6.567490792756628
 30
0.0
 10
-1.4188663182738
 20
6.315723651030756
 30
0.0
 10
-1.634703816377003
 20
6.181635136261791
 30
0.0
 10
-1.789888363667075
 20
6.155372616098481
 30
0.0
  0
SPLINE
  5
7E
330
1F
100
AcDbEntity
  8
Default
100
AcDbSpline
210
0.0
220
0.0
230
1.0
 70
    24
 71
     2
 72
     6
 73
     3
 74
     0
 42
0.0000000001
 43
0.0000000001
 40
0.0
 40
0.0
 40
0.0
 40
10.6106773182712
 40
10.6106773182712
 40
10.6106773182712
 10
-1.789888363667075
 20
6.155372616098481
 30
0.0
 10
-7.014116204513529
 20
5.231217999682199
 30
0.0
 10
-12.23834404535998
 20
4.307063383265918
 30
0.0
  0
SPLINE
  5
7F
330
1F
100
AcDbEntity
  8
Default
100
AcDbSpline
210
0.0
220
0.0
230
1.0
 70
     8
 71
     3
 72
     8
 73
     4
 74
     0
 42
0.0000000001
 43
0.0000000001
 40
0.0
 40
0.0
 40
0.0
 40
0.0
 40
1.0
 40
1.0
 40
1.0
 40
1.0
 10
-12.23834404535998
 20
4.307063383265918
 30
0.0
 10
-12.3870957013065
 20
4.280749536754915
 30
0.0
 10
-12.53891528303043
 20
4.219465901919556
 30
0.0
 10
-12.64957970104333
 20
4.116641487256009
 30
0.0
  0
SPLINE
  5
80
330
1F
100
AcDbEntity
  8
Default
100
AcDbSpline
210
0.0
220
0.0
230
1.0
 70
     8
 71
     3
 72
    11
 73
     7
 74
     0
 42
0.0000000001
 43
0.0000000001
 40
-1.380178003129728
 40
-1.380178003129728
 40
-1.380178003129728
 40
-1.380178003129728
 40
-0.9139752417836994
 40
-0.8294769469874151
 40
-0.7414398127600529
 40
0.0
 40
0.0
 40
0.0
 40
0.0
 10
-12.64957970104333
 20
4.116641487256009
 30
0.0
 10
-12.76482594389031
 20
4.009559846420637
 30
0.0
 10
-12.84019467390332
 20
3.833863810798341
 30
0.0
 10
-12.87358700758287
 20
3.624145861508745
 30
0.0
 10
-12.89067083421591
 20
3.319744497831932
 30
0.0
 10
-12.89695214670612
 20
3.043448157988741
 30
0.0
 10
-12.90916395426856
 20
2.796533989153949
 30
0.0
  0
SPLINE
  5
81
330
1F
100
AcDbEntity
  8
Default
100
AcDbSpline
210
0.0
220
0.0
230
1.0
 70
     8
 71
     3
 72
    11
 73
     7
 74
     0
 42
0.0000000001
 43
0.0000000001
 40
0.0
 40
0.0
 40
0.0
 40
0.0
 40
0.1253255972496818
 40
0.2513039754497304
 40
0.4987317322664389
 40
0.9688442191042036
 40
0.9688442191042036
 40
0.9688442191042036
 40
0.9688442191042036
 10
1.233931175928038
 20
6.854219928194
 30
0.0
 10
1.23467305222108
 20
6.812556320277297
 30
0.0
 10
1.242264625258811
 20
6.728608986485762
 30
0.0
 10
1.283946118584169
 20
6.567490792756628
 30
0.0
 10
1.4188663182738
 20
6.315723651030756
 30
0.0
 10
1.634703816377003
 20
6.181635136261791
 30
0.0
 10
1.789888363667075
 20
6.155372616098481
 30
0.0
  0
SPLINE
  5
82
330
1F
100
AcDbEntity
  8
Default
100
AcDbSpline
210
0.0
220
0.0
230
1.0
 70
    24
 71
     2
 72
     6
 73
     3
 74
     0
 42
0.0000000001
 43
0.0000000001
 40
0.0
 40
0.0
 40
0.0
 40
10.6106773182712
 40
10.6106773182712
 40
10.6106773182712
 10
1.789888363667075
 20
6.155372616098481
 30
0.0
 10
7.014116204513529
 20
5.231217999682199
 30
0.0
 10
12.23834404535998
 20
4.307063383265918
 30
0.0
  0
SPLINE
  5
83
330
1F
100
AcDbEntity
  8
Default
100
AcDbSpline
210
0.0
220
0.0
230
1.0
 70
     8
 71
     3
 72
     8
 73
     4
 74
     0
 42
0.0000000001
 43
0.0000000001
 40
0.0
 40
0.0
 40
0.0
 40
0.0
 40
1.0
 40
1.0
 40
1.0
 40
1.0
 10
12.23834404535998
 20
4.307063383265918
 30
0.0
 10
12.3870957013065
 20
4.280749536754915
 30
0.0
 10
12.53891528303043
 20
4.219465901919556
 30
0.0
 10
12.64957970104333
 20
4.116641487256009
 30
0.0
  0
SPLINE
  5
84
330
1F
100
AcDbEntity
  8
Default
100
AcDbSpline
210
0.0
220
0.0
230
1.0
 70
     8
 71
     3
 72
    11
 73
     7
 74
     0
 42
0.0000000001
 43
0.0000000001
 40
-1.380178003129728
 40
-1.380178003129728
 40
-1.380178003129728
 40
-1.380178003129728
 40
-0.9139752417836994
 40
-0.8294769469874151
 40
-0.7414398127600529
 40
0.0
 40
0.0
 40
0.0
 40
0.0
 10
12.64957970104333
 20
4.116641487256009
 30
0.0
 10
12.76482594389031
 20
4.009559846420637
 30
0.0
 10
12.84019467390332
 20
3.833863810798341
 30
0.0
 10
12.87358700758287
 20
3.624145861508745
 30
0.0
 10
12.89067083421591
 20
3.319744497831932
 30
0.0
 10
12.89695214670612
 20
3.043448157988741
 30
0.0
 10
12.90916395426856
 20
2.796533989153949
 30
0.0
  0
SPLINE
  5
85
330
1F
100
AcDbEntity
  8
Make2D visible lines
100
AcDbSpline
210
0.0
220
0.0
230
1.0
 70
    12
 71
     2
 72
     6
 73
     3
 74
     0
 42
0.0000000001
 43
0.0000000001
 40
0.0
 40
0.0
 40
0.0
 40
0.45463726350635
 40
0.45463726350635
 40
0.45463726350635
 10
-1.525639248006444
 20
6.273574874417954
 30
0.0
 41
1.0
 10
-1.331866525684014
 20
6.416079376188438
 30
0.0
 41
0.9195620123765541
 10
-1.300914760346337
 20
6.654611112365369
 30
0.0
 41
0.9999952872160333
  0
LINE
  5
86
330
1F
100
AcDbEntity
  8
Make2D visible lines
100
AcDbLine
 10
-1.300914760346337
 20
6.65461111236537
 30
0.0
 11
-1.289999999999569
 21
7.279999999999992
 31
0.0
  0
POLYLINE
  5
87
330
1F
100
AcDbEntity
  8
Make2D visible lines
100
AcDb2dPolyline
 66
     1
 10
0.0
 20
0.0
 30
0.0
  0
VERTEX
  5
88
330
87
100
AcDbEntity
  8
Make2D visible lines
100
AcDbVertex
100
AcDb2dVertex
 10
-1.289999999999569
 20
7.279999999999992
 30
0.0
  0
VERTEX
  5
89
330
87
100
AcDbEntity
  8
Make2D visible lines
100
AcDbVertex
100
AcDb2dVertex
 10
1.289999999999592
 20
7.279999999999992
 30
0.0
  0
SEQEND
  5
8A
330
87
100
AcDbEntity
  8
Make2D visible lines
  0
LINE
  5
8B
330
1F
100
AcDbEntity
  8
Make2D visible lines
100
AcDbLine
 10
1.289999999999592
 20
7.279999999999992
 30
0.0
 11
1.300914760346337
 21
6.65461111236537
 31
0.0
  0
SPLINE
  5
8C
330
1F
100
AcDbEntity
  8
Make2D visible lines
100
AcDbSpline
210
0.0
220
0.0
230
1.0
 70
    12
 71
     2
 72
     6
 73
     3
 74
     0
 42
0.0000000001
 43
0.0000000001
 40
-0.45463726350635
 40
-0.45463726350635
 40
-0.45463726350635
 40
0.0
 40
0.0
 40
0.0
 10
1.300914760346337
 20
6.654611112365369
 30
0.0
 41
0.9999952872160333
 10
1.331866525684014
 20
6.416079376188438
 30
0.0
 41
0.9195620123765541
 10
1.525639248006444
 20
6.273574874417954
 30
0.0
 41
1.0
  0
SPLINE
  5
8D
330
1F
100
AcDbEntity
  8
Make2D visible lines
100
AcDbSpline
210
0.0
220
0.0
230
1.0
 70
    12
 71
     2
 72
     6
 73
     3
 74
     0
 42
0.0000000001
 43
0.0000000001
 40
0.0
 40
0.0
 40
0.0
 40
0.715017489309887
 40
0.715017489309887
 40
0.715017489309887
 10
8.126722355013005
 20
2.79730837210623
 30
0.0
 41
1.0
 10
8.104889429230154
 20
3.154150786496702
 30
0.0
 41
0.9999959930683374
 10
8.08507719706722
 20
3.511111093551959
 30
0.0
 41
1.0
  0
SPLINE
  5
8E
330
1F
100
AcDbEntity
  8
Make2D visible lines - Tangent
100
AcDbSpline
210
0.0
220
0.0
230
1.0
 70
    12
 71
     3
 72
    12
 73
     8
 74
     0
 42
0.0000000001
 43
0.0000000001
 40
-0.7166866764941487
 40
-0.7166866764941487
 40
-0.7166866764941487
 40
-0.7166866764941487
 40
0.0
 40
0.0
 40
0.0
 40
5.426935465500462
 40
6.005717626902
 40
6.005717626902
 40
6.005717626902
 40
6.005717626902
 10
0.6170939324199887
 20
4.144275746056073
 30
0.0
 41
1.0
 10
0.8549403253933607
 20
4.121609837324083
 30
0.0
 41
0.9997624307684584
 10
1.092096912421841
 20
4.092602884742096
 30
0.0
 41
0.9997624307684584
 10
1.328394670181023
 20
4.057275561788416
 30
0.0
 41
1.0
 10
3.117482356701391
 20
3.789800833743934
 30
0.0
 41
1.0
 10
4.962818904875473
 20
3.51835316869112
 30
0.0
 41
1.0
 10
6.858249519855342
 20
3.232953152428765
 30
0.0
 41
1.0
 10
7.190070262656594
 20
3.097166056710528
 30
0.0
 41
1.0
  0
SPLINE
  5
8F
330
1F
100
AcDbEntity
  8
Make2D visible lines - Tangent
100
AcDbSpline
210
0.0
220
0.0
230
1.0
 70
     8
 71
     3
 72
    11
 73
     7
 74
     0
 42
0.0000000001
 43
0.0000000001
 40
0.0
 40
0.0
 40
0.0
 40
0.0
 40
0.066894803380304
 40
0.1150772171461536
 40
0.2142351287725906
 40
0.3577299678759472
 40
0.3577299678759472
 40
0.3577299678759472
 40
0.3577299678759472
 10
7.190070262656594
 20
3.097166056710528
 30
0.0
 10
7.208121581512791
 20
3.085283282473688
 30
0.0
 10
7.24451976032389
 20
3.067447034369017
 30
0.0
 10
7.287917173120947
 20
3.010049314205599
 30
0.0
 10
7.308915743437923
 20
2.912711916718788
 30
0.0
 10
7.331854348652731
 20
2.837086405743809
 30
0.0
 10
7.338967423585012
 20
2.788958449657228
 30
0.0
  0
SPLINE
  5
90
330
1F
100
AcDbEntity
  8
Default
100
AcDbSpline
210
0.0
220
0.0
230
1.0
 70
    12
 71
     2
 72
     6
 73
     3
 74
     0
 42
0.0000000001
 43
0.0000000001
 40
-0.0405034352679367
 40
-0.0405034352679367
 40
-0.0405034352679367
 40
0.0
 40
0.0
 40
0.0
 10
12.14911371442322
 20
2.760035477590776
 30
0.0
 41
1.0
 10
12.12629078105089
 20
2.761184994890809
 30
0.0
 41
0.8377474461443447
 10
12.11806098244238
 20
2.782509390905094
 30
0.0
 41
1.0
  0
SPLINE
  5
91
330
1F
100
AcDbEntity
  8
Default
100
AcDbSpline
210
0.0
220
0.0
230
1.0
 70
     8
 71
     3
 72
    11
 73
     7
 74
     0
 42
0.0000000001
 43
0.0000000001
 40
-0.5190498716913017
 40
-0.5190498716913017
 40
-0.5190498716913017
 40
-0.5190498716913017
 40
-0.3020474028680822
 40
-0.2374224159260925
 40
-0.1669895205952948
 40
0.0
 40
0.0
 40
0.0
 40
0.0
 10
12.11806098244238
 20
2.782509390905094
 30
0.0
 10
12.09223346747857
 20
2.850638090585806
 30
0.0
 10
12.02956425645359
 20
2.924693852895348
 30
0.0
 10
11.93187101904603
 20
2.989616466604408
 30
0.0
 10
11.84364717303091
 20
3.038432671694692
 30
0.0
 10
11.77004209026178
 20
3.068032893056389
 30
0.0
 10
11.71556540523546
 20
3.087346865324408
 30
0.0
  0
SPLINE
  5
92
330
1F
100
AcDbEntity
  8
Default
100
AcDbSpline
210
0.0
220
0.0
230
1.0
 70
     8
 71
     3
 72
    11
 73
     7
 74
     0
 42
0.0000000001
 43
0.0000000001
 40
-9.62873534496378
 40
-9.62873534496378
 40
-9.62873534496378
 40
-9.62873534496378
 40
-9.235760971098028
 40
-8.993257344707228
 40
-8.729254607404698
 40
0.0
 40
0.0
 40
0.0
 40
0.0
 10
11.71556540523546
 20
3.087346865324408
 30
0.0
 10
11.58988661813639
 20
3.132737362778273
 30
0.0
 10
11.38308034450261
 20
3.177620608886414
 30
0.0
 10
11.08778954878018
 20
3.232731597892199
 30
0.0
 10
8.022689235877312
 20
3.520429176121879
 30
0.0
 10
5.036998118275312
 20
3.789332298799763
 30
0.0
 10
2.13965468369018
 20
4.057697784693569
 30
0.0
  0
ARC
  5
93
330
1F
100
AcDbEntity
  8
Default
100
AcDbCircle
 10
-3.866135974223456
 20
-60.78237684056489
 30
0.0
 40
65.11762279779389
100
AcDbArc
 50
84.70809639775777
 51
85.73558766099688
  0
SPLINE
  5
94
330
1F
100
AcDbEntity
  8
Default
100
AcDbSpline
210
0.0
220
0.0
230
1.0
 70
    12
 71
     2
 72
     6
 73
     3
 74
     0
 42
0.0000000001
 43
0.0000000001
 40
0.0
 40
0.0
 40
0.0
 40
0.1645726248110703
 40
0.1645726248110703
 40
0.1645726248110703
 10
0.975967409105224
 20
4.154968606111039
 30
0.0
 41
1.0
 10
0.893930876010418
 20
4.148116645719011
 30
0.0
 41
0.999346492540072
 10
0.8116136902486488
 20
4.147209423754928
 30
0.0
 41
1.0
  0
POLYLINE
  5
95
330
1F
100
AcDbEntity
  8
Default
100
AcDb2dPolyline
 66
     1
 10
0.0
 20
0.0
 30
0.0
  0
VERTEX
  5
96
330
95
100
AcDbEntity
  8
Default
100
AcDbVertex
100
AcDb2dVertex
 10
0.8116136902486488
 20
4.147209423754928
 30
0.0
  0
VERTEX
  5
97
330
95
100
AcDbEntity
  8
Default
100
AcDbVertex
100
AcDb2dVertex
 10
0.4595528730361971
 20
4.147209423754928
 30
0.0
  0
SEQEND
  5
98
330
95
100
AcDbEntity
  8
Default
  0
SPLINE
  5
99
330
1F
100
AcDbEntity
  8
Default
100
AcDbSpline
210
0.0
220
0.0
230
1.0
 70
    12
 71
     2
 72
     6
 73
     3
 74
     0
 42
0.0000000001
 43
0.0000000001
 40
-0.0205148466803361
 40
-0.0205148466803361
 40
-0.0205148466803361
 40
0.0
 40
0.0
 40
0.0
 10
7.34583666515714
 20
1.321916756511124
 30
0.0
 41
1.0
 10
7.343092444785353
 20
1.331850316586209
 30
0.0
 41
0.9929165310438545
 10
7.342770214288228
 20
1.342150924790038
 30
0.0
 41
0.9999992470307488
  0
SPLINE
  5
9A
330
1F
100
AcDbEntity
  8
Default
100
AcDbSpline
210
0.0
220
0.0
230
1.0
 70
    12
 71
     2
 72
     6
 73
     3
 74
     0
 42
0.0000000001
 43
0.0000000001
 40
-0.1306670865212424
 40
-0.1306670865212424
 40
-0.1306670865212424
 40
0.0
 40
0.0
 40
0.0
 10
7.342770214288228
 20
1.342150924790038
 30
0.0
 41
1.0
 10
7.345526689575028
 20
1.259999371951817
 30
0.0
 41
0.7188571908882943
 10
7.427723384606649
 20
1.260000489392885
 30
0.0
 41
1.0
  0
SPLINE
  5
9B
330
1F
100
AcDbEntity
  8
Default
100
AcDbSpline
210
0.0
220
0.0
230
1.0
 70
    24
 71
     2
 72
     6
 73
     3
 74
     0
 42
0.0000000001
 43
0.0000000001
 40
-0.6179999986728006
 40
-0.6179999986728006
 40
-0.6179999986728006
 40
0.0
 40
0.0
 40
0.0
 10
7.427723384606649
 20
1.260000489392885
 30
0.0
 10
7.736723383943049
 20
1.260000489380662
 30
0.0
 10
8.04572338327945
 20
1.260000489368439
 30
0.0
  0
SPLINE
  5
9C
330
1F
100
AcDbEntity
  8
Default
100
AcDbSpline
210
0.0
220
0.0
230
1.0
 70
    12
 71
     2
 72
     6
 73
     3
 74
     0
 42
0.0000000001
 43
0.0000000001
 40
-0.1306642149348706
 40
-0.1306642149348706
 40
-0.1306642149348706
 40
0.0
 40
0.0
 40
0.0
 10
8.04572338327945
 20
1.260000489368439
 30
0.0
 41
1.0
 10
8.127917296957516
 20
1.259999377635789
 30
0.0
 41
0.7188689686272367
 10
8.130699315015447
 20
1.343573495961616
 30
0.0
 41
1.0
  0
LINE
  5
9D
330
1F
100
AcDbEntity
  8
Default
100
AcDbLine
 10
8.130699315015447
 20
1.343573495961616
 30
0.0
 11
8.130723497231317
 21
2.719999999999945
 31
0.0
  0
SPLINE
  5
9E
330
1F
100
AcDbEntity
  8
Default
100
AcDbSpline
210
0.0
220
0.0
230
1.0
 70
    12
 71
     2
 72
     8
 73
     5
 74
     0
 42
0.0000000001
 43
0.0000000001
 40
-0.0628318931243996
 40
-0.0628318931243996
 40
-0.0628318931243996
 40
-0.0314159465621985
 40
-0.0314159465621985
 40
0.0
 40
0.0
 40
0.0
 10
8.130723497231317
 20
2.719999999999945
 30
0.0
 41
1.0
 10
8.130723383299998
 20
2.736568554226062
 30
0.0
 41
0.923879436714611
 10
8.119007640386725
 20
2.748284285408195
 30
0.0
 41
1.0
 10
8.107291897473448
 20
2.760000016590326
 30
0.0
 41
0.9238794367145934
 10
8.090723343247399
 20
2.759999999999986
 30
0.0
 41
1.0
  0
POLYLINE
  5
9F
330
1F
100
AcDbEntity
  8
Default
100
AcDb2dPolyline
 66
     1
 10
0.0
 20
0.0
 30
0.0
  0
VERTEX
  5
A0
330
9F
100
AcDbEntity
  8
Default
100
AcDbVertex
100
AcDb2dVertex
 10
8.090723343247399
 20
2.759999999999986
 30
0.0
  0
VERTEX
  5
A1
330
9F
100
AcDbEntity
  8
Default
100
AcDbVertex
100
AcDb2dVertex
 10
7.3827234246387
 20
2.759999999999986
 30
0.0
  0
SEQEND
  5
A2
330
9F
100
AcDbEntity
  8
Default
  0
SPLINE
  5
A3
330
1F
100
AcDbEntity
  8
Default
100
AcDbSpline
210
0.0
220
0.0
230
1.0
 70
    12
 71
     2
 72
     8
 73
     5
 74
     0
 42
0.0000000001
 43
0.0000000001
 40
0.0
 40
0.0
 40
0.0
 40
0.0314159465621985
 40
0.0314159465621985
 40
0.0628318931243996
 40
0.0628318931243996
 40
0.0628318931243996
 10
7.3827234246387
 20
2.759999999999986
 30
0.0
 41
1.0
 10
7.366154870412649
 20
2.760000016590326
 30
0.0
 41
0.9238794367145934
 10
7.354439127499374
 20
2.748284285408195
 30
0.0
 41
1.0
 10
7.342723384586099
 20
2.736568554226062
 30
0.0
 41
0.923879436714611
 10
7.342723270654782
 20
2.719999999999945
 30
0.0
 41
1.0
  0
LINE
  5
A4
330
1F
100
AcDbEntity
  8
Default
100
AcDbLine
 10
7.342723270654782
 20
2.719999999999945
 30
0.0
 11
7.342747452870652
 21
1.343573495961616
 31
0.0
  0
SPLINE
  5
A5
330
1F
100
AcDbEntity
  8
Make2D visible lines
100
AcDbSpline
210
0.0
220
0.0
230
1.0
 70
    24
 71
     2
 72
     6
 73
     3
 74
     0
 42
0.0000000001
 43
0.0000000001
 40
-2.415105423527796
 40
-2.415105423527796
 40
-2.415105423527796
 40
0.0
 40
0.0
 40
0.0
 10
8.199723383299999
 20
2.487552711763898
 30
0.0
 10
8.199723383299999
 20
1.278776359863449
 30
0.0
 10
8.199723383299999
 20
0.0700000079629994
 30
0.0
  0
SPLINE
  5
A6
330
1F
100
AcDbEntity
  8
Make2D visible lines
100
AcDbSpline
210
0.0
220
0.0
230
1.0
 70
    12
 71
     2
 72
     8
 73
     5
 74
     0
 42
0.0000000001
 43
0.0000000001
 40
-0.1099557508386429
 40
-0.1099557508386429
 40
-0.1099557508386429
 40
-0.0549778754193212
 40
-0.0549778754193212
 40
0.0
 40
0.0
 40
0.0
 10
8.199723383299999
 20
0.0700000079629994
 30
0.0
 41
1.0
 10
8.199723380001615
 20
0.0410050562645741
 30
0.0
 41
0.9238795216280429
 10
8.220225905801593
 20
0.0205025281322868
 30
0.0
 41
1.0
 10
8.240728431601573
 20
0.0
 30
0.0
 41
0.923879521628049
 10
8.269723383299997
 20
0.0
 30
0.0
 41
1.0
  0
SPLINE
  5
A7
330
1F
100
AcDbEntity
  8
Make2D visible lines
100
AcDbSpline
210
0.0
220
0.0
230
1.0
 70
    24
 71
     2
 72
     6
 73
     3
 74
     0
 42
0.0000000001
 43
0.0000000001
 40
0.0
 40
0.0
 40
0.0
 40
0.3520000000000003
 40
0.3520000000000003
 40
0.3520000000000003
 10
8.269723383299997
 20
0.0
 30
0.0
 10
8.445723383299995
 20
0.0
 30
0.0
 10
8.621723383299996
 20
0.0
 30
0.0
  0
SPLINE
  5
A8
330
1F
100
AcDbEntity
  8
Make2D visible lines
100
AcDbSpline
210
0.0
220
0.0
230
1.0
 70
    12
 71
     2
 72
     6
 73
     3
 74
     0
 42
0.0000000001
 43
0.0000000001
 40
0.0
 40
0.0
 40
0.0
 40
0.2356194483882336
 40
0.2356194483882336
 40
0.2356194483882336
 10
8.621723383299996
 20
0.0
 30
0.0
 41
1.0
 10
8.771723382668993
 20
0.0
 30
0.0
 41
0.7071067826738353
 10
8.771723383299998
 20
0.1499999993689993
 30
0.0
 41
1.0
  0
SPLINE
  5
A9
330
1F
100
AcDbEntity
  8
Make2D visible lines
100
AcDbSpline
210
0.0
220
0.0
230
1.0
 70
    24
 71
     2
 72
     6
 73
     3
 74
     0
 42
0.0000000001
 43
0.0000000001
 40
-2.260000001262
 40
-2.260000001262
 40
-2.260000001262
 40
0.0
 40
0.0
 40
0.0
 10
8.771723383299998
 20
0.1499999993689993
 30
0.0
 10
8.771723383299998
 20
1.279999999999999
 30
0.0
 10
8.771723383299998
 20
2.410000000630999
 30
0.0
  0
SPLINE
  5
AA
330
1F
100
AcDbEntity
  8
Make2D visible lines
100
AcDbSpline
210
0.0
220
0.0
230
1.0
 70
    12
 71
     2
 72
     6
 73
     3
 74
     0
 42
0.0000000001
 43
0.0000000001
 40
0.0
 40
0.0
 40
0.0
 40
0.2356194483882358
 40
0.2356194483882358
 40
0.2356194483882358
 10
8.771723383299998
 20
2.410000000630999
 30
0.0
 41
1.0
 10
8.771723382668998
 20
2.560000000000001
 30
0.0
 41
0.7071067826738272
 10
8.621723383299996
 20
2.56
 30
0.0
 41
1.0
  0
SPLINE
  5
AB
330
1F
100
AcDbEntity
  8
Make2D visible lines
100
AcDbSpline
210
0.0
220
0.0
230
1.0
 70
    24
 71
     2
 72
     6
 73
     3
 74
     0
 42
0.0000000001
 43
0.0000000001
 40
0.0
 40
0.0
 40
0.0
 40
0.3520000000000003
 40
0.3520000000000003
 40
0.3520000000000003
 10
8.621723383299996
 20
2.56
 30
0.0
 10
8.445723383299995
 20
2.56
 30
0.0
 10
8.269723383299997
 20
2.56
 30
0.0
  0
SPLINE
  5
AC
330
1F
100
AcDbEntity
  8
Make2D visible lines
100
AcDbSpline
210
0.0
220
0.0
230
1.0
 70
    12
 71
     2
 72
     8
 73
     5
 74
     0
 42
0.0000000001
 43
0.0000000001
 40
-0.1099557508386414
 40
-0.1099557508386414
 40
-0.1099557508386414
 40
-0.0549778754193184
 40
-0.0549778754193184
 40
0.0
 40
0.0
 40
0.0
 10
8.269723383299997
 20
2.56
 30
0.0
 41
1.0
 10
8.240728431601571
 20
2.56
 30
0.0
 41
0.9238795216280236
 10
8.220225905801595
 20
2.53949747186771
 30
0.0
 41
1.0
 10
8.199723380001616
 20
2.518994943735425
 30
0.0
 41
0.9238795216280324
 10
8.199723383299999
 20
2.487552711763898
 30
0.0
 41
1.0
  0
SPLINE
  5
AD
330
1F
100
AcDbEntity
  8
Make2D visible lines
100
AcDbSpline
210
0.0
220
0.0
230
1.0
 70
    24
 71
     2
 72
     6
 73
     3
 74
     0
 42
0.0000000001
 43
0.0000000001
 40
-2.415105433753071
 40
-2.415105433753071
 40
-2.415105433753071
 40
0.0
 40
0.0
 40
0.0
 10
7.273723383299997
 20
2.487552716876536
 30
0.0
 10
7.273723383299997
 20
1.278776359858268
 30
0.0
 10
7.273723383299997
 20
0.0700000028400005
 30
0.0
  0
SPLINE
  5
AE
330
1F
100
AcDbEntity
  8
Make2D visible lines
100
AcDbSpline
210
0.0
220
0.0
230
1.0
 70
    12
 71
     2
 72
     6
 73
     3
 74
     0
 42
0.0000000001
 43
0.0000000001
 40
0.0
 40
0.0
 40
0.0
 40
0.1099557457156439
 40
0.1099557457156439
 40
0.1099557457156439
 10
7.273723383299997
 20
0.0700000028400005
 30
0.0
 41
1.0
 10
7.273723386139999
 20
0.0
 30
0.0
 41
0.7071067668423728
 10
7.203723383299996
 20
-0.0000000000000001
 30
0.0
 41
1.0
  0
SPLINE
  5
AF
330
1F
100
AcDbEntity
  8
Make2D visible lines
100
AcDbSpline
210
0.0
220
0.0
230
1.0
 70
    24
 71
     2
 72
     6
 73
     3
 74
     0
 42
0.0000000001
 43
0.0000000001
 40
0.0
 40
0.0
 40
0.0
 40
0.3520000000000003
 40
0.3520000000000003
 40
0.3520000000000003
 10
7.203723383299996
 20
-0.0000000000000001
 30
0.0
 10
7.027723383299996
 20
0.0
 30
0.0
 10
6.851723383299996
 20
0.0
 30
0.0
  0
SPLINE
  5
B0
330
1F
100
AcDbEntity
  8
Make2D visible lines
100
AcDbSpline
210
0.0
220
0.0
230
1.0
 70
    12
 71
     2
 72
     6
 73
     3
 74
     0
 42
0.0000000001
 43
0.0000000001
 40
0.0
 40
0.0
 40
0.0
 40
0.2356194519512337
 40
0.2356194519512337
 40
0.2356194519512337
 10
6.851723383299996
 20
0.0
 30
0.0
 41
1.0
 10
6.701723380367998
 20
0.000000000000002
 30
0.0
 41
0.7071067742757676
 10
6.701723383299997
 20
0.1500000029319999
 30
0.0
 41
1.0
  0
SPLINE
  5
B1
330
1F
100
AcDbEntity
  8
Make2D visible lines
100
AcDbSpline
210
0.0
220
0.0
230
1.0
 70
    24
 71
     2
 72
     6
 73
     3
 74
     0
 42
0.0000000001
 43
0.0000000001
 40
0.0
 40
0.0
 40
0.0
 40
2.255429040880414
 40
2.255429040880414
 40
2.255429040880414
 10
6.701723383299997
 20
0.1500000029319999
 30
0.0
 10
6.701723383299997
 20
1.278857261686103
 30
0.0
 10
6.701723383299997
 20
2.407714520440207
 30
0.0
  0
SPLINE
  5
B2
330
1F
100
AcDbEntity
  8
Make2D visible lines
100
AcDbSpline
210
0.0
220
0.0
230
1.0
 70
    12
 71
     2
 72
     6
 73
     3
 74
     0
 42
0.0000000001
 43
0.0000000001
 40
0.0
 40
0.0
 40
0.0
 40
0.2356194519512344
 40
0.2356194519512344
 40
0.2356194519512344
 10
6.701723383299997
 20
2.407714520440207
 30
0.0
 41
1.0
 10
6.701723380367997
 20
2.56
 30
0.0
 41
0.7071067742757604
 10
6.851723383299996
 20
2.56
 30
0.0
 41
1.0
  0
SPLINE
  5
B3
330
1F
100
AcDbEntity
  8
Make2D visible lines
100
AcDbSpline
210
0.0
220
0.0
230
1.0
 70
    24
 71
     2
 72
     6
 73
     3
 74
     0
 42
0.0000000001
 43
0.0000000001
 40
0.0
 40
0.0
 40
0.0
 40
0.3520000000000003
 40
0.3520000000000003
 40
0.3520000000000003
 10
6.851723383299996
 20
2.56
 30
0.0
 10
7.027723383299996
 20
2.56
 30
0.0
 10
7.203723383299996
 20
2.56
 30
0.0
  0
SPLINE
  5
B4
330
1F
100
AcDbEntity
  8
Make2D visible lines
100
AcDbSpline
210
0.0
220
0.0
230
1.0
 70
    12
 71
     2
 72
     6
 73
     3
 74
     0
 42
0.0000000001
 43
0.0000000001
 40
0.0
 40
0.0
 40
0.0
 40
0.1099557457156434
 40
0.1099557457156434
 40
0.1099557457156434
 10
7.203723383299996
 20
2.56
 30
0.0
 41
1.0
 10
7.273723386139998
 20
2.56
 30
0.0
 41
0.7071067668423767
 10
7.273723383299997
 20
2.487552716876536
 30
0.0
 41
1.0
  0
SPLINE
  5
B5
330
1F
100
AcDbEntity
  8
Make2D visible lines
100
AcDbSpline
210
0.0
220
0.0
230
1.0
 70
    24
 71
     2
 72
     6
 73
     3
 74
     0
 42
0.0000000001
 43
0.0000000001
 40
0.0
 40
0.0
 40
0.0
 40
0.0689999999999991
 40
0.0689999999999991
 40
0.0689999999999991
 10
7.342723383299996
 20
1.595000000000001
 30
0.0
 10
7.308223383299996
 20
1.595000000000001
 30
0.0
 10
7.273723383299997
 20
1.595000000000001
 30
0.0
  0
SPLINE
  5
B6
330
1F
100
AcDbEntity
  8
Make2D visible lines
100
AcDbSpline
210
0.0
220
0.0
230
1.0
 70
    24
 71
     2
 72
     6
 73
     3
 74
     0
 42
0.0000000001
 43
0.0000000001
 40
0.0
 40
0.0
 40
0.0
 40
0.9260000000000002
 40
0.9260000000000002
 40
0.9260000000000002
 10
7.273723383299997
 20
0.9650000000000016
 30
0.0
 10
7.736723383299998
 20
0.9650000000000016
 30
0.0
 10
8.199723383299999
 20
0.9650000000000016
 30
0.0
  0
SPLINE
  5
B7
330
1F
100
AcDbEntity
  8
Make2D visible lines
100
AcDbSpline
210
0.0
220
0.0
230
1.0
 70
    24
 71
     2
 72
     6
 73
     3
 74
     0
 42
0.0000000001
 43
0.0000000001
 40
0.0
 40
0.0
 40
0.0
 40
0.0690000000000008
 40
0.0690000000000008
 40
0.0690000000000008
 10
8.199723383299999
 20
1.595000000000001
 30
0.0
 10
8.165223383299997
 20
1.595000000000001
 30
0.0
 10
8.130723383299996
 20
1.595000000000001
 30
0.0
  0
SPLINE
  5
B8
330
1F
100
AcDbEntity
  8
Make2D visible lines
100
AcDbSpline
210
0.0
220
0.0
230
1.0
 70
     8
 71
     3
 72
    12
 73
     8
 74
     0
 42
0.0000000001
 43
0.0000000001
 40
0.0
 40
0.0
 40
0.0
 40
0.0
 40
0.1463411183411369
 40
0.2853842069860231
 40
0.4774826785392335
 40
0.6695434217140405
 40
0.9551044705190225
 40
0.9551044705190225
 40
0.9551044705190225
 40
0.9551044705190225
 10
7.3927233833
 20
2.135695657233184
 30
0.0
 10
7.413281236588784
 20
2.092235288994199
 30
0.0
 10
7.468515601759259
 20
2.011139443753334
 30
0.0
 10
7.567462974376896
 20
1.892867635552798
 30
0.0
 10
7.737845440740765
 20
1.800191929265525
 30
0.0
 10
7.949823775274854
 20
1.918743261260477
 30
0.0
 10
8.034011522679057
 20
2.051490853594749
 30
0.0
 10
8.080723383299995
 20
2.135695657233184
 30
0.0
  0
SPLINE
  5
B9
330
1F
100
AcDbEntity
  8
Make2D visible lines
100
AcDbSpline
210
0.0
220
0.0
230
1.0
 70
    12
 71
     2
 72
     6
 73
     3
 74
     0
 42
0.0000000001
 43
0.0000000001
 40
0.0
 40
0.0
 40
0.0
 40
0.1228476419690088
 40
0.1228476419690088
 40
0.1228476419690088
 10
7.3927233833
 20
2.135695657233184
 30
0.0
 41
1.0
 10
7.35740756176717
 20
2.186799143881471
 30
0.0
 41
0.9832969456840381
 10
7.342723387830643
 20
2.247157644806792
 30
0.0
 41
1.0
  0
SPLINE
  5
BA
330
1F
100
AcDbEntity
  8
Make2D visible lines
100
AcDbSpline
210
0.0
220
0.0
230
1.0
 70
    12
 71
     2
 72
     6
 73
     3
 74
     0
 42
0.0000000001
 43
0.0000000001
 40
0.0
 40
0.0
 40
0.0
 40
0.1227840813427634
 40
0.1227840813427634
 40
0.1227840813427634
 10
8.080723383299995
 20
2.135695657233184
 30
0.0
 41
1.0
 10
8.115540250748406
 20
2.187022966392655
 30
0.0
 41
0.9848379823800321
 10
8.130723378769352
 20
2.247157644806793
 30
0.0
 41
1.0
  0
SPLINE
  5
BB
330
1F
100
AcDbEntity
  8
Default
100
AcDbSpline
210
0.0
220
0.0
230
1.0
 70
    12
 71
     2
 72
     6
 73
     3
 74
     0
 42
0.0000000001
 43
0.0000000001
 40
-0.0205148466803361
 40
-0.0205148466803361
 40
-0.0205148466803361
 40
0.0
 40
0.0
 40
0.0
 10
12.12739467758714
 20
1.321916756511124
 30
0.0
 41
1.0
 10
12.12465045721535
 20
1.331850316586209
 30
0.0
 41
0.9929165310438545
 10
12.12432822671823
 20
1.342150924790038
 30
0.0
 41
0.9999992470307488
  0
SPLINE
  5
BC
330
1F
100
AcDbEntity
  8
Default
100
AcDbSpline
210
0.0
220
0.0
230
1.0
 70
    12
 71
     2
 72
     6
 73
     3
 74
     0
 42
0.0000000001
 43
0.0000000001
 40
-0.1306670865212424
 40
-0.1306670865212424
 40
-0.1306670865212424
 40
0.0
 40
0.0
 40
0.0
 10
12.12432822671823
 20
1.342150924790038
 30
0.0
 41
1.0
 10
12.12708470200503
 20
1.259999371951817
 30
0.0
 41
0.7188571908882943
 10
12.20928139703665
 20
1.260000489392885
 30
0.0
 41
1.0
  0
SPLINE
  5
BD
330
1F
100
AcDbEntity
  8
Default
100
AcDbSpline
210
0.0
220
0.0
230
1.0
 70
    24
 71
     2
 72
     6
 73
     3
 74
     0
 42
0.0000000001
 43
0.0000000001
 40
-0.6179999986728006
 40
-0.6179999986728006
 40
-0.6179999986728006
 40
0.0
 40
0.0
 40
0.0
 10
12.20928139703665
 20
1.260000489392885
 30
0.0
 10
12.51828139637305
 20
1.260000489380662
 30
0.0
 10
12.82728139570945
 20
1.260000489368439
 30
0.0
  0
SPLINE
  5
BE
330
1F
100
AcDbEntity
  8
Default
100
AcDbSpline
210
0.0
220
0.0
230
1.0
 70
    12
 71
     2
 72
     6
 73
     3
 74
     0
 42
0.0000000001
 43
0.0000000001
 40
-0.1306642149348706
 40
-0.1306642149348706
 40
-0.1306642149348706
 40
0.0
 40
0.0
 40
0.0
 10
12.82728139570945
 20
1.260000489368439
 30
0.0
 41
1.0
 10
12.90947530938752
 20
1.259999377635789
 30
0.0
 41
0.7188689686272367
 10
12.91225732744545
 20
1.343573495961616
 30
0.0
 41
1.0
  0
LINE
  5
BF
330
1F
100
AcDbEntity
  8
Default
100
AcDbLine
 10
12.91225732744545
 20
1.343573495961616
 30
0.0
 11
12.91228150966132
 21
2.719999999999945
 31
0.0
  0
SPLINE
  5
C0
330
1F
100
AcDbEntity
  8
Default
100
AcDbSpline
210
0.0
220
0.0
230
1.0
 70
    12
 71
     2
 72
     8
 73
     5
 74
     0
 42
0.0000000001
 43
0.0000000001
 40
-0.0628318931243996
 40
-0.0628318931243996
 40
-0.0628318931243996
 40
-0.0314159465621985
 40
-0.0314159465621985
 40
0.0
 40
0.0
 40
0.0
 10
12.91228150966132
 20
2.719999999999945
 30
0.0
 41
1.0
 10
12.91228139573
 20
2.736568554226062
 30
0.0
 41
0.923879436714611
 10
12.90056565281673
 20
2.748284285408195
 30
0.0
 41
1.0
 10
12.88884990990345
 20
2.760000016590326
 30
0.0
 41
0.9238794367145934
 10
12.8722813556774
 20
2.759999999999986
 30
0.0
 41
1.0
  0
POLYLINE
  5
C1
330
1F
100
AcDbEntity
  8
Default
100
AcDb2dPolyline
 66
     1
 10
0.0
 20
0.0
 30
0.0
  0
VERTEX
  5
C2
330
C1
100
AcDbEntity
  8
Default
100
AcDbVertex
100
AcDb2dVertex
 10
12.8722813556774
 20
2.759999999999986
 30
0.0
  0
VERTEX
  5
C3
330
C1
100
AcDbEntity
  8
Default
100
AcDbVertex
100
AcDb2dVertex
 10
12.1642814370687
 20
2.759999999999986
 30
0.0
  0
SEQEND
  5
C4
330
C1
100
AcDbEntity
  8
Default
  0
SPLINE
  5
C5
330
1F
100
AcDbEntity
  8
Default
100
AcDbSpline
210
0.0
220
0.0
230
1.0
 70
    12
 71
     2
 72
     8
 73
     5
 74
     0
 42
0.0000000001
 43
0.0000000001
 40
0.0
 40
0.0
 40
0.0
 40
0.0314159465621985
 40
0.0314159465621985
 40
0.0628318931243996
 40
0.0628318931243996
 40
0.0628318931243996
 10
12.1642814370687
 20
2.759999999999986
 30
0.0
 41
1.0
 10
12.14771288284265
 20
2.760000016590326
 30
0.0
 41
0.9238794367145934
 10
12.13599713992938
 20
2.748284285408195
 30
0.0
 41
1.0
 10
12.1242813970161
 20
2.736568554226062
 30
0.0
 41
0.923879436714611
 10
12.12428128308478
 20
2.719999999999945
 30
0.0
 41
1.0
  0
LINE
  5
C6
330
1F
100
AcDbEntity
  8
Default
100
AcDbLine
 10
12.12428128308478
 20
2.719999999999945
 30
0.0
 11
12.12430546530065
 21
1.343573495961616
 31
0.0
  0
SPLINE
  5
C7
330
1F
100
AcDbEntity
  8
Make2D visible lines
100
AcDbSpline
210
0.0
220
0.0
230
1.0
 70
    24
 71
     2
 72
     6
 73
     3
 74
     0
 42
0.0000000001
 43
0.0000000001
 40
-2.415105423527796
 40
-2.415105423527796
 40
-2.415105423527796
 40
0.0
 40
0.0
 40
0.0
 10
12.98128139573
 20
2.487552711763898
 30
0.0
 10
12.98128139573
 20
1.278776359863449
 30
0.0
 10
12.98128139573
 20
0.0700000079629994
 30
0.0
  0
SPLINE
  5
C8
330
1F
100
AcDbEntity
  8
Make2D visible lines
100
AcDbSpline
210
0.0
220
0.0
230
1.0
 70
    12
 71
     2
 72
     8
 73
     5
 74
     0
 42
0.0000000001
 43
0.0000000001
 40
-0.1099557508386429
 40
-0.1099557508386429
 40
-0.1099557508386429
 40
-0.0549778754193212
 40
-0.0549778754193212
 40
0.0
 40
0.0
 40
0.0
 10
12.98128139573
 20
0.0700000079629994
 30
0.0
 41
1.0
 10
12.98128139243162
 20
0.0410050562645741
 30
0.0
 41
0.9238795216280429
 10
13.0017839182316
 20
0.0205025281322868
 30
0.0
 41
1.0
 10
13.02228644403157
 20
0.0
 30
0.0
 41
0.923879521628049
 10
13.05128139573
 20
0.0
 30
0.0
 41
1.0
  0
SPLINE
  5
C9
330
1F
100
AcDbEntity
  8
Make2D visible lines
100
AcDbSpline
210
0.0
220
0.0
230
1.0
 70
    24
 71
     2
 72
     6
 73
     3
 74
     0
 42
0.0000000001
 43
0.0000000001
 40
0.0
 40
0.0
 40
0.0
 40
0.3520000000000003
 40
0.3520000000000003
 40
0.3520000000000003
 10
13.05128139573
 20
0.0
 30
0.0
 10
13.22728139573
 20
0.0
 30
0.0
 10
13.40328139573
 20
0.0
 30
0.0
  0
SPLINE
  5
CA
330
1F
100
AcDbEntity
  8
Make2D visible lines
100
AcDbSpline
210
0.0
220
0.0
230
1.0
 70
    12
 71
     2
 72
     6
 73
     3
 74
     0
 42
0.0000000001
 43
0.0000000001
 40
0.0
 40
0.0
 40
0.0
 40
0.2356194483882336
 40
0.2356194483882336
 40
0.2356194483882336
 10
13.40328139573
 20
0.0
 30
0.0
 41
1.0
 10
13.553281395099
 20
0.0
 30
0.0
 41
0.7071067826738353
 10
13.55328139573
 20
0.1499999993689993
 30
0.0
 41
1.0
  0
SPLINE
  5
CB
330
1F
100
AcDbEntity
  8
Make2D visible lines
100
AcDbSpline
210
0.0
220
0.0
230
1.0
 70
    24
 71
     2
 72
     6
 73
     3
 74
     0
 42
0.0000000001
 43
0.0000000001
 40
-2.260000001262
 40
-2.260000001262
 40
-2.260000001262
 40
0.0
 40
0.0
 40
0.0
 10
13.55328139573
 20
0.1499999993689993
 30
0.0
 10
13.55328139573
 20
1.279999999999999
 30
0.0
 10
13.55328139573
 20
2.410000000630999
 30
0.0
  0
SPLINE
  5
CC
330
1F
100
AcDbEntity
  8
Make2D visible lines
100
AcDbSpline
210
0.0
220
0.0
230
1.0
 70
    12
 71
     2
 72
     6
 73
     3
 74
     0
 42
0.0000000001
 43
0.0000000001
 40
0.0
 40
0.0
 40
0.0
 40
0.2356194483882358
 40
0.2356194483882358
 40
0.2356194483882358
 10
13.55328139573
 20
2.410000000630999
 30
0.0
 41
1.0
 10
13.553281395099
 20
2.560000000000001
 30
0.0
 41
0.7071067826738272
 10
13.40328139573
 20
2.56
 30
0.0
 41
1.0
  0
SPLINE
  5
CD
330
1F
100
AcDbEntity
  8
Make2D visible lines
100
AcDbSpline
210
0.0
220
0.0
230
1.0
 70
    24
 71
     2
 72
     6
 73
     3
 74
     0
 42
0.0000000001
 43
0.0000000001
 40
0.0
 40
0.0
 40
0.0
 40
0.3520000000000003
 40
0.3520000000000003
 40
0.3520000000000003
 10
13.40328139573
 20
2.56
 30
0.0
 10
13.22728139573
 20
2.56
 30
0.0
 10
13.05128139573
 20
2.56
 30
0.0
  0
SPLINE
  5
CE
330
1F
100
AcDbEntity
  8
Make2D visible lines
100
AcDbSpline
210
0.0
220
0.0
230
1.0
 70
    12
 71
     2
 72
     8
 73
     5
 74
     0
 42
0.0000000001
 43
0.0000000001
 40
-0.1099557508386414
 40
-0.1099557508386414
 40
-0.1099557508386414
 40
-0.0549778754193184
 40
-0.0549778754193184
 40
0.0
 40
0.0
 40
0.0
 10
13.05128139573
 20
2.56
 30
0.0
 41
1.0
 10
13.02228644403157
 20
2.56
 30
0.0
 41
0.9238795216280236
 10
13.0017839182316
 20
2.53949747186771
 30
0.0
 41
1.0
 10
12.98128139243162
 20
2.518994943735425
 30
0.0
 41
0.9238795216280324
 10
12.98128139573
 20
2.487552711763898
 30
0.0
 41
1.0
  0
SPLINE
  5
CF
330
1F
100
AcDbEntity
  8
Make2D visible lines
100
AcDbSpline
210
0.0
220
0.0
230
1.0
 70
    24
 71
     2
 72
     6
 73
     3
 74
     0
 42
0.0000000001
 43
0.0000000001
 40
-2.415105433753071
 40
-2.415105433753071
 40
-2.415105433753071
 40
0.0
 40
0.0
 40
0.0
 10
12.05528139573
 20
2.487552716876536
 30
0.0
 10
12.05528139573
 20
1.278776359858268
 30
0.0
 10
12.05528139573
 20
0.0700000028400005
 30
0.0
  0
SPLINE
  5
D0
330
1F
100
AcDbEntity
  8
Make2D visible lines
100
AcDbSpline
210
0.0
220
0.0
230
1.0
 70
    12
 71
     2
 72
     6
 73
     3
 74
     0
 42
0.0000000001
 43
0.0000000001
 40
0.0
 40
0.0
 40
0.0
 40
0.1099557457156439
 40
0.1099557457156439
 40
0.1099557457156439
 10
12.05528139573
 20
0.0700000028400005
 30
0.0
 41
1.0
 10
12.05528139857
 20
0.0
 30
0.0
 41
0.7071067668423728
 10
11.98528139573
 20
-0.0000000000000001
 30
0.0
 41
1.0
  0
SPLINE
  5
D1
330
1F
100
AcDbEntity
  8
Make2D visible lines
100
AcDbSpline
210
0.0
220
0.0
230
1.0
 70
    24
 71
     2
 72
     6
 73
     3
 74
     0
 42
0.0000000001
 43
0.0000000001
 40
0.0
 40
0.0
 40
0.0
 40
0.3520000000000003
 40
0.3520000000000003
 40
0.3520000000000003
 10
11.98528139573
 20
-0.0000000000000001
 30
0.0
 10
11.80928139573
 20
0.0
 30
0.0
 10
11.63328139573
 20
0.0
 30
0.0
  0
SPLINE
  5
D2
330
1F
100
AcDbEntity
  8
Make2D visible lines
100
AcDbSpline
210
0.0
220
0.0
230
1.0
 70
    12
 71
     2
 72
     6
 73
     3
 74
     0
 42
0.0000000001
 43
0.0000000001
 40
0.0
 40
0.0
 40
0.0
 40
0.2356194519512337
 40
0.2356194519512337
 40
0.2356194519512337
 10
11.63328139573
 20
0.0
 30
0.0
 41
1.0
 10
11.483281392798
 20
0.000000000000002
 30
0.0
 41
0.7071067742757676
 10
11.48328139573
 20
0.1500000029319999
 30
0.0
 41
1.0
  0
SPLINE
  5
D3
330
1F
100
AcDbEntity
  8
Make2D visible lines
100
AcDbSpline
210
0.0
220
0.0
230
1.0
 70
    24
 71
     2
 72
     6
 73
     3
 74
     0
 42
0.0000000001
 43
0.0000000001
 40
0.0
 40
0.0
 40
0.0
 40
2.255429040880414
 40
2.255429040880414
 40
2.255429040880414
 10
11.48328139573
 20
0.1500000029319999
 30
0.0
 10
11.48328139573
 20
1.278857261686103
 30
0.0
 10
11.48328139573
 20
2.407714520440207
 30
0.0
  0
SPLINE
  5
D4
330
1F
100
AcDbEntity
  8
Make2D visible lines
100
AcDbSpline
210
0.0
220
0.0
230
1.0
 70
    12
 71
     2
 72
     6
 73
     3
 74
     0
 42
0.0000000001
 43
0.0000000001
 40
0.0
 40
0.0
 40
0.0
 40
0.2356194519512344
 40
0.2356194519512344
 40
0.2356194519512344
 10
11.48328139573
 20
2.407714520440207
 30
0.0
 41
1.0
 10
11.483281392798
 20
2.56
 30
0.0
 41
0.7071067742757604
 10
11.63328139573
 20
2.56
 30
0.0
 41
1.0
  0
SPLINE
  5
D5
330
1F
100
AcDbEntity
  8
Make2D visible lines
100
AcDbSpline
210
0.0
220
0.0
230
1.0
 70
    24
 71
     2
 72
     6
 73
     3
 74
     0
 42
0.0000000001
 43
0.0000000001
 40
0.0
 40
0.0
 40
0.0
 40
0.3520000000000003
 40
0.3520000000000003
 40
0.3520000000000003
 10
11.63328139573
 20
2.56
 30
0.0
 10
11.80928139573
 20
2.56
 30
0.0
 10
11.98528139573
 20
2.56
 30
0.0
  0
SPLINE
  5
D6
330
1F
100
AcDbEntity
  8
Make2D visible lines
100
AcDbSpline
210
0.0
220
0.0
230
1.0
 70
    12
 71
     2
 72
     6
 73
     3
 74
     0
 42
0.0000000001
 43
0.0000000001
 40
0.0
 40
0.0
 40
0.0
 40
0.1099557457156434
 40
0.1099557457156434
 40
0.1099557457156434
 10
11.98528139573
 20
2.56
 30
0.0
 41
1.0
 10
12.05528139857
 20
2.56
 30
0.0
 41
0.7071067668423767
 10
12.05528139573
 20
2.487552716876536
 30
0.0
 41
1.0
  0
SPLINE
  5
D7
330
1F
100
AcDbEntity
  8
Make2D visible lines
100
AcDbSpline
210
0.0
220
0.0
230
1.0
 70
    24
 71
     2
 72
     6
 73
     3
 74
     0
 42
0.0000000001
 43
0.0000000001
 40
0.0
 40
0.0
 40
0.0
 40
0.0689999999999991
 40
0.0689999999999991
 40
0.0689999999999991
 10
12.12428139573
 20
1.595000000000001
 30
0.0
 10
12.08978139573
 20
1.595000000000001
 30
0.0
 10
12.05528139573
 20
1.595000000000001
 30
0.0
  0
SPLINE
  5
D8
330
1F
100
AcDbEntity
  8
Make2D visible lines
100
AcDbSpline
210
0.0
220
0.0
230
1.0
 70
    24
 71
     2
 72
     6
 73
     3
 74
     0
 42
0.0000000001
 43
0.0000000001
 40
0.0
 40
0.0
 40
0.0
 40
0.9260000000000002
 40
0.9260000000000002
 40
0.9260000000000002
 10
12.05528139573
 20
0.9650000000000016
 30
0.0
 10
12.51828139573
 20
0.9650000000000016
 30
0.0
 10
12.98128139573
 20
0.9650000000000016
 30
0.0
  0
SPLINE
  5
D9
330
1F
100
AcDbEntity
  8
Make2D visible lines
100
AcDbSpline
210
0.0
220
0.0
230
1.0
 70
    24
 71
     2
 72
     6
 73
     3
 74
     0
 42
0.0000000001
 43
0.0000000001
 40
0.0
 40
0.0
 40
0.0
 40
0.0690000000000008
 40
0.0690000000000008
 40
0.0690000000000008
 10
12.98128139573
 20
1.595000000000001
 30
0.0
 10
12.94678139573
 20
1.595000000000001
 30
0.0
 10
12.91228139573
 20
1.595000000000001
 30
0.0
  0
SPLINE
  5
DA
330
1F
100
AcDbEntity
  8
Make2D visible lines
100
AcDbSpline
210
0.0
220
0.0
230
1.0
 70
     8
 71
     3
 72
    12
 73
     8
 74
     0
 42
0.0000000001
 43
0.0000000001
 40
0.0
 40
0.0
 40
0.0
 40
0.0
 40
0.1463411183411369
 40
0.2853842069860231
 40
0.4774826785392335
 40
0.6695434217140405
 40
0.9551044705190225
 40
0.9551044705190225
 40
0.9551044705190225
 40
0.9551044705190225
 10
12.17428139573
 20
2.135695657233184
 30
0.0
 10
12.19483924901879
 20
2.092235288994199
 30
0.0
 10
12.25007361418926
 20
2.011139443753334
 30
0.0
 10
12.3490209868069
 20
1.892867635552798
 30
0.0
 10
12.51940345317077
 20
1.800191929265525
 30
0.0
 10
12.73138178770486
 20
1.918743261260477
 30
0.0
 10
12.81556953510906
 20
2.051490853594749
 30
0.0
 10
12.86228139573
 20
2.135695657233184
 30
0.0
  0
SPLINE
  5
DB
330
1F
100
AcDbEntity
  8
Make2D visible lines
100
AcDbSpline
210
0.0
220
0.0
230
1.0
 70
    12
 71
     2
 72
     6
 73
     3
 74
     0
 42
0.0000000001
 43
0.0000000001
 40
0.0
 40
0.0
 40
0.0
 40
0.1228476419690088
 40
0.1228476419690088
 40
0.1228476419690088
 10
12.17428139573
 20
2.135695657233184
 30
0.0
 41
1.0
 10
12.13896557419717
 20
2.186799143881471
 30
0.0
 41
0.9832969456840381
 10
12.12428140026065
 20
2.247157644806792
 30
0.0
 41
1.0
  0
SPLINE
  5
DC
330
1F
100
AcDbEntity
  8
Make2D visible lines
100
AcDbSpline
210
0.0
220
0.0
230
1.0
 70
    12
 71
     2
 72
     6
 73
     3
 74
     0
 42
0.0000000001
 43
0.0000000001
 40
0.0
 40
0.0
 40
0.0
 40
0.1227840813427634
 40
0.1227840813427634
 40
0.1227840813427634
 10
12.86228139573
 20
2.135695657233184
 30
0.0
 41
1.0
 10
12.89709826317841
 20
2.187022966392655
 30
0.0
 41
0.9848379823800321
 10
12.91228139119935
 20
2.247157644806793
 30
0.0
 41
1.0
  0
SPLINE
  5
DD
330
1F
100
AcDbEntity
  8
Make2D visible lines
100
AcDbSpline
210
0.0
220
0.0
230
1.0
 70
    12
 71
     2
 72
     6
 73
     3
 74
     0
 42
0.0000000001
 43
0.0000000001
 40
0.0
 40
0.0
 40
0.0
 40
0.0483212497416666
 40
0.0483212497416666
 40
0.0483212497416666
 10
7.339092164560495
 20
2.788441279212112
 30
0.0
 41
1.0
 10
7.344577707264786
 20
2.760100728064051
 30
0.0
 41
0.7724816427213782
 10
7.373444086878428
 20
2.760000000026418
 30
0.0
 41
1.0
  0
SPLINE
  5
DE
330
1F
100
AcDbEntity
  8
Make2D visible lines
100
AcDbSpline
210
0.0
220
0.0
230
1.0
 70
    12
 71
     2
 72
     8
 73
     5
 74
     0
 42
0.0000000001
 43
0.0000000001
 40
0.0
 40
0.0
 40
0.0
 40
0.0286061523138886
 40
0.0286061523138886
 40
0.0572123046277773
 40
0.0572123046277773
 40
0.0572123046277773
 10
8.09179832887641
 20
2.760000000000004
 30
0.0
 41
1.0
 10
8.106948194180319
 20
2.760056392118597
 30
0.0
 41
0.9182200393676768
 10
8.11730386400521
 20
2.771114497800655
 30
0.0
 41
1.0
 10
8.127659533830098
 20
2.782172603482712
 30
0.0
 41
0.9182200393676768
 10
8.12672295131464
 20
2.79729359591011
 30
0.0
 41
1.0
  0
SPLINE
  5
DF
330
1F
100
AcDbEntity
  8
Make2D visible lines
100
AcDbSpline
210
0.0
220
0.0
230
1.0
 70
    12
 71
     2
 72
     8
 73
     5
 74
     0
 42
0.0000000001
 43
0.0000000001
 40
0.0
 40
0.0
 40
0.0
 40
0.0281928929716271
 40
0.0281928929716271
 40
0.0563857859432542
 40
0.0563857859432542
 40
0.0563857859432542
 10
12.87419962211639
 20
2.760000000033125
 30
0.0
 41
1.0
 10
12.8891051433937
 20
2.760054542525548
 30
0.0
 41
0.9205244397931974
 10
12.89942123268554
 20
2.770813531379281
 30
0.0
 41
1.0
 10
12.90973732197737
 20
2.781572520233012
 30
0.0
 41
0.9205244397931974
 10
12.90916560420659
 20
2.796467172905111
 30
0.0
 41
1.0
  0
SPLINE
  5
E0
330
1F
100
AcDbEntity
  8
Make2D visible lines - Tangent
100
AcDbSpline
210
0.0
220
0.0
230
1.0
 70
     8
 71
     3
 72
    11
 73
     7
 74
     0
 42
0.0000000001
 43
0.0000000001
 40
-0.7386030843065078
 40
-0.7386030843065078
 40
-0.7386030843065078
 40
-0.7386030843065078
 40
-0.3141361316168274
 40
-0.1452787980732192
 40
-0.0706522820738642
 40
0.0
 40
0.0
 40
0.0
 40
0.0
 10
0.3694721734610606
 20
3.739901380785775
 30
0.0
 10
0.3623696674723007
 20
3.880125352297963
 30
0.0
 10
0.3168498802065578
 20
4.08131084374745
 30
0.0
 10
0.1672431529643266
 20
4.252393228620664
 30
0.0
 10
0.0716772847736351
 20
4.299262188269639
 30
0.0
 10
0.0236962094207662
 20
4.307091201466158
 30
0.0
 10
0.0000032653121318
 20
4.307063383217811
 30
0.0
  0
SPLINE
  5
E1
330
1F
100
AcDbEntity
  8
Make2D visible lines - Tangent
100
AcDbSpline
210
0.0
220
0.0
230
1.0
 70
     8
 71
     3
 72
    11
 73
     7
 74
     0
 42
0.0000000001
 43
0.0000000001
 40
0.0
 40
0.0
 40
0.0
 40
0.0
 40
0.0706588126847526
 40
0.1452853286841054
 40
0.3141426622277108
 40
0.7386081388400023
 40
0.7386081388400023
 40
0.7386081388400023
 40
0.7386081388400023
 10
0.0000032653121318
 20
4.307063383217811
 30
0.0
 10
-0.0236918657242597
 20
4.307091899015024
 30
0.0
 10
-0.0716753146773375
 20
4.299263167152766
 30
0.0
 10
-0.1672431439844395
 20
4.252393224364116
 30
0.0
 10
-0.3168495639057287
 20
4.081311231398825
 30
0.0
 10
-0.3623694260001908
 20
3.880126339338435
 30
0.0
 10
-0.3694721094709443
 20
3.739902855478209
 30
0.0
  0
SPLINE
  5
E2
330
1F
100
AcDbEntity
  8
Make2D visible lines - Tangent
100
AcDbSpline
210
0.0
220
0.0
230
1.0
 70
     8
 71
     3
 72
    10
 73
     6
 74
     0
 42
0.0000000001
 43
0.0000000001
 40
0.0
 40
0.0
 40
0.0
 40
0.0
 40
0.9325163551893328
 40
1.201969207291272
 40
1.321746330228334
 40
1.321746330228334
 40
1.321746330228334
 40
1.321746330228334
 10
-0.4922361881355855
 20
4.312547573972912
 30
0.0
 10
-0.4781444779559614
 20
4.623074921349136
 30
0.0
 10
-0.4518634598309603
 20
5.022888491869843
 30
0.0
 10
-0.4248667814347975
 20
5.462639508991959
 30
0.0
 10
-0.4137931651459663
 20
5.591924565014583
 30
0.0
 10
-0.40734788353494
 20
5.631381523326024
 30
0.0
  0
SPLINE
  5
E3
330
1F
100
AcDbEntity
  8
Make2D visible lines - Tangent
100
AcDbSpline
210
0.0
220
0.0
230
1.0
 70
     8
 71
     3
 72
    14
 73
    10
 74
     0
 42
0.0000000001
 43
0.0000000001
 40
0.0
 40
0.0
 40
0.0
 40
0.0
 40
1.0
 40
2.0
 40
3.0
 40
4.0
 40
5.0
 40
6.0
 40
7.0
 40
7.0
 40
7.0
 40
7.0
 10
-0.40734788353494
 20
5.631381523326024
 30
0.0
 10
-0.3987132793635011
 20
5.700251292020925
 30
0.0
 10
-0.366388363362373
 20
5.834900712213313
 30
0.0
 10
-0.2811332489969679
 20
6.027827083836947
 30
0.0
 10
-0.1106055230578875
 20
6.161541295642544
 30
0.0
 10
0.110605503527551
 20
6.16154130441812
 30
0.0
 10
0.2811332478089688
 20
6.027827090257112
 30
0.0
 10
0.3663883611175909
 20
5.83490071215478
 30
0.0
 10
0.3987132743976017
 20
5.700251319852618
 30
0.0
 10
0.4073478837483213
 20
5.631381523390508
 30
0.0
  0
SPLINE
  5
E4
330
1F
100
AcDbEntity
  8
Make2D visible lines - Tangent
100
AcDbSpline
210
0.0
220
0.0
230
1.0
 70
     8
 71
     3
 72
    10
 73
     6
 74
     0
 42
0.0000000001
 43
0.0000000001
 40
-1.320997012290119
 40
-1.320997012290119
 40
-1.320997012290119
 40
-1.320997012290119
 40
-1.207504293467593
 40
-0.9725110545717917
 40
0.0
 40
0.0
 40
0.0
 40
0.0
 10
0.4073478837483213
 20
5.631381523390508
 30
0.0
 10
0.4133345900279615
 20
5.593988089779013
 30
0.0
 10
0.423801054350939
 20
5.478277267718975
 30
0.0
 10
0.4508886585945078
 20
5.038783424917222
 30
0.0
 10
0.4774380453713576
 20
4.637135479399406
 30
0.0
 10
0.4922052179077561
 20
4.313294790905834
 30
0.0
  0
SPLINE
  5
E5
330
1F
100
AcDbEntity
  8
Make2D visible lines
100
AcDbSpline
210
0.0
220
0.0
230
1.0
 70
    12
 71
     2
 72
     6
 73
     3
 74
     0
 42
0.0000000001
 43
0.0000000001
 40
0.0
 40
0.0
 40
0.0
 40
0.715017489309887
 40
0.715017489309887
 40
0.715017489309887
 10
-8.126722355013005
 20
2.79730837210623
 30
0.0
 41
1.0
 10
-8.104889429230154
 20
3.154150786496702
 30
0.0
 41
0.9999959930683374
 10
-8.08507719706722
 20
3.511111093551959
 30
0.0
 41
1.0
  0
SPLINE
  5
E6
330
1F
100
AcDbEntity
  8
Make2D visible lines - Tangent
100
AcDbSpline
210
0.0
220
0.0
230
1.0
 70
    12
 71
     3
 72
    12
 73
     8
 74
     0
 42
0.0000000001
 43
0.0000000001
 40
-0.7166866764941487
 40
-0.7166866764941487
 40
-0.7166866764941487
 40
-0.7166866764941487
 40
0.0
 40
0.0
 40
0.0
 40
5.426935465500462
 40
6.005717626902
 40
6.005717626902
 40
6.005717626902
 40
6.005717626902
 10
-0.6170939324199887
 20
4.144275746056073
 30
0.0
 41
1.0
 10
-0.8549403253933607
 20
4.121609837324083
 30
0.0
 41
0.9997624307684584
 10
-1.092096912421841
 20
4.092602884742096
 30
0.0
 41
0.9997624307684584
 10
-1.328394670181023
 20
4.057275561788416
 30
0.0
 41
1.0
 10
-3.117482356701391
 20
3.789800833743934
 30
0.0
 41
1.0
 10
-4.962818904875473
 20
3.51835316869112
 30
0.0
 41
1.0
 10
-6.858249519855342
 20
3.232953152428765
 30
0.0
 41
1.0
 10
-7.190070262656594
 20
3.097166056710528
 30
0.0
 41
1.0
  0
SPLINE
  5
E7
330
1F
100
AcDbEntity
  8
Make2D visible lines - Tangent
100
AcDbSpline
210
0.0
220
0.0
230
1.0
 70
     8
 71
     3
 72
    11
 73
     7
 74
     0
 42
0.0000000001
 43
0.0000000001
 40
0.0
 40
0.0
 40
0.0
 40
0.0
 40
0.066894803380304
 40
0.1150772171461536
 40
0.2142351287725906
 40
0.3577299678759472
 40
0.3577299678759472
 40
0.3577299678759472
 40
0.3577299678759472
 10
-7.190070262656594
 20
3.097166056710528
 30
0.0
 10
-7.208121581512791
 20
3.085283282473688
 30
0.0
 10
-7.24451976032389
 20
3.067447034369017
 30
0.0
 10
-7.287917173120947
 20
3.010049314205599
 30
0.0
 10
-7.308915743437923
 20
2.912711916718788
 30
0.0
 10
-7.331854348652731
 20
2.837086405743809
 30
0.0
 10
-7.338967423585012
 20
2.788958449657228
 30
0.0
  0
SPLINE
  5
E8
330
1F
100
AcDbEntity
  8
Default
100
AcDbSpline
210
0.0
220
0.0
230
1.0
 70
    12
 71
     2
 72
     6
 73
     3
 74
     0
 42
0.0000000001
 43
0.0000000001
 40
-0.0405034352679367
 40
-0.0405034352679367
 40
-0.0405034352679367
 40
0.0
 40
0.0
 40
0.0
 10
-12.14911371442322
 20
2.760035477590776
 30
0.0
 41
1.0
 10
-12.12629078105089
 20
2.761184994890809
 30
0.0
 41
0.8377474461443447
 10
-12.11806098244238
 20
2.782509390905094
 30
0.0
 41
1.0
  0
SPLINE
  5
E9
330
1F
100
AcDbEntity
  8
Default
100
AcDbSpline
210
0.0
220
0.0
230
1.0
 70
     8
 71
     3
 72
    11
 73
     7
 74
     0
 42
0.0000000001
 43
0.0000000001
 40
-0.5190498716913017
 40
-0.5190498716913017
 40
-0.5190498716913017
 40
-0.5190498716913017
 40
-0.3020474028680822
 40
-0.2374224159260925
 40
-0.1669895205952948
 40
0.0
 40
0.0
 40
0.0
 40
0.0
 10
-12.11806098244238
 20
2.782509390905094
 30
0.0
 10
-12.09223346747857
 20
2.850638090585806
 30
0.0
 10
-12.02956425645359
 20
2.924693852895348
 30
0.0
 10
-11.93187101904603
 20
2.989616466604408
 30
0.0
 10
-11.84364717303091
 20
3.038432671694692
 30
0.0
 10
-11.77004209026178
 20
3.068032893056389
 30
0.0
 10
-11.71556540523546
 20
3.087346865324408
 30
0.0
  0
SPLINE
  5
EA
330
1F
100
AcDbEntity
  8
Default
100
AcDbSpline
210
0.0
220
0.0
230
1.0
 70
     8
 71
     3
 72
    11
 73
     7
 74
     0
 42
0.0000000001
 43
0.0000000001
 40
-9.62873534496378
 40
-9.62873534496378
 40
-9.62873534496378
 40
-9.62873534496378
 40
-9.235760971098028
 40
-8.993257344707228
 40
-8.729254607404698
 40
0.0
 40
0.0
 40
0.0
 40
0.0
 10
-11.71556540523546
 20
3.087346865324408
 30
0.0
 10
-11.58988661813639
 20
3.132737362778273
 30
0.0
 10
-11.38308034450261
 20
3.177620608886414
 30
0.0
 10
-11.08778954878018
 20
3.232731597892199
 30
0.0
 10
-8.022689235877312
 20
3.520429176121879
 30
0.0
 10
-5.036998118275312
 20
3.789332298799763
 30
0.0
 10
-2.13965468369018
 20
4.057697784693569
 30
0.0
  0
ARC
  5
EB
330
1F
100
AcDbEntity
  8
Default
100
AcDbCircle
 10
3.866135974223456
 20
-60.78237684056489
 30
0.0
 40
65.11762279779389
100
AcDbArc
 50
94.26441233900313
 51
95.29190360224223
  0
SPLINE
  5
EC
330
1F
100
AcDbEntity
  8
Default
100
AcDbSpline
210
0.0
220
0.0
230
1.0
 70
    12
 71
     2
 72
     6
 73
     3
 74
     0
 42
0.0000000001
 43
0.0000000001
 40
0.0
 40
0.0
 40
0.0
 40
0.1645726248110703
 40
0.1645726248110703
 40
0.1645726248110703
 10
-0.975967409105224
 20
4.154968606111039
 30
0.0
 41
1.0
 10
-0.893930876010418
 20
4.148116645719011
 30
0.0
 41
0.999346492540072
 10
-0.8116136902486488
 20
4.147209423754928
 30
0.0
 41
1.0
  0
POLYLINE
  5
ED
330
1F
100
AcDbEntity
  8
Default
100
AcDb2dPolyline
 66
     1
 10
0.0
 20
0.0
 30
0.0
  0
VERTEX
  5
EE
330
ED
100
AcDbEntity
  8
Default
100
AcDbVertex
100
AcDb2dVertex
 10
-0.8116136902486488
 20
4.147209423754928
 30
0.0
  0
VERTEX
  5
EF
330
ED
100
AcDbEntity
  8
Default
100
AcDbVertex
100
AcDb2dVertex
 10
-0.4595528730361971
 20
4.147209423754928
 30
0.0
  0
SEQEND
  5
F0
330
ED
100
AcDbEntity
  8
Default
  0
SPLINE
  5
F1
330
1F
100
AcDbEntity
  8
Default
100
AcDbSpline
210
0.0
220
0.0
230
1.0
 70
    12
 71
     2
 72
     6
 73
     3
 74
     0
 42
0.0000000001
 43
0.0000000001
 40
-0.0205148466803361
 40
-0.0205148466803361
 40
-0.0205148466803361
 40
0.0
 40
0.0
 40
0.0
 10
0.3908867181428572
 20
1.321916756511124
 30
0.0
 41
1.0
 10
0.3936309385146441
 20
1.331850316586209
 30
0.0
 41
0.9929165310438545
 10
0.3939531690117691
 20
1.342150924790038
 30
0.0
 41
0.9999992470307488
  0
SPLINE
  5
F2
330
1F
100
AcDbEntity
  8
Default
100
AcDbSpline
210
0.0
220
0.0
230
1.0
 70
    12
 71
     2
 72
     6
 73
     3
 74
     0
 42
0.0000000001
 43
0.0000000001
 40
-0.1306670865212424
 40
-0.1306670865212424
 40
-0.1306670865212424
 40
0.0
 40
0.0
 40
0.0
 10
0.3939531690117697
 20
1.342150924790038
 30
0.0
 41
1.0
 10
0.3911966937249701
 20
1.259999371951817
 30
0.0
 41
0.7188571908882943
 10
0.3089999986933485
 20
1.260000489392885
 30
0.0
 41
1.0
  0
SPLINE
  5
F3
330
1F
100
AcDbEntity
  8
Default
100
AcDbSpline
210
0.0
220
0.0
230
1.0
 70
    24
 71
     2
 72
     6
 73
     3
 74
     0
 42
0.0000000001
 43
0.0000000001
 40
-0.6179999986728006
 40
-0.6179999986728006
 40
-0.6179999986728006
 40
0.0
 40
0.0
 40
0.0
 10
0.3089999986933485
 20
1.260000489392885
 30
0.0
 10
-0.0000000006430518
 20
1.260000489380662
 30
0.0
 10
-0.3089999999794522
 20
1.260000489368439
 30
0.0
  0
SPLINE
  5
F4
330
1F
100
AcDbEntity
  8
Default
100
AcDbSpline
210
0.0
220
0.0
230
1.0
 70
    12
 71
     2
 72
     6
 73
     3
 74
     0
 42
0.0000000001
 43
0.0000000001
 40
-0.1306642149348706
 40
-0.1306642149348706
 40
-0.1306642149348706
 40
0.0
 40
0.0
 40
0.0
 10
-0.3089999999794522
 20
1.260000489368439
 30
0.0
 41
1.0
 10
-0.3911939136575184
 20
1.259999377635789
 30
0.0
 41
0.7188689686272367
 10
-0.393975931715449
 20
1.343573495961616
 30
0.0
 41
1.0
  0
LINE
  5
F5
330
1F
100
AcDbEntity
  8
Default
100
AcDbLine
 10
-0.393975931715449
 20
1.343573495961616
 30
0.0
 11
-0.3940001139313196
 21
2.719999999999945
 31
0.0
  0
SPLINE
  5
F6
330
1F
100
AcDbEntity
  8
Default
100
AcDbSpline
210
0.0
220
0.0
230
1.0
 70
    12
 71
     2
 72
     8
 73
     5
 74
     0
 42
0.0000000001
 43
0.0000000001
 40
-0.0628318931243996
 40
-0.0628318931243996
 40
-0.0628318931243996
 40
-0.0314159465621985
 40
-0.0314159465621985
 40
0.0
 40
0.0
 40
0.0
 10
-0.3940001139313196
 20
2.719999999999945
 30
0.0
 41
1.0
 10
-0.3940000000000003
 20
2.736568554226062
 30
0.0
 41
0.923879436714611
 10
-0.3822842570867273
 20
2.748284285408195
 30
0.0
 41
1.0
 10
-0.3705685141734518
 20
2.760000016590326
 30
0.0
 41
0.9238794367145934
 10
-0.3539999599474015
 20
2.759999999999986
 30
0.0
 41
1.0
  0
POLYLINE
  5
F7
330
1F
100
AcDbEntity
  8
Default
100
AcDb2dPolyline
 66
     1
 10
0.0
 20
0.0
 30
0.0
  0
VERTEX
  5
F8
330
F7
100
AcDbEntity
  8
Default
100
AcDbVertex
100
AcDb2dVertex
 10
-0.3539999599474015
 20
2.759999999999986
 30
0.0
  0
VERTEX
  5
F9
330
F7
100
AcDbEntity
  8
Default
100
AcDbVertex
100
AcDb2dVertex
 10
0.3539999586612979
 20
2.759999999999986
 30
0.0
  0
SEQEND
  5
FA
330
F7
100
AcDbEntity
  8
Default
  0
SPLINE
  5
FB
330
1F
100
AcDbEntity
  8
Default
100
AcDbSpline
210
0.0
220
0.0
230
1.0
 70
    12
 71
     2
 72
     8
 73
     5
 74
     0
 42
0.0000000001
 43
0.0000000001
 40
0.0
 40
0.0
 40
0.0
 40
0.0314159465621985
 40
0.0314159465621985
 40
0.0628318931243996
 40
0.0628318931243996
 40
0.0628318931243996
 10
0.3539999586612979
 20
2.759999999999986
 30
0.0
 41
1.0
 10
0.3705685128873479
 20
2.760000016590326
 30
0.0
 41
0.9238794367145934
 10
0.3822842558006236
 20
2.748284285408195
 30
0.0
 41
1.0
 10
0.3939999987138978
 20
2.736568554226062
 30
0.0
 41
0.923879436714611
 10
0.3940001126452159
 20
2.719999999999945
 30
0.0
 41
1.0
  0
LINE
  5
FC
330
1F
100
AcDbEntity
  8
Default
100
AcDbLine
 10
0.3940001126452159
 20
2.719999999999945
 30
0.0
 11
0.3939759304293453
 21
1.343573495961616
 31
0.0
  0
SPLINE
  5
FD
330
1F
100
AcDbEntity
  8
Make2D visible lines
100
AcDbSpline
210
0.0
220
0.0
230
1.0
 70
    24
 71
     2
 72
     6
 73
     3
 74
     0
 42
0.0000000001
 43
0.0000000001
 40
-2.415105423527796
 40
-2.415105423527796
 40
-2.415105423527796
 40
0.0
 40
0.0
 40
0.0
 10
-0.463000000000001
 20
2.487552711763898
 30
0.0
 10
-0.463000000000001
 20
1.278776359863449
 30
0.0
 10
-0.463000000000001
 20
0.0700000079629994
 30
0.0
  0
SPLINE
  5
FE
330
1F
100
AcDbEntity
  8
Make2D visible lines
100
AcDbSpline
210
0.0
220
0.0
230
1.0
 70
    12
 71
     2
 72
     8
 73
     5
 74
     0
 42
0.0000000001
 43
0.0000000001
 40
-0.1099557508386429
 40
-0.1099557508386429
 40
-0.1099557508386429
 40
-0.0549778754193212
 40
-0.0549778754193212
 40
0.0
 40
0.0
 40
0.0
 10
-0.463000000000001
 20
0.0700000079629994
 30
0.0
 41
1.0
 10
-0.4629999967016183
 20
0.0410050562645741
 30
0.0
 41
0.9238795216280429
 10
-0.4835025225015954
 20
0.0205025281322868
 30
0.0
 41
1.0
 10
-0.5040050483015753
 20
0.0
 30
0.0
 41
0.923879521628049
 10
-0.5329999999999995
 20
0.0
 30
0.0
 41
1.0
  0
SPLINE
  5
FF
330
1F
100
AcDbEntity
  8
Make2D visible lines
100
AcDbSpline
210
0.0
220
0.0
230
1.0
 70
    24
 71
     2
 72
     6
 73
     3
 74
     0
 42
0.0000000001
 43
0.0000000001
 40
0.0
 40
0.0
 40
0.0
 40
0.3520000000000003
 40
0.3520000000000003
 40
0.3520000000000003
 10
-0.5329999999999995
 20
0.0
 30
0.0
 10
-0.7089999999999987
 20
0.0
 30
0.0
 10
-0.884999999999998
 20
0.0
 30
0.0
  0
SPLINE
  5
100
330
1F
100
AcDbEntity
  8
Make2D visible lines
100
AcDbSpline
210
0.0
220
0.0
230
1.0
 70
    12
 71
     2
 72
     6
 73
     3
 74
     0
 42
0.0000000001
 43
0.0000000001
 40
0.0
 40
0.0
 40
0.0
 40
0.2356194483882336
 40
0.2356194483882336
 40
0.2356194483882336
 10
-0.884999999999998
 20
0.0
 30
0.0
 41
1.0
 10
-1.034999999368996
 20
0.0
 30
0.0
 41
0.7071067826738353
 10
-1.035
 20
0.1499999993689993
 30
0.0
 41
1.0
  0
SPLINE
  5
101
330
1F
100
AcDbEntity
  8
Make2D visible lines
100
AcDbSpline
210
0.0
220
0.0
230
1.0
 70
    24
 71
     2
 72
     6
 73
     3
 74
     0
 42
0.0000000001
 43
0.0000000001
 40
-2.260000001262
 40
-2.260000001262
 40
-2.260000001262
 40
0.0
 40
0.0
 40
0.0
 10
-1.035
 20
0.1499999993689993
 30
0.0
 10
-1.035
 20
1.279999999999999
 30
0.0
 10
-1.035
 20
2.410000000630999
 30
0.0
  0
SPLINE
  5
102
330
1F
100
AcDbEntity
  8
Make2D visible lines
100
AcDbSpline
210
0.0
220
0.0
230
1.0
 70
    12
 71
     2
 72
     6
 73
     3
 74
     0
 42
0.0000000001
 43
0.0000000001
 40
0.0
 40
0.0
 40
0.0
 40
0.2356194483882358
 40
0.2356194483882358
 40
0.2356194483882358
 10
-1.035
 20
2.410000000630999
 30
0.0
 41
1.0
 10
-1.034999999369002
 20
2.560000000000001
 30
0.0
 41
0.7071067826738272
 10
-0.884999999999998
 20
2.56
 30
0.0
 41
1.0
  0
SPLINE
  5
103
330
1F
100
AcDbEntity
  8
Make2D visible lines
100
AcDbSpline
210
0.0
220
0.0
230
1.0
 70
    24
 71
     2
 72
     6
 73
     3
 74
     0
 42
0.0000000001
 43
0.0000000001
 40
0.0
 40
0.0
 40
0.0
 40
0.3520000000000003
 40
0.3520000000000003
 40
0.3520000000000003
 10
-0.884999999999998
 20
2.56
 30
0.0
 10
-0.7089999999999987
 20
2.56
 30
0.0
 10
-0.5329999999999995
 20
2.56
 30
0.0
  0
SPLINE
  5
104
330
1F
100
AcDbEntity
  8
Make2D visible lines
100
AcDbSpline
210
0.0
220
0.0
230
1.0
 70
    12
 71
     2
 72
     8
 73
     5
 74
     0
 42
0.0000000001
 43
0.0000000001
 40
-0.1099557508386414
 40
-0.1099557508386414
 40
-0.1099557508386414
 40
-0.0549778754193184
 40
-0.0549778754193184
 40
0.0
 40
0.0
 40
0.0
 10
-0.5329999999999995
 20
2.56
 30
0.0
 41
1.0
 10
-0.5040050483015742
 20
2.56
 30
0.0
 41
0.9238795216280236
 10
-0.4835025225015972
 20
2.53949747186771
 30
0.0
 41
1.0
 10
-0.4629999967016187
 20
2.518994943735425
 30
0.0
 41
0.9238795216280324
 10
-0.463000000000001
 20
2.487552711763898
 30
0.0
 41
1.0
  0
SPLINE
  5
105
330
1F
100
AcDbEntity
  8
Make2D visible lines
100
AcDbSpline
210
0.0
220
0.0
230
1.0
 70
    24
 71
     2
 72
     6
 73
     3
 74
     0
 42
0.0000000001
 43
0.0000000001
 40
-2.415105433753071
 40
-2.415105433753071
 40
-2.415105433753071
 40
0.0
 40
0.0
 40
0.0
 10
0.463000000000001
 20
2.487552716876536
 30
0.0
 10
0.463000000000001
 20
1.278776359858268
 30
0.0
 10
0.463000000000001
 20
0.0700000028400005
 30
0.0
  0
SPLINE
  5
106
330
1F
100
AcDbEntity
  8
Make2D visible lines
100
AcDbSpline
210
0.0
220
0.0
230
1.0
 70
    12
 71
     2
 72
     6
 73
     3
 74
     0
 42
0.0000000001
 43
0.0000000001
 40
0.0
 40
0.0
 40
0.0
 40
0.1099557457156439
 40
0.1099557457156439
 40
0.1099557457156439
 10
0.463000000000001
 20
0.0700000028400005
 30
0.0
 41
1.0
 10
0.4629999971599989
 20
0.0
 30
0.0
 41
0.7071067668423728
 10
0.5330000000000013
 20
-0.0000000000000001
 30
0.0
 41
1.0
  0
SPLINE
  5
107
330
1F
100
AcDbEntity
  8
Make2D visible lines
100
AcDbSpline
210
0.0
220
0.0
230
1.0
 70
    24
 71
     2
 72
     6
 73
     3
 74
     0
 42
0.0000000001
 43
0.0000000001
 40
0.0
 40
0.0
 40
0.0
 40
0.3520000000000003
 40
0.3520000000000003
 40
0.3520000000000003
 10
0.5330000000000013
 20
-0.0000000000000001
 30
0.0
 10
0.7090000000000014
 20
0.0
 30
0.0
 10
0.8850000000000016
 20
0.0
 30
0.0
  0
SPLINE
  5
108
330
1F
100
AcDbEntity
  8
Make2D visible lines
100
AcDbSpline
210
0.0
220
0.0
230
1.0
 70
    12
 71
     2
 72
     6
 73
     3
 74
     0
 42
0.0000000001
 43
0.0000000001
 40
0.0
 40
0.0
 40
0.0
 40
0.2356194519512337
 40
0.2356194519512337
 40
0.2356194519512337
 10
0.8850000000000016
 20
0.0
 30
0.0
 41
1.0
 10
1.035000002932
 20
0.000000000000002
 30
0.0
 41
0.7071067742757676
 10
1.035
 20
0.1500000029319999
 30
0.0
 41
1.0
  0
SPLINE
  5
109
330
1F
100
AcDbEntity
  8
Make2D visible lines
100
AcDbSpline
210
0.0
220
0.0
230
1.0
 70
    24
 71
     2
 72
     6
 73
     3
 74
     0
 42
0.0000000001
 43
0.0000000001
 40
0.0
 40
0.0
 40
0.0
 40
2.255429040880414
 40
2.255429040880414
 40
2.255429040880414
 10
1.035
 20
0.1500000029319999
 30
0.0
 10
1.035
 20
1.278857261686103
 30
0.0
 10
1.035
 20
2.407714520440207
 30
0.0
  0
SPLINE
  5
10A
330
1F
100
AcDbEntity
  8
Make2D visible lines
100
AcDbSpline
210
0.0
220
0.0
230
1.0
 70
    12
 71
     2
 72
     6
 73
     3
 74
     0
 42
0.0000000001
 43
0.0000000001
 40
0.0
 40
0.0
 40
0.0
 40
0.2356194519512344
 40
0.2356194519512344
 40
0.2356194519512344
 10
1.035
 20
2.407714520440207
 30
0.0
 41
1.0
 10
1.035000002932001
 20
2.56
 30
0.0
 41
0.7071067742757604
 10
0.8850000000000016
 20
2.56
 30
0.0
 41
1.0
  0
SPLINE
  5
10B
330
1F
100
AcDbEntity
  8
Make2D visible lines
100
AcDbSpline
210
0.0
220
0.0
230
1.0
 70
    24
 71
     2
 72
     6
 73
     3
 74
     0
 42
0.0000000001
 43
0.0000000001
 40
0.0
 40
0.0
 40
0.0
 40
0.3520000000000003
 40
0.3520000000000003
 40
0.3520000000000003
 10
0.8850000000000016
 20
2.56
 30
0.0
 10
0.7090000000000014
 20
2.56
 30
0.0
 10
0.5330000000000013
 20
2.56
 30
0.0
  0
SPLINE
  5
10C
330
1F
100
AcDbEntity
  8
Make2D visible lines
100
AcDbSpline
210
0.0
220
0.0
230
1.0
 70
    12
 71
     2
 72
     6
 73
     3
 74
     0
 42
0.0000000001
 43
0.0000000001
 40
0.0
 40
0.0
 40
0.0
 40
0.1099557457156434
 40
0.1099557457156434
 40
0.1099557457156434
 10
0.5330000000000013
 20
2.56
 30
0.0
 41
1.0
 10
0.46299999716
 20
2.56
 30
0.0
 41
0.7071067668423767
 10
0.463000000000001
 20
2.487552716876536
 30
0.0
 41
1.0
  0
SPLINE
  5
10D
330
1F
100
AcDbEntity
  8
Make2D visible lines
100
AcDbSpline
210
0.0
220
0.0
230
1.0
 70
    24
 71
     2
 72
     6
 73
     3
 74
     0
 42
0.0000000001
 43
0.0000000001
 40
0.0
 40
0.0
 40
0.0
 40
0.0689999999999991
 40
0.0689999999999991
 40
0.0689999999999991
 10
0.3940000000000019
 20
1.595000000000001
 30
0.0
 10
0.4285000000000014
 20
1.595000000000001
 30
0.0
 10
0.463000000000001
 20
1.595000000000001
 30
0.0
  0
SPLINE
  5
10E
330
1F
100
AcDbEntity
  8
Make2D visible lines
100
AcDbSpline
210
0.0
220
0.0
230
1.0
 70
    24
 71
     2
 72
     6
 73
     3
 74
     0
 42
0.0000000001
 43
0.0000000001
 40
0.0
 40
0.0
 40
0.0
 40
0.9260000000000002
 40
0.9260000000000002
 40
0.9260000000000002
 10
0.463000000000001
 20
0.9650000000000016
 30
0.0
 10
0.0
 20
0.9650000000000016
 30
0.0
 10
-0.463000000000001
 20
0.9650000000000016
 30
0.0
  0
SPLINE
  5
10F
330
1F
100
AcDbEntity
  8
Make2D visible lines
100
AcDbSpline
210
0.0
220
0.0
230
1.0
 70
    24
 71
     2
 72
     6
 73
     3
 74
     0
 42
0.0000000001
 43
0.0000000001
 40
0.0
 40
0.0
 40
0.0
 40
0.0690000000000008
 40
0.0690000000000008
 40
0.0690000000000008
 10
-0.463000000000001
 20
1.595000000000001
 30
0.0
 10
-0.4284999999999997
 20
1.595000000000001
 30
0.0
 10
-0.3939999999999984
 20
1.595000000000001
 30
0.0
  0
SPLINE
  5
110
330
1F
100
AcDbEntity
  8
Make2D visible lines
100
AcDbSpline
210
0.0
220
0.0
230
1.0
 70
     8
 71
     3
 72
    12
 73
     8
 74
     0
 42
0.0000000001
 43
0.0000000001
 40
0.0
 40
0.0
 40
0.0
 40
0.0
 40
0.1463411183411369
 40
0.2853842069860231
 40
0.4774826785392335
 40
0.6695434217140405
 40
0.9551044705190225
 40
0.9551044705190225
 40
0.9551044705190225
 40
0.9551044705190225
 10
0.3439999999999976
 20
2.135695657233184
 30
0.0
 10
0.3234421467112139
 20
2.092235288994199
 30
0.0
 10
0.2682077815407382
 20
2.011139443753334
 30
0.0
 10
0.1692604089231011
 20
1.892867635552798
 30
0.0
 10
-0.0011220574407673
 20
1.800191929265525
 30
0.0
 10
-0.2131003919748569
 20
1.918743261260477
 30
0.0
 10
-0.2972881393790594
 20
2.051490853594749
 30
0.0
 10
-0.3439999999999976
 20
2.135695657233184
 30
0.0
  0
SPLINE
  5
111
330
1F
100
AcDbEntity
  8
Make2D visible lines
100
AcDbSpline
210
0.0
220
0.0
230
1.0
 70
    12
 71
     2
 72
     6
 73
     3
 74
     0
 42
0.0000000001
 43
0.0000000001
 40
0.0
 40
0.0
 40
0.0
 40
0.1228476419690088
 40
0.1228476419690088
 40
0.1228476419690088
 10
0.3439999999999976
 20
2.135695657233184
 30
0.0
 41
1.0
 10
0.3793158215328276
 20
2.186799143881471
 30
0.0
 41
0.9832969456840381
 10
0.393999995469354
 20
2.247157644806792
 30
0.0
 41
1.0
  0
SPLINE
  5
112
330
1F
100
AcDbEntity
  8
Make2D visible lines
100
AcDbSpline
210
0.0
220
0.0
230
1.0
 70
    12
 71
     2
 72
     6
 73
     3
 74
     0
 42
0.0000000001
 43
0.0000000001
 40
0.0
 40
0.0
 40
0.0
 40
0.1227840813427634
 40
0.1227840813427634
 40
0.1227840813427634
 10
-0.3439999999999976
 20
2.135695657233184
 30
0.0
 41
1.0
 10
-0.3788168674484081
 20
2.187022966392655
 30
0.0
 41
0.9848379823800321
 10
-0.393999995469354
 20
2.247157644806793
 30
0.0
 41
1.0
  0
SPLINE
  5
113
330
1F
100
AcDbEntity
  8
Default
100
AcDbSpline
210
0.0
220
0.0
230
1.0
 70
    12
 71
     2
 72
     6
 73
     3
 74
     0
 42
0.0000000001
 43
0.0000000001
 40
-0.0205148466803361
 40
-0.0205148466803361
 40
-0.0205148466803361
 40
0.0
 40
0.0
 40
0.0
 10
-7.34583666515714
 20
1.321916756511124
 30
0.0
 41
1.0
 10
-7.343092444785353
 20
1.331850316586209
 30
0.0
 41
0.9929165310438545
 10
-7.342770214288228
 20
1.342150924790038
 30
0.0
 41
0.9999992470307488
  0
SPLINE
  5
114
330
1F
100
AcDbEntity
  8
Default
100
AcDbSpline
210
0.0
220
0.0
230
1.0
 70
    12
 71
     2
 72
     6
 73
     3
 74
     0
 42
0.0000000001
 43
0.0000000001
 40
-0.1306670865212424
 40
-0.1306670865212424
 40
-0.1306670865212424
 40
0.0
 40
0.0
 40
0.0
 10
-7.342770214288228
 20
1.342150924790038
 30
0.0
 41
1.0
 10
-7.345526689575028
 20
1.259999371951817
 30
0.0
 41
0.7188571908882943
 10
-7.427723384606649
 20
1.260000489392885
 30
0.0
 41
1.0
  0
SPLINE
  5
115
330
1F
100
AcDbEntity
  8
Default
100
AcDbSpline
210
0.0
220
0.0
230
1.0
 70
    24
 71
     2
 72
     6
 73
     3
 74
     0
 42
0.0000000001
 43
0.0000000001
 40
-0.6179999986728006
 40
-0.6179999986728006
 40
-0.6179999986728006
 40
0.0
 40
0.0
 40
0.0
 10
-7.427723384606649
 20
1.260000489392885
 30
0.0
 10
-7.736723383943049
 20
1.260000489380662
 30
0.0
 10
-8.04572338327945
 20
1.260000489368439
 30
0.0
  0
SPLINE
  5
116
330
1F
100
AcDbEntity
  8
Default
100
AcDbSpline
210
0.0
220
0.0
230
1.0
 70
    12
 71
     2
 72
     6
 73
     3
 74
     0
 42
0.0000000001
 43
0.0000000001
 40
-0.1306642149348706
 40
-0.1306642149348706
 40
-0.1306642149348706
 40
0.0
 40
0.0
 40
0.0
 10
-8.04572338327945
 20
1.260000489368439
 30
0.0
 41
1.0
 10
-8.127917296957516
 20
1.259999377635789
 30
0.0
 41
0.7188689686272367
 10
-8.130699315015447
 20
1.343573495961616
 30
0.0
 41
1.0
  0
LINE
  5
117
330
1F
100
AcDbEntity
  8
Default
100
AcDbLine
 10
-8.130699315015447
 20
1.343573495961616
 30
0.0
 11
-8.130723497231317
 21
2.719999999999945
 31
0.0
  0
SPLINE
  5
118
330
1F
100
AcDbEntity
  8
Default
100
AcDbSpline
210
0.0
220
0.0
230
1.0
 70
    12
 71
     2
 72
     8
 73
     5
 74
     0
 42
0.0000000001
 43
0.0000000001
 40
-0.0628318931243996
 40
-0.0628318931243996
 40
-0.0628318931243996
 40
-0.0314159465621985
 40
-0.0314159465621985
 40
0.0
 40
0.0
 40
0.0
 10
-8.130723497231317
 20
2.719999999999945
 30
0.0
 41
1.0
 10
-8.130723383299998
 20
2.736568554226062
 30
0.0
 41
0.923879436714611
 10
-8.119007640386725
 20
2.748284285408195
 30
0.0
 41
1.0
 10
-8.107291897473448
 20
2.760000016590326
 30
0.0
 41
0.9238794367145934
 10
-8.090723343247399
 20
2.759999999999986
 30
0.0
 41
1.0
  0
POLYLINE
  5
119
330
1F
100
AcDbEntity
  8
Default
100
AcDb2dPolyline
 66
     1
 10
0.0
 20
0.0
 30
0.0
  0
VERTEX
  5
11A
330
119
100
AcDbEntity
  8
Default
100
AcDbVertex
100
AcDb2dVertex
 10
-8.090723343247399
 20
2.759999999999986
 30
0.0
  0
VERTEX
  5
11B
330
119
100
AcDbEntity
  8
Default
100
AcDbVertex
100
AcDb2dVertex
 10
-7.3827234246387
 20
2.759999999999986
 30
0.0
  0
SEQEND
  5
11C
330
119
100
AcDbEntity
  8
Default
  0
SPLINE
  5
11D
330
1F
100
AcDbEntity
  8
Default
100
AcDbSpline
210
0.0
220
0.0
230
1.0
 70
    12
 71
     2
 72
     8
 73
     5
 74
     0
 42
0.0000000001
 43
0.0000000001
 40
0.0
 40
0.0
 40
0.0
 40
0.0314159465621985
 40
0.0314159465621985
 40
0.0628318931243996
 40
0.0628318931243996
 40
0.0628318931243996
 10
-7.3827234246387
 20
2.759999999999986
 30
0.0
 41
1.0
 10
-7.366154870412649
 20
2.760000016590326
 30
0.0
 41
0.9238794367145934
 10
-7.354439127499374
 20
2.748284285408195
 30
0.0
 41
1.0
 10
-7.342723384586099
 20
2.736568554226062
 30
0.0
 41
0.923879436714611
 10
-7.342723270654782
 20
2.719999999999945
 30
0.0
 41
1.0
  0
LINE
  5
11E
330
1F
100
AcDbEntity
  8
Default
100
AcDbLine
 10
-7.342723270654782
 20
2.719999999999945
 30
0.0
 11
-7.342747452870652
 21
1.343573495961616
 31
0.0
  0
SPLINE
  5
11F
330
1F
100
AcDbEntity
  8
Make2D visible lines
100
AcDbSpline
210
0.0
220
0.0
230
1.0
 70
    24
 71
     2
 72
     6
 73
     3
 74
     0
 42
0.0000000001
 43
0.0000000001
 40
-2.415105423527796
 40
-2.415105423527796
 40
-2.415105423527796
 40
0.0
 40
0.0
 40
0.0
 10
-8.199723383299999
 20
2.487552711763898
 30
0.0
 10
-8.199723383299999
 20
1.278776359863449
 30
0.0
 10
-8.199723383299999
 20
0.0700000079629994
 30
0.0
  0
SPLINE
  5
120
330
1F
100
AcDbEntity
  8
Make2D visible lines
100
AcDbSpline
210
0.0
220
0.0
230
1.0
 70
    12
 71
     2
 72
     8
 73
     5
 74
     0
 42
0.0000000001
 43
0.0000000001
 40
-0.1099557508386429
 40
-0.1099557508386429
 40
-0.1099557508386429
 40
-0.0549778754193212
 40
-0.0549778754193212
 40
0.0
 40
0.0
 40
0.0
 10
-8.199723383299999
 20
0.0700000079629994
 30
0.0
 41
1.0
 10
-8.199723380001615
 20
0.0410050562645741
 30
0.0
 41
0.9238795216280429
 10
-8.220225905801593
 20
0.0205025281322868
 30
0.0
 41
1.0
 10
-8.240728431601573
 20
0.0
 30
0.0
 41
0.923879521628049
 10
-8.269723383299997
 20
0.0
 30
0.0
 41
1.0
  0
SPLINE
  5
121
330
1F
100
AcDbEntity
  8
Make2D visible lines
100
AcDbSpline
210
0.0
220
0.0
230
1.0
 70
    24
 71
     2
 72
     6
 73
     3
 74
     0
 42
0.0000000001
 43
0.0000000001
 40
0.0
 40
0.0
 40
0.0
 40
0.3520000000000003
 40
0.3520000000000003
 40
0.3520000000000003
 10
-8.269723383299997
 20
0.0
 30
0.0
 10
-8.445723383299995
 20
0.0
 30
0.0
 10
-8.621723383299996
 20
0.0
 30
0.0
  0
SPLINE
  5
122
330
1F
100
AcDbEntity
  8
Make2D visible lines
100
AcDbSpline
210
0.0
220
0.0
230
1.0
 70
    12
 71
     2
 72
     6
 73
     3
 74
     0
 42
0.0000000001
 43
0.0000000001
 40
0.0
 40
0.0
 40
0.0
 40
0.2356194483882336
 40
0.2356194483882336
 40
0.2356194483882336
 10
-8.621723383299996
 20
0.0
 30
0.0
 41
1.0
 10
-8.771723382668993
 20
0.0
 30
0.0
 41
0.7071067826738353
 10
-8.771723383299998
 20
0.1499999993689993
 30
0.0
 41
1.0
  0
SPLINE
  5
123
330
1F
100
AcDbEntity
  8
Make2D visible lines
100
AcDbSpline
210
0.0
220
0.0
230
1.0
 70
    24
 71
     2
 72
     6
 73
     3
 74
     0
 42
0.0000000001
 43
0.0000000001
 40
-2.260000001262
 40
-2.260000001262
 40
-2.260000001262
 40
0.0
 40
0.0
 40
0.0
 10
-8.771723383299998
 20
0.1499999993689993
 30
0.0
 10
-8.771723383299998
 20
1.279999999999999
 30
0.0
 10
-8.771723383299998
 20
2.410000000630999
 30
0.0
  0
SPLINE
  5
124
330
1F
100
AcDbEntity
  8
Make2D visible lines
100
AcDbSpline
210
0.0
220
0.0
230
1.0
 70
    12
 71
     2
 72
     6
 73
     3
 74
     0
 42
0.0000000001
 43
0.0000000001
 40
0.0
 40
0.0
 40
0.0
 40
0.2356194483882358
 40
0.2356194483882358
 40
0.2356194483882358
 10
-8.771723383299998
 20
2.410000000630999
 30
0.0
 41
1.0
 10
-8.771723382668998
 20
2.560000000000001
 30
0.0
 41
0.7071067826738272
 10
-8.621723383299996
 20
2.56
 30
0.0
 41
1.0
  0
SPLINE
  5
125
330
1F
100
AcDbEntity
  8
Make2D visible lines
100
AcDbSpline
210
0.0
220
0.0
230
1.0
 70
    24
 71
     2
 72
     6
 73
     3
 74
     0
 42
0.0000000001
 43
0.0000000001
 40
0.0
 40
0.0
 40
0.0
 40
0.3520000000000003
 40
0.3520000000000003
 40
0.3520000000000003
 10
-8.621723383299996
 20
2.56
 30
0.0
 10
-8.445723383299995
 20
2.56
 30
0.0
 10
-8.269723383299997
 20
2.56
 30
0.0
  0
SPLINE
  5
126
330
1F
100
AcDbEntity
  8
Make2D visible lines
100
AcDbSpline
210
0.0
220
0.0
230
1.0
 70
    12
 71
     2
 72
     8
 73
     5
 74
     0
 42
0.0000000001
 43
0.0000000001
 40
-0.1099557508386414
 40
-0.1099557508386414
 40
-0.1099557508386414
 40
-0.0549778754193184
 40
-0.0549778754193184
 40
0.0
 40
0.0
 40
0.0
 10
-8.269723383299997
 20
2.56
 30
0.0
 41
1.0
 10
-8.240728431601571
 20
2.56
 30
0.0
 41
0.9238795216280236
 10
-8.220225905801595
 20
2.53949747186771
 30
0.0
 41
1.0
 10
-8.199723380001616
 20
2.518994943735425
 30
0.0
 41
0.9238795216280324
 10
-8.199723383299999
 20
2.487552711763898
 30
0.0
 41
1.0
  0
SPLINE
  5
127
330
1F
100
AcDbEntity
  8
Make2D visible lines
100
AcDbSpline
210
0.0
220
0.0
230
1.0
 70
    24
 71
     2
 72
     6
 73
     3
 74
     0
 42
0.0000000001
 43
0.0000000001
 40
-2.415105433753071
 40
-2.415105433753071
 40
-2.415105433753071
 40
0.0
 40
0.0
 40
0.0
 10
-7.273723383299997
 20
2.487552716876536
 30
0.0
 10
-7.273723383299997
 20
1.278776359858268
 30
0.0
 10
-7.273723383299997
 20
0.0700000028400005
 30
0.0
  0
SPLINE
  5
128
330
1F
100
AcDbEntity
  8
Make2D visible lines
100
AcDbSpline
210
0.0
220
0.0
230
1.0
 70
    12
 71
     2
 72
     6
 73
     3
 74
     0
 42
0.0000000001
 43
0.0000000001
 40
0.0
 40
0.0
 40
0.0
 40
0.1099557457156439
 40
0.1099557457156439
 40
0.1099557457156439
 10
-7.273723383299997
 20
0.0700000028400005
 30
0.0
 41
1.0
 10
-7.273723386139999
 20
0.0
 30
0.0
 41
0.7071067668423728
 10
-7.203723383299996
 20
-0.0000000000000001
 30
0.0
 41
1.0
  0
SPLINE
  5
129
330
1F
100
AcDbEntity
  8
Make2D visible lines
100
AcDbSpline
210
0.0
220
0.0
230
1.0
 70
    24
 71
     2
 72
     6
 73
     3
 74
     0
 42
0.0000000001
 43
0.0000000001
 40
0.0
 40
0.0
 40
0.0
 40
0.3520000000000003
 40
0.3520000000000003
 40
0.3520000000000003
 10
-7.203723383299996
 20
-0.0000000000000001
 30
0.0
 10
-7.027723383299996
 20
0.0
 30
0.0
 10
-6.851723383299996
 20
0.0
 30
0.0
  0
SPLINE
  5
12A
330
1F
100
AcDbEntity
  8
Make2D visible lines
100
AcDbSpline
210
0.0
220
0.0
230
1.0
 70
    12
 71
     2
 72
     6
 73
     3
 74
     0
 42
0.0000000001
 43
0.0000000001
 40
0.0
 40
0.0
 40
0.0
 40
0.2356194519512337
 40
0.2356194519512337
 40
0.2356194519512337
 10
-6.851723383299996
 20
0.0
 30
0.0
 41
1.0
 10
-6.701723380367998
 20
0.000000000000002
 30
0.0
 41
0.7071067742757676
 10
-6.701723383299997
 20
0.1500000029319999
 30
0.0
 41
1.0
  0
SPLINE
  5
12B
330
1F
100
AcDbEntity
  8
Make2D visible lines
100
AcDbSpline
210
0.0
220
0.0
230
1.0
 70
    24
 71
     2
 72
     6
 73
     3
 74
     0
 42
0.0000000001
 43
0.0000000001
 40
0.0
 40
0.0
 40
0.0
 40
2.255429040880414
 40
2.255429040880414
 40
2.255429040880414
 10
-6.701723383299997
 20
0.1500000029319999
 30
0.0
 10
-6.701723383299997
 20
1.278857261686103
 30
0.0
 10
-6.701723383299997
 20
2.407714520440207
 30
0.0
  0
SPLINE
  5
12C
330
1F
100
AcDbEntity
  8
Make2D visible lines
100
AcDbSpline
210
0.0
220
0.0
230
1.0
 70
    12
 71
     2
 72
     6
 73
     3
 74
     0
 42
0.0000000001
 43
0.0000000001
 40
0.0
 40
0.0
 40
0.0
 40
0.2356194519512344
 40
0.2356194519512344
 40
0.2356194519512344
 10
-6.701723383299997
 20
2.407714520440207
 30
0.0
 41
1.0
 10
-6.701723380367997
 20
2.56
 30
0.0
 41
0.7071067742757604
 10
-6.851723383299996
 20
2.56
 30
0.0
 41
1.0
  0
SPLINE
  5
12D
330
1F
100
AcDbEntity
  8
Make2D visible lines
100
AcDbSpline
210
0.0
220
0.0
230
1.0
 70
    24
 71
     2
 72
     6
 73
     3
 74
     0
 42
0.0000000001
 43
0.0000000001
 40
0.0
 40
0.0
 40
0.0
 40
0.3520000000000003
 40
0.3520000000000003
 40
0.3520000000000003
 10
-6.851723383299996
 20
2.56
 30
0.0
 10
-7.027723383299996
 20
2.56
 30
0.0
 10
-7.203723383299996
 20
2.56
 30
0.0
  0
SPLINE
  5
12E
330
1F
100
AcDbEntity
  8
Make2D visible lines
100
AcDbSpline
210
0.0
220
0.0
230
1.0
 70
    12
 71
     2
 72
     6
 73
     3
 74
     0
 42
0.0000000001
 43
0.0000000001
 40
0.0
 40
0.0
 40
0.0
 40
0.1099557457156434
 40
0.1099557457156434
 40
0.1099557457156434
 10
-7.203723383299996
 20
2.56
 30
0.0
 41
1.0
 10
-7.273723386139998
 20
2.56
 30
0.0
 41
0.7071067668423767
 10
-7.273723383299997
 20
2.487552716876536
 30
0.0
 41
1.0
  0
SPLINE
  5
12F
330
1F
100
AcDbEntity
  8
Make2D visible lines
100
AcDbSpline
210
0.0
220
0.0
230
1.0
 70
    24
 71
     2
 72
     6
 73
     3
 74
     0
 42
0.0000000001
 43
0.0000000001
 40
0.0
 40
0.0
 40
0.0
 40
0.0689999999999991
 40
0.0689999999999991
 40
0.0689999999999991
 10
-7.342723383299996
 20
1.595000000000001
 30
0.0
 10
-7.308223383299996
 20
1.595000000000001
 30
0.0
 10
-7.273723383299997
 20
1.595000000000001
 30
0.0
  0
SPLINE
  5
130
330
1F
100
AcDbEntity
  8
Make2D visible lines
100
AcDbSpline
210
0.0
220
0.0
230
1.0
 70
    24
 71
     2
 72
     6
 73
     3
 74
     0
 42
0.0000000001
 43
0.0000000001
 40
0.0
 40
0.0
 40
0.0
 40
0.9260000000000002
 40
0.9260000000000002
 40
0.9260000000000002
 10
-7.273723383299997
 20
0.9650000000000016
 30
0.0
 10
-7.736723383299998
 20
0.9650000000000016
 30
0.0
 10
-8.199723383299999
 20
0.9650000000000016
 30
0.0
  0
SPLINE
  5
131
330
1F
100
AcDbEntity
  8
Make2D visible lines
100
AcDbSpline
210
0.0
220
0.0
230
1.0
 70
    24
 71
     2
 72
     6
 73
     3
 74
     0
 42
0.0000000001
 43
0.0000000001
 40
0.0
 40
0.0
 40
0.0
 40
0.0690000000000008
 40
0.0690000000000008
 40
0.0690000000000008
 10
-8.199723383299999
 20
1.595000000000001
 30
0.0
 10
-8.165223383299997
 20
1.595000000000001
 30
0.0
 10
-8.130723383299996
 20
1.595000000000001
 30
0.0
  0
SPLINE
  5
132
330
1F
100
AcDbEntity
  8
Make2D visible lines
100
AcDbSpline
210
0.0
220
0.0
230
1.0
 70
     8
 71
     3
 72
    12
 73
     8
 74
     0
 42
0.0000000001
 43
0.0000000001
 40
0.0
 40
0.0
 40
0.0
 40
0.0
 40
0.1463411183411369
 40
0.2853842069860231
 40
0.4774826785392335
 40
0.6695434217140405
 40
0.9551044705190225
 40
0.9551044705190225
 40
0.9551044705190225
 40
0.9551044705190225
 10
-7.3927233833
 20
2.135695657233184
 30
0.0
 10
-7.413281236588784
 20
2.092235288994199
 30
0.0
 10
-7.468515601759259
 20
2.011139443753334
 30
0.0
 10
-7.567462974376896
 20
1.892867635552798
 30
0.0
 10
-7.737845440740765
 20
1.800191929265525
 30
0.0
 10
-7.949823775274854
 20
1.918743261260477
 30
0.0
 10
-8.034011522679057
 20
2.051490853594749
 30
0.0
 10
-8.080723383299995
 20
2.135695657233184
 30
0.0
  0
SPLINE
  5
133
330
1F
100
AcDbEntity
  8
Make2D visible lines
100
AcDbSpline
210
0.0
220
0.0
230
1.0
 70
    12
 71
     2
 72
     6
 73
     3
 74
     0
 42
0.0000000001
 43
0.0000000001
 40
0.0
 40
0.0
 40
0.0
 40
0.1228476419690088
 40
0.1228476419690088
 40
0.1228476419690088
 10
-7.3927233833
 20
2.135695657233184
 30
0.0
 41
1.0
 10
-7.35740756176717
 20
2.186799143881471
 30
0.0
 41
0.9832969456840381
 10
-7.342723387830643
 20
2.247157644806792
 30
0.0
 41
1.0
  0
SPLINE
  5
134
330
1F
100
AcDbEntity
  8
Make2D visible lines
100
AcDbSpline
210
0.0
220
0.0
230
1.0
 70
    12
 71
     2
 72
     6
 73
     3
 74
     0
 42
0.0000000001
 43
0.0000000001
 40
0.0
 40
0.0
 40
0.0
 40
0.1227840813427634
 40
0.1227840813427634
 40
0.1227840813427634
 10
-8.080723383299995
 20
2.135695657233184
 30
0.0
 41
1.0
 10
-8.115540250748406
 20
2.187022966392655
 30
0.0
 41
0.9848379823800321
 10
-8.130723378769352
 20
2.247157644806793
 30
0.0
 41
1.0
  0
SPLINE
  5
135
330
1F
100
AcDbEntity
  8
Make2D visible lines
100
AcDbSpline
210
0.0
220
0.0
230
1.0
 70
    12
 71
     2
 72
     6
 73
     3
 74
     0
 42
0.0000000001
 43
0.0000000001
 40
0.0
 40
0.0
 40
0.0
 40
0.1227840813427634
 40
0.1227840813427634
 40
0.1227840813427634
 10
-12.86228139573
 20
2.135695657233184
 30
0.0
 41
1.0
 10
-12.89709826317841
 20
2.187022966392655
 30
0.0
 41
0.9848379823800321
 10
-12.91228139119935
 20
2.247157644806793
 30
0.0
 41
1.0
  0
SPLINE
  5
136
330
1F
100
AcDbEntity
  8
Make2D visible lines
100
AcDbSpline
210
0.0
220
0.0
230
1.0
 70
    12
 71
     2
 72
     6
 73
     3
 74
     0
 42
0.0000000001
 43
0.0000000001
 40
0.0
 40
0.0
 40
0.0
 40
0.1228476419690088
 40
0.1228476419690088
 40
0.1228476419690088
 10
-12.17428139573
 20
2.135695657233184
 30
0.0
 41
1.0
 10
-12.13896557419717
 20
2.186799143881471
 30
0.0
 41
0.9832969456840381
 10
-12.12428140026065
 20
2.247157644806792
 30
0.0
 41
1.0
  0
SPLINE
  5
137
330
1F
100
AcDbEntity
  8
Make2D visible lines
100
AcDbSpline
210
0.0
220
0.0
230
1.0
 70
     8
 71
     3
 72
    12
 73
     8
 74
     0
 42
0.0000000001
 43
0.0000000001
 40
0.0
 40
0.0
 40
0.0
 40
0.0
 40
0.1463411183411369
 40
0.2853842069860231
 40
0.4774826785392335
 40
0.6695434217140405
 40
0.9551044705190225
 40
0.9551044705190225
 40
0.9551044705190225
 40
0.9551044705190225
 10
-12.17428139573
 20
2.135695657233184
 30
0.0
 10
-12.19483924901879
 20
2.092235288994199
 30
0.0
 10
-12.25007361418926
 20
2.011139443753334
 30
0.0
 10
-12.3490209868069
 20
1.892867635552798
 30
0.0
 10
-12.51940345317077
 20
1.800191929265525
 30
0.0
 10
-12.73138178770486
 20
1.918743261260477
 30
0.0
 10
-12.81556953510906
 20
2.051490853594749
 30
0.0
 10
-12.86228139573
 20
2.135695657233184
 30
0.0
  0
SPLINE
  5
138
330
1F
100
AcDbEntity
  8
Make2D visible lines
100
AcDbSpline
210
0.0
220
0.0
230
1.0
 70
    24
 71
     2
 72
     6
 73
     3
 74
     0
 42
0.0000000001
 43
0.0000000001
 40
0.0
 40
0.0
 40
0.0
 40
0.0690000000000008
 40
0.0690000000000008
 40
0.0690000000000008
 10
-12.98128139573
 20
1.595000000000001
 30
0.0
 10
-12.94678139573
 20
1.595000000000001
 30
0.0
 10
-12.91228139573
 20
1.595000000000001
 30
0.0
  0
SPLINE
  5
139
330
1F
100
AcDbEntity
  8
Make2D visible lines
100
AcDbSpline
210
0.0
220
0.0
230
1.0
 70
    24
 71
     2
 72
     6
 73
     3
 74
     0
 42
0.0000000001
 43
0.0000000001
 40
0.0
 40
0.0
 40
0.0
 40
0.9260000000000002
 40
0.9260000000000002
 40
0.9260000000000002
 10
-12.05528139573
 20
0.9650000000000016
 30
0.0
 10
-12.51828139573
 20
0.9650000000000016
 30
0.0
 10
-12.98128139573
 20
0.9650000000000016
 30
0.0
  0
SPLINE
  5
13A
330
1F
100
AcDbEntity
  8
Make2D visible lines
100
AcDbSpline
210
0.0
220
0.0
230
1.0
 70
    24
 71
     2
 72
     6
 73
     3
 74
     0
 42
0.0000000001
 43
0.0000000001
 40
0.0
 40
0.0
 40
0.0
 40
0.0689999999999991
 40
0.0689999999999991
 40
0.0689999999999991
 10
-12.12428139573
 20
1.595000000000001
 30
0.0
 10
-12.08978139573
 20
1.595000000000001
 30
0.0
 10
-12.05528139573
 20
1.595000000000001
 30
0.0
  0
SPLINE
  5
13B
330
1F
100
AcDbEntity
  8
Make2D visible lines
100
AcDbSpline
210
0.0
220
0.0
230
1.0
 70
    24
 71
     2
 72
     6
 73
     3
 74
     0
 42
0.0000000001
 43
0.0000000001
 40
-2.415105433753071
 40
-2.415105433753071
 40
-2.415105433753071
 40
0.0
 40
0.0
 40
0.0
 10
-12.05528139573
 20
2.487552716876536
 30
0.0
 10
-12.05528139573
 20
1.278776359858268
 30
0.0
 10
-12.05528139573
 20
0.0700000028400005
 30
0.0
  0
SPLINE
  5
13C
330
1F
100
AcDbEntity
  8
Make2D visible lines
100
AcDbSpline
210
0.0
220
0.0
230
1.0
 70
    12
 71
     2
 72
     6
 73
     3
 74
     0
 42
0.0000000001
 43
0.0000000001
 40
0.0
 40
0.0
 40
0.0
 40
0.1099557457156439
 40
0.1099557457156439
 40
0.1099557457156439
 10
-12.05528139573
 20
0.0700000028400005
 30
0.0
 41
1.0
 10
-12.05528139857
 20
0.0
 30
0.0
 41
0.7071067668423728
 10
-11.98528139573
 20
-0.0000000000000001
 30
0.0
 41
1.0
  0
SPLINE
  5
13D
330
1F
100
AcDbEntity
  8
Make2D visible lines
100
AcDbSpline
210
0.0
220
0.0
230
1.0
 70
    24
 71
     2
 72
     6
 73
     3
 74
     0
 42
0.0000000001
 43
0.0000000001
 40
0.0
 40
0.0
 40
0.0
 40
0.3520000000000003
 40
0.3520000000000003
 40
0.3520000000000003
 10
-11.98528139573
 20
-0.0000000000000001
 30
0.0
 10
-11.80928139573
 20
0.0
 30
0.0
 10
-11.63328139573
 20
0.0
 30
0.0
  0
SPLINE
  5
13E
330
1F
100
AcDbEntity
  8
Make2D visible lines
100
AcDbSpline
210
0.0
220
0.0
230
1.0
 70
    12
 71
     2
 72
     6
 73
     3
 74
     0
 42
0.0000000001
 43
0.0000000001
 40
0.0
 40
0.0
 40
0.0
 40
0.2356194519512337
 40
0.2356194519512337
 40
0.2356194519512337
 10
-11.63328139573
 20
0.0
 30
0.0
 41
1.0
 10
-11.483281392798
 20
0.000000000000002
 30
0.0
 41
0.7071067742757676
 10
-11.48328139573
 20
0.1500000029319999
 30
0.0
 41
1.0
  0
SPLINE
  5
13F
330
1F
100
AcDbEntity
  8
Make2D visible lines
100
AcDbSpline
210
0.0
220
0.0
230
1.0
 70
    24
 71
     2
 72
     6
 73
     3
 74
     0
 42
0.0000000001
 43
0.0000000001
 40
0.0
 40
0.0
 40
0.0
 40
2.255429040880414
 40
2.255429040880414
 40
2.255429040880414
 10
-11.48328139573
 20
0.1500000029319999
 30
0.0
 10
-11.48328139573
 20
1.278857261686103
 30
0.0
 10
-11.48328139573
 20
2.407714520440207
 30
0.0
  0
SPLINE
  5
140
330
1F
100
AcDbEntity
  8
Make2D visible lines
100
AcDbSpline
210
0.0
220
0.0
230
1.0
 70
    12
 71
     2
 72
     6
 73
     3
 74
     0
 42
0.0000000001
 43
0.0000000001
 40
0.0
 40
0.0
 40
0.0
 40
0.2356194519512344
 40
0.2356194519512344
 40
0.2356194519512344
 10
-11.48328139573
 20
2.407714520440207
 30
0.0
 41
1.0
 10
-11.483281392798
 20
2.56
 30
0.0
 41
0.7071067742757604
 10
-11.63328139573
 20
2.56
 30
0.0
 41
1.0
  0
SPLINE
  5
141
330
1F
100
AcDbEntity
  8
Make2D visible lines
100
AcDbSpline
210
0.0
220
0.0
230
1.0
 70
    24
 71
     2
 72
     6
 73
     3
 74
     0
 42
0.0000000001
 43
0.0000000001
 40
0.0
 40
0.0
 40
0.0
 40
0.3520000000000003
 40
0.3520000000000003
 40
0.3520000000000003
 10
-11.63328139573
 20
2.56
 30
0.0
 10
-11.80928139573
 20
2.56
 30
0.0
 10
-11.98528139573
 20
2.56
 30
0.0
  0
SPLINE
  5
142
330
1F
100
AcDbEntity
  8
Make2D visible lines
100
AcDbSpline
210
0.0
220
0.0
230
1.0
 70
    12
 71
     2
 72
     6
 73
     3
 74
     0
 42
0.0000000001
 43
0.0000000001
 40
0.0
 40
0.0
 40
0.0
 40
0.1099557457156434
 40
0.1099557457156434
 40
0.1099557457156434
 10
-11.98528139573
 20
2.56
 30
0.0
 41
1.0
 10
-12.05528139857
 20
2.56
 30
0.0
 41
0.7071067668423767
 10
-12.05528139573
 20
2.487552716876536
 30
0.0
 41
1.0
  0
SPLINE
  5
143
330
1F
100
AcDbEntity
  8
Make2D visible lines
100
AcDbSpline
210
0.0
220
0.0
230
1.0
 70
    24
 71
     2
 72
     6
 73
     3
 74
     0
 42
0.0000000001
 43
0.0000000001
 40
-2.415105423527796
 40
-2.415105423527796
 40
-2.415105423527796
 40
0.0
 40
0.0
 40
0.0
 10
-12.98128139573
 20
2.487552711763898
 30
0.0
 10
-12.98128139573
 20
1.278776359863449
 30
0.0
 10
-12.98128139573
 20
0.0700000079629994
 30
0.0
  0
SPLINE
  5
144
330
1F
100
AcDbEntity
  8
Make2D visible lines
100
AcDbSpline
210
0.0
220
0.0
230
1.0
 70
    12
 71
     2
 72
     8
 73
     5
 74
     0
 42
0.0000000001
 43
0.0000000001
 40
-0.1099557508386429
 40
-0.1099557508386429
 40
-0.1099557508386429
 40
-0.0549778754193212
 40
-0.0549778754193212
 40
0.0
 40
0.0
 40
0.0
 10
-12.98128139573
 20
0.0700000079629994
 30
0.0
 41
1.0
 10
-12.98128139243162
 20
0.0410050562645741
 30
0.0
 41
0.9238795216280429
 10
-13.0017839182316
 20
0.0205025281322868
 30
0.0
 41
1.0
 10
-13.02228644403157
 20
0.0
 30
0.0
 41
0.923879521628049
 10
-13.05128139573
 20
0.0
 30
0.0
 41
1.0
  0
SPLINE
  5
145
330
1F
100
AcDbEntity
  8
Make2D visible lines
100
AcDbSpline
210
0.0
220
0.0
230
1.0
 70
    24
 71
     2
 72
     6
 73
     3
 74
     0
 42
0.0000000001
 43
0.0000000001
 40
0.0
 40
0.0
 40
0.0
 40
0.3520000000000003
 40
0.3520000000000003
 40
0.3520000000000003
 10
-13.05128139573
 20
0.0
 30
0.0
 10
-13.22728139573
 20
0.0
 30
0.0
 10
-13.40328139573
 20
0.0
 30
0.0
  0
SPLINE
  5
146
330
1F
100
AcDbEntity
  8
Make2D visible lines
100
AcDbSpline
210
0.0
220
0.0
230
1.0
 70
    12
 71
     2
 72
     6
 73
     3
 74
     0
 42
0.0000000001
 43
0.0000000001
 40
0.0
 40
0.0
 40
0.0
 40
0.2356194483882336
 40
0.2356194483882336
 40
0.2356194483882336
 10
-13.40328139573
 20
0.0
 30
0.0
 41
1.0
 10
-13.553281395099
 20
0.0
 30
0.0
 41
0.7071067826738353
 10
-13.55328139573
 20
0.1499999993689993
 30
0.0
 41
1.0
  0
SPLINE
  5
147
330
1F
100
AcDbEntity
  8
Make2D visible lines
100
AcDbSpline
210
0.0
220
0.0
230
1.0
 70
    24
 71
     2
 72
     6
 73
     3
 74
     0
 42
0.0000000001
 43
0.0000000001
 40
-2.260000001262
 40
-2.260000001262
 40
-2.260000001262
 40
0.0
 40
0.0
 40
0.0
 10
-13.55328139573
 20
0.1499999993689993
 30
0.0
 10
-13.55328139573
 20
1.279999999999999
 30
0.0
 10
-13.55328139573
 20
2.410000000630999
 30
0.0
  0
SPLINE
  5
148
330
1F
100
AcDbEntity
  8
Make2D visible lines
100
AcDbSpline
210
0.0
220
0.0
230
1.0
 70
    12
 71
     2
 72
     6
 73
     3
 74
     0
 42
0.0000000001
 43
0.0000000001
 40
0.0
 40
0.0
 40
0.0
 40
0.2356194483882358
 40
0.2356194483882358
 40
0.2356194483882358
 10
-13.55328139573
 20
2.410000000630999
 30
0.0
 41
1.0
 10
-13.553281395099
 20
2.560000000000001
 30
0.0
 41
0.7071067826738272
 10
-13.40328139573
 20
2.56
 30
0.0
 41
1.0
  0
SPLINE
  5
149
330
1F
100
AcDbEntity
  8
Make2D visible lines
100
AcDbSpline
210
0.0
220
0.0
230
1.0
 70
    24
 71
     2
 72
     6
 73
     3
 74
     0
 42
0.0000000001
 43
0.0000000001
 40
0.0
 40
0.0
 40
0.0
 40
0.3520000000000003
 40
0.3520000000000003
 40
0.3520000000000003
 10
-13.40328139573
 20
2.56
 30
0.0
 10
-13.22728139573
 20
2.56
 30
0.0
 10
-13.05128139573
 20
2.56
 30
0.0
  0
SPLINE
  5
14A
330
1F
100
AcDbEntity
  8
Make2D visible lines
100
AcDbSpline
210
0.0
220
0.0
230
1.0
 70
    12
 71
     2
 72
     8
 73
     5
 74
     0
 42
0.0000000001
 43
0.0000000001
 40
-0.1099557508386414
 40
-0.1099557508386414
 40
-0.1099557508386414
 40
-0.0549778754193184
 40
-0.0549778754193184
 40
0.0
 40
0.0
 40
0.0
 10
-13.05128139573
 20
2.56
 30
0.0
 41
1.0
 10
-13.02228644403157
 20
2.56
 30
0.0
 41
0.9238795216280236
 10
-13.0017839182316
 20
2.53949747186771
 30
0.0
 41
1.0
 10
-12.98128139243162
 20
2.518994943735425
 30
0.0
 41
0.9238795216280324
 10
-12.98128139573
 20
2.487552711763898
 30
0.0
 41
1.0
  0
SPLINE
  5
14B
330
1F
100
AcDbEntity
  8
Default
100
AcDbSpline
210
0.0
220
0.0
230
1.0
 70
    12
 71
     2
 72
     6
 73
     3
 74
     0
 42
0.0000000001
 43
0.0000000001
 40
-0.0205148466803361
 40
-0.0205148466803361
 40
-0.0205148466803361
 40
0.0
 40
0.0
 40
0.0
 10
-12.12739467758714
 20
1.321916756511124
 30
0.0
 41
1.0
 10
-12.12465045721535
 20
1.331850316586209
 30
0.0
 41
0.9929165310438545
 10
-12.12432822671823
 20
1.342150924790038
 30
0.0
 41
0.9999992470307488
  0
SPLINE
  5
14C
330
1F
100
AcDbEntity
  8
Default
100
AcDbSpline
210
0.0
220
0.0
230
1.0
 70
    12
 71
     2
 72
     6
 73
     3
 74
     0
 42
0.0000000001
 43
0.0000000001
 40
-0.1306670865212424
 40
-0.1306670865212424
 40
-0.1306670865212424
 40
0.0
 40
0.0
 40
0.0
 10
-12.12432822671823
 20
1.342150924790038
 30
0.0
 41
1.0
 10
-12.12708470200503
 20
1.259999371951817
 30
0.0
 41
0.7188571908882943
 10
-12.20928139703665
 20
1.260000489392885
 30
0.0
 41
1.0
  0
SPLINE
  5
14D
330
1F
100
AcDbEntity
  8
Default
100
AcDbSpline
210
0.0
220
0.0
230
1.0
 70
    24
 71
     2
 72
     6
 73
     3
 74
     0
 42
0.0000000001
 43
0.0000000001
 40
-0.6179999986728006
 40
-0.6179999986728006
 40
-0.6179999986728006
 40
0.0
 40
0.0
 40
0.0
 10
-12.20928139703665
 20
1.260000489392885
 30
0.0
 10
-12.51828139637305
 20
1.260000489380662
 30
0.0
 10
-12.82728139570945
 20
1.260000489368439
 30
0.0
  0
SPLINE
  5
14E
330
1F
100
AcDbEntity
  8
Default
100
AcDbSpline
210
0.0
220
0.0
230
1.0
 70
    12
 71
     2
 72
     6
 73
     3
 74
     0
 42
0.0000000001
 43
0.0000000001
 40
-0.1306642149348706
 40
-0.1306642149348706
 40
-0.1306642149348706
 40
0.0
 40
0.0
 40
0.0
 10
-12.82728139570945
 20
1.260000489368439
 30
0.0
 41
1.0
 10
-12.90947530938752
 20
1.259999377635789
 30
0.0
 41
0.7188689686272367
 10
-12.91225732744545
 20
1.343573495961616
 30
0.0
 41
1.0
  0
LINE
  5
14F
330
1F
100
AcDbEntity
  8
Default
100
AcDbLine
 10
-12.91225732744545
 20
1.343573495961616
 30
0.0
 11
-12.91228150966132
 21
2.719999999999945
 31
0.0
  0
SPLINE
  5
150
330
1F
100
AcDbEntity
  8
Default
100
AcDbSpline
210
0.0
220
0.0
230
1.0
 70
    12
 71
     2
 72
     8
 73
     5
 74
     0
 42
0.0000000001
 43
0.0000000001
 40
-0.0628318931243996
 40
-0.0628318931243996
 40
-0.0628318931243996
 40
-0.0314159465621985
 40
-0.0314159465621985
 40
0.0
 40
0.0
 40
0.0
 10
-12.91228150966132
 20
2.719999999999945
 30
0.0
 41
1.0
 10
-12.91228139573
 20
2.736568554226062
 30
0.0
 41
0.923879436714611
 10
-12.90056565281673
 20
2.748284285408195
 30
0.0
 41
1.0
 10
-12.88884990990345
 20
2.760000016590326
 30
0.0
 41
0.9238794367145934
 10
-12.8722813556774
 20
2.759999999999986
 30
0.0
 41
1.0
  0
POLYLINE
  5
151
330
1F
100
AcDbEntity
  8
Default
100
AcDb2dPolyline
 66
     1
 10
0.0
 20
0.0
 30
0.0
  0
VERTEX
  5
152
330
151
100
AcDbEntity
  8
Default
100
AcDbVertex
100
AcDb2dVertex
 10
-12.8722813556774
 20
2.759999999999986
 30
0.0
  0
VERTEX
  5
153
330
151
100
AcDbEntity
  8
Default
100
AcDbVertex
100
AcDb2dVertex
 10
-12.1642814370687
 20
2.759999999999986
 30
0.0
  0
SEQEND
  5
154
330
151
100
AcDbEntity
  8
Default
  0
SPLINE
  5
155
330
1F
100
AcDbEntity
  8
Default
100
AcDbSpline
210
0.0
220
0.0
230
1.0
 70
    12
 71
     2
 72
     8
 73
     5
 74
     0
 42
0.0000000001
 43
0.0000000001
 40
0.0
 40
0.0
 40
0.0
 40
0.0314159465621985
 40
0.0314159465621985
 40
0.0628318931243996
 40
0.0628318931243996
 40
0.0628318931243996
 10
-12.1642814370687
 20
2.759999999999986
 30
0.0
 41
1.0
 10
-12.14771288284265
 20
2.760000016590326
 30
0.0
 41
0.9238794367145934
 10
-12.13599713992938
 20
2.748284285408195
 30
0.0
 41
1.0
 10
-12.1242813970161
 20
2.736568554226062
 30
0.0
 41
0.923879436714611
 10
-12.12428128308478
 20
2.719999999999945
 30
0.0
 41
1.0
  0
LINE
  5
156
330
1F
100
AcDbEntity
  8
Default
100
AcDbLine
 10
-12.12428128308478
 20
2.719999999999945
 30
0.0
 11
-12.12430546530065
 21
1.343573495961616
 31
0.0
  0
SPLINE
  5
157
330
1F
100
AcDbEntity
  8
Make2D visible lines
100
AcDbSpline
210
0.0
220
0.0
230
1.0
 70
    24
 71
     2
 72
     6
 73
     3
 74
     0
 42
0.0000000001
 43
0.0000000001
 40
0.0
 40
0.0
 40
0.0
 40
2.58
 40
2.58
 40
2.58
 10
-1.289999999999999
 20
7.319999999999993
 30
0.0
 10
0.0000000000000009
 20
7.319999999999993
 30
0.0
 10
1.290000000000001
 20
7.319999999999993
 30
0.0
  0
SPLINE
  5
158
330
1F
100
AcDbEntity
  8
Make2D visible lines
100
AcDbSpline
210
0.0
220
0.0
230
1.0
 70
    24
 71
     2
 72
     6
 73
     3
 74
     0
 42
0.0000000001
 43
0.0000000001
 40
0.0
 40
0.0
 40
0.0
 40
0.0400060931217512
 40
0.0400060931217512
 40
0.0400060931217512
 10
1.199301797402622
 20
7.319999999999991
 30
0.0
 10
1.199650898701165
 20
7.299999999999994
 30
0.0
 10
1.199999999999708
 20
7.279999999999996
 30
0.0
  0
SPLINE
  5
159
330
1F
100
AcDbEntity
  8
Make2D visible lines
100
AcDbSpline
210
0.0
220
0.0
230
1.0
 70
    24
 71
     2
 72
     6
 73
     3
 74
     0
 42
0.0000000001
 43
0.0000000001
 40
0.0
 40
0.0
 40
0.0
 40
0.0399213772270035
 40
0.0399213772270035
 40
0.0399213772270035
 10
-1.199998521503481
 20
7.280084702992102
 30
0.0
 10
-1.199650159453052
 20
7.300042351496047
 30
0.0
 10
-1.199301797402622
 20
7.319999999999991
 30
0.0
  0
SPLINE
  5
15A
330
1F
100
AcDbEntity
  8
Make2D visible lines
100
AcDbSpline
210
0.0
220
0.0
230
1.0
 70
     8
 71
     3
 72
    10
 73
     6
 74
     0
 42
0.0000000001
 43
0.0000000001
 40
0.0
 40
0.0
 40
0.0
 40
0.0
 40
0.1391330979403417
 40
0.4324509644282648
 40
0.6069566116810106
 40
0.6069566116810106
 40
0.6069566116810106
 40
0.6069566116810106
 10
-0.372341809286814
 20
3.71621560366935
 30
0.0
 10
-0.375778393328865
 20
3.762523541766038
 30
0.0
 10
-0.3995594495262029
 20
3.904844969657872
 30
0.0
 10
-0.4521358506302917
 20
4.10043907930714
 30
0.0
 10
-0.4811972892511474
 20
4.25370276395725
 30
0.0
 10
-0.4919398215763238
 20
4.310860686608981
 30
0.0
  0
SPLINE
  5
15B
330
1F
100
AcDbEntity
  8
Make2D visible lines
100
AcDbSpline
210
0.0
220
0.0
230
1.0
 70
     8
 71
     3
 72
    10
 73
     6
 74
     0
 42
0.0000000001
 43
0.0000000001
 40
0.0
 40
0.0
 40
0.0
 40
0.0
 40
0.1433698128057911
 40
0.4430225636810531
 40
0.6174910235575549
 40
0.6174910235575549
 40
0.6174910235575549
 40
0.6174910235575549
 10
0.3713722818984841
 20
3.706431423623549
 30
0.0
 10
0.3747594189904628
 20
3.754160023142436
 30
0.0
 10
0.3980913625064755
 20
3.900127902315828
 30
0.0
 10
0.4518920455993438
 20
4.09909627514287
 30
0.0
 10
0.4810290329776841
 20
4.254465881479404
 30
0.0
 10
0.4919039992344878
 20
4.311590862398229
 30
0.0
  0
SPLINE
  5
15C
330
1F
100
AcDbEntity
  8
Make2D visible lines
100
AcDbSpline
210
0.0
220
0.0
230
1.0
 70
    12
 71
     2
 72
     8
 73
     5
 74
     0
 42
0.0000000001
 43
0.0000000001
 40
0.0
 40
0.0
 40
0.0
 40
0.0275193652394809
 40
0.0275193652394809
 40
0.0550387304789617
 40
0.0550387304789617
 40
0.0550387304789617
 10
-0.392469098286945
 20
2.795060859175598
 30
0.0
 41
1.0
 10
-0.3924943380273489
 20
2.780545578019801
 30
0.0
 41
0.9237130894356401
 10
-0.3822393962683055
 20
2.770272789031655
 30
0.0
 41
1.0
 10
-0.3719844545092662
 20
2.760000000043509
 30
0.0
 41
0.9237130894356401
 10
-0.3574691514095605
 20
2.759999999999999
 30
0.0
 41
1.0
  0
SPLINE
  5
15D
330
1F
100
AcDbEntity
  8
Make2D visible lines
100
AcDbSpline
210
0.0
220
0.0
230
1.0
 70
    12
 71
     2
 72
     8
 73
     5
 74
     0
 42
0.0000000001
 43
0.0000000001
 40
0.0
 40
0.0
 40
0.0
 40
0.027519365239457
 40
0.027519365239457
 40
0.055038730478914
 40
0.055038730478914
 40
0.055038730478914
 10
0.3924690982870231
 20
2.795060859175598
 30
0.0
 41
1.0
 10
0.3924943380273974
 20
2.780545578019819
 30
0.0
 41
0.9237130894360682
 10
0.3822393962683694
 20
2.770272789031682
 30
0.0
 41
1.0
 10
0.3719844545093454
 20
2.760000000043546
 30
0.0
 41
0.9237130894360682
 10
0.3574691514096564
 20
2.76
 30
0.0
 41
1.0
  0
SPLINE
  5
15E
330
1F
100
AcDbEntity
  8
Make2D visible lines
100
AcDbSpline
210
0.0
220
0.0
230
1.0
 70
    12
 71
     2
 72
     6
 73
     3
 74
     0
 42
0.0000000001
 43
0.0000000001
 40
0.0
 40
0.0
 40
0.0
 40
0.0483212497416666
 40
0.0483212497416666
 40
0.0483212497416666
 10
-7.339092164560495
 20
2.788441279212112
 30
0.0
 41
1.0
 10
-7.344577707264786
 20
2.760100728064051
 30
0.0
 41
0.7724816427213782
 10
-7.373444086878428
 20
2.760000000026418
 30
0.0
 41
1.0
  0
SPLINE
  5
15F
330
1F
100
AcDbEntity
  8
Make2D visible lines
100
AcDbSpline
210
0.0
220
0.0
230
1.0
 70
    12
 71
     2
 72
     8
 73
     5
 74
     0
 42
0.0000000001
 43
0.0000000001
 40
0.0
 40
0.0
 40
0.0
 40
0.0286061523138886
 40
0.0286061523138886
 40
0.0572123046277773
 40
0.0572123046277773
 40
0.0572123046277773
 10
-8.09179832887641
 20
2.760000000000004
 30
0.0
 41
1.0
 10
-8.106948194180319
 20
2.760056392118597
 30
0.0
 41
0.9182200393676768
 10
-8.11730386400521
 20
2.771114497800655
 30
0.0
 41
1.0
 10
-8.127659533830098
 20
2.782172603482712
 30
0.0
 41
0.9182200393676768
 10
-8.12672295131464
 20
2.79729359591011
 30
0.0
 41
1.0
  0
SPLINE
  5
160
330
1F
100
AcDbEntity
  8
Make2D visible lines
100
AcDbSpline
210
0.0
220
0.0
230
1.0
 70
    12
 71
     2
 72
     8
 73
     5
 74
     0
 42
0.0000000001
 43
0.0000000001
 40
0.0
 40
0.0
 40
0.0
 40
0.0281928929716271
 40
0.0281928929716271
 40
0.0563857859432542
 40
0.0563857859432542
 40
0.0563857859432542
 10
-12.87419962211639
 20
2.760000000033125
 30
0.0
 41
1.0
 10
-12.8891051433937
 20
2.760054542525548
 30
0.0
 41
0.9205244397931974
 10
-12.89942123268554
 20
2.770813531379281
 30
0.0
 41
1.0
 10
-12.90973732197737
 20
2.781572520233012
 30
0.0
 41
0.9205244397931974
 10
-12.90916560420659
 20
2.796467172905111
 30
0.0
 41
1.0
  0
SPLINE
  5
161
330
1F
100
AcDbEntity
  8
Make2D visible lines
100
AcDbSpline
210
0.0
220
0.0
230
1.0
 70
    12
 71
     2
 72
     6
 73
     3
 74
     0
 42
0.0000000001
 43
0.0000000001
 40
0.0
 40
0.0
 40
0.0
 40
0.9451955936296548
 40
0.9451955936296548
 40
0.9451955936296548
 10
-0.3924691019662347
 20
2.795061688830217
 30
0.0
 41
1.0
 10
-0.3912492713989337
 20
3.267732525302891
 30
0.0
 41
0.9997632344084707
 10
-0.3694653196555304
 20
3.739902692811206
 30
0.0
 41
1.0
  0
SPLINE
  5
162
330
1F
100
AcDbEntity
  8
Make2D visible lines
100
AcDbSpline
210
0.0
220
0.0
230
1.0
 70
    12
 71
     2
 72
     6
 73
     3
 74
     0
 42
0.0000000001
 43
0.0000000001
 40
0.0
 40
0.0
 40
0.0
 40
0.9451941989567216
 40
0.9451941989567216
 40
0.9451941989567216
 10
0.3694653799216745
 20
3.739901312996954
 30
0.0
 41
1.0
 10
0.3912483426810571
 20
3.267731811760904
 30
0.0
 41
0.9997632778586072
 10
0.3924691019662365
 20
2.79506168883071
 30
0.0
 41
1.0
  0
SPLINE
  5
163
330
1F
100
AcDbEntity
  8
Make2D visible lines
100
AcDbSpline
210
0.0
220
0.0
230
1.0
 70
    24
 71
     2
 72
     6
 73
     3
 74
     0
 42
0.0000000001
 43
0.0000000001
 40
0.0
 40
0.0
 40
0.0
 40
2.580000000000013
 40
2.580000000000013
 40
2.580000000000013
 10
43.82422704339012
 20
7.319999999999992
 30
0.0
 10
42.53422704339012
 20
7.319999999999993
 30
0.0
 10
41.24422704339011
 20
7.319999999999993
 30
0.0
  0
SPLINE
  5
164
330
1F
100
AcDbEntity
  8
Make2D visible lines - Tangent
100
AcDbSpline
210
0.0
220
0.0
230
1.0
 70
     8
 71
     3
 72
    11
 73
     7
 74
     0
 42
0.0000000001
 43
0.0000000001
 40
0.0
 40
0.0
 40
0.0
 40
0.0
 40
0.1251400008539807
 40
0.249997976020166
 40
0.4891881354632792
 40
0.9100604574811362
 40
0.9100604574811362
 40
0.9100604574811362
 40
0.9100604574811362
 10
41.48458249113612
 20
6.854219928193997
 30
0.0
 10
41.48380982890389
 20
6.812537349420499
 30
0.0
 10
41.47779267886848
 20
6.729205092758733
 30
0.0
 10
41.44225416075601
 20
6.569608694327405
 30
0.0
 10
41.33489031283297
 20
6.32836481042481
 30
0.0
 10
41.15099887299256
 20
6.183549263645575
 30
0.0
 10
41.01165705997607
 20
6.155372616098385
 30
0.0
  0
SPLINE
  5
165
330
1F
100
AcDbEntity
  8
Make2D visible lines
100
AcDbSpline
210
0.0
220
0.0
230
1.0
 70
    12
 71
     2
 72
     8
 73
     5
 74
     0
 42
0.0000000001
 43
0.0000000001
 40
0.0
 40
0.0
 40
0.0
 40
2.010619298297465
 40
2.010619298297465
 40
4.021238596594936
 40
4.021238596594936
 40
4.021238596594936
 10
31.12569711447011
 20
0.0
 30
0.0
 41
1.0
 10
32.40569711447013
 20
0.0
 30
0.0
 41
0.7071067811865468
 10
32.40569711447012
 20
1.279999999999999
 30
0.0
 41
1.0
 10
32.40569711447012
 20
2.560000000000002
 30
0.0
 41
0.7071067811865471
 10
31.12569711447011
 20
2.560000000000002
 30
0.0
 41
1.0
  0
SPLINE
  5
166
330
1F
100
AcDbEntity
  8
Make2D visible lines - Tangent
100
AcDbSpline
210
0.0
220
0.0
230
1.0
 70
    12
 71
     2
 72
     8
 73
     5
 74
     0
 42
0.0000000001
 43
0.0000000001
 40
0.0
 40
0.0
 40
0.0
 40
1.520766455445226
 40
1.520766455445226
 40
3.041532910890458
 40
3.041532910890458
 40
3.041532910890458
 10
31.12569711447011
 20
2.248149994689799
 30
0.0
 41
1.0
 10
32.09384710915992
 20
2.248149994689784
 30
0.0
 41
0.7071067811865557
 10
32.09384710915991
 20
1.279999999999999
 30
0.0
 41
1.0
 10
32.0938471091599
 20
0.3118500053102179
 30
0.0
 41
0.7071067811865631
 10
31.12569711447011
 20
0.3118500053101894
 30
0.0
 41
1.0
  0
SPLINE
  5
167
330
1F
100
AcDbEntity
  8
Make2D visible lines - Tangent
100
AcDbSpline
210
0.0
220
0.0
230
1.0
 70
    12
 71
     2
 72
     8
 73
     5
 74
     0
 42
0.0000000001
 43
0.0000000001
 40
0.0
 40
0.0
 40
0.0
 40
1.520766455445231
 40
1.520766455445231
 40
3.04153291089047
 40
3.04153291089047
 40
3.04153291089047
 10
31.12569711447011
 20
0.3118500053102
 30
0.0
 41
1.0
 10
30.1575471197803
 20
0.3118500053102001
 30
0.0
 41
0.7071067811865446
 10
30.15754711978032
 20
1.279999999999999
 30
0.0
 41
1.0
 10
30.15754711978032
 20
2.248149994689805
 30
0.0
 41
0.707106781186544
 10
31.12569711447011
 20
2.248149994689805
 30
0.0
 41
1.0
  0
SPLINE
  5
168
330
1F
100
AcDbEntity
  8
Make2D visible lines
100
AcDbSpline
210
0.0
220
0.0
230
1.0
 70
    12
 71
     2
 72
     8
 73
     5
 74
     0
 42
0.0000000001
 43
0.0000000001
 40
0.0
 40
0.0
 40
0.0
 40
2.010589900836999
 40
2.010589900836999
 40
4.021209199134468
 40
4.021209199134468
 40
4.021209199134468
 10
31.12566771700966
 20
2.559999999662418
 30
0.0
 41
1.0
 10
29.84569711447011
 20
2.559970602877123
 30
0.0
 41
0.7071149011179003
 10
29.84569711447014
 20
1.28
 30
0.0
 41
1.0
 10
29.84569711447009
 20
-0.0000000000000256
 30
0.0
 41
0.7071067811865291
 10
31.12569711447011
 20
0.0000000000000029
 30
0.0
 41
1.0
  0
SPLINE
  5
169
330
1F
100
AcDbEntity
  8
Make2D visible lines
100
AcDbSpline
210
0.0
220
0.0
230
1.0
 70
    12
 71
     2
 72
     8
 73
     5
 74
     0
 42
0.0000000001
 43
0.0000000001
 40
0.0
 40
0.0
 40
0.0
 40
1.497204518884547
 40
1.497204518884547
 40
2.994409037769108
 40
2.994409037769108
 40
2.994409037769108
 10
31.12569711447011
 20
2.23315
 30
0.0
 41
1.0
 10
30.17254711447012
 20
2.23315
 30
0.0
 41
0.7071067811865408
 10
30.17254711447013
 20
1.279999999999999
 30
0.0
 41
1.0
 10
30.1725471144701
 20
0.3268499999999905
 30
0.0
 41
0.7071067811865419
 10
31.12569711447011
 20
0.3268499999999905
 30
0.0
 41
1.0
  0
SPLINE
  5
16A
330
1F
100
AcDbEntity
  8
Make2D visible lines
100
AcDbSpline
210
0.0
220
0.0
230
1.0
 70
    12
 71
     2
 72
     8
 73
     5
 74
     0
 42
0.0000000001
 43
0.0000000001
 40
0.0
 40
0.0
 40
0.0
 40
1.497204518884545
 40
1.497204518884545
 40
2.994409037769103
 40
2.994409037769103
 40
2.994409037769103
 10
31.12569711447011
 20
0.3268500000000003
 30
0.0
 41
1.0
 10
32.07884711447009
 20
0.3268500000000287
 30
0.0
 41
0.7071067811865704
 10
32.07884711447012
 20
1.279999999999999
 30
0.0
 41
1.0
 10
32.07884711447011
 20
2.233149999999981
 30
0.0
 41
0.7071067811865678
 10
31.12569711447011
 20
2.23315000000001
 30
0.0
 41
1.0
  0
SPLINE
  5
16B
330
1F
100
AcDbEntity
  8
Make2D visible lines
100
AcDbSpline
210
0.0
220
0.0
230
1.0
 70
    24
 71
     2
 72
     6
 73
     3
 74
     0
 42
0.0000000001
 43
0.0000000001
 40
0.0
 40
0.0
 40
0.0
 40
0.0399213772270059
 40
0.0399213772270059
 40
0.0399213772270059
 10
41.33492524598769
 20
7.319999999999991
 30
0.0
 10
41.33457688393725
 20
7.300042351496046
 30
0.0
 10
41.3342285218868
 20
7.280084702992101
 30
0.0
  0
SPLINE
  5
16C
330
1F
100
AcDbEntity
  8
Make2D visible lines
100
AcDbSpline
210
0.0
220
0.0
230
1.0
 70
    24
 71
     2
 72
     6
 73
     3
 74
     0
 42
0.0000000001
 43
0.0000000001
 40
0.0
 40
0.0
 40
0.0
 40
0.0399213772270059
 40
0.0399213772270059
 40
0.0399213772270059
 10
43.73422556489345
 20
7.280084702992101
 30
0.0
 10
43.733877202843
 20
7.300042351496046
 30
0.0
 10
43.73352884079256
 20
7.319999999999991
 30
0.0
  0
SPLINE
  5
16D
330
1F
100
AcDbEntity
  8
Default
100
AcDbSpline
210
0.0
220
0.0
230
1.0
 70
    12
 71
     3
 72
    22
 73
    18
 74
     0
 42
0.0000000001
 43
0.0000000001
 40
-12.0
 40
-12.0
 40
-12.0
 40
-12.0
 40
-11.0
 40
-10.0
 40
-9.0
 40
-8.0
 40
-7.0
 40
-6.0
 40
-5.0
 40
-4.0
 40
-3.0
 40
-2.0
 40
-0.9999999999999998
 40
0.0000000000000002
 40
0.0000000000000002
 40
0.0000000000000002
 40
7.364094903167447
 40
7.364094903167447
 40
7.364094903167447
 40
7.364094903167447
 10
-13.67036194187236
 20
23.16746389477743
 30
0.0
 41
1.0
 10
-13.90025397975937
 20
22.93161085933694
 30
0.0
 41
1.0
 10
-13.77917445061793
 20
22.27904246089966
 30
0.0
 41
1.0
 10
-13.39420429856315
 20
21.47036654123282
 30
0.0
 41
1.0
 10
-13.00022704162512
 20
20.64310391336753
 30
0.0
 41
1.0
 10
-12.59871709973291
 20
19.82547102612575
 30
0.0
 41
1.0
 10
-12.15438399516532
 20
19.0283174178982
 30
0.0
 41
1.0
 10
-11.6733536500058
 20
18.25355618697845
 30
0.0
 41
1.0
 10
-11.17150537031476
 20
17.49185092405444
 30
0.0
 41
1.0
 10
-10.60947574642171
 20
16.77146725254941
 30
0.0
 41
1.0
 10
-9.923456933829227
 20
16.16389082567918
 30
0.0
 41
1.0
 10
-9.141748785236217
 20
15.68776521433728
 30
0.0
 41
1.0
 10
-8.277264002500614
 20
15.37709691034114
 30
0.0
 41
1.0
 10
-7.667446649620787
 20
15.32114865893199
 30
0.0
 41
1.0
 10
-7.363565634586394
 20
15.32486376588444
 30
0.0
 41
1.0
 10
-4.909050734169832
 20
15.35487151535375
 30
0.0
 41
0.9999999813811441
 10
-2.45469832390763
 20
15.41314671042799
 30
0.0
 41
0.9999999813811441
 10
0.0000000000000182
 20
15.41314671042728
 30
0.0
 41
1.0
  0
SPLINE
  5
16E
330
1F
100
AcDbEntity
  8
Default
100
AcDbSpline
210
0.0
220
0.0
230
1.0
 70
    12
 71
     3
 72
    22
 73
    18
 74
     0
 42
0.0000000001
 43
0.0000000001
 40
-7.364094903167449
 40
-7.364094903167449
 40
-7.364094903167449
 40
-7.364094903167449
 40
-0.0000000000000002
 40
-0.0000000000000002
 40
-0.0000000000000002
 40
0.9999999999999998
 40
2.0
 40
3.0
 40
4.0
 40
5.0
 40
6.0
 40
7.0
 40
8.0
 40
9.0
 40
10.0
 40
11.0
 40
12.0
 40
12.0
 40
12.0
 40
12.0
 10
0.0000000000000182
 20
15.41314671042728
 30
0.0
 41
1.0
 10
2.454698323907684
 20
15.41314671042657
 30
0.0
 41
0.9999999813811442
 10
4.909050734169857
 20
15.35487151535536
 30
0.0
 41
0.9999999813811442
 10
7.363565634586394
 20
15.32486376588444
 30
0.0
 41
1.0
 10
7.667446649620787
 20
15.32114865893199
 30
0.0
 41
1.0
 10
8.277264002500614
 20
15.37709691034114
 30
0.0
 41
1.0
 10
9.141748785236217
 20
15.68776521433728
 30
0.0
 41
1.0
 10
9.923456933829227
 20
16.16389082567918
 30
0.0
 41
1.0
 10
10.60947574642171
 20
16.77146725254941
 30
0.0
 41
1.0
 10
11.17150537031476
 20
17.49185092405444
 30
0.0
 41
1.0
 10
11.6733536500058
 20
18.25355618697845
 30
0.0
 41
1.0
 10
12.15438399516532
 20
19.0283174178982
 30
0.0
 41
1.0
 10
12.59871709973291
 20
19.82547102612575
 30
0.0
 41
1.0
 10
13.00022704162512
 20
20.64310391336753
 30
0.0
 41
1.0
 10
13.39420429856315
 20
21.47036654123282
 30
0.0
 41
1.0
 10
13.77917445061793
 20
22.27904246089966
 30
0.0
 41
1.0
 10
13.90025397975937
 20
22.93161085933694
 30
0.0
 41
1.0
 10
13.67036194187236
 20
23.16746389477743
 30
0.0
 41
1.0
  0
SPLINE
  5
16F
330
1F
100
AcDbEntity
  8
Default
100
AcDbSpline
210
0.0
220
0.0
230
1.0
 70
     8
 71
     3
 72
    64
 73
    60
 74
     0
 42
0.0000000001
 43
0.0000000001
 40
0.0
 40
0.0
 40
0.0
 40
0.0
 40
1.0
 40
2.0
 40
3.0
 40
4.0
 40
5.0
 40
6.0
 40
7.0
 40
8.0
 40
9.0
 40
10.0
 40
11.0
 40
12.0
 40
13.0
 40
14.0
 40
15.0
 40
16.0
 40
17.0
 40
18.0
 40
19.0
 40
20.0
 40
21.0
 40
22.0
 40
23.0
 40
24.0
 40
25.0
 40
26.0
 40
27.0
 40
28.0
 40
29.0
 40
30.0
 40
31.0
 40
32.0
 40
33.0
 40
34.0
 40
35.0
 40
36.0
 40
37.0
 40
38.0
 40
39.0
 40
40.0
 40
41.0
 40
42.0
 40
43.0
 40
44.0
 40
45.0
 40
46.0
 40
47.0
 40
48.0
 40
49.0
 40
50.0
 40
51.0
 40
52.0
 40
53.0
 40
54.0
 40
55.0
 40
56.0
 40
57.0
 40
57.0
 40
57.0
 40
57.0
 10
-9.451222821681682
 20
24.21734818419607
 30
0.0
 10
-9.691356566843286
 20
24.17122180229367
 30
0.0
 10
-10.17091577398546
 20
24.06927777826304
 30
0.0
 10
-10.87836055268258
 20
23.88406295413147
 30
0.0
 10
-11.59094956041645
 20
23.66894089956751
 30
0.0
 10
-12.22175136209303
 20
23.41443701474912
 30
0.0
 10
-13.06330731187151
 20
23.15575269380692
 30
0.0
 10
-12.99856235215805
 20
22.3117381842937
 30
0.0
 10
-12.77113149792537
 20
21.63906472562709
 30
0.0
 10
-12.45257854576366
 20
20.96979416057769
 30
0.0
 10
-12.13417847060668
 20
20.31058643789865
 30
0.0
 10
-11.7947531878967
 20
19.6590082300498
 30
0.0
 10
-11.42715405944946
 20
19.02367546353212
 30
0.0
 10
-11.03198678255657
 20
18.40492573206648
 30
0.0
 10
-10.62927679794589
 20
17.79148094165802
 30
0.0
 10
-10.19384377955597
 20
17.1990208847421
 30
0.0
 10
-9.677840683268512
 20
16.67459973426315
 30
0.0
 10
-9.087529135506427
 20
16.23336806868159
 30
0.0
 10
-8.425881914075894
 20
15.91052296062617
 30
0.0
 10
-7.708997068459198
 20
15.71923195011217
 30
0.0
 10
-6.971753483074459
 20
15.75629709119784
 30
0.0
 10
-6.238942745224
 20
15.77061746042262
 30
0.0
 10
-5.504693879129571
 20
15.77743311261709
 30
0.0
 10
-4.770771378598923
 20
15.77622535664202
 30
0.0
 10
-4.036764477429953
 20
15.77430278257638
 30
0.0
 10
-3.302778958585269
 20
15.77237910096347
 30
0.0
 10
-2.568785220380964
 20
15.77250088626726
 30
0.0
 10
-1.834803771908342
 20
15.77700120231655
 30
0.0
 10
-1.100857523977543
 20
15.78490230000978
 30
0.0
 10
-0.3669756915393448
 20
15.80003736273563
 30
0.0
 10
0.3669659484036173
 20
15.80011558827673
 30
0.0
 10
1.100848323821252
 20
15.78500620752818
 30
0.0
 10
1.834795535588571
 20
15.77717591701872
 30
0.0
 10
2.568776909061723
 20
15.772678377257
 30
0.0
 10
3.302771950364286
 20
15.77258549643651
 30
0.0
 10
4.036755393325342
 20
15.77448175436119
 30
0.0
 10
4.770764337183462
 20
15.77638766640805
 30
0.0
 10
5.504683544561646
 20
15.7772447979201
 30
0.0
 10
6.238942787683539
 20
15.77106681950482
 30
0.0
 10
6.971733176056788
 20
15.75595669296245
 30
0.0
 10
7.709002634557733
 20
15.71932545540365
 30
0.0
 10
8.425880961142939
 20
15.91049775298219
 30
0.0
 10
9.087530213723214
 20
16.23337478207391
 30
0.0
 10
9.67784098584993
 20
16.67459758330759
 30
0.0
 10
10.19384514480286
 20
17.19902204218024
 30
0.0
 10
10.62927749070819
 20
17.79148080104452
 30
0.0
 10
11.03198718247302
 20
18.4049252037814
 30
0.0
 10
11.42715504164597
 20
19.02367584017779
 30
0.0
 10
11.79475380940968
 20
19.65900800675568
 30
0.0
 10
12.13417930684396
 20
20.31058661483854
 30
0.0
 10
12.45257929156956
 20
20.96979411709582
 30
0.0
 10
12.7711321112202
 20
21.63906460444088
 30
0.0
 10
12.99856296326091
 20
22.31173699325033
 30
0.0
 10
13.0633078538505
 20
23.15575315154032
 30
0.0
 10
12.22175289476013
 20
23.41443655646704
 30
0.0
 10
11.59095042120769
 20
23.66894091559183
 30
0.0
 10
10.87836068912251
 20
23.88406311989544
 30
0.0
 10
10.17091639526261
 20
24.06927780264903
 30
0.0
 10
9.691357323579545
 20
24.17122180051144
 30
0.0
 10
9.451223569958302
 20
24.21734818419607
 30
0.0
  0
SPLINE
  5
170
330
1F
100
AcDbEntity
  8
Default
100
AcDbSpline
210
0.0
220
0.0
230
1.0
 70
     8
 71
     3
 72
    64
 73
    60
 74
     0
 42
0.0000000001
 43
0.0000000001
 40
0.0
 40
0.0
 40
0.0
 40
0.0
 40
1.0
 40
2.0
 40
3.0
 40
4.0
 40
5.0
 40
6.0
 40
7.0
 40
8.0
 40
9.0
 40
10.0
 40
11.0
 40
12.0
 40
13.0
 40
14.0
 40
15.0
 40
16.0
 40
17.0
 40
18.0
 40
19.0
 40
20.0
 40
21.0
 40
22.0
 40
23.0
 40
24.0
 40
25.0
 40
26.0
 40
27.0
 40
28.0
 40
29.0
 40
30.0
 40
31.0
 40
32.0
 40
33.0
 40
34.0
 40
35.0
 40
36.0
 40
37.0
 40
38.0
 40
39.0
 40
40.0
 40
41.0
 40
42.0
 40
43.0
 40
44.0
 40
45.0
 40
46.0
 40
47.0
 40
48.0
 40
49.0
 40
50.0
 40
51.0
 40
52.0
 40
53.0
 40
54.0
 40
55.0
 40
56.0
 40
57.0
 40
57.0
 40
57.0
 40
57.0
 10
-13.41593313366688
 20
23.33253144644383
 30
0.0
 10
-13.63613377865343
 20
23.23055632004733
 30
0.0
 10
-14.00159903535845
 20
22.85502116558728
 30
0.0
 10
-13.96785860740407
 20
22.08714444979097
 30
0.0
 10
-13.69084986657042
 20
21.41589832495271
 30
0.0
 10
-13.45440208566023
 20
20.72632888536529
 30
0.0
 10
-13.2206828530361
 20
20.03692048141341
 30
0.0
 10
-12.97177410078225
 20
19.35249985364137
 30
0.0
 10
-12.70167880537718
 20
18.67622318577
 30
0.0
 10
-12.41639224846065
 20
18.00625186985573
 30
0.0
 10
-12.12149205195855
 20
17.34048293997479
 30
0.0
 10
-11.81550499567982
 20
16.67964136610851
 30
0.0
 10
-11.47526811266301
 20
16.0354463834971
 30
0.0
 10
-11.08912963174647
 20
15.41737568985513
 30
0.0
 10
-10.64633273696128
 20
14.83811326874585
 30
0.0
 10
-10.14153221910856
 20
14.31146373796892
 30
0.0
 10
-9.574044432778749
 20
13.85300649277995
 30
0.0
 10
-8.951078345027362
 20
13.47188272255763
 30
0.0
 10
-8.278047389039763
 20
13.19067321002817
 30
0.0
 10
-7.585039950707618
 20
12.96592119211505
 30
0.0
 10
-6.879949116048849
 20
12.78306777728617
 30
0.0
 10
-6.166333816182814
 20
12.63725398677069
 30
0.0
 10
-5.447491409330979
 20
12.52046976864028
 30
0.0
 10
-4.725166022951129
 20
12.42785109566282
 30
0.0
 10
-4.000644756281588
 20
12.35474635262823
 30
0.0
 10
-3.274720108231463
 20
12.29719711175053
 30
0.0
 10
-2.547641183361705
 20
12.25700489114965
 30
0.0
 10
-1.820113019964012
 20
12.22658765244289
 30
0.0
 10
-1.092200791795236
 20
12.20691451184108
 30
0.0
 10
-0.3640832891115622
 20
12.19842106366283
 30
0.0
 10
0.3640836337160351
 20
12.19842106032622
 30
0.0
 10
1.092201454415189
 20
12.20691451141779
 30
0.0
 10
1.820113081343436
 20
12.22658762937748
 30
0.0
 10
2.547641499446442
 20
12.25700487197355
 30
0.0
 10
3.274720041684674
 20
12.29719705347302
 30
0.0
 10
4.000645660346976
 20
12.35474636578527
 30
0.0
 10
4.725165958065233
 20
12.42785101075553
 30
0.0
 10
5.447491482410555
 20
12.52046966260844
 30
0.0
 10
6.166334692825828
 20
12.63725400409133
 30
0.0
 10
6.879949909163813
 20
12.78306779257825
 30
0.0
 10
7.585040557555246
 20
12.96592115198762
 30
0.0
 10
8.278048046895876
 20
13.19067317540988
 30
0.0
 10
8.951078918377846
 20
13.47188265464968
 30
0.0
 10
9.574044921916524
 20
13.85300625845585
 30
0.0
 10
10.1415336061189
 20
14.31146433976602
 30
0.0
 10
10.64633323702928
 20
14.83811297635525
 30
0.0
 10
11.08913082247884
 20
15.41737636079015
 30
0.0
 10
11.47526813945078
 20
16.03544514713534
 30
0.0
 10
11.81550602400391
 20
16.67964187769904
 30
0.0
 10
12.12149260224143
 20
17.34048253437832
 30
0.0
 10
12.41639281273224
 20
18.00625143734162
 30
0.0
 10
12.70167953756554
 20
18.67622313659293
 30
0.0
 10
12.97177486261404
 20
19.35249991331905
 30
0.0
 10
13.22068324665216
 20
20.03691946401992
 30
0.0
 10
13.4544030051012
 20
20.72632935928016
 30
0.0
 10
13.69085036819816
 20
21.41589768825037
 30
0.0
 10
13.96785924966112
 20
22.08714397253118
 30
0.0
 10
14.00159982137598
 20
22.85502088238399
 30
0.0
 10
13.63613493016062
 20
23.23055609820282
 30
0.0
 10
13.4159338819435
 20
23.33253144644383
 30
0.0
  0
SPLINE
  5
171
330
1F
100
AcDbEntity
  8
Default
100
AcDbSpline
210
0.0
220
0.0
230
1.0
 70
     8
 71
     3
 72
    64
 73
    60
 74
     0
 42
0.0000000001
 43
0.0000000001
 40
-57.0
 40
-57.0
 40
-57.0
 40
-57.0
 40
-56.0
 40
-55.0
 40
-54.0
 40
-53.0
 40
-52.0
 40
-51.0
 40
-50.0
 40
-49.0
 40
-48.0
 40
-47.0
 40
-46.0
 40
-45.0
 40
-44.0
 40
-43.0
 40
-42.0
 40
-41.0
 40
-40.0
 40
-39.0
 40
-38.0
 40
-37.0
 40
-36.0
 40
-35.0
 40
-34.0
 40
-33.0
 40
-32.0
 40
-31.0
 40
-30.0
 40
-29.0
 40
-28.0
 40
-27.0
 40
-26.0
 40
-25.0
 40
-24.0
 40
-23.0
 40
-22.0
 40
-21.0
 40
-20.0
 40
-19.0
 40
-18.0
 40
-17.0
 40
-16.0
 40
-15.0
 40
-14.0
 40
-13.0
 40
-12.0
 40
-11.0
 40
-10.0
 40
-9.0
 40
-8.0
 40
-7.0
 40
-6.0
 40
-5.0
 40
-4.0
 40
-3.0
 40
-2.0
 40
-1.0
 40
0.0
 40
0.0
 40
0.0
 40
0.0
 10
13.4159338819435
 20
23.33253144644383
 30
0.0
 10
13.10492099590199
 20
23.48408215822156
 30
0.0
 10
12.4801850889768
 20
23.78375844260992
 30
0.0
 10
11.49342117201847
 20
24.11580813106614
 30
0.0
 10
10.49998036733594
 20
24.3946505121947
 30
0.0
 10
9.435062633569672
 20
24.52331648483168
 30
0.0
 10
8.675877749675365
 20
25.28637863795264
 30
0.0
 10
8.175939913267598
 20
26.22437743476088
 30
0.0
 10
8.23739677934833
 20
27.28069131063782
 30
0.0
 10
8.290413849131113
 20
28.3122365049361
 30
0.0
 10
8.341346611060871
 20
29.35063966682652
 30
0.0
 10
8.388491160713215
 20
30.38741518896472
 30
0.0
 10
8.432304726757323
 20
31.42481976613652
 30
0.0
 10
8.472658750871531
 20
32.46223453317845
 30
0.0
 10
8.509607485752852
 20
33.49981244255511
 30
0.0
 10
8.543060108110325
 20
34.53750018695402
 30
0.0
 10
8.57332278108791
 20
35.57527710390315
 30
0.0
 10
8.599259859571077
 20
36.61322256562438
 30
0.0
 10
8.625105644032928
 20
37.65096756254061
 30
0.0
 10
8.635056670469965
 20
38.68983318352233
 30
0.0
 10
8.68809134650381
 20
39.72485348028923
 30
0.0
 10
8.564097891621614
 20
40.77448789530978
 30
0.0
 10
7.791980382894934
 20
41.57817392811033
 30
0.0
 10
6.746590482589525
 20
41.73907623961852
 30
0.0
 10
5.71039489165932
 20
41.71213282643695
 30
0.0
 10
4.671629877851529
 20
41.72373795823082
 30
0.0
 10
3.633590120197496
 20
41.7100849428355
 30
0.0
 10
2.595420677120828
 20
41.69698822592208
 30
0.0
 10
1.557305002364814
 20
41.68245822336782
 30
0.0
 10
0.5191199433490112
 20
41.67208174360012
 30
0.0
 10
-0.5191189425416809
 20
41.67208174208142
 30
0.0
 10
-1.5573040444458
 20
41.68245822018237
 30
0.0
 10
-2.595420299957539
 20
41.69698823164956
 30
0.0
 10
-3.633590217318869
 20
41.71008495210624
 30
0.0
 10
-4.671629023054692
 20
41.72373795764601
 30
0.0
 10
-5.710394798849848
 20
41.71213282567426
 30
0.0
 10
-6.746589257397737
 20
41.73907623350758
 30
0.0
 10
-7.79197967307325
 20
41.57817397653927
 30
0.0
 10
-8.564097435532375
 20
40.77448772512154
 30
0.0
 10
-8.688090498212432
 20
39.72485195700737
 30
0.0
 10
-8.63505594378492
 20
38.68983332605538
 30
0.0
 10
-8.625104901564399
 20
37.65096806516446
 30
0.0
 10
-8.599259094130012
 20
36.61322174820263
 30
0.0
 10
-8.573322010552786
 20
35.5752763272304
 30
0.0
 10
-8.543059356155752
 20
34.53750008986157
 30
0.0
 10
-8.509606744280624
 20
33.49981262283331
 30
0.0
 10
-8.472657987576085
 20
32.46223416020162
 30
0.0
 10
-8.432304013949086
 20
31.42482059986192
 30
0.0
 10
-8.38849034228376
 20
30.38741362495416
 30
0.0
 10
-8.341345870307933
 20
29.35063967309651
 30
0.0
 10
-8.290412999583538
 20
28.31223504869514
 30
0.0
 10
-8.23739615212886
 20
27.28069165391828
 30
0.0
 10
-8.175938802982287
 20
26.22437790716862
 30
0.0
 10
-8.675878104090295
 20
25.28637730808413
 30
0.0
 10
-9.435060955466625
 20
24.52331712690723
 30
0.0
 10
-10.49998029925728
 20
24.39465025659849
 30
0.0
 10
-11.4934211732302
 20
24.11580793240599
 30
0.0
 10
-12.48018479732769
 20
23.78375825112601
 30
0.0
 10
-13.10492104832523
 20
23.48408177294781
 30
0.0
 10
-13.41593313366688
 20
23.33253144644383
 30
0.0
  0
POLYLINE
  5
172
330
1F
100
AcDbEntity
  8
Default
100
AcDb2dPolyline
 66
     1
 10
0.0
 20
0.0
 30
0.0
  0
VERTEX
  5
173
330
172
100
AcDbEntity
  8
Default
100
AcDbVertex
100
AcDb2dVertex
 10
8.887970244913078
 20
16.14544242370754
 30
0.0
  0
VERTEX
  5
174
330
172
100
AcDbEntity
  8
Default
100
AcDbVertex
100
AcDb2dVertex
 10
8.863263371503152
 20
16.84981426031976
 30
0.0
  0
SEQEND
  5
175
330
172
100
AcDbEntity
  8
Default
  0
ARC
  5
176
330
1F
100
AcDbEntity
  8
Default
100
AcDbCircle
 10
8.613417024522818
 20
16.84105053391004
 30
0.0
 40
0.25
100
AcDbArc
 50
2.008909727931563
 51
83.27438830629387
  0
SPLINE
  5
177
330
1F
100
AcDbEntity
  8
Default
100
AcDbSpline
210
0.0
220
0.0
230
1.0
 70
     8
 71
     3
 72
    11
 73
     7
 74
     0
 42
0.0000000001
 43
0.0000000001
 40
0.2147582606224848
 40
0.2147582606224848
 40
0.2147582606224848
 40
0.2147582606224848
 40
0.6876344293481828
 40
1.565006097919876
 40
3.780015394177452
 40
8.867987321364426
 40
8.867987321364426
 40
8.867987321364426
 40
8.867987321364426
 10
8.642695694781182
 20
17.08933013328925
 30
0.0
 10
8.48615865774562
 20
17.107789951583
 30
0.0
 10
8.038438343263039
 20
17.15404777083785
 30
0.0
 10
6.853665043525453
 20
17.24850515903092
 30
0.0
 10
4.130315768073444
 20
17.38949541772336
 30
0.0
 10
1.695990234542023
 20
17.43892600512277
 30
0.0
 10
0.0000003741383097
 20
17.43976571460234
 30
0.0
  0
SPLINE
  5
178
330
1F
100
AcDbEntity
  8
Default
100
AcDbSpline
210
0.0
220
0.0
230
1.0
 70
     8
 71
     3
 72
    11
 73
     7
 74
     0
 42
0.0000000001
 43
0.0000000001
 40
-8.867987321364426
 40
-8.867987321364426
 40
-8.867987321364426
 40
-8.867987321364426
 40
-3.780015394177595
 40
-1.565006097920082
 40
-0.6876344293484136
 40
-0.2147561777548966
 40
-0.2147561777548966
 40
-0.2147561777548966
 40
-0.2147561777548966
 10
0.0000003741383097
 20
17.43976571460234
 30
0.0
 10
-1.695989486265404
 20
17.43892600512277
 30
0.0
 10
-4.130315019796825
 20
17.38949541772336
 30
0.0
 10
-6.853664295248834
 20
17.24850515903092
 30
0.0
 10
-8.038438287145802
 20
17.15404771565466
 30
0.0
 10
-8.486159290759467
 20
17.10778980887003
 30
0.0
 10
-8.642697014990844
 20
17.08932988936036
 30
0.0
  0
ARC
  5
179
330
1F
100
AcDbEntity
  8
Default
100
AcDbCircle
 10
-8.61341831316848
 20
16.84105029370338
 30
0.0
 40
0.25
100
AcDbArc
 50
96.7256189777676
 51
177.9910902720815
  0
POLYLINE
  5
17A
330
1F
100
AcDbEntity
  8
Default
100
AcDb2dPolyline
 66
     1
 10
0.0
 20
0.0
 30
0.0
  0
VERTEX
  5
17B
330
17A
100
AcDbEntity
  8
Default
100
AcDbVertex
100
AcDb2dVertex
 10
-8.863264660148815
 20
16.84981402011304
 30
0.0
  0
VERTEX
  5
17C
330
17A
100
AcDbEntity
  8
Default
100
AcDbVertex
100
AcDb2dVertex
 10
-8.887971487597753
 20
16.14544349381036
 30
0.0
  0
SEQEND
  5
17D
330
17A
100
AcDbEntity
  8
Default
  0
ARC
  5
17E
330
1F
100
AcDbEntity
  8
Default
100
AcDbCircle
 10
50.97143467175727
 20
87.52700701593733
 30
0.0
 40
72.21373350180218
100
AcDbArc
 50
271.0562104814246
 51
273.0137156351831
  0
SPLINE
  5
17F
330
1F
100
AcDbEntity
  8
Default
100
AcDbSpline
210
0.0
220
0.0
230
1.0
 70
     8
 71
     3
 72
    34
 73
    30
 74
     0
 42
0.0000000001
 43
0.0000000001
 40
0.0
 40
0.0
 40
0.0
 40
0.0
 40
1.0
 40
2.0
 40
3.0
 40
4.0
 40
5.0
 40
6.0
 40
7.0
 40
8.0
 40
9.0
 40
10.0
 40
11.0
 40
12.0
 40
13.0
 40
14.0
 40
15.0
 40
16.0
 40
17.0
 40
18.0
 40
19.0
 40
20.0
 40
21.0
 40
22.0
 40
23.0
 40
24.0
 40
25.0
 40
26.0
 40
27.0
 40
27.0
 40
27.0
 40
27.0
 10
52.30257255030457
 20
15.32554319270448
 30
0.0
 10
51.80297500576624
 20
15.31633239308423
 30
0.0
 10
50.84513019855474
 20
15.61555474520026
 30
0.0
 10
49.56149867122377
 20
16.38773397114104
 30
0.0
 10
48.56727283551081
 20
17.50229610336998
 30
0.0
 10
47.71823057227257
 20
18.71964771778281
 30
0.0
 10
46.81178231511524
 20
19.89604649780246
 30
0.0
 10
45.99751986339331
 20
21.13918689694633
 30
0.0
 10
44.99756639707095
 20
22.24679782119451
 30
0.0
 10
43.66727851373314
 20
22.96672108751656
 30
0.0
 10
42.20635368023673
 20
23.25189204156553
 30
0.0
 10
40.73107834552629
 20
23.41646965116148
 30
0.0
 10
39.26560490359238
 20
23.65506847701425
 30
0.0
 10
37.79689412423146
 20
23.87173659966825
 30
0.0
 10
36.33379225459217
 20
24.11821177369035
 30
0.0
 10
34.85145010657805
 20
24.26714834990683
 30
0.0
 10
33.43808000995318
 20
24.76082282367092
 30
0.0
 10
32.39627979580663
 20
25.90549086329874
 30
0.0
 10
31.99619515120896
 20
27.34664328740019
 30
0.0
 10
31.6274546237849
 20
28.781511386708
 30
0.0
 10
31.26856760413238
 20
30.22273876579704
 30
0.0
 10
30.92534378001503
 20
31.66674551712712
 30
0.0
 10
30.59625080146301
 20
33.11433910352934
 30
0.0
 10
30.28181427942518
 20
34.56500391570705
 30
0.0
 10
29.9816618275706
 20
36.01912535187704
 30
0.0
 10
29.69694839356137
 20
37.47479599060526
 30
0.0
 10
29.42360458503725
 20
38.93839717169415
 30
0.0
 10
29.17692580550443
 20
40.38542926079413
 30
0.0
 10
28.90976687745943
 20
41.38334951531113
 30
0.0
 10
28.53484644543326
 20
41.70354497375894
 30
0.0
  0
SPLINE
  5
180
330
1F
100
AcDbEntity
  8
Default
100
AcDbSpline
210
0.0
220
0.0
230
1.0
 70
     8
 71
     3
 72
    11
 73
     7
 74
     0
 42
0.0000000001
 43
0.0000000001
 40
0.0
 40
0.0
 40
0.0
 40
0.0
 40
1.78266746137814
 40
3.289323513938263
 40
4.454045277921154
 40
5.193467344251839
 40
5.193467344251839
 40
5.193467344251839
 40
5.193467344251839
 10
48.79631820568659
 20
17.43782259438051
 30
0.0
 10
49.39054193391206
 20
17.44078285067232
 30
0.0
 10
50.48697502232835
 20
17.44059450885219
 30
0.0
 10
51.97161114488033
 20
17.42154088626139
 30
0.0
 10
53.10800690046713
 20
17.38586489151731
 30
0.0
 10
53.78474838970594
 20
17.34553692160112
 30
0.0
 10
54.02880345961874
 20
17.31055656678365
 30
0.0
  0
SPLINE
  5
181
330
1F
100
AcDbEntity
  8
Default
100
AcDbSpline
210
0.0
220
0.0
230
1.0
 70
    12
 71
     2
 72
     6
 73
     3
 74
     0
 42
0.0000000001
 43
0.0000000001
 40
-0.3467243252475303
 40
-0.3467243252475303
 40
-0.3467243252475303
 40
0.0
 40
0.0
 40
0.0
 10
54.02880345961874
 20
17.31055656678365
 30
0.0
 41
1.0
 10
54.23448907699265
 20
17.28107569642452
 30
0.0
 41
0.7690462387954597
 10
54.24311785093579
 20
17.0734673170853
 30
0.0
 41
1.0
  0
SPLINE
  5
182
330
1F
100
AcDbEntity
  8
Default
100
AcDbSpline
210
0.0
220
0.0
230
1.0
 70
    24
 71
     2
 72
     6
 73
     3
 74
     0
 42
0.0000000001
 43
0.0000000001
 40
-1.272855017170293
 40
-1.272855017170293
 40
-1.272855017170293
 40
0.0
 40
0.0
 40
0.0
 10
54.24311785093579
 20
17.0734673170853
 30
0.0
 10
54.26954670704857
 20
16.43758879940408
 30
0.0
 10
54.29597556316135
 20
15.80171028172285
 30
0.0
  0
SPLINE
  5
183
330
1F
100
AcDbEntity
  8
Default
100
AcDbSpline
210
0.0
220
0.0
230
1.0
 70
     8
 71
     3
 72
    10
 73
     6
 74
     0
 42
0.0000000001
 43
0.0000000001
 40
0.0
 40
0.0
 40
0.0
 40
0.0
 40
1.0
 40
2.0
 40
3.0
 40
3.0
 40
3.0
 40
3.0
 10
49.42707582307825
 20
16.78837572111083
 30
0.0
 10
49.66154031133178
 20
16.58472354255959
 30
0.0
 10
50.17162894336073
 20
16.22404501519555
 30
0.0
 10
51.02347205961286
 20
15.84044773414803
 30
0.0
 10
51.63819413419239
 20
15.73182889468764
 30
0.0
 10
51.95209459996771
 20
15.7496487044694
 30
0.0
  0
SPLINE
  5
184
330
1F
100
AcDbEntity
  8
Default
100
AcDbSpline
210
0.0
220
0.0
230
1.0
 70
     8
 71
     3
 72
     8
 73
     4
 74
     0
 42
0.0000000001
 43
0.0000000001
 40
0.0
 40
0.0
 40
0.0
 40
0.0
 40
1.0
 40
1.0
 40
1.0
 40
1.0
 10
51.95209459996771
 20
15.7496487044694
 30
0.0
 10
52.73232474066134
 20
15.79394157500981
 30
0.0
 10
53.51467589817416
 20
15.78462917173447
 30
0.0
 10
54.29597556316135
 20
15.80171028172284
 30
0.0
  0
SPLINE
  5
185
330
1F
100
AcDbEntity
  8
Default
100
AcDbSpline
210
0.0
220
0.0
230
1.0
 70
    12
 71
     3
 72
    11
 73
     7
 74
     0
 42
0.0000000001
 43
0.0000000001
 40
-50.47595879078813
 40
-50.47595879078813
 40
-50.47595879078813
 40
-50.47595879078813
 40
-50.08581481269854
 40
-50.08581481269854
 40
-50.08581481269854
 40
-49.69567083460895
 40
-49.69567083460895
 40
-49.69567083460895
 40
-49.69567083460895
 10
54.29597556316133
 20
15.80171028172284
 30
0.0
 41
1.000000000038863
 10
54.42988925755526
 20
15.80463796062172
 30
0.0
 41
0.943135975376167
 10
54.55356379146563
 20
15.75319810727811
 30
0.0
 41
0.943135975376167
 10
54.64590126965398
 20
15.6561659529592
 30
0.0
 41
1.000000000038863
 10
54.73823874784235
 20
15.55913379864027
 30
0.0
 41
0.943135975376167
 10
54.78348568569281
 20
15.43252860957591
 30
0.0
 41
0.943135975376167
 10
54.77392331423611
 20
15.2979482275454
 30
0.0
 41
1.000000000038863
  0
SPLINE
  5
186
330
1F
100
AcDbEntity
  8
Default
100
AcDbSpline
210
0.0
220
0.0
230
1.0
 70
     8
 71
     3
 72
    64
 73
    60
 74
     0
 42
0.0000000001
 43
0.0000000001
 40
0.0
 40
0.0
 40
0.0
 40
0.0
 40
1.0
 40
2.0
 40
3.0
 40
4.0
 40
5.0
 40
6.0
 40
7.0
 40
8.0
 40
9.0
 40
10.0
 40
11.0
 40
12.0
 40
13.0
 40
14.0
 40
15.0
 40
16.0
 40
17.0
 40
18.0
 40
19.0
 40
20.0
 40
21.0
 40
22.0
 40
23.0
 40
24.0
 40
25.0
 40
26.0
 40
27.0
 40
28.0
 40
29.0
 40
30.0
 40
31.0
 40
32.0
 40
33.0
 40
34.0
 40
35.0
 40
36.0
 40
37.0
 40
38.0
 40
39.0
 40
40.0
 40
41.0
 40
42.0
 40
43.0
 40
44.0
 40
45.0
 40
46.0
 40
47.0
 40
48.0
 40
49.0
 40
50.0
 40
51.0
 40
52.0
 40
53.0
 40
54.0
 40
55.0
 40
56.0
 40
57.0
 40
57.0
 40
57.0
 40
57.0
 10
54.77392331423613
 20
15.2979482275454
 30
0.0
 10
54.76623628264427
 20
14.98467264027734
 30
0.0
 10
54.34258750830875
 20
14.51768015532108
 30
0.0
 10
53.5622815445472
 20
14.0866187252772
 30
0.0
 10
52.73216175792435
 20
13.74776062682314
 30
0.0
 10
51.88280793300268
 20
13.46819523034303
 30
0.0
 10
51.02398095318708
 20
13.21805987608053
 30
0.0
 10
50.1570083129286
 20
12.99807699851232
 30
0.0
 10
49.28249865365011
 20
12.81031192505714
 30
0.0
 10
48.40272576666032
 20
12.64912444034885
 30
0.0
 10
47.51833677393937
 20
12.51562508871947
 30
0.0
 10
46.63062871901595
 20
12.40643834232766
 30
0.0
 10
45.74021111551232
 20
12.32227982386164
 30
0.0
 10
44.84802538302479
 20
12.25959230449945
 30
0.0
 10
43.95452566304881
 20
12.22026014935271
 30
0.0
 10
43.06039942726798
 20
12.19903850060863
 30
0.0
 10
42.16605329480984
 20
12.20007063120085
 30
0.0
 10
41.27179561065664
 20
12.20643198743178
 30
0.0
 10
40.37749987827674
 20
12.22327808884304
 30
0.0
 10
39.48448914089283
 20
12.26915243319622
 30
0.0
 10
38.59079882289741
 20
12.31577890951886
 30
0.0
 10
37.70653623277919
 20
12.46337251875597
 30
0.0
 10
36.85745145460683
 20
12.75340494385209
 30
0.0
 10
36.05838084099629
 20
13.1594570679074
 30
0.0
 10
35.32373171541941
 20
13.67333424401464
 30
0.0
 10
34.66577620177551
 20
14.28186454163253
 30
0.0
 10
34.08884560007222
 20
14.96724366218557
 30
0.0
 10
33.59223407739182
 20
15.71248336452867
 30
0.0
 10
33.16614061744554
 20
16.4992774879894
 30
0.0
 10
32.76402462024802
 20
17.29810981332901
 30
0.0
 10
32.38679448537464
 20
18.10910037727158
 30
0.0
 10
32.03189836313268
 20
18.93004992458147
 30
0.0
 10
31.69681504786291
 20
19.75927810084952
 30
0.0
 10
31.37989651776121
 20
20.59560193644636
 30
0.0
 10
31.07941564715037
 20
21.43796631033149
 30
0.0
 10
30.79438634578466
 20
22.2856743453345
 30
0.0
 10
30.52367807685287
 20
23.13806200235382
 30
0.0
 10
30.26611050011148
 20
23.9945004028696
 30
0.0
 10
30.01974896669645
 20
24.85423241008193
 30
0.0
 10
29.78666096017032
 20
25.71766320925978
 30
0.0
 10
29.56703976278645
 20
26.58461374972122
 30
0.0
 10
29.35999881902735
 20
27.45465187654003
 30
0.0
 10
29.16447687626736
 20
28.32734680670716
 30
0.0
 10
28.97950787253653
 20
29.20233373706444
 30
0.0
 10
28.80406570001439
 20
30.07928057441853
 30
0.0
 10
28.63734928979257
 20
30.95792506431222
 30
0.0
 10
28.47882473131247
 20
31.83808319814514
 30
0.0
 10
28.32791580913789
 20
32.71957762709115
 30
0.0
 10
28.18402810551774
 20
33.60224261567896
 30
0.0
 10
28.04671541894174
 20
34.48596026876241
 30
0.0
 10
27.91572885877451
 20
35.37061484988811
 30
0.0
 10
27.79072558433361
 20
36.25621871143067
 30
0.0
 10
27.67152974377669
 20
37.14230035985798
 30
0.0
 10
27.55733309140635
 20
38.03024577025354
 30
0.0
 10
27.44964314504983
 20
38.91450836642277
 30
0.0
 10
27.34129231488018
 20
39.81545638042261
 30
0.0
 10
27.25746297683656
 20
40.65674597215166
 30
0.0
 10
27.10258051787548
 20
41.72301154596085
 30
0.0
 10
27.92698708349172
 20
41.72955779185589
 30
0.0
 10
28.18911716162714
 20
41.7209929625724
 30
0.0
  0
SPLINE
  5
187
330
1F
100
AcDbEntity
  8
Default
100
AcDbSpline
210
0.0
220
0.0
230
1.0
 70
    12
 71
     3
 72
     8
 73
     4
 74
     0
 42
0.0000000001
 43
0.0000000001
 40
-19.66375890038411
 40
-19.66375890038411
 40
-19.66375890038411
 40
-19.66375890038411
 40
-19.31745184846394
 40
-19.31745184846394
 40
-19.31745184846394
 40
-19.31745184846394
 10
28.18911716162713
 20
41.72099296257241
 30
0.0
 41
1.000000000038776
 10
28.30461123356397
 20
41.72126542713814
 30
0.0
 41
0.9990122582833316
 10
28.4199682711288
 20
41.71544368048472
 30
0.0
 41
0.9990122582833316
 10
28.53484644543326
 20
41.70354497375894
 30
0.0
 41
1.000000000038776
  0
SPLINE
  5
188
330
1F
100
AcDbEntity
  8
Default
100
AcDbSpline
210
0.0
220
0.0
230
1.0
 70
     8
 71
     3
 72
    24
 73
    20
 74
     0
 42
0.0000000001
 43
0.0000000001
 40
0.0
 40
0.0
 40
0.0
 40
0.0
 40
1.0
 40
2.0
 40
3.0
 40
4.0
 40
5.0
 40
6.0
 40
7.0
 40
8.0
 40
9.0
 40
10.0
 40
11.0
 40
12.0
 40
13.0
 40
14.0
 40
15.0
 40
16.0
 40
17.0
 40
17.0
 40
17.0
 40
17.0
 10
28.53484644543326
 20
41.70354497375894
 30
0.0
 10
28.93756747751831
 20
41.66183244235688
 30
0.0
 10
29.52032013387699
 20
41.14336739956982
 30
0.0
 10
29.90885553624324
 20
40.07214378092885
 30
0.0
 10
30.03122389329005
 20
38.93553714638232
 30
0.0
 10
30.23192767921994
 20
37.81753575073941
 30
0.0
 10
30.42266816041655
 20
36.69640278649005
 30
0.0
 10
30.6270883471188
 20
35.57804781288133
 30
0.0
 10
30.83884455633242
 20
34.46097446099346
 30
0.0
 10
31.05959530703716
 20
33.34566143915185
 30
0.0
 10
31.28897361261919
 20
32.23209393705345
 30
0.0
 10
31.5267090577257
 20
31.12025604949954
 30
0.0
 10
31.77416812753499
 20
30.01062531899268
 30
0.0
 10
32.02606838241059
 20
28.90171357248326
 30
0.0
 10
32.3020849789998
 20
27.79939256281224
 30
0.0
 10
32.52870755333747
 20
26.68206382662233
 30
0.0
 10
33.0373532140253
 20
25.64636415299913
 30
0.0
 10
33.90641226040682
 20
24.88378358109612
 30
0.0
 10
34.61298452451028
 20
24.58243540092466
 30
0.0
 10
34.98703976275522
 20
24.51487190531022
 30
0.0
  0
SPLINE
  5
189
330
1F
100
AcDbEntity
  8
Default
100
AcDbSpline
210
0.0
220
0.0
230
1.0
 70
     8
 71
     3
 72
    24
 73
    20
 74
     0
 42
0.0000000001
 43
0.0000000001
 40
0.0
 40
0.0
 40
0.0
 40
0.0
 40
1.0
 40
2.0
 40
3.0
 40
4.0
 40
5.0
 40
6.0
 40
7.0
 40
8.0
 40
9.0
 40
10.0
 40
11.0
 40
12.0
 40
13.0
 40
14.0
 40
15.0
 40
16.0
 40
17.0
 40
17.0
 40
17.0
 40
17.0
 10
34.98703976275522
 20
24.51487190531022
 30
0.0
 10
35.3237990493616
 20
24.45731967486837
 30
0.0
 10
35.99784236996724
 20
24.3453074920347
 30
0.0
 10
37.00982899613123
 20
24.18295154611935
 30
0.0
 10
38.0220591076
 20
24.02217146918237
 30
0.0
 10
39.03432743180893
 20
23.86148668535192
 30
0.0
 10
40.04682264776197
 20
23.70276144106225
 30
0.0
 10
41.05940320047331
 20
23.5426433454121
 30
0.0
 10
42.07447772398602
 20
23.4059129693335
 30
0.0
 10
43.09234252479725
 20
23.26512941458281
 30
0.0
 10
44.05515890686976
 20
22.89386294878741
 30
0.0
 10
44.93602142686588
 20
22.36487707904205
 30
0.0
 10
45.70429063670674
 20
21.67435376275635
 30
0.0
 10
46.2777234275449
 20
20.82055234590965
 30
0.0
 10
46.88690856246139
 20
19.9972394357921
 30
0.0
 10
47.49573240539873
 20
19.17245173902923
 30
0.0
 10
48.10993691190676
 20
18.35214878044339
 30
0.0
 10
48.70772481428686
 20
17.51889776274314
 30
0.0
 10
49.16537765623275
 20
17.00908458345756
 30
0.0
 10
49.42707582307825
 20
16.78837572111083
 30
0.0
  0
SPLINE
  5
18A
330
1F
100
AcDbEntity
  8
Default
100
AcDbSpline
210
0.0
220
0.0
230
1.0
 70
     8
 71
     3
 72
    33
 73
    29
 74
     0
 42
0.0000000001
 43
0.0000000001
 40
1.326357650642476
 40
1.326357650642476
 40
1.326357650642476
 40
1.326357650642476
 40
2.0
 40
3.0
 40
4.0
 40
5.0
 40
6.0
 40
7.0
 40
8.0
 40
9.0
 40
10.0
 40
11.0
 40
12.0
 40
13.0
 40
14.0
 40
15.0
 40
16.0
 40
17.0
 40
18.0
 40
19.0
 40
20.0
 40
21.0
 40
22.0
 40
23.0
 40
24.0
 40
25.0
 40
26.0
 40
27.0
 40
27.0
 40
27.0
 40
27.0
 10
8.29030936072056
 20
55.10812339512088
 30
0.0
 10
8.440591162099892
 20
55.24089822559361
 30
0.0
 10
8.806396693992502
 20
55.57939019475986
 30
0.0
 10
9.367813416937949
 20
56.14379231045778
 30
0.0
 10
9.978858962308408
 20
56.7951875032792
 30
0.0
 10
10.58588998897257
 20
57.45025230919896
 30
0.0
 10
11.19691420695535
 20
58.10167648989055
 30
0.0
 10
11.7973723074534
 20
58.7626709190481
 30
0.0
 10
12.36161358593645
 20
59.45631384781981
 30
0.0
 10
12.86492290356938
 20
60.19356348410082
 30
0.0
 10
13.3976771234787
 20
60.91375732157738
 30
0.0
 10
13.75087117252271
 20
61.74304474034914
 30
0.0
 10
13.85471789683346
 20
62.63775128369728
 30
0.0
 10
13.77972905525662
 20
63.53019274774613
 30
0.0
 10
13.59462422326398
 20
64.4047551548993
 30
0.0
 10
13.36643043941482
 20
65.26831110947954
 30
0.0
 10
13.10610467172383
 20
66.12278385159011
 30
0.0
 10
12.81739218286297
 20
66.96804791868283
 30
0.0
 10
12.50165648846175
 20
67.80362455243797
 30
0.0
 10
12.1516565722042
 20
68.6255380945345
 30
0.0
 10
11.76239590288933
 20
69.4296528400689
 30
0.0
 10
11.33136968800341
 20
70.2122603296825
 30
0.0
 10
10.85644714982313
 20
70.9689961206104
 30
0.0
 10
10.33594202075815
 20
71.69559490883137
 30
0.0
 10
9.768096616614443
 20
72.38452696817171
 30
0.0
 10
9.199151066933815
 20
73.07555347504405
 30
0.0
 10
8.660025098364951
 20
73.77840588361028
 30
0.0
 10
8.258817372688583
 20
74.24361215722043
 30
0.0
 10
8.212367261933181
 20
74.53869430835303
 30
0.0
  0
SPLINE
  5
18B
330
1F
100
AcDbEntity
  8
Default
100
AcDbSpline
210
0.0
220
0.0
230
1.0
 70
     8
 71
     3
 72
    12
 73
     8
 74
     0
 42
0.0000000001
 43
0.0000000001
 40
0.0
 40
0.0
 40
0.0
 40
0.0
 40
1.839088205257158
 40
3.681958122248531
 40
7.393161344914192
 40
11.14156523886652
 40
14.91612102967629
 40
14.91612102967629
 40
14.91612102967629
 40
14.91612102967629
 10
-9.624987465615007
 20
61.79846148553866
 30
0.0
 10
-9.625022039375395
 20
61.18435684837512
 30
0.0
 10
-9.499490306752172
 20
59.957732976856
 30
0.0
 10
-8.764291525026998
 20
57.59169640936708
 30
0.0
 10
-6.969081748450208
 20
54.98810973504094
 30
0.0
 10
-3.765766228040732
 20
52.9140689864127
 30
0.0
 10
-1.25817550552641
 20
52.43094675748639
 30
0.0
 10
0.0000005639209206
 20
52.43075213214919
 30
0.0
  0
SPLINE
  5
18C
330
1F
100
AcDbEntity
  8
Default
100
AcDbSpline
210
0.0
220
0.0
230
1.0
 70
     8
 71
     3
 72
    12
 73
     8
 74
     0
 42
0.0000000001
 43
0.0000000001
 40
0.0
 40
0.0
 40
0.0
 40
0.0
 40
1.889436739208306
 40
3.775156018868658
 40
7.521347154661371
 40
11.23173116836974
 40
14.91612104830391
 40
14.91612104830391
 40
14.91612104830391
 40
14.91612104830391
 10
0.0000005639209206
 20
52.43075213214919
 30
0.0
 10
0.629775007835633
 20
52.43081188236911
 30
0.0
 10
1.88819168600638
 20
52.55231618346792
 30
0.0
 10
4.304191691782989
 20
53.26286713808362
 30
0.0
 10
6.968056323099006
 20
54.98735242674165
 30
0.0
 10
9.118808843908056
 20
58.10525697416082
 30
0.0
 10
9.62527639872782
 20
60.5695960182195
 30
0.0
 10
9.624985748259249
 20
61.79829602757302
 30
0.0
  0
SPLINE
  5
18D
330
1F
100
AcDbEntity
  8
Default
100
AcDbSpline
210
0.0
220
0.0
230
1.0
 70
     8
 71
     3
 72
    12
 73
     8
 74
     0
 42
0.0000000001
 43
0.0000000001
 40
-15.37823054169759
 40
-15.37823054169759
 40
-15.37823054169759
 40
-15.37823054169759
 40
-11.46360448765834
 40
-7.628973434916604
 40
-3.787697327406727
 40
-1.918385852904537
 40
0.0
 40
0.0
 40
0.0
 40
0.0
 10
9.624985748259249
 20
61.79829602757302
 30
0.0
 10
9.624586552053145
 20
63.10303702339776
 30
0.0
 10
9.162683818037095
 20
65.69179266162097
 30
0.0
 10
7.048011739711143
 20
69.01890594984685
 30
0.0
 10
4.351140607843163
 20
70.83527241719797
 30
0.0
 10
1.90214801378734
 20
71.56122191749373
 30
0.0
 10
0.6394346975662444
 20
71.6840109862062
 30
0.0
 10
-0.0000031647213206
 20
71.68344058437631
 30
0.0
  0
SPLINE
  5
18E
330
1F
100
AcDbEntity
  8
Default
100
AcDbSpline
210
0.0
220
0.0
230
1.0
 70
     8
 71
     3
 72
    12
 73
     8
 74
     0
 42
0.0000000001
 43
0.0000000001
 40
-15.37794659634141
 40
-15.37794659634141
 40
-15.37794659634141
 40
-15.37794659634141
 40
-11.50259787367827
 40
-7.748286961365536
 40
-3.918858638804655
 40
-1.968953222664886
 40
0.0
 40
0.0
 40
0.0
 40
0.0
 10
-0.0000031647213206
 20
71.68344058437631
 30
0.0
 10
-1.291009872940876
 20
71.6835278256521
 30
0.0
 10
-3.838560720356043
 20
71.18777174721517
 30
0.0
 10
-7.062674519958591
 20
68.99447739443623
 30
0.0
 10
-8.80344285747455
 20
66.25830634103268
 30
0.0
 10
-9.506748844342013
 20
63.76234563264397
 30
0.0
 10
-9.625319867016557
 20
62.45552184736532
 30
0.0
 10
-9.624987465615007
 20
61.79846148553866
 30
0.0
  0
SPLINE
  5
18F
330
1F
100
AcDbEntity
  8
Default
100
AcDbSpline
210
0.0
220
0.0
230
1.0
 70
     8
 71
     3
 72
    29
 73
    25
 74
     0
 42
0.0000000001
 43
0.0000000001
 40
0.0
 40
0.0
 40
0.0
 40
0.0
 40
1.086140128130943
 40
1.29584145325401
 40
1.432314949918265
 40
1.581801788841326
 40
1.973343299159334
 40
2.536449432313078
 40
3.900519173182836
 40
6.666881421244757
 40
8.825629717213397
 40
10.61326530782269
 40
10.61326530782269
 40
10.61326530782269
 40
12.40070566635057
 40
14.55948128928833
 40
17.32601085445109
 40
18.68979933553958
 40
19.25289940625956
 40
19.64340976049864
 40
19.79176087666323
 40
19.92129059247175
 40
20.12256495941067
 40
21.22653055983604
 40
21.22653055983604
 40
21.22653055983604
 40
21.22653055983604
 10
-8.502620672502784
 20
76.11893799751842
 30
0.0
 10
-8.566282717363535
 20
76.47810210972263
 30
0.0
 10
-8.630470572029125
 20
76.90119012259026
 30
0.0
 10
-8.671606143321505
 20
77.38165678454388
 30
0.0
 10
-8.68890223994871
 20
77.54228144742082
 30
0.0
 10
-8.674179283849718
 20
77.7777818373975
 30
0.0
 10
-8.430370538200393
 20
78.07277221527472
 30
0.0
 10
-7.720238847454084
 20
78.397882975543
 30
0.0
 10
-6.194398851395917
 20
78.746877719154
 30
0.0
 10
-4.130486144456796
 20
79.12075300267706
 30
0.0
 10
-1.910386574720309
 20
79.40312166802366
 30
0.0
 10
-0.5959165983325185
 20
79.43744188071616
 30
0.0
 10
-0.0000016198093178
 20
79.4379484292491
 30
0.0
 10
0.5958186526197271
 20
79.43742274733836
 30
0.0
 10
1.910292547934959
 20
79.40317049828926
 30
0.0
 10
4.130322296040433
 20
79.12067415248856
 30
0.0
 10
6.194284828558651
 20
78.74702165769695
 30
0.0
 10
7.720107536814155
 20
78.39798677555682
 30
0.0
 10
8.42968979283215
 20
78.07291785276782
 30
0.0
 10
8.673633875186368
 20
77.77937672835864
 30
0.0
 10
8.688979050391438
 20
77.54667218279704
 30
0.0
 10
8.67273613362643
 20
77.39139008489796
 30
0.0
 10
8.63136592235243
 20
76.91022879610252
 30
0.0
 10
8.567411394115481
 20
76.4839683615454
 30
0.0
 10
8.502621048128608
 20
76.1189403720733
 30
0.0
  0
SPLINE
  5
190
330
1F
100
AcDbEntity
  8
Default
100
AcDbSpline
210
0.0
220
0.0
230
1.0
 70
     8
 71
     3
 72
    33
 73
    29
 74
     0
 42
0.0000000001
 43
0.0000000001
 40
1.32635697731372
 40
1.32635697731372
 40
1.32635697731372
 40
1.32635697731372
 40
2.0
 40
3.0
 40
4.0
 40
5.0
 40
6.0
 40
7.0
 40
8.0
 40
9.0
 40
10.0
 40
11.0
 40
12.0
 40
13.0
 40
14.0
 40
15.0
 40
16.0
 40
17.0
 40
18.0
 40
19.0
 40
20.0
 40
21.0
 40
22.0
 40
23.0
 40
24.0
 40
25.0
 40
26.0
 40
27.0
 40
27.0
 40
27.0
 40
27.0
 10
-8.290308910085024
 20
55.10812299698181
 30
0.0
 10
-8.44059086776295
 20
55.24089795323389
 30
0.0
 10
-8.806396552605593
 20
55.57939005262111
 30
0.0
 10
-9.367813416937949
 20
56.14379231045778
 30
0.0
 10
-9.978858962308408
 20
56.7951875032792
 30
0.0
 10
-10.58588998897257
 20
57.45025230919896
 30
0.0
 10
-11.19691420695535
 20
58.10167648989055
 30
0.0
 10
-11.7973723074534
 20
58.7626709190481
 30
0.0
 10
-12.36161358593645
 20
59.45631384781981
 30
0.0
 10
-12.86492290356938
 20
60.19356348410082
 30
0.0
 10
-13.3976771234787
 20
60.91375732157738
 30
0.0
 10
-13.75087117252271
 20
61.74304474034914
 30
0.0
 10
-13.85471789683346
 20
62.63775128369728
 30
0.0
 10
-13.77972905525662
 20
63.53019274774613
 30
0.0
 10
-13.59462422326398
 20
64.4047551548993
 30
0.0
 10
-13.36643043941482
 20
65.26831110947954
 30
0.0
 10
-13.10610467172383
 20
66.12278385159011
 30
0.0
 10
-12.81739218286297
 20
66.96804791868283
 30
0.0
 10
-12.50165648846175
 20
67.80362455243797
 30
0.0
 10
-12.1516565722042
 20
68.6255380945345
 30
0.0
 10
-11.76239590288933
 20
69.4296528400689
 30
0.0
 10
-11.33136968800341
 20
70.2122603296825
 30
0.0
 10
-10.85644714982313
 20
70.9689961206104
 30
0.0
 10
-10.33594202075815
 20
71.69559490883137
 30
0.0
 10
-9.768096616614443
 20
72.38452696817171
 30
0.0
 10
-9.199151066933815
 20
73.07555347504405
 30
0.0
 10
-8.660025098364951
 20
73.77840588361028
 30
0.0
 10
-8.258817372688583
 20
74.24361215722043
 30
0.0
 10
-8.212367261933181
 20
74.53869430835303
 30
0.0
  0
SPLINE
  5
191
330
1F
100
AcDbEntity
  8
Default
100
AcDbSpline
210
0.0
220
0.0
230
1.0
 70
     8
 71
     3
 72
    24
 73
    20
 74
     0
 42
0.0000000001
 43
0.0000000001
 40
0.0
 40
0.0
 40
0.0
 40
0.0
 40
1.0
 40
2.0
 40
3.0
 40
4.0
 40
5.0
 40
6.0
 40
7.0
 40
8.0
 40
9.0
 40
10.0
 40
11.0
 40
12.0
 40
13.0
 40
14.0
 40
15.0
 40
16.0
 40
17.0
 40
17.0
 40
17.0
 40
17.0
 10
-8.294303417500117
 20
55.10360179500785
 30
0.0
 10
-8.636152039640823
 20
55.40285880960732
 30
0.0
 10
-9.288964337070421
 20
56.03527561482047
 30
0.0
 10
-10.22136506845984
 20
57.02948430385312
 30
0.0
 10
-11.15593714421075
 20
58.0201790875536
 30
0.0
 10
-12.08495848499285
 20
59.02093581235361
 30
0.0
 10
-12.87557574739342
 20
60.12769341215348
 30
0.0
 10
-13.70340885232009
 20
61.2273632697731
 30
0.0
 10
-14.04397275301854
 20
62.57708036586807
 30
0.0
 10
-13.88970310487707
 20
63.94274279525708
 30
0.0
 10
-13.54819958235108
 20
65.26176895386538
 30
0.0
 10
-13.1490774128553
 20
66.56527358838815
 30
0.0
 10
-12.67893634283576
 20
67.84480334312401
 30
0.0
 10
-12.13993571499094
 20
69.09723718814188
 30
0.0
 10
-11.50281047103062
 20
70.30310846887568
 30
0.0
 10
-10.7638721402598
 20
71.45015773398096
 30
0.0
 10
-9.91357300712215
 20
72.51630532365999
 30
0.0
 10
-9.046214900410044
 20
73.56619024653746
 30
0.0
 10
-8.477848902934044
 20
74.27721197688241
 30
0.0
 10
-8.241522652152334
 20
74.66523388114456
 30
0.0
  0
SPLINE
  5
192
330
1F
100
AcDbEntity
  8
Default
100
AcDbSpline
210
0.0
220
0.0
230
1.0
 70
     8
 71
     3
 72
    34
 73
    30
 74
     0
 42
0.0000000001
 43
0.0000000001
 40
0.0
 40
0.0
 40
0.0
 40
0.0
 40
1.0
 40
2.0
 40
3.0
 40
4.0
 40
5.0
 40
6.0
 40
7.0
 40
8.0
 40
9.0
 40
10.0
 40
11.0
 40
12.0
 40
13.0
 40
14.0
 40
15.0
 40
16.0
 40
17.0
 40
18.0
 40
19.0
 40
20.0
 40
21.0
 40
22.0
 40
23.0
 40
24.0
 40
25.0
 40
26.0
 40
27.0
 40
27.0
 40
27.0
 40
27.0
 10
-8.660347027294492
 20
77.40847476932623
 30
0.0
 10
-8.557025755683128
 20
77.60572412334793
 30
0.0
 10
-8.126314528692816
 20
77.77774270771687
 30
0.0
 10
-7.510939943303107
 20
77.99219430339423
 30
0.0
 10
-6.865202130203905
 20
78.14589786484333
 30
0.0
 10
-6.219305199257725
 20
78.2810796952891
 30
0.0
 10
-5.571061400529267
 20
78.40973088299944
 30
0.0
 10
-4.921352986831025
 20
78.52937140309038
 30
0.0
 10
-4.269878089264765
 20
78.63937043146021
 30
0.0
 10
-3.617033472831423
 20
78.74083847401275
 30
0.0
 10
-2.962443561587698
 20
78.83046784245099
 30
0.0
 10
-2.306433709707989
 20
78.90892047090873
 30
0.0
 10
-1.649205691803068
 20
78.97662888279817
 30
0.0
 10
-0.9904912087721343
 20
79.0009440532234
 30
0.0
 10
-0.3304184923703062
 20
79.03236779336297
 30
0.0
 10
0.3304070778582009
 20
79.03236803806695
 30
0.0
 10
0.990480057894537
 20
79.0009446152288
 30
0.0
 10
1.649194164461139
 20
78.97662981587823
 30
0.0
 10
2.306422431871098
 20
78.90892168307454
 30
0.0
 10
2.962432300089027
 20
78.83046931174545
 30
0.0
 10
3.617022057192933
 20
78.74084034667518
 30
0.0
 10
4.269866628590883
 20
78.639372340927
 30
0.0
 10
4.921341893587869
 20
78.5293745703134
 30
0.0
 10
5.571050307975419
 20
78.40973068699915
 30
0.0
 10
6.219278390340904
 20
78.28100692102154
 30
0.0
 10
6.865186990100767
 20
78.14586823158399
 30
0.0
 10
7.51093321643193
 20
77.99220612229962
 30
0.0
 10
8.12630582754474
 20
77.77774308472613
 30
0.0
 10
8.557017335768634
 20
77.6057283376997
 30
0.0
 10
8.660338999425178
 20
77.40847815080022
 30
0.0
  0
SPLINE
  5
193
330
1F
100
AcDbEntity
  8
Default
100
AcDbSpline
210
0.0
220
0.0
230
1.0
 70
     8
 71
     3
 72
    24
 73
    20
 74
     0
 42
0.0000000001
 43
0.0000000001
 40
0.0
 40
0.0
 40
0.0
 40
0.0
 40
1.0
 40
2.0
 40
3.0
 40
4.0
 40
5.0
 40
6.0
 40
7.0
 40
8.0
 40
9.0
 40
10.0
 40
11.0
 40
12.0
 40
13.0
 40
14.0
 40
15.0
 40
16.0
 40
17.0
 40
17.0
 40
17.0
 40
17.0
 10
8.24233717979672
 20
74.663559183378
 30
0.0
 10
8.477517730628747
 20
74.27463320970847
 30
0.0
 10
9.051181189882127
 20
73.5679183182085
 30
0.0
 10
9.91282545392722
 20
72.51356201100239
 30
0.0
 10
10.76668391654522
 20
71.45021657745258
 30
0.0
 10
11.50629933334355
 20
70.3035789878482
 30
0.0
 10
12.13583203441526
 20
69.09391091655132
 30
0.0
 10
12.68224567032652
 20
67.84490044551707
 30
0.0
 10
13.14834518071378
 20
66.56389363251026
 30
0.0
 10
13.54801132964288
 20
65.26070147233982
 30
0.0
 10
13.88995018411265
 20
63.94185798254399
 30
0.0
 10
14.04339569528063
 20
62.57635003993549
 30
0.0
 10
13.70376130144582
 20
61.22666905154225
 30
0.0
 10
12.87553150692125
 20
60.1270849119556
 30
0.0
 10
12.08388392306794
 20
59.02137422878325
 30
0.0
 10
11.15610641286812
 20
58.01962996019023
 30
0.0
 10
10.22111944915766
 20
57.02944794445508
 30
0.0
 10
9.288891422910416
 20
56.03521306394612
 30
0.0
 10
8.636100544645295
 20
55.40286839820288
 30
0.0
 10
8.294302731315426
 20
55.10360348028132
 30
0.0
  0
SPLINE
  5
194
330
1F
100
AcDbEntity
  8
Default
100
AcDbSpline
210
0.0
220
0.0
230
1.0
 70
     8
 71
     3
 72
    19
 73
    15
 74
     0
 42
0.0000000001
 43
0.0000000001
 40
0.0
 40
0.0
 40
0.0
 40
0.0
 40
1.0
 40
2.0
 40
3.0
 40
4.0
 40
5.0
 40
6.0
 40
7.0
 40
8.0
 40
9.0
 40
10.0
 40
11.0
 40
14.74967023975339
 40
14.74967023975339
 40
14.74967023975339
 40
14.74967023975339
 10
-9.451218683384994
 20
71.43951310135569
 30
0.0
 10
-9.727525332103658
 20
71.10670938539565
 30
0.0
 10
-10.24944086566446
 20
70.4154816762384
 30
0.0
 10
-10.92927016612083
 20
69.30844023654548
 30
0.0
 10
-11.50893668557298
 20
68.14622405445455
 30
0.0
 10
-11.99937193631202
 20
66.94381474282154
 30
0.0
 10
-12.42478910464897
 20
65.71830574672646
 30
0.0
 10
-12.80825047143745
 20
64.47559270058386
 30
0.0
 10
-13.05296257696181
 20
63.2052992324102
 30
0.0
 10
-13.00692298503811
 20
61.87152126780484
 30
0.0
 10
-12.35707252238304
 20
60.73755107753797
 30
0.0
 10
-11.57567988521604
 20
59.70074718641735
 30
0.0
 10
-10.71565256913827
 20
58.72801784426665
 30
0.0
 10
-9.266643001949012
 20
57.27067509591741
 30
0.0
 10
-7.848780661656422
 20
56.08745378849435
 30
0.0
  0
SPLINE
  5
195
330
1F
100
AcDbEntity
  8
Default
100
AcDbSpline
210
0.0
220
0.0
230
1.0
 70
     8
 71
     3
 72
    12
 73
     8
 74
     0
 42
0.0000000001
 43
0.0000000001
 40
-15.79458118156736
 40
-15.79458118156736
 40
-15.79458118156736
 40
-15.79458118156736
 40
-11.77317704034072
 40
-7.891921117673467
 40
-4.027182358898176
 40
-2.039419238857605
 40
0.0
 40
0.0
 40
0.0
 40
0.0
 10
-8.294303417500117
 20
55.10360179500785
 30
0.0
 10
-7.286529342427696
 20
54.22138831932275
 30
0.0
 10
-3.921550761139613
 20
52.3385459523647
 30
0.0
 10
-0.0002016808895462
 20
51.68216396506703
 30
0.0
 10
3.24359729594137
 20
52.2251906083318
 30
0.0
 10
5.667807548090124
 20
53.26435168634296
 30
0.0
 10
7.782880123806936
 20
54.65582166690983
 30
0.0
 10
8.294302731315426
 20
55.10360348028132
 30
0.0
  0
SPLINE
  5
196
330
1F
100
AcDbEntity
  8
Default
100
AcDbSpline
210
0.0
220
0.0
230
1.0
 70
     8
 71
     3
 72
    11
 73
     7
 74
     0
 42
0.0000000001
 43
0.0000000001
 40
0.0
 40
0.0
 40
0.0
 40
0.0
 40
0.902799207024757
 40
1.661382015434428
 40
2.327024690836945
 40
2.906322635493532
 40
2.906322635493532
 40
2.906322635493532
 40
2.906322635493532
 10
-8.212367261933167
 20
74.53869430835303
 30
0.0
 10
-8.272169696653322
 20
74.8336156943778
 30
0.0
 10
-8.378017786063396
 20
75.37723017057579
 30
0.0
 10
-8.509868568696191
 20
76.14168142688109
 30
0.0
 10
-8.603315102708791
 20
76.8030358156553
 30
0.0
 10
-8.645810048582533
 20
77.21595462424438
 30
0.0
 10
-8.660338999425178
 20
77.40847815080022
 30
0.0
  0
SPLINE
  5
197
330
1F
100
AcDbEntity
  8
Default
100
AcDbSpline
210
0.0
220
0.0
230
1.0
 70
     8
 71
     3
 72
    11
 73
     7
 74
     0
 42
0.0000000001
 43
0.0000000001
 40
0.0
 40
0.0
 40
0.0
 40
0.0
 40
0.902799207024757
 40
1.661382015434428
 40
2.327024690836945
 40
2.906322635493532
 40
2.906322635493532
 40
2.906322635493532
 40
2.906322635493532
 10
8.212367261933167
 20
74.53869430835303
 30
0.0
 10
8.272169696653322
 20
74.8336156943778
 30
0.0
 10
8.378017786063396
 20
75.37723017057579
 30
0.0
 10
8.509868568696191
 20
76.14168142688109
 30
0.0
 10
8.603315102708791
 20
76.8030358156553
 30
0.0
 10
8.645810048582533
 20
77.21595462424438
 30
0.0
 10
8.660338999425178
 20
77.40847815080022
 30
0.0
  0
SPLINE
  5
198
330
1F
100
AcDbEntity
  8
Default
100
AcDbSpline
210
0.0
220
0.0
230
1.0
 70
     8
 71
     3
 72
    19
 73
    15
 74
     0
 42
0.0000000001
 43
0.0000000001
 40
0.0
 40
0.0
 40
0.0
 40
0.0
 40
1.0
 40
2.0
 40
3.0
 40
4.0
 40
5.0
 40
6.0
 40
7.0
 40
8.0
 40
9.0
 40
10.0
 40
11.0
 40
14.74967023975339
 40
14.74967023975339
 40
14.74967023975339
 40
14.74967023975339
 10
9.451218683384994
 20
71.43951310135569
 30
0.0
 10
9.727525332103658
 20
71.10670938539565
 30
0.0
 10
10.24944086566446
 20
70.4154816762384
 30
0.0
 10
10.92927016612083
 20
69.30844023654548
 30
0.0
 10
11.50893668557298
 20
68.14622405445455
 30
0.0
 10
11.99937193631202
 20
66.94381474282154
 30
0.0
 10
12.42478910464897
 20
65.71830574672646
 30
0.0
 10
12.80825047143745
 20
64.47559270058386
 30
0.0
 10
13.05296257696181
 20
63.2052992324102
 30
0.0
 10
13.00692298503811
 20
61.87152126780484
 30
0.0
 10
12.35707252238304
 20
60.73755107753797
 30
0.0
 10
11.57567988521604
 20
59.70074718641735
 30
0.0
 10
10.71565256913827
 20
58.72801784426665
 30
0.0
 10
9.266643001949012
 20
57.27067509591741
 30
0.0
 10
7.848780661656422
 20
56.08745378849435
 30
0.0
  0
SPLINE
  5
199
330
1F
100
AcDbEntity
  8
Make2D visible lines - Tangent
100
AcDbSpline
210
0.0
220
0.0
230
1.0
 70
    12
 71
     2
 72
     6
 73
     3
 74
     0
 42
0.0000000001
 43
0.0000000001
 40
0.0
 40
0.0
 40
0.0
 40
0.6213186892081751
 40
0.6213186892081751
 40
0.6213186892081751
 10
0.3924690982870231
 20
50.98215303806156
 30
0.0
 41
1.0
 10
0.3952203296437779
 20
50.58692591248987
 30
0.0
 41
0.7078628796196968
 10
-0.000000004334165
 20
50.58332901493637
 30
0.0
 41
1.0
  0
SPLINE
  5
19A
330
1F
100
AcDbEntity
  8
Make2D visible lines - Tangent
100
AcDbSpline
210
0.0
220
0.0
230
1.0
 70
    12
 71
     2
 72
     6
 73
     3
 74
     0
 42
0.0000000001
 43
0.0000000001
 40
0.0
 40
0.0
 40
0.0
 40
0.6213184385489916
 40
0.6213184385489916
 40
0.6213184385489916
 10
-0.000000004334165
 20
50.58332901493637
 30
0.0
 41
1.0
 10
-0.3952197604127546
 20
50.58692648193083
 30
0.0
 41
0.7078638982414072
 10
-0.3924690982869414
 20
50.98215303875801
 30
0.0
 41
1.0
  0
SPLINE
  5
19B
330
1F
100
AcDbEntity
  8
Make2D visible lines
100
AcDbSpline
210
0.0
220
0.0
230
1.0
 70
    24
 71
     2
 72
     6
 73
     3
 74
     0
 42
0.0000000001
 43
0.0000000001
 40
0.0
 40
0.0
 40
0.0
 40
0.0653749093108864
 40
0.0653749093108864
 40
0.0653749093108864
 10
0.463000000000001
 20
51.41935209527345
 30
0.0
 10
0.4303125453445578
 20
51.41935209527345
 30
0.0
 10
0.3976250906891146
 20
51.41935209527345
 30
0.0
  0
SPLINE
  5
19C
330
1F
100
AcDbEntity
  8
Make2D visible lines
100
AcDbSpline
210
0.0
220
0.0
230
1.0
 70
    24
 71
     2
 72
     6
 73
     3
 74
     0
 42
0.0000000001
 43
0.0000000001
 40
0.0
 40
0.0
 40
0.0
 40
0.0653749093108864
 40
0.0653749093108864
 40
0.0653749093108864
 10
-0.463000000000001
 20
51.41935209527345
 30
0.0
 10
-0.4303125453445578
 20
51.41935209527345
 30
0.0
 10
-0.3976250906891146
 20
51.41935209527345
 30
0.0
  0
SPLINE
  5
19D
330
1F
100
AcDbEntity
  8
Make2D visible lines - Tangent
100
AcDbSpline
210
0.0
220
0.0
230
1.0
 70
    12
 71
     2
 72
     6
 73
     3
 74
     0
 42
0.0000000001
 43
0.0000000001
 40
-0.3651206206167676
 40
-0.3651206206167676
 40
-0.3651206206167676
 40
0.0
 40
0.0
 40
0.0
 10
0.3745388348797574
 20
51.90422842716669
 30
0.0
 41
0.999999992037119
 10
0.3724744850067432
 20
51.72167979518249
 30
0.0
 41
0.9999999958727247
 10
0.3704163703892096
 20
51.53913109279343
 30
0.0
 41
1.0
  0
SPLINE
  5
19E
330
1F
100
AcDbEntity
  8
Make2D visible lines - Tangent
100
AcDbSpline
210
0.0
220
0.0
230
1.0
 70
     8
 71
     3
 72
    11
 73
     7
 74
     0
 42
0.0000000001
 43
0.0000000001
 40
-0.5061957594563898
 40
-0.5061957594563898
 40
-0.5061957594563898
 40
-0.5061957594563898
 40
-0.2779307972340258
 40
-0.1436576036068027
 40
-0.0724650654421722
 40
0.0
 40
0.0
 40
0.0
 40
0.0
 10
0.3704163703892096
 20
51.53913109279343
 30
0.0
 10
0.3707053948673433
 20
51.46079296884712
 30
0.0
 10
0.2953412875025805
 20
51.35308736525512
 30
0.0
 10
0.1627527847708343
 20
51.29268843694115
 30
0.0
 10
0.0720514342512679
 20
51.27194848552584
 30
0.0
 10
0.0241517138070542
 20
51.26901765793167
 30
0.0
 10
0.0
 20
51.26885190388354
 30
0.0
  0
SPLINE
  5
19F
330
1F
100
AcDbEntity
  8
Make2D visible lines - Tangent
100
AcDbSpline
210
0.0
220
0.0
230
1.0
 70
     8
 71
     3
 72
    11
 73
     7
 74
     0
 42
0.0000000001
 43
0.0000000001
 40
0.0
 40
0.0
 40
0.0
 40
0.0
 40
0.0724650654421701
 40
0.143657603606799
 40
0.2779307972340275
 40
0.5061957594563471
 40
0.5061957594563471
 40
0.5061957594563471
 40
0.5061957594563471
 10
0.0
 20
51.26885190388354
 30
0.0
 10
-0.0241517138070435
 20
51.26901765793173
 30
0.0
 10
-0.0720514342512857
 20
51.27194848552597
 30
0.0
 10
-0.1627527847708432
 20
51.29268843694116
 30
0.0
 10
-0.2953412875025379
 20
51.3530873652552
 30
0.0
 10
-0.3707053948672936
 20
51.46079296884719
 30
0.0
 10
-0.3704163703885346
 20
51.53913109279343
 30
0.0
  0
SPLINE
  5
1A0
330
1F
100
AcDbEntity
  8
Make2D visible lines - Tangent
100
AcDbSpline
210
0.0
220
0.0
230
1.0
 70
    12
 71
     2
 72
     6
 73
     3
 74
     0
 42
0.0000000001
 43
0.0000000001
 40
0.0
 40
0.0
 40
0.0
 40
0.3653233997000314
 40
0.3653233997000314
 40
0.3653233997000314
 10
-0.3704163703885346
 20
51.53913109279343
 30
0.0
 41
1.0
 10
-0.3724755510351157
 20
51.72178117904581
 30
0.0
 41
0.9999999958054873
 10
-0.3745410227316272
 20
51.90443119426509
 30
0.0
 41
0.9999999919075577
  0
POLYLINE
  5
1A1
330
1F
100
AcDbEntity
  8
Default
100
AcDb2dPolyline
 66
     1
 10
0.0
 20
0.0
 30
0.0
  0
VERTEX
  5
1A2
330
1A1
100
AcDbEntity
  8
Default
100
AcDbVertex
100
AcDb2dVertex
 10
1.035000000000001
 20
51.9441370325135
 30
0.0
  0
VERTEX
  5
1A3
330
1A1
100
AcDbEntity
  8
Default
100
AcDbVertex
100
AcDb2dVertex
 10
1.035
 20
50.60435209820545
 30
0.0
  0
SEQEND
  5
1A4
330
1A1
100
AcDbEntity
  8
Default
  0
SPLINE
  5
1A5
330
1F
100
AcDbEntity
  8
Default
100
AcDbSpline
210
0.0
220
0.0
230
1.0
 70
    12
 71
     2
 72
     6
 73
     3
 74
     0
 42
0.0000000001
 43
0.0000000001
 40
0.0
 40
0.0
 40
0.0
 40
0.2355890798875016
 40
0.2355890798875016
 40
0.2355890798875016
 10
1.035
 20
50.60435209820545
 30
0.0
 41
1.0
 10
1.034929244842217
 20
50.45442285336183
 30
0.0
 41
0.7074404097356639
 10
0.8850000000000016
 20
50.45435209527345
 30
0.0
 41
1.0
  0
SPLINE
  5
1A6
330
1F
100
AcDbEntity
  8
Default
100
AcDbSpline
210
0.0
220
0.0
230
1.0
 70
    24
 71
     2
 72
     6
 73
     3
 74
     0
 42
0.0000000001
 43
0.0000000001
 40
0.0
 40
0.0
 40
0.0
 40
0.3520000000000003
 40
0.3520000000000003
 40
0.3520000000000003
 10
0.8850000000000016
 20
50.45435209527345
 30
0.0
 10
0.7090000000000014
 20
50.45435209527345
 30
0.0
 10
0.5330000000000013
 20
50.45435209527345
 30
0.0
  0
SPLINE
  5
1A7
330
1F
100
AcDbEntity
  8
Default
100
AcDbSpline
210
0.0
220
0.0
230
1.0
 70
    12
 71
     2
 72
     6
 73
     3
 74
     0
 42
0.0000000001
 43
0.0000000001
 40
0.0
 40
0.0
 40
0.0
 40
0.1098876245644455
 40
0.1098876245644455
 40
0.1098876245644455
 10
0.5330000000000013
 20
50.45435209527344
 30
0.0
 41
1.0
 10
0.4631586517903132
 20
50.45451074989732
 30
0.0
 41
0.7087112325863247
 10
0.4630000000000027
 20
50.52435209811345
 30
0.0
 41
1.0
  0
POLYLINE
  5
1A8
330
1F
100
AcDbEntity
  8
Default
100
AcDb2dPolyline
 66
     1
 10
0.0
 20
0.0
 30
0.0
  0
VERTEX
  5
1A9
330
1A8
100
AcDbEntity
  8
Default
100
AcDbVertex
100
AcDb2dVertex
 10
0.4630000000000027
 20
50.52435209811345
 30
0.0
  0
VERTEX
  5
1AA
330
1A8
100
AcDbEntity
  8
Default
100
AcDbVertex
100
AcDb2dVertex
 10
0.4630000000000017
 20
51.90740898864887
 30
0.0
  0
SEQEND
  5
1AB
330
1A8
100
AcDbEntity
  8
Default
  0
SPLINE
  5
1AC
330
1F
100
AcDbEntity
  8
Make2D visible lines - Tangent
100
AcDbSpline
210
0.0
220
0.0
230
1.0
 70
    12
 71
     2
 72
     6
 73
     3
 74
     0
 42
0.0000000001
 43
0.0000000001
 40
0.4118640919375047
 40
0.4118640919375047
 40
0.4118640919375047
 40
0.6213186892081751
 40
0.6213186892081751
 40
0.6213186892081751
 10
12.8997839842274
 20
60.15076835237896
 30
0.0
 41
0.8694335091435771
 10
12.92173708570633
 20
60.04847920023001
 30
0.0
 41
0.9015167836411758
 10
12.89031505462575
 20
59.94869109836077
 30
0.0
 41
1.0
  0
SPLINE
  5
1AD
330
1F
100
AcDbEntity
  8
Make2D visible lines - Tangent
100
AcDbSpline
210
0.0
220
0.0
230
1.0
 70
    12
 71
     2
 72
     6
 73
     3
 74
     0
 42
0.0000000001
 43
0.0000000001
 40
0.0
 40
0.0
 40
0.0
 40
0.4480039481900824
 40
0.4480039481900824
 40
0.4480039481900824
 10
12.89031505462575
 20
59.94869109836077
 30
0.0
 41
1.0
 10
12.80913194635366
 20
59.7063628408717
 30
0.0
 41
0.7893541880032434
 10
12.55488197417448
 20
59.68046625628433
 30
0.0
 41
0.8824822529403245
  0
POLYLINE
  5
1AE
330
1F
100
AcDbEntity
  8
Default
100
AcDb2dPolyline
 66
     1
 10
0.0
 20
0.0
 30
0.0
  0
VERTEX
  5
1AF
330
1AE
100
AcDbEntity
  8
Default
100
AcDbVertex
100
AcDb2dVertex
 10
13.55328139573
 20
61.13137185530409
 30
0.0
  0
VERTEX
  5
1B0
330
1AE
100
AcDbEntity
  8
Default
100
AcDbVertex
100
AcDb2dVertex
 10
13.55328139573
 20
59.69941590974744
 30
0.0
  0
SEQEND
  5
1B1
330
1AE
100
AcDbEntity
  8
Default
  0
SPLINE
  5
1B2
330
1F
100
AcDbEntity
  8
Default
100
AcDbSpline
210
0.0
220
0.0
230
1.0
 70
    12
 71
     2
 72
     6
 73
     3
 74
     0
 42
0.0000000001
 43
0.0000000001
 40
0.0
 40
0.0
 40
0.0
 40
0.2355890798875016
 40
0.2355890798875016
 40
0.2355890798875016
 10
13.55328139573
 20
59.69941590974744
 30
0.0
 41
1.0
 10
13.55321064057222
 20
59.54948666490382
 30
0.0
 41
0.7074404097356639
 10
13.40328139573
 20
59.54941590681544
 30
0.0
 41
1.0
  0
SPLINE
  5
1B3
330
1F
100
AcDbEntity
  8
Default
100
AcDbSpline
210
0.0
220
0.0
230
1.0
 70
    24
 71
     2
 72
     6
 73
     3
 74
     0
 42
0.0000000001
 43
0.0000000001
 40
0.0
 40
0.0
 40
0.0
 40
0.3520000000000003
 40
0.3520000000000003
 40
0.3520000000000003
 10
13.40328139573
 20
59.54941590681544
 30
0.0
 10
13.22728139573
 20
59.54941590681544
 30
0.0
 10
13.05128139573
 20
59.54941590681544
 30
0.0
  0
SPLINE
  5
1B4
330
1F
100
AcDbEntity
  8
Default
100
AcDbSpline
210
0.0
220
0.0
230
1.0
 70
    12
 71
     2
 72
     6
 73
     3
 74
     0
 42
0.0000000001
 43
0.0000000001
 40
0.0
 40
0.0
 40
0.0
 40
0.1098876245644455
 40
0.1098876245644455
 40
0.1098876245644455
 10
13.05128139573
 20
59.54941590681543
 30
0.0
 41
1.0
 10
12.98144004752031
 20
59.54957456143932
 30
0.0
 41
0.7087112325863247
 10
12.98128139573
 20
59.61941590965544
 30
0.0
 41
1.0
  0
POLYLINE
  5
1B5
330
1F
100
AcDbEntity
  8
Default
100
AcDb2dPolyline
 66
     1
 10
0.0
 20
0.0
 30
0.0
  0
VERTEX
  5
1B6
330
1B5
100
AcDbEntity
  8
Default
100
AcDbVertex
100
AcDb2dVertex
 10
12.98128139573
 20
59.61941590965544
 30
0.0
  0
VERTEX
  5
1B7
330
1B5
100
AcDbEntity
  8
Default
100
AcDbVertex
100
AcDb2dVertex
 10
12.98128139573
 20
60.261608918354
 30
0.0
  0
SEQEND
  5
1B8
330
1B5
100
AcDbEntity
  8
Default
  0
SPLINE
  5
1B9
330
1F
100
AcDbEntity
  8
Default
100
AcDbSpline
210
0.0
220
0.0
230
1.0
 70
    24
 71
     2
 72
     6
 73
     3
 74
     0
 42
0.0000000001
 43
0.0000000001
 40
0.3431546985367486
 40
0.3431546985367486
 40
0.3431546985367486
 40
0.3520000000000003
 40
0.3520000000000003
 40
0.3520000000000003
 10
-8.61287808183675
 20
76.82553828373345
 30
0.0
 10
-8.617300732568374
 20
76.82553828373345
 30
0.0
 10
-8.6217233833
 20
76.82553828373345
 30
0.0
  0
SPLINE
  5
1BA
330
1F
100
AcDbEntity
  8
Default
100
AcDbSpline
210
0.0
220
0.0
230
1.0
 70
    12
 71
     2
 72
     6
 73
     3
 74
     0
 42
0.0000000001
 43
0.0000000001
 40
0.0
 40
0.0
 40
0.0
 40
0.2356186331260159
 40
0.2356186331260159
 40
0.2356186331260159
 10
-8.6217233833
 20
76.82553828373345
 30
0.0
 41
1.0
 10
-8.771721478458353
 20
76.82553637595984
 30
0.0
 41
0.7071157676638842
 10
-8.7717233833
 20
76.67553828080145
 30
0.0
 41
1.0
  0
POLYLINE
  5
1BB
330
1F
100
AcDbEntity
  8
Default
100
AcDb2dPolyline
 66
     1
 10
0.0
 20
0.0
 30
0.0
  0
VERTEX
  5
1BC
330
1BB
100
AcDbEntity
  8
Default
100
AcDbVertex
100
AcDb2dVertex
 10
-8.7717233833
 20
76.67553828080145
 30
0.0
  0
VERTEX
  5
1BD
330
1BB
100
AcDbEntity
  8
Default
100
AcDbVertex
100
AcDb2dVertex
 10
-8.7717233833
 20
74.41553828666544
 30
0.0
  0
SEQEND
  5
1BE
330
1BB
100
AcDbEntity
  8
Default
  0
SPLINE
  5
1BF
330
1F
100
AcDbEntity
  8
Default
100
AcDbSpline
210
0.0
220
0.0
230
1.0
 70
    12
 71
     2
 72
     6
 73
     3
 74
     0
 42
0.0000000001
 43
0.0000000001
 40
0.0
 40
0.0
 40
0.0
 40
0.2355890798875016
 40
0.2355890798875016
 40
0.2355890798875016
 10
-8.7717233833
 20
74.41553828666544
 30
0.0
 41
1.0
 10
-8.771652628142215
 20
74.26560904182185
 30
0.0
 41
0.7074404097356639
 10
-8.6217233833
 20
74.26553828373345
 30
0.0
 41
1.0
  0
SPLINE
  5
1C0
330
1F
100
AcDbEntity
  8
Default
100
AcDbSpline
210
0.0
220
0.0
230
1.0
 70
    24
 71
     2
 72
     6
 73
     3
 74
     0
 42
0.0000000001
 43
0.0000000001
 40
0.0
 40
0.0
 40
0.0
 40
0.1143058602421139
 40
0.1143058602421139
 40
0.1143058602421139
 10
-8.6217233833
 20
74.26553828373345
 30
0.0
 10
-8.564570453178945
 20
74.26553828373345
 30
0.0
 10
-8.507417523057887
 20
74.26553828373345
 30
0.0
  0
SPLINE
  5
1C1
330
1F
100
AcDbEntity
  8
Default
100
AcDbSpline
210
0.0
220
0.0
230
1.0
 70
    24
 71
     2
 72
     6
 73
     3
 74
     0
 42
0.0000000001
 43
0.0000000001
 40
0.3430567810125247
 40
0.3430567810125247
 40
0.3430567810125247
 40
0.3520000000000003
 40
0.3520000000000003
 40
0.3520000000000003
 10
8.612780164312525
 20
76.82553828373345
 30
0.0
 10
8.617251773806263
 20
76.82553828373345
 30
0.0
 10
8.6217233833
 20
76.82553828373345
 30
0.0
  0
SPLINE
  5
1C2
330
1F
100
AcDbEntity
  8
Default
100
AcDbSpline
210
0.0
220
0.0
230
1.0
 70
    12
 71
     2
 72
     6
 73
     3
 74
     0
 42
0.0000000001
 43
0.0000000001
 40
0.0
 40
0.0
 40
0.0
 40
0.2356186331260159
 40
0.2356186331260159
 40
0.2356186331260159
 10
8.6217233833
 20
76.82553828373345
 30
0.0
 41
1.0
 10
8.771721478458353
 20
76.82553637595984
 30
0.0
 41
0.7071157676638842
 10
8.7717233833
 20
76.67553828080145
 30
0.0
 41
1.0
  0
POLYLINE
  5
1C3
330
1F
100
AcDbEntity
  8
Default
100
AcDb2dPolyline
 66
     1
 10
0.0
 20
0.0
 30
0.0
  0
VERTEX
  5
1C4
330
1C3
100
AcDbEntity
  8
Default
100
AcDbVertex
100
AcDb2dVertex
 10
8.7717233833
 20
76.67553828080145
 30
0.0
  0
VERTEX
  5
1C5
330
1C3
100
AcDbEntity
  8
Default
100
AcDbVertex
100
AcDb2dVertex
 10
8.7717233833
 20
74.41553828666544
 30
0.0
  0
SEQEND
  5
1C6
330
1C3
100
AcDbEntity
  8
Default
  0
SPLINE
  5
1C7
330
1F
100
AcDbEntity
  8
Default
100
AcDbSpline
210
0.0
220
0.0
230
1.0
 70
    12
 71
     2
 72
     6
 73
     3
 74
     0
 42
0.0000000001
 43
0.0000000001
 40
0.0
 40
0.0
 40
0.0
 40
0.2355890798875016
 40
0.2355890798875016
 40
0.2355890798875016
 10
8.7717233833
 20
74.41553828666544
 30
0.0
 41
1.0
 10
8.771652628142215
 20
74.26560904182185
 30
0.0
 41
0.7074404097356639
 10
8.6217233833
 20
74.26553828373345
 30
0.0
 41
1.0
  0
SPLINE
  5
1C8
330
1F
100
AcDbEntity
  8
Default
100
AcDbSpline
210
0.0
220
0.0
230
1.0
 70
    24
 71
     2
 72
     6
 73
     3
 74
     0
 42
0.0000000001
 43
0.0000000001
 40
0.0
 40
0.0
 40
0.0
 40
0.1147815129970437
 40
0.1147815129970437
 40
0.1147815129970437
 10
8.6217233833
 20
74.26553828373345
 30
0.0
 10
8.56433262680148
 20
74.26553828373345
 30
0.0
 10
8.506941870302958
 20
74.26553828373345
 30
0.0
  0
POLYLINE
  5
1C9
330
1F
100
AcDbEntity
  8
Default
100
AcDb2dPolyline
 66
     1
 10
0.0
 20
0.0
 30
0.0
  0
VERTEX
  5
1CA
330
1C9
100
AcDbEntity
  8
Default
100
AcDbVertex
100
AcDb2dVertex
 10
-13.55328139573
 20
61.13233907773226
 30
0.0
  0
VERTEX
  5
1CB
330
1C9
100
AcDbEntity
  8
Default
100
AcDbVertex
100
AcDb2dVertex
 10
-13.55328139573
 20
59.69941590974744
 30
0.0
  0
SEQEND
  5
1CC
330
1C9
100
AcDbEntity
  8
Default
  0
SPLINE
  5
1CD
330
1F
100
AcDbEntity
  8
Default
100
AcDbSpline
210
0.0
220
0.0
230
1.0
 70
    12
 71
     2
 72
     6
 73
     3
 74
     0
 42
0.0000000001
 43
0.0000000001
 40
0.0
 40
0.0
 40
0.0
 40
0.2355890798875016
 40
0.2355890798875016
 40
0.2355890798875016
 10
-13.55328139573
 20
59.69941590974744
 30
0.0
 41
1.0
 10
-13.55321064057222
 20
59.54948666490382
 30
0.0
 41
0.7074404097356639
 10
-13.40328139573
 20
59.54941590681544
 30
0.0
 41
1.0
  0
SPLINE
  5
1CE
330
1F
100
AcDbEntity
  8
Default
100
AcDbSpline
210
0.0
220
0.0
230
1.0
 70
    24
 71
     2
 72
     6
 73
     3
 74
     0
 42
0.0000000001
 43
0.0000000001
 40
0.0
 40
0.0
 40
0.0
 40
0.3520000000000003
 40
0.3520000000000003
 40
0.3520000000000003
 10
-13.40328139573
 20
59.54941590681544
 30
0.0
 10
-13.22728139573
 20
59.54941590681544
 30
0.0
 10
-13.05128139573
 20
59.54941590681544
 30
0.0
  0
SPLINE
  5
1CF
330
1F
100
AcDbEntity
  8
Default
100
AcDbSpline
210
0.0
220
0.0
230
1.0
 70
    12
 71
     2
 72
     6
 73
     3
 74
     0
 42
0.0000000001
 43
0.0000000001
 40
0.0
 40
0.0
 40
0.0
 40
0.1098876245644455
 40
0.1098876245644455
 40
0.1098876245644455
 10
-13.05128139573
 20
59.54941590681543
 30
0.0
 41
1.0
 10
-12.98144004752031
 20
59.54957456143932
 30
0.0
 41
0.7087112325863247
 10
-12.98128139573
 20
59.61941590965544
 30
0.0
 41
1.0
  0
POLYLINE
  5
1D0
330
1F
100
AcDbEntity
  8
Default
100
AcDb2dPolyline
 66
     1
 10
0.0
 20
0.0
 30
0.0
  0
VERTEX
  5
1D1
330
1D0
100
AcDbEntity
  8
Default
100
AcDbVertex
100
AcDb2dVertex
 10
-12.98128139573
 20
59.61941590965544
 30
0.0
  0
VERTEX
  5
1D2
330
1D0
100
AcDbEntity
  8
Default
100
AcDbVertex
100
AcDb2dVertex
 10
-12.98128139573
 20
60.26202826595513
 30
0.0
  0
SEQEND
  5
1D3
330
1D0
100
AcDbEntity
  8
Default
  0
LINE
  5
1D4
330
1F
100
AcDbEntity
  8
Default
100
AcDbLine
 10
-0.3939998404593573
 20
51.90509813452925
 30
0.0
 11
-0.3939999891106076
 21
51.03005603416598
 31
0.0
  0
ARC
  5
1D5
330
1F
100
AcDbEntity
  8
Default
100
AcDbCircle
 10
3515569.900238091
 20
50.42921263673607
 30
0.0
 40
3515570.294238132
100
AcDbArc
 50
179.9999902076227
 51
179.9999987473877
  0
SPLINE
  5
1D6
330
1F
100
AcDbEntity
  8
Default
100
AcDbSpline
210
0.0
220
0.0
230
1.0
 70
    12
 71
     2
 72
     6
 73
     3
 74
     0
 42
0.0000000001
 43
0.0000000001
 40
0.0
 40
0.0
 40
0.0
 40
0.0784842030870699
 40
0.0784842030870699
 40
0.0784842030870699
 10
-0.3940000405141934
 20
50.50607077571404
 30
0.0
 41
1.0
 10
-0.3939638142083186
 20
50.45610696297916
 30
0.0
 41
0.7071217743558633
 10
-0.3439999999996068
 20
50.45614065796902
 30
0.0
 41
1.0
  0
POLYLINE
  5
1D7
330
1F
100
AcDbEntity
  8
Default
100
AcDb2dPolyline
 66
     1
 10
0.0
 20
0.0
 30
0.0
  0
VERTEX
  5
1D8
330
1D7
100
AcDbEntity
  8
Default
100
AcDbVertex
100
AcDb2dVertex
 10
-0.3439999999996068
 20
50.45614065796902
 30
0.0
  0
VERTEX
  5
1D9
330
1D7
100
AcDbEntity
  8
Default
100
AcDbVertex
100
AcDb2dVertex
 10
0.3439999999996068
 20
50.45614065796902
 30
0.0
  0
SEQEND
  5
1DA
330
1D7
100
AcDbEntity
  8
Default
  0
SPLINE
  5
1DB
330
1F
100
AcDbEntity
  8
Default
100
AcDbSpline
210
0.0
220
0.0
230
1.0
 70
    12
 71
     2
 72
     6
 73
     3
 74
     0
 42
0.0000000001
 43
0.0000000001
 40
-0.0784842030870699
 40
-0.0784842030870699
 40
-0.0784842030870699
 40
0.0
 40
0.0
 40
0.0
 10
0.3439999999996068
 20
50.45614065796902
 30
0.0
 41
1.0
 10
0.3939638142083186
 20
50.45610696297916
 30
0.0
 41
0.7071217743558633
 10
0.3940000405141934
 20
50.50607077571404
 30
0.0
 41
1.0
  0
ARC
  5
1DC
330
1F
100
AcDbEntity
  8
Default
100
AcDbCircle
 10
-3515569.900238091
 20
50.42921263673607
 30
0.0
 40
3515570.294238132
100
AcDbArc
 50
0.0000012526123369
 51
0.0000097923772466
  0
LINE
  5
1DD
330
1F
100
AcDbEntity
  8
Default
100
AcDbLine
 10
0.3939999891106076
 20
51.03005603416598
 30
0.0
 11
0.3939998404980176
 21
51.9048705584484
 31
0.0
  0
POLYLINE
  5
1DE
330
1F
100
AcDbEntity
  8
Default
100
AcDb2dPolyline
 66
     1
 10
0.0
 20
0.0
 30
0.0
  0
VERTEX
  5
1DF
330
1DE
100
AcDbEntity
  8
Default
100
AcDbVertex
100
AcDb2dVertex
 10
-1.035000000000001
 20
51.94681842900034
 30
0.0
  0
VERTEX
  5
1E0
330
1DE
100
AcDbEntity
  8
Default
100
AcDbVertex
100
AcDb2dVertex
 10
-1.035
 20
50.60435209820545
 30
0.0
  0
SEQEND
  5
1E1
330
1DE
100
AcDbEntity
  8
Default
  0
SPLINE
  5
1E2
330
1F
100
AcDbEntity
  8
Default
100
AcDbSpline
210
0.0
220
0.0
230
1.0
 70
    12
 71
     2
 72
     6
 73
     3
 74
     0
 42
0.0000000001
 43
0.0000000001
 40
0.0
 40
0.0
 40
0.0
 40
0.2355890798875016
 40
0.2355890798875016
 40
0.2355890798875016
 10
-1.035
 20
50.60435209820545
 30
0.0
 41
1.0
 10
-1.034929244842217
 20
50.45442285336183
 30
0.0
 41
0.7074404097356639
 10
-0.8850000000000016
 20
50.45435209527345
 30
0.0
 41
1.0
  0
SPLINE
  5
1E3
330
1F
100
AcDbEntity
  8
Default
100
AcDbSpline
210
0.0
220
0.0
230
1.0
 70
    24
 71
     2
 72
     6
 73
     3
 74
     0
 42
0.0000000001
 43
0.0000000001
 40
0.0
 40
0.0
 40
0.0
 40
0.3520000000000003
 40
0.3520000000000003
 40
0.3520000000000003
 10
-0.8850000000000016
 20
50.45435209527345
 30
0.0
 10
-0.7090000000000014
 20
50.45435209527345
 30
0.0
 10
-0.5330000000000013
 20
50.45435209527345
 30
0.0
  0
SPLINE
  5
1E4
330
1F
100
AcDbEntity
  8
Default
100
AcDbSpline
210
0.0
220
0.0
230
1.0
 70
    12
 71
     2
 72
     6
 73
     3
 74
     0
 42
0.0000000001
 43
0.0000000001
 40
0.0
 40
0.0
 40
0.0
 40
0.1098876245644455
 40
0.1098876245644455
 40
0.1098876245644455
 10
-0.5330000000000013
 20
50.45435209527344
 30
0.0
 41
1.0
 10
-0.4631586517903132
 20
50.45451074989732
 30
0.0
 41
0.7087112325863247
 10
-0.4630000000000027
 20
50.52435209811345
 30
0.0
 41
1.0
  0
POLYLINE
  5
1E5
330
1F
100
AcDbEntity
  8
Default
100
AcDb2dPolyline
 66
     1
 10
0.0
 20
0.0
 30
0.0
  0
VERTEX
  5
1E6
330
1E5
100
AcDbEntity
  8
Default
100
AcDbVertex
100
AcDb2dVertex
 10
-0.4630000000000027
 20
50.52435209811345
 30
0.0
  0
VERTEX
  5
1E7
330
1E5
100
AcDbEntity
  8
Default
100
AcDbVertex
100
AcDb2dVertex
 10
-0.4630000000000017
 20
51.90774228452825
 30
0.0
  0
SEQEND
  5
1E8
330
1E5
100
AcDbEntity
  8
Default
  0
ARC
  5
1E9
330
1F
100
AcDbEntity
  8
Default
100
AcDbCircle
 10
3515557.381956695
 20
59.52427644827806
 30
0.0
 40
3515570.294238132
100
AcDbArc
 50
179.9999911441848
 51
179.9999987473877
  0
SPLINE
  5
1EA
330
1F
100
AcDbEntity
  8
Default
100
AcDbSpline
210
0.0
220
0.0
230
1.0
 70
    12
 71
     2
 72
     6
 73
     3
 74
     0
 42
0.0000000001
 43
0.0000000001
 40
0.0
 40
0.0
 40
0.0
 40
0.0784842030870699
 40
0.0784842030870699
 40
0.0784842030870699
 10
-12.91228143624419
 20
59.60113458725603
 30
0.0
 41
1.0
 10
-12.91224520993832
 20
59.55117077452115
 30
0.0
 41
0.7071217743558633
 10
-12.86228139572961
 20
59.55120446951101
 30
0.0
 41
1.0
  0
POLYLINE
  5
1EB
330
1F
100
AcDbEntity
  8
Default
100
AcDb2dPolyline
 66
     1
 10
0.0
 20
0.0
 30
0.0
  0
VERTEX
  5
1EC
330
1EB
100
AcDbEntity
  8
Default
100
AcDbVertex
100
AcDb2dVertex
 10
-12.86228139572961
 20
59.55120446951101
 30
0.0
  0
VERTEX
  5
1ED
330
1EB
100
AcDbEntity
  8
Default
100
AcDbVertex
100
AcDb2dVertex
 10
-12.45941603616503
 20
59.55120446951101
 30
0.0
  0
SEQEND
  5
1EE
330
1EB
100
AcDbEntity
  8
Default
  0
LINE
  5
1EF
330
1F
100
AcDbEntity
  8
Default
100
AcDbLine
 10
12.91228137726829
 20
60.16776323091268
 30
0.0
 11
12.91228138484061
 21
60.12511984570797
 31
0.0
  0
ARC
  5
1F0
330
1F
100
AcDbEntity
  8
Default
100
AcDbCircle
 10
-3515557.381956695
 20
59.52427644827806
 30
0.0
 40
3515570.294238132
100
AcDbArc
 50
0.0000088558212607
 51
0.0000097923772466
  0
ARC
  5
1F1
330
1F
100
AcDbEntity
  8
Default
100
AcDbCircle
 10
-3515557.381956695
 20
59.52427644827806
 30
0.0
 40
3515570.294238132
100
AcDbArc
 50
0.0000012526123369
 51
0.0000088558212607
  0
SPLINE
  5
1F2
330
1F
100
AcDbEntity
  8
Default
100
AcDbSpline
210
0.0
220
0.0
230
1.0
 70
    12
 71
     2
 72
     6
 73
     3
 74
     0
 42
0.0000000001
 43
0.0000000001
 40
0.0
 40
0.0
 40
0.0
 40
0.0784842030870699
 40
0.0784842030870699
 40
0.0784842030870699
 10
12.91228143624419
 20
59.60113458725603
 30
0.0
 41
1.0
 10
12.91224520993832
 20
59.55117077452115
 30
0.0
 41
0.7071217743558633
 10
12.86228139572961
 20
59.55120446951101
 30
0.0
 41
1.0
  0
POLYLINE
  5
1F3
330
1F
100
AcDbEntity
  8
Default
100
AcDb2dPolyline
 66
     1
 10
0.0
 20
0.0
 30
0.0
  0
VERTEX
  5
1F4
330
1F3
100
AcDbEntity
  8
Default
100
AcDbVertex
100
AcDb2dVertex
 10
12.86228139572961
 20
59.55120446951101
 30
0.0
  0
VERTEX
  5
1F5
330
1F3
100
AcDbEntity
  8
Default
100
AcDbVertex
100
AcDb2dVertex
 10
12.45894439413566
 20
59.55120446951101
 30
0.0
  0
SEQEND
  5
1F6
330
1F3
100
AcDbEntity
  8
Default
  0
SPLINE
  5
1F7
330
1F
100
AcDbEntity
  8
Make2D visible lines - Tangent
100
AcDbSpline
210
0.0
220
0.0
230
1.0
 70
    12
 71
     2
 72
     6
 73
     3
 74
     0
 42
0.0000000001
 43
0.0000000001
 40
0.1736665296569836
 40
0.1736665296569836
 40
0.1736665296569836
 40
0.6213186892081751
 40
0.6213186892081751
 40
0.6213186892081751
 10
-12.55523934700086
 20
59.68050263635479
 30
0.0
 41
0.8823357001448889
 10
-12.80921300887279
 20
59.70660364080359
 30
0.0
 41
0.7895189455994422
 10
-12.89031505730441
 20
59.94869110660484
 30
0.0
 41
1.0
  0
SPLINE
  5
1F8
330
1F
100
AcDbEntity
  8
Make2D visible lines - Tangent
100
AcDbSpline
210
0.0
220
0.0
230
1.0
 70
    12
 71
     2
 72
     6
 73
     3
 74
     0
 42
0.0000000001
 43
0.0000000001
 40
0.0
 40
0.0
 40
0.0
 40
0.2096668419372684
 40
0.2096668419372684
 40
0.2096668419372684
 10
-12.89031505730441
 20
59.94869110660484
 30
0.0
 41
1.0
 10
-12.92177226772124
 20
60.04859143582199
 30
0.0
 41
0.9014172925325812
 10
-12.89973756886982
 20
60.15098334913271
 30
0.0
 41
0.8693689856620295
  0
SPLINE
  5
1F9
330
1F
100
AcDbEntity
  8
Make2D visible lines
100
AcDbSpline
210
0.0
220
0.0
230
1.0
 70
    24
 71
     2
 72
     6
 73
     3
 74
     0
 42
0.0000000001
 43
0.0000000001
 40
0.3914578499639643
 40
0.3914578499639643
 40
0.3914578499639643
 40
5.280000000000008
 40
5.280000000000008
 40
5.280000000000008
 10
41.24422704339013
 20
12.20854215003603
 30
0.0
 10
41.24422704339013
 20
9.764271075018012
 30
0.0
 10
41.24422704339013
 20
7.319999999999991
 30
0.0
  0
SPLINE
  5
1FA
330
1F
100
AcDbEntity
  8
Make2D visible lines
100
AcDbSpline
210
0.0
220
0.0
230
1.0
 70
    24
 71
     2
 72
     6
 73
     3
 74
     0
 42
0.0000000001
 43
0.0000000001
 40
0.0
 40
0.0
 40
0.0
 40
4.899062846889284
 40
4.899062846889284
 40
4.899062846889284
 10
43.82422704339012
 20
7.319999999999995
 30
0.0
 10
43.82422704339012
 20
9.769531423444636
 30
0.0
 10
43.82422704339012
 20
12.21906284688928
 30
0.0
  0
SPLINE
  5
1FB
330
1F
100
AcDbEntity
  8
Make2D visible lines
100
AcDbSpline
210
0.0
220
0.0
230
1.0
 70
    24
 71
     2
 72
     6
 73
     3
 74
     0
 42
0.0000000001
 43
0.0000000001
 40
0.3869836633816084
 40
0.3869836633816084
 40
0.3869836633816084
 40
5.280000000000008
 40
5.280000000000008
 40
5.280000000000008
 10
1.289999999999999
 20
12.21301633661839
 30
0.0
 10
1.289999999999999
 20
9.76650816830919
 30
0.0
 10
1.289999999999999
 20
7.319999999999991
 30
0.0
  0
SPLINE
  5
1FC
330
1F
100
AcDbEntity
  8
Make2D visible lines
100
AcDbSpline
210
0.0
220
0.0
230
1.0
 70
    24
 71
     2
 72
     6
 73
     3
 74
     0
 42
0.0000000001
 43
0.0000000001
 40
0.0
 40
0.0
 40
0.0
 40
4.893016355158736
 40
4.893016355158736
 40
4.893016355158736
 10
-1.289999999999999
 20
7.319999999999995
 30
0.0
 10
-1.289999999999999
 20
9.766508177579363
 30
0.0
 10
-1.289999999999999
 20
12.21301635515873
 30
0.0
  0
ENDSEC
  0
SECTION
  2
OBJECTS
  0
DICTIONARY
  5
C
330
0
100
AcDbDictionary
281
     1
  3
ACAD_GROUP
350
D
  3
ACAD_LAYOUT
350
1A
  3
ACAD_MLEADERSTYLE
350
1FE
  3
ACAD_MLINESTYLE
350
17
  3
ACAD_PLOTSETTINGS
350
19
  3
ACAD_PLOTSTYLENAME
350
E
  3
ACAD_TABLESTYLE
350
1FD
  3
ACAD_VISUALSTYLE
350
2A
  0
DICTIONARY
  5
D
102
{ACAD_REACTORS
330
C
102
}
330
C
100
AcDbDictionary
281
     1
  0
DICTIONARY
  5
1A
102
{ACAD_REACTORS
330
C
102
}
330
C
100
AcDbDictionary
281
     1
  3
Layout1
350
1E
  3
Layout2
350
26
  3
Model
350
22
  0
DICTIONARY
  5
1FE
102
{ACAD_REACTORS
330
C
102
}
330
C
100
AcDbDictionary
281
     1
  0
DICTIONARY
  5
17
102
{ACAD_REACTORS
330
C
102
}
330
C
100
AcDbDictionary
281
     1
  3
Standard
350
18
  0
DICTIONARY
  5
19
102
{ACAD_REACTORS
330
C
102
}
330
C
100
AcDbDictionary
281
     1
  0
ACDBDICTIONARYWDFLT
  5
E
102
{ACAD_REACTORS
330
C
102
}
330
C
100
AcDbDictionary
281
     1
  3
Normal
350
F
100
AcDbDictionaryWithDefault
340
F
  0
DICTIONARY
  5
1FD
102
{ACAD_REACTORS
330
C
102
}
330
C
100
AcDbDictionary
281
     1
  0
DICTIONARY
  5
2A
102
{ACAD_REACTORS
330
C
102
}
330
C
100
AcDbDictionary
281
     1
  3
2dWireframe
350
2F
  3
3D Hidden
350
31
  3
3dWireframe
350
30
  3
Basic
350
32
  3
Brighten
350
36
  3
ColorChange
350
3A
  3
Conceptual
350
34
  3
Dim
350
35
  3
Facepattern
350
39
  3
Flat
350
2B
  3
FlatWithEdges
350
2C
  3
Gouraud
350
2D
  3
GouraudWithEdges
350
2E
  3
Linepattern
350
38
  3
Realistic
350
33
  3
Thicken
350
37
  0
LAYOUT
  5
1E
102
{ACAD_REACTORS
330
1A
102
}
330
1A
100
AcDbPlotSettings
  1

  2
none_device
  4

  6

 40
0.0
 41
0.0
 42
0.0
 43
0.0
 44
0.0
 45
0.0
 46
0.0
 47
0.0
 48
0.0
 49
0.0
140
0.0
141
0.0
142
1.0
143
1.0
 70
   688
 72
     0
 73
     0
 74
     5
  7

 75
    16
 76
     0
 77
     2
 78
   300
147
1.0
148
0.0
149
0.0
100
AcDbLayout
  1
Layout1
 70
     1
 71
     1
 10
0.0
 20
0.0
 11
12.0
 21
9.0
 12
0.0
 22
0.0
 32
0.0
 14
1.000000000000000E+20
 24
1.000000000000000E+20
 34
1.000000000000000E+20
 15
-1.000000000000000E+20
 25
-1.000000000000000E+20
 35
-1.000000000000000E+20
146
0.0
 13
0.0
 23
0.0
 33
0.0
 16
1.0
 26
0.0
 36
0.0
 17
0.0
 27
1.0
 37
0.0
 76
     0
330
1B
  0
LAYOUT
  5
26
102
{ACAD_REACTORS
330
1A
102
}
330
1A
100
AcDbPlotSettings
  1

  2
none_device
  4

  6

 40
0.0
 41
0.0
 42
0.0
 43
0.0
 44
0.0
 45
0.0
 46
0.0
 47
0.0
 48
0.0
 49
0.0
140
0.0
141
0.0
142
1.0
143
1.0
 70
   688
 72
     0
 73
     0
 74
     5
  7

 75
    16
 76
     0
 77
     2
 78
   300
147
1.0
148
0.0
149
0.0
100
AcDbLayout
  1
Layout2
 70
     1
 71
     2
 10
0.0
 20
0.0
 11
0.0
 21
0.0
 12
0.0
 22
0.0
 32
0.0
 14
0.0
 24
0.0
 34
0.0
 15
0.0
 25
0.0
 35
0.0
146
0.0
 13
0.0
 23
0.0
 33
0.0
 16
1.0
 26
0.0
 36
0.0
 17
0.0
 27
1.0
 37
0.0
 76
     0
330
23
  0
LAYOUT
  5
22
102
{ACAD_REACTORS
330
1A
102
}
330
1A
100
AcDbPlotSettings
  1

  2
none_device
  4

  6

 40
0.0
 41
0.0
 42
0.0
 43
0.0
 44
0.0
 45
0.0
 46
0.0
 47
0.0
 48
0.0
 49
0.0
140
0.0
141
0.0
142
1.0
143
1.0
 70
  1712
 72
     0
 73
     0
 74
     0
  7

 75
     0
 76
     0
 77
     2
 78
   300
147
1.0
148
0.0
149
0.0
100
AcDbLayout
  1
Model
 70
     1
 71
     0
 10
0.0
 20
0.0
 11
12.0
 21
9.0
 12
0.0
 22
0.0
 32
0.0
 14
-13.96753701667519
 24
-0.0000000000000001
 34
0.0
 15
56.2168833029301
 25
79.4379484292491
 35
0.0
146
0.0
 13
0.0
 23
0.0
 33
0.0
 16
1.0
 26
0.0
 36
0.0
 17
0.0
 27
1.0
 37
0.0
 76
     0
330
1F
331
29
  0
MLINESTYLE
  5
18
102
{ACAD_REACTORS
330
17
102
}
330
17
100
AcDbMlineStyle
  2
Standard
 70
     0
  3

 62
   256
 51
90.0
 52
90.0
 71
     2
 49
0.5
 62
   256
  6
BYLAYER
 49
-0.5
 62
   256
  6
BYLAYER
  0
ACDBPLACEHOLDER
  5
F
102
{ACAD_REACTORS
330
E
102
}
330
E
  0
VISUALSTYLE
  5
2F
102
{ACAD_REACTORS
330
2A
102
}
330
2A
100
AcDbVisualStyle
  2
2dWireframe
 70
     4
 71
     0
 72
     2
 73
     0
 90
        0
 40
-0.6
 41
-30.0
 62
     5
 63
     7
421
 16777215
 74
     1
 91
        4
 64
     7
 65
   257
 75
     1
175
     1
 42
1.0
 92
        0
 66
   257
 43
1.0
 76
     1
 77
     6
 78
     2
 67
     7
 79
     5
170
     0
171
     0
290
     0
174
     0
 93
        1
 44
0.0
173
     0
291
     0
 45
0.0
1001
ACAD
1000
AcDbSavedByObjectVersion
1070
     0
  0
VISUALSTYLE
  5
31
102
{ACAD_REACTORS
330
2A
102
}
330
2A
100
AcDbVisualStyle
  2
3D Hidden
 70
     6
 71
     1
 72
     2
 73
     2
 90
        0
 40
-0.6
 41
-30.0
 62
     5
 63
     7
421
 16777215
 74
     2
 91
        2
 64
     7
 65
   257
 75
     2
175
     1
 42
40.0
 92
        0
 66
   257
 43
1.0
 76
     1
 77
     6
 78
     2
 67
     7
 79
     3
170
     0
171
     0
290
     0
174
     0
 93
        1
 44
0.0
173
     0
291
     0
 45
0.0
1001
ACAD
1000
AcDbSavedByObjectVersion
1070
     0
  0
VISUALSTYLE
  5
30
102
{ACAD_REACTORS
330
2A
102
}
330
2A
100
AcDbVisualStyle
  2
3dWireframe
 70
     5
 71
     0
 72
     2
 73
     0
 90
        0
 40
-0.6
 41
-30.0
 62
     5
 63
     7
421
 16777215
 74
     1
 91
        4
 64
     7
 65
   257
 75
     1
175
     1
 42
1.0
 92
        0
 66
   257
 43
1.0
 76
     1
 77
     6
 78
     2
 67
     7
 79
     5
170
     0
171
     0
290
     0
174
     0
 93
        1
 44
0.0
173
     0
291
     0
 45
0.0
1001
ACAD
1000
AcDbSavedByObjectVersion
1070
     0
  0
VISUALSTYLE
  5
32
102
{ACAD_REACTORS
330
2A
102
}
330
2A
100
AcDbVisualStyle
  2
Basic
 70
     7
 71
     1
 72
     0
 73
     1
 90
        0
 40
-0.6
 41
-30.0
 62
     5
 63
     7
421
 16777215
 74
     0
 91
        4
 64
     7
 65
   257
 75
     1
175
     1
 42
1.0
 92
        8
 66
     7
 43
1.0
 76
     1
 77
     6
 78
     2
 67
     7
 79
     5
170
     0
171
     0
290
     0
174
     0
 93
        1
 44
0.0
173
     0
291
     1
 45
0.0
1001
ACAD
1000
AcDbSavedByObjectVersion
1070
     0
  0
VISUALSTYLE
  5
36
102
{ACAD_REACTORS
330
2A
102
}
330
2A
100
AcDbVisualStyle
  2
Brighten
 70
    12
 71
     2
 72
     2
 73
     0
 90
        0
 40
-0.6
 41
-30.0
 62
     5
 63
     7
421
 16777215
 74
     1
 91
        4
 64
     7
 65
   257
 75
     1
175
     1
 42
1.0
 92
        8
 66
     7
 43
1.0
 76
     1
 77
     6
 78
     2
 67
     7
 79
     5
170
     0
171
     0
290
     0
174
     0
 93
        1
 44
50.0
173
     0
291
     1
 45
0.0
1001
ACAD
1000
AcDbSavedByObjectVersion
1070
     0
  0
VISUALSTYLE
  5
3A
102
{ACAD_REACTORS
330
2A
102
}
330
2A
100
AcDbVisualStyle
  2
ColorChange
 70
    16
 71
     2
 72
     2
 73
     3
 90
        0
 40
-0.6
 41
-30.0
 62
     5
 63
     8
421
  8421504
 74
     1
 91
        4
 64
     7
 65
   257
 75
     1
175
     1
 42
1.0
 92
        8
 66
     8
424
  8421504
 43
1.0
 76
     1
 77
     6
 78
     2
 67
     7
 79
     5
170
     0
171
     0
290
     0
174
     0
 93
        1
 44
0.0
173
     0
291
     1
 45
0.0
1001
ACAD
1000
AcDbSavedByObjectVersion
1070
     0
  0
VISUALSTYLE
  5
34
102
{ACAD_REACTORS
330
2A
102
}
330
2A
100
AcDbVisualStyle
  2
Conceptual
 70
     9
 71
     3
 72
     2
 73
     0
 90
        0
 40
-0.6
 41
-30.0
 62
     5
 63
     7
421
 16777215
 74
     2
 91
        2
 64
     7
 65
   257
 75
     1
175
     1
 42
40.0
 92
        8
 66
     7
 43
1.0
 76
     1
 77
     6
 78
     2
 67
     7
 79
     3
170
     0
171
     0
290
     0
174
     0
 93
        1
 44
0.0
173
     0
291
     0
 45
0.0
1001
ACAD
1000
AcDbSavedByObjectVersion
1070
     0
  0
VISUALSTYLE
  5
35
102
{ACAD_REACTORS
330
2A
102
}
330
2A
100
AcDbVisualStyle
  2
Dim
 70
    11
 71
     2
 72
     2
 73
     0
 90
        0
 40
-0.6
 41
-30.0
 62
     5
 63
     7
421
 16777215
 74
     1
 91
        4
 64
     7
 65
   257
 75
     1
175
     1
 42
1.0
 92
        8
 66
     7
 43
1.0
 76
     1
 77
     6
 78
     2
 67
     7
 79
     5
170
     0
171
     0
290
     0
174
     0
 93
        1
 44
-50.0
173
     0
291
     1
 45
0.0
1001
ACAD
1000
AcDbSavedByObjectVersion
1070
     0
  0
VISUALSTYLE
  5
39
102
{ACAD_REACTORS
330
2A
102
}
330
2A
100
AcDbVisualStyle
  2
Facepattern
 70
    15
 71
     2
 72
     2
 73
     0
 90
        0
 40
-0.6
 41
-30.0
 62
     5
 63
     7
421
 16777215
 74
     1
 91
        4
 64
     7
 65
   257
 75
     1
175
     1
 42
1.0
 92
        8
 66
     7
 43
1.0
 76
     1
 77
     6
 78
     2
 67
     7
 79
     5
170
     0
171
     0
290
     0
174
     0
 93
        1
 44
0.0
173
     0
291
     1
 45
0.0
1001
ACAD
1000
AcDbSavedByObjectVersion
1070
     0
  0
VISUALSTYLE
  5
2B
102
{ACAD_REACTORS
330
2A
102
}
330
2A
100
AcDbVisualStyle
  2
Flat
 70
     0
 71
     2
 72
     1
 73
     1
 90
        2
 40
-0.6
 41
30.0
 62
     5
 63
     7
421
 16777215
 74
     0
 91
        4
 64
     7
 65
   257
 75
     1
175
     1
 42
1.0
 92
        8
 66
     7
 43
1.0
 76
     1
 77
     6
 78
     2
 67
     7
 79
     5
170
     0
171
     0
290
     0
174
     0
 93
       13
 44
0.0
173
     0
291
     1
 45
0.0
1001
ACAD
1000
AcDbSavedByObjectVersion
1070
     0
  0
VISUALSTYLE
  5
2C
102
{ACAD_REACTORS
330
2A
102
}
330
2A
100
AcDbVisualStyle
  2
FlatWithEdges
 70
     1
 71
     2
 72
     1
 73
     1
 90
        2
 40
-0.6
 41
30.0
 62
     5
 63
     7
421
 16777215
 74
     1
 91
        4
 64
     7
 65
   257
 75
     1
175
     1
 42
1.0
 92
        0
 66
   257
 43
1.0
 76
     1
 77
     6
 78
     2
 67
     7
 79
     5
170
     0
171
     0
290
     0
174
     0
 93
       13
 44
0.0
173
     0
291
     1
 45
0.0
1001
ACAD
1000
AcDbSavedByObjectVersion
1070
     0
  0
VISUALSTYLE
  5
2D
102
{ACAD_REACTORS
330
2A
102
}
330
2A
100
AcDbVisualStyle
  2
Gouraud
 70
     2
 71
     2
 72
     2
 73
     1
 90
        2
 40
-0.6
 41
30.0
 62
     5
 63
     7
421
 16777215
 74
     0
 91
        4
 64
     7
 65
   257
 75
     1
175
     1
 42
1.0
 92
        0
 66
     7
 43
1.0
 76
     1
 77
     6
 78
     2
 67
     7
 79
     5
170
     0
171
     0
290
     0
174
     0
 93
       13
 44
0.0
173
     0
291
     1
 45
0.0
1001
ACAD
1000
AcDbSavedByObjectVersion
1070
     0
  0
VISUALSTYLE
  5
2E
102
{ACAD_REACTORS
330
2A
102
}
330
2A
100
AcDbVisualStyle
  2
GouraudWithEdges
 70
     3
 71
     2
 72
     2
 73
     1
 90
        2
 40
-0.6
 41
30.0
 62
     5
 63
     7
421
 16777215
 74
     1
 91
        4
 64
     7
 65
   257
 75
     1
175
     1
 42
1.0
 92
        0
 66
   257
 43
1.0
 76
     1
 77
     6
 78
     2
 67
     7
 79
     5
170
     0
171
     0
290
     0
174
     0
 93
       13
 44
0.0
173
     0
291
     1
 45
0.0
1001
ACAD
1000
AcDbSavedByObjectVersion
1070
     0
  0
VISUALSTYLE
  5
38
102
{ACAD_REACTORS
330
2A
102
}
330
2A
100
AcDbVisualStyle
  2
Linepattern
 70
    14
 71
     2
 72
     2
 73
     0
 90
        0
 40
-0.6
 41
-30.0
 62
     5
 63
     7
421
 16777215
 74
     1
 91
        4
 64
     7
 65
   257
 75
     7
175
     7
 42
1.0
 92
        8
 66
     7
 43
1.0
 76
     1
 77
     6
 78
     2
 67
     7
 79
     5
170
     0
171
     0
290
     0
174
     0
 93
        1
 44
0.0
173
     0
291
     1
 45
0.0
1001
ACAD
1000
AcDbSavedByObjectVersion
1070
     0
  0
VISUALSTYLE
  5
33
102
{ACAD_REACTORS
330
2A
102
}
330
2A
100
AcDbVisualStyle
  2
Realistic
 70
     8
 71
     2
 72
     2
 73
     0
 90
        0
 40
-0.6
 41
-30.0
 62
     5
 63
     7
421
 16777215
 74
     1
 91
        0
 64
     7
 65
   257
 75
     1
175
     1
 42
1.0
 92
        8
 66
     8
424
  7895160
 43
1.0
 76
     1
 77
     6
 78
     2
 67
     7
 79
     5
170
     0
171
     0
290
     0
174
     0
 93
       13
 44
0.0
173
     0
291
     0
 45
0.0
1001
ACAD
1000
AcDbSavedByObjectVersion
1070
     0
  0
VISUALSTYLE
  5
37
102
{ACAD_REACTORS
330
2A
102
}
330
2A
100
AcDbVisualStyle
  2
Thicken
 70
    13
 71
     2
 72
     2
 73
     0
 90
        0
 40
-0.6
 41
-30.0
 62
     5
 63
     7
421
 16777215
 74
     1
 91
        4
 64
     7
 65
   257
 75
     1
175
     1
 42
1.0
 92
       12
 66
     7
 43
1.0
 76
     1
 77
     6
 78
     2
 67
     7
 79
     5
170
     0
171
     0
290
     0
174
     0
 93
        1
 44
0.0
173
     0
291
     1
 45
0.0
1001
ACAD
1000
AcDbSavedByObjectVersion
1070
     0
  0
ENDSEC
  0
EOF
