  0
SECTION
  2
HEADER
  9
$ACADVER
  1
AC1018
  9
$ACADMAINTVER
 70
     0
  9
$DWGCODEPAGE
  3
ANSI_1252
  9
$INSBASE
 10
0.0
 20
0.0
 30
0.0
  9
$EXTMIN
 10
-9.083722463211124
 20
-0.0013866143408858
 30
0.0
  9
$EXTMAX
 10
37.32270715110628
 20
64.45782315035504
 30
0.0
  9
$LIMMIN
 10
0.0
 20
0.0
  9
$LIMMAX
 10
12.0
 20
9.0
  9
$ORTHOMODE
 70
     0
  9
$REGENMODE
 70
     1
  9
$FILLMODE
 70
     1
  9
$QTEXTMODE
 70
     0
  9
$MIRRTEXT
 70
     1
  9
$LTSCALE
 40
0.0393700787401575
  9
$ATTMODE
 70
     1
  9
$TEXTSIZE
 40
0.2
  9
$TRACEWID
 40
0.05
  9
$TEXTSTYLE
  7
Standard
  9
$CLAYER
  8
Default
  9
$CELTYPE
  6
ByLayer
  9
$CECOLOR
 62
   256
  9
$CELTSCALE
 40
1.0
  9
$DISPSILH
 70
     0
  9
$DIMSCALE
 40
1.0
  9
$DIMASZ
 40
0.18
  9
$DIMEXO
 40
0.0625
  9
$DIMDLI
 40
0.38
  9
$DIMRND
 40
0.0
  9
$DIMDLE
 40
0.0
  9
$DIMEXE
 40
0.18
  9
$DIMTP
 40
0.0
  9
$DIMTM
 40
0.0
  9
$DIMTXT
 40
0.18
  9
$DIMCEN
 40
0.09
  9
$DIMTSZ
 40
0.0
  9
$DIMTOL
 70
     0
  9
$DIMLIM
 70
     0
  9
$DIMTIH
 70
     1
  9
$DIMTOH
 70
     1
  9
$DIMSE1
 70
     0
  9
$DIMSE2
 70
     0
  9
$DIMTAD
 70
     0
  9
$DIMZIN
 70
     0
  9
$DIMBLK
  1

  9
$DIMASO
 70
     1
  9
$DIMSHO
 70
     1
  9
$DIMPOST
  1

  9
$DIMAPOST
  1

  9
$DIMALT
 70
     0
  9
$DIMALTD
 70
     2
  9
$DIMALTF
 40
25.4
  9
$DIMLFAC
 40
1.0
  9
$DIMTOFL
 70
     0
  9
$DIMTVP
 40
0.0
  9
$DIMTIX
 70
     0
  9
$DIMSOXD
 70
     0
  9
$DIMSAH
 70
     0
  9
$DIMBLK1
  1

  9
$DIMBLK2
  1

  9
$DIMSTYLE
  2
Standard
  9
$DIMCLRD
 70
     0
  9
$DIMCLRE
 70
     0
  9
$DIMCLRT
 70
     0
  9
$DIMTFAC
 40
1.0
  9
$DIMGAP
 40
0.09
  9
$DIMJUST
 70
     0
  9
$DIMSD1
 70
     0
  9
$DIMSD2
 70
     0
  9
$DIMTOLJ
 70
     1
  9
$DIMTZIN
 70
     0
  9
$DIMALTZ
 70
     0
  9
$DIMALTTZ
 70
     0
  9
$DIMUPT
 70
     0
  9
$DIMDEC
 70
     4
  9
$DIMTDEC
 70
     4
  9
$DIMALTU
 70
     2
  9
$DIMALTTD
 70
     2
  9
$DIMTXSTY
  7
Standard
  9
$DIMAUNIT
 70
     0
  9
$DIMADEC
 70
     0
  9
$DIMALTRND
 40
0.0
  9
$DIMAZIN
 70
     0
  9
$DIMDSEP
 70
    46
  9
$DIMATFIT
 70
     3
  9
$DIMFRAC
 70
     0
  9
$DIMLDRBLK
  1

  9
$DIMLUNIT
 70
     2
  9
$DIMLWD
 70
    -2
  9
$DIMLWE
 70
    -2
  9
$DIMTMOVE
 70
     2
  9
$LUNITS
 70
     2
  9
$LUPREC
 70
     3
  9
$SKETCHINC
 40
0.1
  9
$FILLETRAD
 40
0.5
  9
$AUNITS
 70
     0
  9
$AUPREC
 70
     0
  9
$MENU
  1
.
  9
$ELEVATION
 40
0.0
  9
$PELEVATION
 40
0.0
  9
$THICKNESS
 40
0.0
  9
$LIMCHECK
 70
     0
  9
$CHAMFERA
 40
0.5
  9
$CHAMFERB
 40
0.5
  9
$CHAMFERC
 40
1.0
  9
$CHAMFERD
 40
0.0
  9
$SKPOLY
 70
     0
  9
$TDCREATE
 40
2456428.694843565
  9
$TDUCREATE
 40
2456428.861510232
  9
$TDUPDATE
 40
2456428.694843576
  9
$TDUUPDATE
 40
2456428.861510243
  9
$TDINDWG
 40
0.0000000116
  9
$TDUSRTIMER
 40
0.0000000116
  9
$USRTIMER
 70
     1
  9
$ANGBASE
 50
0.0
  9
$ANGDIR
 70
     0
  9
$PDMODE
 70
     0
  9
$PDSIZE
 40
0.0
  9
$PLINEWID
 40
0.0
  9
$SPLFRAME
 70
     0
  9
$SPLINETYPE
 70
     6
  9
$SPLINESEGS
 70
     8
  9
$HANDSEED
  5
D5
  9
$SURFTAB1
 70
     6
  9
$SURFTAB2
 70
     6
  9
$SURFTYPE
 70
     6
  9
$SURFU
 70
     6
  9
$SURFV
 70
     6
  9
$UCSBASE
  2

  9
$UCSNAME
  2

  9
$UCSORG
 10
0.0
 20
0.0
 30
0.0
  9
$UCSXDIR
 10
1.0
 20
0.0
 30
0.0
  9
$UCSYDIR
 10
0.0
 20
1.0
 30
0.0
  9
$UCSORTHOREF
  2

  9
$UCSORTHOVIEW
 70
     0
  9
$UCSORGTOP
 10
0.0
 20
0.0
 30
0.0
  9
$UCSORGBOTTOM
 10
0.0
 20
0.0
 30
0.0
  9
$UCSORGLEFT
 10
0.0
 20
0.0
 30
0.0
  9
$UCSORGRIGHT
 10
0.0
 20
0.0
 30
0.0
  9
$UCSORGFRONT
 10
0.0
 20
0.0
 30
0.0
  9
$UCSORGBACK
 10
0.0
 20
0.0
 30
0.0
  9
$PUCSBASE
  2

  9
$PUCSNAME
  2

  9
$PUCSORG
 10
0.0
 20
0.0
 30
0.0
  9
$PUCSXDIR
 10
1.0
 20
0.0
 30
0.0
  9
$PUCSYDIR
 10
0.0
 20
1.0
 30
0.0
  9
$PUCSORTHOREF
  2

  9
$PUCSORTHOVIEW
 70
     0
  9
$PUCSORGTOP
 10
0.0
 20
0.0
 30
0.0
  9
$PUCSORGBOTTOM
 10
0.0
 20
0.0
 30
0.0
  9
$PUCSORGLEFT
 10
0.0
 20
0.0
 30
0.0
  9
$PUCSORGRIGHT
 10
0.0
 20
0.0
 30
0.0
  9
$PUCSORGFRONT
 10
0.0
 20
0.0
 30
0.0
  9
$PUCSORGBACK
 10
0.0
 20
0.0
 30
0.0
  9
$USERI1
 70
     0
  9
$USERI2
 70
     0
  9
$USERI3
 70
     0
  9
$USERI4
 70
     0
  9
$USERI5
 70
     0
  9
$USERR1
 40
0.0
  9
$USERR2
 40
0.0
  9
$USERR3
 40
0.0
  9
$USERR4
 40
0.0
  9
$USERR5
 40
0.0
  9
$WORLDVIEW
 70
     1
  9
$SHADEDGE
 70
     3
  9
$SHADEDIF
 70
    70
  9
$TILEMODE
 70
     1
  9
$MAXACTVP
 70
    64
  9
$PINSBASE
 10
0.0
 20
0.0
 30
0.0
  9
$PLIMCHECK
 70
     0
  9
$PEXTMIN
 10
1.000000000000000E+20
 20
1.000000000000000E+20
 30
1.000000000000000E+20
  9
$PEXTMAX
 10
-1.000000000000000E+20
 20
-1.000000000000000E+20
 30
-1.000000000000000E+20
  9
$PLIMMIN
 10
0.0
 20
0.0
  9
$PLIMMAX
 10
12.0
 20
9.0
  9
$UNITMODE
 70
     0
  9
$VISRETAIN
 70
     1
  9
$PLINEGEN
 70
     0
  9
$PSLTSCALE
 70
     1
  9
$TREEDEPTH
 70
  3020
  9
$CMLSTYLE
  2
Standard
  9
$CMLJUST
 70
     0
  9
$CMLSCALE
 40
1.0
  9
$PROXYGRAPHICS
 70
     1
  9
$MEASUREMENT
 70
     0
  9
$CELWEIGHT
370
    -1
  9
$ENDCAPS
280
     0
  9
$JOINSTYLE
280
     0
  9
$LWDISPLAY
290
     0
  9
$INSUNITS
 70
     1
  9
$HYPERLINKBASE
  1

  9
$STYLESHEET
  1

  9
$XEDIT
290
     1
  9
$CEPSNTYPE
380
     0
  9
$PSTYLEMODE
290
     1
  9
$FINGERPRINTGUID
  2
{79195C39-1360-471A-8547-F48C7F39789B}
  9
$VERSIONGUID
  2
{FAEB1C32-E019-11D5-929B-00C0DF256EC4}
  9
$EXTNAMES
290
     1
  9
$PSVPSCALE
 40
0.0
  9
$OLESTARTUP
290
     0
  9
$SORTENTS
280
   127
  9
$INDEXCTL
280
     0
  9
$HIDETEXT
280
     1
  9
$XCLIPFRAME
290
     0
  9
$HALOGAP
280
     0
  9
$OBSCOLOR
 70
   257
  9
$OBSLTYPE
280
     0
  9
$INTERSECTIONDISPLAY
280
     0
  9
$INTERSECTIONCOLOR
 70
   257
  9
$DIMASSOC
280
     2
  9
$PROJECTNAME
  1

  0
ENDSEC
  0
SECTION
  2
CLASSES
  0
CLASS
  1
ACDBDICTIONARYWDFLT
  2
AcDbDictionaryWithDefault
  3
ObjectDBX Classes
 90
        0
 91
        4
280
     0
281
     0
  0
CLASS
  1
VISUALSTYLE
  2
AcDbVisualStyle
  3
ObjectDBX Classes
 90
     4095
 91
        4
280
     0
281
     0
  0
ENDSEC
  0
SECTION
  2
TABLES
  0
TABLE
  2
VPORT
  5
8
330
0
100
AcDbSymbolTable
 70
     1
  0
VPORT
  5
29
330
8
100
AcDbSymbolTableRecord
100
AcDbViewportTableRecord
  2
*Active
 70
     0
 10
0.0
 20
0.0
 11
1.0
 21
1.0
 12
14.11949234394758
 22
32.22821826800708
 13
0.0
 23
0.0
 14
0.5
 24
0.5
 15
0.5
 25
0.5
 16
0.0
 26
0.0
 36
1.0
 17
0.0
 27
0.0
 37
0.0
 40
65.74839395998984
 41
0.7199348205434258
 42
50.0
 43
0.0
 44
0.0
 50
0.0
 51
0.0
 71
     0
 72
   100
 73
     1
 74
     3
 75
     0
 76
     0
 77
     0
 78
     0
281
     0
 65
     1
110
0.0
120
0.0
130
0.0
111
1.0
121
0.0
131
0.0
112
0.0
122
1.0
132
0.0
 79
     0
146
0.0
  0
ENDTAB
  0
TABLE
  2
LTYPE
  5
5
330
0
100
AcDbSymbolTable
 70
     1
  0
LTYPE
  5
14
330
5
100
AcDbSymbolTableRecord
100
AcDbLinetypeTableRecord
  2
ByBlock
 70
     0
  3

 72
    65
 73
     0
 40
0.0
  0
LTYPE
  5
15
330
5
100
AcDbSymbolTableRecord
100
AcDbLinetypeTableRecord
  2
ByLayer
 70
     0
  3

 72
    65
 73
     0
 40
0.0
  0
LTYPE
  5
16
330
5
100
AcDbSymbolTableRecord
100
AcDbLinetypeTableRecord
  2
Continuous
 70
     0
  3
Solid line
 72
    65
 73
     0
 40
0.0
  0
ENDTAB
  0
TABLE
  2
LAYER
  5
2
330
0
100
AcDbSymbolTable
 70
     2
  0
LAYER
  5
10
330
2
100
AcDbSymbolTableRecord
100
AcDbLayerTableRecord
  2
0
 70
     0
 62
     7
  6
Continuous
370
    -3
390
F
  0
LAYER
  5
3B
330
2
100
AcDbSymbolTableRecord
100
AcDbLayerTableRecord
  2
Default
 70
     0
 62
     7
  6
Continuous
370
    -3
390
F
  0
ENDTAB
  0
TABLE
  2
STYLE
  5
3
330
0
100
AcDbSymbolTable
 70
     1
  0
STYLE
  5
11
330
3
100
AcDbSymbolTableRecord
100
AcDbTextStyleTableRecord
  2
Standard
 70
     0
 40
0.0
 41
1.0
 50
0.0
 71
     0
 42
0.2
  3
txt
  4

  0
ENDTAB
  0
TABLE
  2
VIEW
  5
6
330
0
100
AcDbSymbolTable
 70
     0
  0
ENDTAB
  0
TABLE
  2
UCS
  5
7
330
0
100
AcDbSymbolTable
 70
     0
  0
ENDTAB
  0
TABLE
  2
APPID
  5
9
330
0
100
AcDbSymbolTable
 70
     1
  0
APPID
  5
12
330
9
100
AcDbSymbolTableRecord
100
AcDbRegAppTableRecord
  2
ACAD
 70
     0
  0
ENDTAB
  0
TABLE
  2
DIMSTYLE
  5
A
330
0
100
AcDbSymbolTable
 70
     1
100
AcDbDimStyleTable
  0
DIMSTYLE
105
27
330
A
100
AcDbSymbolTableRecord
100
AcDbDimStyleTableRecord
  2
Standard
 70
     0
340
11
  0
ENDTAB
  0
TABLE
  2
BLOCK_RECORD
  5
1
330
0
100
AcDbSymbolTable
 70
     1
  0
BLOCK_RECORD
  5
1F
330
1
100
AcDbSymbolTableRecord
100
AcDbBlockTableRecord
  2
*Model_Space
340
22
  0
BLOCK_RECORD
  5
1B
330
1
100
AcDbSymbolTableRecord
100
AcDbBlockTableRecord
  2
*Paper_Space
340
1E
  0
BLOCK_RECORD
  5
23
330
1
100
AcDbSymbolTableRecord
100
AcDbBlockTableRecord
  2
*Paper_Space0
340
26
  0
ENDTAB
  0
ENDSEC
  0
SECTION
  2
BLOCKS
  0
BLOCK
  5
20
330
1F
100
AcDbEntity
  8
0
100
AcDbBlockBegin
  2
*Model_Space
 70
     0
 10
0.0
 20
0.0
 30
0.0
  3
*Model_Space
  1

  0
ENDBLK
  5
21
330
1F
100
AcDbEntity
  8
0
100
AcDbBlockEnd
  0
BLOCK
  5
1C
330
1B
100
AcDbEntity
 67
     1
  8
0
100
AcDbBlockBegin
  2
*Paper_Space
 70
     0
 10
0.0
 20
0.0
 30
0.0
  3
*Paper_Space
  1

  0
ENDBLK
  5
1D
330
1B
100
AcDbEntity
 67
     1
  8
0
100
AcDbBlockEnd
  0
BLOCK
  5
24
330
23
100
AcDbEntity
  8
0
100
AcDbBlockBegin
  2
*Paper_Space0
 70
     0
 10
0.0
 20
0.0
 30
0.0
  3
*Paper_Space0
  1

  0
ENDBLK
  5
25
330
23
100
AcDbEntity
  8
0
100
AcDbBlockEnd
  0
ENDSEC
  0
SECTION
  2
ENTITIES
  0
SPLINE
  5
3C
330
1F
100
AcDbEntity
  8
Default
100
AcDbSpline
210
0.0
220
0.0
230
1.0
 70
    12
 71
     3
 72
    12
 73
     8
 74
     0
 42
0.0000000001
 43
0.0000000001
 40
0.7026700028335192
 40
0.7026700028335192
 40
0.7026700028335192
 40
0.7026700028335192
 40
0.8900700399148025
 40
0.8900700399148025
 40
1.088159301412289
 40
1.088159301412289
 40
1.431373207871321
 40
1.431373207871321
 40
1.431373207871321
 40
1.431373207871321
 10
-6.573620261528731
 20
7.6321161389853
 30
0.0
 41
1.0
 10
-6.569429853008359
 20
7.63156705044895
 30
0.0
 41
1.0
 10
-6.580517823500969
 20
7.653067707091504
 30
0.0
 41
1.0
 10
-6.624182683455558
 20
7.739139640421026
 30
0.0
 41
1.0
 10
-6.646851671859537
 20
7.781746045769378
 30
0.0
 41
1.0
 10
-6.651731791824261
 20
7.974554061299806
 30
0.0
 41
1.0
 10
-6.555087342819803
 20
8.069616159173334
 30
0.0
 41
1.0
 10
-6.546073180812897
 20
8.069616159121287
 30
0.0
 41
1.0
  0
SPLINE
  5
3D
330
1F
100
AcDbEntity
  8
Default
100
AcDbSpline
210
0.0
220
0.0
230
1.0
 70
    24
 71
     2
 72
     6
 73
     3
 74
     0
 42
0.0000000001
 43
0.0000000001
 40
-13.146920793648
 40
-13.146920793648
 40
-13.146920793648
 40
0.0
 40
0.0
 40
0.0
 10
6.573300532119205
 20
7.633964014951822
 30
0.0
 10
-0.0001598647047629
 20
7.633040076968561
 30
0.0
 10
-6.573620261528731
 20
7.6321161389853
 30
0.0
  0
SPLINE
  5
3E
330
1F
100
AcDbEntity
  8
Default
100
AcDbSpline
210
0.0
220
0.0
230
1.0
 70
    12
 71
     3
 72
    12
 73
     8
 74
     0
 42
0.0000000001
 43
0.0000000001
 40
-1.414133648256849
 40
-1.414133648256849
 40
-1.414133648256849
 40
-1.414133648256849
 40
-1.08828688698545
 40
-1.08828688698545
 40
-0.8901140918695095
 40
-0.8901140918695095
 40
-0.7495630696228271
 40
-0.7495630696228271
 40
-0.7495630696228271
 40
-0.7495630696228271
 10
6.547107605528367
 20
8.069260545434291
 30
0.0
 41
1.0
 10
6.564580945946972
 20
8.059997810892687
 30
0.0
 41
1.0
 10
6.651580836836388
 20
7.968456615877039
 30
0.0
 41
1.0
 10
6.646914586622557
 20
7.781784675952251
 30
0.0
 41
1.0
 10
6.624233580281583
 20
7.739165425676724
 30
0.0
 41
1.0
 10
6.585864198661369
 20
7.663529557673633
 30
0.0
 41
1.0
 10
6.575646482502663
 20
7.643588871091665
 30
0.0
 41
1.0
 10
6.573300532119205
 20
7.633964014951822
 30
0.0
 41
1.0
  0
SPLINE
  5
3F
330
1F
100
AcDbEntity
  8
Default
100
AcDbSpline
210
0.0
220
0.0
230
1.0
 70
    24
 71
     2
 72
     6
 73
     3
 74
     0
 42
0.0000000001
 43
0.0000000001
 40
0.0
 40
0.0
 40
0.0
 40
13.09218135805213
 40
13.09218135805213
 40
13.09218135805213
 10
-6.546073180812897
 20
8.069616159121287
 30
0.0
 10
0.0005172123577353
 20
8.069438352277789
 30
0.0
 10
6.547107605528367
 20
8.069260545434291
 30
0.0
  0
SPLINE
  5
40
330
1F
100
AcDbEntity
  8
Default
100
AcDbSpline
210
0.0
220
0.0
230
1.0
 70
     8
 71
     3
 72
    31
 73
    27
 74
     0
 42
0.0000000001
 43
0.0000000001
 40
0.0
 40
0.0
 40
0.0
 40
0.0
 40
1.0
 40
2.0
 40
3.0
 40
4.0
 40
5.0
 40
6.0
 40
7.0
 40
8.0
 40
9.0
 40
10.0
 40
11.0
 40
12.0
 40
13.0
 40
14.0
 40
15.0
 40
16.0
 40
17.0
 40
18.0
 40
19.0
 40
20.0
 40
21.0
 40
22.0
 40
23.0
 40
24.0
 40
24.0
 40
24.0
 40
24.0
 10
-1.924821179876304
 20
36.26959679406377
 30
0.0
 10
-2.252978759554807
 20
36.21788926407941
 30
0.0
 10
-2.903266935224153
 20
36.06582602593851
 30
0.0
 10
-3.815459081443862
 20
35.6526256795379
 30
0.0
 10
-4.647136997233858
 20
35.09801103652996
 30
0.0
 10
-5.38492891220092
 20
34.42038512275465
 30
0.0
 10
-5.972785939591105
 20
33.61059281629017
 30
0.0
 10
-6.449687561163785
 20
32.73329686323077
 30
0.0
 10
-6.84735372505898
 20
31.81819418997285
 30
0.0
 10
-7.186351844389648
 20
30.88022397902251
 30
0.0
 10
-7.526093924677596
 20
29.94272582161674
 30
0.0
 10
-7.843559448161386
 20
28.9975360973491
 30
0.0
 10
-8.121847527940332
 20
28.03884348257265
 30
0.0
 10
-8.357123309203075
 20
27.07299140553875
 30
0.0
 10
-8.567502213446986
 20
26.085943906331
 30
0.0
 10
-8.766851651958675
 20
25.15482268426464
 30
0.0
 10
-9.005330792544939
 20
24.01470959437122
 30
0.0
 10
-7.960121100170809
 20
23.59468870702074
 30
0.0
 10
-6.981363326844459
 20
23.5922496563546
 30
0.0
 10
-5.980370382811998
 20
23.54073335394687
 30
0.0
 10
-4.98526781483578
 20
23.50376811825135
 30
0.0
 10
-3.98820129644055
 20
23.47367969886154
 30
0.0
 10
-2.991379225618999
 20
23.45198428441226
 30
0.0
 10
-1.994307339703042
 20
23.43733788435316
 30
0.0
 10
-0.9971955778169672
 20
23.42916411941105
 30
0.0
 10
-0.3324279573982949
 20
23.42750768354041
 30
0.0
 10
-0.0000455719869024
 20
23.42750804104382
 30
0.0
  0
SPLINE
  5
41
330
1F
100
AcDbEntity
  8
Default
100
AcDbSpline
210
0.0
220
0.0
230
1.0
 70
    12
 71
     2
 72
     6
 73
     3
 74
     0
 42
0.0000000001
 43
0.0000000001
 40
0.0
 40
0.0
 40
0.0
 40
1.931280518808496
 40
1.931280518808496
 40
1.931280518808496
 10
-0.000042829434193
 20
36.40339504997275
 30
0.0
 41
1.0
 10
-0.967522084434781
 20
36.40972016363705
 30
0.0
 41
0.9971191606784069
 10
-1.924821179876298
 20
36.26959679406379
 30
0.0
 41
0.999999999537475
  0
SPLINE
  5
42
330
1F
100
AcDbEntity
  8
Default
100
AcDbSpline
210
0.0
220
0.0
230
1.0
 70
     8
 71
     3
 72
    25
 73
    21
 74
     0
 42
0.0000000001
 43
0.0000000001
 40
0.0
 40
0.0
 40
0.0
 40
0.0
 40
1.0
 40
2.0
 40
3.0
 40
4.0
 40
5.0
 40
6.0
 40
7.0
 40
8.0
 40
9.0
 40
10.0
 40
11.0
 40
12.0
 40
13.0
 40
14.0
 40
15.0
 40
16.0
 40
17.0
 40
18.0
 40
18.0
 40
18.0
 40
18.0
 10
-7.861817141868556
 20
27.0581430094342
 30
0.0
 10
-7.908945866784947
 20
26.8529773290986
 30
0.0
 10
-8.000180530312747
 20
26.4412125190644
 30
0.0
 10
-8.119929113703407
 20
25.82266242562573
 30
0.0
 10
-8.238078986803842
 20
25.19554152007378
 30
0.0
 10
-8.330442478040041
 20
24.59415806555263
 30
0.0
 10
-8.291628144749637
 20
23.86537840159067
 30
0.0
 10
-7.559518048230345
 20
23.79190110012639
 30
0.0
 10
-6.955248435506903
 20
23.78094009814922
 30
0.0
 10
-6.316094264756998
 20
23.7790318440672
 30
0.0
 10
-5.686281524731086
 20
23.77411195501859
 30
0.0
 10
-5.054105528628625
 20
23.75970007567999
 30
0.0
 10
-4.422461623096908
 20
23.7545596137952
 30
0.0
 10
-3.790669746132608
 20
23.74739904948884
 30
0.0
 10
-3.1589191804309
 20
23.7405957507572
 30
0.0
 10
-2.527155339306148
 20
23.73394497488895
 30
0.0
 10
-1.895387925571555
 20
23.72793079395263
 30
0.0
 10
-1.263611157602156
 20
23.72288637052561
 30
0.0
 10
-0.6318201082488031
 20
23.71987217713946
 30
0.0
 10
-0.2106212448747016
 20
23.71989430583003
 30
0.0
 10
-0.000023337682066
 20
23.72058499009771
 30
0.0
  0
SPLINE
  5
43
330
1F
100
AcDbEntity
  8
Default
100
AcDbSpline
210
0.0
220
0.0
230
1.0
 70
     8
 71
     3
 72
    24
 73
    20
 74
     0
 42
0.0000000001
 43
0.0000000001
 40
0.0
 40
0.0
 40
0.0
 40
0.0
 40
1.0
 40
2.0
 40
3.0
 40
4.0
 40
5.0
 40
6.0
 40
7.0
 40
8.0
 40
9.0
 40
10.0
 40
11.0
 40
12.0
 40
13.0
 40
14.0
 40
15.0
 40
16.0
 40
17.0
 40
17.0
 40
17.0
 40
17.0
 10
4.317161930101861
 20
35.31912930543218
 30
0.0
 10
4.587656281801614
 20
35.13474985289583
 30
0.0
 10
5.10274347530428
 20
34.72699434630625
 30
0.0
 10
5.76214230523351
 20
33.99380845020948
 30
0.0
 10
6.290927628112627
 20
33.16358068811821
 30
0.0
 10
6.739516330366968
 20
32.2891288040234
 30
0.0
 10
7.136893144497321
 20
31.39052991783851
 30
0.0
 10
7.49552664015323
 20
30.47596754838947
 30
0.0
 10
7.834697540490282
 20
29.55406846311755
 30
0.0
 10
8.146259048057544
 20
28.62242323604887
 30
0.0
 10
8.420222910439378
 20
27.67872883114971
 30
0.0
 10
8.655726279058015
 20
26.72573679853905
 30
0.0
 10
8.863641926834617
 20
25.76281597835158
 30
0.0
 10
9.04402647762329
 20
24.80774301381701
 30
0.0
 10
9.155606526857497
 20
23.79102520664863
 30
0.0
 10
8.562004319965112
 20
22.95210428128176
 30
0.0
 10
7.749285858080924
 20
22.39474836629845
 30
0.0
 10
6.838693042756887
 20
22.01550232442232
 30
0.0
 10
6.209737244990322
 20
21.83263444211251
 30
0.0
 10
5.891851700362665
 20
21.75390883167851
 30
0.0
  0
SPLINE
  5
44
330
1F
100
AcDbEntity
  8
Default
100
AcDbSpline
210
0.0
220
0.0
230
1.0
 70
    12
 71
     2
 72
     6
 73
     3
 74
     0
 42
0.0000000001
 43
0.0000000001
 40
0.0
 40
0.0
 40
0.0
 40
1.053377914518295
 40
1.053377914518295
 40
1.053377914518295
 10
-7.4718703567288
 20
24.84920749159921
 30
0.0
 41
1.0
 10
-7.471751826902238
 20
24.32251854767144
 30
0.0
 41
0.9999999999828493
 10
-7.471639466431299
 20
23.7958296023914
 30
0.0
 41
1.0
  0
SPLINE
  5
45
330
1F
100
AcDbEntity
  8
Default
100
AcDbSpline
210
0.0
220
0.0
230
1.0
 70
     8
 71
     3
 72
     8
 73
     4
 74
     0
 42
0.0000000001
 43
0.0000000001
 40
0.0
 40
0.0
 40
0.0
 40
0.0
 40
1.0
 40
1.0
 40
1.0
 40
1.0
 10
-7.030367395744591
 20
25.35490424069634
 30
0.0
 10
-7.246945429700418
 20
25.29863142954319
 30
0.0
 10
-7.471920715349739
 20
25.07297672883092
 30
0.0
 10
-7.4718703567288
 20
24.84920749159921
 30
0.0
  0
SPLINE
  5
46
330
1F
100
AcDbEntity
  8
Default
100
AcDbSpline
210
0.0
220
0.0
230
1.0
 70
     8
 71
     3
 72
    12
 73
     8
 74
     0
 42
0.0000000001
 43
0.0000000001
 40
0.0
 40
0.0
 40
0.0
 40
0.0
 40
1.300874960309146
 40
2.476256366334871
 40
4.482385878543031
 40
6.0182617026045
 40
7.055352586087446
 40
7.055352586087446
 40
7.055352586087446
 40
7.055352586087446
 10
-0.0000347678853103
 20
25.77693085474348
 30
0.0
 10
-0.4336658680988563
 20
25.77700365809675
 30
0.0
 10
-1.259072628161874
 20
25.77314802847351
 30
0.0
 10
-2.753055427741458
 20
25.74930986219075
 30
0.0
 10
-4.324654135019017
 20
25.69279700394346
 30
0.0
 10
-5.847054618998087
 20
25.57483947832295
 30
0.0
 10
-6.695417154683284
 20
25.44193334201689
 30
0.0
 10
-7.030367395744591
 20
25.35490424069634
 30
0.0
  0
SPLINE
  5
47
330
1F
100
AcDbEntity
  8
Default
100
AcDbSpline
210
0.0
220
0.0
230
1.0
 70
     8
 71
     3
 72
    24
 73
    20
 74
     0
 42
0.0000000001
 43
0.0000000001
 40
0.0
 40
0.0
 40
0.0
 40
0.0
 40
1.0
 40
2.0
 40
3.0
 40
4.0
 40
5.0
 40
6.0
 40
7.0
 40
8.0
 40
9.0
 40
10.0
 40
11.0
 40
12.0
 40
13.0
 40
14.0
 40
15.0
 40
16.0
 40
17.0
 40
17.0
 40
17.0
 40
17.0
 10
-4.317192615190947
 20
35.31912930543218
 30
0.0
 10
-4.587686966890701
 20
35.13474985289583
 30
0.0
 10
-5.102774160393366
 20
34.72699434630625
 30
0.0
 10
-5.762172990322597
 20
33.99380845020948
 30
0.0
 10
-6.290958313201713
 20
33.16358068811821
 30
0.0
 10
-6.739547015456054
 20
32.2891288040234
 30
0.0
 10
-7.136923829586408
 20
31.39052991783851
 30
0.0
 10
-7.495557325242316
 20
30.47596754838947
 30
0.0
 10
-7.834728225579369
 20
29.55406846311755
 30
0.0
 10
-8.14628973314663
 20
28.62242323604887
 30
0.0
 10
-8.420253595528465
 20
27.67872883114971
 30
0.0
 10
-8.655756964147102
 20
26.72573679853905
 30
0.0
 10
-8.863672611923704
 20
25.76281597835158
 30
0.0
 10
-9.044057162712377
 20
24.80774301381701
 30
0.0
 10
-9.155637211946583
 20
23.79102520664863
 30
0.0
 10
-8.562035005054199
 20
22.95210428128176
 30
0.0
 10
-7.749316543170011
 20
22.39474836629845
 30
0.0
 10
-6.838723727845974
 20
22.01550232442232
 30
0.0
 10
-6.209767930079408
 20
21.83263444211251
 30
0.0
 10
-5.891882385451751
 20
21.75390883167851
 30
0.0
  0
SPLINE
  5
48
330
1F
100
AcDbEntity
  8
Default
100
AcDbSpline
210
0.0
220
0.0
230
1.0
 70
    12
 71
     2
 72
     6
 73
     3
 74
     0
 42
0.0000000001
 43
0.0000000001
 40
0.0
 40
0.0
 40
0.0
 40
1.053377914518295
 40
1.053377914518295
 40
1.053377914518295
 10
7.471839671639714
 20
24.84920749159921
 30
0.0
 41
1.0
 10
7.471721141813145
 20
24.32251854767144
 30
0.0
 41
0.9999999999828493
 10
7.471608781342212
 20
23.7958296023914
 30
0.0
 41
1.0
  0
SPLINE
  5
49
330
1F
100
AcDbEntity
  8
Default
100
AcDbSpline
210
0.0
220
0.0
230
1.0
 70
     8
 71
     3
 72
     8
 73
     4
 74
     0
 42
0.0000000001
 43
0.0000000001
 40
0.0
 40
0.0
 40
0.0
 40
0.0
 40
1.0
 40
1.0
 40
1.0
 40
1.0
 10
7.030336710655504
 20
25.35490424069634
 30
0.0
 10
7.246914744611331
 20
25.29863142954319
 30
0.0
 10
7.471890030260653
 20
25.07297672883092
 30
0.0
 10
7.471839671639714
 20
24.84920749159921
 30
0.0
  0
SPLINE
  5
4A
330
1F
100
AcDbEntity
  8
Default
100
AcDbSpline
210
0.0
220
0.0
230
1.0
 70
     8
 71
     3
 72
    12
 73
     8
 74
     0
 42
0.0000000001
 43
0.0000000001
 40
0.0
 40
0.0
 40
0.0
 40
0.0
 40
1.300874960309146
 40
2.476256366334871
 40
4.482385878543031
 40
6.0182617026045
 40
7.055352586087446
 40
7.055352586087446
 40
7.055352586087446
 40
7.055352586087446
 10
0.0000040827962238
 20
25.77693085474348
 30
0.0
 10
0.4336351830097698
 20
25.77700365809675
 30
0.0
 10
1.259041943072788
 20
25.77314802847351
 30
0.0
 10
2.753024742652372
 20
25.74930986219075
 30
0.0
 10
4.324623449929931
 20
25.69279700394346
 30
0.0
 10
5.847023933909
 20
25.57483947832295
 30
0.0
 10
6.695386469594197
 20
25.44193334201689
 30
0.0
 10
7.030336710655504
 20
25.35490424069634
 30
0.0
  0
SPLINE
  5
4B
330
1F
100
AcDbEntity
  8
Default
100
AcDbSpline
210
0.0
220
0.0
230
1.0
 70
     8
 71
     3
 72
    25
 73
    21
 74
     0
 42
0.0000000001
 43
0.0000000001
 40
0.0
 40
0.0
 40
0.0
 40
0.0
 40
1.0
 40
2.0
 40
3.0
 40
4.0
 40
5.0
 40
6.0
 40
7.0
 40
8.0
 40
9.0
 40
10.0
 40
11.0
 40
12.0
 40
13.0
 40
14.0
 40
15.0
 40
16.0
 40
17.0
 40
18.0
 40
18.0
 40
18.0
 40
18.0
 10
7.86178645677947
 20
27.0581430094342
 30
0.0
 10
7.90891518169586
 20
26.8529773290986
 30
0.0
 10
8.00014984522366
 20
26.4412125190644
 30
0.0
 10
8.11989842861432
 20
25.82266242562573
 30
0.0
 10
8.238048301714755
 20
25.19554152007378
 30
0.0
 10
8.330411792950954
 20
24.59415806555263
 30
0.0
 10
8.29159745966055
 20
23.86537840159067
 30
0.0
 10
7.559487363141258
 20
23.79190110012639
 30
0.0
 10
6.955217750417816
 20
23.78094009814922
 30
0.0
 10
6.316063579667912
 20
23.7790318440672
 30
0.0
 10
5.686250839642
 20
23.77411195501859
 30
0.0
 10
5.054074843539539
 20
23.75970007567999
 30
0.0
 10
4.422430938007821
 20
23.7545596137952
 30
0.0
 10
3.790639061043521
 20
23.74739904948884
 30
0.0
 10
3.158888495341813
 20
23.7405957507572
 30
0.0
 10
2.527124654217062
 20
23.73394497488895
 30
0.0
 10
1.895357240482468
 20
23.72793079395263
 30
0.0
 10
1.26358047251307
 20
23.72288637052561
 30
0.0
 10
0.6317894231597165
 20
23.71987217713946
 30
0.0
 10
0.210590559785615
 20
23.71989430583003
 30
0.0
 10
-0.0000073474070206
 20
23.72058499009771
 30
0.0
  0
SPLINE
  5
4C
330
1F
100
AcDbEntity
  8
Default
100
AcDbSpline
210
0.0
220
0.0
230
1.0
 70
     8
 71
     3
 72
    31
 73
    27
 74
     0
 42
0.0000000001
 43
0.0000000001
 40
0.0
 40
0.0
 40
0.0
 40
0.0
 40
1.0
 40
2.0
 40
3.0
 40
4.0
 40
5.0
 40
6.0
 40
7.0
 40
8.0
 40
9.0
 40
10.0
 40
11.0
 40
12.0
 40
13.0
 40
14.0
 40
15.0
 40
16.0
 40
17.0
 40
18.0
 40
19.0
 40
20.0
 40
21.0
 40
22.0
 40
23.0
 40
24.0
 40
24.0
 40
24.0
 40
24.0
 10
1.924790494787217
 20
36.26959679406377
 30
0.0
 10
2.252948074465721
 20
36.21788926407941
 30
0.0
 10
2.903236250135066
 20
36.06582602593851
 30
0.0
 10
3.815428396354775
 20
35.6526256795379
 30
0.0
 10
4.647106312144771
 20
35.09801103652996
 30
0.0
 10
5.384898227111833
 20
34.42038512275465
 30
0.0
 10
5.972755254502019
 20
33.61059281629017
 30
0.0
 10
6.449656876074698
 20
32.73329686323077
 30
0.0
 10
6.847323039969893
 20
31.81819418997285
 30
0.0
 10
7.186321159300562
 20
30.88022397902251
 30
0.0
 10
7.52606323958851
 20
29.94272582161674
 30
0.0
 10
7.8435287630723
 20
28.9975360973491
 30
0.0
 10
8.121816842851246
 20
28.03884348257265
 30
0.0
 10
8.357092624113989
 20
27.07299140553875
 30
0.0
 10
8.567471528357899
 20
26.085943906331
 30
0.0
 10
8.766820966869588
 20
25.15482268426464
 30
0.0
 10
9.005300107455852
 20
24.01470959437122
 30
0.0
 10
7.960090415081723
 20
23.59468870702074
 30
0.0
 10
6.981332641755372
 20
23.5922496563546
 30
0.0
 10
5.980339697722911
 20
23.54073335394687
 30
0.0
 10
4.985237129746693
 20
23.50376811825135
 30
0.0
 10
3.988170611351464
 20
23.47367969886154
 30
0.0
 10
2.991348540529913
 20
23.45198428441226
 30
0.0
 10
1.994276654613955
 20
23.43733788435316
 30
0.0
 10
0.9971648927278807
 20
23.42916411941105
 30
0.0
 10
0.3323972723092083
 20
23.42750768354041
 30
0.0
 10
0.0000148868978158
 20
23.42750804104382
 30
0.0
  0
SPLINE
  5
4D
330
1F
100
AcDbEntity
  8
Default
100
AcDbSpline
210
0.0
220
0.0
230
1.0
 70
    12
 71
     2
 72
     6
 73
     3
 74
     0
 42
0.0000000001
 43
0.0000000001
 40
0.0
 40
0.0
 40
0.0
 40
1.931280518808496
 40
1.931280518808496
 40
1.931280518808496
 10
0.0000121443451064
 20
36.40339504997275
 30
0.0
 41
1.0
 10
0.9674913993456978
 20
36.40972016363705
 30
0.0
 41
0.9971191606784069
 10
1.924790494787216
 20
36.26959679406379
 30
0.0
 41
0.999999999537475
  0
SPLINE
  5
4E
330
1F
100
AcDbEntity
  8
Default
100
AcDbSpline
210
0.0
220
0.0
230
1.0
 70
     8
 71
     3
 72
     8
 73
     4
 74
     0
 42
0.0000000001
 43
0.0000000001
 40
0.0
 40
0.0
 40
0.0
 40
0.0
 40
1.0
 40
1.0
 40
1.0
 40
1.0
 10
7.040164350993424
 20
0.2753990371791719
 30
0.0
 10
7.210342121251147
 20
0.3253272276043919
 30
0.0
 10
7.552377415934375
 20
0.3506631753587062
 30
0.0
 10
7.664912158564677
 20
0.2976194056619637
 30
0.0
  0
LINE
  5
4F
330
1F
100
AcDbEntity
  8
Default
100
AcDbLine
 10
7.06230124878711
 20
0.0533021838226819
 30
0.0
 11
7.040164350993424
 21
0.2753990371791719
 31
0.0
  0
SPLINE
  5
50
330
1F
100
AcDbEntity
  8
Default
100
AcDbSpline
210
0.0
220
0.0
230
1.0
 70
    12
 71
     2
 72
     6
 73
     3
 74
     0
 42
0.0000000001
 43
0.0000000001
 40
0.0
 40
0.0
 40
0.0
 40
0.0886388093994123
 40
0.0886388093994123
 40
0.0886388093994123
 10
7.127047974642879
 20
-0.0013866143268597
 30
0.0
 41
1.0
 10
7.070710008083597
 20
-0.0013316660434072
 30
0.0
 41
0.7594651808225202
 10
7.06230124878711
 20
0.0533021838226819
 30
0.0
 41
1.0
  0
SPLINE
  5
51
330
1F
100
AcDbEntity
  8
Default
100
AcDbSpline
210
0.0
220
0.0
230
1.0
 70
    28
 71
     3
 72
    12
 73
     8
 74
     0
 42
0.0000000001
 43
0.0000000001
 40
-0.9902250190793587
 40
-0.9902250190793587
 40
-0.9902250190793587
 40
-0.9902250190793587
 40
-0.9407689708371832
 40
-0.7584478985639477
 40
-0.5643157541358403
 40
-0.3778603997756935
 40
-0.1898050790197806
 40
-0.1898050790197806
 40
-0.1898050790197806
 40
-0.1898050790197806
 10
7.608841746753258
 20
-0.0013866143394363
 30
0.0
 41
1.0
 10
7.60771368432937
 20
-0.0013866143408858
 30
0.0
 41
1.0
 10
7.595891498861294
 20
-0.0013866143408858
 30
0.0
 41
1.0
 10
7.507751777496468
 20
-0.0013866143408858
 30
0.0
 41
1.0
 10
7.311806540481159
 20
-0.0013866143408858
 30
0.0
 41
1.0
 10
7.146637975518603
 20
-0.0013866143408858
 30
0.0
 41
1.0
 10
7.117780635454226
 20
-0.0013866143408858
 30
0.0
 41
1.0
 10
7.127047974642879
 20
-0.0013866143268597
 30
0.0
 41
1.0
  0
SPLINE
  5
52
330
1F
100
AcDbEntity
  8
Default
100
AcDbSpline
210
0.0
220
0.0
230
1.0
 70
    12
 71
     2
 72
     8
 73
     5
 74
     0
 42
0.0000000001
 43
0.0000000001
 40
0.0
 40
0.0
 40
0.0
 40
0.0498965464319534
 40
0.0498965464319534
 40
0.0997930928639067
 40
0.0997930928639067
 40
0.0997930928639067
 10
7.67153795408163
 20
0.0630958495271177
 30
0.0
 41
1.0
 10
7.672104811581939
 20
0.0365705788941457
 30
0.0
 41
0.9222573873671466
 10
7.65374744077309
 20
0.0176721625413183
 30
0.0
 41
1.0
 10
7.635390069964231
 20
-0.0012262538115073
 30
0.0
 41
0.9222573873671466
 10
7.608841746753258
 20
-0.0013866143394363
 30
0.0
 41
1.0
  0
SPLINE
  5
53
330
1F
100
AcDbEntity
  8
Default
100
AcDbSpline
210
0.0
220
0.0
230
1.0
 70
    24
 71
     2
 72
     6
 73
     3
 74
     0
 42
0.0000000001
 43
0.0000000001
 40
0.0112693750261376
 40
0.0112693750261376
 40
0.0112693750261376
 40
0.2457020426146733
 40
0.2457020426146733
 40
0.2457020426146733
 10
7.664912158564677
 20
0.2976194056619637
 30
0.0
 10
7.668225056323154
 20
0.1803576275945407
 30
0.0
 10
7.67153795408163
 20
0.0630958495271177
 30
0.0
  0
SPLINE
  5
54
330
1F
100
AcDbEntity
  8
Default
100
AcDbSpline
210
0.0
220
0.0
230
1.0
 70
     8
 71
     3
 72
     8
 73
     4
 74
     0
 42
0.0000000001
 43
0.0000000001
 40
0.0
 40
0.0
 40
0.0
 40
0.0
 40
1.0
 40
1.0
 40
1.0
 40
1.0
 10
6.198243504131844
 20
0.2674532579615629
 30
0.0
 10
6.287510388059289
 20
0.2020043138293124
 30
0.0
 10
6.763420199603081
 20
0.2399657607370429
 30
0.0
 10
6.821435317669106
 20
0.3147566749017692
 30
0.0
  0
SPLINE
  5
55
330
1F
100
AcDbEntity
  8
Default
100
AcDbSpline
210
0.0
220
0.0
230
1.0
 70
    12
 71
     3
 72
    15
 73
    11
 74
     0
 42
0.0000000001
 43
0.0000000001
 40
-0.6043536923734509
 40
-0.6043536923734509
 40
-0.6043536923734509
 40
-0.6043536923734509
 40
-0.3940508536951049
 40
-0.3039948359399878
 40
-0.3039948359399878
 40
-0.3039948359399878
 40
-0.2127823121782243
 40
-0.2127823121782243
 40
-0.2127823121782243
 40
-0.0008992804480281
 40
-0.0008992804480281
 40
-0.0008992804480281
 40
-0.0008992804480281
 10
6.769144459907712
 20
0.0002358905957016
 30
0.0
 41
0.9999999999999996
 10
6.361791161817782
 20
0.0002358905886672
 30
0.0
 41
0.9999999999999996
 10
6.292902812016057
 20
0.0002358905886672
 30
0.0
 41
0.9999999999999996
 10
6.282748333272896
 20
0.0002358905886672
 30
0.0
 41
0.9999999999999996
 10
6.284756901451122
 20
0.0002358909040772
 30
0.0
 41
0.9999999999999996
 10
6.250941712285512
 20
0.0002673550449489
 30
0.0
 41
0.830419280427055
 10
6.22573700673783
 20
0.0227537953861379
 30
0.0
 41
0.830419280427055
 10
6.221965481118279
 20
0.0562554117265655
 30
0.0
 41
0.9999999999999996
 10
6.214151819383392
 20
0.1265860200861365
 30
0.0
 41
0.9999999999999996
 10
6.206338157648493
 20
0.1969166284457074
 30
0.0
 41
0.9999999999999996
 10
6.198243504131844
 20
0.2674532579615626
 30
0.0
 41
0.9999999999999996
  0
SPLINE
  5
56
330
1F
100
AcDbEntity
  8
Default
100
AcDbSpline
210
0.0
220
0.0
230
1.0
 70
    12
 71
     2
 72
     6
 73
     3
 74
     0
 42
0.0000000001
 43
0.0000000001
 40
0.0
 40
0.0
 40
0.0
 40
0.0983833880405574
 40
0.0983833880405574
 40
0.0983833880405574
 10
6.831631142339072
 20
0.0639698902416193
 30
0.0
 41
1.0
 10
6.831629866829272
 20
0.0006454693400614
 30
0.0
 41
0.7093828823289784
 10
6.769144459907716
 20
0.0002358905957003
 30
0.0
 41
1.0
  0
SPLINE
  5
57
330
1F
100
AcDbEntity
  8
Default
100
AcDbSpline
210
0.0
220
0.0
230
1.0
 70
    24
 71
     2
 72
     6
 73
     3
 74
     0
 42
0.0000000001
 43
0.0000000001
 40
0.0046342320447379
 40
0.0046342320447379
 40
0.0046342320447379
 40
0.2397717635142957
 40
0.2397717635142957
 40
0.2397717635142957
 10
6.822311721775003
 20
0.2997600238679006
 30
0.0
 10
6.826971432057038
 20
0.1818649570547599
 30
0.0
 10
6.831631142339072
 20
0.0639698902416193
 30
0.0
  0
LINE
  5
58
330
1F
100
AcDbEntity
  8
Default
100
AcDbLine
 10
6.821435317669106
 20
0.3147566749017692
 30
0.0
 11
6.822311721775003
 21
0.2997600238679006
 31
0.0
  0
SPLINE
  5
59
330
1F
100
AcDbEntity
  8
Default
100
AcDbSpline
210
0.0
220
0.0
230
1.0
 70
     8
 71
     3
 72
     8
 73
     4
 74
     0
 42
0.0000000001
 43
0.0000000001
 40
0.0
 40
0.0
 40
0.0
 40
0.0
 40
1.0
 40
1.0
 40
1.0
 40
1.0
 10
-7.040164350993424
 20
0.2753990371791719
 30
0.0
 10
-7.210342121251147
 20
0.3253272276043919
 30
0.0
 10
-7.552377415934375
 20
0.3506631753587062
 30
0.0
 10
-7.664912158564677
 20
0.2976194056619637
 30
0.0
  0
LINE
  5
5A
330
1F
100
AcDbEntity
  8
Default
100
AcDbLine
 10
-7.06230124878711
 20
0.0533021838226819
 30
0.0
 11
-7.040164350993424
 21
0.2753990371791719
 31
0.0
  0
SPLINE
  5
5B
330
1F
100
AcDbEntity
  8
Default
100
AcDbSpline
210
0.0
220
0.0
230
1.0
 70
    12
 71
     2
 72
     6
 73
     3
 74
     0
 42
0.0000000001
 43
0.0000000001
 40
0.0
 40
0.0
 40
0.0
 40
0.0886388093994123
 40
0.0886388093994123
 40
0.0886388093994123
 10
-7.127047974642879
 20
-0.0013866143268597
 30
0.0
 41
1.0
 10
-7.070710008083597
 20
-0.0013316660434072
 30
0.0
 41
0.7594651808225202
 10
-7.06230124878711
 20
0.0533021838226819
 30
0.0
 41
1.0
  0
SPLINE
  5
5C
330
1F
100
AcDbEntity
  8
Default
100
AcDbSpline
210
0.0
220
0.0
230
1.0
 70
    28
 71
     3
 72
    12
 73
     8
 74
     0
 42
0.0000000001
 43
0.0000000001
 40
-0.9902250190793587
 40
-0.9902250190793587
 40
-0.9902250190793587
 40
-0.9902250190793587
 40
-0.9407689708371832
 40
-0.7584478985639477
 40
-0.5643157541358403
 40
-0.3778603997756935
 40
-0.1898050790197806
 40
-0.1898050790197806
 40
-0.1898050790197806
 40
-0.1898050790197806
 10
-7.608841746753258
 20
-0.0013866143394363
 30
0.0
 41
1.0
 10
-7.60771368432937
 20
-0.0013866143408858
 30
0.0
 41
1.0
 10
-7.595891498861294
 20
-0.0013866143408858
 30
0.0
 41
1.0
 10
-7.507751777496468
 20
-0.0013866143408858
 30
0.0
 41
1.0
 10
-7.311806540481159
 20
-0.0013866143408858
 30
0.0
 41
1.0
 10
-7.146637975518603
 20
-0.0013866143408858
 30
0.0
 41
1.0
 10
-7.117780635454226
 20
-0.0013866143408858
 30
0.0
 41
1.0
 10
-7.127047974642879
 20
-0.0013866143268597
 30
0.0
 41
1.0
  0
SPLINE
  5
5D
330
1F
100
AcDbEntity
  8
Default
100
AcDbSpline
210
0.0
220
0.0
230
1.0
 70
    12
 71
     2
 72
     8
 73
     5
 74
     0
 42
0.0000000001
 43
0.0000000001
 40
0.0
 40
0.0
 40
0.0
 40
0.0498965464319534
 40
0.0498965464319534
 40
0.0997930928639067
 40
0.0997930928639067
 40
0.0997930928639067
 10
-7.67153795408163
 20
0.0630958495271177
 30
0.0
 41
1.0
 10
-7.672104811581939
 20
0.0365705788941457
 30
0.0
 41
0.9222573873671466
 10
-7.65374744077309
 20
0.0176721625413183
 30
0.0
 41
1.0
 10
-7.635390069964231
 20
-0.0012262538115073
 30
0.0
 41
0.9222573873671466
 10
-7.608841746753258
 20
-0.0013866143394363
 30
0.0
 41
1.0
  0
SPLINE
  5
5E
330
1F
100
AcDbEntity
  8
Default
100
AcDbSpline
210
0.0
220
0.0
230
1.0
 70
    24
 71
     2
 72
     6
 73
     3
 74
     0
 42
0.0000000001
 43
0.0000000001
 40
0.0112693750261376
 40
0.0112693750261376
 40
0.0112693750261376
 40
0.2457020426146733
 40
0.2457020426146733
 40
0.2457020426146733
 10
-7.664912158564677
 20
0.2976194056619637
 30
0.0
 10
-7.668225056323154
 20
0.1803576275945407
 30
0.0
 10
-7.67153795408163
 20
0.0630958495271177
 30
0.0
  0
SPLINE
  5
5F
330
1F
100
AcDbEntity
  8
Default
100
AcDbSpline
210
0.0
220
0.0
230
1.0
 70
     8
 71
     3
 72
     8
 73
     4
 74
     0
 42
0.0000000001
 43
0.0000000001
 40
0.0
 40
0.0
 40
0.0
 40
0.0
 40
1.0
 40
1.0
 40
1.0
 40
1.0
 10
-6.198243504131844
 20
0.2674532579615629
 30
0.0
 10
-6.287510388059289
 20
0.2020043138293124
 30
0.0
 10
-6.763420199603081
 20
0.2399657607370429
 30
0.0
 10
-6.821435317669106
 20
0.3147566749017692
 30
0.0
  0
SPLINE
  5
60
330
1F
100
AcDbEntity
  8
Default
100
AcDbSpline
210
0.0
220
0.0
230
1.0
 70
    12
 71
     3
 72
    15
 73
    11
 74
     0
 42
0.0000000001
 43
0.0000000001
 40
-0.6043536923734509
 40
-0.6043536923734509
 40
-0.6043536923734509
 40
-0.6043536923734509
 40
-0.3940508536951049
 40
-0.3039948359399878
 40
-0.3039948359399878
 40
-0.3039948359399878
 40
-0.2127823121782243
 40
-0.2127823121782243
 40
-0.2127823121782243
 40
-0.0008992804480281
 40
-0.0008992804480281
 40
-0.0008992804480281
 40
-0.0008992804480281
 10
-6.769144459907712
 20
0.0002358905957016
 30
0.0
 41
0.9999999999999996
 10
-6.361791161817782
 20
0.0002358905886672
 30
0.0
 41
0.9999999999999996
 10
-6.292902812016057
 20
0.0002358905886672
 30
0.0
 41
0.9999999999999996
 10
-6.282748333272896
 20
0.0002358905886672
 30
0.0
 41
0.9999999999999996
 10
-6.284756901451122
 20
0.0002358909040772
 30
0.0
 41
0.9999999999999996
 10
-6.250941712285512
 20
0.0002673550449489
 30
0.0
 41
0.830419280427055
 10
-6.22573700673783
 20
0.0227537953861379
 30
0.0
 41
0.830419280427055
 10
-6.221965481118279
 20
0.0562554117265655
 30
0.0
 41
0.9999999999999996
 10
-6.214151819383392
 20
0.1265860200861365
 30
0.0
 41
0.9999999999999996
 10
-6.206338157648493
 20
0.1969166284457074
 30
0.0
 41
0.9999999999999996
 10
-6.198243504131844
 20
0.2674532579615626
 30
0.0
 41
0.9999999999999996
  0
SPLINE
  5
61
330
1F
100
AcDbEntity
  8
Default
100
AcDbSpline
210
0.0
220
0.0
230
1.0
 70
    12
 71
     2
 72
     6
 73
     3
 74
     0
 42
0.0000000001
 43
0.0000000001
 40
0.0
 40
0.0
 40
0.0
 40
0.0983833880405574
 40
0.0983833880405574
 40
0.0983833880405574
 10
-6.831631142339072
 20
0.0639698902416193
 30
0.0
 41
1.0
 10
-6.831629866829272
 20
0.0006454693400614
 30
0.0
 41
0.7093828823289784
 10
-6.769144459907716
 20
0.0002358905957003
 30
0.0
 41
1.0
  0
SPLINE
  5
62
330
1F
100
AcDbEntity
  8
Default
100
AcDbSpline
210
0.0
220
0.0
230
1.0
 70
    24
 71
     2
 72
     6
 73
     3
 74
     0
 42
0.0000000001
 43
0.0000000001
 40
0.0046342320447379
 40
0.0046342320447379
 40
0.0046342320447379
 40
0.2397717635142957
 40
0.2397717635142957
 40
0.2397717635142957
 10
-6.822311721775003
 20
0.2997600238679006
 30
0.0
 10
-6.826971432057038
 20
0.1818649570547599
 30
0.0
 10
-6.831631142339072
 20
0.0639698902416193
 30
0.0
  0
LINE
  5
63
330
1F
100
AcDbEntity
  8
Default
100
AcDbLine
 10
-6.821435317669106
 20
0.3147566749017692
 30
0.0
 11
-6.822311721775003
 21
0.2997600238679006
 31
0.0
  0
LINE
  5
64
330
1F
100
AcDbEntity
  8
Default
100
AcDbLine
 10
6.821206088182542
 20
0.3144640984494003
 30
0.0
 11
6.822311721775003
 21
0.2997600238679013
 31
0.0
  0
SPLINE
  5
65
330
1F
100
AcDbEntity
  8
Default
100
AcDbSpline
210
0.0
220
0.0
230
1.0
 70
     8
 71
     3
 72
    18
 73
    14
 74
     0
 42
0.0000000001
 43
0.0000000001
 40
3.80404736107363
 40
3.80404736107363
 40
3.80404736107363
 40
3.80404736107363
 40
3.853461099389163
 40
3.984258497241346
 40
4.362634833398421
 40
4.840509159655426
 40
5.409530469778589
 40
5.494898892608867
 40
5.771481605835228
 40
6.319895744175046
 40
7.554255476774538
 40
9.993530368147049
 40
25.99441018214683
 40
25.99441018214683
 40
25.99441018214683
 40
25.99441018214683
 10
5.365562895520895
 20
21.8545981022783
 30
0.0
 10
5.38171739459338
 20
21.85779613799516
 30
0.0
 10
5.44072909876131
 20
21.8690161097708
 30
0.0
 10
5.626485739591317
 20
21.89039358995134
 30
0.0
 10
5.950269954994482
 20
21.76180285700178
 30
0.0
 10
6.236961819816131
 20
21.37050346372977
 30
0.0
 10
6.338242352024693
 20
21.00080012279228
 30
0.0
 10
6.367382042430194
 20
20.69237617968236
 30
0.0
 10
6.38652362973464
 20
20.38915577244804
 30
0.0
 10
6.431358757422956
 20
19.7043746803181
 30
0.0
 10
6.519814129256474
 20
18.29974176834947
 30
0.0
 10
6.936493327147296
 20
11.75484274839043
 30
0.0
 10
7.326417064423603
 20
5.620495437360763
 30
0.0
 10
7.664911647495932
 20
0.2976196465552899
 30
0.0
  0
SPLINE
  5
66
330
1F
100
AcDbEntity
  8
Default
100
AcDbSpline
210
0.0
220
0.0
230
1.0
 70
     8
 71
     3
 72
    10
 73
     6
 74
     0
 42
0.0000000001
 43
0.0000000001
 40
-0.0000000000000001
 40
-0.0000000000000001
 40
-0.0000000000000001
 40
-0.0000000000000001
 40
2.13129035974486
 40
2.496745053307562
 40
3.80404736107363
 40
3.80404736107363
 40
3.80404736107363
 40
3.80404736107363
 10
1.578623984273463
 20
21.64709698742369
 30
0.0
 10
2.289050687848331
 20
21.64897112636005
 30
0.0
 10
3.121442882671829
 20
21.63899739457579
 30
0.0
 10
4.389208050486843
 20
21.65838749534027
 30
0.0
 10
4.942844304415942
 20
21.7487597001972
 30
0.0
 10
5.365562895520895
 20
21.8545981022783
 30
0.0
  0
LINE
  5
67
330
1F
100
AcDbEntity
  8
Default
100
AcDbLine
 10
0.0000148868978158
 20
21.64293254264731
 30
0.0
 11
1.578623984273463
 21
21.64709698742369
 31
0.0
  0
LINE
  5
68
330
1F
100
AcDbEntity
  8
Default
100
AcDbLine
 10
-6.821234107513302
 20
0.3144995509804464
 30
0.0
 11
-6.822204677846843
 21
0.3015917136387651
 31
0.0
  0
SPLINE
  5
69
330
1F
100
AcDbEntity
  8
Default
100
AcDbSpline
210
0.0
220
0.0
230
1.0
 70
     8
 71
     3
 72
    18
 73
    14
 74
     0
 42
0.0000000001
 43
0.0000000001
 40
3.80404736107363
 40
3.80404736107363
 40
3.80404736107363
 40
3.80404736107363
 40
3.853461099389163
 40
3.984258497241346
 40
4.362634833398421
 40
4.840509159655426
 40
5.409530469778589
 40
5.494898892608867
 40
5.771481605835228
 40
6.319895744175046
 40
7.554255476774538
 40
9.993530368147049
 40
25.99440850758392
 40
25.99440850758392
 40
25.99440850758392
 40
25.99440850758392
 10
-5.365593580609982
 20
21.8545981022783
 30
0.0
 10
-5.381748079682467
 20
21.85779613799516
 30
0.0
 10
-5.440759783850396
 20
21.8690161097708
 30
0.0
 10
-5.626516424680403
 20
21.89039358995134
 30
0.0
 10
-5.950300640083569
 20
21.76180285700178
 30
0.0
 10
-6.236992504905217
 20
21.37050346372977
 30
0.0
 10
-6.33827303711378
 20
21.00080012279228
 30
0.0
 10
-6.36741272751928
 20
20.69237617968236
 30
0.0
 10
-6.386554314823726
 20
20.38915577244804
 30
0.0
 10
-6.431389442512042
 20
19.7043746803181
 30
0.0
 10
-6.519844814345561
 20
18.29974176834947
 30
0.0
 10
-6.93652397677144
 20
11.7548433054484
 30
0.0
 10
-7.326447678694213
 20
5.620496551489207
 30
0.0
 10
-7.664942226310147
 20
0.2976213177428317
 30
0.0
  0
SPLINE
  5
6A
330
1F
100
AcDbEntity
  8
Default
100
AcDbSpline
210
0.0
220
0.0
230
1.0
 70
     8
 71
     3
 72
    10
 73
     6
 74
     0
 42
0.0000000001
 43
0.0000000001
 40
-0.0000000000000001
 40
-0.0000000000000001
 40
-0.0000000000000001
 40
-0.0000000000000001
 40
2.13129035974486
 40
2.496745053307562
 40
3.80404736107363
 40
3.80404736107363
 40
3.80404736107363
 40
3.80404736107363
 10
-1.57865466936255
 20
21.64709698742369
 30
0.0
 10
-2.289081372937417
 20
21.64897112636005
 30
0.0
 10
-3.121473567760916
 20
21.63899739457579
 30
0.0
 10
-4.38923873557593
 20
21.65838749534027
 30
0.0
 10
-4.942874989505029
 20
21.7487597001972
 30
0.0
 10
-5.365593580609982
 20
21.8545981022783
 30
0.0
  0
LINE
  5
6B
330
1F
100
AcDbEntity
  8
Default
100
AcDbLine
 10
-0.0000455719869024
 20
21.64293254264731
 30
0.0
 11
-1.57865466936255
 21
21.64709698742369
 31
0.0
  0
SPLINE
  5
6C
330
1F
100
AcDbEntity
  8
Default
100
AcDbSpline
210
0.0
220
0.0
230
1.0
 70
     8
 71
     3
 72
    15
 73
    11
 74
     0
 42
0.0000000001
 43
0.0000000001
 40
3.955688687114349
 40
3.955688687114349
 40
3.955688687114349
 40
3.955688687114349
 40
4.054676813605866
 40
4.198887640451077
 40
4.437709815109767
 40
4.536942180303184
 40
4.68650207364888
 40
5.346228261236861
 40
6.674211883877152
 40
17.21961263624306
 40
17.21961263624306
 40
17.21961263624306
 40
17.21961263624306
 10
5.519102747952616
 20
21.24887006702466
 30
0.0
 10
5.5494992759334
 20
21.23299502575754
 30
0.0
 10
5.603812969172211
 20
21.17062618815218
 30
0.0
 10
5.675971949858763
 20
21.02697375201939
 30
0.0
 10
5.719710030902021
 20
20.87082869323977
 30
0.0
 10
5.739987033261059
 20
20.70969626289075
 30
0.0
 10
5.759690284942863
 20
20.4073386123121
 30
0.0
 10
5.805059915122669
 20
19.69641438913488
 30
0.0
 10
6.070120873644219
 20
15.52711236074449
 30
0.0
 10
6.321353294790964
 20
11.57730939791648
 30
0.0
 10
6.544443280451021
 20
8.069260617797953
 30
0.0
  0
SPLINE
  5
6D
330
1F
100
AcDbEntity
  8
Default
100
AcDbSpline
210
0.0
220
0.0
230
1.0
 70
     8
 71
     3
 72
    11
 73
     7
 74
     0
 42
0.0000000001
 43
0.0000000001
 40
-0.0000000000000001
 40
-0.0000000000000001
 40
-0.0000000000000001
 40
-0.0000000000000001
 40
2.13339093923288
 40
2.525408407069113
 40
3.258670360522607
 40
3.955688687114349
 40
3.955688687114349
 40
3.955688687114349
 40
3.955688687114349
 10
1.580272757825355
 20
21.02209916219085
 30
0.0
 10
2.291387626213179
 20
21.02397511653823
 30
0.0
 10
3.133236846272965
 20
21.01818414771898
 30
0.0
 10
4.219390285570327
 20
21.02734603190532
 30
0.0
 10
4.824236130685463
 20
21.10201856496796
 30
0.0
 10
5.291850753315387
 20
21.19190647027927
 30
0.0
 10
5.519102747952616
 20
21.24887006702466
 30
0.0
  0
LINE
  5
6E
330
1F
100
AcDbEntity
  8
Default
100
AcDbLine
 10
0.0000148868978158
 20
21.01793036787257
 30
0.0
 11
1.580272757825355
 21
21.02209916219085
 31
0.0
  0
LINE
  5
6F
330
1F
100
AcDbEntity
  8
Default
100
AcDbLine
 10
6.608458009060683
 20
7.062619846845074
 30
0.0
 11
7.040064399347363
 21
0.2753926811565867
 31
0.0
  0
SPLINE
  5
70
330
1F
100
AcDbEntity
  8
Default
100
AcDbSpline
210
0.0
220
0.0
230
1.0
 70
     8
 71
     3
 72
     8
 73
     4
 74
     0
 42
0.0000000001
 43
0.0000000001
 40
17.65578845276058
 40
17.65578845276058
 40
17.65578845276058
 40
17.65578845276058
 40
18.22828600772723
 40
18.22828600772723
 40
18.22828600772723
 40
18.22828600772723
 10
6.572125198975805
 20
7.633963849751934
 30
0.0
 10
6.584236287819795
 20
7.443515894426982
 30
0.0
 10
6.596347232034361
 20
7.253067895531411
 30
0.0
 10
6.608458009060683
 20
7.062619846845074
 30
0.0
  0
SPLINE
  5
71
330
1F
100
AcDbEntity
  8
Default
100
AcDbSpline
210
0.0
220
0.0
230
1.0
 70
     8
 71
     3
 72
    10
 73
     6
 74
     0
 42
0.0000000001
 43
0.0000000001
 40
0.0
 40
0.0
 40
0.0
 40
0.0
 40
0.1741061113090963
 40
0.9743186111284254
 40
13.15442598745673
 40
13.15442598745673
 40
13.15442598745673
 40
13.15442598745673
 10
5.243768037581233
 20
21.18594040860751
 30
0.0
 10
5.252028861543394
 20
21.1284762070782
 30
0.0
 10
5.28076417913627
 20
20.80495192855212
 30
0.0
 10
5.608938292879279
 20
16.43244602119474
 30
0.0
 10
5.933761025296149
 20
12.11787934561158
 30
0.0
 10
6.238127945823078
 20
8.069268937390206
 30
0.0
  0
LINE
  5
72
330
1F
100
AcDbEntity
  8
Default
100
AcDbLine
 10
6.313695183169315
 20
7.063964668602829
 30
0.0
 11
6.820995255570305
 21
0.3142000030837864
 31
0.0
  0
SPLINE
  5
73
330
1F
100
AcDbEntity
  8
Default
100
AcDbSpline
210
0.0
220
0.0
230
1.0
 70
     8
 71
     3
 72
     8
 73
     4
 74
     0
 42
0.0000000001
 43
0.0000000001
 40
13.59100187789355
 40
13.59100187789355
 40
13.59100187789355
 40
13.59100187789355
 40
14.16256663427289
 40
14.16256663427289
 40
14.16256663427289
 40
14.16256663427289
 10
6.270854817277177
 20
7.633921504452487
 30
0.0
 10
6.285136036461533
 20
7.443935965653793
 30
0.0
 10
6.299416203366177
 20
7.253950356715842
 30
0.0
 10
6.313695183169315
 20
7.063964668602829
 30
0.0
  0
POLYLINE
  5
74
330
1F
100
AcDbEntity
  8
Default
100
AcDb2dPolyline
 66
     1
 10
0.0
 20
0.0
 30
0.0
  0
VERTEX
  5
75
330
74
100
AcDbEntity
  8
Default
100
AcDbVertex
100
AcDb2dVertex
 10
6.197133513363718
 20
0.2673699337251567
 30
0.0
  0
VERTEX
  5
76
330
74
100
AcDbEntity
  8
Default
100
AcDbVertex
100
AcDb2dVertex
 10
5.686930112095808
 20
7.063964654444824
 30
0.0
  0
VERTEX
  5
77
330
74
100
AcDbEntity
  8
Default
100
AcDbVertex
100
AcDb2dVertex
 10
5.643854131211326
 20
7.633833375869608
 30
0.0
  0
SEQEND
  5
78
330
74
100
AcDbEntity
  8
Default
  0
POLYLINE
  5
79
330
1F
100
AcDbEntity
  8
Default
100
AcDb2dPolyline
 66
     1
 10
0.0
 20
0.0
 30
0.0
  0
VERTEX
  5
7A
330
79
100
AcDbEntity
  8
Default
100
AcDbVertex
100
AcDb2dVertex
 10
5.610938571887796
 20
8.069285971992372
 30
0.0
  0
VERTEX
  5
7B
330
79
100
AcDbEntity
  8
Default
100
AcDbVertex
100
AcDb2dVertex
 10
4.627316434124339
 20
21.08200160847617
 30
0.0
  0
SEQEND
  5
7C
330
79
100
AcDbEntity
  8
Default
  0
POLYLINE
  5
7D
330
1F
100
AcDbEntity
  8
Default
100
AcDb2dPolyline
 66
     1
 10
0.0
 20
0.0
 30
0.0
  0
VERTEX
  5
7E
330
7D
100
AcDbEntity
  8
Default
100
AcDbVertex
100
AcDb2dVertex
 10
-6.197164026507269
 20
0.2673722242706831
 30
0.0
  0
VERTEX
  5
7F
330
7D
100
AcDbEntity
  8
Default
100
AcDbVertex
100
AcDb2dVertex
 10
-5.686960797184895
 20
7.063964654444824
 30
0.0
  0
VERTEX
  5
80
330
7D
100
AcDbEntity
  8
Default
100
AcDbVertex
100
AcDb2dVertex
 10
-5.644004744329619
 20
7.632246801837788
 30
0.0
  0
SEQEND
  5
81
330
7D
100
AcDbEntity
  8
Default
  0
POLYLINE
  5
82
330
1F
100
AcDbEntity
  8
Default
100
AcDb2dPolyline
 66
     1
 10
0.0
 20
0.0
 30
0.0
  0
VERTEX
  5
83
330
82
100
AcDbEntity
  8
Default
100
AcDbVertex
100
AcDb2dVertex
 10
-5.610946218197591
 20
8.069590760866088
 30
0.0
  0
VERTEX
  5
84
330
82
100
AcDbEntity
  8
Default
100
AcDbVertex
100
AcDb2dVertex
 10
-4.627347119213425
 20
21.08200160847617
 30
0.0
  0
SEQEND
  5
85
330
82
100
AcDbEntity
  8
Default
  0
SPLINE
  5
86
330
1F
100
AcDbEntity
  8
Default
100
AcDbSpline
210
0.0
220
0.0
230
1.0
 70
     8
 71
     3
 72
    10
 73
     6
 74
     0
 42
0.0000000001
 43
0.0000000001
 40
0.0
 40
0.0
 40
0.0
 40
0.0
 40
0.1741061113090963
 40
0.9743186111284254
 40
13.15408617317029
 40
13.15408617317029
 40
13.15408617317029
 40
13.15408617317029
 10
-5.24379872267032
 20
21.18594040860751
 30
0.0
 10
-5.252059546632481
 20
21.1284762070782
 30
0.0
 10
-5.280794864225356
 20
20.80495192855212
 30
0.0
 10
-5.608960500346279
 20
16.43255897481022
 30
0.0
 10
-5.933774703192551
 20
12.11810524935055
 30
0.0
 10
-6.238133156202754
 20
8.069607795402087
 30
0.0
  0
LINE
  5
87
330
1F
100
AcDbEntity
  8
Default
100
AcDbLine
 10
-6.313725868258402
 20
7.063964668602829
 30
0.0
 11
-6.821023318722227
 21
0.3142348886668769
 31
0.0
  0
SPLINE
  5
88
330
1F
100
AcDbEntity
  8
Default
100
AcDbSpline
210
0.0
220
0.0
230
1.0
 70
     8
 71
     3
 72
     8
 73
     4
 74
     0
 42
0.0000000001
 43
0.0000000001
 40
13.59276968471395
 40
13.59276968471395
 40
13.59276968471395
 40
13.59276968471395
 40
14.16256663427289
 40
14.16256663427289
 40
14.16256663427289
 40
14.16256663427289
 10
-6.271018014547824
 20
7.632158671486132
 30
0.0
 10
-6.285255056504528
 20
7.442760743242937
 30
0.0
 10
-6.29949105226628
 20
7.25336274526591
 30
0.0
 10
-6.313725868258402
 20
7.063964668602829
 30
0.0
  0
SPLINE
  5
89
330
1F
100
AcDbEntity
  8
Default
100
AcDbSpline
210
0.0
220
0.0
230
1.0
 70
     8
 71
     3
 72
    15
 73
    11
 74
     0
 42
0.0000000001
 43
0.0000000001
 40
3.955688687114349
 40
3.955688687114349
 40
3.955688687114349
 40
3.955688687114349
 40
4.054676813605866
 40
4.198887640451077
 40
4.437709815109767
 40
4.536942180303184
 40
4.68650207364888
 40
5.346228261236861
 40
6.674211883877152
 40
17.21925642101165
 40
17.21925642101165
 40
17.21925642101165
 40
17.21925642101165
 10
-5.519133433041702
 20
21.24887006702466
 30
0.0
 10
-5.549529961022486
 20
21.23299502575754
 30
0.0
 10
-5.603843654261297
 20
21.17062618815218
 30
0.0
 10
-5.676002634947849
 20
21.02697375201939
 30
0.0
 10
-5.719740715991108
 20
20.87082869323977
 30
0.0
 10
-5.740017718350146
 20
20.70969626289075
 30
0.0
 10
-5.75972097003195
 20
20.4073386123121
 30
0.0
 10
-5.805090600211756
 20
19.69641438913488
 30
0.0
 10
-6.070144025188444
 20
15.52723086036831
 30
0.0
 10
-6.321368905355122
 20
11.57754639520928
 30
0.0
 10
-6.544451358134304
 20
8.069616115072225
 30
0.0
  0
SPLINE
  5
8A
330
1F
100
AcDbEntity
  8
Default
100
AcDbSpline
210
0.0
220
0.0
230
1.0
 70
     8
 71
     3
 72
    11
 73
     7
 74
     0
 42
0.0000000001
 43
0.0000000001
 40
-0.0000000000000001
 40
-0.0000000000000001
 40
-0.0000000000000001
 40
-0.0000000000000001
 40
2.13339093923288
 40
2.525408407069113
 40
3.258670360522607
 40
3.955688687114349
 40
3.955688687114349
 40
3.955688687114349
 40
3.955688687114349
 10
-1.580303442914442
 20
21.02209916219085
 30
0.0
 10
-2.291418311302266
 20
21.02397511653823
 30
0.0
 10
-3.133267531362051
 20
21.01818414771898
 30
0.0
 10
-4.219420970659414
 20
21.02734603190532
 30
0.0
 10
-4.82426681577455
 20
21.10201856496796
 30
0.0
 10
-5.291881438404474
 20
21.19190647027927
 30
0.0
 10
-5.519133433041702
 20
21.24887006702466
 30
0.0
  0
LINE
  5
8B
330
1F
100
AcDbEntity
  8
Default
100
AcDbLine
 10
-0.0000455719869024
 20
21.01793036787257
 30
0.0
 11
-1.580303442914442
 21
21.02209916219085
 31
0.0
  0
LINE
  5
8C
330
1F
100
AcDbEntity
  8
Default
100
AcDbLine
 10
-6.60848869414977
 20
7.062619846845074
 30
0.0
 11
-7.040094960851471
 21
0.2753946245924181
 31
0.0
  0
SPLINE
  5
8D
330
1F
100
AcDbEntity
  8
Default
100
AcDbSpline
210
0.0
220
0.0
230
1.0
 70
     8
 71
     3
 72
     8
 73
     4
 74
     0
 42
0.0000000001
 43
0.0000000001
 40
17.65763970482987
 40
17.65763970482987
 40
17.65763970482987
 40
17.65763970482987
 40
18.22828600772723
 40
18.22828600772723
 40
18.22828600772723
 40
18.22828600772723
 10
-6.572273372832607
 20
7.632116328298316
 30
0.0
 10
-6.584345297819942
 20
7.442284213176512
 30
0.0
 10
-6.596417079039226
 20
7.252452054745431
 30
0.0
 10
-6.60848869414977
 20
7.062619846845074
 30
0.0
  0
SPLINE
  5
8E
330
1F
100
AcDbEntity
  8
Default
100
AcDbSpline
210
0.0
220
0.0
230
1.0
 70
    12
 71
     2
 72
     6
 73
     3
 74
     0
 42
0.0000000001
 43
0.0000000001
 40
0.0
 40
0.0
 40
0.0
 40
0.4056023666064276
 40
0.4056023666064276
 40
0.4056023666064276
 10
6.65515816708691
 20
64.43141610281802
 30
0.0
 41
1.0
 10
6.437344946747783
 20
64.52987747020178
 30
0.0
 41
0.7873956062314648
 10
6.289489305084629
 20
64.34205854397234
 30
0.0
 41
1.0
  0
SPLINE
  5
8F
330
1F
100
AcDbEntity
  8
Default
100
AcDbSpline
210
0.0
220
0.0
230
1.0
 70
    12
 71
     2
 72
     6
 73
     3
 74
     0
 42
0.0000000001
 43
0.0000000001
 40
0.0
 40
0.0
 40
0.0
 40
0.4053446276142776
 40
0.4053446276142776
 40
0.4053446276142776
 10
6.826641457080342
 20
64.09658914807608
 30
0.0
 41
1.0
 10
6.871978907914199
 20
64.33113543624394
 30
0.0
 41
0.7873683591086391
 10
6.65515816708691
 20
64.43141610281802
 30
0.0
 41
1.0
  0
SPLINE
  5
90
330
1F
100
AcDbEntity
  8
Default
100
AcDbSpline
210
0.0
220
0.0
230
1.0
 70
    24
 71
     2
 72
     6
 73
     3
 74
     0
 42
0.0000000001
 43
0.0000000001
 40
0.0
 40
0.0
 40
0.0
 40
1.515264760355884
 40
1.515264760355884
 40
1.515264760355884
 10
6.794722142530489
 20
63.98536902582705
 30
0.0
 10
6.47968822259157
 20
63.29634039596146
 30
0.0
 10
6.16465430265265
 20
62.60731176609587
 30
0.0
  0
SPLINE
  5
91
330
1F
100
AcDbEntity
  8
Default
100
AcDbSpline
210
0.0
220
0.0
230
1.0
 70
     8
 71
     3
 72
    12
 73
     8
 74
     0
 42
0.0000000001
 43
0.0000000001
 40
-5.0
 40
-5.0
 40
-5.0
 40
-5.0
 40
-3.999999999989769
 40
-2.999999999979538
 40
-1.999999999969307
 40
-0.9999999999590763
 40
0.0
 40
0.0
 40
0.0
 40
0.0
 10
6.226317188835495
 20
64.2452551713126
 30
0.0
 10
6.25309591852816
 20
64.30447122587157
 30
0.0
 10
6.347101284085809
 20
64.40346024497998
 30
0.0
 10
6.547454458216563
 20
64.44199285012462
 30
0.0
 10
6.733510232397236
 20
64.35712266662779
 30
0.0
 10
6.835551174032943
 20
64.18023836063651
 30
0.0
 10
6.821528936297
 20
64.04449304189356
 30
0.0
 10
6.794722142530489
 20
63.98536902582705
 30
0.0
  0
SPLINE
  5
92
330
1F
100
AcDbEntity
  8
Default
100
AcDbSpline
210
0.0
220
0.0
230
1.0
 70
    24
 71
     2
 72
     6
 73
     3
 74
     0
 42
0.0000000001
 43
0.0000000001
 40
0.0
 40
0.0
 40
0.0
 40
1.428938180270247
 40
1.428938180270247
 40
1.428938180270247
 10
5.632144698850851
 20
62.94570667585466
 30
0.0
 10
5.929230943843173
 20
63.59548092358364
 30
0.0
 10
6.226317188835495
 20
64.2452551713126
 30
0.0
  0
SPLINE
  5
93
330
1F
100
AcDbEntity
  8
Default
100
AcDbSpline
210
0.0
220
0.0
230
1.0
 70
     8
 71
     3
 72
    16
 73
    12
 74
     0
 42
0.0000000001
 43
0.0000000001
 40
0.0
 40
0.0
 40
0.0
 40
0.0
 40
0.9999987966075757
 40
1.999998947031629
 40
2.999999097455682
 40
3.999999247879735
 40
4.999999398303788
 40
5.999999548727841
 40
6.999999699151894
 40
7.999999849575947
 40
9.0
 40
9.0
 40
9.0
 40
9.0
 10
-0.0000117129474972
 20
63.64478043478079
 30
0.0
 10
-0.9637084967317264
 20
63.64179287246248
 30
0.0
 10
-2.886848691923916
 20
63.52269393748896
 30
0.0
 10
-5.705994029875171
 20
62.66360776415127
 30
0.0
 10
-7.777038554468788
 20
60.50645315505797
 30
0.0
 10
-8.658200064029629
 20
57.71266071750051
 30
0.0
 10
-8.943150321563209
 20
54.82579257833675
 30
0.0
 10
-8.604501027641717
 20
51.93919166658535
 30
0.0
 10
-7.555369846637419
 20
49.21188251115368
 30
0.0
 10
-5.668855701106821
 20
46.9671298983306
 30
0.0
 10
-3.951720138477995
 20
46.0195429938337
 30
0.0
 10
-3.039270323076565
 20
45.71362010143494
 30
0.0
  0
SPLINE
  5
94
330
1F
100
AcDbEntity
  8
Default
100
AcDbSpline
210
0.0
220
0.0
230
1.0
 70
     8
 71
     3
 72
    16
 73
    12
 74
     0
 42
0.0000000001
 43
0.0000000001
 40
-9.0
 40
-9.0
 40
-9.0
 40
-9.0
 40
-7.999999849575947
 40
-6.999999699151894
 40
-5.999999548727841
 40
-4.999999398303788
 40
-3.999999247879735
 40
-2.999999097455682
 40
-1.999998947031629
 40
-0.9999987966075757
 40
0.0
 40
0.0
 40
0.0
 40
0.0
 10
3.039246897181556
 20
45.71362010143494
 30
0.0
 10
3.951696712582986
 20
46.0195429938337
 30
0.0
 10
5.668832275211827
 20
46.9671298983306
 30
0.0
 10
7.55534642074241
 20
49.21188251115368
 30
0.0
 10
8.604477601746709
 20
51.93919166658535
 30
0.0
 10
8.943126895668215
 20
54.82579257833675
 30
0.0
 10
8.65817663813462
 20
57.71266071750051
 30
0.0
 10
7.777015128573794
 20
60.50645315505797
 30
0.0
 10
5.705970603980177
 20
62.66360776415127
 30
0.0
 10
2.886825266028907
 20
63.52269393748896
 30
0.0
 10
0.9636850708367177
 20
63.64179287246248
 30
0.0
 10
-0.0000117129474972
 20
63.64478043478079
 30
0.0
  0
SPLINE
  5
95
330
1F
100
AcDbEntity
  8
Default
100
AcDbSpline
210
0.0
220
0.0
230
1.0
 70
     8
 71
     3
 72
     9
 73
     5
 74
     0
 42
0.0000000001
 43
0.0000000001
 40
0.0
 40
0.0
 40
0.0
 40
0.0
 40
1.0
 40
2.0
 40
2.0
 40
2.0
 40
2.0
 10
-7.246476202794497
 20
47.41123157853604
 30
0.0
 10
-7.274620613737923
 20
47.38423424949735
 30
0.0
 10
-7.571297708250285
 20
47.36485107252499
 30
0.0
 10
-7.678529072874056
 20
47.60036539969767
 30
0.0
 10
-7.671239455616472
 20
47.71110814217614
 30
0.0
  0
SPLINE
  5
96
330
1F
100
AcDbEntity
  8
Default
100
AcDbSpline
210
0.0
220
0.0
230
1.0
 70
    24
 71
     2
 72
     6
 73
     3
 74
     0
 42
0.0000000001
 43
0.0000000001
 40
0.0
 40
0.0
 40
0.0
 40
0.653103080343121
 40
0.653103080343121
 40
0.653103080343121
 10
-7.059128374804757
 20
47.59305423024535
 30
0.0
 10
-6.883672360732596
 20
47.86846500495287
 30
0.0
 10
-6.708216346660436
 20
48.1438757796604
 30
0.0
  0
SPLINE
  5
97
330
1F
100
AcDbEntity
  8
Default
100
AcDbSpline
210
0.0
220
0.0
230
1.0
 70
     8
 71
     3
 72
    12
 73
     8
 74
     0
 42
0.0000000001
 43
0.0000000001
 40
-5.0
 40
-5.0
 40
-5.0
 40
-5.0
 40
-3.999999997950638
 40
-2.999999995901275
 40
-1.999999993851912
 40
-0.999999991802549
 40
0.0
 40
0.0
 40
0.0
 40
0.0
 10
-7.616603144457173
 20
47.88121849765479
 30
0.0
 10
-7.653680999889701
 20
47.82302603704741
 30
0.0
 10
-7.686768645468305
 20
47.68102342455517
 30
0.0
 10
-7.594828181566712
 20
47.48280156715014
 30
0.0
 10
-7.401067682782156
 20
47.38254650590945
 30
0.0
 10
-7.184755017480569
 20
47.42166379655673
 30
0.0
 10
-7.091863286920812
 20
47.53287522750625
 30
0.0
 10
-7.059128374804757
 20
47.59305423024535
 30
0.0
  0
SPLINE
  5
98
330
1F
100
AcDbEntity
  8
Default
100
AcDbSpline
210
0.0
220
0.0
230
1.0
 70
    24
 71
     2
 72
     6
 73
     3
 74
     0
 42
0.0000000001
 43
0.0000000001
 40
0.0
 40
0.0
 40
0.0
 40
0.9316526454080164
 40
0.9316526454080164
 40
0.9316526454080164
 10
-7.116026483616423
 20
48.66696646241796
 30
0.0
 10
-7.366314814036798
 20
48.27409248003637
 30
0.0
 10
-7.616603144457173
 20
47.88121849765479
 30
0.0
  0
SPLINE
  5
99
330
1F
100
AcDbEntity
  8
Default
100
AcDbSpline
210
0.0
220
0.0
230
1.0
 70
    12
 71
     2
 72
     6
 73
     3
 74
     0
 42
0.0000000001
 43
0.0000000001
 40
0.0
 40
0.0
 40
0.0
 40
0.4056023666064276
 40
0.4056023666064276
 40
0.4056023666064276
 10
-6.655181592981904
 20
64.43141610281802
 30
0.0
 41
1.0
 10
-6.437368372642772
 20
64.52987747020178
 30
0.0
 41
0.7873956062314648
 10
-6.289512730979624
 20
64.34205854397234
 30
0.0
 41
1.0
  0
SPLINE
  5
9A
330
1F
100
AcDbEntity
  8
Default
100
AcDbSpline
210
0.0
220
0.0
230
1.0
 70
    12
 71
     2
 72
     6
 73
     3
 74
     0
 42
0.0000000001
 43
0.0000000001
 40
0.0
 40
0.0
 40
0.0
 40
0.4053446276142776
 40
0.4053446276142776
 40
0.4053446276142776
 10
-6.826664882975336
 20
64.09658914807608
 30
0.0
 41
1.0
 10
-6.8720023338092
 20
64.33113543624394
 30
0.0
 41
0.7873683591086391
 10
-6.655181592981904
 20
64.43141610281802
 30
0.0
 41
1.0
  0
SPLINE
  5
9B
330
1F
100
AcDbEntity
  8
Default
100
AcDbSpline
210
0.0
220
0.0
230
1.0
 70
    24
 71
     2
 72
     6
 73
     3
 74
     0
 42
0.0000000001
 43
0.0000000001
 40
0.0
 40
0.0
 40
0.0
 40
1.515264760355884
 40
1.515264760355884
 40
1.515264760355884
 10
-6.794745568425483
 20
63.98536902582705
 30
0.0
 10
-6.479711648486564
 20
63.29634039596146
 30
0.0
 10
-6.164677728547645
 20
62.60731176609587
 30
0.0
  0
SPLINE
  5
9C
330
1F
100
AcDbEntity
  8
Default
100
AcDbSpline
210
0.0
220
0.0
230
1.0
 70
     8
 71
     3
 72
    12
 73
     8
 74
     0
 42
0.0000000001
 43
0.0000000001
 40
-5.0
 40
-5.0
 40
-5.0
 40
-5.0
 40
-3.999999999989769
 40
-2.999999999979538
 40
-1.999999999969307
 40
-0.9999999999590763
 40
0.0
 40
0.0
 40
0.0
 40
0.0
 10
-6.226340614730489
 20
64.2452551713126
 30
0.0
 10
-6.253119344423155
 20
64.30447122587157
 30
0.0
 10
-6.347124709980804
 20
64.40346024497998
 30
0.0
 10
-6.547477884111558
 20
64.44199285012462
 30
0.0
 10
-6.733533658292231
 20
64.35712266662779
 30
0.0
 10
-6.835574599927938
 20
64.18023836063651
 30
0.0
 10
-6.821552362191994
 20
64.04449304189356
 30
0.0
 10
-6.794745568425483
 20
63.98536902582705
 30
0.0
  0
SPLINE
  5
9D
330
1F
100
AcDbEntity
  8
Default
100
AcDbSpline
210
0.0
220
0.0
230
1.0
 70
    24
 71
     2
 72
     6
 73
     3
 74
     0
 42
0.0000000001
 43
0.0000000001
 40
0.0
 40
0.0
 40
0.0
 40
1.428938180270247
 40
1.428938180270247
 40
1.428938180270247
 10
-5.632168124745846
 20
62.94570667585466
 30
0.0
 10
-5.929254369738167
 20
63.59548092358364
 30
0.0
 10
-6.226340614730489
 20
64.2452551713126
 30
0.0
  0
SPLINE
  5
9E
330
1F
100
AcDbEntity
  8
Default
100
AcDbSpline
210
0.0
220
0.0
230
1.0
 70
     8
 71
     3
 72
     9
 73
     5
 74
     0
 42
0.0000000001
 43
0.0000000001
 40
0.0
 40
0.0
 40
0.0
 40
0.0
 40
1.0
 40
2.0
 40
2.0
 40
2.0
 40
2.0
 10
7.246452776899503
 20
47.41123157853604
 30
0.0
 10
7.274597187842929
 20
47.38423424949735
 30
0.0
 10
7.57127428235529
 20
47.36485107252499
 30
0.0
 10
7.678505646979062
 20
47.60036539969767
 30
0.0
 10
7.671216029721478
 20
47.71110814217614
 30
0.0
  0
SPLINE
  5
9F
330
1F
100
AcDbEntity
  8
Default
100
AcDbSpline
210
0.0
220
0.0
230
1.0
 70
    24
 71
     2
 72
     6
 73
     3
 74
     0
 42
0.0000000001
 43
0.0000000001
 40
0.0
 40
0.0
 40
0.0
 40
0.653103080343121
 40
0.653103080343121
 40
0.653103080343121
 10
7.059104948909763
 20
47.59305423024535
 30
0.0
 10
6.883648934837602
 20
47.86846500495287
 30
0.0
 10
6.708192920765441
 20
48.1438757796604
 30
0.0
  0
SPLINE
  5
A0
330
1F
100
AcDbEntity
  8
Default
100
AcDbSpline
210
0.0
220
0.0
230
1.0
 70
     8
 71
     3
 72
    12
 73
     8
 74
     0
 42
0.0000000001
 43
0.0000000001
 40
-5.0
 40
-5.0
 40
-5.0
 40
-5.0
 40
-3.999999997950638
 40
-2.999999995901275
 40
-1.999999993851912
 40
-0.999999991802549
 40
0.0
 40
0.0
 40
0.0
 40
0.0
 10
7.616579718562178
 20
47.88121849765479
 30
0.0
 10
7.653657573994707
 20
47.82302603704741
 30
0.0
 10
7.686745219573311
 20
47.68102342455517
 30
0.0
 10
7.594804755671717
 20
47.48280156715014
 30
0.0
 10
7.401044256887161
 20
47.38254650590945
 30
0.0
 10
7.184731591585575
 20
47.42166379655673
 30
0.0
 10
7.091839861025818
 20
47.53287522750625
 30
0.0
 10
7.059104948909763
 20
47.59305423024535
 30
0.0
  0
SPLINE
  5
A1
330
1F
100
AcDbEntity
  8
Default
100
AcDbSpline
210
0.0
220
0.0
230
1.0
 70
    24
 71
     2
 72
     6
 73
     3
 74
     0
 42
0.0000000001
 43
0.0000000001
 40
0.0
 40
0.0
 40
0.0
 40
0.9316526454080164
 40
0.9316526454080164
 40
0.9316526454080164
 10
7.116003057721429
 20
48.66696646241796
 30
0.0
 10
7.366291388141804
 20
48.27409248003637
 30
0.0
 10
7.616579718562178
 20
47.88121849765479
 30
0.0
  0
SPLINE
  5
A2
330
1F
100
AcDbEntity
  8
Default
100
AcDbSpline
210
0.0
220
0.0
230
1.0
 70
     8
 71
     3
 72
    16
 73
    12
 74
     0
 42
0.0000000001
 43
0.0000000001
 40
-9.0
 40
-9.0
 40
-9.0
 40
-9.0
 40
-8.0
 40
-7.0
 40
-6.0
 40
-5.0
 40
-4.0
 40
-3.0
 40
-2.0
 40
-1.0
 40
0.0
 40
0.0
 40
0.0
 40
0.0
 10
-0.0000117129474972
 20
45.69752438904648
 30
0.0
 10
0.8734319438642189
 20
45.69706320476465
 30
0.0
 10
2.619786852159521
 20
46.01061934580625
 30
0.0
 10
4.914981723239464
 20
47.35720727339198
 30
0.0
 10
6.609777256249785
 20
49.40739092117935
 30
0.0
 10
7.507715870787138
 20
51.91053007940909
 30
0.0
 10
7.508966278827529
 20
54.56957758611264
 30
0.0
 10
6.613345799388043
 20
57.07333309303961
 30
0.0
 10
4.922504355527622
 20
59.12708581161344
 30
0.0
 10
2.622940840003295
 20
60.46942230433085
 30
0.0
 10
0.8729115872280602
 20
60.76553869896081
 30
0.0
 10
-0.0000117129474972
 20
60.7649982554488
 30
0.0
  0
SPLINE
  5
A3
330
1F
100
AcDbEntity
  8
Default
100
AcDbSpline
210
0.0
220
0.0
230
1.0
 70
     8
 71
     3
 72
    16
 73
    12
 74
     0
 42
0.0000000001
 43
0.0000000001
 40
0.0
 40
0.0
 40
0.0
 40
0.0
 40
1.0
 40
2.0
 40
3.0
 40
4.0
 40
5.0
 40
6.0
 40
7.0
 40
8.0
 40
9.0
 40
9.0
 40
9.0
 40
9.0
 10
-0.0000117129474972
 20
60.7649982554488
 30
0.0
 10
-0.8729350131230689
 20
60.76553869896081
 30
0.0
 10
-2.62296426589829
 20
60.46942230433085
 30
0.0
 10
-4.92252778142263
 20
59.12708581161344
 30
0.0
 10
-6.613369225283037
 20
57.07333309303961
 30
0.0
 10
-7.508989704722538
 20
54.56957758611264
 30
0.0
 10
-7.507739296682132
 20
51.91053007940909
 30
0.0
 10
-6.609800682144794
 20
49.40739092117935
 30
0.0
 10
-4.915005149134473
 20
47.35720727339198
 30
0.0
 10
-2.61981027805453
 20
46.01061934580625
 30
0.0
 10
-0.8734553697592276
 20
45.69706320476465
 30
0.0
 10
-0.0000117129474972
 20
45.69752438904648
 30
0.0
  0
SPLINE
  5
A4
330
1F
100
AcDbEntity
  8
Default
100
AcDbSpline
210
0.0
220
0.0
230
1.0
 70
     8
 71
     3
 72
    19
 73
    15
 74
     0
 42
0.0000000001
 43
0.0000000001
 40
-12.0
 40
-12.0
 40
-12.0
 40
-12.0
 40
-11.00001421452606
 40
-10.00001267082574
 40
-9.00001112712541
 40
-8.000009583425085
 40
-7.000008039724759
 40
-6.000006496024433
 40
-5.000004952324106
 40
-4.00000340862378
 40
-3.000001864923454
 40
-2.000000321223129
 40
-0.9999987775228026
 40
0.0
 40
0.0
 40
0.0
 40
0.0
 10
-0.0000117129474972
 20
45.18094135288367
 30
0.0
 10
0.8319876782041717
 20
45.18062003034768
 30
0.0
 10
2.475615331485514
 20
45.45841024352074
 30
0.0
 10
4.822976393648958
 20
46.35482465364966
 30
0.0
 10
6.744599084552462
 20
47.99572825725089
 30
0.0
 10
8.09161123246679
 20
50.11563337470424
 30
0.0
 10
8.866007940370082
 20
52.49808709860421
 30
0.0
 10
9.149352089796807
 20
54.98271371651609
 30
0.0
 10
8.986519829712222
 20
57.47317425109992
 30
0.0
 10
8.424382089738657
 20
59.91568745914098
 30
0.0
 10
7.079699344385944
 20
62.07303534775188
 30
0.0
 10
4.936840755894323
 20
63.44775548327662
 30
0.0
 10
2.486492687961046
 20
63.98658108092389
 30
0.0
 10
0.8305102936947293
 20
64.10654024807712
 30
0.0
 10
-0.0000117129474972
 20
64.09845698969403
 30
0.0
  0
SPLINE
  5
A5
330
1F
100
AcDbEntity
  8
Default
100
AcDbSpline
210
0.0
220
0.0
230
1.0
 70
     8
 71
     3
 72
    19
 73
    15
 74
     0
 42
0.0000000001
 43
0.0000000001
 40
0.0
 40
0.0
 40
0.0
 40
0.0
 40
0.9999987775228026
 40
2.000000321223129
 40
3.000001864923454
 40
4.00000340862378
 40
5.000004952324106
 40
6.000006496024433
 40
7.000008039724759
 40
8.000009583425085
 40
9.00001112712541
 40
10.00001267082574
 40
11.00001421452606
 40
12.0
 40
12.0
 40
12.0
 40
12.0
 10
-0.0000117129474972
 20
64.09845698969403
 30
0.0
 10
-0.8305337195897238
 20
64.10654024807712
 30
0.0
 10
-2.486516113856055
 20
63.98658108092389
 30
0.0
 10
-4.936864181789332
 20
63.44775548327662
 30
0.0
 10
-7.079722770280952
 20
62.07303534775188
 30
0.0
 10
-8.424405515633666
 20
59.91568745914098
 30
0.0
 10
-8.98654325560723
 20
57.47317425109992
 30
0.0
 10
-9.149375515691816
 20
54.98271371651609
 30
0.0
 10
-8.86603136626509
 20
52.49808709860421
 30
0.0
 10
-8.091634658361784
 20
50.11563337470424
 30
0.0
 10
-6.744622510447471
 20
47.99572825725089
 30
0.0
 10
-4.822999819543952
 20
46.35482465364966
 30
0.0
 10
-2.475638757380509
 20
45.45841024352074
 30
0.0
 10
-0.8320111040991804
 20
45.18062003034768
 30
0.0
 10
-0.0000117129474972
 20
45.18094135288367
 30
0.0
  0
SPLINE
  5
A6
330
1F
100
AcDbEntity
  8
Default
100
AcDbSpline
210
0.0
220
0.0
230
1.0
 70
     8
 71
     3
 72
    16
 73
    12
 74
     0
 42
0.0000000001
 43
0.0000000001
 40
-8.493728515308032
 40
-8.493728515308032
 40
-8.493728515308032
 40
-8.493728515308032
 40
-8.0
 40
-7.0
 40
-6.0
 40
-5.0
 40
-4.0
 40
-3.0
 40
-2.0
 40
-1.0
 40
0.0
 40
0.0
 40
0.0
 40
0.0
 10
22.20859483112859
 20
21.99740116099266
 30
0.0
 10
21.94894833822653
 20
22.12857665329555
 30
0.0
 10
21.20472535503445
 20
22.59859025604737
 30
0.0
 10
20.29700011908328
 20
23.79556621497294
 30
0.0
 10
19.61314382131249
 20
25.43012422914651
 30
0.0
 10
19.1646315020738
 20
27.1442857441298
 30
0.0
 10
18.86031586010176
 20
28.88705901506031
 30
0.0
 10
18.65519749727776
 20
30.64415840500202
 30
0.0
 10
18.52022691208894
 20
32.40768952322718
 30
0.0
 10
18.43886369842572
 20
34.17444339041287
 30
0.0
 10
18.412714684188
 20
35.35319456374742
 30
0.0
 10
18.40524666463311
 20
35.94293440039817
 30
0.0
  0
SPLINE
  5
A7
330
1F
100
AcDbEntity
  8
Default
100
AcDbSpline
210
0.0
220
0.0
230
1.0
 70
     8
 71
     3
 72
    10
 73
     6
 74
     0
 42
0.0000000001
 43
0.0000000001
 40
-17.0
 40
-17.0
 40
-17.0
 40
-17.0
 40
-16.0
 40
-15.0
 40
-14.34870604016304
 40
-14.34870604016304
 40
-14.34870604016304
 40
-14.34870604016304
 10
37.00211652850807
 20
22.82786514165107
 30
0.0
 10
36.44001422931282
 20
22.64838298179503
 30
0.0
 10
35.30832321712005
 20
22.31628921032188
 30
0.0
 10
33.78498359728644
 20
21.96361771030201
 30
0.0
 10
32.8264641369507
 20
21.79296639818087
 30
0.0
 10
32.44725253373556
 20
21.73292679962054
 30
0.0
  0
SPLINE
  5
A8
330
1F
100
AcDbEntity
  8
Default
100
AcDbSpline
210
0.0
220
0.0
230
1.0
 70
    12
 71
     2
 72
     6
 73
     3
 74
     0
 42
0.0000000001
 43
0.0000000001
 40
-0.0074089630355015
 40
-0.0074089630355015
 40
-0.0074089630355015
 40
0.0
 40
0.0
 40
0.0
 10
36.8061387589018
 20
24.98383701733078
 30
0.0
 41
1.0
 10
36.80607397593949
 20
24.98754100014671
 30
0.0
 41
0.9999725537599726
 10
36.80595427060867
 20
24.99124504302913
 30
0.0
 41
1.0
  0
SPLINE
  5
A9
330
1F
100
AcDbEntity
  8
Default
100
AcDbSpline
210
0.0
220
0.0
230
1.0
 70
     8
 71
     3
 72
    15
 73
    11
 74
     0
 42
0.0000000001
 43
0.0000000001
 40
-1.983810194125966
 40
-1.983810194125966
 40
-1.983810194125966
 40
-1.983810194125966
 40
-1.240216830441202
 40
-0.8693970465609351
 40
-0.830207921274915
 40
-0.6514225927554392
 40
-0.5721492481317013
 40
-0.1892530055028681
 40
-0.0009716977050293
 40
0.0
 40
0.0
 40
0.0
 40
0.0
 10
34.88830375075283
 20
23.77533306937141
 30
0.0
 10
35.13653937329993
 20
23.77139135064821
 30
0.0
 10
35.50781220787697
 20
23.75697402903389
 30
0.0
 10
35.89234087854383
 20
23.75462520303487
 30
0.0
 10
36.08860624999706
 20
23.75227610659646
 30
0.0
 10
36.18759745411352
 20
23.75016409663927
 30
0.0
 10
36.40128955418635
 20
23.74295346295165
 30
0.0
 10
36.6175250627836
 20
23.73262366810652
 30
0.0
 10
36.80869696594566
 20
23.72740468226835
 30
0.0
 10
36.87117187506369
 20
23.72614996765767
 30
0.0
 10
36.86987261078198
 20
23.72618087368685
 30
0.0
  0
SPLINE
  5
AA
330
1F
100
AcDbEntity
  8
Default
100
AcDbSpline
210
0.0
220
0.0
230
1.0
 70
     8
 71
     3
 72
    35
 73
    31
 74
     0
 42
0.0000000001
 43
0.0000000001
 40
0.0
 40
0.0
 40
0.0
 40
0.0
 40
0.2402532621163592
 40
0.3763572098504003
 40
0.551672431345357
 40
0.9958821897849119
 40
1.101052378124962
 40
1.868053494370825
 40
2.180869109681214
 40
2.831499668067848
 40
3.090556060853209
 40
3.977814129654295
 40
4.828734707418617
 40
5.548259278857759
 40
6.129507735893566
 40
8.019918460328226
 40
9.322400280740641
 40
10.47679261219735
 40
11.55862261620068
 40
12.55229102610752
 40
13.51912324008647
 40
14.54579470889808
 40
15.57534625379321
 40
16.66749462626378
 40
19.04522153365165
 40
20.41195135910109
 40
21.01834190818906
 40
21.62020844203624
 40
22.33410790169653
 40
22.84220939650538
 40
22.84220939650538
 40
22.84220939650538
 40
22.84220939650538
 10
18.85888269920752
 20
36.40900308571468
 30
0.0
 10
18.90845999767766
 20
36.34615141507648
 30
0.0
 10
18.98288568633093
 20
36.24485869548163
 30
0.0
 10
19.07468343712555
 20
36.0853433628974
 30
0.0
 10
19.19491553806139
 20
35.8640936131621
 30
0.0
 10
19.30229916740891
 20
35.64757160005953
 30
0.0
 10
19.4971395718809
 20
35.25448374584757
 30
0.0
 10
19.67164285566014
 20
34.90007053758384
 30
0.0
 10
19.92635607415773
 20
34.38257525797349
 30
0.0
 10
20.09962172812012
 20
34.01367717841773
 30
0.0
 10
20.34356692565317
 20
33.46663420961215
 30
0.0
 10
20.60859420506319
 20
32.8558865131542
 30
0.0
 10
20.94940429593855
 20
32.11086763186022
 30
0.0
 10
21.25129688174519
 20
31.46028734179156
 30
0.0
 10
21.71526105756376
 20
30.50296049749993
 30
0.0
 10
22.3250302832278
 20
29.40143912923096
 30
0.0
 10
23.11006046589894
 20
28.18264397538552
 30
0.0
 10
23.8199277350124
 20
27.23932913317554
 30
0.0
 10
24.54103901349219
 20
26.43832115540584
 30
0.0
 10
25.29427591623495
 20
25.75668917527917
 30
0.0
 10
26.11517326435192
 20
25.18943281383239
 30
0.0
 10
27.00773021571076
 20
24.71826072082023
 30
0.0
 10
27.98593330562661
 20
24.33381616655516
 30
0.0
 10
29.43567301005207
 20
23.94091816344613
 30
0.0
 10
31.0387210473288
 20
23.73156913324888
 30
0.0
 10
32.48533359670127
 20
23.64419626157495
 30
0.0
 10
33.34343489772517
 20
23.60875255230625
 30
0.0
 10
33.98354322470711
 20
23.58539492185704
 30
0.0
 10
34.59129188537693
 20
23.56735563111325
 30
0.0
 10
34.99827922541515
 20
23.55037608863298
 30
0.0
 10
35.16746523489552
 20
23.54255909718206
 30
0.0
  0
ARC
  5
AB
330
1F
100
AcDbEntity
  8
Default
100
AcDbCircle
 10
25.85029992839202
 20
-178.1122626808759
 30
0.0
 40
201.8699500066541
100
AcDbArc
 50
86.75100191540197
 51
87.35461389063964
  0
SPLINE
  5
AC
330
1F
100
AcDbEntity
  8
Default
100
AcDbSpline
210
0.0
220
0.0
230
1.0
 70
    12
 71
     2
 72
     6
 73
     3
 74
     0
 42
0.0000000001
 43
0.0000000001
 40
0.0
 40
0.0
 40
0.0
 40
0.7220528620518178
 40
0.7220528620518178
 40
0.7220528620518178
 10
18.40524666463311
 20
35.94293440039817
 30
0.0
 41
1.0
 10
18.39943928043032
 20
36.40268668050328
 30
0.0
 41
0.7075013098333874
 10
18.85888269920752
 20
36.40900308571468
 30
0.0
 41
1.0
  0
SPLINE
  5
AD
330
1F
100
AcDbEntity
  8
Default
100
AcDbSpline
210
0.0
220
0.0
230
1.0
 70
    12
 71
     2
 72
     6
 73
     3
 74
     0
 42
0.0000000001
 43
0.0000000001
 40
0.0
 40
0.0
 40
0.0
 40
0.4121427471181011
 40
0.4121427471181011
 40
0.4121427471181011
 10
18.85888269920752
 20
36.40900308571468
 30
0.0
 41
1.0
 10
19.07992294059216
 20
36.41204192928168
 30
0.0
 41
0.9013233606580734
 10
19.22039355139895
 20
36.24134676265005
 30
0.0
 41
1.0
  0
SPLINE
  5
AE
330
1F
100
AcDbEntity
  8
Default
100
AcDbSpline
210
0.0
220
0.0
230
1.0
 70
    12
 71
     2
 72
     8
 73
     5
 74
     0
 42
0.0000000001
 43
0.0000000001
 40
5.0
 40
5.0
 40
5.0
 40
6.424963949417644
 40
6.424963949417644
 40
7.849927898835288
 40
7.849927898835288
 40
7.849927898835288
 10
36.85467764431998
 20
23.72616615693065
 30
0.0
 41
1.0
 10
37.25198950407081
 20
23.73311512109069
 30
0.0
 41
0.7567417068888759
 10
37.3166004862961
 20
23.34103040577414
 30
0.0
 41
1.0
 10
37.38121146852135
 20
22.9489456904576
 30
0.0
 41
0.7567417068888759
 10
37.00211652850807
 20
22.82786514165107
 30
0.0
 41
1.0
  0
SPLINE
  5
AF
330
1F
100
AcDbEntity
  8
Default
100
AcDbSpline
210
0.0
220
0.0
230
1.0
 70
     8
 71
     3
 72
    12
 73
     8
 74
     0
 42
0.0000000001
 43
0.0000000001
 40
0.0
 40
0.0
 40
0.0
 40
0.0
 40
1.0
 40
2.0
 40
3.0
 40
4.0
 40
5.0
 40
5.0
 40
5.0
 40
5.0
 10
36.41133772068746
 20
25.46393812454223
 30
0.0
 10
35.69961143383036
 20
25.60373716761041
 30
0.0
 10
34.25213880216945
 20
25.71172973917003
 30
0.0
 10
32.08003310606777
 20
25.78319415830224
 30
0.0
 10
29.90588563670296
 20
25.78672881691113
 30
0.0
 10
27.73258067659638
 20
25.73955589861203
 30
0.0
 10
26.28485504133844
 20
25.6716203959678
 30
0.0
 10
25.56173568759212
 20
25.62555944933096
 30
0.0
  0
SPLINE
  5
B0
330
1F
100
AcDbEntity
  8
Default
100
AcDbSpline
210
0.0
220
0.0
230
1.0
 70
     8
 71
     3
 72
    34
 73
    30
 74
     0
 42
0.0000000001
 43
0.0000000001
 40
-22.18647873397526
 40
-22.18647873397526
 40
-22.18647873397526
 40
-22.18647873397526
 40
-22.03860679434289
 40
-21.92002185522579
 40
-21.63208902688433
 40
-21.37010291654892
 40
-21.25876276557128
 40
-20.8520438218059
 40
-20.13718589939647
 40
-19.41841840794001
 40
-19.1690734851703
 40
-18.27329645432434
 40
-17.44068902438653
 40
-16.83064568111283
 40
-16.3868047105227
 40
-14.69137808953177
 40
-13.32597882191751
 40
-12.12003779990974
 40
-11.01223819576992
 40
-10.00284901793387
 40
-9.053432248559982
 40
-8.006962631295124
 40
-6.965753494607664
 40
-5.884696930912772
 40
-4.753835594724273
 40
-3.536372436354696
 40
-2.309169967207457
 40
-0.5055621831563853
 40
0.0
 40
0.0
 40
0.0
 40
0.0
 10
19.22039355139895
 20
36.24134676265005
 30
0.0
 10
19.25116320186318
 20
36.20284037706143
 30
0.0
 10
19.30390014841187
 20
36.13133505691894
 30
0.0
 10
19.40697891081335
 20
35.97784314941646
 30
0.0
 10
19.51101754609362
 20
35.78037924008176
 30
0.0
 10
19.60481676340305
 20
35.58102423924934
 30
0.0
 10
19.71176663501771
 20
35.34400110521772
 30
0.0
 10
19.88025273484909
 20
34.96913436243849
 30
0.0
 10
20.135834467247
 20
34.41148956629657
 30
0.0
 10
20.36188811655073
 20
33.89798025044634
 30
0.0
 10
20.59589724463656
 20
33.32241912455567
 30
0.0
 10
20.84100392921976
 20
32.71045200122617
 30
0.0
 10
21.140883052028
 20
31.99090366480703
 30
0.0
 10
21.38773060069117
 20
31.4126198273698
 30
0.0
 10
21.76184515246825
 20
30.57575747013839
 30
0.0
 10
22.31382571201375
 20
29.54472389476111
 30
0.0
 10
23.06606678887907
 20
28.33747328711885
 30
0.0
 10
23.78762104736064
 20
27.34377848448207
 30
0.0
 10
24.5198641514343
 20
26.51186014878123
 30
0.0
 10
25.27175787519186
 20
25.81551690549986
 30
0.0
 10
26.10022423198425
 20
25.24836439109267
 30
0.0
 10
27.00090840668461
 20
24.78263108215462
 30
0.0
 10
27.98841329933499
 20
24.40282802204646
 30
0.0
 10
29.03921116295156
 20
24.12953781430078
 30
0.0
 10
30.16786294230534
 20
23.94246312917199
 30
0.0
 10
31.35526108723471
 20
23.83271088596222
 30
0.0
 10
32.77084677218178
 20
23.78282049473048
 30
0.0
 10
33.94975542756883
 20
23.7881430054023
 30
0.0
 10
34.71940964288582
 20
23.77926746778581
 30
0.0
 10
34.88830375075283
 20
23.77533306937141
 30
0.0
  0
SPLINE
  5
B1
330
1F
100
AcDbEntity
  8
Default
100
AcDbSpline
210
0.0
220
0.0
230
1.0
 70
    12
 71
     2
 72
     6
 73
     3
 74
     0
 42
0.0000000001
 43
0.0000000001
 40
0.0
 40
0.0
 40
0.0
 40
0.6585991013635981
 40
0.6585991013635981
 40
0.6585991013635981
 10
36.80595427060867
 20
24.99124504302913
 30
0.0
 41
1.0
 10
36.79343016259028
 20
25.37796420498843
 30
0.0
 41
0.7908816648000885
 10
36.41594776231388
 20
25.46290239684557
 30
0.0
 41
1.0
  0
LINE
  5
B2
330
1F
100
AcDbEntity
  8
Default
100
AcDbLine
 10
36.82811930922342
 20
23.72708560039742
 30
0.0
 11
36.8061387589018
 21
24.98383701733078
 31
0.0
  0
LINE
  5
B3
330
1F
100
AcDbEntity
  8
Default
100
AcDbLine
 10
33.74291760111886
 20
7.632116159089438
 30
0.0
 11
34.47955732840973
 21
0.2743393428388848
 31
0.0
  0
LINE
  5
B4
330
1F
100
AcDbEntity
  8
Default
100
AcDbLine
 10
33.74270755371329
 20
7.634214175085376
 30
0.0
 11
33.74291760111886
 21
7.632116159089438
 31
0.0
  0
LINE
  5
B5
330
1F
100
AcDbEntity
  8
Default
100
AcDbLine
 10
33.69911156839332
 20
8.069663850394797
 30
0.0
 11
33.69965026926369
 21
8.064283145787105
 31
0.0
  0
LINE
  5
B6
330
1F
100
AcDbEntity
  8
Default
100
AcDbLine
 10
32.4331205392362
 20
20.71475900182076
 30
0.0
 11
33.69911156839332
 21
8.069663850394797
 31
0.0
  0
LINE
  5
B7
330
1F
100
AcDbEntity
  8
Default
100
AcDbLine
 10
19.82084111086382
 20
7.069143172066099
 30
0.0
 11
18.70084485917278
 21
0.2612016795370103
 31
0.0
  0
SPLINE
  5
B8
330
1F
100
AcDbEntity
  8
Default
100
AcDbSpline
210
0.0
220
0.0
230
1.0
 70
     8
 71
     3
 72
     8
 73
     4
 74
     0
 42
0.0000000001
 43
0.0000000001
 40
18.54535593057265
 40
18.54535593057265
 40
18.54535593057265
 40
18.54535593057265
 40
19.11589537470503
 40
19.11589537470503
 40
19.11589537470503
 40
19.11589537470503
 10
19.91345266801542
 20
7.632115954557645
 30
0.0
 10
19.88258366557318
 20
7.444458110556564
 30
0.0
 10
19.8517132194773
 20
7.25680050473505
 30
0.0
 10
19.82084111086382
 20
7.069143172066099
 30
0.0
  0
SPLINE
  5
B9
330
1F
100
AcDbEntity
  8
Default
100
AcDbSpline
210
0.0
220
0.0
230
1.0
 70
    24
 71
     3
 72
     8
 73
     4
 74
     0
 42
0.0000000001
 43
0.0000000001
 40
18.10197648092493
 40
18.10197648092493
 40
18.10197648092493
 40
18.10197648092493
 40
18.10263956637485
 40
18.10263956637485
 40
18.10263956637485
 40
18.10263956637485
 10
19.9854172108541
 20
8.06961617332451
 30
0.0
 10
19.98538133710969
 20
8.069398075489799
 30
0.0
 10
19.98534546336357
 20
8.069179977655372
 30
0.0
 10
19.98530958961573
 20
8.06896187982123
 30
0.0
  0
SPLINE
  5
BA
330
1F
100
AcDbEntity
  8
Default
100
AcDbSpline
210
0.0
220
0.0
230
1.0
 70
     8
 71
     3
 72
    29
 73
    25
 74
     0
 42
0.0000000001
 43
0.0000000001
 40
0.0
 40
0.0
 40
0.0
 40
0.0
 40
0.6369043208068224
 40
0.8608670452121409
 40
1.233037759095982
 40
1.660876269395921
 40
1.84865941917371
 40
2.463529259138194
 40
3.20076562704201
 40
3.929596673091468
 40
4.056975974520465
 40
4.10009772219338
 40
4.187735773594969
 40
4.300425859907776
 40
4.514931684249021
 40
4.681692173481947
 40
4.868559113103929
 40
4.934820181052534
 40
5.024103770928482
 40
5.075174526530934
 40
5.710617809298383
 40
7.127805759226008
 40
8.68966690757406
 40
18.10197648092493
 40
18.10197648092493
 40
18.10197648092493
 40
18.10197648092493
 10
26.82913535623119
 20
21.02774489484616
 30
0.0
 10
26.61683390356565
 20
21.0277072945546
 30
0.0
 10
26.32987826605595
 20
21.02784699779324
 30
0.0
 10
25.91886576233939
 20
21.02754394032637
 30
0.0
 10
25.57754128808673
 20
21.02885828752077
 30
0.0
 10
25.2482757113954
 20
21.02623177074441
 30
0.0
 10
24.83815867318179
 20
21.02781306661694
 30
0.0
 10
24.32469093675095
 20
21.05072724642539
 30
0.0
 10
23.64048530018078
 20
21.17597774705953
 30
0.0
 10
23.13288312272777
 20
21.33481559577765
 30
0.0
 10
22.85502331323043
 20
21.44789780031646
 30
0.0
 10
22.77194174959729
 20
21.47064460072847
 30
0.0
 10
22.69055884836524
 20
21.47750690921435
 30
0.0
 10
22.5521580143571
 20
21.46819388883302
 30
0.0
 10
22.39708753950948
 20
21.40221479311887
 30
0.0
 10
22.25416094423141
 20
21.27619884872873
 30
0.0
 10
22.17749740307201
 20
21.15716306410821
 30
0.0
 10
22.13051840468043
 20
21.05335452716046
 30
0.0
 10
22.11490422125511
 20
20.98571998472472
 30
0.0
 10
22.06831573786679
 20
20.73154652028202
 30
0.0
 10
21.952690716413
 20
20.03976310419321
 30
0.0
 10
21.75885478522794
 20
18.85068347170034
 30
0.0
 10
21.08794692541271
 20
14.77507413054677
 30
0.0
 10
20.49463482061033
 20
11.16545297359294
 30
0.0
 10
19.9854172108541
 20
8.06961617332451
 30
0.0
  0
SPLINE
  5
BB
330
1F
100
AcDbEntity
  8
Default
100
AcDbSpline
210
0.0
220
0.0
230
1.0
 70
     8
 71
     3
 72
    12
 73
     8
 74
     0
 42
0.0000000001
 43
0.0000000001
 40
-24.23750587544924
 40
-24.23750587544924
 40
-24.23750587544924
 40
-24.23750587544924
 40
-13.51589519851294
 40
-11.70974314277024
 40
-9.903591087027547
 40
-8.412601707227395
 40
-6.928481499542063
 40
-6.928481499542063
 40
-6.928481499542063
 40
-6.928481499542063
 10
18.08127089405097
 20
0.3429195085613042
 30
0.0
 10
18.9122093451966
 20
5.395566073341591
 30
0.0
 10
19.93733732657299
 20
11.6291395351961
 30
0.0
 10
20.71084194852204
 20
16.3314029107168
 30
0.0
 10
20.98488722689748
 20
18.00250287024335
 30
0.0
 10
21.24747845095582
 20
19.58161839673713
 30
0.0
 10
21.39625375391151
 20
20.5303877739833
 30
0.0
 10
21.49473034442967
 20
21.06229606504142
 30
0.0
  0
LINE
  5
BC
330
1F
100
AcDbEntity
  8
Default
100
AcDbLine
 10
35.10099094286646
 20
0.3087861557467702
 30
0.0
 11
33.05068567796756
 21
20.8060354945391
 31
0.0
  0
SPLINE
  5
BD
330
1F
100
AcDbEntity
  8
Default
100
AcDbSpline
210
0.0
220
0.0
230
1.0
 70
     8
 71
     3
 72
    11
 73
     7
 74
     0
 42
0.0000000001
 43
0.0000000001
 40
0.0
 40
0.0
 40
0.0
 40
0.0
 40
0.142057557819545
 40
0.191230177309592
 40
0.2344489973956984
 40
0.4625996225103687
 40
0.4625996225103687
 40
0.4625996225103687
 40
0.4625996225103687
 10
33.74326433507849
 20
7.634269918455047
 30
0.0
 10
33.75504834147068
 20
7.679677810782264
 30
0.0
 10
33.7864756217264
 20
7.737482516842856
 30
0.0
 10
33.79802228759897
 20
7.814396942401156
 30
0.0
 10
33.79979690222535
 20
7.923906357143959
 30
0.0
 10
33.74595416166196
 20
8.003300267547193
 30
0.0
 10
33.70292692520388
 20
8.064611195277935
 30
0.0
  0
SPLINE
  5
BE
330
1F
100
AcDbEntity
  8
Default
100
AcDbSpline
210
0.0
220
0.0
230
1.0
 70
    24
 71
     2
 72
     6
 73
     3
 74
     0
 42
0.0000000001
 43
0.0000000001
 40
0.0
 40
0.0
 40
0.0
 40
13.71628106490817
 40
13.71628106490817
 40
13.71628106490817
 10
33.69989361800478
 20
8.069663853113674
 30
0.0
 10
26.84175308559212
 20
8.069640010082054
 30
0.0
 10
19.98361255317947
 20
8.069616167050432
 30
0.0
  0
SPLINE
  5
BF
330
1F
100
AcDbEntity
  8
Default
100
AcDbSpline
210
0.0
220
0.0
230
1.0
 70
    24
 71
     2
 72
     6
 73
     3
 74
     0
 42
0.0000000001
 43
0.0000000001
 40
-0.2685442282126053
 40
-0.2685442282126053
 40
-0.2685442282126053
 40
-0.0171329187673957
 40
-0.0171329187673957
 40
-0.0171329187673957
 10
18.04437526447794
 20
0.0707002343722536
 30
0.0
 10
18.06040067632357
 20
0.1954640807188355
 30
0.0
 10
18.0764260881692
 20
0.3202279270654174
 30
0.0
  0
SPLINE
  5
C0
330
1F
100
AcDbEntity
  8
Default
100
AcDbSpline
210
0.0
220
0.0
230
1.0
 70
    28
 71
     3
 72
    12
 73
     8
 74
     0
 42
0.0000000001
 43
0.0000000001
 40
0.0482519648708596
 40
0.0482519648708596
 40
0.0482519648708596
 40
0.0482519648708596
 40
0.1799445789811789
 40
0.3866222582535462
 40
0.5734069994934231
 40
0.7649405481254848
 40
0.8099545543307939
 40
0.8099545543307939
 40
0.8099545543307939
 40
0.8099545543307939
 10
18.59345434079016
 20
0.000059889953306
 30
0.0
 41
1.0
 10
18.60018522125801
 20
0.0000598899359403
 30
0.0
 41
1.0
 10
18.5881381750307
 20
0.0000598899359403
 30
0.0
 41
1.0
 10
18.45639659682096
 20
0.0000598899359403
 30
0.0
 41
1.0
 10
18.25167389523607
 20
0.0000598899359403
 30
0.0
 41
1.0
 10
18.14211067679028
 20
0.0000598899359403
 30
0.0
 41
1.0
 10
18.1168624225403
 20
0.0000598899359403
 30
0.0
 41
1.0
 10
18.10987069445341
 20
0.0000598899952138
 30
0.0
 41
1.0
  0
SPLINE
  5
C1
330
1F
100
AcDbEntity
  8
Default
100
AcDbSpline
210
0.0
220
0.0
230
1.0
 70
    12
 71
     2
 72
     6
 73
     3
 74
     0
 42
0.0000000001
 43
0.0000000001
 40
-0.0856790294087035
 40
-0.0856790294087035
 40
-0.0856790294087035
 40
0.0
 40
0.0
 40
0.0
 10
18.6577448237041
 20
0.0502600740405796
 30
0.0
 41
1.0
 10
18.64757259166334
 20
0.0000236941506539
 30
0.0
 41
0.7736056047028846
 10
18.59345434079016
 20
0.000059889953306
 30
0.0
 41
1.0
  0
LINE
  5
C2
330
1F
100
AcDbEntity
  8
Default
100
AcDbLine
 10
18.70013352818827
 20
0.2613187028747177
 30
0.0
 11
18.6577448237041
 21
0.0502600740405796
 31
0.0
  0
LINE
  5
C3
330
1F
100
AcDbEntity
  8
Default
100
AcDbLine
 10
18.0764260881692
 20
0.3202279270654174
 30
0.0
 11
18.08018731209235
 21
0.3430977102033239
 31
0.0
  0
SPLINE
  5
C4
330
1F
100
AcDbEntity
  8
Default
100
AcDbSpline
210
0.0
220
0.0
230
1.0
 70
    12
 71
     2
 72
     8
 73
     5
 74
     0
 42
0.0000000001
 43
0.0000000001
 40
-0.1058514733466842
 40
-0.1058514733466842
 40
-0.1058514733466842
 40
-0.0529257366733421
 40
-0.0529257366733421
 40
0.0
 40
0.0
 40
0.0
 10
18.10987069445341
 20
0.0000598899952138
 30
0.0
 41
1.0
 10
18.07823852596017
 20
0.0003263941313584
 30
0.0
 41
0.9130711129697164
 10
18.05965893421429
 20
0.0214573527626527
 30
0.0
 41
1.0
 10
18.04107934246839
 20
0.0425883113939366
 30
0.0
 41
0.9130711129697164
 10
18.04437526447794
 20
0.0707002343722536
 30
0.0
 41
1.0
  0
SPLINE
  5
C5
330
1F
100
AcDbEntity
  8
Default
100
AcDbSpline
210
0.0
220
0.0
230
1.0
 70
     8
 71
     3
 72
     8
 73
     4
 74
     0
 42
0.0000000001
 43
0.0000000001
 40
0.0
 40
0.0
 40
0.0
 40
0.0
 40
1.0
 40
1.0
 40
1.0
 40
1.0
 10
18.08018731209235
 20
0.3430977102033239
 30
0.0
 10
18.2645017839439
 20
0.3444366927814428
 30
0.0
 10
18.60995921522749
 20
0.2836139229467136
 30
0.0
 10
18.69589378687184
 20
0.240187953444277
 30
0.0
  0
SPLINE
  5
C6
330
1F
100
AcDbEntity
  8
Default
100
AcDbSpline
210
0.0
220
0.0
230
1.0
 70
    24
 71
     2
 72
     6
 73
     3
 74
     0
 42
0.0000000001
 43
0.0000000001
 40
0.0
 40
0.0
 40
0.0
 40
0.2419235636585804
 40
0.2419235636585804
 40
0.2419235636585804
 10
35.11655407121104
 20
0.067196663179245
 30
0.0
 10
35.10877250703874
 20
0.1879914094631295
 30
0.0
 10
35.10099094286643
 20
0.3087861557470141
 30
0.0
  0
SPLINE
  5
C7
330
1F
100
AcDbEntity
  8
Default
100
AcDbSpline
210
0.0
220
0.0
230
1.0
 70
    12
 71
     2
 72
     8
 73
     5
 74
     0
 42
0.0000000001
 43
0.0000000001
 40
0.0
 40
0.0
 40
0.0
 40
0.0509636399956144
 40
0.0509636399956144
 40
0.1019272799912289
 40
0.1019272799912289
 40
0.1019272799912289
 10
35.05128906052349
 20
0.0005987267556683
 30
0.0
 41
1.0
 10
35.08114137145905
 20
0.0007549868220584
 30
0.0
 41
0.9188620203024642
 10
35.09960503538615
 20
0.0204245707865446
 30
0.0
 41
1.0
 10
35.11806869931326
 20
0.0400941547510208
 30
0.0
 41
0.9188620203024642
 10
35.11655407121104
 20
0.067196663179245
 30
0.0
 41
1.0
  0
SPLINE
  5
C8
330
1F
100
AcDbEntity
  8
Default
100
AcDbSpline
210
0.0
220
0.0
230
1.0
 70
    28
 71
     3
 72
    12
 73
     8
 74
     0
 42
0.0000000001
 43
0.0000000001
 40
-1.374005924575726
 40
-1.374005924575726
 40
-1.374005924575726
 40
-1.374005924575726
 40
-1.322561384063632
 40
-1.131141570943936
 40
-0.9332321191019622
 40
-0.7508324695376353
 40
-0.5723160572542355
 40
-0.5723160572542355
 40
-0.5723160572542355
 40
-0.5723160572542355
 10
34.56821659264693
 20
0.0005987267565352
 30
0.0
 41
1.0
 10
34.56940365748655
 20
0.0005987267515756
 30
0.0
 41
1.0
 10
34.58220375399436
 20
0.0005987267515756
 30
0.0
 41
1.0
 10
34.67666618218459
 20
0.0005987267515756
 30
0.0
 41
1.0
 10
34.87679857229213
 20
0.0005987267515756
 30
0.0
 41
1.0
 10
35.0353238336794
 20
0.0005987267515756
 30
0.0
 41
1.0
 10
35.06030092955402
 20
0.0005987267515756
 30
0.0
 41
1.0
 10
35.05128906052349
 20
0.0005987267556683
 30
0.0
 41
1.0
  0
SPLINE
  5
C9
330
1F
100
AcDbEntity
  8
Default
100
AcDbSpline
210
0.0
220
0.0
230
1.0
 70
    12
 71
     2
 72
     6
 73
     3
 74
     0
 42
0.0000000001
 43
0.0000000001
 40
0.0
 40
0.0
 40
0.0
 40
0.089609000482263
 40
0.089609000482263
 40
0.089609000482263
 10
34.50604201976257
 20
0.0548112467713217
 30
0.0
 41
1.0
 10
34.51373664485246
 20
0.0009991580118095
 30
0.0
 41
0.7577233428207611
 10
34.56821659264693
 20
0.0005987267565352
 30
0.0
 41
1.0
  0
LINE
  5
CA
330
1F
100
AcDbEntity
  8
Default
100
AcDbLine
 10
34.47635474509457
 20
0.2740187092889946
 30
0.0
 11
34.50604201976257
 21
0.0548112467713217
 31
0.0
  0
SPLINE
  5
CB
330
1F
100
AcDbEntity
  8
Default
100
AcDbSpline
210
0.0
220
0.0
230
1.0
 70
     8
 71
     3
 72
     8
 73
     4
 74
     0
 42
0.0000000001
 43
0.0000000001
 40
0.0
 40
0.0
 40
0.0
 40
0.0
 40
1.0
 40
1.0
 40
1.0
 40
1.0
 10
34.47819673119331
 20
0.2604050175610119
 30
0.0
 10
34.59149895947721
 20
0.3074237331678794
 30
0.0
 10
35.00142005130799
 20
0.3448252926415015
 30
0.0
 10
35.10099094286643
 20
0.3087861557470141
 30
0.0
  0
SPLINE
  5
CC
330
1F
100
AcDbEntity
  8
Default
100
AcDbSpline
210
0.0
220
0.0
230
1.0
 70
     8
 71
     3
 72
    17
 73
    13
 74
     0
 42
0.0000000001
 43
0.0000000001
 40
0.0
 40
0.0
 40
0.0
 40
0.0
 40
1.260680112880674
 40
1.512476667308981
 40
1.725784989448776
 40
2.458974153656621
 40
3.365085027286619
 40
4.397621406980473
 40
4.477631304622574
 40
4.607808537611201
 40
4.837116497577133
 40
5.260846682944265
 40
5.260846682944265
 40
5.260846682944265
 40
5.260846682944265
 10
27.47981049780089
 20
21.02775066699929
 30
0.0
 10
27.90002439566699
 20
21.02780089622571
 30
0.0
 10
28.40422538842696
 20
21.02763988198385
 30
0.0
 10
28.97942587589979
 20
21.02786273557513
 30
0.0
 10
29.37898322448208
 20
21.027930662919
 30
0.0
 10
29.99599895614112
 20
21.05019416426226
 30
0.0
 10
30.88503238630336
 20
21.11132155463448
 30
0.0
 10
31.55162913114779
 20
21.20653932957567
 30
0.0
 10
31.96144878947325
 20
21.26489412767996
 30
0.0
 10
32.10778586399893
 20
21.21931971385163
 30
0.0
 10
32.31923116235917
 20
21.0656307325517
 30
0.0
 10
32.41270496098737
 20
20.85290525395683
 30
0.0
 10
32.4331205392362
 20
20.71475900182076
 30
0.0
  0
SPLINE
  5
CD
330
1F
100
AcDbEntity
  8
Default
100
AcDbSpline
210
0.0
220
0.0
230
1.0
 70
     8
 71
     3
 72
    15
 73
    11
 74
     0
 42
0.0000000001
 43
0.0000000001
 40
-6.152311001286541
 40
-6.152311001286541
 40
-6.152311001286541
 40
-6.152311001286541
 40
-5.561096261247544
 40
-4.928156272837669
 40
-4.567861313850099
 40
-4.360944395436648
 40
-3.839021945933803
 40
-2.5198138874929
 40
-1.528518433510659
 40
0.0
 40
0.0
 40
0.0
 40
0.0
 10
33.05068567796756
 20
20.8060354945391
 30
0.0
 10
33.02259155139612
 20
21.0010953313678
 30
0.0
 10
32.87901900821613
 20
21.39602011387731
 30
0.0
 10
32.47430053505242
 20
21.75604020836172
 30
0.0
 10
32.08754188924665
 20
21.89103081056762
 30
0.0
 10
31.72343474838087
 20
21.87186036157795
 30
0.0
 10
31.05055429713412
 20
21.75715885845019
 30
0.0
 10
30.10841612941362
 20
21.67307112426732
 30
0.0
 10
28.82941652566011
 20
21.64447970439084
 30
0.0
 10
27.98924100762987
 20
21.65281156497722
 30
0.0
 10
27.47973578997604
 20
21.65275066253428
 30
0.0
  0
SPLINE
  5
CE
330
1F
100
AcDbEntity
  8
Default
100
AcDbSpline
210
0.0
220
0.0
230
1.0
 70
     8
 71
     3
 72
    19
 73
    15
 74
     0
 42
0.0000000001
 43
0.0000000001
 40
-5.917404383870537
 40
-5.917404383870537
 40
-5.917404383870537
 40
-5.917404383870537
 40
-5.886327683711992
 40
-5.692528116833707
 40
-5.494027176797421
 40
-4.766817838528788
 40
-4.412399494878505
 40
-4.057981151228224
 40
-3.851324497193475
 40
-3.644667843158726
 40
-2.262918857619343
 40
-1.752116073910194
 40
-1.125074400318362
 40
0.0
 40
0.0
 40
0.0
 40
0.0
 10
21.49473034442967
 20
21.06229606504142
 30
0.0
 10
21.49588495620698
 20
21.0727018613507
 30
0.0
 10
21.51174082572473
 20
21.14647351171589
 30
0.0
 10
21.54721975540864
 20
21.28490323983507
 30
0.0
 10
21.7021908707216
 20
21.61904569548455
 30
0.0
 10
22.01483872749344
 20
21.94089093058211
 30
0.0
 10
22.47197469740857
 20
22.09734834090761
 30
0.0
 10
22.78116882185683
 20
22.11041520811263
 30
0.0
 10
23.03122373351556
 20
22.05088630020466
 30
0.0
 10
23.58679175887873
 20
21.82845980241303
 30
0.0
 10
24.27378737941759
 20
21.66572385919
 30
0.0
 10
25.11732509779433
 20
21.65086627759431
 30
0.0
 10
25.86854431652593
 20
21.65374031427631
 30
0.0
 10
26.45398313413895
 20
21.65267403638602
 30
0.0
 10
26.82900792641803
 20
21.65275065551621
 30
0.0
  0
ARC
  5
CF
330
1F
100
AcDbEntity
  8
Default
100
AcDbCircle
 10
27.47977314388847
 20
21.34025066476678
 30
0.0
 40
0.3124999999999997
100
AcDbArc
 50
90.00684870891452
 51
270.0068487089132
  0
ARC
  5
D0
330
1F
100
AcDbEntity
  8
Default
100
AcDbCircle
 10
26.84322387002748
 20
21.34025066061997
 30
0.0
 40
0.3128231766715188
100
AcDbArc
 50
267.4187158494792
 51
92.60464774438242
  0
SPLINE
  5
D1
330
1F
100
AcDbEntity
  8
Default
100
AcDbSpline
210
0.0
220
0.0
230
1.0
 70
     8
 71
     3
 72
    13
 73
     9
 74
     0
 42
0.0000000001
 43
0.0000000001
 40
0.0
 40
0.0
 40
0.0
 40
0.0
 40
0.0173203582047857
 40
0.0524864321141213
 40
0.1328786845640947
 40
0.2521813682408152
 40
0.358921133429706
 40
0.502807766137834
 40
0.502807766137834
 40
0.502807766137834
 40
0.502807766137834
 10
19.98133183689002
 20
8.069616159121287
 30
0.0
 10
19.97561999841266
 20
8.068204895362358
 30
0.0
 10
19.96138637398504
 20
8.058121726378205
 30
0.0
 10
19.9286422529947
 20
8.027625001498665
 30
0.0
 10
19.87797036655089
 20
7.968763168195758
 30
0.0
 10
19.83311584189351
 20
7.872943979307426
 30
0.0
 10
19.84615339410012
 20
7.746843465117996
 30
0.0
 10
19.88765065836559
 20
7.67298181991884
 30
0.0
 10
19.91230180529432
 20
7.632115954540627
 30
0.0
  0
SPLINE
  5
D2
330
1F
100
AcDbEntity
  8
Default
100
AcDbSpline
210
0.0
220
0.0
230
1.0
 70
    24
 71
     2
 72
     6
 73
     3
 74
     0
 42
0.0000000001
 43
0.0000000001
 40
0.0
 40
0.0
 40
0.0
 40
13.83090123971768
 40
13.83090123971768
 40
13.83090123971768
 10
33.74326433511035
 20
7.632116159094568
 30
0.0
 10
26.8278137152515
 20
7.632116056818051
 30
0.0
 10
19.91236309539265
 20
7.632115954541534
 30
0.0
  0
ENDSEC
  0
SECTION
  2
OBJECTS
  0
DICTIONARY
  5
C
330
0
100
AcDbDictionary
281
     1
  3
ACAD_GROUP
350
D
  3
ACAD_LAYOUT
350
1A
  3
ACAD_MLEADERSTYLE
350
D4
  3
ACAD_MLINESTYLE
350
17
  3
ACAD_PLOTSETTINGS
350
19
  3
ACAD_PLOTSTYLENAME
350
E
  3
ACAD_TABLESTYLE
350
D3
  3
ACAD_VISUALSTYLE
350
2A
  0
DICTIONARY
  5
D
102
{ACAD_REACTORS
330
C
102
}
330
C
100
AcDbDictionary
281
     1
  0
DICTIONARY
  5
1A
102
{ACAD_REACTORS
330
C
102
}
330
C
100
AcDbDictionary
281
     1
  3
Layout1
350
1E
  3
Layout2
350
26
  3
Model
350
22
  0
DICTIONARY
  5
D4
102
{ACAD_REACTORS
330
C
102
}
330
C
100
AcDbDictionary
281
     1
  0
DICTIONARY
  5
17
102
{ACAD_REACTORS
330
C
102
}
330
C
100
AcDbDictionary
281
     1
  3
Standard
350
18
  0
DICTIONARY
  5
19
102
{ACAD_REACTORS
330
C
102
}
330
C
100
AcDbDictionary
281
     1
  0
ACDBDICTIONARYWDFLT
  5
E
102
{ACAD_REACTORS
330
C
102
}
330
C
100
AcDbDictionary
281
     1
  3
Normal
350
F
100
AcDbDictionaryWithDefault
340
F
  0
DICTIONARY
  5
D3
102
{ACAD_REACTORS
330
C
102
}
330
C
100
AcDbDictionary
281
     1
  0
DICTIONARY
  5
2A
102
{ACAD_REACTORS
330
C
102
}
330
C
100
AcDbDictionary
281
     1
  3
2dWireframe
350
2F
  3
3D Hidden
350
31
  3
3dWireframe
350
30
  3
Basic
350
32
  3
Brighten
350
36
  3
ColorChange
350
3A
  3
Conceptual
350
34
  3
Dim
350
35
  3
Facepattern
350
39
  3
Flat
350
2B
  3
FlatWithEdges
350
2C
  3
Gouraud
350
2D
  3
GouraudWithEdges
350
2E
  3
Linepattern
350
38
  3
Realistic
350
33
  3
Thicken
350
37
  0
LAYOUT
  5
1E
102
{ACAD_REACTORS
330
1A
102
}
330
1A
100
AcDbPlotSettings
  1

  2
none_device
  4

  6

 40
0.0
 41
0.0
 42
0.0
 43
0.0
 44
0.0
 45
0.0
 46
0.0
 47
0.0
 48
0.0
 49
0.0
140
0.0
141
0.0
142
1.0
143
1.0
 70
   688
 72
     0
 73
     0
 74
     5
  7

 75
    16
 76
     0
 77
     2
 78
   300
147
1.0
148
0.0
149
0.0
100
AcDbLayout
  1
Layout1
 70
     1
 71
     1
 10
0.0
 20
0.0
 11
12.0
 21
9.0
 12
0.0
 22
0.0
 32
0.0
 14
1.000000000000000E+20
 24
1.000000000000000E+20
 34
1.000000000000000E+20
 15
-1.000000000000000E+20
 25
-1.000000000000000E+20
 35
-1.000000000000000E+20
146
0.0
 13
0.0
 23
0.0
 33
0.0
 16
1.0
 26
0.0
 36
0.0
 17
0.0
 27
1.0
 37
0.0
 76
     0
330
1B
  0
LAYOUT
  5
26
102
{ACAD_REACTORS
330
1A
102
}
330
1A
100
AcDbPlotSettings
  1

  2
none_device
  4

  6

 40
0.0
 41
0.0
 42
0.0
 43
0.0
 44
0.0
 45
0.0
 46
0.0
 47
0.0
 48
0.0
 49
0.0
140
0.0
141
0.0
142
1.0
143
1.0
 70
   688
 72
     0
 73
     0
 74
     5
  7

 75
    16
 76
     0
 77
     2
 78
   300
147
1.0
148
0.0
149
0.0
100
AcDbLayout
  1
Layout2
 70
     1
 71
     2
 10
0.0
 20
0.0
 11
0.0
 21
0.0
 12
0.0
 22
0.0
 32
0.0
 14
0.0
 24
0.0
 34
0.0
 15
0.0
 25
0.0
 35
0.0
146
0.0
 13
0.0
 23
0.0
 33
0.0
 16
1.0
 26
0.0
 36
0.0
 17
0.0
 27
1.0
 37
0.0
 76
     0
330
23
  0
LAYOUT
  5
22
102
{ACAD_REACTORS
330
1A
102
}
330
1A
100
AcDbPlotSettings
  1

  2
none_device
  4

  6

 40
0.0
 41
0.0
 42
0.0
 43
0.0
 44
0.0
 45
0.0
 46
0.0
 47
0.0
 48
0.0
 49
0.0
140
0.0
141
0.0
142
1.0
143
1.0
 70
  1712
 72
     0
 73
     0
 74
     0
  7

 75
     0
 76
     0
 77
     2
 78
   300
147
1.0
148
0.0
149
0.0
100
AcDbLayout
  1
Model
 70
     1
 71
     0
 10
0.0
 20
0.0
 11
12.0
 21
9.0
 12
0.0
 22
0.0
 32
0.0
 14
-9.083722463211124
 24
-0.0013866143408858
 34
0.0
 15
37.32270715110628
 25
64.45782315035504
 35
0.0
146
0.0
 13
0.0
 23
0.0
 33
0.0
 16
1.0
 26
0.0
 36
0.0
 17
0.0
 27
1.0
 37
0.0
 76
     0
330
1F
331
29
  0
MLINESTYLE
  5
18
102
{ACAD_REACTORS
330
17
102
}
330
17
100
AcDbMlineStyle
  2
Standard
 70
     0
  3

 62
   256
 51
90.0
 52
90.0
 71
     2
 49
0.5
 62
   256
  6
BYLAYER
 49
-0.5
 62
   256
  6
BYLAYER
  0
ACDBPLACEHOLDER
  5
F
102
{ACAD_REACTORS
330
E
102
}
330
E
  0
VISUALSTYLE
  5
2F
102
{ACAD_REACTORS
330
2A
102
}
330
2A
100
AcDbVisualStyle
  2
2dWireframe
 70
     4
 71
     0
 72
     2
 73
     0
 90
        0
 40
-0.6
 41
-30.0
 62
     5
 63
     7
421
 16777215
 74
     1
 91
        4
 64
     7
 65
   257
 75
     1
175
     1
 42
1.0
 92
        0
 66
   257
 43
1.0
 76
     1
 77
     6
 78
     2
 67
     7
 79
     5
170
     0
171
     0
290
     0
174
     0
 93
        1
 44
0.0
173
     0
291
     0
 45
0.0
1001
ACAD
1000
AcDbSavedByObjectVersion
1070
     0
  0
VISUALSTYLE
  5
31
102
{ACAD_REACTORS
330
2A
102
}
330
2A
100
AcDbVisualStyle
  2
3D Hidden
 70
     6
 71
     1
 72
     2
 73
     2
 90
        0
 40
-0.6
 41
-30.0
 62
     5
 63
     7
421
 16777215
 74
     2
 91
        2
 64
     7
 65
   257
 75
     2
175
     1
 42
40.0
 92
        0
 66
   257
 43
1.0
 76
     1
 77
     6
 78
     2
 67
     7
 79
     3
170
     0
171
     0
290
     0
174
     0
 93
        1
 44
0.0
173
     0
291
     0
 45
0.0
1001
ACAD
1000
AcDbSavedByObjectVersion
1070
     0
  0
VISUALSTYLE
  5
30
102
{ACAD_REACTORS
330
2A
102
}
330
2A
100
AcDbVisualStyle
  2
3dWireframe
 70
     5
 71
     0
 72
     2
 73
     0
 90
        0
 40
-0.6
 41
-30.0
 62
     5
 63
     7
421
 16777215
 74
     1
 91
        4
 64
     7
 65
   257
 75
     1
175
     1
 42
1.0
 92
        0
 66
   257
 43
1.0
 76
     1
 77
     6
 78
     2
 67
     7
 79
     5
170
     0
171
     0
290
     0
174
     0
 93
        1
 44
0.0
173
     0
291
     0
 45
0.0
1001
ACAD
1000
AcDbSavedByObjectVersion
1070
     0
  0
VISUALSTYLE
  5
32
102
{ACAD_REACTORS
330
2A
102
}
330
2A
100
AcDbVisualStyle
  2
Basic
 70
     7
 71
     1
 72
     0
 73
     1
 90
        0
 40
-0.6
 41
-30.0
 62
     5
 63
     7
421
 16777215
 74
     0
 91
        4
 64
     7
 65
   257
 75
     1
175
     1
 42
1.0
 92
        8
 66
     7
 43
1.0
 76
     1
 77
     6
 78
     2
 67
     7
 79
     5
170
     0
171
     0
290
     0
174
     0
 93
        1
 44
0.0
173
     0
291
     1
 45
0.0
1001
ACAD
1000
AcDbSavedByObjectVersion
1070
     0
  0
VISUALSTYLE
  5
36
102
{ACAD_REACTORS
330
2A
102
}
330
2A
100
AcDbVisualStyle
  2
Brighten
 70
    12
 71
     2
 72
     2
 73
     0
 90
        0
 40
-0.6
 41
-30.0
 62
     5
 63
     7
421
 16777215
 74
     1
 91
        4
 64
     7
 65
   257
 75
     1
175
     1
 42
1.0
 92
        8
 66
     7
 43
1.0
 76
     1
 77
     6
 78
     2
 67
     7
 79
     5
170
     0
171
     0
290
     0
174
     0
 93
        1
 44
50.0
173
     0
291
     1
 45
0.0
1001
ACAD
1000
AcDbSavedByObjectVersion
1070
     0
  0
VISUALSTYLE
  5
3A
102
{ACAD_REACTORS
330
2A
102
}
330
2A
100
AcDbVisualStyle
  2
ColorChange
 70
    16
 71
     2
 72
     2
 73
     3
 90
        0
 40
-0.6
 41
-30.0
 62
     5
 63
     8
421
  8421504
 74
     1
 91
        4
 64
     7
 65
   257
 75
     1
175
     1
 42
1.0
 92
        8
 66
     8
424
  8421504
 43
1.0
 76
     1
 77
     6
 78
     2
 67
     7
 79
     5
170
     0
171
     0
290
     0
174
     0
 93
        1
 44
0.0
173
     0
291
     1
 45
0.0
1001
ACAD
1000
AcDbSavedByObjectVersion
1070
     0
  0
VISUALSTYLE
  5
34
102
{ACAD_REACTORS
330
2A
102
}
330
2A
100
AcDbVisualStyle
  2
Conceptual
 70
     9
 71
     3
 72
     2
 73
     0
 90
        0
 40
-0.6
 41
-30.0
 62
     5
 63
     7
421
 16777215
 74
     2
 91
        2
 64
     7
 65
   257
 75
     1
175
     1
 42
40.0
 92
        8
 66
     7
 43
1.0
 76
     1
 77
     6
 78
     2
 67
     7
 79
     3
170
     0
171
     0
290
     0
174
     0
 93
        1
 44
0.0
173
     0
291
     0
 45
0.0
1001
ACAD
1000
AcDbSavedByObjectVersion
1070
     0
  0
VISUALSTYLE
  5
35
102
{ACAD_REACTORS
330
2A
102
}
330
2A
100
AcDbVisualStyle
  2
Dim
 70
    11
 71
     2
 72
     2
 73
     0
 90
        0
 40
-0.6
 41
-30.0
 62
     5
 63
     7
421
 16777215
 74
     1
 91
        4
 64
     7
 65
   257
 75
     1
175
     1
 42
1.0
 92
        8
 66
     7
 43
1.0
 76
     1
 77
     6
 78
     2
 67
     7
 79
     5
170
     0
171
     0
290
     0
174
     0
 93
        1
 44
-50.0
173
     0
291
     1
 45
0.0
1001
ACAD
1000
AcDbSavedByObjectVersion
1070
     0
  0
VISUALSTYLE
  5
39
102
{ACAD_REACTORS
330
2A
102
}
330
2A
100
AcDbVisualStyle
  2
Facepattern
 70
    15
 71
     2
 72
     2
 73
     0
 90
        0
 40
-0.6
 41
-30.0
 62
     5
 63
     7
421
 16777215
 74
     1
 91
        4
 64
     7
 65
   257
 75
     1
175
     1
 42
1.0
 92
        8
 66
     7
 43
1.0
 76
     1
 77
     6
 78
     2
 67
     7
 79
     5
170
     0
171
     0
290
     0
174
     0
 93
        1
 44
0.0
173
     0
291
     1
 45
0.0
1001
ACAD
1000
AcDbSavedByObjectVersion
1070
     0
  0
VISUALSTYLE
  5
2B
102
{ACAD_REACTORS
330
2A
102
}
330
2A
100
AcDbVisualStyle
  2
Flat
 70
     0
 71
     2
 72
     1
 73
     1
 90
        2
 40
-0.6
 41
30.0
 62
     5
 63
     7
421
 16777215
 74
     0
 91
        4
 64
     7
 65
   257
 75
     1
175
     1
 42
1.0
 92
        8
 66
     7
 43
1.0
 76
     1
 77
     6
 78
     2
 67
     7
 79
     5
170
     0
171
     0
290
     0
174
     0
 93
       13
 44
0.0
173
     0
291
     1
 45
0.0
1001
ACAD
1000
AcDbSavedByObjectVersion
1070
     0
  0
VISUALSTYLE
  5
2C
102
{ACAD_REACTORS
330
2A
102
}
330
2A
100
AcDbVisualStyle
  2
FlatWithEdges
 70
     1
 71
     2
 72
     1
 73
     1
 90
        2
 40
-0.6
 41
30.0
 62
     5
 63
     7
421
 16777215
 74
     1
 91
        4
 64
     7
 65
   257
 75
     1
175
     1
 42
1.0
 92
        0
 66
   257
 43
1.0
 76
     1
 77
     6
 78
     2
 67
     7
 79
     5
170
     0
171
     0
290
     0
174
     0
 93
       13
 44
0.0
173
     0
291
     1
 45
0.0
1001
ACAD
1000
AcDbSavedByObjectVersion
1070
     0
  0
VISUALSTYLE
  5
2D
102
{ACAD_REACTORS
330
2A
102
}
330
2A
100
AcDbVisualStyle
  2
Gouraud
 70
     2
 71
     2
 72
     2
 73
     1
 90
        2
 40
-0.6
 41
30.0
 62
     5
 63
     7
421
 16777215
 74
     0
 91
        4
 64
     7
 65
   257
 75
     1
175
     1
 42
1.0
 92
        0
 66
     7
 43
1.0
 76
     1
 77
     6
 78
     2
 67
     7
 79
     5
170
     0
171
     0
290
     0
174
     0
 93
       13
 44
0.0
173
     0
291
     1
 45
0.0
1001
ACAD
1000
AcDbSavedByObjectVersion
1070
     0
  0
VISUALSTYLE
  5
2E
102
{ACAD_REACTORS
330
2A
102
}
330
2A
100
AcDbVisualStyle
  2
GouraudWithEdges
 70
     3
 71
     2
 72
     2
 73
     1
 90
        2
 40
-0.6
 41
30.0
 62
     5
 63
     7
421
 16777215
 74
     1
 91
        4
 64
     7
 65
   257
 75
     1
175
     1
 42
1.0
 92
        0
 66
   257
 43
1.0
 76
     1
 77
     6
 78
     2
 67
     7
 79
     5
170
     0
171
     0
290
     0
174
     0
 93
       13
 44
0.0
173
     0
291
     1
 45
0.0
1001
ACAD
1000
AcDbSavedByObjectVersion
1070
     0
  0
VISUALSTYLE
  5
38
102
{ACAD_REACTORS
330
2A
102
}
330
2A
100
AcDbVisualStyle
  2
Linepattern
 70
    14
 71
     2
 72
     2
 73
     0
 90
        0
 40
-0.6
 41
-30.0
 62
     5
 63
     7
421
 16777215
 74
     1
 91
        4
 64
     7
 65
   257
 75
     7
175
     7
 42
1.0
 92
        8
 66
     7
 43
1.0
 76
     1
 77
     6
 78
     2
 67
     7
 79
     5
170
     0
171
     0
290
     0
174
     0
 93
        1
 44
0.0
173
     0
291
     1
 45
0.0
1001
ACAD
1000
AcDbSavedByObjectVersion
1070
     0
  0
VISUALSTYLE
  5
33
102
{ACAD_REACTORS
330
2A
102
}
330
2A
100
AcDbVisualStyle
  2
Realistic
 70
     8
 71
     2
 72
     2
 73
     0
 90
        0
 40
-0.6
 41
-30.0
 62
     5
 63
     7
421
 16777215
 74
     1
 91
        0
 64
     7
 65
   257
 75
     1
175
     1
 42
1.0
 92
        8
 66
     8
424
  7895160
 43
1.0
 76
     1
 77
     6
 78
     2
 67
     7
 79
     5
170
     0
171
     0
290
     0
174
     0
 93
       13
 44
0.0
173
     0
291
     0
 45
0.0
1001
ACAD
1000
AcDbSavedByObjectVersion
1070
     0
  0
VISUALSTYLE
  5
37
102
{ACAD_REACTORS
330
2A
102
}
330
2A
100
AcDbVisualStyle
  2
Thicken
 70
    13
 71
     2
 72
     2
 73
     0
 90
        0
 40
-0.6
 41
-30.0
 62
     5
 63
     7
421
 16777215
 74
     1
 91
        4
 64
     7
 65
   257
 75
     1
175
     1
 42
1.0
 92
       12
 66
     7
 43
1.0
 76
     1
 77
     6
 78
     2
 67
     7
 79
     5
170
     0
171
     0
290
     0
174
     0
 93
        1
 44
0.0
173
     0
291
     1
 45
0.0
1001
ACAD
1000
AcDbSavedByObjectVersion
1070
     0
  0
ENDSEC
  0
EOF
