  0
SECTION
  2
HEADER
  9
$ACADVER
  1
AC1018
  9
$ACADMAINTVER
 70
     0
  9
$DWGCODEPAGE
  3
ANSI_1252
  9
$INSBASE
 10
0.0
 20
0.0
 30
0.0
  9
$EXTMIN
 10
-9.083707120666585
 20
0.0
 30
0.0
  9
$EXTMAX
 10
38.95179751238203
 20
67.6993590781555
 30
0.0
  9
$LIMMIN
 10
0.0
 20
0.0
  9
$LIMMAX
 10
12.0
 20
9.0
  9
$ORTHOMODE
 70
     0
  9
$REGENMODE
 70
     1
  9
$FILLMODE
 70
     1
  9
$QTEXTMODE
 70
     0
  9
$MIRRTEXT
 70
     1
  9
$LTSCALE
 40
0.0393700787401575
  9
$ATTMODE
 70
     1
  9
$TEXTSIZE
 40
0.2
  9
$TRACEWID
 40
0.05
  9
$TEXTSTYLE
  7
Standard
  9
$CLAYER
  8
Default
  9
$CELTYPE
  6
ByLayer
  9
$CECOLOR
 62
   256
  9
$CELTSCALE
 40
1.0
  9
$DISPSILH
 70
     0
  9
$DIMSCALE
 40
1.0
  9
$DIMASZ
 40
0.18
  9
$DIMEXO
 40
0.0625
  9
$DIMDLI
 40
0.38
  9
$DIMRND
 40
0.0
  9
$DIMDLE
 40
0.0
  9
$DIMEXE
 40
0.18
  9
$DIMTP
 40
0.0
  9
$DIMTM
 40
0.0
  9
$DIMTXT
 40
0.18
  9
$DIMCEN
 40
0.09
  9
$DIMTSZ
 40
0.0
  9
$DIMTOL
 70
     0
  9
$DIMLIM
 70
     0
  9
$DIMTIH
 70
     1
  9
$DIMTOH
 70
     1
  9
$DIMSE1
 70
     0
  9
$DIMSE2
 70
     0
  9
$DIMTAD
 70
     0
  9
$DIMZIN
 70
     0
  9
$DIMBLK
  1

  9
$DIMASO
 70
     1
  9
$DIMSHO
 70
     1
  9
$DIMPOST
  1

  9
$DIMAPOST
  1

  9
$DIMALT
 70
     0
  9
$DIMALTD
 70
     2
  9
$DIMALTF
 40
25.4
  9
$DIMLFAC
 40
1.0
  9
$DIMTOFL
 70
     0
  9
$DIMTVP
 40
0.0
  9
$DIMTIX
 70
     0
  9
$DIMSOXD
 70
     0
  9
$DIMSAH
 70
     0
  9
$DIMBLK1
  1

  9
$DIMBLK2
  1

  9
$DIMSTYLE
  2
Standard
  9
$DIMCLRD
 70
     0
  9
$DIMCLRE
 70
     0
  9
$DIMCLRT
 70
     0
  9
$DIMTFAC
 40
1.0
  9
$DIMGAP
 40
0.09
  9
$DIMJUST
 70
     0
  9
$DIMSD1
 70
     0
  9
$DIMSD2
 70
     0
  9
$DIMTOLJ
 70
     1
  9
$DIMTZIN
 70
     0
  9
$DIMALTZ
 70
     0
  9
$DIMALTTZ
 70
     0
  9
$DIMUPT
 70
     0
  9
$DIMDEC
 70
     4
  9
$DIMTDEC
 70
     4
  9
$DIMALTU
 70
     2
  9
$DIMALTTD
 70
     2
  9
$DIMTXSTY
  7
Standard
  9
$DIMAUNIT
 70
     0
  9
$DIMADEC
 70
     0
  9
$DIMALTRND
 40
0.0
  9
$DIMAZIN
 70
     0
  9
$DIMDSEP
 70
    46
  9
$DIMATFIT
 70
     3
  9
$DIMFRAC
 70
     0
  9
$DIMLDRBLK
  1

  9
$DIMLUNIT
 70
     2
  9
$DIMLWD
 70
    -2
  9
$DIMLWE
 70
    -2
  9
$DIMTMOVE
 70
     2
  9
$LUNITS
 70
     2
  9
$LUPREC
 70
     3
  9
$SKETCHINC
 40
0.1
  9
$FILLETRAD
 40
0.5
  9
$AUNITS
 70
     0
  9
$AUPREC
 70
     0
  9
$MENU
  1
.
  9
$ELEVATION
 40
0.0
  9
$PELEVATION
 40
0.0
  9
$THICKNESS
 40
0.0
  9
$LIMCHECK
 70
     0
  9
$CHAMFERA
 40
0.5
  9
$CHAMFERB
 40
0.5
  9
$CHAMFERC
 40
1.0
  9
$CHAMFERD
 40
0.0
  9
$SKPOLY
 70
     0
  9
$TDCREATE
 40
2456428.695162882
  9
$TDUCREATE
 40
2456428.861829549
  9
$TDUPDATE
 40
2456428.695162894
  9
$TDUUPDATE
 40
2456428.86182956
  9
$TDINDWG
 40
0.0000000116
  9
$TDUSRTIMER
 40
0.0000000116
  9
$USRTIMER
 70
     1
  9
$ANGBASE
 50
0.0
  9
$ANGDIR
 70
     0
  9
$PDMODE
 70
     0
  9
$PDSIZE
 40
0.0
  9
$PLINEWID
 40
0.0
  9
$SPLFRAME
 70
     0
  9
$SPLINETYPE
 70
     6
  9
$SPLINESEGS
 70
     8
  9
$HANDSEED
  5
C0
  9
$SURFTAB1
 70
     6
  9
$SURFTAB2
 70
     6
  9
$SURFTYPE
 70
     6
  9
$SURFU
 70
     6
  9
$SURFV
 70
     6
  9
$UCSBASE
  2

  9
$UCSNAME
  2

  9
$UCSORG
 10
0.0
 20
0.0
 30
0.0
  9
$UCSXDIR
 10
1.0
 20
0.0
 30
0.0
  9
$UCSYDIR
 10
0.0
 20
1.0
 30
0.0
  9
$UCSORTHOREF
  2

  9
$UCSORTHOVIEW
 70
     0
  9
$UCSORGTOP
 10
0.0
 20
0.0
 30
0.0
  9
$UCSORGBOTTOM
 10
0.0
 20
0.0
 30
0.0
  9
$UCSORGLEFT
 10
0.0
 20
0.0
 30
0.0
  9
$UCSORGRIGHT
 10
0.0
 20
0.0
 30
0.0
  9
$UCSORGFRONT
 10
0.0
 20
0.0
 30
0.0
  9
$UCSORGBACK
 10
0.0
 20
0.0
 30
0.0
  9
$PUCSBASE
  2

  9
$PUCSNAME
  2

  9
$PUCSORG
 10
0.0
 20
0.0
 30
0.0
  9
$PUCSXDIR
 10
1.0
 20
0.0
 30
0.0
  9
$PUCSYDIR
 10
0.0
 20
1.0
 30
0.0
  9
$PUCSORTHOREF
  2

  9
$PUCSORTHOVIEW
 70
     0
  9
$PUCSORGTOP
 10
0.0
 20
0.0
 30
0.0
  9
$PUCSORGBOTTOM
 10
0.0
 20
0.0
 30
0.0
  9
$PUCSORGLEFT
 10
0.0
 20
0.0
 30
0.0
  9
$PUCSORGRIGHT
 10
0.0
 20
0.0
 30
0.0
  9
$PUCSORGFRONT
 10
0.0
 20
0.0
 30
0.0
  9
$PUCSORGBACK
 10
0.0
 20
0.0
 30
0.0
  9
$USERI1
 70
     0
  9
$USERI2
 70
     0
  9
$USERI3
 70
     0
  9
$USERI4
 70
     0
  9
$USERI5
 70
     0
  9
$USERR1
 40
0.0
  9
$USERR2
 40
0.0
  9
$USERR3
 40
0.0
  9
$USERR4
 40
0.0
  9
$USERR5
 40
0.0
  9
$WORLDVIEW
 70
     1
  9
$SHADEDGE
 70
     3
  9
$SHADEDIF
 70
    70
  9
$TILEMODE
 70
     1
  9
$MAXACTVP
 70
    64
  9
$PINSBASE
 10
0.0
 20
0.0
 30
0.0
  9
$PLIMCHECK
 70
     0
  9
$PEXTMIN
 10
1.000000000000000E+20
 20
1.000000000000000E+20
 30
1.000000000000000E+20
  9
$PEXTMAX
 10
-1.000000000000000E+20
 20
-1.000000000000000E+20
 30
-1.000000000000000E+20
  9
$PLIMMIN
 10
0.0
 20
0.0
  9
$PLIMMAX
 10
12.0
 20
9.0
  9
$UNITMODE
 70
     0
  9
$VISRETAIN
 70
     1
  9
$PLINEGEN
 70
     0
  9
$PSLTSCALE
 70
     1
  9
$TREEDEPTH
 70
  3020
  9
$CMLSTYLE
  2
Standard
  9
$CMLJUST
 70
     0
  9
$CMLSCALE
 40
1.0
  9
$PROXYGRAPHICS
 70
     1
  9
$MEASUREMENT
 70
     0
  9
$CELWEIGHT
370
    -1
  9
$ENDCAPS
280
     0
  9
$JOINSTYLE
280
     0
  9
$LWDISPLAY
290
     0
  9
$INSUNITS
 70
     1
  9
$HYPERLINKBASE
  1

  9
$STYLESHEET
  1

  9
$XEDIT
290
     1
  9
$CEPSNTYPE
380
     0
  9
$PSTYLEMODE
290
     1
  9
$FINGERPRINTGUID
  2
{6F525901-616D-4CEA-983D-BD8F7195A16F}
  9
$VERSIONGUID
  2
{FAEB1C32-E019-11D5-929B-00C0DF256EC4}
  9
$EXTNAMES
290
     1
  9
$PSVPSCALE
 40
0.0
  9
$OLESTARTUP
290
     0
  9
$SORTENTS
280
   127
  9
$INDEXCTL
280
     0
  9
$HIDETEXT
280
     1
  9
$XCLIPFRAME
290
     0
  9
$HALOGAP
280
     0
  9
$OBSCOLOR
 70
   257
  9
$OBSLTYPE
280
     0
  9
$INTERSECTIONDISPLAY
280
     0
  9
$INTERSECTIONCOLOR
 70
   257
  9
$DIMASSOC
280
     2
  9
$PROJECTNAME
  1

  0
ENDSEC
  0
SECTION
  2
CLASSES
  0
CLASS
  1
ACDBDICTIONARYWDFLT
  2
AcDbDictionaryWithDefault
  3
ObjectDBX Classes
 90
        0
 91
        4
280
     0
281
     0
  0
CLASS
  1
VISUALSTYLE
  2
AcDbVisualStyle
  3
ObjectDBX Classes
 90
     4095
 91
        4
280
     0
281
     0
  0
ENDSEC
  0
SECTION
  2
TABLES
  0
TABLE
  2
VPORT
  5
8
330
0
100
AcDbSymbolTable
 70
     1
  0
VPORT
  5
29
330
8
100
AcDbSymbolTableRecord
100
AcDbViewportTableRecord
  2
*Active
 70
     0
 10
0.0
 20
0.0
 11
1.0
 21
1.0
 12
14.93404519585772
 22
33.84967953907775
 13
0.0
 23
0.0
 14
0.5
 24
0.5
 15
0.5
 25
0.5
 16
0.0
 26
0.0
 36
1.0
 17
0.0
 27
0.0
 37
0.0
 40
69.05334625971861
 41
0.7095414976911975
 42
50.0
 43
0.0
 44
0.0
 50
0.0
 51
0.0
 71
     0
 72
   100
 73
     1
 74
     3
 75
     0
 76
     0
 77
     0
 78
     0
281
     0
 65
     1
110
0.0
120
0.0
130
0.0
111
1.0
121
0.0
131
0.0
112
0.0
122
1.0
132
0.0
 79
     0
146
0.0
  0
ENDTAB
  0
TABLE
  2
LTYPE
  5
5
330
0
100
AcDbSymbolTable
 70
     1
  0
LTYPE
  5
14
330
5
100
AcDbSymbolTableRecord
100
AcDbLinetypeTableRecord
  2
ByBlock
 70
     0
  3

 72
    65
 73
     0
 40
0.0
  0
LTYPE
  5
15
330
5
100
AcDbSymbolTableRecord
100
AcDbLinetypeTableRecord
  2
ByLayer
 70
     0
  3

 72
    65
 73
     0
 40
0.0
  0
LTYPE
  5
16
330
5
100
AcDbSymbolTableRecord
100
AcDbLinetypeTableRecord
  2
Continuous
 70
     0
  3
Solid line
 72
    65
 73
     0
 40
0.0
  0
ENDTAB
  0
TABLE
  2
LAYER
  5
2
330
0
100
AcDbSymbolTable
 70
     2
  0
LAYER
  5
10
330
2
100
AcDbSymbolTableRecord
100
AcDbLayerTableRecord
  2
0
 70
     0
 62
     7
  6
Continuous
370
    -3
390
F
  0
LAYER
  5
3B
330
2
100
AcDbSymbolTableRecord
100
AcDbLayerTableRecord
  2
Default
 70
     0
 62
     7
  6
Continuous
370
    -3
390
F
  0
ENDTAB
  0
TABLE
  2
STYLE
  5
3
330
0
100
AcDbSymbolTable
 70
     1
  0
STYLE
  5
11
330
3
100
AcDbSymbolTableRecord
100
AcDbTextStyleTableRecord
  2
Standard
 70
     0
 40
0.0
 41
1.0
 50
0.0
 71
     0
 42
0.2
  3
txt
  4

  0
ENDTAB
  0
TABLE
  2
VIEW
  5
6
330
0
100
AcDbSymbolTable
 70
     0
  0
ENDTAB
  0
TABLE
  2
UCS
  5
7
330
0
100
AcDbSymbolTable
 70
     0
  0
ENDTAB
  0
TABLE
  2
APPID
  5
9
330
0
100
AcDbSymbolTable
 70
     1
  0
APPID
  5
12
330
9
100
AcDbSymbolTableRecord
100
AcDbRegAppTableRecord
  2
ACAD
 70
     0
  0
ENDTAB
  0
TABLE
  2
DIMSTYLE
  5
A
330
0
100
AcDbSymbolTable
 70
     1
100
AcDbDimStyleTable
  0
DIMSTYLE
105
27
330
A
100
AcDbSymbolTableRecord
100
AcDbDimStyleTableRecord
  2
Standard
 70
     0
340
11
  0
ENDTAB
  0
TABLE
  2
BLOCK_RECORD
  5
1
330
0
100
AcDbSymbolTable
 70
     1
  0
BLOCK_RECORD
  5
1F
330
1
100
AcDbSymbolTableRecord
100
AcDbBlockTableRecord
  2
*Model_Space
340
22
  0
BLOCK_RECORD
  5
1B
330
1
100
AcDbSymbolTableRecord
100
AcDbBlockTableRecord
  2
*Paper_Space
340
1E
  0
BLOCK_RECORD
  5
23
330
1
100
AcDbSymbolTableRecord
100
AcDbBlockTableRecord
  2
*Paper_Space0
340
26
  0
ENDTAB
  0
ENDSEC
  0
SECTION
  2
BLOCKS
  0
BLOCK
  5
20
330
1F
100
AcDbEntity
  8
0
100
AcDbBlockBegin
  2
*Model_Space
 70
     0
 10
0.0
 20
0.0
 30
0.0
  3
*Model_Space
  1

  0
ENDBLK
  5
21
330
1F
100
AcDbEntity
  8
0
100
AcDbBlockEnd
  0
BLOCK
  5
1C
330
1B
100
AcDbEntity
 67
     1
  8
0
100
AcDbBlockBegin
  2
*Paper_Space
 70
     0
 10
0.0
 20
0.0
 30
0.0
  3
*Paper_Space
  1

  0
ENDBLK
  5
1D
330
1B
100
AcDbEntity
 67
     1
  8
0
100
AcDbBlockEnd
  0
BLOCK
  5
24
330
23
100
AcDbEntity
  8
0
100
AcDbBlockBegin
  2
*Paper_Space0
 70
     0
 10
0.0
 20
0.0
 30
0.0
  3
*Paper_Space0
  1

  0
ENDBLK
  5
25
330
23
100
AcDbEntity
  8
0
100
AcDbBlockEnd
  0
ENDSEC
  0
SECTION
  2
ENTITIES
  0
SPLINE
  5
3C
330
1F
100
AcDbEntity
  8
Default
100
AcDbSpline
210
0.0
220
0.0
230
1.0
 70
    12
 71
     3
 72
    12
 73
     8
 74
     0
 42
0.0000000001
 43
0.0000000001
 40
-1.085735060038045
 40
-1.085735060038045
 40
-1.085735060038045
 40
-1.085735060038045
 40
-1.050960699287057
 40
-1.050960699287057
 40
-0.8629405803707535
 40
-0.8629405803707535
 40
-0.7454228047839444
 40
-0.7454228047839444
 40
-0.7454228047839444
 40
-0.7454228047839444
 10
6.711828393523746
 20
11.87866914303827
 30
0.0
 41
1.0
 10
6.712946903981397
 20
11.86733183080672
 30
0.0
 41
1.0
 10
6.713221131276617
 20
11.85563816311476
 30
0.0
 41
1.0
 10
6.70829206122367
 20
11.77873770671776
 30
0.0
 41
1.0
 10
6.678325225103254
 20
11.72050776332256
 30
0.0
 41
1.0
 10
6.647658795375976
 20
11.65896918569302
 30
0.0
 41
1.0
 10
6.639369177531298
 20
11.64251870949716
 30
0.0
 41
1.0
 10
6.637345470417381
 20
11.63575679660613
 30
0.0
 41
1.0
  0
SPLINE
  5
3D
330
1F
100
AcDbEntity
  8
Default
100
AcDbSpline
210
0.0
220
0.0
230
1.0
 70
    24
 71
     2
 72
     6
 73
     3
 74
     0
 42
0.0000000001
 43
0.0000000001
 40
0.0
 40
0.0
 40
0.0
 40
13.21834712206682
 40
13.21834712206682
 40
13.21834712206682
 10
-6.609285367718059
 20
12.06961477290044
 30
0.0
 10
-0.0001118066846493
 20
12.06961477290045
 30
0.0
 10
6.60906175434876
 20
12.06961477290045
 30
0.0
  0
SPLINE
  5
3E
330
1F
100
AcDbEntity
  8
Default
100
AcDbSpline
210
0.0
220
0.0
230
1.0
 70
    12
 71
     2
 72
     6
 73
     3
 74
     0
 42
0.0000000001
 43
0.0000000001
 40
0.0
 40
0.0
 40
0.0
 40
0.2209770016893544
 40
0.2209770016893544
 40
0.2209770016893544
 10
6.609330608865715
 20
12.06961477290045
 30
0.0
 41
1.0
 10
6.694524715590711
 20
11.99235558689602
 30
0.0
 41
0.9420738339009574
 10
6.711726456557319
 20
11.87864051423433
 30
0.0
 41
1.0
  0
SPLINE
  5
3F
330
1F
100
AcDbEntity
  8
Default
100
AcDbSpline
210
0.0
220
0.0
230
1.0
 70
     8
 71
     3
 72
    10
 73
     6
 74
     0
 42
0.0000000001
 43
0.0000000001
 40
0.0
 40
0.0
 40
0.0
 40
0.0
 40
0.1741061113090963
 40
0.9743186111284254
 40
14.16256663427289
 40
14.16256663427289
 40
14.16256663427289
 40
14.16256663427289
 10
5.243783380125778
 20
26.19159052706314
 30
0.0
 10
5.252044204087941
 20
26.13412632553382
 30
0.0
 10
5.280779521680815
 20
25.81060204700774
 30
0.0
 10
5.634104536239455
 20
21.1029921269132
 30
0.0
 10
5.984238274215773
 20
16.45333220090692
 30
0.0
 10
6.313710525713859
 20
12.06961478705845
 30
0.0
  0
SPLINE
  5
40
330
1F
100
AcDbEntity
  8
Default
100
AcDbSpline
210
0.0
220
0.0
230
1.0
 70
     8
 71
     3
 72
     9
 73
     5
 74
     0
 42
0.0000000001
 43
0.0000000001
 40
0.0
 40
0.0
 40
0.0
 40
0.0
 40
13.16091596961943
 40
14.0580911958485
 40
14.0580911958485
 40
14.0580911958485
 40
14.0580911958485
 10
5.686945454640346
 20
12.06961477290045
 30
0.0
 10
5.358549416150252
 20
16.44429117835043
 30
0.0
 10
5.005577022223289
 20
21.1169726111004
 30
0.0
 10
4.656071158934326
 20
25.78999113550323
 30
0.0
 10
4.62733177666888
 20
26.08765172693179
 30
0.0
  0
SPLINE
  5
41
330
1F
100
AcDbEntity
  8
Default
100
AcDbSpline
210
0.0
220
0.0
230
1.0
 70
    24
 71
     2
 72
     6
 73
     3
 74
     0
 42
0.0000000001
 43
0.0000000001
 40
0.0
 40
0.0
 40
0.0
 40
13.27343599581033
 40
13.27343599581033
 40
13.27343599581033
 10
6.637345470417381
 20
11.63211477290045
 30
0.0
 10
0.0006274725122148
 20
11.63211477290045
 30
0.0
 10
-6.636090525392952
 20
11.63211477290045
 30
0.0
  0
SPLINE
  5
42
330
1F
100
AcDbEntity
  8
Default
100
AcDbSpline
210
0.0
220
0.0
230
1.0
 70
    12
 71
     2
 72
     6
 73
     3
 74
     0
 42
0.0000000001
 43
0.0000000001
 40
0.0
 40
0.0
 40
0.0
 40
1.053377914518295
 40
1.053377914518295
 40
1.053377914518295
 10
7.471855014184257
 20
29.85485761005484
 30
0.0
 41
1.0
 10
7.471736484357688
 20
29.32816866612707
 30
0.0
 41
0.9999999999828493
 10
7.471624123886755
 20
28.80147972084703
 30
0.0
 41
1.0
  0
SPLINE
  5
43
330
1F
100
AcDbEntity
  8
Default
100
AcDbSpline
210
0.0
220
0.0
230
1.0
 70
     8
 71
     3
 72
     8
 73
     4
 74
     0
 42
0.0000000001
 43
0.0000000001
 40
0.0
 40
0.0
 40
0.0
 40
0.0
 40
1.0
 40
1.0
 40
1.0
 40
1.0
 10
7.030352053200051
 20
30.36055435915197
 30
0.0
 10
7.246930087155872
 20
30.30428154799882
 30
0.0
 10
7.471905372805197
 20
30.07862684728654
 30
0.0
 10
7.471855014184257
 20
29.85485761005484
 30
0.0
  0
SPLINE
  5
44
330
1F
100
AcDbEntity
  8
Default
100
AcDbSpline
210
0.0
220
0.0
230
1.0
 70
     8
 71
     3
 72
    12
 73
     8
 74
     0
 42
0.0000000001
 43
0.0000000001
 40
0.0
 40
0.0
 40
0.0
 40
0.0
 40
1.300874960309146
 40
2.476256366334871
 40
4.482385878543031
 40
6.0182617026045
 40
7.055352586087446
 40
7.055352586087446
 40
7.055352586087446
 40
7.055352586087446
 10
0.000019425340767
 20
30.78258097319911
 30
0.0
 10
0.4336505255543148
 20
30.78265377655238
 30
0.0
 10
1.259057285617335
 20
30.77879814692914
 30
0.0
 10
2.75304008519692
 20
30.75495998064638
 30
0.0
 10
4.324638792474472
 20
30.69844712239908
 30
0.0
 10
5.847039276453536
 20
30.58048959677858
 30
0.0
 10
6.695401812138741
 20
30.44758346047252
 30
0.0
 10
7.030352053200051
 20
30.36055435915197
 30
0.0
  0
SPLINE
  5
45
330
1F
100
AcDbEntity
  8
Default
100
AcDbSpline
210
0.0
220
0.0
230
1.0
 70
     8
 71
     3
 72
    25
 73
    21
 74
     0
 42
0.0000000001
 43
0.0000000001
 40
0.0
 40
0.0
 40
0.0
 40
0.0
 40
1.0
 40
2.0
 40
3.0
 40
4.0
 40
5.0
 40
6.0
 40
7.0
 40
8.0
 40
9.0
 40
10.0
 40
11.0
 40
12.0
 40
13.0
 40
14.0
 40
15.0
 40
16.0
 40
17.0
 40
18.0
 40
18.0
 40
18.0
 40
18.0
 10
7.861801799324007
 20
32.06379312788983
 30
0.0
 10
7.908930524240405
 20
31.85862744755422
 30
0.0
 10
8.000165187768198
 20
31.44686263752003
 30
0.0
 10
8.119913771158867
 20
30.82831254408136
 30
0.0
 10
8.238063644259302
 20
30.20119163852941
 30
0.0
 10
8.330427135495505
 20
29.59980818400826
 30
0.0
 10
8.291612802205096
 20
28.8710285200463
 30
0.0
 10
7.559502705685805
 20
28.79755121858201
 30
0.0
 10
6.955233092962361
 20
28.78659021660485
 30
0.0
 10
6.316078922212453
 20
28.78468196252282
 30
0.0
 10
5.686266182186545
 20
28.77976207347421
 30
0.0
 10
5.054090186084088
 20
28.76535019413562
 30
0.0
 10
4.422446280552368
 20
28.76020973225083
 30
0.0
 10
3.790654403588062
 20
28.75304916794446
 30
0.0
 10
3.15890383788636
 20
28.74624586921284
 30
0.0
 10
2.5271399967616
 20
28.73959509334458
 30
0.0
 10
1.895372583027017
 20
28.73358091240826
 30
0.0
 10
1.263595815057617
 20
28.72853648898123
 30
0.0
 10
0.631804765704261
 20
28.72552229559509
 30
0.0
 10
0.2106059023301618
 20
28.72554442428567
 30
0.0
 10
0.0000079951375227
 20
28.72623510855333
 30
0.0
  0
SPLINE
  5
46
330
1F
100
AcDbEntity
  8
Default
100
AcDbSpline
210
0.0
220
0.0
230
1.0
 70
     8
 71
     3
 72
    24
 73
    20
 74
     0
 42
0.0000000001
 43
0.0000000001
 40
0.0
 40
0.0
 40
0.0
 40
0.0
 40
1.0
 40
2.0
 40
3.0
 40
4.0
 40
5.0
 40
6.0
 40
7.0
 40
8.0
 40
9.0
 40
10.0
 40
11.0
 40
12.0
 40
13.0
 40
14.0
 40
15.0
 40
16.0
 40
17.0
 40
17.0
 40
17.0
 40
17.0
 10
4.317177272646408
 20
40.3247794238878
 30
0.0
 10
4.587671624346164
 20
40.14039997135145
 30
0.0
 10
5.102758817848818
 20
39.73264446476188
 30
0.0
 10
5.762157647778048
 20
38.9994585686651
 30
0.0
 10
6.290942970657166
 20
38.16923080657383
 30
0.0
 10
6.739531672911516
 20
37.29477892247903
 30
0.0
 10
7.136908487041862
 20
36.39618003629413
 30
0.0
 10
7.495541982697768
 20
35.48161766684509
 30
0.0
 10
7.83471288303483
 20
34.55971858157318
 30
0.0
 10
8.14627439060209
 20
33.62807335450449
 30
0.0
 10
8.420238252983921
 20
32.68437894960534
 30
0.0
 10
8.655741621602552
 20
31.73138691699468
 30
0.0
 10
8.863657269379162
 20
30.76846609680721
 30
0.0
 10
9.044041820167836
 20
29.81339313227264
 30
0.0
 10
9.155621869402042
 20
28.79667532510426
 30
0.0
 10
8.56201966250966
 20
27.95775439973739
 30
0.0
 10
7.749301200625465
 20
27.40039848475407
 30
0.0
 10
6.838708385301432
 20
27.02115244287795
 30
0.0
 10
6.209752587534868
 20
26.83828456056814
 30
0.0
 10
5.89186704290721
 20
26.75955895013413
 30
0.0
  0
SPLINE
  5
47
330
1F
100
AcDbEntity
  8
Default
100
AcDbSpline
210
0.0
220
0.0
230
1.0
 70
     8
 71
     3
 72
    31
 73
    27
 74
     0
 42
0.0000000001
 43
0.0000000001
 40
0.0
 40
0.0
 40
0.0
 40
0.0
 40
1.0
 40
2.0
 40
3.0
 40
4.0
 40
5.0
 40
6.0
 40
7.0
 40
8.0
 40
9.0
 40
10.0
 40
11.0
 40
12.0
 40
13.0
 40
14.0
 40
15.0
 40
16.0
 40
17.0
 40
18.0
 40
19.0
 40
20.0
 40
21.0
 40
22.0
 40
23.0
 40
24.0
 40
24.0
 40
24.0
 40
24.0
 10
1.924805837331756
 20
41.27524691251939
 30
0.0
 10
2.252963417010271
 20
41.22353938253504
 30
0.0
 10
2.903251592679606
 20
41.07147614439414
 30
0.0
 10
3.815443738899317
 20
40.65827579799352
 30
0.0
 10
4.647121654689307
 20
40.10366115498558
 30
0.0
 10
5.384913569656377
 20
39.42603524121027
 30
0.0
 10
5.972770597046555
 20
38.61624293474579
 30
0.0
 10
6.449672218619247
 20
37.7389469816864
 30
0.0
 10
6.84733838251443
 20
36.82384430842848
 30
0.0
 10
7.186336501845106
 20
35.88587409747813
 30
0.0
 10
7.526078582133051
 20
34.94837594007237
 30
0.0
 10
7.843544105616846
 20
34.00318621580472
 30
0.0
 10
8.121832185395792
 20
33.04449360102828
 30
0.0
 10
8.35710796665853
 20
32.07864152399437
 30
0.0
 10
8.56748687090244
 20
31.09159402478663
 30
0.0
 10
8.766836309414138
 20
30.16047280272027
 30
0.0
 10
9.005315450000397
 20
29.02035971282685
 30
0.0
 10
7.96010575762627
 20
28.60033882547637
 30
0.0
 10
6.981347984299919
 20
28.59789977481023
 30
0.0
 10
5.980355040267455
 20
28.5463834724025
 30
0.0
 10
4.985252472291241
 20
28.50941823670698
 30
0.0
 10
3.98818595389601
 20
28.47932981731716
 30
0.0
 10
2.991363883074462
 20
28.45763440286788
 30
0.0
 10
1.994291997158498
 20
28.44298800280879
 30
0.0
 10
0.9971802352724242
 20
28.43481423786668
 30
0.0
 10
0.3324126148537581
 20
28.43315780199603
 30
0.0
 10
0.0000302294423591
 20
28.43315815949944
 30
0.0
  0
SPLINE
  5
48
330
1F
100
AcDbEntity
  8
Default
100
AcDbSpline
210
0.0
220
0.0
230
1.0
 70
    12
 71
     2
 72
     6
 73
     3
 74
     0
 42
0.0000000001
 43
0.0000000001
 40
0.0
 40
0.0
 40
0.0
 40
1.931280518808496
 40
1.931280518808496
 40
1.931280518808496
 10
0.0000274868896533
 20
41.40904516842838
 30
0.0
 41
1.0
 10
0.9675067418902358
 20
41.41537028209269
 30
0.0
 41
0.9971191606784069
 10
1.924805837331756
 20
41.27524691251941
 30
0.0
 41
0.999999999537475
  0
SPLINE
  5
49
330
1F
100
AcDbEntity
  8
Default
100
AcDbSpline
210
0.0
220
0.0
230
1.0
 70
     8
 71
     3
 72
     8
 73
     4
 74
     0
 42
0.0000000001
 43
0.0000000001
 40
0.0
 40
0.0
 40
0.0
 40
0.0
 40
1.0
 40
1.0
 40
1.0
 40
1.0
 10
7.358475978841724
 20
0.2767856515200507
 30
0.0
 10
7.528653749099447
 20
0.3267138419452827
 30
0.0
 10
7.870689043782682
 20
0.3520497896995964
 30
0.0
 10
7.983223786412985
 20
0.2990060200028477
 30
0.0
  0
SPLINE
  5
4A
330
1F
100
AcDbEntity
  8
Default
100
AcDbSpline
210
0.0
220
0.0
230
1.0
 70
    12
 71
     2
 72
     6
 73
     3
 74
     0
 42
0.0000000001
 43
0.0000000001
 40
-11.37912846752068
 40
-11.37912846752068
 40
-11.37912846752068
 40
0.0
 40
0.0
 40
0.0
 10
7.358475978841724
 20
0.2767856515200507
 30
0.0
 41
1.0
 10
6.997272211459732
 20
5.954870952120528
 30
0.0
 41
0.9999999999995292
 10
6.636159083340317
 20
11.63296201697085
 30
0.0
 41
1.0
  0
LINE
  5
4B
330
1F
100
AcDbEntity
  8
Default
100
AcDbLine
 10
7.380612876635416
 20
0.0546887981635714
 30
0.0
 11
7.358475978841724
 21
0.2767856515200507
 31
0.0
  0
SPLINE
  5
4C
330
1F
100
AcDbEntity
  8
Default
100
AcDbSpline
210
0.0
220
0.0
230
1.0
 70
    12
 71
     2
 72
     6
 73
     3
 74
     0
 42
0.0000000001
 43
0.0000000001
 40
0.0
 40
0.0
 40
0.0
 40
0.0886388093994123
 40
0.0886388093994123
 40
0.0886388093994123
 10
7.445359602491186
 20
0.00000000001403
 30
0.0
 41
1.0
 10
7.389021635931896
 20
0.000054948297483
 30
0.0
 41
0.7594651808225202
 10
7.380612876635416
 20
0.0546887981635714
 30
0.0
 41
1.0
  0
SPLINE
  5
4D
330
1F
100
AcDbEntity
  8
Default
100
AcDbSpline
210
0.0
220
0.0
230
1.0
 70
    28
 71
     3
 72
    12
 73
     8
 74
     0
 42
0.0000000001
 43
0.0000000001
 40
-0.9902250190793587
 40
-0.9902250190793587
 40
-0.9902250190793587
 40
-0.9902250190793587
 40
-0.9407689708371832
 40
-0.7584478985639477
 40
-0.5643157541358403
 40
-0.3778603997756935
 40
-0.1898050790197806
 40
-0.1898050790197806
 40
-0.1898050790197806
 40
-0.1898050790197806
 10
7.927153374601559
 20
0.0000000000014435
 30
0.0
 41
1.0
 10
7.926025312177671
 20
0.0
 30
0.0
 41
1.0
 10
7.914203126709598
 20
0.0
 30
0.0
 41
1.0
 10
7.826063405344765
 20
0.0
 30
0.0
 41
1.0
 10
7.630118168329464
 20
0.0
 30
0.0
 41
1.0
 10
7.464949603366902
 20
0.0
 30
0.0
 41
1.0
 10
7.436092263302521
 20
0.0
 30
0.0
 41
1.0
 10
7.445359602491186
 20
0.00000000001403
 30
0.0
 41
1.0
  0
SPLINE
  5
4E
330
1F
100
AcDbEntity
  8
Default
100
AcDbSpline
210
0.0
220
0.0
230
1.0
 70
    12
 71
     2
 72
     8
 73
     5
 74
     0
 42
0.0000000001
 43
0.0000000001
 40
0.0
 40
0.0
 40
0.0
 40
0.0498965464319534
 40
0.0498965464319534
 40
0.0997930928639067
 40
0.0997930928639067
 40
0.0997930928639067
 10
7.98984958192993
 20
0.0644824638680027
 30
0.0
 41
1.0
 10
7.990416439430239
 20
0.037957193235032
 30
0.0
 41
0.9222573873671466
 10
7.972059068621387
 20
0.0190587768822037
 30
0.0
 41
1.0
 10
7.953701697812531
 20
0.0001603605293754
 30
0.0
 41
0.9222573873671466
 10
7.927153374601559
 20
0.0000000000014435
 30
0.0
 41
1.0
  0
SPLINE
  5
4F
330
1F
100
AcDbEntity
  8
Default
100
AcDbSpline
210
0.0
220
0.0
230
1.0
 70
    24
 71
     2
 72
     6
 73
     3
 74
     0
 42
0.0000000001
 43
0.0000000001
 40
0.0112693750261376
 40
0.0112693750261376
 40
0.0112693750261376
 40
0.2457020426146733
 40
0.2457020426146733
 40
0.2457020426146733
 10
7.983223786412985
 20
0.2990060200028477
 30
0.0
 10
7.986536684171457
 20
0.1817442419354252
 30
0.0
 10
7.98984958192993
 20
0.0644824638680027
 30
0.0
  0
LINE
  5
50
330
1F
100
AcDbEntity
  8
Default
100
AcDbLine
 10
7.982138898308339
 20
0.3160582531906345
 30
0.0
 11
7.983223786412985
 21
0.2990060200028477
 31
0.0
  0
SPLINE
  5
51
330
1F
100
AcDbEntity
  8
Default
100
AcDbSpline
210
0.0
220
0.0
230
1.0
 70
     8
 71
     3
 72
    18
 73
    14
 74
     0
 42
0.0000000001
 43
0.0000000001
 40
3.80404736107363
 40
3.80404736107363
 40
3.80404736107363
 40
3.80404736107363
 40
3.853461099389163
 40
3.984258497241346
 40
4.362634833398421
 40
4.840509159655426
 40
5.409530469778589
 40
5.494898892608867
 40
5.771481605835228
 40
6.319895744175046
 40
7.554255476774538
 40
9.993530368147049
 40
30.99170142035431
 40
30.99170142035431
 40
30.99170142035431
 40
30.99170142035431
 10
5.365578238065442
 20
26.86024822073393
 30
0.0
 10
5.381732737137922
 20
26.86344625645079
 30
0.0
 10
5.440744441305846
 20
26.87466622822643
 30
0.0
 10
5.626501082135858
 20
26.89604370840697
 30
0.0
 10
5.95028529753902
 20
26.7674529754574
 30
0.0
 10
6.236977162360668
 20
26.3761535821854
 30
0.0
 10
6.338257694569242
 20
26.00645024124791
 30
0.0
 10
6.367397384974735
 20
25.69802629813799
 30
0.0
 10
6.386538972279178
 20
25.39480589090367
 30
0.0
 10
6.431374099967492
 20
24.71002479877373
 30
0.0
 10
6.519829471801019
 20
23.30539188680509
 30
0.0
 10
7.042344435617757
 20
15.09810030155509
 30
0.0
 10
7.537726416334464
 20
7.301318061762183
 30
0.0
 10
7.982138898308339
 20
0.3160582531906345
 30
0.0
  0
SPLINE
  5
52
330
1F
100
AcDbEntity
  8
Default
100
AcDbSpline
210
0.0
220
0.0
230
1.0
 70
     8
 71
     3
 72
    10
 73
     6
 74
     0
 42
0.0000000001
 43
0.0000000001
 40
-0.0000000000000001
 40
-0.0000000000000001
 40
-0.0000000000000001
 40
-0.0000000000000001
 40
2.13129035974486
 40
2.496745053307562
 40
3.80404736107363
 40
3.80404736107363
 40
3.80404736107363
 40
3.80404736107363
 10
1.578639326818007
 20
26.65274710587931
 30
0.0
 10
2.289066030392867
 20
26.65462124481568
 30
0.0
 10
3.121458225216375
 20
26.64464751303141
 30
0.0
 10
4.38922339303139
 20
26.66403761379589
 30
0.0
 10
4.942859646960492
 20
26.75440981865283
 30
0.0
 10
5.365578238065442
 20
26.86024822073393
 30
0.0
  0
LINE
  5
53
330
1F
100
AcDbEntity
  8
Default
100
AcDbLine
 10
0.0000302294423589
 20
26.64858266110294
 30
0.0
 11
1.578639326818007
 21
26.65274710587931
 31
0.0
  0
SPLINE
  5
54
330
1F
100
AcDbEntity
  8
Default
100
AcDbSpline
210
0.0
220
0.0
230
1.0
 70
     8
 71
     3
 72
    15
 73
    11
 74
     0
 42
0.0000000001
 43
0.0000000001
 40
0.0043515402578542
 40
0.0043515402578542
 40
0.0043515402578542
 40
0.0043515402578542
 40
0.1033396667493713
 40
0.2475504935945822
 40
0.4863726682532719
 40
0.585605033446689
 40
0.7351649267923845
 40
1.394891114380366
 40
2.722874737020656
 40
14.27694886087073
 40
14.27694886087073
 40
14.27694886087073
 40
14.27694886087073
 10
5.519118090497154
 20
26.25452018548028
 30
0.0
 10
5.549514618477938
 20
26.23864514421317
 30
0.0
 10
5.60382831171676
 20
26.17627630660781
 30
0.0
 10
5.675987292403311
 20
26.03262387047502
 30
0.0
 10
5.719725373446572
 20
25.87647881169539
 30
0.0
 10
5.740002375805608
 20
25.71534638134638
 30
0.0
 10
5.759705627487403
 20
25.41298873076772
 30
0.0
 10
5.805075257667209
 20
24.70206450759051
 30
0.0
 10
6.09146850471725
 20
20.19721417994041
 30
0.0
 10
6.364055162836362
 20
15.91186868843014
 30
0.0
 10
6.608473351605223
 20
12.0682699653007
 30
0.0
  0
SPLINE
  5
55
330
1F
100
AcDbEntity
  8
Default
100
AcDbSpline
210
0.0
220
0.0
230
1.0
 70
     8
 71
     3
 72
    11
 73
     7
 74
     0
 42
0.0000000001
 43
0.0000000001
 40
-0.0000000000000001
 40
-0.0000000000000001
 40
-0.0000000000000001
 40
-0.0000000000000001
 40
2.13339093923288
 40
2.525408407069113
 40
3.258670360522607
 40
3.955688687114349
 40
3.955688687114349
 40
3.955688687114349
 40
3.955688687114349
 10
1.580288100369902
 20
26.02774928064647
 30
0.0
 10
2.291402968757723
 20
26.02962523499387
 30
0.0
 10
3.13325218881751
 20
26.0238342661746
 30
0.0
 10
4.219405628114876
 20
26.03299615036095
 30
0.0
 10
4.824251473230003
 20
26.10766868342358
 30
0.0
 10
5.291866095859929
 20
26.19755658873489
 30
0.0
 10
5.519118090497154
 20
26.25452018548028
 30
0.0
  0
LINE
  5
56
330
1F
100
AcDbEntity
  8
Default
100
AcDbLine
 10
0.0000302294423592
 20
26.02358048632821
 30
0.0
 11
1.580288100369902
 21
26.02774928064647
 31
0.0
  0
SPLINE
  5
57
330
1F
100
AcDbEntity
  8
Default
100
AcDbSpline
210
0.0
220
0.0
230
1.0
 70
    12
 71
     3
 72
    18
 73
    14
 74
     0
 42
0.0000000001
 43
0.0000000001
 40
-0.6043536923734509
 40
-0.6043536923734509
 40
-0.6043536923734509
 40
-0.6043536923734509
 40
-0.3940508536951049
 40
-0.3039948359399878
 40
-0.3039948359399878
 40
-0.3039948359399878
 40
-0.2127823121782243
 40
-0.2127823121782243
 40
-0.2127823121782243
 40
0.0139903334647769
 40
0.0139903334647769
 40
0.0139903334647769
 40
11.3963081927598
 40
11.3963081927598
 40
11.3963081927598
 40
11.3963081927598
 10
7.145564022993444
 20
0.0000000000070309
 30
0.0
 41
0.9999999999999996
 10
6.738210724903507
 20
0.0
 30
0.0
 41
0.9999999999999996
 10
6.669322375101787
 20
0.0
 30
0.0
 41
0.9999999999999996
 10
6.659167896358625
 20
0.0
 30
0.0
 41
0.9999999999999996
 10
6.661176464536849
 20
0.0000000003154064
 30
0.0
 41
0.9999999999999996
 10
6.627361275371233
 20
0.000031464456282
 30
0.0
 41
0.830419280427055
 10
6.602156569823554
 20
0.0225179047974711
 30
0.0
 41
0.830419280427055
 10
6.598385044204006
 20
0.0560195211378949
 30
0.0
 41
0.9999999999999996
 10
6.590022294580725
 20
0.1312924582728075
 30
0.0
 41
0.9999999999999996
 10
6.581659544957445
 20
0.2065653954077202
 30
0.0
 41
0.9999999999999996
 10
6.573296795334165
 20
0.2818383325426328
 30
0.0
 41
0.9999999999999996
 10
6.288809994759353
 20
4.065263664645707
 30
0.0
 41
0.9999999999999089
 10
6.004325170233267
 20
7.848689145336103
 30
0.0
 41
0.999999999999909
 10
5.719842321755985
 20
11.63211477461279
 30
0.0
 41
1.0
  0
SPLINE
  5
58
330
1F
100
AcDbEntity
  8
Default
100
AcDbSpline
210
0.0
220
0.0
230
1.0
 70
    12
 71
     2
 72
     6
 73
     3
 74
     0
 42
0.0000000001
 43
0.0000000001
 40
0.0
 40
0.0
 40
0.0
 40
0.0983833880405574
 40
0.0983833880405574
 40
0.0983833880405574
 10
7.208050705424801
 20
0.0637339996529576
 30
0.0
 41
1.0
 10
7.208049429915
 20
0.0004095787513996
 30
0.0
 41
0.7093828823289784
 10
7.145564022993444
 20
0.0000000000070309
 30
0.0
 41
1.0
  0
SPLINE
  5
59
330
1F
100
AcDbEntity
  8
Default
100
AcDbSpline
210
0.0
220
0.0
230
1.0
 70
    24
 71
     2
 72
     6
 73
     3
 74
     0
 42
0.0000000001
 43
0.0000000001
 40
0.0046342320447379
 40
0.0046342320447379
 40
0.0046342320447379
 40
0.2397717635142957
 40
0.2397717635142957
 40
0.2397717635142957
 10
7.19873128486072
 20
0.2995241332792282
 30
0.0
 10
7.203390995142761
 20
0.1816290664660929
 30
0.0
 10
7.208050705424801
 20
0.0637339996529576
 30
0.0
  0
LINE
  5
5A
330
1F
100
AcDbEntity
  8
Default
100
AcDbLine
 10
6.346607417333871
 20
11.6321147729177
 30
0.0
 11
7.19873128486072
 21
0.2995241332792282
 31
0.0
  0
SPLINE
  5
5B
330
1F
100
AcDbEntity
  8
Default
100
AcDbSpline
210
0.0
220
0.0
230
1.0
 70
     8
 71
     3
 72
     8
 73
     4
 74
     0
 42
0.0000000001
 43
0.0000000001
 40
0.0
 40
0.0
 40
0.0
 40
0.0
 40
1.0
 40
1.0
 40
1.0
 40
1.0
 10
6.574382075435803
 20
0.2674233885291879
 30
0.0
 10
6.663045161821128
 20
0.2016019230475737
 30
0.0
 10
7.141037091893887
 20
0.2397515137106576
 30
0.0
 10
7.19808390823912
 20
0.3148160472399337
 30
0.0
  0
SPLINE
  5
5C
330
1F
100
AcDbEntity
  8
Default
100
AcDbSpline
210
0.0
220
0.0
230
1.0
 70
    12
 71
     3
 72
    12
 73
     8
 74
     0
 42
0.0000000001
 43
0.0000000001
 40
-1.085735060038045
 40
-1.085735060038045
 40
-1.085735060038045
 40
-1.085735060038045
 40
-1.050960699287057
 40
-1.050960699287057
 40
-0.8629405803707535
 40
-0.8629405803707535
 40
-0.7454228047839444
 40
-0.7454228047839444
 40
-0.7454228047839444
 40
-0.7454228047839444
 10
-6.711828393523746
 20
11.87866914303827
 30
0.0
 41
1.0
 10
-6.712946903981397
 20
11.86733183080672
 30
0.0
 41
1.0
 10
-6.713221131276617
 20
11.85563816311476
 30
0.0
 41
1.0
 10
-6.70829206122367
 20
11.77873770671776
 30
0.0
 41
1.0
 10
-6.678325225103254
 20
11.72050776332256
 30
0.0
 41
1.0
 10
-6.647658795375976
 20
11.65896918569302
 30
0.0
 41
1.0
 10
-6.639369177531298
 20
11.64251870949716
 30
0.0
 41
1.0
 10
-6.637345470417381
 20
11.63575679660613
 30
0.0
 41
1.0
  0
SPLINE
  5
5D
330
1F
100
AcDbEntity
  8
Default
100
AcDbSpline
210
0.0
220
0.0
230
1.0
 70
    12
 71
     2
 72
     6
 73
     3
 74
     0
 42
0.0000000001
 43
0.0000000001
 40
0.0
 40
0.0
 40
0.0
 40
0.2209770016893544
 40
0.2209770016893544
 40
0.2209770016893544
 10
-6.609330608865715
 20
12.06961477290045
 30
0.0
 41
1.0
 10
-6.694524715590711
 20
11.99235558689602
 30
0.0
 41
0.9420738339009574
 10
-6.711726456557319
 20
11.87864051423433
 30
0.0
 41
1.0
  0
SPLINE
  5
5E
330
1F
100
AcDbEntity
  8
Default
100
AcDbSpline
210
0.0
220
0.0
230
1.0
 70
     8
 71
     3
 72
    10
 73
     6
 74
     0
 42
0.0000000001
 43
0.0000000001
 40
0.0
 40
0.0
 40
0.0
 40
0.0
 40
0.1741061113090963
 40
0.9743186111284254
 40
14.16256663427289
 40
14.16256663427289
 40
14.16256663427289
 40
14.16256663427289
 10
-5.243783380125778
 20
26.19159052706314
 30
0.0
 10
-5.252044204087941
 20
26.13412632553382
 30
0.0
 10
-5.280779521680815
 20
25.81060204700774
 30
0.0
 10
-5.634104536239455
 20
21.1029921269132
 30
0.0
 10
-5.984238274215773
 20
16.45333220090692
 30
0.0
 10
-6.313710525713859
 20
12.06961478705845
 30
0.0
  0
SPLINE
  5
5F
330
1F
100
AcDbEntity
  8
Default
100
AcDbSpline
210
0.0
220
0.0
230
1.0
 70
     8
 71
     3
 72
     9
 73
     5
 74
     0
 42
0.0000000001
 43
0.0000000001
 40
0.0
 40
0.0
 40
0.0
 40
0.0
 40
13.16091596961943
 40
14.0580911958485
 40
14.0580911958485
 40
14.0580911958485
 40
14.0580911958485
 10
-5.686945454640346
 20
12.06961477290045
 30
0.0
 10
-5.358549416150252
 20
16.44429117835043
 30
0.0
 10
-5.005577022223289
 20
21.1169726111004
 30
0.0
 10
-4.656071158934326
 20
25.78999113550323
 30
0.0
 10
-4.62733177666888
 20
26.08765172693179
 30
0.0
  0
SPLINE
  5
60
330
1F
100
AcDbEntity
  8
Default
100
AcDbSpline
210
0.0
220
0.0
230
1.0
 70
    12
 71
     2
 72
     6
 73
     3
 74
     0
 42
0.0000000001
 43
0.0000000001
 40
0.0
 40
0.0
 40
0.0
 40
1.053377914518295
 40
1.053377914518295
 40
1.053377914518295
 10
-7.471855014184257
 20
29.85485761005484
 30
0.0
 41
1.0
 10
-7.471736484357688
 20
29.32816866612707
 30
0.0
 41
0.9999999999828493
 10
-7.471624123886755
 20
28.80147972084703
 30
0.0
 41
1.0
  0
SPLINE
  5
61
330
1F
100
AcDbEntity
  8
Default
100
AcDbSpline
210
0.0
220
0.0
230
1.0
 70
     8
 71
     3
 72
     8
 73
     4
 74
     0
 42
0.0000000001
 43
0.0000000001
 40
0.0
 40
0.0
 40
0.0
 40
0.0
 40
1.0
 40
1.0
 40
1.0
 40
1.0
 10
-7.030352053200051
 20
30.36055435915197
 30
0.0
 10
-7.246930087155872
 20
30.30428154799882
 30
0.0
 10
-7.471905372805197
 20
30.07862684728654
 30
0.0
 10
-7.471855014184257
 20
29.85485761005484
 30
0.0
  0
SPLINE
  5
62
330
1F
100
AcDbEntity
  8
Default
100
AcDbSpline
210
0.0
220
0.0
230
1.0
 70
     8
 71
     3
 72
    12
 73
     8
 74
     0
 42
0.0000000001
 43
0.0000000001
 40
0.0
 40
0.0
 40
0.0
 40
0.0
 40
1.300874960309146
 40
2.476256366334871
 40
4.482385878543031
 40
6.0182617026045
 40
7.055352586087446
 40
7.055352586087446
 40
7.055352586087446
 40
7.055352586087446
 10
-0.000019425340767
 20
30.78258097319911
 30
0.0
 10
-0.4336505255543148
 20
30.78265377655238
 30
0.0
 10
-1.259057285617335
 20
30.77879814692914
 30
0.0
 10
-2.75304008519692
 20
30.75495998064638
 30
0.0
 10
-4.324638792474472
 20
30.69844712239908
 30
0.0
 10
-5.847039276453536
 20
30.58048959677858
 30
0.0
 10
-6.695401812138741
 20
30.44758346047252
 30
0.0
 10
-7.030352053200051
 20
30.36055435915197
 30
0.0
  0
SPLINE
  5
63
330
1F
100
AcDbEntity
  8
Default
100
AcDbSpline
210
0.0
220
0.0
230
1.0
 70
     8
 71
     3
 72
    25
 73
    21
 74
     0
 42
0.0000000001
 43
0.0000000001
 40
0.0
 40
0.0
 40
0.0
 40
0.0
 40
1.0
 40
2.0
 40
3.0
 40
4.0
 40
5.0
 40
6.0
 40
7.0
 40
8.0
 40
9.0
 40
10.0
 40
11.0
 40
12.0
 40
13.0
 40
14.0
 40
15.0
 40
16.0
 40
17.0
 40
18.0
 40
18.0
 40
18.0
 40
18.0
 10
-7.861801799324007
 20
32.06379312788983
 30
0.0
 10
-7.908930524240405
 20
31.85862744755422
 30
0.0
 10
-8.000165187768198
 20
31.44686263752003
 30
0.0
 10
-8.119913771158867
 20
30.82831254408136
 30
0.0
 10
-8.238063644259302
 20
30.20119163852941
 30
0.0
 10
-8.330427135495505
 20
29.59980818400826
 30
0.0
 10
-8.291612802205096
 20
28.8710285200463
 30
0.0
 10
-7.559502705685805
 20
28.79755121858201
 30
0.0
 10
-6.955233092962361
 20
28.78659021660485
 30
0.0
 10
-6.316078922212453
 20
28.78468196252282
 30
0.0
 10
-5.686266182186545
 20
28.77976207347421
 30
0.0
 10
-5.054090186084088
 20
28.76535019413562
 30
0.0
 10
-4.422446280552368
 20
28.76020973225083
 30
0.0
 10
-3.790654403588062
 20
28.75304916794446
 30
0.0
 10
-3.15890383788636
 20
28.74624586921284
 30
0.0
 10
-2.5271399967616
 20
28.73959509334458
 30
0.0
 10
-1.895372583027017
 20
28.73358091240826
 30
0.0
 10
-1.263595815057617
 20
28.72853648898123
 30
0.0
 10
-0.631804765704261
 20
28.72552229559509
 30
0.0
 10
-0.2106059023301618
 20
28.72554442428567
 30
0.0
 10
-0.0000079951375227
 20
28.72623510855333
 30
0.0
  0
SPLINE
  5
64
330
1F
100
AcDbEntity
  8
Default
100
AcDbSpline
210
0.0
220
0.0
230
1.0
 70
     8
 71
     3
 72
    24
 73
    20
 74
     0
 42
0.0000000001
 43
0.0000000001
 40
0.0
 40
0.0
 40
0.0
 40
0.0
 40
1.0
 40
2.0
 40
3.0
 40
4.0
 40
5.0
 40
6.0
 40
7.0
 40
8.0
 40
9.0
 40
10.0
 40
11.0
 40
12.0
 40
13.0
 40
14.0
 40
15.0
 40
16.0
 40
17.0
 40
17.0
 40
17.0
 40
17.0
 10
-4.317177272646408
 20
40.3247794238878
 30
0.0
 10
-4.587671624346164
 20
40.14039997135145
 30
0.0
 10
-5.102758817848818
 20
39.73264446476188
 30
0.0
 10
-5.762157647778048
 20
38.9994585686651
 30
0.0
 10
-6.290942970657166
 20
38.16923080657383
 30
0.0
 10
-6.739531672911516
 20
37.29477892247903
 30
0.0
 10
-7.136908487041862
 20
36.39618003629413
 30
0.0
 10
-7.495541982697768
 20
35.48161766684509
 30
0.0
 10
-7.83471288303483
 20
34.55971858157318
 30
0.0
 10
-8.14627439060209
 20
33.62807335450449
 30
0.0
 10
-8.420238252983921
 20
32.68437894960534
 30
0.0
 10
-8.655741621602552
 20
31.73138691699468
 30
0.0
 10
-8.863657269379162
 20
30.76846609680721
 30
0.0
 10
-9.044041820167836
 20
29.81339313227264
 30
0.0
 10
-9.155621869402042
 20
28.79667532510426
 30
0.0
 10
-8.56201966250966
 20
27.95775439973739
 30
0.0
 10
-7.749301200625465
 20
27.40039848475407
 30
0.0
 10
-6.838708385301432
 20
27.02115244287795
 30
0.0
 10
-6.209752587534868
 20
26.83828456056814
 30
0.0
 10
-5.89186704290721
 20
26.75955895013413
 30
0.0
  0
SPLINE
  5
65
330
1F
100
AcDbEntity
  8
Default
100
AcDbSpline
210
0.0
220
0.0
230
1.0
 70
     8
 71
     3
 72
    31
 73
    27
 74
     0
 42
0.0000000001
 43
0.0000000001
 40
0.0
 40
0.0
 40
0.0
 40
0.0
 40
1.0
 40
2.0
 40
3.0
 40
4.0
 40
5.0
 40
6.0
 40
7.0
 40
8.0
 40
9.0
 40
10.0
 40
11.0
 40
12.0
 40
13.0
 40
14.0
 40
15.0
 40
16.0
 40
17.0
 40
18.0
 40
19.0
 40
20.0
 40
21.0
 40
22.0
 40
23.0
 40
24.0
 40
24.0
 40
24.0
 40
24.0
 10
-1.924805837331756
 20
41.27524691251939
 30
0.0
 10
-2.252963417010271
 20
41.22353938253504
 30
0.0
 10
-2.903251592679606
 20
41.07147614439414
 30
0.0
 10
-3.815443738899317
 20
40.65827579799352
 30
0.0
 10
-4.647121654689307
 20
40.10366115498558
 30
0.0
 10
-5.384913569656377
 20
39.42603524121027
 30
0.0
 10
-5.972770597046555
 20
38.61624293474579
 30
0.0
 10
-6.449672218619247
 20
37.7389469816864
 30
0.0
 10
-6.84733838251443
 20
36.82384430842848
 30
0.0
 10
-7.186336501845106
 20
35.88587409747813
 30
0.0
 10
-7.526078582133051
 20
34.94837594007237
 30
0.0
 10
-7.843544105616846
 20
34.00318621580472
 30
0.0
 10
-8.121832185395792
 20
33.04449360102828
 30
0.0
 10
-8.35710796665853
 20
32.07864152399437
 30
0.0
 10
-8.56748687090244
 20
31.09159402478663
 30
0.0
 10
-8.766836309414138
 20
30.16047280272027
 30
0.0
 10
-9.005315450000397
 20
29.02035971282685
 30
0.0
 10
-7.96010575762627
 20
28.60033882547637
 30
0.0
 10
-6.981347984299919
 20
28.59789977481023
 30
0.0
 10
-5.980355040267455
 20
28.5463834724025
 30
0.0
 10
-4.985252472291241
 20
28.50941823670698
 30
0.0
 10
-3.98818595389601
 20
28.47932981731716
 30
0.0
 10
-2.991363883074462
 20
28.45763440286788
 30
0.0
 10
-1.994291997158498
 20
28.44298800280879
 30
0.0
 10
-0.9971802352724242
 20
28.43481423786668
 30
0.0
 10
-0.3324126148537581
 20
28.43315780199603
 30
0.0
 10
-0.0000302294423591
 20
28.43315815949944
 30
0.0
  0
SPLINE
  5
66
330
1F
100
AcDbEntity
  8
Default
100
AcDbSpline
210
0.0
220
0.0
230
1.0
 70
    12
 71
     2
 72
     6
 73
     3
 74
     0
 42
0.0000000001
 43
0.0000000001
 40
0.0
 40
0.0
 40
0.0
 40
1.931280518808496
 40
1.931280518808496
 40
1.931280518808496
 10
-0.0000274868896533
 20
41.40904516842838
 30
0.0
 41
1.0
 10
-0.9675067418902358
 20
41.41537028209269
 30
0.0
 41
0.9971191606784069
 10
-1.924805837331756
 20
41.27524691251941
 30
0.0
 41
0.999999999537475
  0
SPLINE
  5
67
330
1F
100
AcDbEntity
  8
Default
100
AcDbSpline
210
0.0
220
0.0
230
1.0
 70
     8
 71
     3
 72
     8
 73
     4
 74
     0
 42
0.0000000001
 43
0.0000000001
 40
0.0
 40
0.0
 40
0.0
 40
0.0
 40
1.0
 40
1.0
 40
1.0
 40
1.0
 10
-7.358475978841724
 20
0.2767856515200507
 30
0.0
 10
-7.528653749099447
 20
0.3267138419452827
 30
0.0
 10
-7.870689043782682
 20
0.3520497896995964
 30
0.0
 10
-7.983223786412985
 20
0.2990060200028477
 30
0.0
  0
SPLINE
  5
68
330
1F
100
AcDbEntity
  8
Default
100
AcDbSpline
210
0.0
220
0.0
230
1.0
 70
    12
 71
     2
 72
     6
 73
     3
 74
     0
 42
0.0000000001
 43
0.0000000001
 40
-11.37912846752068
 40
-11.37912846752068
 40
-11.37912846752068
 40
0.0
 40
0.0
 40
0.0
 10
-7.358475978841724
 20
0.2767856515200507
 30
0.0
 41
1.0
 10
-6.997272211459732
 20
5.954870952120528
 30
0.0
 41
0.9999999999995292
 10
-6.636159083340317
 20
11.63296201697085
 30
0.0
 41
1.0
  0
LINE
  5
69
330
1F
100
AcDbEntity
  8
Default
100
AcDbLine
 10
-7.380612876635416
 20
0.0546887981635714
 30
0.0
 11
-7.358475978841724
 21
0.2767856515200507
 31
0.0
  0
SPLINE
  5
6A
330
1F
100
AcDbEntity
  8
Default
100
AcDbSpline
210
0.0
220
0.0
230
1.0
 70
    12
 71
     2
 72
     6
 73
     3
 74
     0
 42
0.0000000001
 43
0.0000000001
 40
0.0
 40
0.0
 40
0.0
 40
0.0886388093994123
 40
0.0886388093994123
 40
0.0886388093994123
 10
-7.445359602491186
 20
0.00000000001403
 30
0.0
 41
1.0
 10
-7.389021635931896
 20
0.000054948297483
 30
0.0
 41
0.7594651808225202
 10
-7.380612876635416
 20
0.0546887981635714
 30
0.0
 41
1.0
  0
SPLINE
  5
6B
330
1F
100
AcDbEntity
  8
Default
100
AcDbSpline
210
0.0
220
0.0
230
1.0
 70
    28
 71
     3
 72
    12
 73
     8
 74
     0
 42
0.0000000001
 43
0.0000000001
 40
-0.9902250190793587
 40
-0.9902250190793587
 40
-0.9902250190793587
 40
-0.9902250190793587
 40
-0.9407689708371832
 40
-0.7584478985639477
 40
-0.5643157541358403
 40
-0.3778603997756935
 40
-0.1898050790197806
 40
-0.1898050790197806
 40
-0.1898050790197806
 40
-0.1898050790197806
 10
-7.927153374601559
 20
0.0000000000014435
 30
0.0
 41
1.0
 10
-7.926025312177671
 20
0.0
 30
0.0
 41
1.0
 10
-7.914203126709598
 20
0.0
 30
0.0
 41
1.0
 10
-7.826063405344765
 20
0.0
 30
0.0
 41
1.0
 10
-7.630118168329464
 20
0.0
 30
0.0
 41
1.0
 10
-7.464949603366902
 20
0.0
 30
0.0
 41
1.0
 10
-7.436092263302521
 20
0.0
 30
0.0
 41
1.0
 10
-7.445359602491186
 20
0.00000000001403
 30
0.0
 41
1.0
  0
SPLINE
  5
6C
330
1F
100
AcDbEntity
  8
Default
100
AcDbSpline
210
0.0
220
0.0
230
1.0
 70
    12
 71
     2
 72
     8
 73
     5
 74
     0
 42
0.0000000001
 43
0.0000000001
 40
0.0
 40
0.0
 40
0.0
 40
0.0498965464319534
 40
0.0498965464319534
 40
0.0997930928639067
 40
0.0997930928639067
 40
0.0997930928639067
 10
-7.98984958192993
 20
0.0644824638680027
 30
0.0
 41
1.0
 10
-7.990416439430239
 20
0.037957193235032
 30
0.0
 41
0.9222573873671466
 10
-7.972059068621387
 20
0.0190587768822037
 30
0.0
 41
1.0
 10
-7.953701697812531
 20
0.0001603605293754
 30
0.0
 41
0.9222573873671466
 10
-7.927153374601559
 20
0.0000000000014435
 30
0.0
 41
1.0
  0
SPLINE
  5
6D
330
1F
100
AcDbEntity
  8
Default
100
AcDbSpline
210
0.0
220
0.0
230
1.0
 70
    24
 71
     2
 72
     6
 73
     3
 74
     0
 42
0.0000000001
 43
0.0000000001
 40
0.0112693750261376
 40
0.0112693750261376
 40
0.0112693750261376
 40
0.2457020426146733
 40
0.2457020426146733
 40
0.2457020426146733
 10
-7.983223786412985
 20
0.2990060200028477
 30
0.0
 10
-7.986536684171457
 20
0.1817442419354252
 30
0.0
 10
-7.98984958192993
 20
0.0644824638680027
 30
0.0
  0
LINE
  5
6E
330
1F
100
AcDbEntity
  8
Default
100
AcDbLine
 10
-7.982138898308339
 20
0.3160582531906345
 30
0.0
 11
-7.983223786412985
 21
0.2990060200028477
 31
0.0
  0
SPLINE
  5
6F
330
1F
100
AcDbEntity
  8
Default
100
AcDbSpline
210
0.0
220
0.0
230
1.0
 70
     8
 71
     3
 72
    18
 73
    14
 74
     0
 42
0.0000000001
 43
0.0000000001
 40
3.80404736107363
 40
3.80404736107363
 40
3.80404736107363
 40
3.80404736107363
 40
3.853461099389163
 40
3.984258497241346
 40
4.362634833398421
 40
4.840509159655426
 40
5.409530469778589
 40
5.494898892608867
 40
5.771481605835228
 40
6.319895744175046
 40
7.554255476774538
 40
9.993530368147049
 40
30.99170142035431
 40
30.99170142035431
 40
30.99170142035431
 40
30.99170142035431
 10
-5.365578238065442
 20
26.86024822073393
 30
0.0
 10
-5.381732737137922
 20
26.86344625645079
 30
0.0
 10
-5.440744441305846
 20
26.87466622822643
 30
0.0
 10
-5.626501082135858
 20
26.89604370840697
 30
0.0
 10
-5.95028529753902
 20
26.7674529754574
 30
0.0
 10
-6.236977162360668
 20
26.3761535821854
 30
0.0
 10
-6.338257694569242
 20
26.00645024124791
 30
0.0
 10
-6.367397384974735
 20
25.69802629813799
 30
0.0
 10
-6.386538972279178
 20
25.39480589090367
 30
0.0
 10
-6.431374099967492
 20
24.71002479877373
 30
0.0
 10
-6.519829471801019
 20
23.30539188680509
 30
0.0
 10
-7.042344435617757
 20
15.09810030155509
 30
0.0
 10
-7.537726416334464
 20
7.301318061762183
 30
0.0
 10
-7.982138898308339
 20
0.3160582531906345
 30
0.0
  0
SPLINE
  5
70
330
1F
100
AcDbEntity
  8
Default
100
AcDbSpline
210
0.0
220
0.0
230
1.0
 70
     8
 71
     3
 72
    10
 73
     6
 74
     0
 42
0.0000000001
 43
0.0000000001
 40
-0.0000000000000001
 40
-0.0000000000000001
 40
-0.0000000000000001
 40
-0.0000000000000001
 40
2.13129035974486
 40
2.496745053307562
 40
3.80404736107363
 40
3.80404736107363
 40
3.80404736107363
 40
3.80404736107363
 10
-1.578639326818007
 20
26.65274710587931
 30
0.0
 10
-2.289066030392867
 20
26.65462124481568
 30
0.0
 10
-3.121458225216375
 20
26.64464751303141
 30
0.0
 10
-4.38922339303139
 20
26.66403761379589
 30
0.0
 10
-4.942859646960492
 20
26.75440981865283
 30
0.0
 10
-5.365578238065442
 20
26.86024822073393
 30
0.0
  0
LINE
  5
71
330
1F
100
AcDbEntity
  8
Default
100
AcDbLine
 10
-0.0000302294423589
 20
26.64858266110294
 30
0.0
 11
-1.578639326818007
 21
26.65274710587931
 31
0.0
  0
SPLINE
  5
72
330
1F
100
AcDbEntity
  8
Default
100
AcDbSpline
210
0.0
220
0.0
230
1.0
 70
     8
 71
     3
 72
    15
 73
    11
 74
     0
 42
0.0000000001
 43
0.0000000001
 40
0.0043515402578542
 40
0.0043515402578542
 40
0.0043515402578542
 40
0.0043515402578542
 40
0.1033396667493713
 40
0.2475504935945822
 40
0.4863726682532719
 40
0.585605033446689
 40
0.7351649267923845
 40
1.394891114380366
 40
2.722874737020656
 40
14.27694886087073
 40
14.27694886087073
 40
14.27694886087073
 40
14.27694886087073
 10
-5.519118090497154
 20
26.25452018548028
 30
0.0
 10
-5.549514618477938
 20
26.23864514421317
 30
0.0
 10
-5.60382831171676
 20
26.17627630660781
 30
0.0
 10
-5.675987292403311
 20
26.03262387047502
 30
0.0
 10
-5.719725373446572
 20
25.87647881169539
 30
0.0
 10
-5.740002375805608
 20
25.71534638134638
 30
0.0
 10
-5.759705627487403
 20
25.41298873076772
 30
0.0
 10
-5.805075257667209
 20
24.70206450759051
 30
0.0
 10
-6.09146850471725
 20
20.19721417994041
 30
0.0
 10
-6.364055162836362
 20
15.91186868843014
 30
0.0
 10
-6.608473351605223
 20
12.0682699653007
 30
0.0
  0
SPLINE
  5
73
330
1F
100
AcDbEntity
  8
Default
100
AcDbSpline
210
0.0
220
0.0
230
1.0
 70
     8
 71
     3
 72
    11
 73
     7
 74
     0
 42
0.0000000001
 43
0.0000000001
 40
-0.0000000000000001
 40
-0.0000000000000001
 40
-0.0000000000000001
 40
-0.0000000000000001
 40
2.13339093923288
 40
2.525408407069113
 40
3.258670360522607
 40
3.955688687114349
 40
3.955688687114349
 40
3.955688687114349
 40
3.955688687114349
 10
-1.580288100369902
 20
26.02774928064647
 30
0.0
 10
-2.291402968757723
 20
26.02962523499387
 30
0.0
 10
-3.13325218881751
 20
26.0238342661746
 30
0.0
 10
-4.219405628114876
 20
26.03299615036095
 30
0.0
 10
-4.824251473230003
 20
26.10766868342358
 30
0.0
 10
-5.291866095859929
 20
26.19755658873489
 30
0.0
 10
-5.519118090497154
 20
26.25452018548028
 30
0.0
  0
LINE
  5
74
330
1F
100
AcDbEntity
  8
Default
100
AcDbLine
 10
-0.0000302294423592
 20
26.02358048632821
 30
0.0
 11
-1.580288100369902
 21
26.02774928064647
 31
0.0
  0
SPLINE
  5
75
330
1F
100
AcDbEntity
  8
Default
100
AcDbSpline
210
0.0
220
0.0
230
1.0
 70
    12
 71
     3
 72
    18
 73
    14
 74
     0
 42
0.0000000001
 43
0.0000000001
 40
-0.6043536923734509
 40
-0.6043536923734509
 40
-0.6043536923734509
 40
-0.6043536923734509
 40
-0.3940508536951049
 40
-0.3039948359399878
 40
-0.3039948359399878
 40
-0.3039948359399878
 40
-0.2127823121782243
 40
-0.2127823121782243
 40
-0.2127823121782243
 40
0.0139903334647769
 40
0.0139903334647769
 40
0.0139903334647769
 40
11.3963081927598
 40
11.3963081927598
 40
11.3963081927598
 40
11.3963081927598
 10
-7.145564022993444
 20
0.0000000000070309
 30
0.0
 41
0.9999999999999996
 10
-6.738210724903507
 20
0.0
 30
0.0
 41
0.9999999999999996
 10
-6.669322375101787
 20
0.0
 30
0.0
 41
0.9999999999999996
 10
-6.659167896358625
 20
0.0
 30
0.0
 41
0.9999999999999996
 10
-6.661176464536849
 20
0.0000000003154064
 30
0.0
 41
0.9999999999999996
 10
-6.627361275371233
 20
0.000031464456282
 30
0.0
 41
0.830419280427055
 10
-6.602156569823554
 20
0.0225179047974711
 30
0.0
 41
0.830419280427055
 10
-6.598385044204006
 20
0.0560195211378949
 30
0.0
 41
0.9999999999999996
 10
-6.590022294580725
 20
0.1312924582728075
 30
0.0
 41
0.9999999999999996
 10
-6.581659544957445
 20
0.2065653954077202
 30
0.0
 41
0.9999999999999996
 10
-6.573296795334165
 20
0.2818383325426328
 30
0.0
 41
0.9999999999999996
 10
-6.288809994759353
 20
4.065263664645707
 30
0.0
 41
0.9999999999999089
 10
-6.004325170233267
 20
7.848689145336103
 30
0.0
 41
0.999999999999909
 10
-5.719842321755985
 20
11.63211477461279
 30
0.0
 41
1.0
  0
SPLINE
  5
76
330
1F
100
AcDbEntity
  8
Default
100
AcDbSpline
210
0.0
220
0.0
230
1.0
 70
    12
 71
     2
 72
     6
 73
     3
 74
     0
 42
0.0000000001
 43
0.0000000001
 40
0.0
 40
0.0
 40
0.0
 40
0.0983833880405574
 40
0.0983833880405574
 40
0.0983833880405574
 10
-7.208050705424801
 20
0.0637339996529576
 30
0.0
 41
1.0
 10
-7.208049429915
 20
0.0004095787513996
 30
0.0
 41
0.7093828823289784
 10
-7.145564022993444
 20
0.0000000000070309
 30
0.0
 41
1.0
  0
SPLINE
  5
77
330
1F
100
AcDbEntity
  8
Default
100
AcDbSpline
210
0.0
220
0.0
230
1.0
 70
    24
 71
     2
 72
     6
 73
     3
 74
     0
 42
0.0000000001
 43
0.0000000001
 40
0.0046342320447379
 40
0.0046342320447379
 40
0.0046342320447379
 40
0.2397717635142957
 40
0.2397717635142957
 40
0.2397717635142957
 10
-7.19873128486072
 20
0.2995241332792282
 30
0.0
 10
-7.203390995142761
 20
0.1816290664660929
 30
0.0
 10
-7.208050705424801
 20
0.0637339996529576
 30
0.0
  0
LINE
  5
78
330
1F
100
AcDbEntity
  8
Default
100
AcDbLine
 10
-6.346607417333871
 20
11.6321147729177
 30
0.0
 11
-7.19873128486072
 21
0.2995241332792282
 31
0.0
  0
SPLINE
  5
79
330
1F
100
AcDbEntity
  8
Default
100
AcDbSpline
210
0.0
220
0.0
230
1.0
 70
     8
 71
     3
 72
     8
 73
     4
 74
     0
 42
0.0000000001
 43
0.0000000001
 40
0.0
 40
0.0
 40
0.0
 40
0.0
 40
1.0
 40
1.0
 40
1.0
 40
1.0
 10
-6.574382075435803
 20
0.2674233885291879
 30
0.0
 10
-6.663045161821128
 20
0.2016019230475737
 30
0.0
 10
-7.141037091893887
 20
0.2397515137106576
 30
0.0
 10
-7.19808390823912
 20
0.3148160472399337
 30
0.0
  0
SPLINE
  5
7A
330
1F
100
AcDbEntity
  8
Default
100
AcDbSpline
210
0.0
220
0.0
230
1.0
 70
    24
 71
     2
 72
     6
 73
     3
 74
     0
 42
0.0000000001
 43
0.0000000001
 40
0.0
 40
0.0
 40
0.0
 40
14.0935227190501
 40
14.0935227190501
 40
14.0935227190501
 10
21.37800288329511
 20
11.63211477290045
 30
0.0
 10
28.42476424282016
 20
11.63211477290044
 30
0.0
 10
35.47152560234521
 20
11.63211477290044
 30
0.0
  0
SPLINE
  5
7B
330
1F
100
AcDbEntity
  8
Default
100
AcDbSpline
210
0.0
220
0.0
230
1.0
 70
     8
 71
     3
 72
    11
 73
     7
 74
     0
 42
0.0000000001
 43
0.0000000001
 40
0.0
 40
0.0
 40
0.0
 40
0.0
 40
0.1412749780823234
 40
0.1863720084430542
 40
0.2342322362869856
 40
0.4696135185302004
 40
0.4696135185302004
 40
0.4696135185302004
 40
0.4696135185302004
 10
35.47154316477267
 20
11.63413425211859
 30
0.0
 10
35.48339478637857
 20
11.67918079353191
 30
0.0
 10
35.51444415791215
 20
11.73533342861163
 30
0.0
 10
35.52728463862047
 20
11.8119093624669
 30
0.0
 10
35.53075285142702
 20
11.92420277266295
 30
0.0
 10
35.47350728879917
 20
12.00706516757458
 30
0.0
 10
35.42822546457293
 20
12.06945485846854
 30
0.0
  0
SPLINE
  5
7C
330
1F
100
AcDbEntity
  8
Default
100
AcDbSpline
210
0.0
220
0.0
230
1.0
 70
    24
 71
     2
 72
     6
 73
     3
 74
     0
 42
0.0000000001
 43
0.0000000001
 40
0.0
 40
0.0
 40
0.0
 40
13.98126843020605
 40
13.98126843020605
 40
13.98126843020605
 10
21.447055435324
 20
12.06961477290045
 30
0.0
 10
28.43768965042702
 20
12.06961477290045
 30
0.0
 10
35.42832386553005
 20
12.06961477290045
 30
0.0
  0
SPLINE
  5
7D
330
1F
100
AcDbEntity
  8
Default
100
AcDbSpline
210
0.0
220
0.0
230
1.0
 70
     8
 71
     3
 72
    13
 73
     9
 74
     0
 42
0.0000000001
 43
0.0000000001
 40
0.0
 40
0.0
 40
0.0
 40
0.0
 40
0.0202351056831766
 40
0.0536557085876981
 40
0.134370280009463
 40
0.2527463335621659
 40
0.3592747712659609
 40
0.4994209142103113
 40
0.4994209142103113
 40
0.4994209142103113
 40
0.4994209142103113
 10
21.447055435324
 20
12.06961477290045
 30
0.0
 10
21.44038977336848
 20
12.06798522485912
 30
0.0
 10
21.42590910347872
 20
12.05753480754198
 30
0.0
 10
21.39303936803643
 20
12.02639970839593
 30
0.0
 10
21.34354692002522
 20
11.96778239295432
 30
0.0
 10
21.29819621369456
 20
11.87224112123043
 30
0.0
 10
21.31287103848272
 20
11.74795265072812
 30
0.0
 10
21.35208769772647
 20
11.67487373226344
 30
0.0
 10
21.37586955622701
 20
11.63475473663953
 30
0.0
  0
SPLINE
  5
7E
330
1F
100
AcDbEntity
  8
Default
100
AcDbSpline
210
0.0
220
0.0
230
1.0
 70
     8
 71
     3
 72
    29
 73
    25
 74
     0
 42
0.0000000001
 43
0.0000000001
 40
0.0
 40
0.0
 40
0.0
 40
0.0
 40
0.6369043208068224
 40
0.8608670452121409
 40
1.233037759095982
 40
1.660876269395921
 40
1.84865941917371
 40
2.463529259138194
 40
3.20076562704201
 40
3.929596673091468
 40
4.056975974520465
 40
4.10009772219338
 40
4.187735773594969
 40
4.300425859907776
 40
4.514931684249021
 40
4.681692173481947
 40
4.868559113103929
 40
4.934820181052534
 40
5.024103770928482
 40
5.075174526530934
 40
5.710617809298383
 40
7.127805759226008
 40
8.68966690757406
 40
19.11589537470503
 40
19.11589537470503
 40
19.11589537470503
 40
19.11589537470503
 10
28.45822571750695
 20
26.02774350848733
 30
0.0
 10
28.24592426484141
 20
26.02770590819577
 30
0.0
 10
27.95896862733172
 20
26.02784561143442
 30
0.0
 10
27.54795612361515
 20
26.02754255396756
 30
0.0
 10
27.20663164936249
 20
26.02885690116194
 30
0.0
 10
26.87736607267117
 20
26.02623038438559
 30
0.0
 10
26.46724903445755
 20
26.0278116802581
 30
0.0
 10
25.95378129802672
 20
26.05072586006657
 30
0.0
 10
25.26957566145655
 20
26.17597636070071
 30
0.0
 10
24.76197348400354
 20
26.33481420941883
 30
0.0
 10
24.48411367450619
 20
26.44789641395764
 30
0.0
 10
24.40103211087304
 20
26.47064321436965
 30
0.0
 10
24.319649209641
 20
26.47750552285552
 30
0.0
 10
24.18124837563286
 20
26.4681925024742
 30
0.0
 10
24.02617790078525
 20
26.40221340676004
 30
0.0
 10
23.88325130550717
 20
26.2761974623699
 30
0.0
 10
23.80658776434777
 20
26.15716167774939
 30
0.0
 10
23.75960876595618
 20
26.05335314080163
 30
0.0
 10
23.74399458253088
 20
25.98571859836589
 30
0.0
 10
23.69740609914255
 20
25.73154513392319
 30
0.0
 10
23.58178107768876
 20
25.03976171783437
 30
0.0
 10
23.3879451465037
 20
23.85068208534151
 30
0.0
 10
22.66214046923052
 20
19.44158733518881
 30
0.0
 10
22.01409870190175
 20
15.49845459494563
 30
0.0
 10
21.44993147213959
 20
12.06914178570728
 30
0.0
  0
ARC
  5
7F
330
1F
100
AcDbEntity
  8
Default
100
AcDbCircle
 10
28.47231423130324
 20
26.34024927426113
 30
0.0
 40
0.3128231766715188
100
AcDbArc
 50
267.4187158494792
 51
92.60464774438242
  0
SPLINE
  5
80
330
1F
100
AcDbEntity
  8
Default
100
AcDbSpline
210
0.0
220
0.0
230
1.0
 70
     8
 71
     3
 72
    19
 73
    15
 74
     0
 42
0.0000000001
 43
0.0000000001
 40
-5.917404383870537
 40
-5.917404383870537
 40
-5.917404383870537
 40
-5.917404383870537
 40
-5.886327683711992
 40
-5.692528116833707
 40
-5.494027176797421
 40
-4.766817838528788
 40
-4.412399494878505
 40
-4.057981151228224
 40
-3.851324497193475
 40
-3.644667843158726
 40
-2.262918857619343
 40
-1.752116073910194
 40
-1.125074400318362
 40
0.0
 40
0.0
 40
0.0
 40
0.0
 10
23.12382070570543
 20
26.06229467868259
 30
0.0
 10
23.12497531748274
 20
26.07270047499187
 30
0.0
 10
23.14083118700048
 20
26.14647212535706
 30
0.0
 10
23.1763101166844
 20
26.28490185347624
 30
0.0
 10
23.33128123199737
 20
26.61904430912573
 30
0.0
 10
23.6439290887692
 20
26.94088954422329
 30
0.0
 10
24.10106505868432
 20
27.09734695454879
 30
0.0
 10
24.4102591831326
 20
27.11041382175381
 30
0.0
 10
24.66031409479132
 20
27.05088491384584
 30
0.0
 10
25.21588212015449
 20
26.82845841605421
 30
0.0
 10
25.90287774069335
 20
26.66572247283118
 30
0.0
 10
26.74641545907009
 20
26.65086489123548
 30
0.0
 10
27.49763467780169
 20
26.65373892791749
 30
0.0
 10
28.08307349541471
 20
26.65267265002719
 30
0.0
 10
28.45809828769379
 20
26.65274926915738
 30
0.0
  0
SPLINE
  5
81
330
1F
100
AcDbEntity
  8
Default
100
AcDbSpline
210
0.0
220
0.0
230
1.0
 70
     8
 71
     3
 72
    12
 73
     8
 74
     0
 42
0.0000000001
 43
0.0000000001
 40
-27.8953791738414
 40
-27.8953791738414
 40
-27.8953791738414
 40
-27.8953791738414
 40
-13.51589519851294
 40
-11.70974314277024
 40
-9.903591087027547
 40
-8.412601707227395
 40
-6.928481499542063
 40
-6.928481499542063
 40
-6.928481499542063
 40
-6.928481499542063
 10
18.88808810834668
 20
0.3430378202673804
 30
0.0
 10
19.9129022234655
 20
6.574327700434126
 30
0.0
 10
21.36903695792088
 20
15.42916703855705
 30
0.0
 10
22.3399323097978
 20
21.33140152435797
 30
0.0
 10
22.61397758817324
 20
23.00250148388453
 30
0.0
 10
22.87656881223158
 20
24.58161701037831
 30
0.0
 10
23.02534411518727
 20
25.53038638762448
 30
0.0
 10
23.12382070570543
 20
26.06229467868259
 30
0.0
  0
LINE
  5
82
330
1F
100
AcDbEntity
  8
Default
100
AcDbLine
 10
18.88432688442352
 20
0.3201680371294758
 30
0.0
 11
18.88808810834668
 21
0.3430378202673804
 31
0.0
  0
SPLINE
  5
83
330
1F
100
AcDbEntity
  8
Default
100
AcDbSpline
210
0.0
220
0.0
230
1.0
 70
    24
 71
     2
 72
     6
 73
     3
 74
     0
 42
0.0000000001
 43
0.0000000001
 40
-0.2685442282126053
 40
-0.2685442282126053
 40
-0.2685442282126053
 40
-0.0171329187673957
 40
-0.0171329187673957
 40
-0.0171329187673957
 10
18.85227606073227
 20
0.0706403444363159
 30
0.0
 10
18.8683014725779
 20
0.1954041907828959
 30
0.0
 10
18.88432688442352
 20
0.3201680371294758
 30
0.0
  0
SPLINE
  5
84
330
1F
100
AcDbEntity
  8
Default
100
AcDbSpline
210
0.0
220
0.0
230
1.0
 70
    12
 71
     2
 72
     8
 73
     5
 74
     0
 42
0.0000000001
 43
0.0000000001
 40
-0.1058514733466842
 40
-0.1058514733466842
 40
-0.1058514733466842
 40
-0.0529257366733421
 40
-0.0529257366733421
 40
0.0
 40
0.0
 40
0.0
 10
18.91777149070774
 20
0.0000000000592748
 30
0.0
 41
1.0
 10
18.8861393222145
 20
0.0002665041954198
 30
0.0
 41
0.9130711129697164
 10
18.86755973046861
 20
0.0213974628267072
 30
0.0
 41
1.0
 10
18.84898013872272
 20
0.0425284214579946
 30
0.0
 41
0.9130711129697164
 10
18.85227606073227
 20
0.0706403444363159
 30
0.0
 41
1.0
  0
SPLINE
  5
85
330
1F
100
AcDbEntity
  8
Default
100
AcDbSpline
210
0.0
220
0.0
230
1.0
 70
    28
 71
     3
 72
    12
 73
     8
 74
     0
 42
0.0000000001
 43
0.0000000001
 40
0.0482519648708596
 40
0.0482519648708596
 40
0.0482519648708596
 40
0.0482519648708596
 40
0.1799445789811789
 40
0.3866222582535462
 40
0.5734069994934231
 40
0.7649405481254848
 40
0.8099545543307939
 40
0.8099545543307939
 40
0.8099545543307939
 40
0.8099545543307939
 10
19.40135513704448
 20
0.0000000000173653
 30
0.0
 41
1.0
 10
19.40808601751234
 20
0.0
 30
0.0
 41
1.0
 10
19.39603897128503
 20
0.0
 30
0.0
 41
1.0
 10
19.26429739307528
 20
0.0
 30
0.0
 41
1.0
 10
19.05957469149039
 20
0.0
 30
0.0
 41
1.0
 10
18.95001147304461
 20
0.0
 30
0.0
 41
1.0
 10
18.92476321879462
 20
0.0
 30
0.0
 41
1.0
 10
18.91777149070774
 20
0.0000000000592748
 30
0.0
 41
1.0
  0
SPLINE
  5
86
330
1F
100
AcDbEntity
  8
Default
100
AcDbSpline
210
0.0
220
0.0
230
1.0
 70
    12
 71
     2
 72
     6
 73
     3
 74
     0
 42
0.0000000001
 43
0.0000000001
 40
-0.0856790294087035
 40
-0.0856790294087035
 40
-0.0856790294087035
 40
0.0
 40
0.0
 40
0.0
 10
19.46564561995843
 20
0.0502001841046442
 30
0.0
 41
1.0
 10
19.45547338791767
 20
-0.000036195785288
 30
0.0
 41
0.7736056047028846
 10
19.40135513704448
 20
0.0000000000173653
 30
0.0
 41
1.0
  0
LINE
  5
87
330
1F
100
AcDbEntity
  8
Default
100
AcDbLine
 10
19.5080343244426
 20
0.2612588129387754
 30
0.0
 11
19.46564561995843
 21
0.0502001841046442
 31
0.0
  0
SPLINE
  5
88
330
1F
100
AcDbEntity
  8
Default
100
AcDbSpline
210
0.0
220
0.0
230
1.0
 70
    12
 71
     2
 72
     6
 73
     3
 74
     0
 42
0.0000000001
 43
0.0000000001
 40
0.0
 40
0.0
 40
0.0
 40
11.52367026665484
 40
11.52367026665484
 40
11.52367026665484
 10
21.37807009017386
 20
11.63218413363211
 30
0.0
 41
1.0
 10
20.44305737537069
 20
5.946720623216351
 30
0.0
 41
0.999999999999586
 10
19.5080343244426
 20
0.2612588129387754
 30
0.0
 41
0.9999999999999987
  0
POLYLINE
  5
89
330
1F
100
AcDbEntity
  8
Default
100
AcDb2dPolyline
 66
     1
 10
0.0
 20
0.0
 30
0.0
  0
VERTEX
  5
8A
330
89
100
AcDbEntity
  8
Default
100
AcDbVertex
100
AcDb2dVertex
 10
34.06221090051196
 20
25.71475761546194
 30
0.0
  0
VERTEX
  5
8B
330
89
100
AcDbEntity
  8
Default
100
AcDbVertex
100
AcDb2dVertex
 10
35.42832386553005
 20
12.06961477290045
 30
0.0
  0
SEQEND
  5
8C
330
89
100
AcDbEntity
  8
Default
  0
SPLINE
  5
8D
330
1F
100
AcDbEntity
  8
Default
100
AcDbSpline
210
0.0
220
0.0
230
1.0
 70
     8
 71
     3
 72
    17
 73
    13
 74
     0
 42
0.0000000001
 43
0.0000000001
 40
0.0
 40
0.0
 40
0.0
 40
0.0
 40
1.260680112880674
 40
1.512476667308981
 40
1.725784989448776
 40
2.458974153656621
 40
3.365085027286619
 40
4.397621406980473
 40
4.477631304622574
 40
4.607808537611201
 40
4.837116497577133
 40
5.260846682944265
 40
5.260846682944265
 40
5.260846682944265
 40
5.260846682944265
 10
29.10890085907666
 20
26.02774928064046
 30
0.0
 10
29.52911475694274
 20
26.02779950986688
 30
0.0
 10
30.03331574970272
 20
26.02763849562502
 30
0.0
 10
30.60851623717555
 20
26.02786134921631
 30
0.0
 10
31.00807358575784
 20
26.02792927656017
 30
0.0
 10
31.62508931741688
 20
26.05019277790343
 30
0.0
 10
32.51412274757912
 20
26.11132016827566
 30
0.0
 10
33.18071949242355
 20
26.20653794321684
 30
0.0
 10
33.59053915074901
 20
26.26489274132113
 30
0.0
 10
33.73687622527468
 20
26.2193183274928
 30
0.0
 10
33.94832152363493
 20
26.06562934619287
 30
0.0
 10
34.04179532226313
 20
25.85290386759799
 30
0.0
 10
34.06221090051196
 20
25.71475761546194
 30
0.0
  0
ARC
  5
8E
330
1F
100
AcDbEntity
  8
Default
100
AcDbCircle
 10
29.10886350516423
 20
26.34024927840796
 30
0.0
 40
0.3124999999999997
100
AcDbArc
 50
90.00684870891452
 51
270.0068487089132
  0
SPLINE
  5
8F
330
1F
100
AcDbEntity
  8
Default
100
AcDbSpline
210
0.0
220
0.0
230
1.0
 70
     8
 71
     3
 72
    15
 73
    11
 74
     0
 42
0.0000000001
 43
0.0000000001
 40
-6.152311001286541
 40
-6.152311001286541
 40
-6.152311001286541
 40
-6.152311001286541
 40
-5.561096261247544
 40
-4.928156272837669
 40
-4.567861313850099
 40
-4.360944395436648
 40
-3.839021945933803
 40
-2.5198138874929
 40
-1.528518433510659
 40
0.0
 40
0.0
 40
0.0
 40
0.0
 10
34.67977603924332
 20
25.80603410818027
 30
0.0
 10
34.65168191267188
 20
26.00109394500897
 30
0.0
 10
34.50810936949189
 20
26.39601872751849
 30
0.0
 10
34.10339089632819
 20
26.75603882200289
 30
0.0
 10
33.71663225052241
 20
26.8910294242088
 30
0.0
 10
33.35252510965663
 20
26.87185897521913
 30
0.0
 10
32.67964465840988
 20
26.75715747209137
 30
0.0
 10
31.73750649068939
 20
26.67306973790849
 30
0.0
 10
30.45850688693587
 20
26.64447831803202
 30
0.0
 10
29.61833136890563
 20
26.6528101786184
 30
0.0
 10
29.1088261512518
 20
26.65274927617546
 30
0.0
  0
LINE
  5
90
330
1F
100
AcDbEntity
  8
Default
100
AcDbLine
 10
37.23028261823963
 20
0.3081874289954314
 30
0.0
 11
34.67977603924332
 21
25.80603410818027
 31
0.0
  0
SPLINE
  5
91
330
1F
100
AcDbEntity
  8
Default
100
AcDbSpline
210
0.0
220
0.0
230
1.0
 70
    24
 71
     2
 72
     6
 73
     3
 74
     0
 42
0.0000000001
 43
0.0000000001
 40
0.0
 40
0.0
 40
0.0
 40
0.2419235636585804
 40
0.2419235636585804
 40
0.2419235636585804
 10
37.24584574658423
 20
0.0665979364276704
 30
0.0
 10
37.23806418241193
 20
0.1873926827115509
 30
0.0
 10
37.23028261823963
 20
0.3081874289954314
 30
0.0
  0
SPLINE
  5
92
330
1F
100
AcDbEntity
  8
Default
100
AcDbSpline
210
0.0
220
0.0
230
1.0
 70
    12
 71
     2
 72
     8
 73
     5
 74
     0
 42
0.0000000001
 43
0.0000000001
 40
0.0
 40
0.0
 40
0.0
 40
0.0509636399956144
 40
0.0509636399956144
 40
0.1019272799912289
 40
0.1019272799912289
 40
0.1019272799912289
 10
37.18058073589668
 20
0.0000000000040875
 30
0.0
 41
1.0
 10
37.21043304683224
 20
0.0001562600704844
 30
0.0
 41
0.9188620203024642
 10
37.22889671075934
 20
0.0198258440349643
 30
0.0
 41
1.0
 10
37.24736037468644
 20
0.0394954279994442
 30
0.0
 41
0.9188620203024642
 10
37.24584574658423
 20
0.0665979364276704
 30
0.0
 41
1.0
  0
SPLINE
  5
93
330
1F
100
AcDbEntity
  8
Default
100
AcDbSpline
210
0.0
220
0.0
230
1.0
 70
    28
 71
     3
 72
    12
 73
     8
 74
     0
 42
0.0000000001
 43
0.0000000001
 40
-1.374005924575726
 40
-1.374005924575726
 40
-1.374005924575726
 40
-1.374005924575726
 40
-1.322561384063632
 40
-1.131141570943936
 40
-0.9332321191019622
 40
-0.7508324695376353
 40
-0.5723160572542355
 40
-0.5723160572542355
 40
-0.5723160572542355
 40
-0.5723160572542355
 10
36.69750826802013
 20
0.0000000000049601
 30
0.0
 41
1.0
 10
36.69869533285974
 20
0.0
 30
0.0
 41
1.0
 10
36.71149542936756
 20
0.0
 30
0.0
 41
1.0
 10
36.80595785755779
 20
0.0
 30
0.0
 41
1.0
 10
37.00609024766533
 20
0.0
 30
0.0
 41
1.0
 10
37.16461550905259
 20
0.0
 30
0.0
 41
1.0
 10
37.18959260492721
 20
0.0
 30
0.0
 41
1.0
 10
37.18058073589668
 20
0.0000000000040875
 30
0.0
 41
1.0
  0
SPLINE
  5
94
330
1F
100
AcDbEntity
  8
Default
100
AcDbSpline
210
0.0
220
0.0
230
1.0
 70
    12
 71
     2
 72
     6
 73
     3
 74
     0
 42
0.0000000001
 43
0.0000000001
 40
0.0
 40
0.0
 40
0.0
 40
0.089609000482263
 40
0.089609000482263
 40
0.089609000482263
 10
36.63533369513576
 20
0.0542125200197453
 30
0.0
 41
1.0
 10
36.64302832022565
 20
0.0004004312602379
 30
0.0
 41
0.7577233428207611
 10
36.69750826802013
 20
0.0000000000049601
 30
0.0
 41
1.0
  0
LINE
  5
95
330
1F
100
AcDbEntity
  8
Default
100
AcDbLine
 10
36.60564642046776
 20
0.2734199825374225
 30
0.0
 11
36.63533369513576
 21
0.0542125200197453
 31
0.0
  0
SPLINE
  5
96
330
1F
100
AcDbEntity
  8
Default
100
AcDbSpline
210
0.0
220
0.0
230
1.0
 70
    12
 71
     2
 72
     8
 73
     5
 74
     0
 42
0.0000000001
 43
0.0000000001
 40
-11.43091695207806
 40
-11.43091695207806
 40
-11.43091695207806
 40
-11.35357098096269
 40
-11.35357098096269
 40
-0.0137364600400529
 40
-0.0137364600400529
 40
-0.0137364600400529
 10
35.47154320188517
 20
11.63413388070145
 30
0.0
 41
1.0
 10
35.47538488088179
 20
11.59565217967313
 30
0.0
 41
0.9999999999999964
 10
35.47922655352298
 20
11.55717047801191
 30
0.0
 41
1.0
 10
36.0424439384028
 20
5.91529597413608
 30
0.0
 41
0.9999999999991268
 10
36.60564642046776
 20
0.2734199825374225
 30
0.0
 41
0.9999999999999978
  0
SPLINE
  5
97
330
1F
100
AcDbEntity
  8
Default
100
AcDbSpline
210
0.0
220
0.0
230
1.0
 70
     8
 71
     3
 72
     8
 73
     4
 74
     0
 42
0.0000000001
 43
0.0000000001
 40
0.0
 40
0.0
 40
0.0
 40
0.0
 40
1.0
 40
1.0
 40
1.0
 40
1.0
 10
18.88808810834668
 20
0.3430378202673804
 30
0.0
 10
19.07240258019823
 20
0.3443768028455085
 30
0.0
 10
19.41786001148182
 20
0.2835540330107686
 30
0.0
 10
19.50379458312617
 20
0.2401280635083366
 30
0.0
  0
SPLINE
  5
98
330
1F
100
AcDbEntity
  8
Default
100
AcDbSpline
210
0.0
220
0.0
230
1.0
 70
     8
 71
     3
 72
     8
 73
     4
 74
     0
 42
0.0000000001
 43
0.0000000001
 40
0.0
 40
0.0
 40
0.0
 40
0.0
 40
1.0
 40
1.0
 40
1.0
 40
1.0
 10
36.6074884065665
 20
0.2598062908094364
 30
0.0
 10
36.7207906348504
 20
0.3068250064163092
 30
0.0
 10
37.13071172668118
 20
0.3442265658899208
 30
0.0
 10
37.23028261823963
 20
0.3081874289954314
 30
0.0
  0
SPLINE
  5
99
330
1F
100
AcDbEntity
  8
Default
100
AcDbSpline
210
0.0
220
0.0
230
1.0
 70
     8
 71
     3
 72
    15
 73
    11
 74
     0
 42
0.0000000001
 43
0.0000000001
 40
-1.983810194125966
 40
-1.983810194125966
 40
-1.983810194125966
 40
-1.983810194125966
 40
-1.240216830441202
 40
-0.8693970465609351
 40
-0.830207921274915
 40
-0.6514225927554392
 40
-0.5721492481317013
 40
-0.1892530055028681
 40
-0.0009716977050293
 40
0.0
 40
0.0
 40
0.0
 40
0.0
 10
36.51739411202858
 20
28.77533168301259
 30
0.0
 10
36.76562973457568
 20
28.77138996428938
 30
0.0
 10
37.13690256915272
 20
28.75697264267507
 30
0.0
 10
37.52143123981959
 20
28.75462381667605
 30
0.0
 10
37.71769661127281
 20
28.75227472023764
 30
0.0
 10
37.81668781538927
 20
28.75016271028045
 30
0.0
 10
38.03037991546211
 20
28.74295207659283
 30
0.0
 10
38.24661542405936
 20
28.73262228174769
 30
0.0
 10
38.43778732722141
 20
28.72740329590953
 30
0.0
 10
38.50026223633945
 20
28.72614858129885
 30
0.0
 10
38.49896297205774
 20
28.72617948732803
 30
0.0
  0
SPLINE
  5
9A
330
1F
100
AcDbEntity
  8
Default
100
AcDbSpline
210
0.0
220
0.0
230
1.0
 70
     8
 71
     3
 72
    34
 73
    30
 74
     0
 42
0.0000000001
 43
0.0000000001
 40
-22.18647873397526
 40
-22.18647873397526
 40
-22.18647873397526
 40
-22.18647873397526
 40
-22.03860679434289
 40
-21.92002185522579
 40
-21.63208902688433
 40
-21.37010291654892
 40
-21.25876276557128
 40
-20.8520438218059
 40
-20.13718589939647
 40
-19.41841840794001
 40
-19.1690734851703
 40
-18.27329645432434
 40
-17.44068902438653
 40
-16.83064568111283
 40
-16.3868047105227
 40
-14.69137808953177
 40
-13.32597882191751
 40
-12.12003779990974
 40
-11.01223819576992
 40
-10.00284901793387
 40
-9.053432248559982
 40
-8.006962631295124
 40
-6.965753494607664
 40
-5.884696930912772
 40
-4.753835594724273
 40
-3.536372436354696
 40
-2.309169967207457
 40
-0.5055621831563853
 40
0.0
 40
0.0
 40
0.0
 40
0.0
 10
20.84948391267471
 20
41.24134537629122
 30
0.0
 10
20.88025356313894
 20
41.2028389907026
 30
0.0
 10
20.93299050968763
 20
41.1313336705601
 30
0.0
 10
21.03606927208911
 20
40.97784176305764
 30
0.0
 10
21.14010790736938
 20
40.78037785372293
 30
0.0
 10
21.23390712467881
 20
40.58102285289051
 30
0.0
 10
21.34085699629347
 20
40.34399971885889
 30
0.0
 10
21.50934309612485
 20
39.96913297607966
 30
0.0
 10
21.76492482852277
 20
39.41148817993775
 30
0.0
 10
21.99097847782649
 20
38.89797886408751
 30
0.0
 10
22.22498760591232
 20
38.32241773819685
 30
0.0
 10
22.47009429049552
 20
37.71045061486735
 30
0.0
 10
22.76997341330376
 20
36.99090227844821
 30
0.0
 10
23.01682096196693
 20
36.41261844101097
 30
0.0
 10
23.39093551374401
 20
35.57575608377957
 30
0.0
 10
23.94291607328951
 20
34.54472250840229
 30
0.0
 10
24.69515715015483
 20
33.33747190076001
 30
0.0
 10
25.4167114086364
 20
32.34377709812323
 30
0.0
 10
26.14895451271006
 20
31.51185876242241
 30
0.0
 10
26.90084823646762
 20
30.81551551914103
 30
0.0
 10
27.72931459326001
 20
30.24836300473384
 30
0.0
 10
28.62999876796037
 20
29.78262969579579
 30
0.0
 10
29.61750366061075
 20
29.40282663568764
 30
0.0
 10
30.66830152422732
 20
29.12953642794195
 30
0.0
 10
31.79695330358111
 20
28.94246174281317
 30
0.0
 10
32.98435144851047
 20
28.8327094996034
 30
0.0
 10
34.39993713345754
 20
28.78281910837165
 30
0.0
 10
35.57884578884459
 20
28.78814161904348
 30
0.0
 10
36.34850000416158
 20
28.77926608142698
 30
0.0
 10
36.51739411202858
 20
28.77533168301259
 30
0.0
  0
SPLINE
  5
9B
330
1F
100
AcDbEntity
  8
Default
100
AcDbSpline
210
0.0
220
0.0
230
1.0
 70
    12
 71
     2
 72
     6
 73
     3
 74
     0
 42
0.0000000001
 43
0.0000000001
 40
0.0
 40
0.0
 40
0.0
 40
0.4121427471181011
 40
0.4121427471181011
 40
0.4121427471181011
 10
20.48797306048328
 20
41.40900169935586
 30
0.0
 41
1.0
 10
20.70901330186792
 20
41.41204054292285
 30
0.0
 41
0.9013233606580734
 10
20.84948391267471
 20
41.24134537629122
 30
0.0
 41
1.0
  0
SPLINE
  5
9C
330
1F
100
AcDbEntity
  8
Default
100
AcDbSpline
210
0.0
220
0.0
230
1.0
 70
    12
 71
     2
 72
     8
 73
     5
 74
     0
 42
0.0000000001
 43
0.0000000001
 40
5.0
 40
5.0
 40
5.0
 40
6.424963949417644
 40
6.424963949417644
 40
7.849927898835288
 40
7.849927898835288
 40
7.849927898835288
 10
38.48376800559573
 20
28.72616477057183
 30
0.0
 41
1.0
 10
38.88107986534656
 20
28.73311373473187
 30
0.0
 41
0.7567417068888759
 10
38.94569084757185
 20
28.34102901941532
 30
0.0
 41
1.0
 10
39.01030182979711
 20
27.94894430409877
 30
0.0
 41
0.7567417068888759
 10
38.63120688978383
 20
27.82786375529224
 30
0.0
 41
1.0
  0
ARC
  5
9D
330
1F
100
AcDbEntity
  8
Default
100
AcDbCircle
 10
27.47939028966778
 20
-173.1122640672347
 30
0.0
 40
201.8699500066541
100
AcDbArc
 50
86.75100191540197
 51
87.35461389063964
  0
SPLINE
  5
9E
330
1F
100
AcDbEntity
  8
Default
100
AcDbSpline
210
0.0
220
0.0
230
1.0
 70
    12
 71
     2
 72
     6
 73
     3
 74
     0
 42
0.0000000001
 43
0.0000000001
 40
0.0
 40
0.0
 40
0.0
 40
0.7220528620518178
 40
0.7220528620518178
 40
0.7220528620518178
 10
20.03433702590887
 20
40.94293301403935
 30
0.0
 41
1.0
 10
20.02852964170608
 20
41.40268529414445
 30
0.0
 41
0.7075013098333874
 10
20.48797306048328
 20
41.40900169935586
 30
0.0
 41
1.0
  0
SPLINE
  5
9F
330
1F
100
AcDbEntity
  8
Default
100
AcDbSpline
210
0.0
220
0.0
230
1.0
 70
     8
 71
     3
 72
    35
 73
    31
 74
     0
 42
0.0000000001
 43
0.0000000001
 40
0.0
 40
0.0
 40
0.0
 40
0.0
 40
0.2402532621163592
 40
0.3763572098504003
 40
0.551672431345357
 40
0.9958821897849119
 40
1.101052378124962
 40
1.868053494370825
 40
2.180869109681214
 40
2.831499668067848
 40
3.090556060853209
 40
3.977814129654295
 40
4.828734707418617
 40
5.548259278857759
 40
6.129507735893566
 40
8.019918460328226
 40
9.322400280740641
 40
10.47679261219735
 40
11.55862261620068
 40
12.55229102610752
 40
13.51912324008647
 40
14.54579470889808
 40
15.57534625379321
 40
16.66749462626378
 40
19.04522153365165
 40
20.41195135910109
 40
21.01834190818906
 40
21.62020844203624
 40
22.33410790169653
 40
22.84220939650538
 40
22.84220939650538
 40
22.84220939650538
 40
22.84220939650538
 10
20.48797306048328
 20
41.40900169935585
 30
0.0
 10
20.53755035895342
 20
41.34615002871767
 30
0.0
 10
20.61197604760669
 20
41.24485730912281
 30
0.0
 10
20.70377379840131
 20
41.08534197653857
 30
0.0
 10
20.82400589933715
 20
40.86409222680329
 30
0.0
 10
20.93138952868468
 20
40.6475702137007
 30
0.0
 10
21.12622993315667
 20
40.25448235948874
 30
0.0
 10
21.3007332169359
 20
39.90006915122501
 30
0.0
 10
21.5554464354335
 20
39.38257387161467
 30
0.0
 10
21.72871208939588
 20
39.01367579205891
 30
0.0
 10
21.97265728692894
 20
38.46663282325331
 30
0.0
 10
22.23768456633896
 20
37.85588512679537
 30
0.0
 10
22.57849465721431
 20
37.1108662455014
 30
0.0
 10
22.88038724302095
 20
36.46028595543275
 30
0.0
 10
23.34435141883952
 20
35.50295911114112
 30
0.0
 10
23.95412064450356
 20
34.40143774287213
 30
0.0
 10
24.7391508271747
 20
33.18264258902671
 30
0.0
 10
25.44901809628816
 20
32.23932774681671
 30
0.0
 10
26.17012937476795
 20
31.43831976904702
 30
0.0
 10
26.92336627751071
 20
30.75668778892034
 30
0.0
 10
27.74426362562768
 20
30.18943142747357
 30
0.0
 10
28.63682057698652
 20
29.7182593344614
 30
0.0
 10
29.61502366690237
 20
29.33381478019634
 30
0.0
 10
31.06476337132783
 20
28.94091677708731
 30
0.0
 10
32.66781140860456
 20
28.73156774689005
 30
0.0
 10
34.11442395797702
 20
28.64419487521613
 30
0.0
 10
34.97252525900093
 20
28.60875116594742
 30
0.0
 10
35.61263358598286
 20
28.58539353549822
 30
0.0
 10
36.22038224665269
 20
28.56735424475443
 30
0.0
 10
36.6273695866909
 20
28.55037470227416
 30
0.0
 10
36.79655559617127
 20
28.54255771082323
 30
0.0
  0
SPLINE
  5
A0
330
1F
100
AcDbEntity
  8
Default
100
AcDbSpline
210
0.0
220
0.0
230
1.0
 70
     8
 71
     3
 72
    12
 73
     8
 74
     0
 42
0.0000000001
 43
0.0000000001
 40
0.0
 40
0.0
 40
0.0
 40
0.0
 40
1.0
 40
2.0
 40
3.0
 40
4.0
 40
5.0
 40
5.0
 40
5.0
 40
5.0
 10
38.04042808196321
 20
30.46393673818341
 30
0.0
 10
37.32870179510611
 20
30.60373578125159
 30
0.0
 10
35.88122916344521
 20
30.7117283528112
 30
0.0
 10
33.70912346734353
 20
30.78319277194342
 30
0.0
 10
31.53497599797872
 20
30.78672743055231
 30
0.0
 10
29.36167103787214
 20
30.73955451225321
 30
0.0
 10
27.9139454026142
 20
30.67161900960898
 30
0.0
 10
27.19082604886788
 20
30.62555806297213
 30
0.0
  0
SPLINE
  5
A1
330
1F
100
AcDbEntity
  8
Default
100
AcDbSpline
210
0.0
220
0.0
230
1.0
 70
    12
 71
     2
 72
     6
 73
     3
 74
     0
 42
0.0000000001
 43
0.0000000001
 40
-0.0074089630355015
 40
-0.0074089630355015
 40
-0.0074089630355015
 40
0.0
 40
0.0
 40
0.0
 10
38.43522912017755
 20
29.98383563097195
 30
0.0
 41
1.0
 10
38.43516433721526
 20
29.98753961378788
 30
0.0
 41
0.9999725537599726
 10
38.43504463188442
 20
29.99124365667031
 30
0.0
 41
1.0
  0
SPLINE
  5
A2
330
1F
100
AcDbEntity
  8
Default
100
AcDbSpline
210
0.0
220
0.0
230
1.0
 70
    12
 71
     2
 72
     6
 73
     3
 74
     0
 42
0.0000000001
 43
0.0000000001
 40
0.0
 40
0.0
 40
0.0
 40
0.6585991013635981
 40
0.6585991013635981
 40
0.6585991013635981
 10
38.43504463188442
 20
29.99124365667031
 30
0.0
 41
1.0
 10
38.42252052386604
 20
30.37796281862961
 30
0.0
 41
0.7908816648000885
 10
38.04503812358963
 20
30.46290101048675
 30
0.0
 41
1.0
  0
LINE
  5
A3
330
1F
100
AcDbEntity
  8
Default
100
AcDbLine
 10
38.45720967049918
 20
28.7270842140386
 30
0.0
 11
38.43522912017755
 21
29.98383563097195
 31
0.0
  0
SPLINE
  5
A4
330
1F
100
AcDbEntity
  8
Default
100
AcDbSpline
210
0.0
220
0.0
230
1.0
 70
     8
 71
     3
 72
    10
 73
     6
 74
     0
 42
0.0000000001
 43
0.0000000001
 40
-17.0
 40
-17.0
 40
-17.0
 40
-17.0
 40
-16.0
 40
-15.0
 40
-14.34870604016304
 40
-14.34870604016304
 40
-14.34870604016304
 40
-14.34870604016304
 10
38.63120688978383
 20
27.82786375529224
 30
0.0
 10
38.06910459058858
 20
27.64838159543621
 30
0.0
 10
36.93741357839581
 20
27.31628782396306
 30
0.0
 10
35.41407395856221
 20
26.96361632394319
 30
0.0
 10
34.45555449822646
 20
26.79296501182204
 30
0.0
 10
34.07634289501133
 20
26.73292541326171
 30
0.0
  0
SPLINE
  5
A5
330
1F
100
AcDbEntity
  8
Default
100
AcDbSpline
210
0.0
220
0.0
230
1.0
 70
     8
 71
     3
 72
    16
 73
    12
 74
     0
 42
0.0000000001
 43
0.0000000001
 40
-8.493728515308032
 40
-8.493728515308032
 40
-8.493728515308032
 40
-8.493728515308032
 40
-8.0
 40
-7.0
 40
-6.0
 40
-5.0
 40
-4.0
 40
-3.0
 40
-2.0
 40
-1.0
 40
0.0
 40
0.0
 40
0.0
 40
0.0
 10
23.83768519240435
 20
26.99739977463383
 30
0.0
 10
23.57803869950228
 20
27.12857526693672
 30
0.0
 10
22.83381571631021
 20
27.59858886968854
 30
0.0
 10
21.92609048035904
 20
28.79556482861411
 30
0.0
 10
21.24223418258825
 20
30.43012284278768
 30
0.0
 10
20.79372186334956
 20
32.14428435777096
 30
0.0
 10
20.48940622137752
 20
33.88705762870149
 30
0.0
 10
20.28428785855353
 20
35.64415701864321
 30
0.0
 10
20.1493172733647
 20
37.40768813686836
 30
0.0
 10
20.06795405970148
 20
39.17444200405404
 30
0.0
 10
20.04180504546376
 20
40.3531931773886
 30
0.0
 10
20.03433702590887
 20
40.94293301403935
 30
0.0
  0
SPLINE
  5
A6
330
1F
100
AcDbEntity
  8
Default
100
AcDbSpline
210
0.0
220
0.0
230
1.0
 70
    24
 71
     2
 72
     6
 73
     3
 74
     0
 42
0.0000000001
 43
0.0000000001
 40
0.0
 40
0.0
 40
0.0
 40
0.2659365052122327
 40
0.2659365052122327
 40
0.2659365052122327
 10
6.251447051054644
 20
65.21673231734772
 30
0.0
 10
6.259757909163678
 20
65.08402404391077
 30
0.0
 10
6.268068767272712
 20
64.95131577047383
 30
0.0
  0
SPLINE
  5
A7
330
1F
100
AcDbEntity
  8
Default
100
AcDbSpline
210
0.0
220
0.0
230
1.0
 70
    12
 71
     2
 72
     8
 73
     5
 74
     0
 42
0.0000000001
 43
0.0000000001
 40
0.0
 40
0.0
 40
0.0
 40
0.3216741317266897
 40
0.3216741317266897
 40
0.6433482634533794
 40
0.6433482634533794
 40
0.6433482634533794
 10
7.551768388026776
 20
49.33773817810071
 30
0.0
 41
1.0
 10
7.71112342269611
 20
49.25886105338695
 30
0.0
 41
0.8627940917837529
 10
7.857831384395165
 20
49.35932200028515
 30
0.0
 41
1.0
 10
8.004539346094223
 20
49.45978294718335
 30
0.0
 41
0.8627940917837529
 10
7.988614021995016
 20
49.63687617666971
 30
0.0
 41
1.0
  0
SPLINE
  5
A8
330
1F
100
AcDbEntity
  8
Default
100
AcDbSpline
210
0.0
220
0.0
230
1.0
 70
    24
 71
     2
 72
     6
 73
     3
 74
     0
 42
0.0000000001
 43
0.0000000001
 40
0.0
 40
0.0
 40
0.0
 40
1.304964447575471
 40
1.304964447575471
 40
1.304964447575471
 10
7.408315497411056
 20
49.46452712040116
 30
0.0
 10
7.057106844188167
 20
50.01579804602727
 30
0.0
 10
6.705898190965279
 20
50.56706897165338
 30
0.0
  0
SPLINE
  5
A9
330
1F
100
AcDbEntity
  8
Default
100
AcDbSpline
210
0.0
220
0.0
230
1.0
 70
     8
 71
     3
 72
    12
 73
     8
 74
     0
 42
0.0000000001
 43
0.0000000001
 40
-5.0
 40
-5.0
 40
-5.0
 40
-5.0
 40
-4.000001102264065
 40
-3.000000826698049
 40
-2.000000551132032
 40
-1.000000275566016
 40
0.0
 40
0.0
 40
0.0
 40
0.0
 10
7.931700313413831
 20
49.80620771344679
 30
0.0
 10
7.967822740865909
 20
49.75177997901456
 30
0.0
 10
8.0033696741189
 20
49.6193191265364
 30
0.0
 10
7.930400845441625
 20
49.4270029411289
 30
0.0
 10
7.758461925585578
 20
49.31438113508399
 30
0.0
 10
7.552887282840405
 20
49.32267030004858
 30
0.0
 10
7.445324584994069
 20
49.40793281108382
 30
0.0
 10
7.408315497411056
 20
49.46452712040116
 30
0.0
  0
SPLINE
  5
AA
330
1F
100
AcDbEntity
  8
Default
100
AcDbSpline
210
0.0
220
0.0
230
1.0
 70
    24
 71
     2
 72
     6
 73
     3
 74
     0
 42
0.0000000001
 43
0.0000000001
 40
0.0
 40
0.0
 40
0.0
 40
1.518110648475754
 40
1.518110648475754
 40
1.518110648475754
 10
7.11600305772145
 20
51.0865576501402
 30
0.0
 10
7.523851685567641
 20
50.44638268179349
 30
0.0
 10
7.931700313413831
 20
49.80620771344679
 30
0.0
  0
SPLINE
  5
AB
330
1F
100
AcDbEntity
  8
Default
100
AcDbSpline
210
0.0
220
0.0
230
1.0
 70
    12
 71
     2
 72
     8
 73
     5
 74
     0
 42
0.0000000001
 43
0.0000000001
 40
0.0
 40
0.0
 40
0.0
 40
0.3988897475102481
 40
0.3988897475102481
 40
0.7977794950204963
 40
0.7977794950204963
 40
0.7977794950204963
 10
7.204880632769271
 20
67.3514561460579
 30
0.0
 41
1.0
 10
7.240031371747462
 20
67.58296460162212
 30
0.0
 41
0.7917505249762941
 10
7.025018554741468
 20
67.67570740711989
 30
0.0
 41
1.0
 10
6.810005737735469
 20
67.76845021261761
 30
0.0
 41
0.7917505249762941
 10
6.665741245771583
 20
67.58400646561913
 30
0.0
 41
1.0
  0
SPLINE
  5
AC
330
1F
100
AcDbEntity
  8
Default
100
AcDbSpline
210
0.0
220
0.0
230
1.0
 70
    24
 71
     2
 72
     6
 73
     3
 74
     0
 42
0.0000000001
 43
0.0000000001
 40
0.0
 40
0.0
 40
0.0
 40
0.2659365052122327
 40
0.2659365052122327
 40
0.2659365052122327
 10
-6.251391810795852
 20
65.21673231734772
 30
0.0
 10
-6.259702668904886
 20
65.08402404391077
 30
0.0
 10
-6.26801352701392
 20
64.95131577047383
 30
0.0
  0
SPLINE
  5
AD
330
1F
100
AcDbEntity
  8
Default
100
AcDbSpline
210
0.0
220
0.0
230
1.0
 70
    12
 71
     2
 72
     8
 73
     5
 74
     0
 42
0.0000000001
 43
0.0000000001
 40
0.0
 40
0.0
 40
0.0
 40
0.3216741317266897
 40
0.3216741317266897
 40
0.6433482634533794
 40
0.6433482634533794
 40
0.6433482634533794
 10
-7.551713147767984
 20
49.33773817810071
 30
0.0
 41
1.0
 10
-7.711068182437318
 20
49.25886105338695
 30
0.0
 41
0.8627940917837529
 10
-7.857776144136373
 20
49.35932200028515
 30
0.0
 41
1.0
 10
-8.00448410583543
 20
49.45978294718335
 30
0.0
 41
0.8627940917837529
 10
-7.988558781736224
 20
49.63687617666971
 30
0.0
 41
1.0
  0
SPLINE
  5
AE
330
1F
100
AcDbEntity
  8
Default
100
AcDbSpline
210
0.0
220
0.0
230
1.0
 70
    24
 71
     2
 72
     6
 73
     3
 74
     0
 42
0.0000000001
 43
0.0000000001
 40
0.0
 40
0.0
 40
0.0
 40
1.304964447575471
 40
1.304964447575471
 40
1.304964447575471
 10
-7.408260257152264
 20
49.46452712040116
 30
0.0
 10
-7.057051603929375
 20
50.01579804602727
 30
0.0
 10
-6.705842950706487
 20
50.56706897165338
 30
0.0
  0
SPLINE
  5
AF
330
1F
100
AcDbEntity
  8
Default
100
AcDbSpline
210
0.0
220
0.0
230
1.0
 70
     8
 71
     3
 72
    12
 73
     8
 74
     0
 42
0.0000000001
 43
0.0000000001
 40
-5.0
 40
-5.0
 40
-5.0
 40
-5.0
 40
-4.000001102264065
 40
-3.000000826698049
 40
-2.000000551132032
 40
-1.000000275566016
 40
0.0
 40
0.0
 40
0.0
 40
0.0
 10
-7.931645073155039
 20
49.80620771344679
 30
0.0
 10
-7.967767500607117
 20
49.75177997901456
 30
0.0
 10
-8.003314433860108
 20
49.6193191265364
 30
0.0
 10
-7.930345605182833
 20
49.4270029411289
 30
0.0
 10
-7.758406685326786
 20
49.31438113508399
 30
0.0
 10
-7.552832042581613
 20
49.32267030004858
 30
0.0
 10
-7.445269344735276
 20
49.40793281108382
 30
0.0
 10
-7.408260257152264
 20
49.46452712040116
 30
0.0
  0
SPLINE
  5
B0
330
1F
100
AcDbEntity
  8
Default
100
AcDbSpline
210
0.0
220
0.0
230
1.0
 70
    24
 71
     2
 72
     6
 73
     3
 74
     0
 42
0.0000000001
 43
0.0000000001
 40
0.0
 40
0.0
 40
0.0
 40
1.518110648475754
 40
1.518110648475754
 40
1.518110648475754
 10
-7.115947817462658
 20
51.0865576501402
 30
0.0
 10
-7.523796445308848
 20
50.44638268179349
 30
0.0
 10
-7.931645073155039
 20
49.80620771344679
 30
0.0
  0
SPLINE
  5
B1
330
1F
100
AcDbEntity
  8
Default
100
AcDbSpline
210
0.0
220
0.0
230
1.0
 70
    12
 71
     2
 72
     8
 73
     5
 74
     0
 42
0.0000000001
 43
0.0000000001
 40
0.0
 40
0.0
 40
0.0
 40
0.3988897475102481
 40
0.3988897475102481
 40
0.7977794950204963
 40
0.7977794950204963
 40
0.7977794950204963
 10
-7.204825392510479
 20
67.3514561460579
 30
0.0
 41
1.0
 10
-7.239976131488671
 20
67.58296460162212
 30
0.0
 41
0.7917505249762941
 10
-7.024963314482676
 20
67.67570740711989
 30
0.0
 41
1.0
 10
-6.809950497476675
 20
67.76845021261761
 30
0.0
 41
0.7917505249762941
 10
-6.665686005512791
 20
67.58400646561913
 30
0.0
 41
1.0
  0
SPLINE
  5
B2
330
1F
100
AcDbEntity
  8
Default
100
AcDbSpline
210
0.0
220
0.0
230
1.0
 70
    24
 71
     2
 72
     6
 73
     3
 74
     0
 42
0.0000000001
 43
0.0000000001
 40
0.0
 40
0.0
 40
0.0
 40
2.418299689980352
 40
2.418299689980352
 40
2.418299689980352
 10
7.170405546936427
 20
67.22664045289687
 30
0.0
 10
6.667529556548819
 20
66.1267708979442
 30
0.0
 10
6.16465356616121
 20
65.02690134299152
 30
0.0
  0
SPLINE
  5
B3
330
1F
100
AcDbEntity
  8
Default
100
AcDbSpline
210
0.0
220
0.0
230
1.0
 70
     8
 71
     3
 72
    12
 73
     8
 74
     0
 42
0.0000000001
 43
0.0000000001
 40
-5.0
 40
-5.0
 40
-5.0
 40
-5.0
 40
-4.0
 40
-3.0
 40
-2.0
 40
-1.0
 40
0.0
 40
0.0
 40
0.0
 40
0.0
 10
6.601988449865585
 20
67.48649691030994
 30
0.0
 10
6.629100324325458
 20
67.54604150610245
 30
0.0
 10
6.722853102262025
 20
67.64497790325424
 30
0.0
 10
6.923451524504126
 20
67.68384654590315
 30
0.0
 10
7.10878501126311
 20
67.59830559726433
 30
0.0
 10
7.211460054164268
 20
67.4218053141754
 30
0.0
 10
7.198022721592792
 20
67.28599112779801
 30
0.0
 10
7.170405546936427
 20
67.22664045289687
 30
0.0
  0
SPLINE
  5
B4
330
1F
100
AcDbEntity
  8
Default
100
AcDbSpline
210
0.0
220
0.0
230
1.0
 70
    24
 71
     2
 72
     6
 73
     3
 74
     0
 42
0.0000000001
 43
0.0000000001
 40
0.0
 40
0.0
 40
0.0
 40
2.331973078377241
 40
2.331973078377241
 40
2.331973078377241
 10
5.63214326562901
 20
65.36529472889643
 30
0.0
 10
6.117065857747297
 20
66.42589581960318
 30
0.0
 10
6.601988449865585
 20
67.48649691030994
 30
0.0
  0
SPLINE
  5
B5
330
1F
100
AcDbEntity
  8
Default
100
AcDbSpline
210
0.0
220
0.0
230
1.0
 70
    24
 71
     2
 72
     6
 73
     3
 74
     0
 42
0.0000000001
 43
0.0000000001
 40
0.0
 40
0.0
 40
0.0
 40
2.418299689980352
 40
2.418299689980352
 40
2.418299689980352
 10
-7.170350306677635
 20
67.22664045289687
 30
0.0
 10
-6.667474316290027
 20
66.1267708979442
 30
0.0
 10
-6.164598325902418
 20
65.02690134299152
 30
0.0
  0
SPLINE
  5
B6
330
1F
100
AcDbEntity
  8
Default
100
AcDbSpline
210
0.0
220
0.0
230
1.0
 70
     8
 71
     3
 72
    12
 73
     8
 74
     0
 42
0.0000000001
 43
0.0000000001
 40
-5.0
 40
-5.0
 40
-5.0
 40
-5.0
 40
-4.0
 40
-3.0
 40
-2.0
 40
-1.0
 40
0.0
 40
0.0
 40
0.0
 40
0.0
 10
-6.601933209606793
 20
67.48649691030994
 30
0.0
 10
-6.629045084066666
 20
67.54604150610245
 30
0.0
 10
-6.722797862003233
 20
67.64497790325424
 30
0.0
 10
-6.923396284245334
 20
67.68384654590315
 30
0.0
 10
-7.108729771004318
 20
67.59830559726433
 30
0.0
 10
-7.211404813905476
 20
67.4218053141754
 30
0.0
 10
-7.197967481334
 20
67.28599112779801
 30
0.0
 10
-7.170350306677635
 20
67.22664045289687
 30
0.0
  0
SPLINE
  5
B7
330
1F
100
AcDbEntity
  8
Default
100
AcDbSpline
210
0.0
220
0.0
230
1.0
 70
    24
 71
     2
 72
     6
 73
     3
 74
     0
 42
0.0000000001
 43
0.0000000001
 40
0.0
 40
0.0
 40
0.0
 40
2.331973078377241
 40
2.331973078377241
 40
2.331973078377241
 10
-5.632088025370217
 20
65.36529472889643
 30
0.0
 10
-6.117010617488505
 20
66.42589581960318
 30
0.0
 10
-6.601933209606793
 20
67.48649691030994
 30
0.0
  0
SPLINE
  5
B8
330
1F
100
AcDbEntity
  8
Default
100
AcDbSpline
210
0.0
220
0.0
230
1.0
 70
     8
 71
     3
 72
    19
 73
    15
 74
     0
 42
0.0000000001
 43
0.0000000001
 40
-12.0
 40
-12.0
 40
-12.0
 40
-12.0
 40
-11.00001421452606
 40
-10.00001267082574
 40
-9.00001112712541
 40
-8.000009583425085
 40
-7.000008039724759
 40
-6.000006496024433
 40
-5.000004952324106
 40
-4.00000340862378
 40
-3.000001864923454
 40
-2.000000321223129
 40
-0.9999987775228026
 40
0.0
 40
0.0
 40
0.0
 40
0.0
 10
0.0000276201293961
 20
47.60053254060588
 30
0.0
 10
0.8320270112810668
 20
47.60021121806989
 30
0.0
 10
2.475654664562408
 20
47.87800143124295
 30
0.0
 10
4.823015726725852
 20
48.77441584137188
 30
0.0
 10
6.744638417629358
 20
50.4153194449731
 30
0.0
 10
8.091650565543683
 20
52.53522456242645
 30
0.0
 10
8.86604727344698
 20
54.91767828632642
 30
0.0
 10
9.14939142287371
 20
57.40230490423831
 30
0.0
 10
8.986559162789124
 20
59.89276543882213
 30
0.0
 10
8.424421422815554
 20
62.33527864686319
 30
0.0
 10
7.07973867746284
 20
64.49262653547407
 30
0.0
 10
4.936880088971223
 20
65.86734667099884
 30
0.0
 10
2.486532021037946
 20
66.40617226864609
 30
0.0
 10
0.8305496267716236
 20
66.52613143579933
 30
0.0
 10
0.0000276201293961
 20
66.51804817741626
 30
0.0
  0
SPLINE
  5
B9
330
1F
100
AcDbEntity
  8
Default
100
AcDbSpline
210
0.0
220
0.0
230
1.0
 70
     8
 71
     3
 72
    19
 73
    15
 74
     0
 42
0.0000000001
 43
0.0000000001
 40
0.0
 40
0.0
 40
0.0
 40
0.0
 40
0.9999987775228026
 40
2.000000321223129
 40
3.000001864923454
 40
4.00000340862378
 40
5.000004952324106
 40
6.000006496024433
 40
7.000008039724759
 40
8.000009583425085
 40
9.00001112712541
 40
10.00001267082574
 40
11.00001421452606
 40
12.0
 40
12.0
 40
12.0
 40
12.0
 10
0.0000276201293961
 20
66.51804817741626
 30
0.0
 10
-0.8304943865128315
 20
66.52613143579933
 30
0.0
 10
-2.486476780779153
 20
66.40617226864609
 30
0.0
 10
-4.936824848712431
 20
65.86734667099884
 30
0.0
 10
-7.079683437204048
 20
64.49262653547407
 30
0.0
 10
-8.424366182556762
 20
62.33527864686319
 30
0.0
 10
-8.986503922530332
 20
59.89276543882213
 30
0.0
 10
-9.149336182614919
 20
57.40230490423831
 30
0.0
 10
-8.865992033188189
 20
54.91767828632642
 30
0.0
 10
-8.09159532528489
 20
52.53522456242645
 30
0.0
 10
-6.744583177370566
 20
50.4153194449731
 30
0.0
 10
-4.82296048646706
 20
48.77441584137188
 30
0.0
 10
-2.475599424303616
 20
47.87800143124295
 30
0.0
 10
-0.8319717710222747
 20
47.60021121806989
 30
0.0
 10
0.0000276201293961
 20
47.60053254060588
 30
0.0
  0
SPLINE
  5
BA
330
1F
100
AcDbEntity
  8
Default
100
AcDbSpline
210
0.0
220
0.0
230
1.0
 70
     8
 71
     3
 72
    16
 73
    12
 74
     0
 42
0.0000000001
 43
0.0000000001
 40
0.0
 40
0.0
 40
0.0
 40
0.0
 40
0.9999987966075757
 40
1.999998947031629
 40
2.999999097455682
 40
3.999999247879735
 40
4.999999398303788
 40
5.999999548727841
 40
6.999999699151894
 40
7.999999849575947
 40
9.0
 40
9.0
 40
9.0
 40
9.0
 10
0.0000276201293961
 20
66.06437162250302
 30
0.0
 10
-0.9636691636548314
 20
66.06138406018471
 30
0.0
 10
-2.886809358847015
 20
65.94228512521119
 30
0.0
 10
-5.705954696798278
 20
65.08319895187347
 30
0.0
 10
-7.776999221391896
 20
62.92604434278018
 30
0.0
 10
-8.658160730952732
 20
60.13225190522272
 30
0.0
 10
-8.943110988486314
 20
57.24538376605896
 30
0.0
 10
-8.604461694564815
 20
54.35878285430756
 30
0.0
 10
-7.555330513560513
 20
51.63147369887589
 30
0.0
 10
-5.668816368029928
 20
49.38672108605282
 30
0.0
 10
-3.951680805401096
 20
48.43913418155591
 30
0.0
 10
-3.039230989999667
 20
48.13321128915715
 30
0.0
  0
SPLINE
  5
BB
330
1F
100
AcDbEntity
  8
Default
100
AcDbSpline
210
0.0
220
0.0
230
1.0
 70
     8
 71
     3
 72
    16
 73
    12
 74
     0
 42
0.0000000001
 43
0.0000000001
 40
-9.0
 40
-9.0
 40
-9.0
 40
-9.0
 40
-7.999999849575947
 40
-6.999999699151894
 40
-5.999999548727841
 40
-4.999999398303788
 40
-3.999999247879735
 40
-2.999999097455682
 40
-1.999998947031629
 40
-0.9999987966075757
 40
0.0
 40
0.0
 40
0.0
 40
0.0
 10
3.03928623025846
 20
48.13321128915715
 30
0.0
 10
3.951736045659888
 20
48.43913418155591
 30
0.0
 10
5.66887160828872
 20
49.38672108605282
 30
0.0
 10
7.555385753819305
 20
51.63147369887589
 30
0.0
 10
8.604516934823607
 20
54.35878285430756
 30
0.0
 10
8.943166228745106
 20
57.24538376605896
 30
0.0
 10
8.658215971211524
 20
60.13225190522272
 30
0.0
 10
7.777054461650688
 20
62.92604434278018
 30
0.0
 10
5.70600993705707
 20
65.08319895187347
 30
0.0
 10
2.886864599105807
 20
65.94228512521119
 30
0.0
 10
0.9637244039136235
 20
66.06138406018471
 30
0.0
 10
0.0000276201293961
 20
66.06437162250302
 30
0.0
  0
SPLINE
  5
BC
330
1F
100
AcDbEntity
  8
Default
100
AcDbSpline
210
0.0
220
0.0
230
1.0
 70
     8
 71
     3
 72
    16
 73
    12
 74
     0
 42
0.0000000001
 43
0.0000000001
 40
-9.0
 40
-9.0
 40
-9.0
 40
-9.0
 40
-8.0
 40
-7.0
 40
-6.0
 40
-5.0
 40
-4.0
 40
-3.0
 40
-2.0
 40
-1.0
 40
0.0
 40
0.0
 40
0.0
 40
0.0
 10
0.0000276201293961
 20
48.11711557676869
 30
0.0
 10
0.8734712769411181
 20
48.11665439248686
 30
0.0
 10
2.619826185236426
 20
48.43021053352846
 30
0.0
 10
4.915021056316364
 20
49.77679846111419
 30
0.0
 10
6.609816589326691
 20
51.82698210890156
 30
0.0
 10
7.507755203864032
 20
54.3301212671313
 30
0.0
 10
7.509005611904425
 20
56.98916877383486
 30
0.0
 10
6.613385132464935
 20
59.49292428076182
 30
0.0
 10
4.922543688604524
 20
61.54667699933565
 30
0.0
 10
2.622980173080188
 20
62.88901349205306
 30
0.0
 10
0.8729509203049558
 20
63.18512988668302
 30
0.0
 10
0.0000276201293961
 20
63.18458944317101
 30
0.0
  0
SPLINE
  5
BD
330
1F
100
AcDbEntity
  8
Default
100
AcDbSpline
210
0.0
220
0.0
230
1.0
 70
     8
 71
     3
 72
    16
 73
    12
 74
     0
 42
0.0000000001
 43
0.0000000001
 40
0.0
 40
0.0
 40
0.0
 40
0.0
 40
1.0
 40
2.0
 40
3.0
 40
4.0
 40
5.0
 40
6.0
 40
7.0
 40
8.0
 40
9.0
 40
9.0
 40
9.0
 40
9.0
 10
0.0000276201293961
 20
63.18458944317101
 30
0.0
 10
-0.8728956800461637
 20
63.18512988668302
 30
0.0
 10
-2.622924932821396
 20
62.88901349205306
 30
0.0
 10
-4.922488448345732
 20
61.54667699933565
 30
0.0
 10
-6.613329892206143
 20
59.49292428076182
 30
0.0
 10
-7.508950371645633
 20
56.98916877383486
 30
0.0
 10
-7.50769996360524
 20
54.3301212671313
 30
0.0
 10
-6.609761349067899
 20
51.82698210890156
 30
0.0
 10
-4.914965816057572
 20
49.77679846111419
 30
0.0
 10
-2.619770944977634
 20
48.43021053352846
 30
0.0
 10
-0.873416036682326
 20
48.11665439248686
 30
0.0
 10
0.0000276201293961
 20
48.11711557676869
 30
0.0
  0
ENDSEC
  0
SECTION
  2
OBJECTS
  0
DICTIONARY
  5
C
330
0
100
AcDbDictionary
281
     1
  3
ACAD_GROUP
350
D
  3
ACAD_LAYOUT
350
1A
  3
ACAD_MLEADERSTYLE
350
BF
  3
ACAD_MLINESTYLE
350
17
  3
ACAD_PLOTSETTINGS
350
19
  3
ACAD_PLOTSTYLENAME
350
E
  3
ACAD_TABLESTYLE
350
BE
  3
ACAD_VISUALSTYLE
350
2A
  0
DICTIONARY
  5
D
102
{ACAD_REACTORS
330
C
102
}
330
C
100
AcDbDictionary
281
     1
  0
DICTIONARY
  5
1A
102
{ACAD_REACTORS
330
C
102
}
330
C
100
AcDbDictionary
281
     1
  3
Layout1
350
1E
  3
Layout2
350
26
  3
Model
350
22
  0
DICTIONARY
  5
BF
102
{ACAD_REACTORS
330
C
102
}
330
C
100
AcDbDictionary
281
     1
  0
DICTIONARY
  5
17
102
{ACAD_REACTORS
330
C
102
}
330
C
100
AcDbDictionary
281
     1
  3
Standard
350
18
  0
DICTIONARY
  5
19
102
{ACAD_REACTORS
330
C
102
}
330
C
100
AcDbDictionary
281
     1
  0
ACDBDICTIONARYWDFLT
  5
E
102
{ACAD_REACTORS
330
C
102
}
330
C
100
AcDbDictionary
281
     1
  3
Normal
350
F
100
AcDbDictionaryWithDefault
340
F
  0
DICTIONARY
  5
BE
102
{ACAD_REACTORS
330
C
102
}
330
C
100
AcDbDictionary
281
     1
  0
DICTIONARY
  5
2A
102
{ACAD_REACTORS
330
C
102
}
330
C
100
AcDbDictionary
281
     1
  3
2dWireframe
350
2F
  3
3D Hidden
350
31
  3
3dWireframe
350
30
  3
Basic
350
32
  3
Brighten
350
36
  3
ColorChange
350
3A
  3
Conceptual
350
34
  3
Dim
350
35
  3
Facepattern
350
39
  3
Flat
350
2B
  3
FlatWithEdges
350
2C
  3
Gouraud
350
2D
  3
GouraudWithEdges
350
2E
  3
Linepattern
350
38
  3
Realistic
350
33
  3
Thicken
350
37
  0
LAYOUT
  5
1E
102
{ACAD_REACTORS
330
1A
102
}
330
1A
100
AcDbPlotSettings
  1

  2
none_device
  4

  6

 40
0.0
 41
0.0
 42
0.0
 43
0.0
 44
0.0
 45
0.0
 46
0.0
 47
0.0
 48
0.0
 49
0.0
140
0.0
141
0.0
142
1.0
143
1.0
 70
   688
 72
     0
 73
     0
 74
     5
  7

 75
    16
 76
     0
 77
     2
 78
   300
147
1.0
148
0.0
149
0.0
100
AcDbLayout
  1
Layout1
 70
     1
 71
     1
 10
0.0
 20
0.0
 11
12.0
 21
9.0
 12
0.0
 22
0.0
 32
0.0
 14
1.000000000000000E+20
 24
1.000000000000000E+20
 34
1.000000000000000E+20
 15
-1.000000000000000E+20
 25
-1.000000000000000E+20
 35
-1.000000000000000E+20
146
0.0
 13
0.0
 23
0.0
 33
0.0
 16
1.0
 26
0.0
 36
0.0
 17
0.0
 27
1.0
 37
0.0
 76
     0
330
1B
  0
LAYOUT
  5
26
102
{ACAD_REACTORS
330
1A
102
}
330
1A
100
AcDbPlotSettings
  1

  2
none_device
  4

  6

 40
0.0
 41
0.0
 42
0.0
 43
0.0
 44
0.0
 45
0.0
 46
0.0
 47
0.0
 48
0.0
 49
0.0
140
0.0
141
0.0
142
1.0
143
1.0
 70
   688
 72
     0
 73
     0
 74
     5
  7

 75
    16
 76
     0
 77
     2
 78
   300
147
1.0
148
0.0
149
0.0
100
AcDbLayout
  1
Layout2
 70
     1
 71
     2
 10
0.0
 20
0.0
 11
0.0
 21
0.0
 12
0.0
 22
0.0
 32
0.0
 14
0.0
 24
0.0
 34
0.0
 15
0.0
 25
0.0
 35
0.0
146
0.0
 13
0.0
 23
0.0
 33
0.0
 16
1.0
 26
0.0
 36
0.0
 17
0.0
 27
1.0
 37
0.0
 76
     0
330
23
  0
LAYOUT
  5
22
102
{ACAD_REACTORS
330
1A
102
}
330
1A
100
AcDbPlotSettings
  1

  2
none_device
  4

  6

 40
0.0
 41
0.0
 42
0.0
 43
0.0
 44
0.0
 45
0.0
 46
0.0
 47
0.0
 48
0.0
 49
0.0
140
0.0
141
0.0
142
1.0
143
1.0
 70
  1712
 72
     0
 73
     0
 74
     0
  7

 75
     0
 76
     0
 77
     2
 78
   300
147
1.0
148
0.0
149
0.0
100
AcDbLayout
  1
Model
 70
     1
 71
     0
 10
0.0
 20
0.0
 11
12.0
 21
9.0
 12
0.0
 22
0.0
 32
0.0
 14
-9.083707120666585
 24
0.0
 34
0.0
 15
38.95179751238203
 25
67.6993590781555
 35
0.0
146
0.0
 13
0.0
 23
0.0
 33
0.0
 16
1.0
 26
0.0
 36
0.0
 17
0.0
 27
1.0
 37
0.0
 76
     0
330
1F
331
29
  0
MLINESTYLE
  5
18
102
{ACAD_REACTORS
330
17
102
}
330
17
100
AcDbMlineStyle
  2
Standard
 70
     0
  3

 62
   256
 51
90.0
 52
90.0
 71
     2
 49
0.5
 62
   256
  6
BYLAYER
 49
-0.5
 62
   256
  6
BYLAYER
  0
ACDBPLACEHOLDER
  5
F
102
{ACAD_REACTORS
330
E
102
}
330
E
  0
VISUALSTYLE
  5
2F
102
{ACAD_REACTORS
330
2A
102
}
330
2A
100
AcDbVisualStyle
  2
2dWireframe
 70
     4
 71
     0
 72
     2
 73
     0
 90
        0
 40
-0.6
 41
-30.0
 62
     5
 63
     7
421
 16777215
 74
     1
 91
        4
 64
     7
 65
   257
 75
     1
175
     1
 42
1.0
 92
        0
 66
   257
 43
1.0
 76
     1
 77
     6
 78
     2
 67
     7
 79
     5
170
     0
171
     0
290
     0
174
     0
 93
        1
 44
0.0
173
     0
291
     0
 45
0.0
1001
ACAD
1000
AcDbSavedByObjectVersion
1070
     0
  0
VISUALSTYLE
  5
31
102
{ACAD_REACTORS
330
2A
102
}
330
2A
100
AcDbVisualStyle
  2
3D Hidden
 70
     6
 71
     1
 72
     2
 73
     2
 90
        0
 40
-0.6
 41
-30.0
 62
     5
 63
     7
421
 16777215
 74
     2
 91
        2
 64
     7
 65
   257
 75
     2
175
     1
 42
40.0
 92
        0
 66
   257
 43
1.0
 76
     1
 77
     6
 78
     2
 67
     7
 79
     3
170
     0
171
     0
290
     0
174
     0
 93
        1
 44
0.0
173
     0
291
     0
 45
0.0
1001
ACAD
1000
AcDbSavedByObjectVersion
1070
     0
  0
VISUALSTYLE
  5
30
102
{ACAD_REACTORS
330
2A
102
}
330
2A
100
AcDbVisualStyle
  2
3dWireframe
 70
     5
 71
     0
 72
     2
 73
     0
 90
        0
 40
-0.6
 41
-30.0
 62
     5
 63
     7
421
 16777215
 74
     1
 91
        4
 64
     7
 65
   257
 75
     1
175
     1
 42
1.0
 92
        0
 66
   257
 43
1.0
 76
     1
 77
     6
 78
     2
 67
     7
 79
     5
170
     0
171
     0
290
     0
174
     0
 93
        1
 44
0.0
173
     0
291
     0
 45
0.0
1001
ACAD
1000
AcDbSavedByObjectVersion
1070
     0
  0
VISUALSTYLE
  5
32
102
{ACAD_REACTORS
330
2A
102
}
330
2A
100
AcDbVisualStyle
  2
Basic
 70
     7
 71
     1
 72
     0
 73
     1
 90
        0
 40
-0.6
 41
-30.0
 62
     5
 63
     7
421
 16777215
 74
     0
 91
        4
 64
     7
 65
   257
 75
     1
175
     1
 42
1.0
 92
        8
 66
     7
 43
1.0
 76
     1
 77
     6
 78
     2
 67
     7
 79
     5
170
     0
171
     0
290
     0
174
     0
 93
        1
 44
0.0
173
     0
291
     1
 45
0.0
1001
ACAD
1000
AcDbSavedByObjectVersion
1070
     0
  0
VISUALSTYLE
  5
36
102
{ACAD_REACTORS
330
2A
102
}
330
2A
100
AcDbVisualStyle
  2
Brighten
 70
    12
 71
     2
 72
     2
 73
     0
 90
        0
 40
-0.6
 41
-30.0
 62
     5
 63
     7
421
 16777215
 74
     1
 91
        4
 64
     7
 65
   257
 75
     1
175
     1
 42
1.0
 92
        8
 66
     7
 43
1.0
 76
     1
 77
     6
 78
     2
 67
     7
 79
     5
170
     0
171
     0
290
     0
174
     0
 93
        1
 44
50.0
173
     0
291
     1
 45
0.0
1001
ACAD
1000
AcDbSavedByObjectVersion
1070
     0
  0
VISUALSTYLE
  5
3A
102
{ACAD_REACTORS
330
2A
102
}
330
2A
100
AcDbVisualStyle
  2
ColorChange
 70
    16
 71
     2
 72
     2
 73
     3
 90
        0
 40
-0.6
 41
-30.0
 62
     5
 63
     8
421
  8421504
 74
     1
 91
        4
 64
     7
 65
   257
 75
     1
175
     1
 42
1.0
 92
        8
 66
     8
424
  8421504
 43
1.0
 76
     1
 77
     6
 78
     2
 67
     7
 79
     5
170
     0
171
     0
290
     0
174
     0
 93
        1
 44
0.0
173
     0
291
     1
 45
0.0
1001
ACAD
1000
AcDbSavedByObjectVersion
1070
     0
  0
VISUALSTYLE
  5
34
102
{ACAD_REACTORS
330
2A
102
}
330
2A
100
AcDbVisualStyle
  2
Conceptual
 70
     9
 71
     3
 72
     2
 73
     0
 90
        0
 40
-0.6
 41
-30.0
 62
     5
 63
     7
421
 16777215
 74
     2
 91
        2
 64
     7
 65
   257
 75
     1
175
     1
 42
40.0
 92
        8
 66
     7
 43
1.0
 76
     1
 77
     6
 78
     2
 67
     7
 79
     3
170
     0
171
     0
290
     0
174
     0
 93
        1
 44
0.0
173
     0
291
     0
 45
0.0
1001
ACAD
1000
AcDbSavedByObjectVersion
1070
     0
  0
VISUALSTYLE
  5
35
102
{ACAD_REACTORS
330
2A
102
}
330
2A
100
AcDbVisualStyle
  2
Dim
 70
    11
 71
     2
 72
     2
 73
     0
 90
        0
 40
-0.6
 41
-30.0
 62
     5
 63
     7
421
 16777215
 74
     1
 91
        4
 64
     7
 65
   257
 75
     1
175
     1
 42
1.0
 92
        8
 66
     7
 43
1.0
 76
     1
 77
     6
 78
     2
 67
     7
 79
     5
170
     0
171
     0
290
     0
174
     0
 93
        1
 44
-50.0
173
     0
291
     1
 45
0.0
1001
ACAD
1000
AcDbSavedByObjectVersion
1070
     0
  0
VISUALSTYLE
  5
39
102
{ACAD_REACTORS
330
2A
102
}
330
2A
100
AcDbVisualStyle
  2
Facepattern
 70
    15
 71
     2
 72
     2
 73
     0
 90
        0
 40
-0.6
 41
-30.0
 62
     5
 63
     7
421
 16777215
 74
     1
 91
        4
 64
     7
 65
   257
 75
     1
175
     1
 42
1.0
 92
        8
 66
     7
 43
1.0
 76
     1
 77
     6
 78
     2
 67
     7
 79
     5
170
     0
171
     0
290
     0
174
     0
 93
        1
 44
0.0
173
     0
291
     1
 45
0.0
1001
ACAD
1000
AcDbSavedByObjectVersion
1070
     0
  0
VISUALSTYLE
  5
2B
102
{ACAD_REACTORS
330
2A
102
}
330
2A
100
AcDbVisualStyle
  2
Flat
 70
     0
 71
     2
 72
     1
 73
     1
 90
        2
 40
-0.6
 41
30.0
 62
     5
 63
     7
421
 16777215
 74
     0
 91
        4
 64
     7
 65
   257
 75
     1
175
     1
 42
1.0
 92
        8
 66
     7
 43
1.0
 76
     1
 77
     6
 78
     2
 67
     7
 79
     5
170
     0
171
     0
290
     0
174
     0
 93
       13
 44
0.0
173
     0
291
     1
 45
0.0
1001
ACAD
1000
AcDbSavedByObjectVersion
1070
     0
  0
VISUALSTYLE
  5
2C
102
{ACAD_REACTORS
330
2A
102
}
330
2A
100
AcDbVisualStyle
  2
FlatWithEdges
 70
     1
 71
     2
 72
     1
 73
     1
 90
        2
 40
-0.6
 41
30.0
 62
     5
 63
     7
421
 16777215
 74
     1
 91
        4
 64
     7
 65
   257
 75
     1
175
     1
 42
1.0
 92
        0
 66
   257
 43
1.0
 76
     1
 77
     6
 78
     2
 67
     7
 79
     5
170
     0
171
     0
290
     0
174
     0
 93
       13
 44
0.0
173
     0
291
     1
 45
0.0
1001
ACAD
1000
AcDbSavedByObjectVersion
1070
     0
  0
VISUALSTYLE
  5
2D
102
{ACAD_REACTORS
330
2A
102
}
330
2A
100
AcDbVisualStyle
  2
Gouraud
 70
     2
 71
     2
 72
     2
 73
     1
 90
        2
 40
-0.6
 41
30.0
 62
     5
 63
     7
421
 16777215
 74
     0
 91
        4
 64
     7
 65
   257
 75
     1
175
     1
 42
1.0
 92
        0
 66
     7
 43
1.0
 76
     1
 77
     6
 78
     2
 67
     7
 79
     5
170
     0
171
     0
290
     0
174
     0
 93
       13
 44
0.0
173
     0
291
     1
 45
0.0
1001
ACAD
1000
AcDbSavedByObjectVersion
1070
     0
  0
VISUALSTYLE
  5
2E
102
{ACAD_REACTORS
330
2A
102
}
330
2A
100
AcDbVisualStyle
  2
GouraudWithEdges
 70
     3
 71
     2
 72
     2
 73
     1
 90
        2
 40
-0.6
 41
30.0
 62
     5
 63
     7
421
 16777215
 74
     1
 91
        4
 64
     7
 65
   257
 75
     1
175
     1
 42
1.0
 92
        0
 66
   257
 43
1.0
 76
     1
 77
     6
 78
     2
 67
     7
 79
     5
170
     0
171
     0
290
     0
174
     0
 93
       13
 44
0.0
173
     0
291
     1
 45
0.0
1001
ACAD
1000
AcDbSavedByObjectVersion
1070
     0
  0
VISUALSTYLE
  5
38
102
{ACAD_REACTORS
330
2A
102
}
330
2A
100
AcDbVisualStyle
  2
Linepattern
 70
    14
 71
     2
 72
     2
 73
     0
 90
        0
 40
-0.6
 41
-30.0
 62
     5
 63
     7
421
 16777215
 74
     1
 91
        4
 64
     7
 65
   257
 75
     7
175
     7
 42
1.0
 92
        8
 66
     7
 43
1.0
 76
     1
 77
     6
 78
     2
 67
     7
 79
     5
170
     0
171
     0
290
     0
174
     0
 93
        1
 44
0.0
173
     0
291
     1
 45
0.0
1001
ACAD
1000
AcDbSavedByObjectVersion
1070
     0
  0
VISUALSTYLE
  5
33
102
{ACAD_REACTORS
330
2A
102
}
330
2A
100
AcDbVisualStyle
  2
Realistic
 70
     8
 71
     2
 72
     2
 73
     0
 90
        0
 40
-0.6
 41
-30.0
 62
     5
 63
     7
421
 16777215
 74
     1
 91
        0
 64
     7
 65
   257
 75
     1
175
     1
 42
1.0
 92
        8
 66
     8
424
  7895160
 43
1.0
 76
     1
 77
     6
 78
     2
 67
     7
 79
     5
170
     0
171
     0
290
     0
174
     0
 93
       13
 44
0.0
173
     0
291
     0
 45
0.0
1001
ACAD
1000
AcDbSavedByObjectVersion
1070
     0
  0
VISUALSTYLE
  5
37
102
{ACAD_REACTORS
330
2A
102
}
330
2A
100
AcDbVisualStyle
  2
Thicken
 70
    13
 71
     2
 72
     2
 73
     0
 90
        0
 40
-0.6
 41
-30.0
 62
     5
 63
     7
421
 16777215
 74
     1
 91
        4
 64
     7
 65
   257
 75
     1
175
     1
 42
1.0
 92
       12
 66
     7
 43
1.0
 76
     1
 77
     6
 78
     2
 67
     7
 79
     5
170
     0
171
     0
290
     0
174
     0
 93
        1
 44
0.0
173
     0
291
     1
 45
0.0
1001
ACAD
1000
AcDbSavedByObjectVersion
1070
     0
  0
ENDSEC
  0
EOF
