  0
SECTION
  2
HEADER
  9
$ACADVER
  1
AC1018
  9
$ACADMAINTVER
 70
     0
  9
$DWGCODEPAGE
  3
ANSI_1252
  9
$INSBASE
 10
0.0
 20
0.0
 30
0.0
  9
$EXTMIN
 10
-10.43369870558606
 20
0.0000000000141378
 30
-0.0000312453044315
  9
$EXTMAX
 10
47.85428262125117
 20
74.6199508427563
 30
0.0
  9
$LIMMIN
 10
0.0
 20
0.0
  9
$LIMMAX
 10
12.0
 20
9.0
  9
$ORTHOMODE
 70
     0
  9
$REGENMODE
 70
     1
  9
$FILLMODE
 70
     1
  9
$QTEXTMODE
 70
     0
  9
$MIRRTEXT
 70
     1
  9
$LTSCALE
 40
0.0393700787401575
  9
$ATTMODE
 70
     1
  9
$TEXTSIZE
 40
0.2
  9
$TRACEWID
 40
0.05
  9
$TEXTSTYLE
  7
Standard
  9
$CLAYER
  8
Default
  9
$CELTYPE
  6
ByLayer
  9
$CECOLOR
 62
   256
  9
$CELTSCALE
 40
1.0
  9
$DISPSILH
 70
     0
  9
$DIMSCALE
 40
1.0
  9
$DIMASZ
 40
0.18
  9
$DIMEXO
 40
0.0625
  9
$DIMDLI
 40
0.38
  9
$DIMRND
 40
0.0
  9
$DIMDLE
 40
0.0
  9
$DIMEXE
 40
0.18
  9
$DIMTP
 40
0.0
  9
$DIMTM
 40
0.0
  9
$DIMTXT
 40
0.18
  9
$DIMCEN
 40
0.09
  9
$DIMTSZ
 40
0.0
  9
$DIMTOL
 70
     0
  9
$DIMLIM
 70
     0
  9
$DIMTIH
 70
     1
  9
$DIMTOH
 70
     1
  9
$DIMSE1
 70
     0
  9
$DIMSE2
 70
     0
  9
$DIMTAD
 70
     0
  9
$DIMZIN
 70
     0
  9
$DIMBLK
  1

  9
$DIMASO
 70
     1
  9
$DIMSHO
 70
     1
  9
$DIMPOST
  1

  9
$DIMAPOST
  1

  9
$DIMALT
 70
     0
  9
$DIMALTD
 70
     2
  9
$DIMALTF
 40
25.4
  9
$DIMLFAC
 40
1.0
  9
$DIMTOFL
 70
     0
  9
$DIMTVP
 40
0.0
  9
$DIMTIX
 70
     0
  9
$DIMSOXD
 70
     0
  9
$DIMSAH
 70
     0
  9
$DIMBLK1
  1

  9
$DIMBLK2
  1

  9
$DIMSTYLE
  2
Standard
  9
$DIMCLRD
 70
     0
  9
$DIMCLRE
 70
     0
  9
$DIMCLRT
 70
     0
  9
$DIMTFAC
 40
1.0
  9
$DIMGAP
 40
0.09
  9
$DIMJUST
 70
     0
  9
$DIMSD1
 70
     0
  9
$DIMSD2
 70
     0
  9
$DIMTOLJ
 70
     1
  9
$DIMTZIN
 70
     0
  9
$DIMALTZ
 70
     0
  9
$DIMALTTZ
 70
     0
  9
$DIMUPT
 70
     0
  9
$DIMDEC
 70
     4
  9
$DIMTDEC
 70
     4
  9
$DIMALTU
 70
     2
  9
$DIMALTTD
 70
     2
  9
$DIMTXSTY
  7
Standard
  9
$DIMAUNIT
 70
     0
  9
$DIMADEC
 70
     0
  9
$DIMALTRND
 40
0.0
  9
$DIMAZIN
 70
     0
  9
$DIMDSEP
 70
    46
  9
$DIMATFIT
 70
     3
  9
$DIMFRAC
 70
     0
  9
$DIMLDRBLK
  1

  9
$DIMLUNIT
 70
     2
  9
$DIMLWD
 70
    -2
  9
$DIMLWE
 70
    -2
  9
$DIMTMOVE
 70
     2
  9
$LUNITS
 70
     2
  9
$LUPREC
 70
     3
  9
$SKETCHINC
 40
0.1
  9
$FILLETRAD
 40
0.5
  9
$AUNITS
 70
     0
  9
$AUPREC
 70
     0
  9
$MENU
  1
.
  9
$ELEVATION
 40
0.0
  9
$PELEVATION
 40
0.0
  9
$THICKNESS
 40
0.0
  9
$LIMCHECK
 70
     0
  9
$CHAMFERA
 40
0.5
  9
$CHAMFERB
 40
0.5
  9
$CHAMFERC
 40
1.0
  9
$CHAMFERD
 40
0.0
  9
$SKPOLY
 70
     0
  9
$TDCREATE
 40
2456338.485155
  9
$TDUCREATE
 40
2456338.693488333
  9
$TDUPDATE
 40
2456338.485155012
  9
$TDUUPDATE
 40
2456338.693488345
  9
$TDINDWG
 40
0.0000000116
  9
$TDUSRTIMER
 40
0.0000000116
  9
$USRTIMER
 70
     1
  9
$ANGBASE
 50
0.0
  9
$ANGDIR
 70
     0
  9
$PDMODE
 70
     0
  9
$PDSIZE
 40
0.0
  9
$PLINEWID
 40
0.0
  9
$SPLFRAME
 70
     0
  9
$SPLINETYPE
 70
     6
  9
$SPLINESEGS
 70
     8
  9
$HANDSEED
  5
15B
  9
$SURFTAB1
 70
     6
  9
$SURFTAB2
 70
     6
  9
$SURFTYPE
 70
     6
  9
$SURFU
 70
     6
  9
$SURFV
 70
     6
  9
$UCSBASE
  2

  9
$UCSNAME
  2

  9
$UCSORG
 10
0.0
 20
0.0
 30
0.0
  9
$UCSXDIR
 10
1.0
 20
0.0
 30
0.0
  9
$UCSYDIR
 10
0.0
 20
1.0
 30
0.0
  9
$UCSORTHOREF
  2

  9
$UCSORTHOVIEW
 70
     0
  9
$UCSORGTOP
 10
0.0
 20
0.0
 30
0.0
  9
$UCSORGBOTTOM
 10
0.0
 20
0.0
 30
0.0
  9
$UCSORGLEFT
 10
0.0
 20
0.0
 30
0.0
  9
$UCSORGRIGHT
 10
0.0
 20
0.0
 30
0.0
  9
$UCSORGFRONT
 10
0.0
 20
0.0
 30
0.0
  9
$UCSORGBACK
 10
0.0
 20
0.0
 30
0.0
  9
$PUCSBASE
  2

  9
$PUCSNAME
  2

  9
$PUCSORG
 10
0.0
 20
0.0
 30
0.0
  9
$PUCSXDIR
 10
1.0
 20
0.0
 30
0.0
  9
$PUCSYDIR
 10
0.0
 20
1.0
 30
0.0
  9
$PUCSORTHOREF
  2

  9
$PUCSORTHOVIEW
 70
     0
  9
$PUCSORGTOP
 10
0.0
 20
0.0
 30
0.0
  9
$PUCSORGBOTTOM
 10
0.0
 20
0.0
 30
0.0
  9
$PUCSORGLEFT
 10
0.0
 20
0.0
 30
0.0
  9
$PUCSORGRIGHT
 10
0.0
 20
0.0
 30
0.0
  9
$PUCSORGFRONT
 10
0.0
 20
0.0
 30
0.0
  9
$PUCSORGBACK
 10
0.0
 20
0.0
 30
0.0
  9
$USERI1
 70
     0
  9
$USERI2
 70
     0
  9
$USERI3
 70
     0
  9
$USERI4
 70
     0
  9
$USERI5
 70
     0
  9
$USERR1
 40
0.0
  9
$USERR2
 40
0.0
  9
$USERR3
 40
0.0
  9
$USERR4
 40
0.0
  9
$USERR5
 40
0.0
  9
$WORLDVIEW
 70
     1
  9
$SHADEDGE
 70
     3
  9
$SHADEDIF
 70
    70
  9
$TILEMODE
 70
     1
  9
$MAXACTVP
 70
    64
  9
$PINSBASE
 10
0.0
 20
0.0
 30
0.0
  9
$PLIMCHECK
 70
     0
  9
$PEXTMIN
 10
1.000000000000000E+20
 20
1.000000000000000E+20
 30
1.000000000000000E+20
  9
$PEXTMAX
 10
-1.000000000000000E+20
 20
-1.000000000000000E+20
 30
-1.000000000000000E+20
  9
$PLIMMIN
 10
0.0
 20
0.0
  9
$PLIMMAX
 10
12.0
 20
9.0
  9
$UNITMODE
 70
     0
  9
$VISRETAIN
 70
     1
  9
$PLINEGEN
 70
     0
  9
$PSLTSCALE
 70
     1
  9
$TREEDEPTH
 70
  3020
  9
$CMLSTYLE
  2
Standard
  9
$CMLJUST
 70
     0
  9
$CMLSCALE
 40
1.0
  9
$PROXYGRAPHICS
 70
     1
  9
$MEASUREMENT
 70
     0
  9
$CELWEIGHT
370
    -1
  9
$ENDCAPS
280
     0
  9
$JOINSTYLE
280
     0
  9
$LWDISPLAY
290
     0
  9
$INSUNITS
 70
     1
  9
$HYPERLINKBASE
  1

  9
$STYLESHEET
  1

  9
$XEDIT
290
     1
  9
$CEPSNTYPE
380
     0
  9
$PSTYLEMODE
290
     1
  9
$FINGERPRINTGUID
  2
{54054FD8-50D7-422A-AE1C-179FE7E94824}
  9
$VERSIONGUID
  2
{FAEB1C32-E019-11D5-929B-00C0DF256EC4}
  9
$EXTNAMES
290
     1
  9
$PSVPSCALE
 40
0.0
  9
$OLESTARTUP
290
     0
  9
$SORTENTS
280
   127
  9
$INDEXCTL
280
     0
  9
$HIDETEXT
280
     1
  9
$XCLIPFRAME
290
     0
  9
$HALOGAP
280
     0
  9
$OBSCOLOR
 70
   257
  9
$OBSLTYPE
280
     0
  9
$INTERSECTIONDISPLAY
280
     0
  9
$INTERSECTIONCOLOR
 70
   257
  9
$DIMASSOC
280
     2
  9
$PROJECTNAME
  1

  0
ENDSEC
  0
SECTION
  2
CLASSES
  0
CLASS
  1
ACDBDICTIONARYWDFLT
  2
AcDbDictionaryWithDefault
  3
ObjectDBX Classes
 90
        0
 91
        4
280
     0
281
     0
  0
CLASS
  1
VISUALSTYLE
  2
AcDbVisualStyle
  3
ObjectDBX Classes
 90
     4095
 91
        4
280
     0
281
     0
  0
ENDSEC
  0
SECTION
  2
TABLES
  0
TABLE
  2
VPORT
  5
8
330
0
100
AcDbSymbolTable
 70
     1
  0
VPORT
  5
29
330
8
100
AcDbSymbolTableRecord
100
AcDbViewportTableRecord
  2
*Active
 70
     0
 10
0.0
 20
0.0
 11
1.0
 21
1.0
 12
18.71029195783255
 22
37.30997542138522
 13
0.0
 23
0.0
 14
0.5
 24
0.5
 15
0.5
 25
0.5
 16
0.0
 26
0.0
 36
1.0
 17
0.0
 27
0.0
 37
0.0
 40
76.112349859597
 41
0.7811313283987047
 42
50.0
 43
0.0
 44
0.0
 50
0.0
 51
0.0
 71
     0
 72
   100
 73
     1
 74
     3
 75
     0
 76
     0
 77
     0
 78
     0
281
     0
 65
     1
110
0.0
120
0.0
130
0.0
111
1.0
121
0.0
131
0.0
112
0.0
122
1.0
132
0.0
 79
     0
146
0.0
  0
ENDTAB
  0
TABLE
  2
LTYPE
  5
5
330
0
100
AcDbSymbolTable
 70
     1
  0
LTYPE
  5
14
330
5
100
AcDbSymbolTableRecord
100
AcDbLinetypeTableRecord
  2
ByBlock
 70
     0
  3

 72
    65
 73
     0
 40
0.0
  0
LTYPE
  5
15
330
5
100
AcDbSymbolTableRecord
100
AcDbLinetypeTableRecord
  2
ByLayer
 70
     0
  3

 72
    65
 73
     0
 40
0.0
  0
LTYPE
  5
16
330
5
100
AcDbSymbolTableRecord
100
AcDbLinetypeTableRecord
  2
Continuous
 70
     0
  3
Solid line
 72
    65
 73
     0
 40
0.0
  0
ENDTAB
  0
TABLE
  2
LAYER
  5
2
330
0
100
AcDbSymbolTable
 70
     4
  0
LAYER
  5
10
330
2
100
AcDbSymbolTableRecord
100
AcDbLayerTableRecord
  2
0
 70
     0
 62
     7
  6
Continuous
370
    -3
390
F
  0
LAYER
  5
3B
330
2
100
AcDbSymbolTableRecord
100
AcDbLayerTableRecord
  2
Make2D visible lines
 70
     0
 62
     7
  6
Continuous
370
    -3
390
F
  0
LAYER
  5
3E
330
2
100
AcDbSymbolTableRecord
100
AcDbLayerTableRecord
  2
Make2D visible lines - Tangent
 70
     0
 62
     7
  6
Continuous
370
    -3
390
F
  0
LAYER
  5
43
330
2
100
AcDbSymbolTableRecord
100
AcDbLayerTableRecord
  2
Default
 70
     0
 62
     7
  6
Continuous
370
    -3
390
F
  0
ENDTAB
  0
TABLE
  2
STYLE
  5
3
330
0
100
AcDbSymbolTable
 70
     1
  0
STYLE
  5
11
330
3
100
AcDbSymbolTableRecord
100
AcDbTextStyleTableRecord
  2
Standard
 70
     0
 40
0.0
 41
1.0
 50
0.0
 71
     0
 42
0.2
  3
txt
  4

  0
ENDTAB
  0
TABLE
  2
VIEW
  5
6
330
0
100
AcDbSymbolTable
 70
     0
  0
ENDTAB
  0
TABLE
  2
UCS
  5
7
330
0
100
AcDbSymbolTable
 70
     0
  0
ENDTAB
  0
TABLE
  2
APPID
  5
9
330
0
100
AcDbSymbolTable
 70
     1
  0
APPID
  5
12
330
9
100
AcDbSymbolTableRecord
100
AcDbRegAppTableRecord
  2
ACAD
 70
     0
  0
ENDTAB
  0
TABLE
  2
DIMSTYLE
  5
A
330
0
100
AcDbSymbolTable
 70
     1
100
AcDbDimStyleTable
  0
DIMSTYLE
105
27
330
A
100
AcDbSymbolTableRecord
100
AcDbDimStyleTableRecord
  2
Standard
 70
     0
340
11
  0
ENDTAB
  0
TABLE
  2
BLOCK_RECORD
  5
1
330
0
100
AcDbSymbolTable
 70
     1
  0
BLOCK_RECORD
  5
1F
330
1
100
AcDbSymbolTableRecord
100
AcDbBlockTableRecord
  2
*Model_Space
340
22
  0
BLOCK_RECORD
  5
1B
330
1
100
AcDbSymbolTableRecord
100
AcDbBlockTableRecord
  2
*Paper_Space
340
1E
  0
BLOCK_RECORD
  5
23
330
1
100
AcDbSymbolTableRecord
100
AcDbBlockTableRecord
  2
*Paper_Space0
340
26
  0
ENDTAB
  0
ENDSEC
  0
SECTION
  2
BLOCKS
  0
BLOCK
  5
20
330
1F
100
AcDbEntity
  8
0
100
AcDbBlockBegin
  2
*Model_Space
 70
     0
 10
0.0
 20
0.0
 30
0.0
  3
*Model_Space
  1

  0
ENDBLK
  5
21
330
1F
100
AcDbEntity
  8
0
100
AcDbBlockEnd
  0
BLOCK
  5
1C
330
1B
100
AcDbEntity
 67
     1
  8
0
100
AcDbBlockBegin
  2
*Paper_Space
 70
     0
 10
0.0
 20
0.0
 30
0.0
  3
*Paper_Space
  1

  0
ENDBLK
  5
1D
330
1B
100
AcDbEntity
 67
     1
  8
0
100
AcDbBlockEnd
  0
BLOCK
  5
24
330
23
100
AcDbEntity
  8
0
100
AcDbBlockBegin
  2
*Paper_Space0
 70
     0
 10
0.0
 20
0.0
 30
0.0
  3
*Paper_Space0
  1

  0
ENDBLK
  5
25
330
23
100
AcDbEntity
  8
0
100
AcDbBlockEnd
  0
ENDSEC
  0
SECTION
  2
ENTITIES
  0
SPLINE
  5
3C
330
1F
100
AcDbEntity
  8
Make2D visible lines
100
AcDbSpline
210
0.0
220
0.0
230
1.0
 70
     8
 71
     3
 72
    16
 73
    12
 74
     0
 42
0.0000000001
 43
0.0000000001
 40
8.859681867019631
 40
8.859681867019631
 40
8.859681867019631
 40
8.859681867019631
 40
9.014211833764461
 40
9.264211833764461
 40
9.514211833764461
 40
9.514211833764461
 40
9.514211833764461
 40
9.764211833764461
 40
10.01421183376446
 40
10.26421183376446
 40
10.51421183376446
 40
10.51421183376446
 40
10.51421183376446
 40
10.51421183376446
 10
-8.240671249987539
 20
62.32486836724496
 30
0.0
 10
-8.219773433288426
 20
62.11981938298513
 30
0.0
 10
-8.149850030448249
 20
61.5710542914355
 30
0.0
 10
-7.946800101391863
 20
60.5749665381805
 30
0.0
 10
-7.707543627241127
 20
59.87285375060446
 30
0.0
 10
-7.556262663020086
 20
59.516555770141
 30
0.0
 10
-7.434241454152461
 20
59.22572355534525
 30
0.0
 10
-7.147942813704632
 20
58.6394354685259
 30
0.0
 10
-6.619029600249399
 20
57.82926829384533
 30
0.0
 10
-6.044416123317249
 20
57.1394167129674
 30
0.0
 10
-5.28422808293297
 20
56.41614222106629
 30
0.0
 10
-4.003880518174604
 20
55.75020967826702
 30
0.0
  0
SPLINE
  5
3D
330
1F
100
AcDbEntity
  8
Make2D visible lines
100
AcDbSpline
210
0.0
220
0.0
230
1.0
 70
     8
 71
     3
 72
    16
 73
    12
 74
     0
 42
0.0000000001
 43
0.0000000001
 40
8.859681867019631
 40
8.859681867019631
 40
8.859681867019631
 40
8.859681867019631
 40
9.014211833764461
 40
9.264211833764461
 40
9.514211833764461
 40
9.514211833764461
 40
9.514211833764461
 40
9.764211833764461
 40
10.01421183376446
 40
10.26421183376446
 40
10.51421183376446
 40
10.51421183376446
 40
10.51421183376446
 40
10.51421183376446
 10
8.242536050620451
 20
62.32486836724496
 30
0.0
 10
8.221638233921338
 20
62.11981938298513
 30
0.0
 10
8.151714831081161
 20
61.5710542914355
 30
0.0
 10
7.948664902024777
 20
60.5749665381805
 30
0.0
 10
7.709408427874041
 20
59.87285375060446
 30
0.0
 10
7.558127463653
 20
59.516555770141
 30
0.0
 10
7.436106254785375
 20
59.22572355534525
 30
0.0
 10
7.149807614337546
 20
58.6394354685259
 30
0.0
 10
6.620894400882313
 20
57.82926829384533
 30
0.0
 10
6.046280923950163
 20
57.1394167129674
 30
0.0
 10
5.286092883565884
 20
56.41614222106629
 30
0.0
 10
4.005745318807518
 20
55.75020967826702
 30
0.0
  0
LINE
  5
3F
330
1F
100
AcDbEntity
  8
Make2D visible lines - Tangent
100
AcDbLine
 10
5.14704910375373
 20
55.61139389018425
 30
0.0
 11
5.829332667479718
 21
56.21242149238832
 31
0.0
  0
SPLINE
  5
40
330
1F
100
AcDbEntity
  8
Make2D visible lines - Tangent
100
AcDbSpline
210
0.0
220
0.0
230
1.0
 70
     8
 71
     3
 72
    24
 73
    20
 74
     0
 42
0.0000000001
 43
0.0000000001
 40
-17.0
 40
-17.0
 40
-17.0
 40
-17.0
 40
-15.99999896874797
 40
-14.99999793749595
 40
-13.99999690624392
 40
-12.9999958749919
 40
-11.99999484373987
 40
-10.99999381248784
 40
-9.999992781235816
 40
-8.99999174998379
 40
-7.999990718731764
 40
-6.999989687479738
 40
-5.999988656227711
 40
-4.999987624975685
 40
-3.999986593723659
 40
-2.999985562471633
 40
-1.999984531219607
 40
-0.9999834999675806
 40
0.0
 40
0.0
 40
0.0
 40
0.0
 10
5.829332667479718
 20
56.21242149238832
 30
0.0
 10
6.164255373063581
 20
56.5074568726362
 30
0.0
 10
6.77527838119711
 20
57.16251910675273
 30
0.0
 10
7.517034104286181
 20
58.28166715017607
 30
0.0
 10
8.090198609053331
 20
59.4948215488431
 30
0.0
 10
8.498517710505268
 20
60.77247288789866
 30
0.0
 10
8.750053648484359
 20
62.08946617164989
 30
0.0
 10
8.863746651855642
 20
63.4246368470108
 30
0.0
 10
8.841996169551608
 20
64.7659991814145
 30
0.0
 10
8.637919464406867
 20
66.09055155549412
 30
0.0
 10
8.386791978692928
 20
67.40580804319966
 30
0.0
 10
7.946577857293606
 20
68.67762104118043
 30
0.0
 10
7.245058596505942
 20
69.8232698351735
 30
0.0
 10
6.37843879097132
 20
70.85488500012438
 30
0.0
 10
5.23729763718109
 20
71.58177898968628
 30
0.0
 10
3.980909826608344
 20
72.0533480821461
 30
0.0
 10
2.67146432400172
 20
72.34485118142891
 30
0.0
 10
1.339571973270358
 20
72.49152687258646
 30
0.0
 10
0.4471343892224349
 20
72.52113289725546
 30
0.0
 10
0.0009324003164568
 20
72.5210040280763
 30
0.0
  0
SPLINE
  5
41
330
1F
100
AcDbEntity
  8
Make2D visible lines - Tangent
100
AcDbSpline
210
0.0
220
0.0
230
1.0
 70
     8
 71
     3
 72
    24
 73
    20
 74
     0
 42
0.0000000001
 43
0.0000000001
 40
0.0
 40
0.0
 40
0.0
 40
0.0
 40
0.9999834999675806
 40
1.999984531219607
 40
2.999985562471633
 40
3.999986593723659
 40
4.999987624975685
 40
5.999988656227711
 40
6.999989687479738
 40
7.999990718731764
 40
8.99999174998379
 40
9.999992781235816
 40
10.99999381248784
 40
11.99999484373987
 40
12.9999958749919
 40
13.99999690624392
 40
14.99999793749595
 40
15.99999896874797
 40
17.0
 40
17.0
 40
17.0
 40
17.0
 10
0.0009324003164568
 20
72.5210040280763
 30
0.0
 10
-0.4452695885895211
 20
72.52113289725546
 30
0.0
 10
-1.337707172637444
 20
72.49152687258646
 30
0.0
 10
-2.669599523368805
 20
72.34485118142891
 30
0.0
 10
-3.97904502597543
 20
72.0533480821461
 30
0.0
 10
-5.235432836548176
 20
71.58177898968628
 30
0.0
 10
-6.376573990338406
 20
70.85488500012438
 30
0.0
 10
-7.243193795873028
 20
69.8232698351735
 30
0.0
 10
-7.944713056660692
 20
68.67762104118043
 30
0.0
 10
-8.384927178060016
 20
67.40580804319966
 30
0.0
 10
-8.636054663773955
 20
66.09055155549412
 30
0.0
 10
-8.840131368918696
 20
64.7659991814145
 30
0.0
 10
-8.86188185122273
 20
63.4246368470108
 30
0.0
 10
-8.748188847851447
 20
62.08946617164989
 30
0.0
 10
-8.496652909872356
 20
60.77247288789866
 30
0.0
 10
-8.088333808420419
 20
59.4948215488431
 30
0.0
 10
-7.515169303653267
 20
58.28166715017607
 30
0.0
 10
-6.773413580564196
 20
57.16251910675273
 30
0.0
 10
-6.162390572430668
 20
56.5074568726362
 30
0.0
 10
-5.827467866846804
 20
56.21242149238832
 30
0.0
  0
LINE
  5
42
330
1F
100
AcDbEntity
  8
Make2D visible lines - Tangent
100
AcDbLine
 10
-5.827467866846804
 20
56.21242149238832
 30
0.0
 11
-5.145184303120788
 21
55.61139389018422
 31
0.0
  0
SPLINE
  5
44
330
1F
100
AcDbEntity
  8
Default
100
AcDbSpline
210
0.0
220
0.0
230
1.0
 70
     8
 71
     3
 72
    11
 73
     7
 74
     0
 42
0.0000000001
 43
0.0000000001
 40
0.0
 40
0.0
 40
0.0
 40
0.0
 40
0.4676055475834519
 40
0.9142111430713328
 40
1.790162585470304
 40
3.41236708694784
 40
3.41236708694784
 40
3.41236708694784
 40
3.41236708694784
 10
0.0009324003164568
 20
72.97468057303396
 30
0.0
 10
-0.1549279392707307
 20
72.97452668394551
 30
0.0
 10
-0.4596822948891311
 20
72.9714278360826
 30
0.0
 10
-1.056044913479862
 20
72.95007794928276
 30
0.0
 10
-2.03554004098656
 20
72.88190485662845
 30
0.0
 10
-2.860119449589974
 20
72.75637439745645
 30
0.0
 10
-3.388327740689552
 20
72.64036370253076
 30
0.0
  0
SPLINE
  5
45
330
1F
100
AcDbEntity
  8
Default
100
AcDbSpline
210
0.0
220
0.0
230
1.0
 70
     8
 71
     3
 72
     8
 73
     4
 74
     0
 42
0.0000000001
 43
0.0000000001
 40
0.0
 40
0.0
 40
0.0
 40
0.0
 40
1.0
 40
1.0
 40
1.0
 40
1.0
 10
-3.388327740689552
 20
72.64036370253076
 30
0.0
 10
-4.959321659231166
 20
72.29532539229399
 30
0.0
 10
-6.556986761336637
 20
71.58041150761625
 30
0.0
 10
-7.648193019085949
 20
69.95709698376308
 30
0.0
  0
SPLINE
  5
46
330
1F
100
AcDbEntity
  8
Default
100
AcDbSpline
210
0.0
220
0.0
230
1.0
 70
     8
 71
     3
 72
    35
 73
    31
 74
     0
 42
0.0000000001
 43
0.0000000001
 40
0.0
 40
0.0
 40
0.0
 40
0.0
 40
1.200721309039849
 40
2.474806189780193
 40
3.195853407963301
 40
3.98021372722645
 40
5.573951835782333
 40
7.111438093592549
 40
8.62293150650128
 40
9.33701971540726
 40
10.03763722837931
 40
10.71619595131842
 40
11.38765340373526
 40
12.6667968358364
 40
13.90631383006255
 40
14.48211977252136
 40
15.05812707602911
 40
16.24216093903146
 40
16.56621434235525
 40
16.81447999607517
 40
17.05433016171483
 40
17.29779240719692
 40
17.64791820344995
 40
18.00118544930303
 40
18.20323209221873
 40
18.40348689596203
 40
18.79616858581713
 40
19.4508953258949
 40
20.09030225747283
 40
21.29052340907742
 40
21.29052340907742
 40
21.29052340907742
 40
21.29052340907742
 10
-7.648193019085949
 20
69.95709698376308
 30
0.0
 10
-7.871470625674225
 20
69.6249418306452
 30
0.0
 10
-8.267483009759724
 20
68.89740341885118
 30
0.0
 10
-8.609746150853196
 20
67.88510064658144
 30
0.0
 10
-8.816754860161916
 20
66.98181115529457
 30
0.0
 10
-8.984787945944605
 20
65.9620880413699
 30
0.0
 10
-9.103006610595953
 20
64.66041278638151
 30
0.0
 10
-9.059284491179826
 20
63.11057407698451
 30
0.0
 10
-8.893034022351001
 20
61.86599955119084
 30
0.0
 10
-8.678386723212261
 20
60.91354857119822
 30
0.0
 10
-8.483129914087408
 20
60.24358712876276
 30
0.0
 10
-8.250365833895037
 20
59.6003334487639
 30
0.0
 10
-7.896154043160949
 20
58.79826395120593
 30
0.0
 10
-7.373842532228349
 20
57.86942888452243
 30
0.0
 10
-6.750131114303499
 20
57.04459824888481
 30
0.0
 10
-6.20228400410043
 20
56.46484608474715
 30
0.0
 10
-5.623165330481108
 20
55.94335175949137
 30
0.0
 10
-5.057466297385564
 20
55.53725131880535
 30
0.0
 10
-4.553420564994771
 20
55.23913474663597
 30
0.0
 10
-4.316685200700634
 20
55.10782107749961
 30
0.0
 10
-4.098108785763078
 20
54.99941857188819
 30
0.0
 10
-3.843481306750435
 20
54.88826765498246
 30
0.0
 10
-3.549926845669883
 20
54.77213766261306
 30
0.0
 10
-3.267151021595299
 20
54.66669514116918
 30
0.0
 10
-3.027853967991974
 20
54.58789735678961
 30
0.0
 10
-2.775542664394767
 20
54.50702260719923
 30
0.0
 10
-2.376809710517997
 20
54.38851949804041
 30
0.0
 10
-1.83042991629701
 20
54.25467576537214
 30
0.0
 10
-1.011987022889383
 20
54.10609862023606
 30
0.0
 10
-0.3992201160088264
 20
54.05710346567324
 30
0.0
 10
0.0009324003164568
 20
54.05716493162755
 30
0.0
  0
SPLINE
  5
47
330
1F
100
AcDbEntity
  8
Default
100
AcDbSpline
210
0.0
220
0.0
230
1.0
 70
     8
 71
     3
 72
    35
 73
    31
 74
     0
 42
0.0000000001
 43
0.0000000001
 40
-21.29052340907742
 40
-21.29052340907742
 40
-21.29052340907742
 40
-21.29052340907742
 40
-20.09030225747283
 40
-19.4508953258949
 40
-18.79616858581713
 40
-18.40348689596203
 40
-18.20323209221873
 40
-18.00118544930303
 40
-17.64791820344995
 40
-17.29779240719692
 40
-17.05433016171483
 40
-16.81447999607517
 40
-16.56621434235525
 40
-16.24216093903146
 40
-15.05812707602911
 40
-14.48211977252136
 40
-13.90631383006255
 40
-12.6667968358364
 40
-11.38765340373526
 40
-10.71619595131842
 40
-10.03763722837931
 40
-9.33701971540726
 40
-8.62293150650128
 40
-7.111438093592549
 40
-5.573951835782333
 40
-3.98021372722645
 40
-3.195853407963301
 40
-2.474806189780193
 40
-1.200721309039849
 40
0.0
 40
0.0
 40
0.0
 40
0.0
 10
0.0009324003164568
 20
54.05716493162755
 30
0.0
 10
0.4010849166417401
 20
54.05710346567324
 30
0.0
 10
1.013851823522297
 20
54.10609862023606
 30
0.0
 10
1.832294716929923
 20
54.25467576537214
 30
0.0
 10
2.378674511150911
 20
54.38851949804041
 30
0.0
 10
2.777407465027681
 20
54.50702260719923
 30
0.0
 10
3.029718768624888
 20
54.58789735678961
 30
0.0
 10
3.269015822228213
 20
54.66669514116918
 30
0.0
 10
3.551791646302797
 20
54.77213766261306
 30
0.0
 10
3.845346107383349
 20
54.88826765498246
 30
0.0
 10
4.099973586395993
 20
54.99941857188819
 30
0.0
 10
4.318550001333548
 20
55.10782107749961
 30
0.0
 10
4.555285365627685
 20
55.23913474663597
 30
0.0
 10
5.059331098018478
 20
55.53725131880535
 30
0.0
 10
5.625030131114023
 20
55.94335175949137
 30
0.0
 10
6.204148804733344
 20
56.46484608474715
 30
0.0
 10
6.751995914936413
 20
57.04459824888481
 30
0.0
 10
7.375707332861263
 20
57.86942888452243
 30
0.0
 10
7.898018843793863
 20
58.79826395120593
 30
0.0
 10
8.25223063452795
 20
59.6003334487639
 30
0.0
 10
8.48499471472032
 20
60.24358712876276
 30
0.0
 10
8.680251523845174
 20
60.91354857119822
 30
0.0
 10
8.894898822983913
 20
61.86599955119084
 30
0.0
 10
9.061149291812738
 20
63.11057407698451
 30
0.0
 10
9.104871411228865
 20
64.66041278638151
 30
0.0
 10
8.986652746577517
 20
65.9620880413699
 30
0.0
 10
8.818619660794829
 20
66.98181115529457
 30
0.0
 10
8.611610951486108
 20
67.88510064658144
 30
0.0
 10
8.269347810392636
 20
68.89740341885118
 30
0.0
 10
7.873335426307139
 20
69.6249418306452
 30
0.0
 10
7.650057819718863
 20
69.95709698376308
 30
0.0
  0
SPLINE
  5
48
330
1F
100
AcDbEntity
  8
Default
100
AcDbSpline
210
0.0
220
0.0
230
1.0
 70
     8
 71
     3
 72
     8
 73
     4
 74
     0
 42
0.0000000001
 43
0.0000000001
 40
-1.0
 40
-1.0
 40
-1.0
 40
-1.0
 40
0.0
 40
0.0
 40
0.0
 40
0.0
 10
7.650057819718863
 20
69.95709698376308
 30
0.0
 10
6.558851561969552
 20
71.58041150761625
 30
0.0
 10
4.96118645986408
 20
72.29532539229399
 30
0.0
 10
3.390192541322466
 20
72.64036370253076
 30
0.0
  0
SPLINE
  5
49
330
1F
100
AcDbEntity
  8
Default
100
AcDbSpline
210
0.0
220
0.0
230
1.0
 70
     8
 71
     3
 72
    11
 73
     7
 74
     0
 42
0.0000000001
 43
0.0000000001
 40
-3.41236708694784
 40
-3.41236708694784
 40
-3.41236708694784
 40
-3.41236708694784
 40
-1.790162585470304
 40
-0.9142111430713328
 40
-0.4676055475834519
 40
0.0
 40
0.0
 40
0.0
 40
0.0
 10
3.390192541322466
 20
72.64036370253076
 30
0.0
 10
2.861984250222888
 20
72.75637439745645
 30
0.0
 10
2.037404841619474
 20
72.88190485662845
 30
0.0
 10
1.057909714112775
 20
72.95007794928276
 30
0.0
 10
0.4615470955220449
 20
72.9714278360826
 30
0.0
 10
0.1567927399036444
 20
72.97452668394551
 30
0.0
 10
0.0009324003164568
 20
72.97468057303396
 30
0.0
  0
SPLINE
  5
4A
330
1F
100
AcDbEntity
  8
Make2D visible lines
100
AcDbSpline
210
0.0
220
0.0
230
1.0
 70
     8
 71
     3
 72
    14
 73
    10
 74
     0
 42
0.0000000001
 43
0.0000000001
 40
0.0
 40
0.0
 40
0.0
 40
0.0
 40
1.481699860261515
 40
2.955788216511599
 40
4.416700758545095
 40
5.884108663557239
 40
7.358109975686019
 40
8.8584154561495
 40
11.80891716318226
 40
11.80891716318226
 40
11.80891716318226
 40
11.80891716318226
 10
0.0009028715117719
 20
69.64122183673054
 30
0.0
 10
0.4947774420256479
 20
69.64138618744019
 30
0.0
 10
1.480309891801545
 20
69.54798119600272
 30
0.0
 10
2.897187057612562
 20
69.12157284629102
 30
0.0
 10
4.19602443079284
 20
68.42263919508417
 30
0.0
 10
5.329135189388444
 20
67.4788188137863
 30
0.0
 10
6.265131882910473
 20
66.32264029322398
 30
0.0
 10
7.188475856729801
 20
64.56568101403407
 30
0.0
 10
7.475396178977429
 20
63.08164340836608
 30
0.0
 10
7.472630799394389
 20
62.09816306524446
 30
0.0
  0
SPLINE
  5
4B
330
1F
100
AcDbEntity
  8
Make2D visible lines
100
AcDbSpline
210
0.0
220
0.0
230
1.0
 70
     8
 71
     3
 72
    14
 73
    10
 74
     0
 42
0.0000000001
 43
0.0000000001
 40
-11.77268051163042
 40
-11.77268051163042
 40
-11.77268051163042
 40
-11.77268051163042
 40
-10.31305521956241
 40
-9.555794665613513
 40
-8.831339706698616
 40
-5.863857530525329
 40
-2.926562433324921
 40
-1.46251707193435
 40
0.0
 40
0.0
 40
0.0
 40
0.0
 10
7.472630799394389
 20
62.09816306524446
 30
0.0
 10
7.471518669930325
 20
61.61156645283697
 30
0.0
 10
7.397504122070887
 20
60.87301544174649
 30
0.0
 10
7.160381017466579
 20
59.92032957477879
 30
0.0
 10
6.663671088326578
 20
58.52129716695735
 30
0.0
 10
5.419815613552223
 20
56.64295094718597
 30
0.0
 10
3.342920107202004
 20
55.24372675223457
 30
0.0
 10
1.463656970618733
 20
54.67160997509758
 30
0.0
 10
0.4884956263930381
 20
54.57377126963474
 30
0.0
 10
0.0009150454939435
 20
54.57374796839465
 30
0.0
  0
SPLINE
  5
4C
330
1F
100
AcDbEntity
  8
Make2D visible lines
100
AcDbSpline
210
0.0
220
0.0
230
1.0
 70
     8
 71
     3
 72
    13
 73
     9
 74
     0
 42
0.0000000001
 43
0.0000000001
 40
-11.7727400990787
 40
-11.7727400990787
 40
-11.7727400990787
 40
-11.7727400990787
 40
-8.846116153537672
 40
-5.908821855544183
 40
-2.941340482501388
 40
-2.216885661225311
 40
-1.45962521411269
 40
0.0
 40
0.0
 40
0.0
 40
0.0
 10
0.0009150454939435
 20
54.57374796839465
 30
0.0
 10
-0.9745657855047256
 20
54.57377975088073
 30
0.0
 10
-2.928769689303595
 20
54.96600085385042
 30
0.0
 10
-5.418160277235254
 20
56.64295454586864
 30
0.0
 10
-6.661828199107909
 20
58.52129495888187
 30
0.0
 10
-7.15864515531922
 20
59.92033071826614
 30
0.0
 10
-7.395699585465041
 20
60.87301446263703
 30
0.0
 10
-7.469761028085855
 20
61.61156695610434
 30
0.0
 10
-7.470844351824906
 20
62.09816306513821
 30
0.0
  0
SPLINE
  5
4D
330
1F
100
AcDbEntity
  8
Make2D visible lines
100
AcDbSpline
210
0.0
220
0.0
230
1.0
 70
     8
 71
     3
 72
    15
 73
    11
 74
     0
 42
0.0000000001
 43
0.0000000001
 40
0.0
 40
0.0
 40
0.0
 40
0.0
 40
1.470019918796529
 40
2.970242495676714
 40
4.437641340435603
 40
5.921518609508079
 40
7.379060719792957
 40
8.853121015021442
 40
10.32719972765261
 40
11.80891731241405
 40
11.80891731241405
 40
11.80891731241405
 40
11.80891731241405
 10
-7.470844351824906
 20
62.09816306513821
 30
0.0
 10
-7.472319467764761
 20
62.58821098994838
 30
0.0
 10
-7.378107378394024
 20
63.57831478880527
 30
0.0
 10
-6.956378982609492
 20
65.00363899237689
 30
0.0
 10
-6.262106981938589
 20
66.3230437948865
 30
0.0
 10
-5.334276962814374
 20
67.47177735326098
 30
0.0
 10
-4.198890361813391
 20
68.41960623611277
 30
0.0
 10
-2.899615346363406
 20
69.12030653345907
 30
0.0
 10
-1.47850925788409
 20
69.54797380613194
 30
0.0
 10
-0.4929785011992546
 20
69.64139064512042
 30
0.0
 10
0.0009028715117719
 20
69.64122183673054
 30
0.0
  0
LINE
  5
4E
330
1F
100
AcDbEntity
  8
Make2D visible lines
100
AcDbLine
 10
47.05142181324591
 20
27.99595881554948
 30
-0.0000312453044315
 11
47.02944126292428
 21
29.25271023248283
 31
-0.0000312453044315
  0
SPLINE
  5
4F
330
1F
100
AcDbEntity
  8
Make2D visible lines
100
AcDbSpline
210
0.0
220
0.0
230
1.0
 70
    12
 71
     2
 72
     6
 73
     3
 74
     0
 42
0.0000000001
 43
0.0000000001
 40
-0.0074089630355015
 40
-0.0074089630355015
 40
-0.0074089630355015
 40
0.0
 40
0.0
 40
0.0
 10
47.02944126292428
 20
29.25271023248283
 30
-0.0000312453044315
 41
1.0
 10
47.02937647996198
 20
29.25641421529876
 30
-0.0000312453044315
 41
0.9999725537599726
 10
47.02925677463114
 20
29.26011825818119
 30
-0.0000312453044315
 41
1.0
  0
SPLINE
  5
50
330
1F
100
AcDbEntity
  8
Make2D visible lines
100
AcDbSpline
210
0.0
220
0.0
230
1.0
 70
    12
 71
     2
 72
     6
 73
     3
 74
     0
 42
0.0000000001
 43
0.0000000001
 40
0.0
 40
0.0
 40
0.0
 40
0.6585991013635981
 40
0.6585991013635981
 40
0.6585991013635981
 10
47.02925677463114
 20
29.26011825818119
 30
-0.0000312453044315
 41
1.0
 10
47.01673266661278
 20
29.64683742014049
 30
-0.0000312453044315
 41
0.7908816648000885
 10
46.63925026633636
 20
29.73177561199763
 30
-0.0000312453044315
 41
1.0
  0
SPLINE
  5
51
330
1F
100
AcDbEntity
  8
Make2D visible lines
100
AcDbSpline
210
0.0
220
0.0
230
1.0
 70
     8
 71
     3
 72
    12
 73
     8
 74
     0
 42
0.0000000001
 43
0.0000000001
 40
0.0
 40
0.0
 40
0.0
 40
0.0
 40
1.0
 40
2.0
 40
3.0
 40
4.0
 40
5.0
 40
5.0
 40
5.0
 40
5.0
 10
46.63464022470995
 20
29.73281133969429
 30
-0.0000312453044315
 10
45.92291393785283
 20
29.87261038276247
 30
-0.0000312453044315
 10
44.47544130619193
 20
29.98060295432208
 30
-0.0000312453044315
 10
42.30333561009026
 20
30.0520673734543
 30
-0.0000312453044315
 10
40.12918814072545
 20
30.05560203206319
 30
-0.0000312453044315
 10
37.95588318061886
 20
30.00842911376409
 30
-0.0000312453044315
 10
36.50815754536094
 20
29.94049361111986
 30
-0.0000312453044315
 10
35.7850381916146
 20
29.89443266448301
 30
-0.0000312453044315
  0
SPLINE
  5
52
330
1F
100
AcDbEntity
  8
Make2D visible lines - Tangent
100
AcDbSpline
210
0.0
220
0.0
230
1.0
 70
     8
 71
     3
 72
    35
 73
    31
 74
     0
 42
0.0000000001
 43
0.0000000001
 40
0.0
 40
0.0
 40
0.0
 40
0.0
 40
0.2402532621163592
 40
0.3763572098504003
 40
0.551672431345357
 40
0.9958821897849119
 40
1.101052378124962
 40
1.868053494370825
 40
2.180869109681214
 40
2.831499668067848
 40
3.090556060853209
 40
3.977814129654295
 40
4.828734707418617
 40
5.548259278857759
 40
6.129507735893566
 40
8.019918460328226
 40
9.322400280740641
 40
10.47679261219735
 40
11.55862261620068
 40
12.55229102610752
 40
13.51912324008647
 40
14.54579470889808
 40
15.57534625379321
 40
16.66749462626378
 40
19.04522153365165
 40
20.41195135910109
 40
21.01834190818906
 40
21.62020844203624
 40
22.33410790169653
 40
22.84220939650538
 40
22.84220939650538
 40
22.84220939650538
 40
22.84220939650538
 10
29.08218520323001
 20
40.67787630086673
 30
-0.0000312453044315
 10
29.13176250170015
 20
40.61502463022855
 30
-0.0000312453044315
 10
29.20618819035341
 20
40.51373191063369
 30
-0.0000312453044315
 10
29.29798594114804
 20
40.35421657804945
 30
-0.0000312453044315
 10
29.41821804208388
 20
40.13296682831417
 30
-0.0000312453044315
 10
29.52560167143141
 20
39.91644481521158
 30
-0.0000312453044315
 10
29.72044207590339
 20
39.52335696099962
 30
-0.0000312453044315
 10
29.89494535968262
 20
39.16894375273589
 30
-0.0000312453044315
 10
30.14965857818023
 20
38.65144847312555
 30
-0.0000312453044315
 10
30.32292423214261
 20
38.28255039356979
 30
-0.0000312453044315
 10
30.56686942967566
 20
37.73550742476419
 30
-0.0000312453044315
 10
30.83189670908568
 20
37.12475972830625
 30
-0.0000312453044315
 10
31.17270679996104
 20
36.37974084701228
 30
-0.0000312453044315
 10
31.47459938576767
 20
35.72916055694363
 30
-0.0000312453044315
 10
31.93856356158625
 20
34.771833712652
 30
-0.0000312453044315
 10
32.54833278725029
 20
33.67031234438301
 30
-0.0000312453044315
 10
33.33336296992142
 20
32.45151719053759
 30
-0.0000312453044315
 10
34.04323023903488
 20
31.50820234832759
 30
-0.0000312453044315
 10
34.76434151751468
 20
30.7071943705579
 30
-0.0000312453044315
 10
35.51757842025744
 20
30.02556239043122
 30
-0.0000312453044315
 10
36.33847576837441
 20
29.45830602898445
 30
-0.0000312453044315
 10
37.23103271973324
 20
28.98713393597228
 30
-0.0000312453044315
 10
38.2092358096491
 20
28.60268938170722
 30
-0.0000312453044315
 10
39.65897551407456
 20
28.20979137859819
 30
-0.0000312453044315
 10
41.26202355135129
 20
28.00044234840093
 30
-0.0000312453044315
 10
42.70863610072375
 20
27.91306947672701
 30
-0.0000312453044315
 10
43.56673740174766
 20
27.8776257674583
 30
-0.0000312453044315
 10
44.2068457287296
 20
27.8542681370091
 30
-0.0000312453044315
 10
44.81459438939942
 20
27.83622884626531
 30
-0.0000312453044315
 10
45.22158172943764
 20
27.81924930378504
 30
-0.0000312453044315
 10
45.390767738918
 20
27.81143231233411
 30
-0.0000312453044315
  0
ARC
  5
53
330
1F
100
AcDbEntity
  8
Make2D visible lines - Tangent
100
AcDbCircle
 10
36.0736024324145
 20
-173.8433894657239
 30
-0.0000312453044315
 40
201.8699500066541
100
AcDbArc
 50
86.75100191540152
 51
87.35461389063919
  0
SPLINE
  5
54
330
1F
100
AcDbEntity
  8
Make2D visible lines
100
AcDbSpline
210
0.0
220
0.0
230
1.0
 70
    12
 71
     2
 72
     8
 73
     5
 74
     0
 42
0.0000000001
 43
0.0000000001
 40
5.0
 40
5.0
 40
5.0
 40
6.424963949417644
 40
6.424963949417644
 40
7.849927898835288
 40
7.849927898835288
 40
7.849927898835288
 10
47.07798014834246
 20
27.99503937208271
 30
-0.0000312453044315
 41
1.0
 10
47.47529200809331
 20
28.00198833624275
 30
-0.0000312453044315
 41
0.7567417068888759
 10
47.53990299031858
 20
27.6099036209262
 30
-0.0000312453044315
 41
1.0
 10
47.60451397254385
 20
27.21781890560965
 30
-0.0000312453044315
 41
0.7567417068888759
 10
47.22541903253055
 20
27.09673835680312
 30
-0.0000312453044315
 41
1.0
  0
SPLINE
  5
55
330
1F
100
AcDbEntity
  8
Make2D visible lines
100
AcDbSpline
210
0.0
220
0.0
230
1.0
 70
     8
 71
     3
 72
    24
 73
    20
 74
     0
 42
0.0000000001
 43
0.0000000001
 40
-17.0
 40
-17.0
 40
-17.0
 40
-17.0
 40
-16.0
 40
-15.0
 40
-14.0
 40
-13.0
 40
-12.0
 40
-11.0
 40
-10.0
 40
-9.0
 40
-8.0
 40
-7.0
 40
-6.0
 40
-5.0
 40
-4.0
 40
-3.0
 40
-2.0
 40
-1.0
 40
0.0
 40
0.0
 40
0.0
 40
0.0
 10
47.22541903253055
 20
27.09673835680312
 30
-0.0000312453044315
 10
46.66331673333531
 20
26.91725619694709
 30
-0.0000312453044315
 10
45.53162572114253
 20
26.58516242547394
 30
-0.0000312453044315
 10
43.8079319592551
 20
26.18610652443584
 30
-0.0000312453044315
 10
42.06279651748976
 20
25.89487384923281
 30
-0.0000312453044315
 10
40.30399558922412
 20
25.70375252435916
 30
-0.0000312453044315
 10
38.53863203930501
 20
25.59692796452556
 30
-0.0000312453044315
 10
36.7702907451413
 20
25.54087554049192
 30
-0.0000312453044315
 10
35.00255140715494
 20
25.59717882013854
 30
-0.0000312453044315
 10
33.24349037126321
 20
25.84859519624895
 30
-0.0000312453044315
 10
31.61231231507384
 20
26.62445594566251
 30
-0.0000312453044315
 10
30.52030262310576
 20
28.06443943012499
 30
-0.0000312453044315
 10
29.83644632533498
 20
29.69899744429856
 30
-0.0000312453044315
 10
29.38793400609629
 20
31.41315895928184
 30
-0.0000312453044315
 10
29.08361836412425
 20
33.15593223021237
 30
-0.0000312453044315
 10
28.87850000130025
 20
34.91303162015409
 30
-0.0000312453044315
 10
28.74352941611142
 20
36.67656273837924
 30
-0.0000312453044315
 10
28.6621662024482
 20
38.44331660556492
 30
-0.0000312453044315
 10
28.63601718821049
 20
39.62206777889948
 30
-0.0000312453044315
 10
28.6285491686556
 20
40.21180761555023
 30
-0.0000312453044315
  0
SPLINE
  5
56
330
1F
100
AcDbEntity
  8
Make2D visible lines
100
AcDbSpline
210
0.0
220
0.0
230
1.0
 70
    12
 71
     2
 72
     6
 73
     3
 74
     0
 42
0.0000000001
 43
0.0000000001
 40
0.0
 40
0.0
 40
0.0
 40
0.7220528620518178
 40
0.7220528620518178
 40
0.7220528620518178
 10
28.6285491686556
 20
40.21180761555023
 30
-0.0000312453044315
 41
1.0
 10
28.62274178445282
 20
40.67155989565534
 30
-0.0000312453044315
 41
0.7075013098333874
 10
29.08218520323001
 20
40.67787630086674
 30
-0.0000312453044315
 41
1.0
  0
SPLINE
  5
57
330
1F
100
AcDbEntity
  8
Make2D visible lines
100
AcDbSpline
210
0.0
220
0.0
230
1.0
 70
    12
 71
     2
 72
     6
 73
     3
 74
     0
 42
0.0000000001
 43
0.0000000001
 40
0.0
 40
0.0
 40
0.0
 40
0.4121427471181011
 40
0.4121427471181011
 40
0.4121427471181011
 10
29.08218520323001
 20
40.67787630086674
 30
-0.0000312453044315
 41
1.0
 10
29.30322544461464
 20
40.68091514443372
 30
-0.0000312453044315
 41
0.9013233606580734
 10
29.44369605542144
 20
40.5102199778021
 30
-0.0000312453044315
 41
1.0
  0
SPLINE
  5
58
330
1F
100
AcDbEntity
  8
Make2D visible lines
100
AcDbSpline
210
0.0
220
0.0
230
1.0
 70
     8
 71
     3
 72
    34
 73
    30
 74
     0
 42
0.0000000001
 43
0.0000000001
 40
-22.18647873397526
 40
-22.18647873397526
 40
-22.18647873397526
 40
-22.18647873397526
 40
-22.03860679434289
 40
-21.92002185522579
 40
-21.63208902688433
 40
-21.37010291654892
 40
-21.25876276557128
 40
-20.8520438218059
 40
-20.13718589939647
 40
-19.41841840794001
 40
-19.1690734851703
 40
-18.27329645432434
 40
-17.44068902438653
 40
-16.83064568111283
 40
-16.3868047105227
 40
-14.69137808953177
 40
-13.32597882191751
 40
-12.12003779990974
 40
-11.01223819576992
 40
-10.00284901793387
 40
-9.053432248559982
 40
-8.006962631295124
 40
-6.965753494607664
 40
-5.884696930912772
 40
-4.753835594724273
 40
-3.536372436354696
 40
-2.309169967207457
 40
-0.5055621831563853
 40
0.0
 40
0.0
 40
0.0
 40
0.0
 10
29.44369605542144
 20
40.5102199778021
 30
-0.0000312453044315
 10
29.47446570588567
 20
40.47171359221348
 30
-0.0000312453044315
 10
29.52720265243435
 20
40.40020827207098
 30
-0.0000312453044315
 10
29.63028141483583
 20
40.24671636456852
 30
-0.0000312453044315
 10
29.73432005011611
 20
40.04925245523381
 30
-0.0000312453044315
 10
29.82811926742553
 20
39.84989745440139
 30
-0.0000312453044315
 10
29.93506913904019
 20
39.61287432036977
 30
-0.0000312453044315
 10
30.10355523887158
 20
39.23800757759054
 30
-0.0000312453044315
 10
30.35913697126949
 20
38.68036278144863
 30
-0.0000312453044315
 10
30.58519062057321
 20
38.16685346559839
 30
-0.0000312453044315
 10
30.81919974865904
 20
37.59129233970773
 30
-0.0000312453044315
 10
31.06430643324225
 20
36.97932521637823
 30
-0.0000312453044315
 10
31.36418555605048
 20
36.25977687995909
 30
-0.0000312453044315
 10
31.61103310471365
 20
35.68149304252185
 30
-0.0000312453044315
 10
31.98514765649074
 20
34.84463068529045
 30
-0.0000312453044315
 10
32.53712821603624
 20
33.81359710991317
 30
-0.0000312453044315
 10
33.28936929290155
 20
32.60634650227089
 30
-0.0000312453044315
 10
34.01092355138313
 20
31.61265169963411
 30
-0.0000312453044315
 10
34.7431666554568
 20
30.78073336393329
 30
-0.0000312453044315
 10
35.49506037921435
 20
30.08439012065191
 30
-0.0000312453044315
 10
36.32352673600674
 20
29.51723760624472
 30
-0.0000312453044315
 10
37.22421091070709
 20
29.05150429730667
 30
-0.0000312453044315
 10
38.21171580335748
 20
28.67170123719852
 30
-0.0000312453044315
 10
39.26251366697404
 20
28.39841102945283
 30
-0.0000312453044315
 10
40.39116544632783
 20
28.21133634432405
 30
-0.0000312453044315
 10
41.57856359125719
 20
28.10158410111428
 30
-0.0000312453044315
 10
42.99414927620427
 20
28.05169370988253
 30
-0.0000312453044315
 10
44.17305793159132
 20
28.05701622055436
 30
-0.0000312453044315
 10
44.94271214690831
 20
28.04814068293786
 30
-0.0000312453044315
 10
45.1116062547753
 20
28.04420628452347
 30
-0.0000312453044315
  0
SPLINE
  5
59
330
1F
100
AcDbEntity
  8
Make2D visible lines
100
AcDbSpline
210
0.0
220
0.0
230
1.0
 70
     8
 71
     3
 72
    15
 73
    11
 74
     0
 42
0.0000000001
 43
0.0000000001
 40
-1.983810194125966
 40
-1.983810194125966
 40
-1.983810194125966
 40
-1.983810194125966
 40
-1.240216830441202
 40
-0.8693970465609351
 40
-0.830207921274915
 40
-0.6514225927554392
 40
-0.5721492481317013
 40
-0.1892530055028681
 40
-0.0009716977050293
 40
0.0
 40
0.0
 40
0.0
 40
0.0
 10
45.1116062547753
 20
28.04420628452347
 30
-0.0000312453044315
 10
45.35984187732242
 20
28.04026456580026
 30
-0.0000312453044315
 10
45.73111471189945
 20
28.02584724418595
 30
-0.0000312453044315
 10
46.11564338256632
 20
28.02349841818693
 30
-0.0000312453044315
 10
46.31190875401954
 20
28.02114932174852
 30
-0.0000312453044315
 10
46.41089995813599
 20
28.01903731179133
 30
-0.0000312453044315
 10
46.62459205820883
 20
28.01182667810371
 30
-0.0000312453044315
 10
46.84082756680608
 20
28.00149688325858
 30
-0.0000312453044315
 10
47.03199946996814
 20
27.99627789742041
 30
-0.0000312453044315
 10
47.09447437908617
 20
27.99502318280973
 30
-0.0000312453044315
 10
47.09317511480447
 20
27.99505408883891
 30
-0.0000312453044315
  0
SPLINE
  5
5A
330
1F
100
AcDbEntity
  8
Default
100
AcDbSpline
210
0.0
220
0.0
230
1.0
 70
     8
 71
     3
 72
    34
 73
    30
 74
     0
 42
0.0000000001
 43
0.0000000001
 40
0.0
 40
0.0
 40
0.0
 40
0.0
 40
0.9999812069975019
 40
1.99998192980529
 40
2.999982652613078
 40
3.999983375420867
 40
4.999984098228655
 40
5.999984821036444
 40
6.999985543844232
 40
7.99998626665202
 40
8.999986989459808
 40
9.999987712267597
 40
10.99998843507539
 40
11.99998915788317
 40
12.99998988069096
 40
13.99999060349875
 40
14.99999132630654
 40
15.99999204911433
 40
16.99999277192212
 40
17.99999349472991
 40
18.99999421753769
 40
19.99999494034548
 40
20.99999566315327
 40
21.99999638596106
 40
22.99999710876885
 40
23.99999783157664
 40
24.99999855438442
 40
25.99999927719221
 40
27.0
 40
27.0
 40
27.0
 40
27.0
 10
0.0
 20
40.67802358620175
 30
0.0
 10
-0.2473116733284656
 20
40.67791387252855
 30
0.0
 10
-0.742065636380099
 20
40.66763978848901
 30
0.0
 10
-1.48203790823691
 20
40.61010472250757
 30
0.0
 10
-2.217655354040202
 20
40.50722998412663
 30
0.0
 10
-2.935963902535643
 20
40.31370149334997
 30
0.0
 10
-3.618361647401824
 20
40.01815681333821
 30
0.0
 10
-4.26011026502897
 20
39.64311763382545
 30
0.0
 10
-4.851629702789558
 20
39.19281972995023
 30
0.0
 10
-5.381545505457609
 20
38.67126783184666
 30
0.0
 10
-5.838961191338145
 20
38.08480853349177
 30
0.0
 10
-6.214841683314561
 20
37.44388918200401
 30
0.0
 10
-6.548050190758945
 20
36.78068927504279
 30
0.0
 10
-6.840535513814583
 20
36.09838307516514
 30
0.0
 10
-7.097223042715258
 20
35.40210362671905
 30
0.0
 10
-7.349034498839115
 20
34.70417042853798
 30
0.0
 10
-7.597944494325672
 20
34.00515049651739
 30
0.0
 10
-7.831709988009893
 20
33.30087112711711
 30
0.0
 10
-8.042411919120376
 20
32.58928303723371
 30
0.0
 10
-8.230635424095658
 20
31.87159955110084
 30
0.0
 10
-8.401538273889788
 20
31.14909063968984
 30
0.0
 10
-8.551974913248625
 20
30.42391275313832
 30
0.0
 10
-8.706565731224801
 20
29.69287844971569
 30
0.0
 10
-8.874562182950196
 20
28.99000880514953
 30
0.0
 10
-8.83279748753038
 20
28.15415546642938
 30
0.0
 10
-8.03631087336519
 20
27.91916134842289
 30
0.0
 10
-7.315192745803534
 20
27.87518715084759
 30
0.0
 10
-6.568575052478309
 20
27.83959517826432
 30
0.0
 10
-6.075775091602869
 20
27.82210968916154
 30
0.0
 10
-5.828409248094879
 20
27.81153612607078
 30
0.0
  0
SPLINE
  5
5B
330
1F
100
AcDbEntity
  8
Default
100
AcDbSpline
210
0.0
220
0.0
230
1.0
 70
     8
 71
     3
 72
     8
 73
     4
 74
     0
 42
0.0000000001
 43
0.0000000001
 40
0.0
 40
0.0
 40
0.0
 40
0.0
 40
1.0
 40
1.0
 40
1.0
 40
1.0
 10
-5.828409248094879
 20
27.81153612607078
 30
0.0
 10
-3.887037032149974
 20
27.72855287617318
 30
0.0
 10
-1.943144951002473
 20
27.70219106591855
 30
0.0
 10
-0.0000000000000021
 20
27.70219106591855
 30
0.0
  0
SPLINE
  5
5C
330
1F
100
AcDbEntity
  8
Default
100
AcDbSpline
210
0.0
220
0.0
230
1.0
 70
     8
 71
     3
 72
     8
 73
     4
 74
     0
 42
0.0000000001
 43
0.0000000001
 40
-1.0
 40
-1.0
 40
-1.0
 40
-1.0
 40
0.0
 40
0.0
 40
0.0
 40
0.0
 10
0.0000000000000021
 20
27.70219106591855
 30
0.0
 10
1.943144951002473
 20
27.70219106591855
 30
0.0
 10
3.887037032149974
 20
27.72855287617318
 30
0.0
 10
5.828409248094879
 20
27.81153612607078
 30
0.0
  0
SPLINE
  5
5D
330
1F
100
AcDbEntity
  8
Default
100
AcDbSpline
210
0.0
220
0.0
230
1.0
 70
     8
 71
     3
 72
    34
 73
    30
 74
     0
 42
0.0000000001
 43
0.0000000001
 40
-27.0
 40
-27.0
 40
-27.0
 40
-27.0
 40
-25.99999927719221
 40
-24.99999855438442
 40
-23.99999783157664
 40
-22.99999710876885
 40
-21.99999638596106
 40
-20.99999566315327
 40
-19.99999494034548
 40
-18.99999421753769
 40
-17.99999349472991
 40
-16.99999277192212
 40
-15.99999204911433
 40
-14.99999132630654
 40
-13.99999060349875
 40
-12.99998988069096
 40
-11.99998915788317
 40
-10.99998843507539
 40
-9.999987712267597
 40
-8.999986989459808
 40
-7.99998626665202
 40
-6.999985543844232
 40
-5.999984821036444
 40
-4.999984098228655
 40
-3.999983375420867
 40
-2.999982652613078
 40
-1.99998192980529
 40
-0.9999812069975019
 40
0.0
 40
0.0
 40
0.0
 40
0.0
 10
5.828409248094879
 20
27.81153612607078
 30
0.0
 10
6.075775091602869
 20
27.82210968916154
 30
0.0
 10
6.568575052478309
 20
27.83959517826432
 30
0.0
 10
7.315192745803534
 20
27.87518715084759
 30
0.0
 10
8.03631087336519
 20
27.91916134842289
 30
0.0
 10
8.83279748753038
 20
28.15415546642938
 30
0.0
 10
8.874562182950196
 20
28.99000880514953
 30
0.0
 10
8.706565731224801
 20
29.69287844971569
 30
0.0
 10
8.551974913248625
 20
30.42391275313832
 30
0.0
 10
8.401538273889788
 20
31.14909063968984
 30
0.0
 10
8.230635424095658
 20
31.87159955110084
 30
0.0
 10
8.042411919120376
 20
32.58928303723371
 30
0.0
 10
7.831709988009893
 20
33.30087112711711
 30
0.0
 10
7.597944494325672
 20
34.00515049651739
 30
0.0
 10
7.349034498839115
 20
34.70417042853798
 30
0.0
 10
7.097223042715258
 20
35.40210362671905
 30
0.0
 10
6.840535513814583
 20
36.09838307516514
 30
0.0
 10
6.548050190758945
 20
36.78068927504279
 30
0.0
 10
6.214841683314561
 20
37.44388918200401
 30
0.0
 10
5.838961191338145
 20
38.08480853349177
 30
0.0
 10
5.381545505457609
 20
38.67126783184666
 30
0.0
 10
4.851629702789558
 20
39.19281972995023
 30
0.0
 10
4.26011026502897
 20
39.64311763382545
 30
0.0
 10
3.618361647401824
 20
40.01815681333821
 30
0.0
 10
2.935963902535643
 20
40.31370149334997
 30
0.0
 10
2.217655354040202
 20
40.50722998412663
 30
0.0
 10
1.48203790823691
 20
40.61010472250757
 30
0.0
 10
0.742065636380099
 20
40.66763978848901
 30
0.0
 10
0.2473116733284656
 20
40.67791387252855
 30
0.0
 10
0.0
 20
40.67802358620175
 30
0.0
  0
SPLINE
  5
5E
330
1F
100
AcDbEntity
  8
Make2D visible lines
100
AcDbSpline
210
0.0
220
0.0
230
1.0
 70
     8
 71
     3
 72
    24
 73
    20
 74
     0
 42
0.0000000001
 43
0.0000000001
 40
-17.0
 40
-17.0
 40
-17.0
 40
-17.0
 40
-16.0
 40
-15.0
 40
-14.0
 40
-13.0
 40
-12.0
 40
-11.0
 40
-10.0
 40
-9.0
 40
-8.0
 40
-7.0
 40
-6.0
 40
-5.0
 40
-4.0
 40
-3.0
 40
-2.0
 40
-1.0
 40
0.0
 40
0.0
 40
0.0
 40
0.0
 10
-3.139155252525493
 20
40.21947431138056
 30
0.0
 10
-3.403974498686678
 20
40.11500244849968
 30
0.0
 10
-3.916331811790091
 20
39.8641172854582
 30
0.0
 10
-4.6306333709879
 20
39.39287321073714
 30
0.0
 10
-5.271048464396524
 20
38.82495543223431
 30
0.0
 10
-5.826768053352589
 20
38.17362571459343
 30
0.0
 10
-6.279022401012906
 20
37.44754186774757
 30
0.0
 10
-6.677274423862764
 20
36.69202041804969
 30
0.0
 10
-7.030900074039732
 20
35.91446808728335
 30
0.0
 10
-7.348582684806648
 20
35.12183505353646
 30
0.0
 10
-7.65581077085023
 20
34.32516929492852
 30
0.0
 10
-7.943345854496031
 20
33.52108307184223
 30
0.0
 10
-8.202218746175848
 20
32.70729101723858
 30
0.0
 10
-8.434562357545962
 20
31.88557237811032
 30
0.0
 10
-8.642511784034127
 20
31.05734082669481
 30
0.0
 10
-8.825119927914693
 20
30.22315308174645
 30
0.0
 10
-8.988540181223872
 20
29.38517221093533
 30
0.0
 10
-9.121282832821425
 20
28.54084660035412
 30
0.0
 10
-9.041736453150989
 20
27.96115549445772
 30
0.0
 10
-8.878771991358676
 20
27.70539183676587
 30
0.0
  0
SPLINE
  5
5F
330
1F
100
AcDbEntity
  8
Make2D visible lines
100
AcDbSpline
210
0.0
220
0.0
230
1.0
 70
     8
 71
     3
 72
    27
 73
    23
 74
     0
 42
0.0000000001
 43
0.0000000001
 40
-18.83111841284734
 40
-18.83111841284734
 40
-18.83111841284734
 40
-18.83111841284734
 40
-18.12139515389392
 40
-17.33406901731112
 40
-16.39226406263531
 40
-15.26738722035227
 40
-14.19761811640272
 40
-12.97707286339049
 40
-12.16653376857398
 40
-11.28104803432978
 40
-9.415559027500588
 40
-9.415559027500588
 40
-9.415559027500588
 40
-7.550109556230834
 40
-6.664584286188914
 40
-5.854045191365194
 40
-4.633499938353434
 40
-3.563730834404709
 40
-2.438854020312084
 40
-1.494987139935695
 40
-0.7087441542904526
 40
0.0
 40
0.0
 40
0.0
 40
0.0
 10
-8.878771991358676
 20
27.70539183676587
 30
0.0
 10
-8.741799202468073
 20
27.49539822020135
 30
0.0
 10
-8.406470223879396
 20
27.11975183744909
 30
0.0
 10
-7.726695545752149
 20
26.66453923610469
 30
0.0
 10
-6.848860161144426
 20
26.29165126170777
 30
0.0
 10
-5.843810747084756
 20
25.99876378074395
 30
0.0
 10
-4.724532075787698
 20
25.78486889158287
 30
0.0
 10
-3.695391128740566
 20
25.68053860400102
 30
0.0
 10
-2.725140309701903
 20
25.62081471534299
 30
0.0
 10
-1.538857786319795
 20
25.5711822644697
 30
0.0
 10
-0.6218621396327695
 20
25.55927220498267
 30
0.0
 10
-0.0000222343048888
 20
25.55961097911775
 30
0.0
 10
0.6218057535865622
 20
25.55927302188698
 30
0.0
 10
1.53879735655182
 20
25.57118032052232
 30
0.0
 10
2.725083730893203
 20
25.62081418924501
 30
0.0
 10
3.695345438578986
 20
25.68053892508509
 30
0.0
 10
4.724489334526035
 20
25.78486788856294
 30
0.0
 10
5.843764231635808
 20
25.99876522767849
 30
0.0
 10
6.849477504495574
 20
26.29184239776884
 30
0.0
 10
7.727590168302772
 20
26.66496183852237
 30
0.0
 10
8.407144442700332
 20
27.12048925123056
 30
0.0
 10
8.741936486713744
 20
27.49567300250746
 30
0.0
 10
8.878727681006902
 20
27.70539171584766
 30
0.0
  0
SPLINE
  5
60
330
1F
100
AcDbEntity
  8
Make2D visible lines
100
AcDbSpline
210
0.0
220
0.0
230
1.0
 70
     8
 71
     3
 72
    24
 73
    20
 74
     0
 42
0.0000000001
 43
0.0000000001
 40
-17.0
 40
-17.0
 40
-17.0
 40
-17.0
 40
-16.0
 40
-15.0
 40
-14.0
 40
-13.0
 40
-12.0
 40
-11.0
 40
-10.0
 40
-9.0
 40
-8.0
 40
-7.0
 40
-6.0
 40
-5.0
 40
-4.0
 40
-3.0
 40
-2.0
 40
-1.0
 40
0.0
 40
0.0
 40
0.0
 40
0.0
 10
8.878727681006902
 20
27.70539171584766
 30
0.0
 10
9.041722924887255
 20
27.96114105009724
 30
0.0
 10
9.121229099247277
 20
28.54086208745462
 30
0.0
 10
8.988428748158203
 20
29.38515407256034
 30
0.0
 10
8.824926629334984
 20
30.22311703962449
 30
0.0
 10
8.642500987637629
 20
31.05734642753885
 30
0.0
 10
8.434818553890404
 20
31.88564540350421
 30
0.0
 10
8.20211390782331
 20
32.70726637283047
 30
0.0
 10
7.943005363313601
 20
33.52097553121093
 30
0.0
 10
7.655893913221537
 20
34.32521355484548
 30
0.0
 10
7.348639747220824
 20
35.12186653751434
 30
0.0
 10
7.030803191415148
 20
35.91445383788064
 30
0.0
 10
6.677165135815929
 20
36.6919526317666
 30
0.0
 10
6.279110726849523
 20
37.44765412664529
 30
0.0
 10
5.826429181532393
 20
38.17335688194471
 30
0.0
 10
5.271261239210642
 20
38.82521501659844
 30
0.0
 10
4.630459621951137
 20
39.39271853295216
 30
0.0
 10
3.916329018718253
 20
39.86416835548174
 30
0.0
 10
3.403921196098001
 20
40.11499251394037
 30
0.0
 10
3.139110811612383
 20
40.21947430046426
 30
0.0
  0
SPLINE
  5
61
330
1F
100
AcDbEntity
  8
Make2D visible lines
100
AcDbSpline
210
0.0
220
0.0
230
1.0
 70
    12
 71
     3
 72
    13
 73
     9
 74
     0
 42
0.0000000001
 43
0.0000000001
 40
0.0
 40
0.0
 40
0.0
 40
0.0
 40
1.053335442547121
 40
1.053335442547121
 40
1.053335442547121
 40
2.053335442547121
 40
3.053335442547121
 40
4.053335442547121
 40
4.053335442547121
 40
4.053335442547121
 40
4.053335442547121
 10
-7.471626943140972
 20
28.07045798397467
 30
0.0
 41
1.0
 10
-7.471701847087928
 20
28.42156979016929
 30
0.0
 41
0.999999999988567
 10
-7.471769859872029
 20
28.77283693848578
 30
0.0
 41
0.999999999988567
 10
-7.471830981493271
 20
29.12425942891212
 30
0.0
 41
1.0
 10
-7.471755651344607
 20
29.19863219251166
 30
0.0
 41
1.0
 10
-7.438215317333994
 20
29.34628054899407
 30
0.0
 41
1.0
 10
-7.298331584257884
 20
29.52525203339266
 30
0.0
 41
1.0
 10
-7.163372651895152
 20
29.59353660401586
 30
0.0
 41
1.0
 10
-7.085992096008079
 20
29.61468156530312
 30
0.0
 41
1.0
  0
SPLINE
  5
62
330
1F
100
AcDbEntity
  8
Make2D visible lines
100
AcDbSpline
210
0.0
220
0.0
230
1.0
 70
     8
 71
     3
 72
    24
 73
    20
 74
     0
 42
0.0000000001
 43
0.0000000001
 40
0.0
 40
0.0
 40
0.0
 40
0.0
 40
0.4756204116735477
 40
1.037874145811131
 40
1.751547460034968
 40
2.579212799338552
 40
3.533919572654042
 40
4.599922209386605
 40
7.10655874517638
 40
7.10655874517638
 40
7.10655874517638
 40
8.422990800458749
 40
9.613199772756646
 40
10.67920240948794
 40
11.63390918280298
 40
12.46157863514173
 40
13.17525002288431
 40
13.7374633978668
 40
14.21310373438742
 40
14.21310373438742
 40
14.21310373438742
 40
14.21310373438742
 10
-7.085992096008079
 20
29.61468156530312
 30
0.0
 10
-6.926801420977387
 20
29.6577748812612
 30
0.0
 10
-6.588630436516767
 20
29.73204866760799
 30
0.0
 10
-6.010962800605741
 20
29.81825753494156
 30
0.0
 10
-5.313222061531506
 20
29.88904722151368
 30
0.0
 10
-4.483386495938926
 20
29.94984590174334
 30
0.0
 10
-3.534956328644164
 20
29.99554727694384
 30
0.0
 10
-2.026521398766856
 20
30.04184339079089
 30
0.0
 10
-0.8355474206185072
 20
30.05133566059055
 30
0.0
 10
-0.0000244801994604
 20
30.05155939092015
 30
0.0
 10
0.4387932943635775
 20
30.05162851886005
 30
0.0
 10
1.274329044032367
 20
30.04766636780159
 30
0.0
 10
2.46509741057154
 20
30.02847922522909
 30
0.0
 10
3.534907883724724
 20
29.99550158422637
 30
0.0
 10
4.483344291745443
 20
29.94986183773461
 30
0.0
 10
5.313181481671588
 20
29.88905355079009
 30
0.0
 10
6.010909866609783
 20
29.81827895471677
 30
0.0
 10
6.588567455011036
 20
29.73203906706107
 30
0.0
 10
6.926729275314937
 20
29.65777273055145
 30
0.0
 10
7.08575296545863
 20
29.61473688701062
 30
0.0
  0
SPLINE
  5
63
330
1F
100
AcDbEntity
  8
Make2D visible lines
100
AcDbSpline
210
0.0
220
0.0
230
1.0
 70
    12
 71
     3
 72
    16
 73
    12
 74
     0
 42
0.0000000001
 43
0.0000000001
 40
0.0
 40
0.0
 40
0.0
 40
0.0
 40
0.0003868506854388
 40
0.0003868506854388
 40
0.0003868506854388
 40
1.000386817650529
 40
2.000386834167984
 40
3.000386850685439
 40
3.000386850685439
 40
3.000386850685439
 40
4.053722138827087
 40
4.053722138827087
 40
4.053722138827087
 40
4.053722138827087
 10
7.08575296545863
 20
29.61473688701062
 30
0.0
 41
1.0
 10
7.091846367214576
 20
29.61306023365593
 30
0.0
 41
1.0
 10
7.091970497036161
 20
29.6130253077244
 30
0.0
 41
1.0
 10
7.092094626857746
 20
29.61299038179286
 30
0.0
 41
1.0
 10
7.16333625161672
 20
29.59357148267216
 30
0.0
 41
1.0
 10
7.298323854952315
 20
29.52522218984934
 30
0.0
 41
1.0
 10
7.437986675338001
 20
29.34623830394873
 30
0.0
 41
1.0
 10
7.471870526118397
 20
29.19864400051204
 30
0.0
 41
1.0
 10
7.471786757838801
 20
29.12425946029715
 30
0.0
 41
1.0
 10
7.471725472933977
 20
28.77283700041595
 30
0.0
 41
0.999999999988567
 10
7.471657378508654
 20
28.42156989310626
 30
0.0
 41
0.999999999988567
 10
7.471582474562833
 20
28.07045813838014
 30
0.0
 41
1.0
  0
SPLINE
  5
64
330
1F
100
AcDbEntity
  8
Make2D visible lines
100
AcDbSpline
210
0.0
220
0.0
230
1.0
 70
     8
 71
     3
 72
    16
 73
    12
 74
     0
 42
0.0000000001
 43
0.0000000001
 40
0.0
 40
0.0
 40
0.0
 40
0.0
 40
1.0
 40
2.0
 40
3.0
 40
4.0
 40
5.0
 40
6.0
 40
7.0
 40
8.0
 40
9.0
 40
9.0
 40
9.0
 40
9.0
 10
-5.541037182042748
 20
28.04431371211437
 30
0.0
 10
-5.130645056641064
 20
28.03651299263487
 30
0.0
 10
-4.30983291346409
 20
28.02146092395641
 30
0.0
 10
-3.078412153042076
 20
28.01795713549309
 30
0.0
 10
-1.847136749290853
 20
27.99875596124402
 30
0.0
 10
-0.6157211532640989
 20
27.99511304403288
 30
0.0
 10
0.6156765581287544
 20
27.99511559243173
 30
0.0
 10
1.847091347373333
 20
27.99885011874621
 30
0.0
 10
3.078367115558889
 20
28.01792956926003
 30
0.0
 10
4.309787740600505
 20
28.02163417500653
 30
0.0
 10
5.130600292520372
 20
28.03650389996022
 30
0.0
 10
5.540992713433077
 20
28.04431371211438
 30
0.0
  0
SPLINE
  5
65
330
1F
100
AcDbEntity
  8
Make2D visible lines
100
AcDbSpline
210
0.0
220
0.0
230
1.0
 70
     8
 71
     3
 72
    16
 73
    12
 74
     0
 42
0.0000000001
 43
0.0000000001
 40
0.0
 40
0.0
 40
0.0
 40
0.0
 40
1.00258309120359
 40
2.00516618240718
 40
3.007749273610769
 40
4.010332364814359
 40
5.012915456017948
 40
6.015498547221538
 40
7.018081638425128
 40
8.020664729628718
 40
9.0
 40
9.0
 40
9.0
 40
9.0
 10
7.861791163652551
 20
31.3327715456632
 30
0.0
 10
7.889420376289145
 20
31.21244134690466
 30
0.0
 10
7.943359467580027
 20
30.97147876945986
 30
0.0
 10
8.019685037281622
 20
30.60903085156143
 30
0.0
 10
8.091218369617202
 20
30.24563027493012
 30
0.0
 10
8.160566872259878
 20
29.88174220992394
 30
0.0
 10
8.22903474323871
 20
29.51795246108153
 30
0.0
 10
8.28386648022412
 20
29.15068999922421
 30
0.0
 10
8.317154212428672
 20
28.78473809525783
 30
0.0
 10
8.31912487931329
 20
28.40520856648624
 30
0.0
 10
8.15120144569504
 20
28.20381538184157
 30
0.0
 10
8.036879167071238
 20
28.15957386516351
 30
0.0
  0
SPLINE
  5
66
330
1F
100
AcDbEntity
  8
Make2D visible lines
100
AcDbSpline
210
0.0
220
0.0
230
1.0
 70
     8
 71
     3
 72
    16
 73
    12
 74
     0
 42
0.0000000001
 43
0.0000000001
 40
-9.0
 40
-9.0
 40
-9.0
 40
-9.0
 40
-8.027903846492539
 40
-7.024415865680972
 40
-6.020927884869404
 40
-5.017439904057837
 40
-4.013951923246269
 40
-3.010463942434702
 40
-2.006975961623135
 40
-1.003487980811567
 40
0.0
 40
0.0
 40
0.0
 40
0.0
 10
8.036879167071238
 20
28.15957386516351
 30
0.0
 10
7.953662092501197
 20
28.12479047207199
 30
0.0
 10
7.772817056515759
 20
28.09171313588682
 30
0.0
 10
7.498243242069396
 20
28.06961229496484
 30
0.0
 10
7.219772888617381
 20
28.06052991050325
 30
0.0
 10
6.941316468999005
 20
28.05635031551832
 30
0.0
 10
6.662806598070501
 20
28.05459792059174
 30
0.0
 10
6.384302082076651
 20
28.05379483790991
 30
0.0
 10
6.105795993474839
 20
28.05245146469923
 30
0.0
 10
5.827307816996077
 20
28.04903634782306
 30
0.0
 10
5.64166085412759
 20
28.0459960713864
 30
0.0
 10
5.548837868990859
 20
28.04445011743699
 30
0.0
  0
SPLINE
  5
67
330
1F
100
AcDbEntity
  8
Make2D visible lines
100
AcDbSpline
210
0.0
220
0.0
230
1.0
 70
     8
 71
     3
 72
    16
 73
    12
 74
     0
 42
0.0000000001
 43
0.0000000001
 40
0.0
 40
0.0
 40
0.0
 40
0.0
 40
1.00258309120359
 40
2.00516618240718
 40
3.007749273610769
 40
4.010332364814359
 40
5.012915456017948
 40
6.015498547221538
 40
7.018081638425128
 40
8.020664729628718
 40
9.0
 40
9.0
 40
9.0
 40
9.0
 10
-7.861791163652551
 20
31.3327715456632
 30
0.0
 10
-7.889420376289145
 20
31.21244134690466
 30
0.0
 10
-7.943359467580027
 20
30.97147876945986
 30
0.0
 10
-8.019685037281622
 20
30.60903085156143
 30
0.0
 10
-8.091218369617202
 20
30.24563027493012
 30
0.0
 10
-8.160566872259878
 20
29.88174220992394
 30
0.0
 10
-8.22903474323871
 20
29.51795246108153
 30
0.0
 10
-8.28386648022412
 20
29.15068999922421
 30
0.0
 10
-8.317154212428672
 20
28.78473809525783
 30
0.0
 10
-8.31912487931329
 20
28.40520856648624
 30
0.0
 10
-8.15120144569504
 20
28.20381538184157
 30
0.0
 10
-8.036879167071238
 20
28.15957386516351
 30
0.0
  0
SPLINE
  5
68
330
1F
100
AcDbEntity
  8
Make2D visible lines
100
AcDbSpline
210
0.0
220
0.0
230
1.0
 70
     8
 71
     3
 72
    16
 73
    12
 74
     0
 42
0.0000000001
 43
0.0000000001
 40
-9.0
 40
-9.0
 40
-9.0
 40
-9.0
 40
-8.027903846492539
 40
-7.024415865680972
 40
-6.020927884869404
 40
-5.017439904057837
 40
-4.013951923246269
 40
-3.010463942434702
 40
-2.006975961623135
 40
-1.003487980811567
 40
0.0
 40
0.0
 40
0.0
 40
0.0
 10
-8.036879167071238
 20
28.15957386516351
 30
0.0
 10
-7.953662092501197
 20
28.12479047207199
 30
0.0
 10
-7.772817056515759
 20
28.09171313588682
 30
0.0
 10
-7.498243242069396
 20
28.06961229496484
 30
0.0
 10
-7.219772888617381
 20
28.06052991050325
 30
0.0
 10
-6.941316468999005
 20
28.05635031551832
 30
0.0
 10
-6.662806598070501
 20
28.05459792059174
 30
0.0
 10
-6.384302082076651
 20
28.05379483790991
 30
0.0
 10
-6.105795993474839
 20
28.05245146469923
 30
0.0
 10
-5.827307816996077
 20
28.04903634782306
 30
0.0
 10
-5.64166085412759
 20
28.0459960713864
 30
0.0
 10
-5.548837868990859
 20
28.04445011743699
 30
0.0
  0
SPLINE
  5
69
330
1F
100
AcDbEntity
  8
Make2D visible lines - Tangent
100
AcDbSpline
210
0.0
220
0.0
230
1.0
 70
    12
 71
     2
 72
     6
 73
     3
 74
     0
 42
0.0000000001
 43
0.0000000001
 40
0.0
 40
0.0
 40
0.0
 40
0.108041166178154
 40
0.108041166178154
 40
0.108041166178154
 10
0.8501839326224356
 20
27.995963632099
 30
0.0
 41
1.0
 10
0.9042043792921445
 20
27.99608541860097
 30
0.0
 41
0.9999999760822954
 10
0.958224767521072
 20
27.99623083504657
 30
0.0
 41
1.0
  0
SPLINE
  5
6A
330
1F
100
AcDbEntity
  8
Make2D visible lines - Tangent
100
AcDbSpline
210
0.0
220
0.0
230
1.0
 70
    12
 71
     2
 72
     6
 73
     3
 74
     0
 42
0.0000000001
 43
0.0000000001
 40
0.0
 40
0.0
 40
0.0
 40
0.1189580718783975
 40
0.1189580718783975
 40
0.1189580718783975
 10
-0.8425687153118488
 20
27.99594644738416
 30
0.0
 41
1.0
 10
-0.902047605254034
 20
27.99607874898226
 30
0.0
 41
0.9999999711234281
 10
-0.9615264247369044
 20
27.99623963835947
 30
0.0
 41
1.0
  0
SPLINE
  5
6B
330
1F
100
AcDbEntity
  8
Make2D visible lines
100
AcDbSpline
210
0.0
220
0.0
230
1.0
 70
    24
 71
     2
 72
     6
 73
     3
 74
     0
 42
0.0000000001
 43
0.0000000001
 40
0.0
 40
0.0
 40
0.0
 40
0.0401014385929007
 40
0.0401014385929007
 40
0.0401014385929007
 10
1.204382368866504
 20
6.462904669050454
 30
0.0
 10
1.204032435563981
 20
6.482952334525238
 30
0.0
 10
1.203682502261458
 20
6.503000000000021
 30
0.0
  0
LINE
  5
6C
330
1F
100
AcDbEntity
  8
Make2D visible lines
100
AcDbLine
 10
-1.299788735184038
 20
5.694156213727071
 30
0.0
 11
-1.284781832113339
 21
6.463000000000013
 31
0.0
  0
LINE
  5
6D
330
1F
100
AcDbEntity
  8
Make2D visible lines
100
AcDbLine
 10
-1.284781832113339
 20
6.463000000000013
 30
0.0
 11
1.292095817399428
 21
6.463000000000013
 31
0.0
  0
LINE
  5
6E
330
1F
100
AcDbEntity
  8
Make2D visible lines
100
AcDbLine
 10
1.292095817399428
 20
6.463000000000013
 30
0.0
 11
1.307102720470141
 21
5.694156213727071
 31
0.0
  0
SPLINE
  5
6F
330
1F
100
AcDbEntity
  8
Make2D visible lines
100
AcDbSpline
210
0.0
220
0.0
230
1.0
 70
    12
 71
     3
 72
    11
 73
     7
 74
     0
 42
0.0000000001
 43
0.0000000001
 40
-1.0
 40
-1.0
 40
-1.0
 40
-1.0
 40
-0.75000000000032
 40
-0.5000000000001401
 40
-0.2499999999999602
 40
0.0
 40
0.0
 40
0.0
 40
0.0
 10
0.9168376693515938
 20
6.382999045766024
 30
0.0
 41
1.0
 10
0.9177508660286549
 20
6.309011631162427
 30
0.0
 41
1.0
 10
0.9424168944393472
 20
6.156227170012551
 30
0.0
 41
1.0
 10
1.032548852533765
 20
5.941965920377289
 30
0.0
 41
1.0
 10
1.160427736414391
 20
5.771964450750335
 30
0.0
 41
1.0
 10
1.260587616397402
 20
5.707699549616574
 30
0.0
 41
1.0
 10
1.311830047456112
 20
5.692725175023856
 30
0.0
 41
1.0
  0
SPLINE
  5
70
330
1F
100
AcDbEntity
  8
Make2D visible lines
100
AcDbSpline
210
0.0
220
0.0
230
1.0
 70
    24
 71
     2
 72
     6
 73
     3
 74
     0
 42
0.0000000001
 43
0.0000000001
 40
0.0
 40
0.0
 40
0.0
 40
8.866685525010693
 40
8.866685525010693
 40
8.866685525010693
 10
1.311830047456112
 20
5.692725175023856
 30
0.0
 10
5.585358868257231
 20
4.444736992526536
 30
0.0
 10
9.85888768905835
 20
3.196748810029216
 30
0.0
  0
SPLINE
  5
71
330
1F
100
AcDbEntity
  8
Make2D visible lines
100
AcDbSpline
210
0.0
220
0.0
230
1.0
 70
    12
 71
     3
 72
    15
 73
    11
 74
     0
 42
0.0000000001
 43
0.0000000001
 40
-2.981790466646582
 40
-2.981790466646582
 40
-2.981790466646582
 40
-2.981790466646582
 40
-2.616657786617163
 40
-2.192645165643878
 40
-2.102734417348108
 40
-2.004984739545305
 40
-0.0458357933849737
 40
-0.0458357933849737
 40
-0.0458357933849737
 40
0.0
 40
0.0
 40
0.0
 40
0.0
 10
9.85888768905835
 20
3.196748810029216
 30
0.0
 41
1.0
 10
10.00975621046278
 20
3.144520779471575
 30
0.0
 41
1.0
 10
10.21620133446788
 20
2.96598142376593
 30
0.0
 41
1.0
 10
10.32343780803704
 20
2.685804255123775
 30
0.0
 41
1.0
 10
10.35535679059927
 20
2.484521370671054
 30
0.0
 41
1.0
 10
10.38486609296203
 20
1.769312895268122
 30
0.0
 41
1.0
 10
10.40737531199346
 20
1.084304406818143
 30
0.0
 41
1.0
 10
10.42738548414196
 20
0.431254831455157
 30
0.0
 41
1.0
 10
10.42792509079728
 20
0.4141813191650051
 30
0.0
 41
0.8162530315979053
 10
10.41662575203624
 20
0.4014560510364074
 30
0.0
 41
0.8162530315979053
 10
10.39971612558571
 20
0.4000937153915651
 30
0.0
 41
1.0
  0
SPLINE
  5
72
330
1F
100
AcDbEntity
  8
Make2D visible lines - Tangent
100
AcDbSpline
210
0.0
220
0.0
230
1.0
 70
    12
 71
     3
 72
    19
 73
    15
 74
     0
 42
0.0000000001
 43
0.0000000001
 40
-1.776830323858946
 40
-1.776830323858946
 40
-1.776830323858946
 40
-1.776830323858946
 40
-1.730740559805822
 40
-1.730740559805822
 40
-1.730740559805822
 40
-1.166323066479676
 40
-0.3953525441163947
 40
-0.3329837224435752
 40
-0.146821164453521
 40
-0.066479626133287
 40
0.0
 40
0.0
 40
0.0
 40
7.409842642081587
 40
7.409842642081587
 40
7.409842642081587
 40
7.409842642081587
 10
9.307991341920799
 20
0.4000000001201026
 30
0.0
 41
1.000010664015164
 10
9.29092670864214
 20
0.4001332222571753
 30
0.0
 41
0.8156224804937415
 10
9.278674166354815
 20
0.4120110895509921
 30
0.0
 41
0.8156189258220201
 10
9.278011307761375
 20
0.4290634387891377
 30
0.0
 41
1.0
 10
9.272015770039346
 20
0.6171335124673757
 30
0.0
 41
1.0
 10
9.255500015881154
 20
1.061871383443985
 30
0.0
 41
1.0
 10
9.249669360662935
 20
1.527948877959231
 30
0.0
 41
1.0
 10
9.241827655919039
 20
1.867531567168534
 30
0.0
 41
1.0
 10
9.203905947049932
 20
1.974665697475469
 30
0.0
 41
1.0
 10
9.133673968664425
 20
2.060462021586257
 30
0.0
 41
1.0
 10
9.08787517809705
 20
2.083566369208939
 30
0.0
 41
1.0
 10
9.053673614291213
 20
2.090684750335243
 30
0.0
 41
1.0
 10
6.621447991633775
 20
2.56825616005577
 30
0.0
 41
0.999999926815662
 10
4.193278349521488
 20
3.043852428734945
 30
0.0
 41
0.999999926815662
 10
1.754039772265855
 20
3.520469192765969
 30
0.0
 41
1.0
  0
SPLINE
  5
73
330
1F
100
AcDbEntity
  8
Make2D visible lines - Tangent
100
AcDbSpline
210
0.0
220
0.0
230
1.0
 70
    12
 71
     2
 72
     6
 73
     3
 74
     0
 42
0.0000000001
 43
0.0000000001
 40
-0.9145789757291128
 40
-0.9145789757291128
 40
-0.9145789757291128
 40
0.0
 40
0.0
 40
0.0
 10
1.754039772265855
 20
3.520469192765969
 30
0.0
 41
1.0
 10
1.292149969113699
 20
3.625046535779716
 30
0.0
 41
0.9971288252443241
 10
0.8351096453615128
 20
3.657995578618199
 30
0.0
 41
1.0
  0
SPLINE
  5
74
330
1F
100
AcDbEntity
  8
Make2D visible lines - Tangent
100
AcDbSpline
210
0.0
220
0.0
230
1.0
 70
    12
 71
     2
 72
     6
 73
     3
 74
     0
 42
0.0000000001
 43
0.0000000001
 40
-0.1809632896943791
 40
-0.1809632896943791
 40
-0.1809632896943791
 40
0.0
 40
0.0
 40
0.0
 10
0.8351096453615128
 20
3.657995578618199
 30
0.0
 41
1.0
 10
0.7445508669466018
 20
3.662987693469204
 30
0.0
 41
0.9974315730756723
 10
0.6480691392700493
 20
3.682313990687126
 30
0.0
 41
1.0
  0
SPLINE
  5
75
330
1F
100
AcDbEntity
  8
Make2D visible lines - Tangent
100
AcDbSpline
210
0.0
220
0.0
230
1.0
 70
    12
 71
     2
 72
     6
 73
     3
 74
     0
 42
0.0000000001
 43
0.0000000001
 40
-0.6434477656097529
 40
-0.6434477656097529
 40
-0.6434477656097529
 40
0.0
 40
0.0
 40
0.0
 10
0.6480691392700493
 20
3.682313990687126
 30
0.0
 41
1.0
 10
0.3265832622257752
 20
3.760045174446677
 30
0.0
 41
0.9940965158983979
 10
0.0036569926430587
 20
3.766820847692415
 30
0.0
 41
1.0
  0
POLYLINE
  5
76
330
1F
100
AcDbEntity
  8
Default
100
AcDb2dPolyline
 66
     1
 10
0.0
 20
0.0
 30
0.0
  0
VERTEX
  5
77
330
76
100
AcDbEntity
  8
Default
100
AcDbVertex
100
AcDb2dVertex
 10
10.41397778391095
 20
0.3999999999454623
 30
0.0
  0
VERTEX
  5
78
330
76
100
AcDbEntity
  8
Default
100
AcDbVertex
100
AcDb2dVertex
 10
9.294224427874283
 20
0.3999999999601238
 30
0.0
  0
SEQEND
  5
79
330
76
100
AcDbEntity
  8
Default
  0
SPLINE
  5
7A
330
1F
100
AcDbEntity
  8
Default
100
AcDbSpline
210
0.0
220
0.0
230
1.0
 70
    12
 71
     2
 72
     6
 73
     3
 74
     0
 42
0.0000000001
 43
0.0000000001
 40
0.0
 40
0.0
 40
0.0
 40
0.0234509349460152
 40
0.0234509349460152
 40
0.0234509349460152
 10
9.294224427874283
 20
0.3999999999601238
 30
0.0
 41
1.0
 10
9.27966266581947
 20
0.3994296958625432
 30
0.0
 41
0.7311049470194118
 10
9.279226457141434
 20
0.3848484327136488
 30
0.0
 41
1.0
  0
SPLINE
  5
7B
330
1F
100
AcDbEntity
  8
Default
100
AcDbSpline
210
0.0
220
0.0
230
1.0
 70
    24
 71
     2
 72
     6
 73
     3
 74
     0
 42
0.0000000001
 43
0.0000000001
 40
0.0
 40
0.0
 40
0.0
 40
0.2302029156997716
 40
0.2302029156997716
 40
0.2302029156997716
 10
9.279226457141434
 20
0.3848484327136488
 30
0.0
 10
9.280506338654149
 20
0.2696526866620697
 30
0.0
 10
9.281786220166865
 20
0.1544569406104906
 30
0.0
  0
SPLINE
  5
7C
330
1F
100
AcDbEntity
  8
Default
100
AcDbSpline
210
0.0
220
0.0
230
1.0
 70
    12
 71
     2
 72
     6
 73
     3
 74
     0
 42
0.0000000001
 43
0.0000000001
 40
0.0
 40
0.0
 40
0.0
 40
0.2433059460872006
 40
0.2433059460872006
 40
0.2433059460872006
 10
9.281786220166865
 20
0.1544569406104906
 30
0.0
 41
1.0
 10
9.283498022443133
 20
0.0000041307138962
 30
0.0
 41
0.7110160985064136
 10
9.437772389763197
 20
0.0000000000141378
 30
0.0
 41
1.0
  0
LINE
  5
7D
330
1F
100
AcDbEntity
  8
Default
100
AcDbLine
 10
9.437772389763197
 20
0.0000000000141378
 30
0.0
 11
10.28341865110175
 21
0.0000000000280538
 31
0.0
  0
SPLINE
  5
7E
330
1F
100
AcDbEntity
  8
Default
100
AcDbSpline
210
0.0
220
0.0
230
1.0
 70
    12
 71
     2
 72
     8
 73
     5
 74
     0
 42
0.0000000001
 43
0.0000000001
 40
0.0
 40
0.0
 40
0.0
 40
0.1260117615689853
 40
0.1260117615689853
 40
0.2520235231379707
 40
0.2520235231379707
 40
0.2520235231379707
 10
10.28341865110175
 20
0.0000000000280538
 30
0.0
 41
1.0
 10
10.35010605513236
 20
0.0000187838016934
 30
0.0
 41
0.9195801389452859
 10
10.39617791611053
 20
0.0482076413338472
 30
0.0
 41
1.0
 10
10.4422497770887
 20
0.096396498866001
 30
0.0
 41
0.9195801389452859
 10
10.43927032132508
 20
0.1631126379907634
 30
0.0
 41
1.0
  0
SPLINE
  5
7F
330
1F
100
AcDbEntity
  8
Default
100
AcDbSpline
210
0.0
220
0.0
230
1.0
 70
    12
 71
     2
 72
     6
 73
     3
 74
     0
 42
0.0000000001
 43
0.0000000001
 40
0.0
 40
0.0
 40
0.0
 40
0.2227059867082511
 40
0.2227059867082511
 40
0.2227059867082511
 10
10.43927032132508
 20
0.1631126379907634
 30
0.0
 41
1.0
 10
10.43410735980046
 20
0.2744594309887785
 30
0.0
 41
0.999999998781251
 10
10.42895556626749
 20
0.3857268171168863
 30
0.0
 41
1.0
  0
SPLINE
  5
80
330
1F
100
AcDbEntity
  8
Default
100
AcDbSpline
210
0.0
220
0.0
230
1.0
 70
    12
 71
     2
 72
     6
 73
     3
 74
     0
 42
0.0000000001
 43
0.0000000001
 40
0.0
 40
0.0
 40
0.0
 40
0.0225621385862125
 40
0.0225621385862125
 40
0.0225621385862125
 10
10.42895556626749
 20
0.3857268171168863
 30
0.0
 41
1.0
 10
10.42770813367495
 20
0.39944547381019
 30
0.0
 41
0.7518431492968729
 10
10.41397778391095
 20
0.3999999999454623
 30
0.0
 41
1.0
  0
SPLINE
  5
81
330
1F
100
AcDbEntity
  8
Make2D visible lines
100
AcDbSpline
210
0.0
220
0.0
230
1.0
 70
    12
 71
     3
 72
    11
 73
     7
 74
     0
 42
0.0000000001
 43
0.0000000001
 40
-1.0
 40
-1.0
 40
-1.0
 40
-1.0
 40
-0.75000000000032
 40
-0.5000000000001401
 40
-0.2499999999999602
 40
0.0
 40
0.0
 40
0.0
 40
0.0
 10
-0.9095236840654906
 20
6.382999045766024
 30
0.0
 41
1.0
 10
-0.9104368807425516
 20
6.309011631162427
 30
0.0
 41
1.0
 10
-0.9351029091532439
 20
6.156227170012551
 30
0.0
 41
1.0
 10
-1.025234867247647
 20
5.941965920377289
 30
0.0
 41
1.0
 10
-1.153113751128288
 20
5.771964450750335
 30
0.0
 41
1.0
 10
-1.253273631111284
 20
5.707699549616574
 30
0.0
 41
1.0
 10
-1.304516062170009
 20
5.692725175023856
 30
0.0
 41
1.0
  0
SPLINE
  5
82
330
1F
100
AcDbEntity
  8
Make2D visible lines
100
AcDbSpline
210
0.0
220
0.0
230
1.0
 70
    24
 71
     2
 72
     6
 73
     3
 74
     0
 42
0.0000000001
 43
0.0000000001
 40
0.0
 40
0.0
 40
0.0
 40
8.866685525010693
 40
8.866685525010693
 40
8.866685525010693
 10
-1.304516062170009
 20
5.692725175023856
 30
0.0
 10
-5.578044882971128
 20
4.444736992526536
 30
0.0
 10
-9.851573703772246
 20
3.196748810029216
 30
0.0
  0
SPLINE
  5
83
330
1F
100
AcDbEntity
  8
Make2D visible lines
100
AcDbSpline
210
0.0
220
0.0
230
1.0
 70
    12
 71
     3
 72
    15
 73
    11
 74
     0
 42
0.0000000001
 43
0.0000000001
 40
-2.981790466646582
 40
-2.981790466646582
 40
-2.981790466646582
 40
-2.981790466646582
 40
-2.616657786617163
 40
-2.192645165643878
 40
-2.102734417348108
 40
-2.004984739545305
 40
-0.0458357933849737
 40
-0.0458357933849737
 40
-0.0458357933849737
 40
0.0
 40
0.0
 40
0.0
 40
0.0
 10
-9.851573703772246
 20
3.196748810029216
 30
0.0
 41
1.0
 10
-10.00244222517668
 20
3.144520779471575
 30
0.0
 41
1.0
 10
-10.20888734918177
 20
2.96598142376593
 30
0.0
 41
1.0
 10
-10.31612382275094
 20
2.685804255123775
 30
0.0
 41
1.0
 10
-10.34804280531317
 20
2.484521370671054
 30
0.0
 41
1.0
 10
-10.37755210767592
 20
1.769312895268122
 30
0.0
 41
1.0
 10
-10.40006132670734
 20
1.084304406818143
 30
0.0
 41
1.0
 10
-10.42007149885586
 20
0.431254831455157
 30
0.0
 41
1.0
 10
-10.42061110551117
 20
0.4141813191650051
 30
0.0
 41
0.8162530315979053
 10
-10.40931176675013
 20
0.4014560510364074
 30
0.0
 41
0.8162530315979053
 10
-10.39240214029961
 20
0.4000937153915651
 30
0.0
 41
1.0
  0
SPLINE
  5
84
330
1F
100
AcDbEntity
  8
Make2D visible lines - Tangent
100
AcDbSpline
210
0.0
220
0.0
230
1.0
 70
    12
 71
     3
 72
    19
 73
    15
 74
     0
 42
0.0000000001
 43
0.0000000001
 40
-1.776830323858946
 40
-1.776830323858946
 40
-1.776830323858946
 40
-1.776830323858946
 40
-1.730740559805822
 40
-1.730740559805822
 40
-1.730740559805822
 40
-1.166323066479676
 40
-0.3953525441163947
 40
-0.3329837224435752
 40
-0.146821164453521
 40
-0.066479626133287
 40
0.0
 40
0.0
 40
0.0
 40
7.409842642081587
 40
7.409842642081587
 40
7.409842642081587
 40
7.409842642081587
 10
-9.300677356634685
 20
0.4000000001201026
 30
0.0
 41
1.000010664015164
 10
-9.283612723356024
 20
0.4001332222571753
 30
0.0
 41
0.8156224804937415
 10
-9.271360181068703
 20
0.4120110895509921
 30
0.0
 41
0.8156189258220201
 10
-9.270697322475272
 20
0.4290634387891377
 30
0.0
 41
1.0
 10
-9.264701784753242
 20
0.6171335124673757
 30
0.0
 41
1.0
 10
-9.24818603059505
 20
1.061871383443985
 30
0.0
 41
1.0
 10
-9.242355375376832
 20
1.527948877959231
 30
0.0
 41
1.0
 10
-9.234513670632936
 20
1.867531567168534
 30
0.0
 41
1.0
 10
-9.19659196176383
 20
1.974665697475469
 30
0.0
 41
1.0
 10
-9.126359983378322
 20
2.060462021586257
 30
0.0
 41
1.0
 10
-9.080561192810933
 20
2.083566369208939
 30
0.0
 41
1.0
 10
-9.04635962900511
 20
2.090684750335243
 30
0.0
 41
1.0
 10
-6.614134006347665
 20
2.56825616005577
 30
0.0
 41
0.999999926815662
 10
-4.185964364235378
 20
3.043852428734945
 30
0.0
 41
0.999999926815662
 10
-1.746725786979738
 20
3.520469192765969
 30
0.0
 41
1.0
  0
SPLINE
  5
85
330
1F
100
AcDbEntity
  8
Make2D visible lines - Tangent
100
AcDbSpline
210
0.0
220
0.0
230
1.0
 70
    12
 71
     2
 72
     6
 73
     3
 74
     0
 42
0.0000000001
 43
0.0000000001
 40
-0.9145789757291128
 40
-0.9145789757291128
 40
-0.9145789757291128
 40
0.0
 40
0.0
 40
0.0
 10
-1.746725786979738
 20
3.520469192765969
 30
0.0
 41
1.0
 10
-1.284835983827597
 20
3.625046535779716
 30
0.0
 41
0.9971288252443241
 10
-0.8277956600754095
 20
3.657995578618199
 30
0.0
 41
1.0
  0
SPLINE
  5
86
330
1F
100
AcDbEntity
  8
Make2D visible lines - Tangent
100
AcDbSpline
210
0.0
220
0.0
230
1.0
 70
    12
 71
     2
 72
     6
 73
     3
 74
     0
 42
0.0000000001
 43
0.0000000001
 40
-0.1809632896943791
 40
-0.1809632896943791
 40
-0.1809632896943791
 40
0.0
 40
0.0
 40
0.0
 10
-0.8277956600754095
 20
3.657995578618199
 30
0.0
 41
1.0
 10
-0.7372368816604912
 20
3.662987693469204
 30
0.0
 41
0.9974315730756723
 10
-0.640755153983946
 20
3.682313990687126
 30
0.0
 41
1.0
  0
SPLINE
  5
87
330
1F
100
AcDbEntity
  8
Make2D visible lines - Tangent
100
AcDbSpline
210
0.0
220
0.0
230
1.0
 70
    12
 71
     2
 72
     6
 73
     3
 74
     0
 42
0.0000000001
 43
0.0000000001
 40
-0.6434477656097529
 40
-0.6434477656097529
 40
-0.6434477656097529
 40
0.0
 40
0.0
 40
0.0
 10
-0.640755153983946
 20
3.682313990687126
 30
0.0
 41
1.0
 10
-0.3192692769396612
 20
3.760045174446677
 30
0.0
 41
0.9940965158983979
 10
0.0036569926430587
 20
3.766820847692415
 30
0.0
 41
1.0
  0
POLYLINE
  5
88
330
1F
100
AcDbEntity
  8
Default
100
AcDb2dPolyline
 66
     1
 10
0.0
 20
0.0
 30
0.0
  0
VERTEX
  5
89
330
88
100
AcDbEntity
  8
Default
100
AcDbVertex
100
AcDb2dVertex
 10
-10.40666379862485
 20
0.3999999999454623
 30
0.0
  0
VERTEX
  5
8A
330
88
100
AcDbEntity
  8
Default
100
AcDbVertex
100
AcDb2dVertex
 10
-9.28691044258818
 20
0.3999999999601238
 30
0.0
  0
SEQEND
  5
8B
330
88
100
AcDbEntity
  8
Default
  0
SPLINE
  5
8C
330
1F
100
AcDbEntity
  8
Default
100
AcDbSpline
210
0.0
220
0.0
230
1.0
 70
    12
 71
     2
 72
     6
 73
     3
 74
     0
 42
0.0000000001
 43
0.0000000001
 40
0.0
 40
0.0
 40
0.0
 40
0.0234509349460152
 40
0.0234509349460152
 40
0.0234509349460152
 10
-9.28691044258818
 20
0.3999999999601238
 30
0.0
 41
1.0
 10
-9.272348680533357
 20
0.3994296958625432
 30
0.0
 41
0.7311049470194118
 10
-9.27191247185533
 20
0.3848484327136488
 30
0.0
 41
1.0
  0
SPLINE
  5
8D
330
1F
100
AcDbEntity
  8
Default
100
AcDbSpline
210
0.0
220
0.0
230
1.0
 70
    24
 71
     2
 72
     6
 73
     3
 74
     0
 42
0.0000000001
 43
0.0000000001
 40
0.0
 40
0.0
 40
0.0
 40
0.2302029156997716
 40
0.2302029156997716
 40
0.2302029156997716
 10
-9.27191247185533
 20
0.3848484327136488
 30
0.0
 10
-9.273192353368046
 20
0.2696526866620697
 30
0.0
 10
-9.274472234880761
 20
0.1544569406104906
 30
0.0
  0
SPLINE
  5
8E
330
1F
100
AcDbEntity
  8
Default
100
AcDbSpline
210
0.0
220
0.0
230
1.0
 70
    12
 71
     2
 72
     6
 73
     3
 74
     0
 42
0.0000000001
 43
0.0000000001
 40
0.0
 40
0.0
 40
0.0
 40
0.2433059460872006
 40
0.2433059460872006
 40
0.2433059460872006
 10
-9.274472234880761
 20
0.1544569406104906
 30
0.0
 41
1.0
 10
-9.276184037157027
 20
0.0000041307138962
 30
0.0
 41
0.7110160985064136
 10
-9.430458404477093
 20
0.0000000000141378
 30
0.0
 41
1.0
  0
LINE
  5
8F
330
1F
100
AcDbEntity
  8
Default
100
AcDbLine
 10
-9.430458404477093
 20
0.0000000000141378
 30
0.0
 11
-10.27610466581564
 21
0.0000000000280538
 31
0.0
  0
SPLINE
  5
90
330
1F
100
AcDbEntity
  8
Default
100
AcDbSpline
210
0.0
220
0.0
230
1.0
 70
    12
 71
     2
 72
     8
 73
     5
 74
     0
 42
0.0000000001
 43
0.0000000001
 40
0.0
 40
0.0
 40
0.0
 40
0.1260117615689853
 40
0.1260117615689853
 40
0.2520235231379707
 40
0.2520235231379707
 40
0.2520235231379707
 10
-10.27610466581564
 20
0.0000000000280538
 30
0.0
 41
1.0
 10
-10.34279206984626
 20
0.0000187838016934
 30
0.0
 41
0.9195801389452859
 10
-10.38886393082443
 20
0.0482076413338472
 30
0.0
 41
1.0
 10
-10.43493579180258
 20
0.096396498866001
 30
0.0
 41
0.9195801389452859
 10
-10.43195633603898
 20
0.1631126379907634
 30
0.0
 41
1.0
  0
SPLINE
  5
91
330
1F
100
AcDbEntity
  8
Default
100
AcDbSpline
210
0.0
220
0.0
230
1.0
 70
    12
 71
     2
 72
     6
 73
     3
 74
     0
 42
0.0000000001
 43
0.0000000001
 40
0.0
 40
0.0
 40
0.0
 40
0.2227059867082511
 40
0.2227059867082511
 40
0.2227059867082511
 10
-10.43195633603898
 20
0.1631126379907634
 30
0.0
 41
1.0
 10
-10.42679337451436
 20
0.2744594309887785
 30
0.0
 41
0.999999998781251
 10
-10.42164158098139
 20
0.3857268171168863
 30
0.0
 41
1.0
  0
SPLINE
  5
92
330
1F
100
AcDbEntity
  8
Default
100
AcDbSpline
210
0.0
220
0.0
230
1.0
 70
    12
 71
     2
 72
     6
 73
     3
 74
     0
 42
0.0000000001
 43
0.0000000001
 40
0.0
 40
0.0
 40
0.0
 40
0.0225621385862125
 40
0.0225621385862125
 40
0.0225621385862125
 10
-10.42164158098139
 20
0.3857268171168863
 30
0.0
 41
1.0
 10
-10.42039414838885
 20
0.39944547381019
 30
0.0
 41
0.7518431492968729
 10
-10.40666379862485
 20
0.3999999999454623
 30
0.0
 41
1.0
  0
SPLINE
  5
93
330
1F
100
AcDbEntity
  8
Make2D visible lines
100
AcDbSpline
210
0.0
220
0.0
230
1.0
 70
    24
 71
     2
 72
     6
 73
     3
 74
     0
 42
0.0000000001
 43
0.0000000001
 40
0.0
 40
0.0
 40
0.0
 40
0.0401014385929007
 40
0.0401014385929007
 40
0.0401014385929007
 10
-1.197068383580387
 20
6.462904669050454
 30
0.0
 10
-1.196718450277871
 20
6.482952334525238
 30
0.0
 10
-1.196368516975355
 20
6.503000000000021
 30
0.0
  0
SPLINE
  5
94
330
1F
100
AcDbEntity
  8
Default
100
AcDbSpline
210
0.0
220
0.0
230
1.0
 70
    12
 71
     2
 72
     6
 73
     3
 74
     0
 42
0.0000000001
 43
0.0000000001
 40
-0.3420516372259224
 40
-0.3420516372259224
 40
-0.3420516372259224
 40
0.0
 40
0.0
 40
0.0
 10
8.362599576295892
 20
11.77300000000003
 30
0.0
 41
1.0
 10
8.56643611332887
 20
11.7729360890644
 30
0.0
 41
0.7751522767319682
 10
8.60749185139592
 20
11.57327696884704
 30
0.0
 41
1.0
  0
SPLINE
  5
95
330
1F
100
AcDbEntity
  8
Default
100
AcDbSpline
210
0.0
220
0.0
230
1.0
 70
    12
 71
     2
 72
     6
 73
     3
 74
     0
 42
0.0000000001
 43
0.0000000001
 40
-0.6455488671731082
 40
-0.6455488671731082
 40
-0.6455488671731082
 40
0.0
 40
0.0
 40
0.0
 10
8.60749185139592
 20
11.57327696884704
 30
0.0
 41
1.0
 10
8.672589099198605
 20
11.25619771931959
 30
0.0
 41
0.9957505983657335
 10
8.678430098558806
 20
10.93255781930903
 30
0.0
 41
1.0
  0
SPLINE
  5
96
330
1F
100
AcDbEntity
  8
Default
100
AcDbSpline
210
0.0
220
0.0
230
1.0
 70
     8
 71
     3
 72
     8
 73
     4
 74
     0
 42
0.0000000001
 43
0.0000000001
 40
0.0
 40
0.0
 40
0.0
 40
0.0
 40
1.0
 40
1.0
 40
1.0
 40
1.0
 10
8.678430098558806
 20
10.93255781930903
 30
0.0
 10
8.679109936131837
 20
10.89488916869128
 30
0.0
 10
8.650202989500727
 20
10.85491164723357
 30
0.0
 10
8.616547465110258
 20
10.83797957422137
 30
0.0
  0
SPLINE
  5
97
330
1F
100
AcDbEntity
  8
Default
100
AcDbSpline
210
0.0
220
0.0
230
1.0
 70
    24
 71
     2
 72
     6
 73
     3
 74
     0
 42
0.0000000001
 43
0.0000000001
 40
-0.5282062900802154
 40
-0.5282062900802154
 40
-0.5282062900802154
 40
0.0
 40
0.0
 40
0.0
 10
8.616547465110258
 20
10.83797957422137
 30
0.0
 10
8.380619646033175
 20
10.71928443781888
 30
0.0
 10
8.144691826956091
 20
10.60058930141639
 30
0.0
  0
SPLINE
  5
98
330
1F
100
AcDbEntity
  8
Default
100
AcDbSpline
210
0.0
220
0.0
230
1.0
 70
     8
 71
     3
 72
     8
 73
     4
 74
     0
 42
0.0000000001
 43
0.0000000001
 40
0.0
 40
0.0
 40
0.0
 40
0.0
 40
1.0
 40
1.0
 40
1.0
 40
1.0
 10
8.144691826956091
 20
10.60058930141639
 30
0.0
 10
8.13602671222884
 20
10.59622988768334
 30
0.0
 10
8.126078661307844
 20
10.59386867989503
 30
0.0
 10
8.1163787282497
 20
10.59386867989503
 30
0.0
  0
POLYLINE
  5
99
330
1F
100
AcDbEntity
  8
Default
100
AcDb2dPolyline
 66
     1
 10
0.0
 20
0.0
 30
0.0
  0
VERTEX
  5
9A
330
99
100
AcDbEntity
  8
Default
100
AcDbVertex
100
AcDb2dVertex
 10
8.1163787282497
 20
10.59386867989503
 30
0.0
  0
VERTEX
  5
9B
330
99
100
AcDbEntity
  8
Default
100
AcDbVertex
100
AcDb2dVertex
 10
0.568058340046818
 20
10.59386867989503
 30
0.0
  0
SEQEND
  5
9C
330
99
100
AcDbEntity
  8
Default
  0
SPLINE
  5
9D
330
1F
100
AcDbEntity
  8
Default
100
AcDbSpline
210
0.0
220
0.0
230
1.0
 70
     8
 71
     3
 72
     8
 73
     4
 74
     0
 42
0.0000000001
 43
0.0000000001
 40
0.0
 40
0.0
 40
0.0
 40
0.0
 40
1.0
 40
1.0
 40
1.0
 40
1.0
 10
0.568058340046818
 20
10.59386867989503
 30
0.0
 10
0.4768176713974981
 20
10.59386867989503
 30
0.0
 10
0.3147491456483493
 20
10.575198185086
 30
0.0
 10
0.3173564019183885
 20
10.48399477599227
 30
0.0
  0
LINE
  5
9E
330
1F
100
AcDbEntity
  8
Default
100
AcDbLine
 10
0.3173564019183885
 20
10.48399477599227
 30
0.0
 11
0.3571211419356359
 21
9.092999999999668
 31
0.0
  0
ARC
  5
9F
330
1F
100
AcDbEntity
  8
Default
100
AcDbCircle
 10
-218.8531850275464
 20
2.822871523077489
 30
0.0
 40
219.2999608801497
100
AcDbArc
 50
1.311504589706112
 51
1.638399122484187
  0
SPLINE
  5
A0
330
1F
100
AcDbEntity
  8
Default
100
AcDbSpline
210
0.0
220
0.0
230
1.0
 70
     8
 71
     3
 72
     8
 73
     4
 74
     0
 42
0.0000000001
 43
0.0000000001
 40
0.0
 40
0.0
 40
0.0
 40
0.0
 40
1.0
 40
1.0
 40
1.0
 40
1.0
 10
0.389326655878051
 20
7.842225343904866
 30
0.0
 10
0.3909762366264999
 20
7.770172597789864
 30
0.0
 10
0.3754058671929954
 20
7.698539917034305
 30
0.0
 10
0.3617123610420663
 20
7.627781120912177
 30
0.0
  0
SPLINE
  5
A1
330
1F
100
AcDbEntity
  8
Default
100
AcDbSpline
210
0.0
220
0.0
230
1.0
 70
    12
 71
     3
 72
    12
 73
     8
 74
     0
 42
0.0000000001
 43
0.0000000001
 40
-1.0
 40
-1.0
 40
-1.0
 40
-1.0
 40
-0.7500117976938739
 40
-0.7500117976938739
 40
-0.5000773685227505
 40
-0.5000773685227505
 40
0.0
 40
0.0
 40
0.0
 40
0.0
 10
0.3617123610420663
 20
7.627781120912177
 30
0.0
 41
1.0
 10
0.3534121306581142
 20
7.584891133276409
 30
0.0
 41
1.0
 10
0.3428990241193759
 20
7.541182029316163
 30
0.0
 41
1.0
 10
0.3117838028734923
 20
7.454435056867291
 30
0.0
 41
1.0
 10
0.2911405101512798
 20
7.411059513276841
 30
0.0
 41
1.0
 10
0.2004219738061295
 20
7.306948223150249
 30
0.0
 41
1.0
 10
0.1056950685711797
 20
7.275454149297301
 30
0.0
 41
1.0
 10
-0.0000000000000853
 20
7.274073601106993
 30
0.0
 41
1.0
  0
SPLINE
  5
A2
330
1F
100
AcDbEntity
  8
Default
100
AcDbSpline
210
0.0
220
0.0
230
1.0
 70
    12
 71
     3
 72
    12
 73
     8
 74
     0
 42
0.0000000001
 43
0.0000000001
 40
0.0
 40
0.0
 40
0.0
 40
0.0
 40
0.5000773685227505
 40
0.5000773685227505
 40
0.7500117976938739
 40
0.7500117976938739
 40
1.0
 40
1.0
 40
1.0
 40
1.0
 10
-0.0000000000000853
 20
7.274073601106993
 30
0.0
 41
1.0
 10
-0.1056950685713502
 20
7.275454149297301
 30
0.0
 41
1.0
 10
-0.2004219738063142
 20
7.306948223150249
 30
0.0
 41
1.0
 10
-0.2911405101514646
 20
7.411059513276841
 30
0.0
 41
1.0
 10
-0.3117838028736912
 20
7.454435056867291
 30
0.0
 41
1.0
 10
-0.3428990241195606
 20
7.541182029316163
 30
0.0
 41
1.0
 10
-0.3534121306583131
 20
7.584891133276409
 30
0.0
 41
1.0
 10
-0.361712361042251
 20
7.627781120912177
 30
0.0
 41
1.0
  0
SPLINE
  5
A3
330
1F
100
AcDbEntity
  8
Default
100
AcDbSpline
210
0.0
220
0.0
230
1.0
 70
     8
 71
     3
 72
     8
 73
     4
 74
     0
 42
0.0000000001
 43
0.0000000001
 40
-1.0
 40
-1.0
 40
-1.0
 40
-1.0
 40
0.0
 40
0.0
 40
0.0
 40
0.0
 10
-0.361712361042251
 20
7.627781120912177
 30
0.0
 10
-0.3754058671931944
 20
7.698539917034305
 30
0.0
 10
-0.3909762366266847
 20
7.770172597789864
 30
0.0
 10
-0.38932665587825
 20
7.842225343904866
 30
0.0
  0
ARC
  5
A4
330
1F
100
AcDbEntity
  8
Default
100
AcDbCircle
 10
218.8531850275463
 20
2.822871523077489
 30
0.0
 40
219.2999608801497
100
AcDbArc
 50
178.3616008775161
 51
178.6884954102942
  0
LINE
  5
A5
330
1F
100
AcDbEntity
  8
Default
100
AcDbLine
 10
-0.3571211419358349
 20
9.092999999999668
 30
0.0
 11
-0.3173564019185733
 21
10.48399477599227
 31
0.0
  0
SPLINE
  5
A6
330
1F
100
AcDbEntity
  8
Default
100
AcDbSpline
210
0.0
220
0.0
230
1.0
 70
     8
 71
     3
 72
     8
 73
     4
 74
     0
 42
0.0000000001
 43
0.0000000001
 40
-1.0
 40
-1.0
 40
-1.0
 40
-1.0
 40
0.0
 40
0.0
 40
0.0
 40
0.0
 10
-0.3173564019185733
 20
10.48399477599227
 30
0.0
 10
-0.3147491456485341
 20
10.575198185086
 30
0.0
 10
-0.4768176713976686
 20
10.59386867989503
 30
0.0
 10
-0.5680583400470027
 20
10.59386867989503
 30
0.0
  0
POLYLINE
  5
A7
330
1F
100
AcDbEntity
  8
Default
100
AcDb2dPolyline
 66
     1
 10
0.0
 20
0.0
 30
0.0
  0
VERTEX
  5
A8
330
A7
100
AcDbEntity
  8
Default
100
AcDbVertex
100
AcDb2dVertex
 10
-0.5680583400470027
 20
10.59386867989503
 30
0.0
  0
VERTEX
  5
A9
330
A7
100
AcDbEntity
  8
Default
100
AcDbVertex
100
AcDb2dVertex
 10
-8.116378728249884
 20
10.59386867989503
 30
0.0
  0
SEQEND
  5
AA
330
A7
100
AcDbEntity
  8
Default
  0
SPLINE
  5
AB
330
1F
100
AcDbEntity
  8
Default
100
AcDbSpline
210
0.0
220
0.0
230
1.0
 70
     8
 71
     3
 72
     8
 73
     4
 74
     0
 42
0.0000000001
 43
0.0000000001
 40
-1.0
 40
-1.0
 40
-1.0
 40
-1.0
 40
0.0
 40
0.0
 40
0.0
 40
0.0
 10
-8.116378728249884
 20
10.59386867989503
 30
0.0
 10
-8.126078661308028
 20
10.59386867989503
 30
0.0
 10
-8.136026712229025
 20
10.59622988768334
 30
0.0
 10
-8.144691826956276
 20
10.60058930141639
 30
0.0
  0
SPLINE
  5
AC
330
1F
100
AcDbEntity
  8
Default
100
AcDbSpline
210
0.0
220
0.0
230
1.0
 70
    24
 71
     2
 72
     6
 73
     3
 74
     0
 42
0.0000000001
 43
0.0000000001
 40
0.0
 40
0.0
 40
0.0
 40
0.5282062900802154
 40
0.5282062900802154
 40
0.5282062900802154
 10
-8.144691826956276
 20
10.60058930141639
 30
0.0
 10
-8.38061964603336
 20
10.71928443781888
 30
0.0
 10
-8.616547465110443
 20
10.83797957422137
 30
0.0
  0
SPLINE
  5
AD
330
1F
100
AcDbEntity
  8
Default
100
AcDbSpline
210
0.0
220
0.0
230
1.0
 70
     8
 71
     3
 72
     8
 73
     4
 74
     0
 42
0.0000000001
 43
0.0000000001
 40
-1.0
 40
-1.0
 40
-1.0
 40
-1.0
 40
0.0
 40
0.0
 40
0.0
 40
0.0
 10
-8.616547465110443
 20
10.83797957422137
 30
0.0
 10
-8.650202989500912
 20
10.85491164723357
 30
0.0
 10
-8.679109936132022
 20
10.89488916869128
 30
0.0
 10
-8.67843009855899
 20
10.93255781930903
 30
0.0
  0
SPLINE
  5
AE
330
1F
100
AcDbEntity
  8
Default
100
AcDbSpline
210
0.0
220
0.0
230
1.0
 70
    12
 71
     2
 72
     6
 73
     3
 74
     0
 42
0.0000000001
 43
0.0000000001
 40
0.0
 40
0.0
 40
0.0
 40
0.6455488671731082
 40
0.6455488671731082
 40
0.6455488671731082
 10
-8.67843009855899
 20
10.93255781930903
 30
0.0
 41
1.0
 10
-8.672589099198786
 20
11.25619771931959
 30
0.0
 41
0.9957505983657335
 10
-8.607491851396105
 20
11.57327696884704
 30
0.0
 41
1.0
  0
SPLINE
  5
AF
330
1F
100
AcDbEntity
  8
Default
100
AcDbSpline
210
0.0
220
0.0
230
1.0
 70
    12
 71
     2
 72
     6
 73
     3
 74
     0
 42
0.0000000001
 43
0.0000000001
 40
0.0
 40
0.0
 40
0.0
 40
0.3420516372259224
 40
0.3420516372259224
 40
0.3420516372259224
 10
-8.607491851396105
 20
11.57327696884704
 30
0.0
 41
1.0
 10
-8.566436113329047
 20
11.7729360890644
 30
0.0
 41
0.7751522767319682
 10
-8.362599576296077
 20
11.77300000000003
 30
0.0
 41
1.0
  0
POLYLINE
  5
B0
330
1F
100
AcDbEntity
  8
Default
100
AcDb2dPolyline
 66
     1
 10
0.0
 20
0.0
 30
0.0
  0
VERTEX
  5
B1
330
B0
100
AcDbEntity
  8
Default
100
AcDbVertex
100
AcDb2dVertex
 10
-8.362599576296077
 20
11.77300000000003
 30
0.0
  0
VERTEX
  5
B2
330
B0
100
AcDbEntity
  8
Default
100
AcDbVertex
100
AcDb2dVertex
 10
8.362599576295892
 20
11.77300000000003
 30
0.0
  0
SEQEND
  5
B3
330
B0
100
AcDbEntity
  8
Default
  0
SPLINE
  5
B4
330
1F
100
AcDbEntity
  8
Default
100
AcDbSpline
210
0.0
220
0.0
230
1.0
 70
    24
 71
     2
 72
     6
 73
     3
 74
     0
 42
0.0000000001
 43
0.0000000001
 40
0.0
 40
0.0
 40
0.0
 40
1.500868679895007
 40
1.500868679895007
 40
1.500868679895007
 10
1.289999999999907
 20
10.59386867989504
 30
0.0
 10
1.289999999999907
 20
9.843434339947537
 30
0.0
 10
1.289999999999907
 20
9.093000000000034
 30
0.0
  0
POLYLINE
  5
B5
330
1F
100
AcDbEntity
  8
Default
100
AcDb2dPolyline
 66
     1
 10
0.0
 20
0.0
 30
0.0
  0
VERTEX
  5
B6
330
B5
100
AcDbEntity
  8
Default
100
AcDbVertex
100
AcDb2dVertex
 10
1.289999999999907
 20
9.093000000000034
 30
0.0
  0
VERTEX
  5
B7
330
B5
100
AcDbEntity
  8
Default
100
AcDbVertex
100
AcDb2dVertex
 10
0.3571211419356359
 20
9.093000000000034
 30
0.0
  0
SEQEND
  5
B8
330
B5
100
AcDbEntity
  8
Default
  0
SPLINE
  5
B9
330
1F
100
AcDbEntity
  8
Default
100
AcDbSpline
210
0.0
220
0.0
230
1.0
 70
    24
 71
     2
 72
     6
 73
     3
 74
     0
 42
0.0000000001
 43
0.0000000001
 40
0.0
 40
0.0
 40
0.0
 40
1.500868679895007
 40
1.500868679895007
 40
1.500868679895007
 10
-1.290000000000092
 20
10.59386867989504
 30
0.0
 10
-1.290000000000092
 20
9.843434339947537
 30
0.0
 10
-1.290000000000092
 20
9.093000000000034
 30
0.0
  0
POLYLINE
  5
BA
330
1F
100
AcDbEntity
  8
Default
100
AcDb2dPolyline
 66
     1
 10
0.0
 20
0.0
 30
0.0
  0
VERTEX
  5
BB
330
BA
100
AcDbEntity
  8
Default
100
AcDbVertex
100
AcDb2dVertex
 10
-1.290000000000092
 20
9.093000000000034
 30
0.0
  0
VERTEX
  5
BC
330
BA
100
AcDbEntity
  8
Default
100
AcDbVertex
100
AcDb2dVertex
 10
-0.3571211419358349
 20
9.093000000000034
 30
0.0
  0
SEQEND
  5
BD
330
BA
100
AcDbEntity
  8
Default
  0
SPLINE
  5
BE
330
1F
100
AcDbEntity
  8
Default
100
AcDbSpline
210
0.0
220
0.0
230
1.0
 70
    24
 71
     2
 72
     6
 73
     3
 74
     0
 42
0.0000000001
 43
0.0000000001
 40
0.0
 40
0.0
 40
0.0
 40
0.9316089876431572
 40
0.9316089876431572
 40
0.9316089876431572
 10
-0.3583910123567335
 20
9.053000000000035
 30
0.0
 10
-0.824195506178313
 20
9.053000000000035
 30
0.0
 10
-1.289999999999893
 20
9.053000000000035
 30
0.0
  0
POLYLINE
  5
BF
330
1F
100
AcDbEntity
  8
Default
100
AcDb2dPolyline
 66
     1
 10
0.0
 20
0.0
 30
0.0
  0
VERTEX
  5
C0
330
BF
100
AcDbEntity
  8
Default
100
AcDbVertex
100
AcDb2dVertex
 10
-1.289999999999893
 20
9.053000000000035
 30
0.0
  0
VERTEX
  5
C1
330
BF
100
AcDbEntity
  8
Default
100
AcDbVertex
100
AcDb2dVertex
 10
-1.284781832113339
 20
6.503000000000016
 30
0.0
  0
SEQEND
  5
C2
330
BF
100
AcDbEntity
  8
Default
  0
SPLINE
  5
C3
330
1F
100
AcDbEntity
  8
Default
100
AcDbSpline
210
0.0
220
0.0
230
1.0
 70
    24
 71
     2
 72
     6
 73
     3
 74
     0
 42
0.0000000001
 43
0.0000000001
 40
0.0
 40
0.0
 40
0.0
 40
2.574781832113447
 40
2.574781832113447
 40
2.574781832113447
 10
-1.284781832113339
 20
6.503000000000016
 30
0.0
 10
0.0013045419716491
 20
6.503000000000016
 30
0.0
 10
1.287390916056637
 20
6.503000000000016
 30
0.0
  0
POLYLINE
  5
C4
330
1F
100
AcDbEntity
  8
Default
100
AcDb2dPolyline
 66
     1
 10
0.0
 20
0.0
 30
0.0
  0
VERTEX
  5
C5
330
C4
100
AcDbEntity
  8
Default
100
AcDbVertex
100
AcDb2dVertex
 10
1.287390916056637
 20
6.503000000000016
 30
0.0
  0
VERTEX
  5
C6
330
C4
100
AcDbEntity
  8
Default
100
AcDbVertex
100
AcDb2dVertex
 10
1.289999999999708
 20
9.053000000000035
 30
0.0
  0
SEQEND
  5
C7
330
C4
100
AcDbEntity
  8
Default
  0
SPLINE
  5
C8
330
1F
100
AcDbEntity
  8
Default
100
AcDbSpline
210
0.0
220
0.0
230
1.0
 70
    24
 71
     2
 72
     6
 73
     3
 74
     0
 42
0.0000000001
 43
0.0000000001
 40
-0.9316089876431572
 40
-0.9316089876431572
 40
-0.9316089876431572
 40
0.0
 40
0.0
 40
0.0
 10
1.289999999999708
 20
9.053000000000035
 30
0.0
 10
0.8241955061781283
 20
9.053000000000035
 30
0.0
 10
0.3583910123565488
 20
9.053000000000035
 30
0.0
  0
ARC
  5
C9
330
1F
100
AcDbEntity
  8
Make2D visible lines
100
AcDbCircle
 10
1.779691662765799
 20
6.818194083065457
 30
0.0
 40
0.5393705911335501
100
AcDbArc
 50
120.8900046058084
 51
153.8057293911457
  0
ARC
  5
CA
330
1F
100
AcDbEntity
  8
Make2D visible lines
100
AcDbCircle
 10
617.1476522687564
 20
-1021.79392523874
 30
0.0
 40
1199.172182988689
100
AcDbArc
 50
120.5802928678849
 51
120.890004605816
  0
ARC
  5
CB
330
1F
100
AcDbEntity
  8
Make2D visible lines - Tangent
100
AcDbCircle
 10
1.333210737870218
 20
8.88028252615614
 30
0.0
 40
0.1665138748586413
100
AcDbArc
 50
255.9964022489727
 51
294.9990516845222
  0
LINE
  5
CC
330
1F
100
AcDbEntity
  8
Make2D visible lines - Tangent
100
AcDbLine
 10
1.403580044416614
 20
8.729368540003039
 30
0.0
 11
5.402186284874801
 21
10.59386867988856
 31
0.0
  0
SPLINE
  5
CD
330
1F
100
AcDbEntity
  8
Make2D visible lines
100
AcDbSpline
210
0.0
220
0.0
230
1.0
 70
    24
 71
     2
 72
     6
 73
     3
 74
     0
 42
0.0000000001
 43
0.0000000001
 40
0.0
 40
0.0
 40
0.0
 40
0.0399960912937067
 40
0.0399960912937067
 40
0.0399960912937067
 10
1.199301797402541
 20
9.093000000000027
 30
0.0
 10
1.199650811423098
 20
9.073005000152389
 30
0.0
 10
1.199999825443655
 20
9.053010000304749
 30
0.0
  0
POLYLINE
  5
CE
330
1F
100
AcDbEntity
  8
Default
100
AcDb2dPolyline
 66
     1
 10
0.0
 20
0.0
 30
0.0
  0
VERTEX
  5
CF
330
CE
100
AcDbEntity
  8
Default
100
AcDbVertex
100
AcDb2dVertex
 10
-0.5680583400470027
 20
10.59386867989503
 30
0.0
  0
VERTEX
  5
D0
330
CE
100
AcDbEntity
  8
Default
100
AcDbVertex
100
AcDb2dVertex
 10
0.568058340046818
 20
10.59386867989503
 30
0.0
  0
SEQEND
  5
D1
330
CE
100
AcDbEntity
  8
Default
  0
ARC
  5
D2
330
1F
100
AcDbEntity
  8
Make2D visible lines
100
AcDbCircle
 10
-1.779691662765984
 20
6.818194083065457
 30
0.0
 40
0.5393705911335501
100
AcDbArc
 50
26.19427060885427
 51
59.10999539419156
  0
ARC
  5
D3
330
1F
100
AcDbEntity
  8
Make2D visible lines
100
AcDbCircle
 10
-617.1476522687565
 20
-1021.79392523874
 30
0.0
 40
1199.172182988689
100
AcDbArc
 50
59.10999539418733
 51
59.41970713211845
  0
ARC
  5
D4
330
1F
100
AcDbEntity
  8
Make2D visible lines - Tangent
100
AcDbCircle
 10
-1.333210737870402
 20
8.88028252615614
 30
0.0
 40
0.1665138748586413
100
AcDbArc
 50
245.0009483154786
 51
284.0035977510282
  0
LINE
  5
D5
330
1F
100
AcDbEntity
  8
Make2D visible lines - Tangent
100
AcDbLine
 10
-1.403580044416799
 20
8.729368540003039
 30
0.0
 11
-5.402186284874986
 21
10.59386867988856
 31
0.0
  0
SPLINE
  5
D6
330
1F
100
AcDbEntity
  8
Make2D visible lines
100
AcDbSpline
210
0.0
220
0.0
230
1.0
 70
    24
 71
     2
 72
     6
 73
     3
 74
     0
 42
0.0000000001
 43
0.0000000001
 40
0.0
 40
0.0
 40
0.0
 40
0.0399960912937067
 40
0.0399960912937067
 40
0.0399960912937067
 10
-1.199301797402711
 20
9.093000000000027
 30
0.0
 10
-1.199650811423268
 20
9.073005000152389
 30
0.0
 10
-1.199999825443825
 20
9.053010000304749
 30
0.0
  0
SPLINE
  5
D7
330
1F
100
AcDbEntity
  8
Make2D visible lines
100
AcDbSpline
210
0.0
220
0.0
230
1.0
 70
    24
 71
     2
 72
     6
 73
     3
 74
     0
 42
0.0000000001
 43
0.0000000001
 40
0.0
 40
0.0
 40
0.0
 40
0.0401014385929007
 40
0.0401014385929007
 40
0.0401014385929007
 10
38.61939466878823
 20
6.462904669050456
 30
0.0
 10
38.61904473548572
 20
6.48295233452524
 30
0.0
 10
38.61869480218319
 20
6.503000000000023
 30
0.0
  0
LINE
  5
D8
330
1F
100
AcDbEntity
  8
Make2D visible lines
100
AcDbLine
 10
36.1152235647377
 20
5.694156213727073
 30
0.0
 11
36.1302304678084
 21
6.463000000000015
 31
0.0
  0
LINE
  5
D9
330
1F
100
AcDbEntity
  8
Make2D visible lines
100
AcDbLine
 10
36.1302304678084
 20
6.463000000000015
 30
0.0
 11
38.70710811732117
 21
6.463000000000015
 31
0.0
  0
LINE
  5
DA
330
1F
100
AcDbEntity
  8
Make2D visible lines
100
AcDbLine
 10
38.70710811732117
 20
6.463000000000015
 30
0.0
 11
38.72211502039188
 21
5.694156213727073
 31
0.0
  0
SPLINE
  5
DB
330
1F
100
AcDbEntity
  8
Make2D visible lines
100
AcDbSpline
210
0.0
220
0.0
230
1.0
 70
    12
 71
     3
 72
    11
 73
     7
 74
     0
 42
0.0000000001
 43
0.0000000001
 40
-1.0
 40
-1.0
 40
-1.0
 40
-1.0
 40
-0.75000000000032
 40
-0.5000000000001401
 40
-0.2499999999999602
 40
0.0
 40
0.0
 40
0.0
 40
0.0
 10
38.33184996927333
 20
6.382999045766026
 30
0.0
 41
1.0
 10
38.33276316595039
 20
6.309011631162429
 30
0.0
 41
1.0
 10
38.35742919436108
 20
6.156227170012553
 30
0.0
 41
1.0
 10
38.44756115245549
 20
5.941965920377291
 30
0.0
 41
1.0
 10
38.57544003633613
 20
5.771964450750337
 30
0.0
 41
1.0
 10
38.67559991631913
 20
5.707699549616576
 30
0.0
 41
1.0
 10
38.72684234737785
 20
5.692725175023858
 30
0.0
 41
1.0
  0
SPLINE
  5
DC
330
1F
100
AcDbEntity
  8
Make2D visible lines
100
AcDbSpline
210
0.0
220
0.0
230
1.0
 70
    24
 71
     2
 72
     6
 73
     3
 74
     0
 42
0.0000000001
 43
0.0000000001
 40
0.0
 40
0.0
 40
0.0
 40
8.866685525010693
 40
8.866685525010693
 40
8.866685525010693
 10
38.72684234737785
 20
5.692725175023858
 30
0.0
 10
43.00037116817897
 20
4.444736992526538
 30
0.0
 10
47.27389998898008
 20
3.196748810029217
 30
0.0
  0
SPLINE
  5
DD
330
1F
100
AcDbEntity
  8
Make2D visible lines
100
AcDbSpline
210
0.0
220
0.0
230
1.0
 70
    12
 71
     3
 72
    15
 73
    11
 74
     0
 42
0.0000000001
 43
0.0000000001
 40
-2.981790466646582
 40
-2.981790466646582
 40
-2.981790466646582
 40
-2.981790466646582
 40
-2.616657786617163
 40
-2.192645165643878
 40
-2.102734417348108
 40
-2.004984739545305
 40
-0.0458357933849737
 40
-0.0458357933849737
 40
-0.0458357933849737
 40
0.0
 40
0.0
 40
0.0
 40
0.0
 10
47.27389998898008
 20
3.196748810029217
 30
0.0
 41
1.0
 10
47.42476851038452
 20
3.144520779471577
 30
0.0
 41
1.0
 10
47.63121363438961
 20
2.965981423765931
 30
0.0
 41
1.0
 10
47.73845010795878
 20
2.685804255123777
 30
0.0
 41
1.0
 10
47.77036909052102
 20
2.484521370671056
 30
0.0
 41
1.0
 10
47.79987839288377
 20
1.769312895268124
 30
0.0
 41
1.0
 10
47.82238761191519
 20
1.084304406818145
 30
0.0
 41
1.0
 10
47.84239778406371
 20
0.4312548314551587
 30
0.0
 41
1.0
 10
47.84293739071902
 20
0.4141813191650068
 30
0.0
 41
0.8162530315979053
 10
47.83163805195798
 20
0.4014560510364092
 30
0.0
 41
0.8162530315979053
 10
47.81472842550745
 20
0.4000937153915669
 30
0.0
 41
1.0
  0
SPLINE
  5
DE
330
1F
100
AcDbEntity
  8
Make2D visible lines - Tangent
100
AcDbSpline
210
0.0
220
0.0
230
1.0
 70
    12
 71
     3
 72
    19
 73
    15
 74
     0
 42
0.0000000001
 43
0.0000000001
 40
-1.776830323858946
 40
-1.776830323858946
 40
-1.776830323858946
 40
-1.776830323858946
 40
-1.730740559805822
 40
-1.730740559805822
 40
-1.730740559805822
 40
-1.166323066479676
 40
-0.3953525441163947
 40
-0.3329837224435752
 40
-0.146821164453521
 40
-0.066479626133287
 40
0.0
 40
0.0
 40
0.0
 40
7.409842642081587
 40
7.409842642081587
 40
7.409842642081587
 40
7.409842642081587
 10
46.72300364184254
 20
0.4000000001201044
 30
0.0
 41
1.000010664015164
 10
46.70593900856387
 20
0.4001332222571771
 30
0.0
 41
0.8156224804937415
 10
46.69368646627655
 20
0.4120110895509939
 30
0.0
 41
0.8156189258220201
 10
46.6930236076831
 20
0.4290634387891394
 30
0.0
 41
1.0
 10
46.68702806996109
 20
0.6171335124673775
 30
0.0
 41
1.0
 10
46.67051231580289
 20
1.061871383443986
 30
0.0
 41
1.0
 10
46.66468166058467
 20
1.527948877959233
 30
0.0
 41
1.0
 10
46.65683995584077
 20
1.867531567168536
 30
0.0
 41
1.0
 10
46.61891824697167
 20
1.974665697475471
 30
0.0
 41
1.0
 10
46.54868626858617
 20
2.060462021586259
 30
0.0
 41
1.0
 10
46.50288747801878
 20
2.083566369208941
 30
0.0
 41
1.0
 10
46.46868591421295
 20
2.090684750335245
 30
0.0
 41
1.0
 10
44.03646029155551
 20
2.568256160055772
 30
0.0
 41
0.999999926815662
 10
41.60829064944323
 20
3.043852428734947
 30
0.0
 41
0.999999926815662
 10
39.16905207218758
 20
3.520469192765971
 30
0.0
 41
1.0
  0
SPLINE
  5
DF
330
1F
100
AcDbEntity
  8
Make2D visible lines - Tangent
100
AcDbSpline
210
0.0
220
0.0
230
1.0
 70
    12
 71
     2
 72
     6
 73
     3
 74
     0
 42
0.0000000001
 43
0.0000000001
 40
-0.9145789757291128
 40
-0.9145789757291128
 40
-0.9145789757291128
 40
0.0
 40
0.0
 40
0.0
 10
39.16905207218758
 20
3.520469192765971
 30
0.0
 41
1.0
 10
38.70716226903544
 20
3.625046535779718
 30
0.0
 41
0.9971288252443241
 10
38.25012194528325
 20
3.657995578618201
 30
0.0
 41
1.0
  0
SPLINE
  5
E0
330
1F
100
AcDbEntity
  8
Make2D visible lines - Tangent
100
AcDbSpline
210
0.0
220
0.0
230
1.0
 70
    12
 71
     2
 72
     6
 73
     3
 74
     0
 42
0.0000000001
 43
0.0000000001
 40
-0.1809632896943791
 40
-0.1809632896943791
 40
-0.1809632896943791
 40
0.0
 40
0.0
 40
0.0
 10
38.25012194528325
 20
3.657995578618201
 30
0.0
 41
1.0
 10
38.15956316686833
 20
3.662987693469206
 30
0.0
 41
0.9974315730756723
 10
38.06308143919179
 20
3.682313990687128
 30
0.0
 41
1.0
  0
SPLINE
  5
E1
330
1F
100
AcDbEntity
  8
Make2D visible lines - Tangent
100
AcDbSpline
210
0.0
220
0.0
230
1.0
 70
    12
 71
     2
 72
     6
 73
     3
 74
     0
 42
0.0000000001
 43
0.0000000001
 40
-0.6434477656097529
 40
-0.6434477656097529
 40
-0.6434477656097529
 40
0.0
 40
0.0
 40
0.0
 10
38.06308143919179
 20
3.682313990687128
 30
0.0
 41
1.0
 10
37.7415955621475
 20
3.760045174446678
 30
0.0
 41
0.9940965158983979
 10
37.41866929256479
 20
3.766820847692417
 30
0.0
 41
1.0
  0
POLYLINE
  5
E2
330
1F
100
AcDbEntity
  8
Default
100
AcDb2dPolyline
 66
     1
 10
0.0
 20
0.0
 30
0.0
  0
VERTEX
  5
E3
330
E2
100
AcDbEntity
  8
Default
100
AcDbVertex
100
AcDb2dVertex
 10
47.82899008383269
 20
0.399999999945464
 30
0.0
  0
VERTEX
  5
E4
330
E2
100
AcDbEntity
  8
Default
100
AcDbVertex
100
AcDb2dVertex
 10
46.70923672779602
 20
0.3999999999601256
 30
0.0
  0
SEQEND
  5
E5
330
E2
100
AcDbEntity
  8
Default
  0
SPLINE
  5
E6
330
1F
100
AcDbEntity
  8
Default
100
AcDbSpline
210
0.0
220
0.0
230
1.0
 70
    12
 71
     2
 72
     6
 73
     3
 74
     0
 42
0.0000000001
 43
0.0000000001
 40
0.0
 40
0.0
 40
0.0
 40
0.0234509349460152
 40
0.0234509349460152
 40
0.0234509349460152
 10
46.70923672779602
 20
0.3999999999601256
 30
0.0
 41
1.0
 10
46.6946749657412
 20
0.3994296958625449
 30
0.0
 41
0.7311049470194118
 10
46.69423875706318
 20
0.3848484327136505
 30
0.0
 41
1.0
  0
SPLINE
  5
E7
330
1F
100
AcDbEntity
  8
Default
100
AcDbSpline
210
0.0
220
0.0
230
1.0
 70
    24
 71
     2
 72
     6
 73
     3
 74
     0
 42
0.0000000001
 43
0.0000000001
 40
0.0
 40
0.0
 40
0.0
 40
0.2302029156997716
 40
0.2302029156997716
 40
0.2302029156997716
 10
46.69423875706318
 20
0.3848484327136505
 30
0.0
 10
46.69551863857589
 20
0.2696526866620715
 30
0.0
 10
46.69679852008861
 20
0.1544569406104924
 30
0.0
  0
SPLINE
  5
E8
330
1F
100
AcDbEntity
  8
Default
100
AcDbSpline
210
0.0
220
0.0
230
1.0
 70
    12
 71
     2
 72
     6
 73
     3
 74
     0
 42
0.0000000001
 43
0.0000000001
 40
0.0
 40
0.0
 40
0.0
 40
0.2433059460872006
 40
0.2433059460872006
 40
0.2433059460872006
 10
46.69679852008861
 20
0.1544569406104924
 30
0.0
 41
1.0
 10
46.69851032236487
 20
0.000004130713898
 30
0.0
 41
0.7110160985064136
 10
46.85278468968492
 20
0.0000000000141396
 30
0.0
 41
1.0
  0
LINE
  5
E9
330
1F
100
AcDbEntity
  8
Default
100
AcDbLine
 10
46.85278468968492
 20
0.0000000000141396
 30
0.0
 11
47.69843095102348
 21
0.0000000000280556
 31
0.0
  0
SPLINE
  5
EA
330
1F
100
AcDbEntity
  8
Default
100
AcDbSpline
210
0.0
220
0.0
230
1.0
 70
    12
 71
     2
 72
     8
 73
     5
 74
     0
 42
0.0000000001
 43
0.0000000001
 40
0.0
 40
0.0
 40
0.0
 40
0.1260117615689853
 40
0.1260117615689853
 40
0.2520235231379707
 40
0.2520235231379707
 40
0.2520235231379707
 10
47.69843095102348
 20
0.0000000000280556
 30
0.0
 41
1.0
 10
47.7651183550541
 20
0.0000187838016952
 30
0.0
 41
0.9195801389452859
 10
47.81119021603227
 20
0.048207641333849
 30
0.0
 41
1.0
 10
47.85726207701043
 20
0.0963964988660028
 30
0.0
 41
0.9195801389452859
 10
47.85428262124682
 20
0.1631126379907652
 30
0.0
 41
1.0
  0
SPLINE
  5
EB
330
1F
100
AcDbEntity
  8
Default
100
AcDbSpline
210
0.0
220
0.0
230
1.0
 70
    12
 71
     2
 72
     6
 73
     3
 74
     0
 42
0.0000000001
 43
0.0000000001
 40
0.0
 40
0.0
 40
0.0
 40
0.2227059867082511
 40
0.2227059867082511
 40
0.2227059867082511
 10
47.85428262124682
 20
0.1631126379907652
 30
0.0
 41
1.0
 10
47.8491196597222
 20
0.2744594309887802
 30
0.0
 41
0.999999998781251
 10
47.84396786618922
 20
0.3857268171168881
 30
0.0
 41
1.0
  0
SPLINE
  5
EC
330
1F
100
AcDbEntity
  8
Default
100
AcDbSpline
210
0.0
220
0.0
230
1.0
 70
    12
 71
     2
 72
     6
 73
     3
 74
     0
 42
0.0000000001
 43
0.0000000001
 40
0.0
 40
0.0
 40
0.0
 40
0.0225621385862125
 40
0.0225621385862125
 40
0.0225621385862125
 10
47.84396786618922
 20
0.3857268171168881
 30
0.0
 41
1.0
 10
47.84272043359667
 20
0.3994454738101918
 30
0.0
 41
0.7518431492968729
 10
47.82899008383269
 20
0.399999999945464
 30
0.0
 41
1.0
  0
SPLINE
  5
ED
330
1F
100
AcDbEntity
  8
Make2D visible lines
100
AcDbSpline
210
0.0
220
0.0
230
1.0
 70
    12
 71
     3
 72
    11
 73
     7
 74
     0
 42
0.0000000001
 43
0.0000000001
 40
-1.0
 40
-1.0
 40
-1.0
 40
-1.0
 40
-0.75000000000032
 40
-0.5000000000001401
 40
-0.2499999999999602
 40
0.0
 40
0.0
 40
0.0
 40
0.0
 10
36.50548861585624
 20
6.382999045766026
 30
0.0
 41
1.0
 10
36.50457541917919
 20
6.309011631162429
 30
0.0
 41
1.0
 10
36.4799093907685
 20
6.156227170012553
 30
0.0
 41
1.0
 10
36.38977743267408
 20
5.941965920377291
 30
0.0
 41
1.0
 10
36.26189854879345
 20
5.771964450750337
 30
0.0
 41
1.0
 10
36.16173866881044
 20
5.707699549616576
 30
0.0
 41
1.0
 10
36.11049623775173
 20
5.692725175023858
 30
0.0
 41
1.0
  0
SPLINE
  5
EE
330
1F
100
AcDbEntity
  8
Make2D visible lines
100
AcDbSpline
210
0.0
220
0.0
230
1.0
 70
    24
 71
     2
 72
     6
 73
     3
 74
     0
 42
0.0000000001
 43
0.0000000001
 40
0.0
 40
0.0
 40
0.0
 40
8.866685525010693
 40
8.866685525010693
 40
8.866685525010693
 10
36.11049623775173
 20
5.692725175023858
 30
0.0
 10
31.83696741695061
 20
4.444736992526538
 30
0.0
 10
27.5634385961495
 20
3.196748810029217
 30
0.0
  0
SPLINE
  5
EF
330
1F
100
AcDbEntity
  8
Make2D visible lines
100
AcDbSpline
210
0.0
220
0.0
230
1.0
 70
    12
 71
     3
 72
    15
 73
    11
 74
     0
 42
0.0000000001
 43
0.0000000001
 40
-2.981790466646582
 40
-2.981790466646582
 40
-2.981790466646582
 40
-2.981790466646582
 40
-2.616657786617163
 40
-2.192645165643878
 40
-2.102734417348108
 40
-2.004984739545305
 40
-0.0458357933849737
 40
-0.0458357933849737
 40
-0.0458357933849737
 40
0.0
 40
0.0
 40
0.0
 40
0.0
 10
27.5634385961495
 20
3.196748810029217
 30
0.0
 41
1.0
 10
27.41257007474506
 20
3.144520779471577
 30
0.0
 41
1.0
 10
27.20612495073997
 20
2.965981423765931
 30
0.0
 41
1.0
 10
27.0988884771708
 20
2.685804255123777
 30
0.0
 41
1.0
 10
27.06696949460856
 20
2.484521370671056
 30
0.0
 41
1.0
 10
27.0374601922458
 20
1.769312895268124
 30
0.0
 41
1.0
 10
27.01495097321439
 20
1.084304406818145
 30
0.0
 41
1.0
 10
26.99494080106587
 20
0.4312548314551587
 30
0.0
 41
1.0
 10
26.99440119441056
 20
0.4141813191650068
 30
0.0
 41
0.8162530315979053
 10
27.0057005331716
 20
0.4014560510364092
 30
0.0
 41
0.8162530315979053
 10
27.02261015962213
 20
0.4000937153915669
 30
0.0
 41
1.0
  0
SPLINE
  5
F0
330
1F
100
AcDbEntity
  8
Make2D visible lines - Tangent
100
AcDbSpline
210
0.0
220
0.0
230
1.0
 70
    12
 71
     3
 72
    19
 73
    15
 74
     0
 42
0.0000000001
 43
0.0000000001
 40
-1.776830323858946
 40
-1.776830323858946
 40
-1.776830323858946
 40
-1.776830323858946
 40
-1.730740559805822
 40
-1.730740559805822
 40
-1.730740559805822
 40
-1.166323066479676
 40
-0.3953525441163947
 40
-0.3329837224435752
 40
-0.146821164453521
 40
-0.066479626133287
 40
0.0
 40
0.0
 40
0.0
 40
7.409842642081587
 40
7.409842642081587
 40
7.409842642081587
 40
7.409842642081587
 10
28.11433494328704
 20
0.4000000001201044
 30
0.0
 41
1.000010664015164
 10
28.13139957656571
 20
0.4001332222571771
 30
0.0
 41
0.8156224804937415
 10
28.14365211885303
 20
0.4120110895509939
 30
0.0
 41
0.8156189258220201
 10
28.14431497744647
 20
0.4290634387891394
 30
0.0
 41
1.0
 10
28.15031051516849
 20
0.6171335124673775
 30
0.0
 41
1.0
 10
28.16682626932668
 20
1.061871383443986
 30
0.0
 41
1.0
 10
28.17265692454491
 20
1.527948877959233
 30
0.0
 41
1.0
 10
28.18049862928881
 20
1.867531567168536
 30
0.0
 41
1.0
 10
28.21842033815791
 20
1.974665697475471
 30
0.0
 41
1.0
 10
28.28865231654341
 20
2.060462021586259
 30
0.0
 41
1.0
 10
28.33445110711079
 20
2.083566369208941
 30
0.0
 41
1.0
 10
28.36865267091663
 20
2.090684750335245
 30
0.0
 41
1.0
 10
30.80087829357408
 20
2.568256160055772
 30
0.0
 41
0.999999926815662
 10
33.22904793568636
 20
3.043852428734947
 30
0.0
 41
0.999999926815662
 10
35.66828651294199
 20
3.520469192765971
 30
0.0
 41
1.0
  0
SPLINE
  5
F1
330
1F
100
AcDbEntity
  8
Make2D visible lines - Tangent
100
AcDbSpline
210
0.0
220
0.0
230
1.0
 70
    12
 71
     2
 72
     6
 73
     3
 74
     0
 42
0.0000000001
 43
0.0000000001
 40
-0.9145789757291128
 40
-0.9145789757291128
 40
-0.9145789757291128
 40
0.0
 40
0.0
 40
0.0
 10
35.66828651294199
 20
3.520469192765971
 30
0.0
 41
1.0
 10
36.13017631609414
 20
3.625046535779718
 30
0.0
 41
0.9971288252443241
 10
36.58721663984632
 20
3.657995578618201
 30
0.0
 41
1.0
  0
SPLINE
  5
F2
330
1F
100
AcDbEntity
  8
Make2D visible lines - Tangent
100
AcDbSpline
210
0.0
220
0.0
230
1.0
 70
    12
 71
     2
 72
     6
 73
     3
 74
     0
 42
0.0000000001
 43
0.0000000001
 40
-0.1809632896943791
 40
-0.1809632896943791
 40
-0.1809632896943791
 40
0.0
 40
0.0
 40
0.0
 10
36.58721663984632
 20
3.657995578618201
 30
0.0
 41
1.0
 10
36.67777541826125
 20
3.662987693469206
 30
0.0
 41
0.9974315730756723
 10
36.77425714593779
 20
3.682313990687128
 30
0.0
 41
1.0
  0
SPLINE
  5
F3
330
1F
100
AcDbEntity
  8
Make2D visible lines - Tangent
100
AcDbSpline
210
0.0
220
0.0
230
1.0
 70
    12
 71
     2
 72
     6
 73
     3
 74
     0
 42
0.0000000001
 43
0.0000000001
 40
-0.6434477656097529
 40
-0.6434477656097529
 40
-0.6434477656097529
 40
0.0
 40
0.0
 40
0.0
 10
36.77425714593779
 20
3.682313990687128
 30
0.0
 41
1.0
 10
37.09574302298206
 20
3.760045174446678
 30
0.0
 41
0.9940965158983979
 10
37.41866929256479
 20
3.766820847692417
 30
0.0
 41
1.0
  0
POLYLINE
  5
F4
330
1F
100
AcDbEntity
  8
Default
100
AcDb2dPolyline
 66
     1
 10
0.0
 20
0.0
 30
0.0
  0
VERTEX
  5
F5
330
F4
100
AcDbEntity
  8
Default
100
AcDbVertex
100
AcDb2dVertex
 10
27.00834850129689
 20
0.399999999945464
 30
0.0
  0
VERTEX
  5
F6
330
F4
100
AcDbEntity
  8
Default
100
AcDbVertex
100
AcDb2dVertex
 10
28.12810185733355
 20
0.3999999999601256
 30
0.0
  0
SEQEND
  5
F7
330
F4
100
AcDbEntity
  8
Default
  0
SPLINE
  5
F8
330
1F
100
AcDbEntity
  8
Default
100
AcDbSpline
210
0.0
220
0.0
230
1.0
 70
    12
 71
     2
 72
     6
 73
     3
 74
     0
 42
0.0000000001
 43
0.0000000001
 40
0.0
 40
0.0
 40
0.0
 40
0.0234509349460152
 40
0.0234509349460152
 40
0.0234509349460152
 10
28.12810185733355
 20
0.3999999999601256
 30
0.0
 41
1.0
 10
28.14266361938837
 20
0.3994296958625449
 30
0.0
 41
0.7311049470194118
 10
28.1430998280664
 20
0.3848484327136505
 30
0.0
 41
1.0
  0
SPLINE
  5
F9
330
1F
100
AcDbEntity
  8
Default
100
AcDbSpline
210
0.0
220
0.0
230
1.0
 70
    24
 71
     2
 72
     6
 73
     3
 74
     0
 42
0.0000000001
 43
0.0000000001
 40
0.0
 40
0.0
 40
0.0
 40
0.2302029156997716
 40
0.2302029156997716
 40
0.2302029156997716
 10
28.1430998280664
 20
0.3848484327136505
 30
0.0
 10
28.14181994655369
 20
0.2696526866620715
 30
0.0
 10
28.14054006504097
 20
0.1544569406104924
 30
0.0
  0
SPLINE
  5
FA
330
1F
100
AcDbEntity
  8
Default
100
AcDbSpline
210
0.0
220
0.0
230
1.0
 70
    12
 71
     2
 72
     6
 73
     3
 74
     0
 42
0.0000000001
 43
0.0000000001
 40
0.0
 40
0.0
 40
0.0
 40
0.2433059460872006
 40
0.2433059460872006
 40
0.2433059460872006
 10
28.14054006504097
 20
0.1544569406104924
 30
0.0
 41
1.0
 10
28.13882826276471
 20
0.000004130713898
 30
0.0
 41
0.7110160985064136
 10
27.98455389544465
 20
0.0000000000141396
 30
0.0
 41
1.0
  0
LINE
  5
FB
330
1F
100
AcDbEntity
  8
Default
100
AcDbLine
 10
27.98455389544465
 20
0.0000000000141396
 30
0.0
 11
27.13890763410609
 21
0.0000000000280556
 31
0.0
  0
SPLINE
  5
FC
330
1F
100
AcDbEntity
  8
Default
100
AcDbSpline
210
0.0
220
0.0
230
1.0
 70
    12
 71
     2
 72
     8
 73
     5
 74
     0
 42
0.0000000001
 43
0.0000000001
 40
0.0
 40
0.0
 40
0.0
 40
0.1260117615689853
 40
0.1260117615689853
 40
0.2520235231379707
 40
0.2520235231379707
 40
0.2520235231379707
 10
27.13890763410609
 20
0.0000000000280556
 30
0.0
 41
1.0
 10
27.07222023007548
 20
0.0000187838016952
 30
0.0
 41
0.9195801389452859
 10
27.02614836909731
 20
0.048207641333849
 30
0.0
 41
1.0
 10
26.98007650811914
 20
0.0963964988660028
 30
0.0
 41
0.9195801389452859
 10
26.98305596388276
 20
0.1631126379907652
 30
0.0
 41
1.0
  0
SPLINE
  5
FD
330
1F
100
AcDbEntity
  8
Default
100
AcDbSpline
210
0.0
220
0.0
230
1.0
 70
    12
 71
     2
 72
     6
 73
     3
 74
     0
 42
0.0000000001
 43
0.0000000001
 40
0.0
 40
0.0
 40
0.0
 40
0.2227059867082511
 40
0.2227059867082511
 40
0.2227059867082511
 10
26.98305596388276
 20
0.1631126379907652
 30
0.0
 41
1.0
 10
26.98821892540738
 20
0.2744594309887802
 30
0.0
 41
0.999999998781251
 10
26.99337071894035
 20
0.3857268171168881
 30
0.0
 41
1.0
  0
SPLINE
  5
FE
330
1F
100
AcDbEntity
  8
Default
100
AcDbSpline
210
0.0
220
0.0
230
1.0
 70
    12
 71
     2
 72
     6
 73
     3
 74
     0
 42
0.0000000001
 43
0.0000000001
 40
0.0
 40
0.0
 40
0.0
 40
0.0225621385862125
 40
0.0225621385862125
 40
0.0225621385862125
 10
26.99337071894035
 20
0.3857268171168881
 30
0.0
 41
1.0
 10
26.99461815153289
 20
0.3994454738101918
 30
0.0
 41
0.7518431492968729
 10
27.00834850129689
 20
0.399999999945464
 30
0.0
 41
1.0
  0
SPLINE
  5
FF
330
1F
100
AcDbEntity
  8
Make2D visible lines
100
AcDbSpline
210
0.0
220
0.0
230
1.0
 70
    24
 71
     2
 72
     6
 73
     3
 74
     0
 42
0.0000000001
 43
0.0000000001
 40
0.0
 40
0.0
 40
0.0
 40
0.0401014385929007
 40
0.0401014385929007
 40
0.0401014385929007
 10
36.21794391634134
 20
6.462904669050456
 30
0.0
 10
36.21829384964386
 20
6.48295233452524
 30
0.0
 10
36.21864378294639
 20
6.503000000000023
 30
0.0
  0
SPLINE
  5
100
330
1F
100
AcDbEntity
  8
Default
100
AcDbSpline
210
0.0
220
0.0
230
1.0
 70
    24
 71
     2
 72
     6
 73
     3
 74
     0
 42
0.0000000001
 43
0.0000000001
 40
0.0
 40
0.0
 40
0.0
 40
1.415121265539391
 40
1.415121265539391
 40
1.415121265539391
 10
38.70732753268983
 20
10.59386867989504
 30
0.0
 10
38.70732753268983
 20
9.886308047125345
 30
0.0
 10
38.70732753268983
 20
9.17874741435565
 30
0.0
  0
SPLINE
  5
101
330
1F
100
AcDbEntity
  8
Default
100
AcDbSpline
210
0.0
220
0.0
230
1.0
 70
    24
 71
     2
 72
     6
 73
     3
 74
     0
 42
0.0000000001
 43
0.0000000001
 40
0.0
 40
0.0
 40
0.0
 40
1.500868679895007
 40
1.500868679895007
 40
1.500868679895007
 10
36.12732753268983
 20
10.59386867989504
 30
0.0
 10
36.12732753268983
 20
9.843434339947537
 30
0.0
 10
36.12732753268983
 20
9.093000000000034
 30
0.0
  0
LINE
  5
102
330
1F
100
AcDbEntity
  8
Default
100
AcDbLine
 10
36.12732753268983
 20
9.093000000000034
 30
0.0
 11
38.60101806052712
 21
9.093000000000034
 31
0.0
  0
SPLINE
  5
103
330
1F
100
AcDbEntity
  8
Make2D visible lines
100
AcDbSpline
210
0.0
220
0.0
230
1.0
 70
    24
 71
     2
 72
     6
 73
     3
 74
     0
 42
0.0000000001
 43
0.0000000001
 40
0.0
 40
0.0
 40
0.0
 40
0.0399960912937067
 40
0.0399960912937067
 40
0.0399960912937067
 10
36.2180257352872
 20
9.093000000000027
 30
0.0
 10
36.21767672126664
 20
9.073005000152389
 30
0.0
 10
36.21732770724608
 20
9.053010000304749
 30
0.0
  0
LINE
  5
104
330
1F
100
AcDbEntity
  8
Make2D visible lines
100
AcDbLine
 10
35.71771493807312
 20
7.274073601106993
 30
0.0
 11
29.5261926652622
 21
10.46960938711542
 31
0.0
  0
ARC
  5
105
330
1F
100
AcDbEntity
  8
Make2D visible lines
100
AcDbCircle
 10
32.1357059309435
 20
15.52568154140137
 30
0.0
 40
5.689764943573027
100
AcDbArc
 50
240.0873591913948
 51
242.7010753147969
  0
LINE
  5
106
330
1F
100
AcDbEntity
  8
Default
100
AcDbLine
 10
45.53109717699488
 20
10.59386867989503
 30
0.0
 11
29.29833972049529
 21
10.59386867989503
 31
0.0
  0
SPLINE
  5
107
330
1F
100
AcDbEntity
  8
Default
100
AcDbSpline
210
0.0
220
0.0
230
1.0
 70
     8
 71
     3
 72
     8
 73
     4
 74
     0
 42
0.0000000001
 43
0.0000000001
 40
-1.0
 40
-1.0
 40
-1.0
 40
-1.0
 40
0.0
 40
0.0
 40
0.0
 40
0.0
 10
29.29833972049529
 20
10.59386867989503
 30
0.0
 10
29.28863978743715
 20
10.59386867989503
 30
0.0
 10
29.27869173651615
 20
10.59622988768334
 30
0.0
 10
29.2700266217889
 20
10.60058930141639
 30
0.0
  0
SPLINE
  5
108
330
1F
100
AcDbEntity
  8
Default
100
AcDbSpline
210
0.0
220
0.0
230
1.0
 70
    24
 71
     2
 72
     6
 73
     3
 74
     0
 42
0.0000000001
 43
0.0000000001
 40
0.0
 40
0.0
 40
0.0
 40
0.5282062900802154
 40
0.5282062900802154
 40
0.5282062900802154
 10
29.2700266217889
 20
10.60058930141639
 30
0.0
 10
29.03409880271182
 20
10.71928443781888
 30
0.0
 10
28.79817098363473
 20
10.83797957422137
 30
0.0
  0
SPLINE
  5
109
330
1F
100
AcDbEntity
  8
Default
100
AcDbSpline
210
0.0
220
0.0
230
1.0
 70
     8
 71
     3
 72
     8
 73
     4
 74
     0
 42
0.0000000001
 43
0.0000000001
 40
-1.0
 40
-1.0
 40
-1.0
 40
-1.0
 40
0.0
 40
0.0
 40
0.0
 40
0.0
 10
28.79817098363473
 20
10.83797957422137
 30
0.0
 10
28.76451545924427
 20
10.85491164723357
 30
0.0
 10
28.73560851261315
 20
10.89488916869128
 30
0.0
 10
28.73628835018619
 20
10.93255781930903
 30
0.0
  0
SPLINE
  5
10A
330
1F
100
AcDbEntity
  8
Default
100
AcDbSpline
210
0.0
220
0.0
230
1.0
 70
    12
 71
     2
 72
     6
 73
     3
 74
     0
 42
0.0000000001
 43
0.0000000001
 40
0.0
 40
0.0
 40
0.0
 40
0.6455488671731082
 40
0.6455488671731082
 40
0.6455488671731082
 10
28.73628835018619
 20
10.93255781930903
 30
0.0
 41
1.0
 10
28.74212934954639
 20
11.25619771931959
 30
0.0
 41
0.9957505983657335
 10
28.80722659734907
 20
11.57327696884704
 30
0.0
 41
1.0
  0
SPLINE
  5
10B
330
1F
100
AcDbEntity
  8
Default
100
AcDbSpline
210
0.0
220
0.0
230
1.0
 70
    12
 71
     2
 72
     6
 73
     3
 74
     0
 42
0.0000000001
 43
0.0000000001
 40
0.0
 40
0.0
 40
0.0
 40
0.3420516372259224
 40
0.3420516372259224
 40
0.3420516372259224
 10
28.80722659734907
 20
11.57327696884704
 30
0.0
 41
1.0
 10
28.84828233541612
 20
11.7729360890644
 30
0.0
 41
0.7751522767319682
 10
29.0521188724491
 20
11.77300000000003
 30
0.0
 41
1.0
  0
LINE
  5
10C
330
1F
100
AcDbEntity
  8
Default
100
AcDbLine
 10
29.0521188724491
 20
11.77300000000003
 30
0.0
 11
45.77731802504107
 21
11.77300000000003
 31
0.0
  0
SPLINE
  5
10D
330
1F
100
AcDbEntity
  8
Default
100
AcDbSpline
210
0.0
220
0.0
230
1.0
 70
    12
 71
     2
 72
     6
 73
     3
 74
     0
 42
0.0000000001
 43
0.0000000001
 40
-0.3420516372259224
 40
-0.3420516372259224
 40
-0.3420516372259224
 40
0.0
 40
0.0
 40
0.0
 10
45.77731802504107
 20
11.77300000000003
 30
0.0
 41
1.0
 10
45.98115456207404
 20
11.7729360890644
 30
0.0
 41
0.7751522767319682
 10
46.0222103001411
 20
11.57327696884704
 30
0.0
 41
1.0
  0
SPLINE
  5
10E
330
1F
100
AcDbEntity
  8
Default
100
AcDbSpline
210
0.0
220
0.0
230
1.0
 70
    12
 71
     2
 72
     6
 73
     3
 74
     0
 42
0.0000000001
 43
0.0000000001
 40
-0.6455488671731082
 40
-0.6455488671731082
 40
-0.6455488671731082
 40
0.0
 40
0.0
 40
0.0
 10
46.0222103001411
 20
11.57327696884704
 30
0.0
 41
1.0
 10
46.08730754794378
 20
11.25619771931959
 30
0.0
 41
0.9957505983657335
 10
46.09314854730398
 20
10.93255781930903
 30
0.0
 41
1.0
  0
SPLINE
  5
10F
330
1F
100
AcDbEntity
  8
Default
100
AcDbSpline
210
0.0
220
0.0
230
1.0
 70
     8
 71
     3
 72
     8
 73
     4
 74
     0
 42
0.0000000001
 43
0.0000000001
 40
0.0
 40
0.0
 40
0.0
 40
0.0
 40
1.0
 40
1.0
 40
1.0
 40
1.0
 10
46.09314854730398
 20
10.93255781930903
 30
0.0
 10
46.09382838487701
 20
10.89488916869128
 30
0.0
 10
46.0649214382459
 20
10.85491164723357
 30
0.0
 10
46.03126591385544
 20
10.83797957422137
 30
0.0
  0
SPLINE
  5
110
330
1F
100
AcDbEntity
  8
Default
100
AcDbSpline
210
0.0
220
0.0
230
1.0
 70
    24
 71
     2
 72
     6
 73
     3
 74
     0
 42
0.0000000001
 43
0.0000000001
 40
-0.5282062900802154
 40
-0.5282062900802154
 40
-0.5282062900802154
 40
0.0
 40
0.0
 40
0.0
 10
46.03126591385544
 20
10.83797957422137
 30
0.0
 10
45.79533809477835
 20
10.71928443781888
 30
0.0
 10
45.55941027570127
 20
10.60058930141639
 30
0.0
  0
SPLINE
  5
111
330
1F
100
AcDbEntity
  8
Default
100
AcDbSpline
210
0.0
220
0.0
230
1.0
 70
     8
 71
     3
 72
     8
 73
     4
 74
     0
 42
0.0000000001
 43
0.0000000001
 40
0.0
 40
0.0
 40
0.0
 40
0.0
 40
1.0
 40
1.0
 40
1.0
 40
1.0
 10
45.55941027570127
 20
10.60058930141639
 30
0.0
 10
45.55074516097402
 20
10.59622988768334
 30
0.0
 10
45.54079711005302
 20
10.59386867989503
 30
0.0
 10
45.53109717699488
 20
10.59386867989503
 30
0.0
  0
SPLINE
  5
112
330
1F
100
AcDbEntity
  8
Make2D visible lines
100
AcDbSpline
210
0.0
220
0.0
230
1.0
 70
    12
 71
     2
 72
    28
 73
    25
 74
     0
 42
0.0000000001
 43
0.0000000001
 40
0.0
 40
0.0
 40
0.0
 40
0.0140468681407047
 40
0.0140468681407047
 40
0.0285022039833023
 40
0.0285022039833023
 40
0.0432370017690572
 40
0.0432370017690572
 40
0.058076842079312
 40
0.058076842079312
 40
0.0728277182437654
 40
0.0728277182437654
 40
0.0872949293865356
 40
0.0872949293865356
 40
0.1012844926610201
 40
0.1012844926610201
 40
0.1149934196890438
 40
0.1149934196890438
 40
0.1292033157759231
 40
0.1292033157759231
 40
0.1441227222662706
 40
0.1441227222662706
 40
0.1597995803026915
 40
0.1597995803026915
 40
0.1711131267289225
 40
0.1711131267289225
 40
0.1711131267289225
 10
38.263205670668
 20
7.274058599289974
 30
0.0
 41
1.0
 10
38.27022501129525
 20
7.273940318711536
 30
0.0
 41
0.9997318673218968
 10
38.27724230077969
 20
7.274147155430819
 30
0.0
 41
1.0
 10
38.28446380582048
 20
7.274359639616318
 30
0.0
 41
0.9997008370617729
 10
38.29166627939018
 20
7.274925023610681
 30
0.0
 41
1.0
 10
38.29900825090569
 20
7.27550089218243
 30
0.0
 41
0.999656372223062
 10
38.30630995206852
 20
7.276460751794471
 30
0.0
 41
1.0
 10
38.31366407235272
 20
7.277426981030141
 30
0.0
 41
0.9995954392542505
 10
38.32095135318758
 20
7.278809812229047
 30
0.0
 41
1.0
 10
38.32819549722524
 20
7.280183666412829
 30
0.0
 41
0.9995115816120003
 10
38.33533966650876
 20
7.282007383333065
 30
0.0
 41
1.0
 10
38.34234709504102
 20
7.283795633349881
 30
0.0
 41
0.9994024730501939
 10
38.34921423440163
 20
7.286063736028206
 30
0.0
 41
1.0
 10
38.35585558791605
 20
7.288256297180681
 30
0.0
 41
0.9992556387409859
 10
38.36230813651785
 20
7.290954355269788
 30
0.0
 41
1.0
 10
38.368632164338
 20
7.293598608626165
 30
0.0
 41
0.9990431628104504
 10
38.37470092742592
 20
7.296785381016111
 30
0.0
 41
1.0
 10
38.38099047502837
 20
7.300091692731638
 30
0.0
 41
0.998925111124771
 10
38.38694680789102
 20
7.303966251420454
 30
0.0
 41
1.0
 10
38.39319980452536
 20
7.308036379965684
 30
0.0
 41
0.9988185990540612
 10
38.39902816664564
 20
7.312694288109785
 30
0.0
 41
1.0
 10
38.40515163230988
 20
7.317589863396476
 30
0.0
 41
0.998796330741097
 10
38.41076595661809
 20
7.323061869581704
 30
0.0
 41
1.0
 10
38.41481616256688
 20
7.327008919140166
 30
0.0
 41
0.999436228297278
 10
38.41865606705431
 20
7.331161693261659
 30
0.0
 41
0.9999895245906828
  0
ARC
  5
113
330
1F
100
AcDbEntity
  8
Make2D visible lines
100
AcDbCircle
 10
206.9014178859846
 20
-152.961692306437
 30
0.0
 40
232.5515858331289
100
AcDbArc
 50
135.6446007502038
 51
136.4269614485691
  0
ARC
  5
114
330
1F
100
AcDbEntity
  8
Make2D visible lines
100
AcDbCircle
 10
48.39982615457743
 20
2.013015157062942
 30
0.0
 40
10.87634018132619
100
AcDbArc
 50
129.1574586323073
 51
135.6446007502032
  0
ARC
  5
115
330
1F
100
AcDbEntity
  8
Make2D visible lines
100
AcDbCircle
 10
41.88825649950498
 20
10.01698132916511
 30
0.0
 40
0.5582235121632735
100
AcDbArc
 50
106.2215886459321
 51
129.6681030491936
  0
LINE
  5
116
330
1F
100
AcDbEntity
  8
Make2D visible lines
100
AcDbLine
 10
41.7323151324194
 20
10.5529811235339
 30
0.0
 11
41.87285335015724
 21
10.59386867989503
 31
0.0
  0
SPLINE
  5
117
330
1F
100
AcDbEntity
  8
Make2D visible lines
100
AcDbSpline
210
0.0
220
0.0
230
1.0
 70
    12
 71
     2
 72
     6
 73
     3
 74
     0
 42
0.0000000001
 43
0.0000000001
 40
0.0
 40
0.0
 40
0.0
 40
4.969299551361565
 40
4.969299551361565
 40
4.969299551361565
 10
31.17330464239519
 20
10.59386867989326
 30
0.0
 41
1.0
 10
33.47668099657865
 20
9.662234694242882
 30
0.0
 41
0.9999999994587758
 10
35.78078019923348
 20
8.730487052111439
 30
0.0
 41
1.0
  0
SPLINE
  5
118
330
1F
100
AcDbEntity
  8
Make2D visible lines
100
AcDbSpline
210
0.0
220
0.0
230
1.0
 70
    12
 71
     2
 72
     8
 73
     5
 74
     0
 42
0.0000000001
 43
0.0000000001
 40
0.0
 40
0.0
 40
0.0
 40
0.2369381088234469
 40
0.2369381088234469
 40
0.4738762176468938
 40
0.4738762176468938
 40
0.4738762176468938
 10
35.78078019923348
 20
8.730487052111439
 30
0.0
 41
1.0
 10
35.90061333555766
 20
8.682993381419692
 30
0.0
 41
0.8900494139534328
 10
36.00857942611074
 20
8.752099939099978
 30
0.0
 41
1.0
 10
36.1165455166638
 20
8.82120649678026
 30
0.0
 41
0.8900494139534328
 10
36.12373554775718
 20
8.954873690903764
 30
0.0
 41
1.0
  0
SPLINE
  5
119
330
1F
100
AcDbEntity
  8
Make2D visible lines
100
AcDbSpline
210
0.0
220
0.0
230
1.0
 70
    24
 71
     2
 72
     6
 73
     3
 74
     0
 42
0.0000000001
 43
0.0000000001
 40
0.0
 40
0.0
 40
0.0
 40
0.092459499146895
 40
0.092459499146895
 40
0.092459499146895
 10
36.12373554775718
 20
8.954873690903764
 30
0.0
 10
36.12553154022361
 20
9.0039368454519
 30
0.0
 10
36.12732753269003
 20
9.053000000000035
 30
0.0
  0
LINE
  5
11A
330
1F
100
AcDbEntity
  8
Make2D visible lines
100
AcDbLine
 10
36.12732753269003
 20
9.053000000000035
 30
0.0
 11
38.55142412612705
 21
9.053000000000035
 31
0.0
  0
SPLINE
  5
11B
330
1F
100
AcDbEntity
  8
Make2D visible lines
100
AcDbSpline
210
0.0
220
0.0
230
1.0
 70
    24
 71
     2
 72
     6
 73
     3
 74
     0
 42
0.0000000001
 43
0.0000000001
 40
0.0
 40
0.0
 40
0.0
 40
1.28478183211061
 40
1.28478183211061
 40
1.28478183211061
 10
37.41471844874509
 20
6.503000000000016
 30
0.0
 10
38.0571093648004
 20
6.503000000000016
 30
0.0
 10
38.6995002808557
 20
6.503000000000016
 30
0.0
  0
SPLINE
  5
11C
330
1F
100
AcDbEntity
  8
Make2D visible lines
100
AcDbSpline
210
0.0
220
0.0
230
1.0
 70
    28
 71
     2
 72
     8
 73
     5
 74
     0
 42
0.0000000001
 43
0.0000000001
 40
-2.152972715413255
 40
-2.152972715413255
 40
-2.152972715413255
 40
-2.026327261565417
 40
-2.026327261565417
 40
0.0
 40
0.0
 40
0.0
 10
36.12993661663448
 20
6.503000000000016
 30
0.0
 41
0.9656765759202985
 10
36.12471844874509
 20
6.503000000000016
 30
0.0
 41
0.9816941738241592
 10
36.12471844874509
 20
6.503000000000016
 30
0.0
 41
1.0
 10
36.12471844874509
 20
6.503000000000015
 30
0.0
 41
0.7071067811865476
 10
37.41471844874509
 20
6.503000000000016
 30
0.0
 41
1.0
  0
SPLINE
  5
11D
330
1F
100
AcDbEntity
  8
Make2D visible lines
100
AcDbSpline
210
0.0
220
0.0
230
1.0
 70
    12
 71
     2
 72
     6
 73
     3
 74
     0
 42
0.0000000001
 43
0.0000000001
 40
0.0
 40
0.0
 40
0.0
 40
0.8127150281096842
 40
0.8127150281096842
 40
0.8127150281096842
 10
35.71771493807312
 20
7.274073601106993
 30
0.0
 41
1.0
 10
36.11889835295177
 20
7.0670292196119
 30
0.0
 41
0.8566678452191085
 10
36.12355838003816
 20
6.615593961319034
 30
0.0
 41
1.0
  0
SPLINE
  5
11E
330
1F
100
AcDbEntity
  8
Make2D visible lines - Tangent
100
AcDbSpline
210
0.0
220
0.0
230
1.0
 70
    12
 71
     2
 72
    10
 73
     7
 74
     0
 42
0.0000000001
 43
0.0000000001
 40
0.0
 40
0.0
 40
0.0
 40
0.036780884482198
 40
0.036780884482198
 40
0.0785663750001306
 40
0.0785663750001306
 40
0.1265652217040752
 40
0.1265652217040752
 40
0.1265652217040752
 10
37.85042174893169
 20
8.296524513981183
 30
0.0
 41
1.0
 10
37.84725806894695
 20
8.278403081404432
 30
0.0
 41
0.9995859284274482
 10
37.84514206623655
 20
8.260129665680786
 30
0.0
 41
1.0
 10
37.84274546981936
 20
8.239370022004989
 30
0.0
 41
0.999657073279319
 10
37.84143903466455
 20
8.218513375411655
 30
0.0
 41
1.0
 10
37.83994749177806
 20
8.194556817291831
 30
0.0
 41
0.9997799275259601
 10
37.83946218476133
 20
8.170558778742189
 30
0.0
 41
1.0
  0
SPLINE
  5
11F
330
1F
100
AcDbEntity
  8
Make2D visible lines - Tangent
100
AcDbSpline
210
0.0
220
0.0
230
1.0
 70
    12
 71
     2
 72
    36
 73
    33
 74
     0
 42
0.0000000001
 43
0.0000000001
 40
0.0
 40
0.0
 40
0.0
 40
0.0207278195486716
 40
0.0207278195486716
 40
0.0447609852077238
 40
0.0447609852077238
 40
0.0660642124248079
 40
0.0660642124248079
 40
0.0847694714969161
 40
0.0847694714969161
 40
0.101788701148515
 40
0.101788701148515
 40
0.1183131468167998
 40
0.1183131468167998
 40
0.1355240290901271
 40
0.1355240290901271
 40
0.1544562824522833
 40
0.1544562824522833
 40
0.1758277246372123
 40
0.1758277246372123
 40
0.1997540769519208
 40
0.1997540769519208
 40
0.2264299923083884
 40
0.2264299923083884
 40
0.2563513658433622
 40
0.2563513658433622
 40
0.2903216356134053
 40
0.2903216356134053
 40
0.3291822137306459
 40
0.3291822137306459
 40
0.3725145395906161
 40
0.3725145395906161
 40
0.4185535150399717
 40
0.4185535150399717
 40
0.4185535150399717
 10
38.05398929308886
 20
8.651850641432521
 30
0.0
 41
1.0
 10
38.04593045818191
 20
8.645331926689723
 30
0.0
 41
0.9998056818439512
 10
38.0381348422227
 20
8.638500613948255
 30
0.0
 41
1.0
 10
38.02909588901067
 20
8.630579609621451
 30
0.0
 41
0.9997574049011436
 10
38.02041455259727
 20
8.622268208849503
 30
0.0
 41
1.0
 10
38.01271931600873
 20
8.614901557114031
 30
0.0
 41
0.9998192371356499
 10
38.00530971620003
 20
8.607247665644971
 30
0.0
 41
1.0
 10
37.99880376617391
 20
8.600527542875588
 30
0.0
 41
0.9998649239449685
 10
37.99252220177434
 20
8.59359721932816
 30
0.0
 41
1.0
 10
37.98680683420091
 20
8.58729176490172
 30
0.0
 41
0.9998898408798503
 10
37.98128114435924
 20
8.580819444313482
 30
0.0
 41
1.0
 10
37.97591489920712
 20
8.574536297426912
 30
0.0
 41
0.9998879994950548
 10
37.97073910716652
 20
8.568095358164408
 30
0.0
 41
1.0
 10
37.96534978597985
 20
8.561385584504455
 30
0.0
 41
0.9998761745574073
 10
37.96017428372417
 20
8.55450953754255
 30
0.0
 41
1.0
 10
37.95448081698042
 20
8.546945863481367
 30
0.0
 41
0.9998562790121603
 10
37.94904704779196
 20
8.539193516657814
 30
0.0
 41
1.0
 10
37.94291315073741
 20
8.530442118399483
 30
0.0
 41
0.9998225042559923
 10
37.93711330909548
 20
8.521465844034235
 30
0.0
 41
1.0
 10
37.93061999193302
 20
8.511416187354683
 30
0.0
 41
0.999784241260799
 10
37.9245496885366
 20
8.501105504359636
 30
0.0
 41
1.0
 10
37.91778156818893
 20
8.48960960906302
 30
0.0
 41
0.9997389322376274
 10
37.91154571220032
 20
8.477816511005232
 30
0.0
 41
1.0
 10
37.90455144698326
 20
8.464587852610403
 30
0.0
 41
0.9996817975717703
 10
37.89823325773234
 20
8.451023279876868
 30
0.0
 41
1.0
 10
37.89105608545189
 20
8.435623803181208
 30
0.0
 41
0.9995819943092834
 10
37.88478096246133
 20
8.419835246695683
 30
0.0
 41
1.0
 10
37.87760598005721
 20
8.401770581633164
 30
0.0
 41
0.9994513777016976
 10
37.87164269070648
 20
8.383270536324035
 30
0.0
 41
1.0
 10
37.86499682267735
 20
8.362639261457113
 30
0.0
 41
0.9993703027586827
 10
37.8598308596799
 20
8.341588610854252
 30
0.0
 41
1.0
 10
37.85434801246102
 20
8.319222177965026
 30
0.0
 41
0.9994030095476978
 10
37.85042280155488
 20
8.296530513126237
 30
0.0
 41
1.0
  0
SPLINE
  5
120
330
1F
100
AcDbEntity
  8
Make2D visible lines
100
AcDbSpline
210
0.0
220
0.0
230
1.0
 70
    12
 71
     2
 72
     6
 73
     3
 74
     0
 42
0.0000000001
 43
0.0000000001
 40
0.0
 40
0.0
 40
0.0
 40
0.1139471155232706
 40
0.1139471155232706
 40
0.1139471155232706
 10
38.71604729533178
 20
7.642057134438875
 30
0.0
 41
1.0
 10
38.71589182096811
 20
7.585083514830497
 30
0.0
 41
0.9999927866500362
 10
38.71530355493846
 20
7.528112720149045
 30
0.0
 41
1.0
  0
SPLINE
  5
121
330
1F
100
AcDbEntity
  8
Make2D visible lines
100
AcDbSpline
210
0.0
220
0.0
230
1.0
 70
    12
 71
     2
 72
     6
 73
     3
 74
     0
 42
0.0000000001
 43
0.0000000001
 40
0.0
 40
0.0
 40
0.0
 40
0.0016458492352807
 40
0.0016458492352807
 40
0.0016458492352807
 10
36.12384581903707
 20
8.956528927874688
 30
0.0
 41
1.0
 10
36.1238658767717
 20
8.957351611008718
 30
0.0
 41
0.9999945451705072
 10
36.12388049949828
 20
8.958174408691995
 30
0.0
 41
1.0
  0
SPLINE
  5
122
330
1F
100
AcDbEntity
  8
Make2D visible lines
100
AcDbSpline
210
0.0
220
0.0
230
1.0
 70
    24
 71
     2
 72
     6
 73
     3
 74
     0
 42
0.0000000001
 43
0.0000000001
 40
0.0
 40
0.0
 40
0.0
 40
0.112599937293033
 40
0.112599937293033
 40
0.112599937293033
 10
36.12471844874479
 20
6.503000000000002
 30
0.0
 10
36.12413713766807
 20
6.559296967476331
 30
0.0
 10
36.12355582659136
 20
6.61559393495266
 30
0.0
  0
SPLINE
  5
123
330
1F
100
AcDbEntity
  8
Make2D visible lines
100
AcDbSpline
210
0.0
220
0.0
230
1.0
 70
    12
 71
     2
 72
     6
 73
     3
 74
     0
 42
0.0000000001
 43
0.0000000001
 40
0.0
 40
0.0
 40
0.0
 40
3.092011503542182
 40
3.092011503542182
 40
3.092011503542182
 10
38.05453283326104
 20
8.652289268940075
 30
0.0
 41
1.0
 10
39.25803483687066
 20
9.622710240203618
 30
0.0
 41
0.9999999530410956
 10
40.46094182378862
 20
10.59386867989464
 30
0.0
 41
1.0
  0
SPLINE
  5
124
330
1F
100
AcDbEntity
  8
Make2D visible lines
100
AcDbSpline
210
0.0
220
0.0
230
1.0
 70
    24
 71
     2
 72
     6
 73
     3
 74
     0
 42
0.0000000001
 43
0.0000000001
 40
0.0
 40
0.0
 40
0.0
 40
1.025167281498075
 40
1.025167281498075
 40
1.025167281498075
 10
38.71530355404023
 20
7.528112633128699
 30
0.0
 10
38.71001100139281
 20
7.01555631656435
 30
0.0
 10
38.7047184487454
 20
6.503000000000002
 30
0.0
  0
SPLINE
  5
125
330
1F
100
AcDbEntity
  8
Make2D visible lines
100
AcDbSpline
210
0.0
220
0.0
230
1.0
 70
    12
 71
     2
 72
     6
 73
     3
 74
     0
 42
0.0000000001
 43
0.0000000001
 40
0.0
 40
0.0
 40
0.0
 40
0.0853474550214741
 40
0.0853474550214741
 40
0.0853474550214741
 10
9.5097226419023
 20
74.26910435927043
 30
0.0
 41
1.0
 10
9.537723264701121
 20
74.3013297725001
 30
0.0
 41
0.9993970637774641
 10
9.567892789287228
 20
74.33153427417109
 30
0.0
 41
1.0
  0
SPLINE
  5
126
330
1F
100
AcDbEntity
  8
Make2D visible lines - Tangent
100
AcDbSpline
210
0.0
220
0.0
230
1.0
 70
     8
 71
     3
 72
    12
 73
     8
 74
     0
 42
0.0000000001
 43
0.0000000001
 40
0.0
 40
0.0
 40
0.0
 40
0.0
 40
0.1510110321465192
 40
0.3037660471064116
 40
0.5900965017365678
 40
0.8249401141264362
 40
1.014583801502342
 40
1.014583801502342
 40
1.014583801502342
 40
1.014583801502342
 10
10.05531370173384
 20
73.67395017484687
 30
0.0
 10
10.09423035495412
 20
73.70591423973013
 30
0.0
 10
10.16856823117011
 20
73.7748359912611
 30
0.0
 10
10.29530717609747
 20
73.92591621626303
 30
0.0
 10
10.40681150782962
 20
74.12291306216747
 30
0.0
 10
10.45355617093409
 20
74.36021993102338
 30
0.0
 10
10.40471438922158
 20
74.50062429981404
 30
0.0
 10
10.35832519828837
 20
74.54524080277103
 30
0.0
  0
SPLINE
  5
127
330
1F
100
AcDbEntity
  8
Make2D visible lines - Tangent
100
AcDbSpline
210
0.0
220
0.0
230
1.0
 70
     8
 71
     3
 72
    12
 73
     8
 74
     0
 42
0.0000000001
 43
0.0000000001
 40
-1.014583801502342
 40
-1.014583801502342
 40
-1.014583801502342
 40
-1.014583801502342
 40
-0.8249401141264362
 40
-0.5900965017365678
 40
-0.3037660471064116
 40
-0.1510110321465192
 40
0.0
 40
0.0
 40
0.0
 40
0.0
 10
10.35832519828837
 20
74.54524080277103
 30
0.0
 10
10.31370869533137
 20
74.59162999370423
 30
0.0
 10
10.17330432654072
 20
74.64047177541676
 30
0.0
 10
9.935997457684806
 20
74.59372711231228
 30
0.0
 10
9.73900061178037
 20
74.48222278058014
 30
0.0
 10
9.587920386778435
 20
74.35548383565278
 30
0.0
 10
9.518998635247456
 20
74.28114595943678
 30
0.0
 10
9.487034570364202
 20
74.2422293062165
 30
0.0
  0
SPLINE
  5
128
330
1F
100
AcDbEntity
  8
Make2D visible lines - Tangent
100
AcDbSpline
210
0.0
220
0.0
230
1.0
 70
    12
 71
     2
 72
     6
 73
     3
 74
     0
 42
0.0000000001
 43
0.0000000001
 40
0.0
 40
0.0
 40
0.0
 40
0.1369528492222414
 40
0.1369528492222414
 40
0.1369528492222414
 10
9.762868508801489
 20
73.42990395781194
 30
0.0
 41
1.0
 10
9.81026643471302
 20
73.4793235523827
 30
0.0
 41
0.9999966913238282
 10
9.859234217333556
 20
73.52722831745436
 30
0.0
 41
0.9999959461296658
  0
ARC
  5
129
330
1F
100
AcDbEntity
  8
Make2D visible lines - Tangent
100
AcDbCircle
 10
10.21855388388555
 20
73.17953682024893
 30
0.0
 40
0.5
100
AcDbArc
 50
123.4871521735356
 51
135.942255225133
  0
SPLINE
  5
12A
330
1F
100
AcDbEntity
  8
Make2D visible lines - Tangent
100
AcDbSpline
210
0.0
220
0.0
230
1.0
 70
     8
 71
     3
 72
    14
 73
    10
 74
     0
 42
0.0000000001
 43
0.0000000001
 40
0.2772630823298201
 40
0.2772630823298201
 40
0.2772630823298201
 40
0.2772630823298201
 40
1.0
 40
2.0
 40
3.0
 40
4.0
 40
5.0
 40
6.0
 40
7.0
 40
7.0
 40
7.0
 40
7.0
 10
9.9426788921417
 20
73.59654160311158
 30
0.0
 10
9.976514621705547
 20
73.61892607445986
 30
0.0
 10
10.05478569745549
 20
73.67589027088263
 30
0.0
 10
10.16643497735905
 20
73.78083424226503
 30
0.0
 10
10.27233264657764
 20
73.91220811131268
 30
0.0
 10
10.35875271395722
 20
74.05735956854875
 30
0.0
 10
10.41771068393278
 20
74.21600315327518
 30
0.0
 10
10.43245695830001
 20
74.38646156446623
 30
0.0
 10
10.38805825967046
 20
74.49481128817139
 30
0.0
 10
10.34761775983173
 20
74.53453406655639
 30
0.0
  0
SPLINE
  5
12B
330
1F
100
AcDbEntity
  8
Make2D visible lines - Tangent
100
AcDbSpline
210
0.0
220
0.0
230
1.0
 70
     8
 71
     3
 72
    14
 73
    10
 74
     0
 42
0.0000000001
 43
0.0000000001
 40
-7.0
 40
-7.0
 40
-7.0
 40
-7.0
 40
-6.0
 40
-5.0
 40
-4.0
 40
-3.0
 40
-2.0
 40
-1.0
 40
-0.2482205602640466
 40
-0.2482205602640466
 40
-0.2482205602640466
 40
-0.2482205602640466
 10
10.34761775983173
 20
74.53453406655639
 30
0.0
 10
10.30789498144675
 20
74.5749745663951
 30
0.0
 10
10.19954525774158
 20
74.61937326502466
 30
0.0
 10
10.02908684655054
 20
74.60462699065742
 30
0.0
 10
9.870443261824107
 20
74.54566902068186
 30
0.0
 10
9.72529180458804
 20
74.45924895330229
 30
0.0
 10
9.59391793554039
 20
74.35335128408369
 30
0.0
 10
9.48785456199144
 20
74.24051107873515
 30
0.0
 10
9.430091803494804
 20
74.16078971629048
 30
0.0
 10
9.406934120719157
 20
74.12551140917289
 30
0.0
  0
ARC
  5
12C
330
1F
100
AcDbEntity
  8
Make2D visible lines - Tangent
100
AcDbCircle
 10
8.988944374182836
 20
74.39989175065257
 30
0.0
 40
0.5
100
AcDbArc
 50
313.9775798079554
 51
326.7179678781666
  0
SPLINE
  5
12D
330
1F
100
AcDbEntity
  8
Make2D visible lines - Tangent
100
AcDbSpline
210
0.0
220
0.0
230
1.0
 70
    12
 71
     2
 72
     6
 73
     3
 74
     0
 42
0.0000000001
 43
0.0000000001
 40
-0.1297405451143296
 40
-0.1297405451143296
 40
-0.1297405451143296
 40
0.0
 40
0.0
 40
0.0
 10
9.336132791773174
 20
74.0400859659699
 30
0.0
 41
0.9999960316975589
 10
9.289451379712723
 20
73.99504153846453
 30
0.0
 41
0.9999968655123173
 10
9.242633536128722
 20
73.95013893048471
 30
0.0
 41
1.0
  0
SPLINE
  5
12E
330
1F
100
AcDbEntity
  8
Make2D visible lines
100
AcDbSpline
210
0.0
220
0.0
230
1.0
 70
    12
 71
     2
 72
     6
 73
     3
 74
     0
 42
0.0000000001
 43
0.0000000001
 40
0.0
 40
0.0
 40
0.0
 40
0.0853474550214741
 40
0.0853474550214741
 40
0.0853474550214741
 10
-10.08285222210019
 20
73.69663823826241
 30
0.0
 41
1.0
 10
-10.11507763532986
 20
73.72463886106124
 30
0.0
 41
0.9993970637774641
 10
-10.14528213700085
 20
73.75480838564732
 30
0.0
 41
1.0
  0
SPLINE
  5
12F
330
1F
100
AcDbEntity
  8
Make2D visible lines - Tangent
100
AcDbSpline
210
0.0
220
0.0
230
1.0
 70
     8
 71
     3
 72
    12
 73
     8
 74
     0
 42
0.0000000001
 43
0.0000000001
 40
0.0
 40
0.0
 40
0.0
 40
0.0
 40
0.1510110321465192
 40
0.3037660471064116
 40
0.5900965017365678
 40
0.8249401141264362
 40
1.014583801502342
 40
1.014583801502342
 40
1.014583801502342
 40
1.014583801502342
 10
-9.487698037676623
 20
74.24222929809395
 30
0.0
 10
-9.519662102559877
 20
74.28114595131422
 30
0.0
 10
-9.588583854090857
 20
74.35548382753022
 30
0.0
 10
-9.739664079092776
 20
74.48222277245758
 30
0.0
 10
-9.936660924997227
 20
74.59372710418972
 30
0.0
 10
-10.17396779385315
 20
74.6404717672942
 30
0.0
 10
-10.31437216264378
 20
74.59162998558168
 30
0.0
 10
-10.35898866560079
 20
74.54524079464846
 30
0.0
  0
SPLINE
  5
130
330
1F
100
AcDbEntity
  8
Make2D visible lines - Tangent
100
AcDbSpline
210
0.0
220
0.0
230
1.0
 70
     8
 71
     3
 72
    12
 73
     8
 74
     0
 42
0.0000000001
 43
0.0000000001
 40
-1.014583801502342
 40
-1.014583801502342
 40
-1.014583801502342
 40
-1.014583801502342
 40
-0.8249401141264362
 40
-0.5900965017365678
 40
-0.3037660471064116
 40
-0.1510110321465192
 40
0.0
 40
0.0
 40
0.0
 40
0.0
 10
-10.35898866560079
 20
74.54524079464846
 30
0.0
 10
-10.405377856534
 20
74.50062429169147
 30
0.0
 10
-10.45421963824651
 20
74.36021992290082
 30
0.0
 10
-10.40747497514204
 20
74.12291305404491
 30
0.0
 10
-10.29597064340989
 20
73.92591620814046
 30
0.0
 10
-10.16923169848253
 20
73.77483598313853
 30
0.0
 10
-10.09489382226654
 20
73.70591423160757
 30
0.0
 10
-10.05597716904626
 20
73.67395016672431
 30
0.0
  0
SPLINE
  5
131
330
1F
100
AcDbEntity
  8
Make2D visible lines - Tangent
100
AcDbSpline
210
0.0
220
0.0
230
1.0
 70
    12
 71
     2
 72
     6
 73
     3
 74
     0
 42
0.0000000001
 43
0.0000000001
 40
0.0
 40
0.0
 40
0.0
 40
0.1369528492222414
 40
0.1369528492222414
 40
0.1369528492222414
 10
-9.243651820641702
 20
73.9497841051616
 30
0.0
 41
1.0
 10
-9.293071415212454
 20
73.99718203107312
 30
0.0
 41
0.9999966913238282
 10
-9.340976180284112
 20
74.04614981369366
 30
0.0
 41
0.9999959461296658
  0
ARC
  5
132
330
1F
100
AcDbEntity
  8
Make2D visible lines - Tangent
100
AcDbCircle
 10
-8.99328468307867
 20
74.40546948024564
 30
0.0
 40
0.5
100
AcDbArc
 50
213.4871521735347
 51
225.942255225132
  0
SPLINE
  5
133
330
1F
100
AcDbEntity
  8
Make2D visible lines - Tangent
100
AcDbSpline
210
0.0
220
0.0
230
1.0
 70
     8
 71
     3
 72
    14
 73
    10
 74
     0
 42
0.0000000001
 43
0.0000000001
 40
0.2772630823298201
 40
0.2772630823298201
 40
0.2772630823298201
 40
0.2772630823298201
 40
1.0
 40
2.0
 40
3.0
 40
4.0
 40
5.0
 40
6.0
 40
7.0
 40
7.0
 40
7.0
 40
7.0
 10
-9.410289465941332
 20
74.1295944885018
 30
0.0
 10
-9.432673937289607
 20
74.16343021806566
 30
0.0
 10
-9.489638133712376
 20
74.2417012938156
 30
0.0
 10
-9.594582105094787
 20
74.35335057371915
 30
0.0
 10
-9.725955974142437
 20
74.45924824293775
 30
0.0
 10
-9.871107431378519
 20
74.54566831031731
 30
0.0
 10
-10.02975101610492
 20
74.60462628029288
 30
0.0
 10
-10.20020942729597
 20
74.61937255466012
 30
0.0
 10
-10.30855915100115
 20
74.57497385603057
 30
0.0
 10
-10.34828192938615
 20
74.53453335619184
 30
0.0
  0
SPLINE
  5
134
330
1F
100
AcDbEntity
  8
Make2D visible lines - Tangent
100
AcDbSpline
210
0.0
220
0.0
230
1.0
 70
     8
 71
     3
 72
    14
 73
    10
 74
     0
 42
0.0000000001
 43
0.0000000001
 40
-7.0
 40
-7.0
 40
-7.0
 40
-7.0
 40
-6.0
 40
-5.0
 40
-4.0
 40
-3.0
 40
-2.0
 40
-1.0
 40
-0.2482205602640466
 40
-0.2482205602640466
 40
-0.2482205602640466
 40
-0.2482205602640466
 10
-10.34828192938615
 20
74.53453335619184
 30
0.0
 10
-10.38872242922487
 20
74.49481057780685
 30
0.0
 10
-10.43312112785442
 20
74.38646085410167
 30
0.0
 10
-10.41837485348717
 20
74.21600244291064
 30
0.0
 10
-10.35941688351161
 20
74.05735885818422
 30
0.0
 10
-10.27299681613205
 20
73.91220740094815
 30
0.0
 10
-10.16709914691344
 20
73.78083353190048
 30
0.0
 10
-10.05425894156491
 20
73.67477015835155
 30
0.0
 10
-9.974537579120238
 20
73.61700739985491
 30
0.0
 10
-9.939259272002644
 20
73.59384971707927
 30
0.0
  0
ARC
  5
135
330
1F
100
AcDbEntity
  8
Make2D visible lines - Tangent
100
AcDbCircle
 10
-10.21363961348233
 20
73.17585997054294
 30
0.0
 40
0.5
100
AcDbArc
 50
43.97757980795639
 51
56.71796787816738
  0
SPLINE
  5
136
330
1F
100
AcDbEntity
  8
Make2D visible lines - Tangent
100
AcDbSpline
210
0.0
220
0.0
230
1.0
 70
    12
 71
     2
 72
     6
 73
     3
 74
     0
 42
0.0000000001
 43
0.0000000001
 40
-0.1297405451143296
 40
-0.1297405451143296
 40
-0.1297405451143296
 40
0.0
 40
0.0
 40
0.0
 10
-9.853833828799655
 20
73.52304838813329
 30
0.0
 41
0.9999960316975589
 10
-9.808789401294282
 20
73.47636697607282
 30
0.0
 41
0.9999968655123173
 10
-9.76388679331447
 20
73.42954913248883
 30
0.0
 41
1.0
  0
SPLINE
  5
137
330
1F
100
AcDbEntity
  8
Make2D visible lines
100
AcDbSpline
210
0.0
220
0.0
230
1.0
 70
    12
 71
     2
 72
     6
 73
     3
 74
     0
 42
0.0000000001
 43
0.0000000001
 40
0.0
 40
0.0
 40
0.0
 40
0.0853474550214741
 40
0.0853474550214741
 40
0.0853474550214741
 10
-9.510386101092152
 20
54.10406337425993
 30
0.0
 41
1.0
 10
-9.53838672389098
 20
54.07183796103027
 30
0.0
 41
0.9993970637774641
 10
-9.56855624847708
 20
54.04163345935927
 30
0.0
 41
1.0
  0
SPLINE
  5
138
330
1F
100
AcDbEntity
  8
Make2D visible lines - Tangent
100
AcDbSpline
210
0.0
220
0.0
230
1.0
 70
     8
 71
     3
 72
    12
 73
     8
 74
     0
 42
0.0000000001
 43
0.0000000001
 40
0.0
 40
0.0
 40
0.0
 40
0.0
 40
0.1510110321465192
 40
0.3037660471064116
 40
0.5900965017365678
 40
0.8249401141264362
 40
1.014583801502342
 40
1.014583801502342
 40
1.014583801502342
 40
1.014583801502342
 10
-10.0559771609237
 20
54.69921755868349
 30
0.0
 10
-10.09489381414397
 20
54.66725349380023
 30
0.0
 10
-10.16923169035996
 20
54.59833174226926
 30
0.0
 10
-10.29597063528733
 20
54.44725151726733
 30
0.0
 10
-10.40747496701947
 20
54.25025467136288
 30
0.0
 10
-10.45421963012394
 20
54.01294780250697
 30
0.0
 10
-10.40537784841143
 20
53.87254343371633
 30
0.0
 10
-10.35898865747824
 20
53.82792693075933
 30
0.0
  0
SPLINE
  5
139
330
1F
100
AcDbEntity
  8
Make2D visible lines - Tangent
100
AcDbSpline
210
0.0
220
0.0
230
1.0
 70
     8
 71
     3
 72
    12
 73
     8
 74
     0
 42
0.0000000001
 43
0.0000000001
 40
-1.014583801502342
 40
-1.014583801502342
 40
-1.014583801502342
 40
-1.014583801502342
 40
-0.8249401141264362
 40
-0.5900965017365678
 40
-0.3037660471064116
 40
-0.1510110321465192
 40
0.0
 40
0.0
 40
0.0
 40
0.0
 10
-10.35898865747824
 20
53.82792693075933
 30
0.0
 10
-10.31437215452122
 20
53.78153773982611
 30
0.0
 10
-10.17396778573058
 20
53.7326959581136
 30
0.0
 10
-9.936660916874672
 20
53.77944062121808
 30
0.0
 10
-9.739664070970221
 20
53.89094495295022
 30
0.0
 10
-9.588583845968301
 20
54.01768389787758
 30
0.0
 10
-9.519662094437322
 20
54.09202177409357
 30
0.0
 10
-9.487698029554068
 20
54.13093842731385
 30
0.0
  0
SPLINE
  5
13A
330
1F
100
AcDbEntity
  8
Make2D visible lines - Tangent
100
AcDbSpline
210
0.0
220
0.0
230
1.0
 70
    12
 71
     2
 72
     6
 73
     3
 74
     0
 42
0.0000000001
 43
0.0000000001
 40
0.0
 40
0.0
 40
0.0
 40
0.1369528492222414
 40
0.1369528492222414
 40
0.1369528492222414
 10
-9.763531967991355
 20
54.94326377571841
 30
0.0
 41
1.0
 10
-9.81092989390289
 20
54.89384418114766
 30
0.0
 41
0.9999966913238282
 10
-9.859897676523403
 20
54.84593941607599
 30
0.0
 41
0.9999959461296658
  0
ARC
  5
13B
330
1F
100
AcDbEntity
  8
Make2D visible lines - Tangent
100
AcDbCircle
 10
-10.21921734307541
 20
55.19363091328143
 30
0.0
 40
0.5
100
AcDbArc
 50
303.4871521735355
 51
315.9422552251334
  0
SPLINE
  5
13C
330
1F
100
AcDbEntity
  8
Make2D visible lines - Tangent
100
AcDbSpline
210
0.0
220
0.0
230
1.0
 70
     8
 71
     3
 72
    14
 73
    10
 74
     0
 42
0.0000000001
 43
0.0000000001
 40
0.2772630823298201
 40
0.2772630823298201
 40
0.2772630823298201
 40
0.2772630823298201
 40
1.0
 40
2.0
 40
3.0
 40
4.0
 40
5.0
 40
6.0
 40
7.0
 40
7.0
 40
7.0
 40
7.0
 10
-9.943342351331552
 20
54.77662613041878
 30
0.0
 10
-9.977178080895413
 20
54.7542416590705
 30
0.0
 10
-10.05544915664535
 20
54.69727746264773
 30
0.0
 10
-10.16709843654891
 20
54.59233349126533
 30
0.0
 10
-10.2729961057675
 20
54.46095962221768
 30
0.0
 10
-10.35941617314707
 20
54.3158081649816
 30
0.0
 10
-10.41837414312263
 20
54.15716458025518
 30
0.0
 10
-10.43312041748987
 20
53.98670616906413
 30
0.0
 10
-10.38872171886032
 20
53.87835644535897
 30
0.0
 10
-10.3482812190216
 20
53.83863366697397
 30
0.0
  0
SPLINE
  5
13D
330
1F
100
AcDbEntity
  8
Make2D visible lines - Tangent
100
AcDbSpline
210
0.0
220
0.0
230
1.0
 70
     8
 71
     3
 72
    14
 73
    10
 74
     0
 42
0.0000000001
 43
0.0000000001
 40
-7.0
 40
-7.0
 40
-7.0
 40
-7.0
 40
-6.0
 40
-5.0
 40
-4.0
 40
-3.0
 40
-2.0
 40
-1.0
 40
-0.2482205602640466
 40
-0.2482205602640466
 40
-0.2482205602640466
 40
-0.2482205602640466
 10
-10.3482812190216
 20
53.83863366697397
 30
0.0
 10
-10.3085584406366
 20
53.79819316713525
 30
0.0
 10
-10.20020871693143
 20
53.7537944685057
 30
0.0
 10
-10.02975030574039
 20
53.76854074287294
 30
0.0
 10
-9.871106721013973
 20
53.8274987128485
 30
0.0
 10
-9.725955263777891
 20
53.91391878022807
 30
0.0
 10
-9.594581394730241
 20
54.01981644944667
 30
0.0
 10
-9.488518021181306
 20
54.1326566547952
 30
0.0
 10
-9.430755262684656
 20
54.21237801723989
 30
0.0
 10
-9.407597579909009
 20
54.24765632435747
 30
0.0
  0
ARC
  5
13E
330
1F
100
AcDbEntity
  8
Make2D visible lines - Tangent
100
AcDbCircle
 10
-8.989607833372702
 20
53.97327598287779
 30
0.0
 40
0.5
100
AcDbArc
 50
133.9775798079554
 51
146.7179678781666
  0
SPLINE
  5
13F
330
1F
100
AcDbEntity
  8
Make2D visible lines - Tangent
100
AcDbSpline
210
0.0
220
0.0
230
1.0
 70
    12
 71
     2
 72
     6
 73
     3
 74
     0
 42
0.0000000001
 43
0.0000000001
 40
-0.1297405451143296
 40
-0.1297405451143296
 40
-0.1297405451143296
 40
0.0
 40
0.0
 40
0.0
 10
-9.336796250963038
 20
54.33308176756045
 30
0.0
 41
0.9999960316975589
 10
-9.290114838902582
 20
54.37812619506582
 30
0.0
 41
0.9999968655123173
 10
-9.243296995318588
 20
54.42302880304565
 30
0.0
 41
1.0
  0
SPLINE
  5
140
330
1F
100
AcDbEntity
  8
Make2D visible lines - Tangent
100
AcDbSpline
210
0.0
220
0.0
230
1.0
 70
    12
 71
     2
 72
     6
 73
     3
 74
     0
 42
0.0000000001
 43
0.0000000001
 40
0.0
 40
0.0
 40
0.0
 40
0.1369528492222414
 40
0.1369528492222414
 40
0.1369528492222414
 10
9.242988361451836
 20
54.42338362836875
 30
0.0
 41
1.0
 10
9.292407956022585
 20
54.37598570245722
 30
0.0
 41
0.9999966913238282
 10
9.34031272109425
 20
54.3270179198367
 30
0.0
 41
0.9999959461296658
  0
ARC
  5
141
330
1F
100
AcDbEntity
  8
Make2D visible lines - Tangent
100
AcDbCircle
 10
8.992621223888818
 20
53.9676982532847
 30
0.0
 40
0.5
100
AcDbArc
 50
33.48715217353472
 51
45.94225522513261
  0
SPLINE
  5
142
330
1F
100
AcDbEntity
  8
Make2D visible lines - Tangent
100
AcDbSpline
210
0.0
220
0.0
230
1.0
 70
     8
 71
     3
 72
    14
 73
    10
 74
     0
 42
0.0000000001
 43
0.0000000001
 40
0.2772630823298201
 40
0.2772630823298201
 40
0.2772630823298201
 40
0.2772630823298201
 40
1.0
 40
2.0
 40
3.0
 40
4.0
 40
5.0
 40
6.0
 40
7.0
 40
7.0
 40
7.0
 40
7.0
 10
9.409626006751466
 20
54.24357324502855
 30
0.0
 10
9.432010478099741
 20
54.2097375154647
 30
0.0
 10
9.488974674522524
 20
54.13146643971476
 30
0.0
 10
9.593918645904921
 20
54.0198171598112
 30
0.0
 10
9.72529251495257
 20
53.9139194905926
 30
0.0
 10
9.870443972188653
 20
53.82749942321304
 30
0.0
 10
10.02908755691507
 20
53.76854145323748
 30
0.0
 10
10.19954596810611
 20
53.75379517887023
 30
0.0
 10
10.30789569181128
 20
53.79819387749979
 30
0.0
 10
10.34761847019628
 20
53.83863437733851
 30
0.0
  0
SPLINE
  5
143
330
1F
100
AcDbEntity
  8
Make2D visible lines - Tangent
100
AcDbSpline
210
0.0
220
0.0
230
1.0
 70
     8
 71
     3
 72
    14
 73
    10
 74
     0
 42
0.0000000001
 43
0.0000000001
 40
-7.0
 40
-7.0
 40
-7.0
 40
-7.0
 40
-6.0
 40
-5.0
 40
-4.0
 40
-3.0
 40
-2.0
 40
-1.0
 40
-0.2482205602640466
 40
-0.2482205602640466
 40
-0.2482205602640466
 40
-0.2482205602640466
 10
10.34761847019628
 20
53.83863437733851
 30
0.0
 10
10.388058970035
 20
53.87835715572351
 30
0.0
 10
10.43245766866455
 20
53.98670687942867
 30
0.0
 10
10.41771139429731
 20
54.15716529061972
 30
0.0
 10
10.35875342432175
 20
54.31580887534614
 30
0.0
 10
10.27233335694218
 20
54.46096033258222
 30
0.0
 10
10.16643568772359
 20
54.59233420162987
 30
0.0
 10
10.05359548237504
 20
54.6983975751788
 30
0.0
 10
9.973874119930358
 20
54.75616033367545
 30
0.0
 10
9.938595812812778
 20
54.77931801645109
 30
0.0
  0
ARC
  5
144
330
1F
100
AcDbEntity
  8
Make2D visible lines - Tangent
100
AcDbCircle
 10
10.21297615429246
 20
55.19730776298741
 30
0.0
 40
0.5
100
AcDbArc
 50
223.9775798079555
 51
236.7179678781666
  0
SPLINE
  5
145
330
1F
100
AcDbEntity
  8
Make2D visible lines - Tangent
100
AcDbSpline
210
0.0
220
0.0
230
1.0
 70
    12
 71
     2
 72
     6
 73
     3
 74
     0
 42
0.0000000001
 43
0.0000000001
 40
-0.1297405451143296
 40
-0.1297405451143296
 40
-0.1297405451143296
 40
0.0
 40
0.0
 40
0.0
 10
9.85317036960979
 20
54.85011934539706
 30
0.0
 41
0.9999960316975589
 10
9.808125942104425
 20
54.89680075745752
 30
0.0
 41
0.9999968655123173
 10
9.763223334124604
 20
54.94361860104152
 30
0.0
 41
1.0
  0
SPLINE
  5
146
330
1F
100
AcDbEntity
  8
Make2D visible lines - Tangent
100
AcDbSpline
210
0.0
220
0.0
230
1.0
 70
     8
 71
     3
 72
    12
 73
     8
 74
     0
 42
0.0000000001
 43
0.0000000001
 40
0.0
 40
0.0
 40
0.0
 40
0.0
 40
0.1510110321465192
 40
0.3037660471064116
 40
0.5900965017365678
 40
0.8249401141264362
 40
1.014583801502342
 40
1.014583801502342
 40
1.014583801502342
 40
1.014583801502342
 10
9.487034578486757
 20
54.13093843543641
 30
0.0
 10
9.518998643370011
 20
54.09202178221613
 30
0.0
 10
9.58792039490099
 20
54.01768390600013
 30
0.0
 10
9.739000619902924
 20
53.89094496107278
 30
0.0
 10
9.935997465807361
 20
53.77944062934064
 30
0.0
 10
10.17330433466327
 20
53.73269596623616
 30
0.0
 10
10.31370870345393
 20
53.78153774794868
 30
0.0
 10
10.35832520641092
 20
53.82792693888188
 30
0.0
  0
SPLINE
  5
147
330
1F
100
AcDbEntity
  8
Make2D visible lines - Tangent
100
AcDbSpline
210
0.0
220
0.0
230
1.0
 70
     8
 71
     3
 72
    12
 73
     8
 74
     0
 42
0.0000000001
 43
0.0000000001
 40
-1.014583801502342
 40
-1.014583801502342
 40
-1.014583801502342
 40
-1.014583801502342
 40
-0.8249401141264362
 40
-0.5900965017365678
 40
-0.3037660471064116
 40
-0.1510110321465192
 40
0.0
 40
0.0
 40
0.0
 40
0.0
 10
10.35832520641092
 20
53.82792693888188
 30
0.0
 10
10.40471439734414
 20
53.87254344183889
 30
0.0
 10
10.45355617905665
 20
54.01294781062953
 30
0.0
 10
10.40681151595217
 20
54.25025467948544
 30
0.0
 10
10.29530718422004
 20
54.44725152538988
 30
0.0
 10
10.16856823929267
 20
54.59833175039181
 30
0.0
 10
10.09423036307668
 20
54.66725350192279
 30
0.0
 10
10.05531370985639
 20
54.69921756680605
 30
0.0
  0
SPLINE
  5
148
330
1F
100
AcDbEntity
  8
Make2D visible lines
100
AcDbSpline
210
0.0
220
0.0
230
1.0
 70
    12
 71
     2
 72
     6
 73
     3
 74
     0
 42
0.0000000001
 43
0.0000000001
 40
0.0
 40
0.0
 40
0.0
 40
0.0853474550214741
 40
0.0853474550214741
 40
0.0853474550214741
 10
10.08218876291032
 20
54.67652949526796
 30
0.0
 41
1.0
 10
10.11441417613999
 20
54.64852887246914
 30
0.0
 41
0.9993970637774641
 10
10.14461867781098
 20
54.61835934788302
 30
0.0
 41
1.0
  0
SPLINE
  5
149
330
1F
100
AcDbEntity
  8
Make2D visible lines - Tangent
100
AcDbSpline
210
0.0
220
0.0
230
1.0
 70
    12
 71
     2
 72
     6
 73
     3
 74
     0
 42
0.0000000001
 43
0.0000000001
 40
-3.799577872997744
 40
-3.799577872997744
 40
-3.799577872997744
 40
0.0
 40
0.0
 40
0.0
 10
6.475983005830201
 20
71.24468968666734
 30
0.0
 41
0.9999999984898237
 10
7.834812255528212
 20
72.57365472894533
 30
0.0
 41
0.9999999988338578
 10
9.1939300712543
 20
73.90301448084011
 30
0.0
 41
1.0
  0
SPLINE
  5
14A
330
1F
100
AcDbEntity
  8
Make2D visible lines - Tangent
100
AcDbSpline
210
0.0
220
0.0
230
1.0
 70
     8
 71
     3
 72
    14
 73
    10
 74
     0
 42
0.0000000001
 43
0.0000000001
 40
0.0
 40
0.0
 40
0.0
 40
0.0
 40
1.0
 40
2.0
 40
3.0
 40
4.0
 40
5.0
 40
6.0
 40
7.0
 40
7.0
 40
7.0
 40
7.0
 10
9.1939300712543
 20
73.90301448084011
 30
0.0
 10
9.24438603042924
 20
73.9519856731444
 30
0.0
 10
9.352525998146504
 20
74.03142125403471
 30
0.0
 10
9.54214518692909
 20
74.09972233506537
 30
0.0
 10
9.750180251374161
 20
74.08233887565726
 30
0.0
 10
9.898538431662843
 20
73.929204451695
 30
0.0
 10
9.91139720838872
 20
73.7212247723433
 30
0.0
 10
9.840708704496251
 20
73.53256167569836
 30
0.0
 10
9.760148534834912
 20
73.42526153123447
 30
0.0
 10
9.713194123565458
 20
73.37826491540831
 30
0.0
  0
SPLINE
  5
14B
330
1F
100
AcDbEntity
  8
Make2D visible lines - Tangent
100
AcDbSpline
210
0.0
220
0.0
230
1.0
 70
    12
 71
     2
 72
     6
 73
     3
 74
     0
 42
0.0000000001
 43
0.0000000001
 40
0.0
 40
0.0
 40
0.0
 40
3.770590876880781
 40
3.770590876880781
 40
3.770590876880781
 10
9.713194123565458
 20
73.37826491540831
 30
0.0
 41
1.0
 10
8.394868033920323
 20
72.03054268440053
 30
0.0
 41
0.9999999988427543
 10
7.07661864173909
 20
70.68274543310294
 30
0.0
 41
0.9999999984951208
  0
SPLINE
  5
14C
330
1F
100
AcDbEntity
  8
Make2D visible lines - Tangent
100
AcDbSpline
210
0.0
220
0.0
230
1.0
 70
    12
 71
     2
 72
     6
 73
     3
 74
     0
 42
0.0000000001
 43
0.0000000001
 40
-3.651972160153635
 40
-3.651972160153635
 40
-3.651972160153635
 40
0.0
 40
0.0
 40
0.0
 10
7.161029752228196
 20
57.60469330467935
 30
0.0
 41
0.9999999985177943
 10
8.43838199939396
 20
56.29864097582676
 30
0.0
 41
0.99999999887916
 10
9.716098884480004
 20
54.99232206591596
 30
0.0
 41
1.0
  0
SPLINE
  5
14D
330
1F
100
AcDbEntity
  8
Make2D visible lines - Tangent
100
AcDbSpline
210
0.0
220
0.0
230
1.0
 70
     8
 71
     3
 72
    14
 73
    10
 74
     0
 42
0.0000000001
 43
0.0000000001
 40
0.0
 40
0.0
 40
0.0
 40
0.0
 40
1.0
 40
2.0
 40
3.0
 40
4.0
 40
5.0
 40
6.0
 40
7.0
 40
7.0
 40
7.0
 40
7.0
 10
9.716098884480004
 20
54.99232206591596
 30
0.0
 10
9.765070076784298
 20
54.941866106741
 30
0.0
 10
9.844505657674603
 20
54.83372613902374
 30
0.0
 10
9.912806738705257
 20
54.64410695024116
 30
0.0
 10
9.895423279297148
 20
54.43607188579609
 30
0.0
 10
9.742288855334905
 20
54.28771370550741
 30
0.0
 10
9.534309175983196
 20
54.27485492878153
 30
0.0
 10
9.345646079338252
 20
54.34554343267399
 30
0.0
 10
9.23834593487436
 20
54.42610360233535
 30
0.0
 10
9.1913493190482
 20
54.47305801360479
 30
0.0
  0
SPLINE
  5
14E
330
1F
100
AcDbEntity
  8
Make2D visible lines - Tangent
100
AcDbSpline
210
0.0
220
0.0
230
1.0
 70
    12
 71
     2
 72
     6
 73
     3
 74
     0
 42
0.0000000001
 43
0.0000000001
 40
0.0
 40
0.0
 40
0.0
 40
3.549969886497026
 40
3.549969886497026
 40
3.549969886497026
 10
9.1913493190482
 20
54.47305801360479
 30
0.0
 41
1.0
 10
7.922483644850697
 20
55.71424754366017
 30
0.0
 41
0.9999999989104659
 10
6.653551472437855
 20
56.95536908907435
 30
0.0
 41
0.9999999985385734
  0
SPLINE
  5
14F
330
1F
100
AcDbEntity
  8
Make2D visible lines - Tangent
100
AcDbSpline
210
0.0
220
0.0
230
1.0
 70
    12
 71
     2
 72
     6
 73
     3
 74
     0
 42
0.0000000001
 43
0.0000000001
 40
-3.553602127449321
 40
-3.553602127449321
 40
-3.553602127449321
 40
0.0
 40
0.0
 40
0.0
 10
-6.652582501396156
 20
56.95640824290751
 30
0.0
 41
0.999999998537813
 10
-7.923461809371317
 20
55.71345337707881
 30
0.0
 41
0.9999999989093511
 10
-9.194593530444152
 20
54.47015325269025
 30
0.0
 41
1.0
  0
SPLINE
  5
150
330
1F
100
AcDbEntity
  8
Make2D visible lines - Tangent
100
AcDbSpline
210
0.0
220
0.0
230
1.0
 70
     8
 71
     3
 72
    14
 73
    10
 74
     0
 42
0.0000000001
 43
0.0000000001
 40
0.0
 40
0.0
 40
0.0
 40
0.0
 40
1.0
 40
2.0
 40
3.0
 40
4.0
 40
5.0
 40
6.0
 40
7.0
 40
7.0
 40
7.0
 40
7.0
 10
-9.194593530444152
 20
54.47015325269025
 30
0.0
 10
-9.245049489619106
 20
54.42118206038595
 30
0.0
 10
-9.35318945733637
 20
54.34174647949565
 30
0.0
 10
-9.542808646118957
 20
54.27344539846499
 30
0.0
 10
-9.750843710564027
 20
54.29082885787309
 30
0.0
 10
-9.899201890852709
 20
54.44396328183535
 30
0.0
 10
-9.912060667578572
 20
54.65194296118705
 30
0.0
 10
-9.841372163686117
 20
54.840606057832
 30
0.0
 10
-9.760811994024763
 20
54.94790620229588
 30
0.0
 10
-9.713857582755324
 20
54.99490281812205
 30
0.0
  0
SPLINE
  5
151
330
1F
100
AcDbEntity
  8
Make2D visible lines - Tangent
100
AcDbSpline
210
0.0
220
0.0
230
1.0
 70
    12
 71
     2
 72
     6
 73
     3
 74
     0
 42
0.0000000001
 43
0.0000000001
 40
0.0
 40
0.0
 40
0.0
 40
3.652304510727871
 40
3.652304510727871
 40
3.652304510727871
 10
-9.713857582755324
 20
54.99490281812205
 30
0.0
 41
1.0
 10
-8.436888407136482
 20
56.30034595530252
 30
0.0
 41
0.9999999988790579
 10
-7.159991192280554
 20
57.60585947977681
 30
0.0
 41
0.9999999985177286
  0
SPLINE
  5
152
330
1F
100
AcDbEntity
  8
Make2D visible lines - Tangent
100
AcDbSpline
210
0.0
220
0.0
230
1.0
 70
    12
 71
     2
 72
     6
 73
     3
 74
     0
 42
0.0000000001
 43
0.0000000001
 40
-3.774101532423086
 40
-3.774101532423086
 40
-3.774101532423086
 40
0.0
 40
0.0
 40
0.0
 10
-7.076259108040942
 20
70.68112063767093
 30
0.0
 41
0.9999999984944742
 10
-8.396316008727391
 20
72.0308407979976
 30
0.0
 41
0.9999999988416769
 10
-9.71676234366987
 20
73.38084566761441
 30
0.0
 41
1.0
  0
SPLINE
  5
153
330
1F
100
AcDbEntity
  8
Make2D visible lines - Tangent
100
AcDbSpline
210
0.0
220
0.0
230
1.0
 70
     8
 71
     3
 72
    14
 73
    10
 74
     0
 42
0.0000000001
 43
0.0000000001
 40
0.0
 40
0.0
 40
0.0
 40
0.0
 40
1.0
 40
2.0
 40
3.0
 40
4.0
 40
5.0
 40
6.0
 40
7.0
 40
7.0
 40
7.0
 40
7.0
 10
-9.71676234366987
 20
73.38084566761441
 30
0.0
 10
-9.765733535974164
 20
73.43130162678935
 30
0.0
 10
-9.845169116864469
 20
73.53944159450661
 30
0.0
 10
-9.913470197895123
 20
73.72906078328919
 30
0.0
 10
-9.896086738487014
 20
73.93709584773427
 30
0.0
 10
-9.742952314524771
 20
74.08545402802295
 30
0.0
 10
-9.534972635173062
 20
74.09831280474882
 30
0.0
 10
-9.346309538528118
 20
74.02762430085636
 30
0.0
 10
-9.239009394064226
 20
73.947064131195
 30
0.0
 10
-9.192012778238066
 20
73.90010971992557
 30
0.0
  0
SPLINE
  5
154
330
1F
100
AcDbEntity
  8
Make2D visible lines - Tangent
100
AcDbSpline
210
0.0
220
0.0
230
1.0
 70
    12
 71
     2
 72
     6
 73
     3
 74
     0
 42
0.0000000001
 43
0.0000000001
 40
0.0
 40
0.0
 40
0.0
 40
3.799511942617317
 40
3.799511942617317
 40
3.799511942617317
 10
-9.192012778238066
 20
73.90010971992557
 30
0.0
 41
1.0
 10
-7.833953291199137
 20
72.57167184759432
 30
0.0
 41
0.9999999988338779
 10
-6.475817628637376
 20
71.24331185382069
 30
0.0
 41
0.9999999984898356
  0
SPLINE
  5
155
330
1F
100
AcDbEntity
  8
Make2D visible lines
100
AcDbSpline
210
0.0
220
0.0
230
1.0
 70
    28
 71
     2
 72
     6
 73
     3
 74
     0
 42
0.0000000001
 43
0.0000000001
 40
5.260000000000206
 40
5.260000000000206
 40
5.260000000000206
 40
19.10042682902355
 40
19.10042682902355
 40
19.10042682902355
 10
38.70732753269003
 20
11.77300000000004
 30
0.0
 41
1.0
 10
38.70732753269003
 20
18.69321341451171
 30
0.0
 41
1.0
 10
38.70732753269003
 20
25.61342682902338
 30
0.0
 41
1.0
  0
SPLINE
  5
156
330
1F
100
AcDbEntity
  8
Make2D visible lines
100
AcDbSpline
210
0.0
220
0.0
230
1.0
 70
    28
 71
     2
 72
     6
 73
     3
 74
     0
 42
0.0000000001
 43
0.0000000001
 40
23.17525477961723
 40
23.17525477961723
 40
23.17525477961723
 40
36.97000000000042
 40
36.97000000000042
 40
36.97000000000042
 10
36.12732753268983
 20
25.56774522038322
 30
0.0
 41
1.0
 10
36.12732753268983
 20
18.67037261019163
 30
0.0
 41
1.0
 10
36.12732753268983
 20
11.77300000000003
 30
0.0
 41
1.0
  0
SPLINE
  5
157
330
1F
100
AcDbEntity
  8
Make2D visible lines
100
AcDbSpline
210
0.0
220
0.0
230
1.0
 70
    28
 71
     2
 72
     6
 73
     3
 74
     0
 42
0.0000000001
 43
0.0000000001
 40
5.260000000000206
 40
5.260000000000206
 40
5.260000000000206
 40
19.05921790012276
 40
19.05921790012276
 40
19.05921790012276
 10
1.290000000000106
 20
11.77300000000004
 30
0.0
 41
1.0
 10
1.290000000000106
 20
18.67260895006132
 30
0.0
 41
1.0
 10
1.290000000000106
 20
25.5722179001226
 30
0.0
 41
1.0
  0
SPLINE
  5
158
330
1F
100
AcDbEntity
  8
Make2D visible lines
100
AcDbSpline
210
0.0
220
0.0
230
1.0
 70
    28
 71
     2
 72
     6
 73
     3
 74
     0
 42
0.0000000001
 43
0.0000000001
 40
23.1707825801278
 40
23.1707825801278
 40
23.1707825801278
 40
36.97000000000042
 40
36.97000000000042
 40
36.97000000000042
 10
-1.290000000000092
 20
25.57221741987265
 30
0.0
 41
1.0
 10
-1.290000000000092
 20
18.67260870993634
 30
0.0
 41
1.0
 10
-1.290000000000092
 20
11.77300000000003
 30
0.0
 41
1.0
  0
ENDSEC
  0
SECTION
  2
OBJECTS
  0
DICTIONARY
  5
C
330
0
100
AcDbDictionary
281
     1
  3
ACAD_GROUP
350
D
  3
ACAD_LAYOUT
350
1A
  3
ACAD_MLEADERSTYLE
350
15A
  3
ACAD_MLINESTYLE
350
17
  3
ACAD_PLOTSETTINGS
350
19
  3
ACAD_PLOTSTYLENAME
350
E
  3
ACAD_TABLESTYLE
350
159
  3
ACAD_VISUALSTYLE
350
2A
  0
DICTIONARY
  5
D
102
{ACAD_REACTORS
330
C
102
}
330
C
100
AcDbDictionary
281
     1
  0
DICTIONARY
  5
1A
102
{ACAD_REACTORS
330
C
102
}
330
C
100
AcDbDictionary
281
     1
  3
Layout1
350
1E
  3
Layout2
350
26
  3
Model
350
22
  0
DICTIONARY
  5
15A
102
{ACAD_REACTORS
330
C
102
}
330
C
100
AcDbDictionary
281
     1
  0
DICTIONARY
  5
17
102
{ACAD_REACTORS
330
C
102
}
330
C
100
AcDbDictionary
281
     1
  3
Standard
350
18
  0
DICTIONARY
  5
19
102
{ACAD_REACTORS
330
C
102
}
330
C
100
AcDbDictionary
281
     1
  0
ACDBDICTIONARYWDFLT
  5
E
102
{ACAD_REACTORS
330
C
102
}
330
C
100
AcDbDictionary
281
     1
  3
Normal
350
F
100
AcDbDictionaryWithDefault
340
F
  0
DICTIONARY
  5
159
102
{ACAD_REACTORS
330
C
102
}
330
C
100
AcDbDictionary
281
     1
  0
DICTIONARY
  5
2A
102
{ACAD_REACTORS
330
C
102
}
330
C
100
AcDbDictionary
281
     1
  3
2dWireframe
350
2F
  3
3D Hidden
350
31
  3
3dWireframe
350
30
  3
Basic
350
32
  3
Brighten
350
36
  3
ColorChange
350
3A
  3
Conceptual
350
34
  3
Dim
350
35
  3
Facepattern
350
39
  3
Flat
350
2B
  3
FlatWithEdges
350
2C
  3
Gouraud
350
2D
  3
GouraudWithEdges
350
2E
  3
Linepattern
350
38
  3
Realistic
350
33
  3
Thicken
350
37
  0
LAYOUT
  5
1E
102
{ACAD_REACTORS
330
1A
102
}
330
1A
100
AcDbPlotSettings
  1

  2
none_device
  4

  6

 40
0.0
 41
0.0
 42
0.0
 43
0.0
 44
0.0
 45
0.0
 46
0.0
 47
0.0
 48
0.0
 49
0.0
140
0.0
141
0.0
142
1.0
143
1.0
 70
   688
 72
     0
 73
     0
 74
     5
  7

 75
    16
 76
     0
 77
     2
 78
   300
147
1.0
148
0.0
149
0.0
100
AcDbLayout
  1
Layout1
 70
     1
 71
     1
 10
0.0
 20
0.0
 11
12.0
 21
9.0
 12
0.0
 22
0.0
 32
0.0
 14
1.000000000000000E+20
 24
1.000000000000000E+20
 34
1.000000000000000E+20
 15
-1.000000000000000E+20
 25
-1.000000000000000E+20
 35
-1.000000000000000E+20
146
0.0
 13
0.0
 23
0.0
 33
0.0
 16
1.0
 26
0.0
 36
0.0
 17
0.0
 27
1.0
 37
0.0
 76
     0
330
1B
  0
LAYOUT
  5
26
102
{ACAD_REACTORS
330
1A
102
}
330
1A
100
AcDbPlotSettings
  1

  2
none_device
  4

  6

 40
0.0
 41
0.0
 42
0.0
 43
0.0
 44
0.0
 45
0.0
 46
0.0
 47
0.0
 48
0.0
 49
0.0
140
0.0
141
0.0
142
1.0
143
1.0
 70
   688
 72
     0
 73
     0
 74
     5
  7

 75
    16
 76
     0
 77
     2
 78
   300
147
1.0
148
0.0
149
0.0
100
AcDbLayout
  1
Layout2
 70
     1
 71
     2
 10
0.0
 20
0.0
 11
0.0
 21
0.0
 12
0.0
 22
0.0
 32
0.0
 14
0.0
 24
0.0
 34
0.0
 15
0.0
 25
0.0
 35
0.0
146
0.0
 13
0.0
 23
0.0
 33
0.0
 16
1.0
 26
0.0
 36
0.0
 17
0.0
 27
1.0
 37
0.0
 76
     0
330
23
  0
LAYOUT
  5
22
102
{ACAD_REACTORS
330
1A
102
}
330
1A
100
AcDbPlotSettings
  1

  2
none_device
  4

  6

 40
0.0
 41
0.0
 42
0.0
 43
0.0
 44
0.0
 45
0.0
 46
0.0
 47
0.0
 48
0.0
 49
0.0
140
0.0
141
0.0
142
1.0
143
1.0
 70
  1712
 72
     0
 73
     0
 74
     0
  7

 75
     0
 76
     0
 77
     2
 78
   300
147
1.0
148
0.0
149
0.0
100
AcDbLayout
  1
Model
 70
     1
 71
     0
 10
0.0
 20
0.0
 11
12.0
 21
9.0
 12
0.0
 22
0.0
 32
0.0
 14
-10.43369870558606
 24
0.0000000000141378
 34
-0.0000312453044315
 15
47.85428262125117
 25
74.6199508427563
 35
0.0
146
0.0
 13
0.0
 23
0.0
 33
0.0
 16
1.0
 26
0.0
 36
0.0
 17
0.0
 27
1.0
 37
0.0
 76
     0
330
1F
331
29
  0
MLINESTYLE
  5
18
102
{ACAD_REACTORS
330
17
102
}
330
17
100
AcDbMlineStyle
  2
Standard
 70
     0
  3

 62
   256
 51
90.0
 52
90.0
 71
     2
 49
0.5
 62
   256
  6
BYLAYER
 49
-0.5
 62
   256
  6
BYLAYER
  0
ACDBPLACEHOLDER
  5
F
102
{ACAD_REACTORS
330
E
102
}
330
E
  0
VISUALSTYLE
  5
2F
102
{ACAD_REACTORS
330
2A
102
}
330
2A
100
AcDbVisualStyle
  2
2dWireframe
 70
     4
 71
     0
 72
     2
 73
     0
 90
        0
 40
-0.6
 41
-30.0
 62
     5
 63
     7
421
 16777215
 74
     1
 91
        4
 64
     7
 65
   257
 75
     1
175
     1
 42
1.0
 92
        0
 66
   257
 43
1.0
 76
     1
 77
     6
 78
     2
 67
     7
 79
     5
170
     0
171
     0
290
     0
174
     0
 93
        1
 44
0.0
173
     0
291
     0
 45
0.0
1001
ACAD
1000
AcDbSavedByObjectVersion
1070
     0
  0
VISUALSTYLE
  5
31
102
{ACAD_REACTORS
330
2A
102
}
330
2A
100
AcDbVisualStyle
  2
3D Hidden
 70
     6
 71
     1
 72
     2
 73
     2
 90
        0
 40
-0.6
 41
-30.0
 62
     5
 63
     7
421
 16777215
 74
     2
 91
        2
 64
     7
 65
   257
 75
     2
175
     1
 42
40.0
 92
        0
 66
   257
 43
1.0
 76
     1
 77
     6
 78
     2
 67
     7
 79
     3
170
     0
171
     0
290
     0
174
     0
 93
        1
 44
0.0
173
     0
291
     0
 45
0.0
1001
ACAD
1000
AcDbSavedByObjectVersion
1070
     0
  0
VISUALSTYLE
  5
30
102
{ACAD_REACTORS
330
2A
102
}
330
2A
100
AcDbVisualStyle
  2
3dWireframe
 70
     5
 71
     0
 72
     2
 73
     0
 90
        0
 40
-0.6
 41
-30.0
 62
     5
 63
     7
421
 16777215
 74
     1
 91
        4
 64
     7
 65
   257
 75
     1
175
     1
 42
1.0
 92
        0
 66
   257
 43
1.0
 76
     1
 77
     6
 78
     2
 67
     7
 79
     5
170
     0
171
     0
290
     0
174
     0
 93
        1
 44
0.0
173
     0
291
     0
 45
0.0
1001
ACAD
1000
AcDbSavedByObjectVersion
1070
     0
  0
VISUALSTYLE
  5
32
102
{ACAD_REACTORS
330
2A
102
}
330
2A
100
AcDbVisualStyle
  2
Basic
 70
     7
 71
     1
 72
     0
 73
     1
 90
        0
 40
-0.6
 41
-30.0
 62
     5
 63
     7
421
 16777215
 74
     0
 91
        4
 64
     7
 65
   257
 75
     1
175
     1
 42
1.0
 92
        8
 66
     7
 43
1.0
 76
     1
 77
     6
 78
     2
 67
     7
 79
     5
170
     0
171
     0
290
     0
174
     0
 93
        1
 44
0.0
173
     0
291
     1
 45
0.0
1001
ACAD
1000
AcDbSavedByObjectVersion
1070
     0
  0
VISUALSTYLE
  5
36
102
{ACAD_REACTORS
330
2A
102
}
330
2A
100
AcDbVisualStyle
  2
Brighten
 70
    12
 71
     2
 72
     2
 73
     0
 90
        0
 40
-0.6
 41
-30.0
 62
     5
 63
     7
421
 16777215
 74
     1
 91
        4
 64
     7
 65
   257
 75
     1
175
     1
 42
1.0
 92
        8
 66
     7
 43
1.0
 76
     1
 77
     6
 78
     2
 67
     7
 79
     5
170
     0
171
     0
290
     0
174
     0
 93
        1
 44
50.0
173
     0
291
     1
 45
0.0
1001
ACAD
1000
AcDbSavedByObjectVersion
1070
     0
  0
VISUALSTYLE
  5
3A
102
{ACAD_REACTORS
330
2A
102
}
330
2A
100
AcDbVisualStyle
  2
ColorChange
 70
    16
 71
     2
 72
     2
 73
     3
 90
        0
 40
-0.6
 41
-30.0
 62
     5
 63
     8
421
  8421504
 74
     1
 91
        4
 64
     7
 65
   257
 75
     1
175
     1
 42
1.0
 92
        8
 66
     8
424
  8421504
 43
1.0
 76
     1
 77
     6
 78
     2
 67
     7
 79
     5
170
     0
171
     0
290
     0
174
     0
 93
        1
 44
0.0
173
     0
291
     1
 45
0.0
1001
ACAD
1000
AcDbSavedByObjectVersion
1070
     0
  0
VISUALSTYLE
  5
34
102
{ACAD_REACTORS
330
2A
102
}
330
2A
100
AcDbVisualStyle
  2
Conceptual
 70
     9
 71
     3
 72
     2
 73
     0
 90
        0
 40
-0.6
 41
-30.0
 62
     5
 63
     7
421
 16777215
 74
     2
 91
        2
 64
     7
 65
   257
 75
     1
175
     1
 42
40.0
 92
        8
 66
     7
 43
1.0
 76
     1
 77
     6
 78
     2
 67
     7
 79
     3
170
     0
171
     0
290
     0
174
     0
 93
        1
 44
0.0
173
     0
291
     0
 45
0.0
1001
ACAD
1000
AcDbSavedByObjectVersion
1070
     0
  0
VISUALSTYLE
  5
35
102
{ACAD_REACTORS
330
2A
102
}
330
2A
100
AcDbVisualStyle
  2
Dim
 70
    11
 71
     2
 72
     2
 73
     0
 90
        0
 40
-0.6
 41
-30.0
 62
     5
 63
     7
421
 16777215
 74
     1
 91
        4
 64
     7
 65
   257
 75
     1
175
     1
 42
1.0
 92
        8
 66
     7
 43
1.0
 76
     1
 77
     6
 78
     2
 67
     7
 79
     5
170
     0
171
     0
290
     0
174
     0
 93
        1
 44
-50.0
173
     0
291
     1
 45
0.0
1001
ACAD
1000
AcDbSavedByObjectVersion
1070
     0
  0
VISUALSTYLE
  5
39
102
{ACAD_REACTORS
330
2A
102
}
330
2A
100
AcDbVisualStyle
  2
Facepattern
 70
    15
 71
     2
 72
     2
 73
     0
 90
        0
 40
-0.6
 41
-30.0
 62
     5
 63
     7
421
 16777215
 74
     1
 91
        4
 64
     7
 65
   257
 75
     1
175
     1
 42
1.0
 92
        8
 66
     7
 43
1.0
 76
     1
 77
     6
 78
     2
 67
     7
 79
     5
170
     0
171
     0
290
     0
174
     0
 93
        1
 44
0.0
173
     0
291
     1
 45
0.0
1001
ACAD
1000
AcDbSavedByObjectVersion
1070
     0
  0
VISUALSTYLE
  5
2B
102
{ACAD_REACTORS
330
2A
102
}
330
2A
100
AcDbVisualStyle
  2
Flat
 70
     0
 71
     2
 72
     1
 73
     1
 90
        2
 40
-0.6
 41
30.0
 62
     5
 63
     7
421
 16777215
 74
     0
 91
        4
 64
     7
 65
   257
 75
     1
175
     1
 42
1.0
 92
        8
 66
     7
 43
1.0
 76
     1
 77
     6
 78
     2
 67
     7
 79
     5
170
     0
171
     0
290
     0
174
     0
 93
       13
 44
0.0
173
     0
291
     1
 45
0.0
1001
ACAD
1000
AcDbSavedByObjectVersion
1070
     0
  0
VISUALSTYLE
  5
2C
102
{ACAD_REACTORS
330
2A
102
}
330
2A
100
AcDbVisualStyle
  2
FlatWithEdges
 70
     1
 71
     2
 72
     1
 73
     1
 90
        2
 40
-0.6
 41
30.0
 62
     5
 63
     7
421
 16777215
 74
     1
 91
        4
 64
     7
 65
   257
 75
     1
175
     1
 42
1.0
 92
        0
 66
   257
 43
1.0
 76
     1
 77
     6
 78
     2
 67
     7
 79
     5
170
     0
171
     0
290
     0
174
     0
 93
       13
 44
0.0
173
     0
291
     1
 45
0.0
1001
ACAD
1000
AcDbSavedByObjectVersion
1070
     0
  0
VISUALSTYLE
  5
2D
102
{ACAD_REACTORS
330
2A
102
}
330
2A
100
AcDbVisualStyle
  2
Gouraud
 70
     2
 71
     2
 72
     2
 73
     1
 90
        2
 40
-0.6
 41
30.0
 62
     5
 63
     7
421
 16777215
 74
     0
 91
        4
 64
     7
 65
   257
 75
     1
175
     1
 42
1.0
 92
        0
 66
     7
 43
1.0
 76
     1
 77
     6
 78
     2
 67
     7
 79
     5
170
     0
171
     0
290
     0
174
     0
 93
       13
 44
0.0
173
     0
291
     1
 45
0.0
1001
ACAD
1000
AcDbSavedByObjectVersion
1070
     0
  0
VISUALSTYLE
  5
2E
102
{ACAD_REACTORS
330
2A
102
}
330
2A
100
AcDbVisualStyle
  2
GouraudWithEdges
 70
     3
 71
     2
 72
     2
 73
     1
 90
        2
 40
-0.6
 41
30.0
 62
     5
 63
     7
421
 16777215
 74
     1
 91
        4
 64
     7
 65
   257
 75
     1
175
     1
 42
1.0
 92
        0
 66
   257
 43
1.0
 76
     1
 77
     6
 78
     2
 67
     7
 79
     5
170
     0
171
     0
290
     0
174
     0
 93
       13
 44
0.0
173
     0
291
     1
 45
0.0
1001
ACAD
1000
AcDbSavedByObjectVersion
1070
     0
  0
VISUALSTYLE
  5
38
102
{ACAD_REACTORS
330
2A
102
}
330
2A
100
AcDbVisualStyle
  2
Linepattern
 70
    14
 71
     2
 72
     2
 73
     0
 90
        0
 40
-0.6
 41
-30.0
 62
     5
 63
     7
421
 16777215
 74
     1
 91
        4
 64
     7
 65
   257
 75
     7
175
     7
 42
1.0
 92
        8
 66
     7
 43
1.0
 76
     1
 77
     6
 78
     2
 67
     7
 79
     5
170
     0
171
     0
290
     0
174
     0
 93
        1
 44
0.0
173
     0
291
     1
 45
0.0
1001
ACAD
1000
AcDbSavedByObjectVersion
1070
     0
  0
VISUALSTYLE
  5
33
102
{ACAD_REACTORS
330
2A
102
}
330
2A
100
AcDbVisualStyle
  2
Realistic
 70
     8
 71
     2
 72
     2
 73
     0
 90
        0
 40
-0.6
 41
-30.0
 62
     5
 63
     7
421
 16777215
 74
     1
 91
        0
 64
     7
 65
   257
 75
     1
175
     1
 42
1.0
 92
        8
 66
     8
424
  7895160
 43
1.0
 76
     1
 77
     6
 78
     2
 67
     7
 79
     5
170
     0
171
     0
290
     0
174
     0
 93
       13
 44
0.0
173
     0
291
     0
 45
0.0
1001
ACAD
1000
AcDbSavedByObjectVersion
1070
     0
  0
VISUALSTYLE
  5
37
102
{ACAD_REACTORS
330
2A
102
}
330
2A
100
AcDbVisualStyle
  2
Thicken
 70
    13
 71
     2
 72
     2
 73
     0
 90
        0
 40
-0.6
 41
-30.0
 62
     5
 63
     7
421
 16777215
 74
     1
 91
        4
 64
     7
 65
   257
 75
     1
175
     1
 42
1.0
 92
       12
 66
     7
 43
1.0
 76
     1
 77
     6
 78
     2
 67
     7
 79
     5
170
     0
171
     0
290
     0
174
     0
 93
        1
 44
0.0
173
     0
291
     1
 45
0.0
1001
ACAD
1000
AcDbSavedByObjectVersion
1070
     0
  0
ENDSEC
  0
EOF
