  0
SECTION
  2
HEADER
  9
$ACADVER
  1
AC1018
  9
$ACADMAINTVER
 70
     0
  9
$DWGCODEPAGE
  3
ANSI_1252
  9
$INSBASE
 10
0.0
 20
0.0
 30
0.0
  9
$EXTMIN
 10
-13.55406468864557
 20
-0.0025304891157205
 30
-0.0000312453044315
  9
$EXTMAX
 10
50.10846654555476
 20
72.80579324363649
 30
0.0
  9
$LIMMIN
 10
0.0
 20
0.0
  9
$LIMMAX
 10
12.0
 20
9.0
  9
$ORTHOMODE
 70
     0
  9
$REGENMODE
 70
     1
  9
$FILLMODE
 70
     1
  9
$QTEXTMODE
 70
     0
  9
$MIRRTEXT
 70
     1
  9
$LTSCALE
 40
0.0393700787401575
  9
$ATTMODE
 70
     1
  9
$TEXTSIZE
 40
0.2
  9
$TRACEWID
 40
0.05
  9
$TEXTSTYLE
  7
Standard
  9
$CLAYER
  8
Default
  9
$CELTYPE
  6
ByLayer
  9
$CECOLOR
 62
   256
  9
$CELTSCALE
 40
1.0
  9
$DISPSILH
 70
     0
  9
$DIMSCALE
 40
1.0
  9
$DIMASZ
 40
0.18
  9
$DIMEXO
 40
0.0625
  9
$DIMDLI
 40
0.38
  9
$DIMRND
 40
0.0
  9
$DIMDLE
 40
0.0
  9
$DIMEXE
 40
0.18
  9
$DIMTP
 40
0.0
  9
$DIMTM
 40
0.0
  9
$DIMTXT
 40
0.18
  9
$DIMCEN
 40
0.09
  9
$DIMTSZ
 40
0.0
  9
$DIMTOL
 70
     0
  9
$DIMLIM
 70
     0
  9
$DIMTIH
 70
     1
  9
$DIMTOH
 70
     1
  9
$DIMSE1
 70
     0
  9
$DIMSE2
 70
     0
  9
$DIMTAD
 70
     0
  9
$DIMZIN
 70
     0
  9
$DIMBLK
  1

  9
$DIMASO
 70
     1
  9
$DIMSHO
 70
     1
  9
$DIMPOST
  1

  9
$DIMAPOST
  1

  9
$DIMALT
 70
     0
  9
$DIMALTD
 70
     2
  9
$DIMALTF
 40
25.4
  9
$DIMLFAC
 40
1.0
  9
$DIMTOFL
 70
     0
  9
$DIMTVP
 40
0.0
  9
$DIMTIX
 70
     0
  9
$DIMSOXD
 70
     0
  9
$DIMSAH
 70
     0
  9
$DIMBLK1
  1

  9
$DIMBLK2
  1

  9
$DIMSTYLE
  2
Standard
  9
$DIMCLRD
 70
     0
  9
$DIMCLRE
 70
     0
  9
$DIMCLRT
 70
     0
  9
$DIMTFAC
 40
1.0
  9
$DIMGAP
 40
0.09
  9
$DIMJUST
 70
     0
  9
$DIMSD1
 70
     0
  9
$DIMSD2
 70
     0
  9
$DIMTOLJ
 70
     1
  9
$DIMTZIN
 70
     0
  9
$DIMALTZ
 70
     0
  9
$DIMALTTZ
 70
     0
  9
$DIMUPT
 70
     0
  9
$DIMDEC
 70
     4
  9
$DIMTDEC
 70
     4
  9
$DIMALTU
 70
     2
  9
$DIMALTTD
 70
     2
  9
$DIMTXSTY
  7
Standard
  9
$DIMAUNIT
 70
     0
  9
$DIMADEC
 70
     0
  9
$DIMALTRND
 40
0.0
  9
$DIMAZIN
 70
     0
  9
$DIMDSEP
 70
    46
  9
$DIMATFIT
 70
     3
  9
$DIMFRAC
 70
     0
  9
$DIMLDRBLK
  1

  9
$DIMLUNIT
 70
     2
  9
$DIMLWD
 70
    -2
  9
$DIMLWE
 70
    -2
  9
$DIMTMOVE
 70
     2
  9
$LUNITS
 70
     2
  9
$LUPREC
 70
     3
  9
$SKETCHINC
 40
0.1
  9
$FILLETRAD
 40
0.5
  9
$AUNITS
 70
     0
  9
$AUPREC
 70
     0
  9
$MENU
  1
.
  9
$ELEVATION
 40
0.0
  9
$PELEVATION
 40
0.0
  9
$THICKNESS
 40
0.0
  9
$LIMCHECK
 70
     0
  9
$CHAMFERA
 40
0.5
  9
$CHAMFERB
 40
0.5
  9
$CHAMFERC
 40
1.0
  9
$CHAMFERD
 40
0.0
  9
$SKPOLY
 70
     0
  9
$TDCREATE
 40
2456338.485627512
  9
$TDUCREATE
 40
2456338.693960845
  9
$TDUPDATE
 40
2456338.485627523
  9
$TDUUPDATE
 40
2456338.693960857
  9
$TDINDWG
 40
0.0000000116
  9
$TDUSRTIMER
 40
0.0000000116
  9
$USRTIMER
 70
     1
  9
$ANGBASE
 50
0.0
  9
$ANGDIR
 70
     0
  9
$PDMODE
 70
     0
  9
$PDSIZE
 40
0.0
  9
$PLINEWID
 40
0.0
  9
$SPLFRAME
 70
     0
  9
$SPLINETYPE
 70
     6
  9
$SPLINESEGS
 70
     8
  9
$HANDSEED
  5
327
  9
$SURFTAB1
 70
     6
  9
$SURFTAB2
 70
     6
  9
$SURFTYPE
 70
     6
  9
$SURFU
 70
     6
  9
$SURFV
 70
     6
  9
$UCSBASE
  2

  9
$UCSNAME
  2

  9
$UCSORG
 10
0.0
 20
0.0
 30
0.0
  9
$UCSXDIR
 10
1.0
 20
0.0
 30
0.0
  9
$UCSYDIR
 10
0.0
 20
1.0
 30
0.0
  9
$UCSORTHOREF
  2

  9
$UCSORTHOVIEW
 70
     0
  9
$UCSORGTOP
 10
0.0
 20
0.0
 30
0.0
  9
$UCSORGBOTTOM
 10
0.0
 20
0.0
 30
0.0
  9
$UCSORGLEFT
 10
0.0
 20
0.0
 30
0.0
  9
$UCSORGRIGHT
 10
0.0
 20
0.0
 30
0.0
  9
$UCSORGFRONT
 10
0.0
 20
0.0
 30
0.0
  9
$UCSORGBACK
 10
0.0
 20
0.0
 30
0.0
  9
$PUCSBASE
  2

  9
$PUCSNAME
  2

  9
$PUCSORG
 10
0.0
 20
0.0
 30
0.0
  9
$PUCSXDIR
 10
1.0
 20
0.0
 30
0.0
  9
$PUCSYDIR
 10
0.0
 20
1.0
 30
0.0
  9
$PUCSORTHOREF
  2

  9
$PUCSORTHOVIEW
 70
     0
  9
$PUCSORGTOP
 10
0.0
 20
0.0
 30
0.0
  9
$PUCSORGBOTTOM
 10
0.0
 20
0.0
 30
0.0
  9
$PUCSORGLEFT
 10
0.0
 20
0.0
 30
0.0
  9
$PUCSORGRIGHT
 10
0.0
 20
0.0
 30
0.0
  9
$PUCSORGFRONT
 10
0.0
 20
0.0
 30
0.0
  9
$PUCSORGBACK
 10
0.0
 20
0.0
 30
0.0
  9
$USERI1
 70
     0
  9
$USERI2
 70
     0
  9
$USERI3
 70
     0
  9
$USERI4
 70
     0
  9
$USERI5
 70
     0
  9
$USERR1
 40
0.0
  9
$USERR2
 40
0.0
  9
$USERR3
 40
0.0
  9
$USERR4
 40
0.0
  9
$USERR5
 40
0.0
  9
$WORLDVIEW
 70
     1
  9
$SHADEDGE
 70
     3
  9
$SHADEDIF
 70
    70
  9
$TILEMODE
 70
     1
  9
$MAXACTVP
 70
    64
  9
$PINSBASE
 10
0.0
 20
0.0
 30
0.0
  9
$PLIMCHECK
 70
     0
  9
$PEXTMIN
 10
1.000000000000000E+20
 20
1.000000000000000E+20
 30
1.000000000000000E+20
  9
$PEXTMAX
 10
-1.000000000000000E+20
 20
-1.000000000000000E+20
 30
-1.000000000000000E+20
  9
$PLIMMIN
 10
0.0
 20
0.0
  9
$PLIMMAX
 10
12.0
 20
9.0
  9
$UNITMODE
 70
     0
  9
$VISRETAIN
 70
     1
  9
$PLINEGEN
 70
     0
  9
$PSLTSCALE
 70
     1
  9
$TREEDEPTH
 70
  3020
  9
$CMLSTYLE
  2
Standard
  9
$CMLJUST
 70
     0
  9
$CMLSCALE
 40
1.0
  9
$PROXYGRAPHICS
 70
     1
  9
$MEASUREMENT
 70
     0
  9
$CELWEIGHT
370
    -1
  9
$ENDCAPS
280
     0
  9
$JOINSTYLE
280
     0
  9
$LWDISPLAY
290
     0
  9
$INSUNITS
 70
     1
  9
$HYPERLINKBASE
  1

  9
$STYLESHEET
  1

  9
$XEDIT
290
     1
  9
$CEPSNTYPE
380
     0
  9
$PSTYLEMODE
290
     1
  9
$FINGERPRINTGUID
  2
{36A4109F-D552-4677-9F05-25D556905B67}
  9
$VERSIONGUID
  2
{FAEB1C32-E019-11D5-929B-00C0DF256EC4}
  9
$EXTNAMES
290
     1
  9
$PSVPSCALE
 40
0.0
  9
$OLESTARTUP
290
     0
  9
$SORTENTS
280
   127
  9
$INDEXCTL
280
     0
  9
$HIDETEXT
280
     1
  9
$XCLIPFRAME
290
     0
  9
$HALOGAP
280
     0
  9
$OBSCOLOR
 70
   257
  9
$OBSLTYPE
280
     0
  9
$INTERSECTIONDISPLAY
280
     0
  9
$INTERSECTIONCOLOR
 70
   257
  9
$DIMASSOC
280
     2
  9
$PROJECTNAME
  1

  0
ENDSEC
  0
SECTION
  2
CLASSES
  0
CLASS
  1
ACDBDICTIONARYWDFLT
  2
AcDbDictionaryWithDefault
  3
ObjectDBX Classes
 90
        0
 91
        4
280
     0
281
     0
  0
CLASS
  1
VISUALSTYLE
  2
AcDbVisualStyle
  3
ObjectDBX Classes
 90
     4095
 91
        4
280
     0
281
     0
  0
ENDSEC
  0
SECTION
  2
TABLES
  0
TABLE
  2
VPORT
  5
8
330
0
100
AcDbSymbolTable
 70
     1
  0
VPORT
  5
29
330
8
100
AcDbSymbolTableRecord
100
AcDbViewportTableRecord
  2
*Active
 70
     0
 10
0.0
 20
0.0
 11
1.0
 21
1.0
 12
18.2772009284546
 22
36.40163137726039
 13
0.0
 23
0.0
 14
0.5
 24
0.5
 15
0.5
 25
0.5
 16
0.0
 26
0.0
 36
1.0
 17
0.0
 27
0.0
 37
0.0
 40
74.26449020740725
 41
0.8743853445641447
 42
50.0
 43
0.0
 44
0.0
 50
0.0
 51
0.0
 71
     0
 72
   100
 73
     1
 74
     3
 75
     0
 76
     0
 77
     0
 78
     0
281
     0
 65
     1
110
0.0
120
0.0
130
0.0
111
1.0
121
0.0
131
0.0
112
0.0
122
1.0
132
0.0
 79
     0
146
0.0
  0
ENDTAB
  0
TABLE
  2
LTYPE
  5
5
330
0
100
AcDbSymbolTable
 70
     1
  0
LTYPE
  5
14
330
5
100
AcDbSymbolTableRecord
100
AcDbLinetypeTableRecord
  2
ByBlock
 70
     0
  3

 72
    65
 73
     0
 40
0.0
  0
LTYPE
  5
15
330
5
100
AcDbSymbolTableRecord
100
AcDbLinetypeTableRecord
  2
ByLayer
 70
     0
  3

 72
    65
 73
     0
 40
0.0
  0
LTYPE
  5
16
330
5
100
AcDbSymbolTableRecord
100
AcDbLinetypeTableRecord
  2
Continuous
 70
     0
  3
Solid line
 72
    65
 73
     0
 40
0.0
  0
ENDTAB
  0
TABLE
  2
LAYER
  5
2
330
0
100
AcDbSymbolTable
 70
     4
  0
LAYER
  5
10
330
2
100
AcDbSymbolTableRecord
100
AcDbLayerTableRecord
  2
0
 70
     0
 62
     7
  6
Continuous
370
    -3
390
F
  0
LAYER
  5
3B
330
2
100
AcDbSymbolTableRecord
100
AcDbLayerTableRecord
  2
Make2D visible lines
 70
     0
 62
     7
  6
Continuous
370
    -3
390
F
  0
LAYER
  5
3D
330
2
100
AcDbSymbolTableRecord
100
AcDbLayerTableRecord
  2
Make2D visible lines - Tangent
 70
     0
 62
     7
  6
Continuous
370
    -3
390
F
  0
LAYER
  5
42
330
2
100
AcDbSymbolTableRecord
100
AcDbLayerTableRecord
  2
Default
 70
     0
 62
     7
  6
Continuous
370
    -3
390
F
  0
ENDTAB
  0
TABLE
  2
STYLE
  5
3
330
0
100
AcDbSymbolTable
 70
     1
  0
STYLE
  5
11
330
3
100
AcDbSymbolTableRecord
100
AcDbTextStyleTableRecord
  2
Standard
 70
     0
 40
0.0
 41
1.0
 50
0.0
 71
     0
 42
0.2
  3
txt
  4

  0
ENDTAB
  0
TABLE
  2
VIEW
  5
6
330
0
100
AcDbSymbolTable
 70
     0
  0
ENDTAB
  0
TABLE
  2
UCS
  5
7
330
0
100
AcDbSymbolTable
 70
     0
  0
ENDTAB
  0
TABLE
  2
APPID
  5
9
330
0
100
AcDbSymbolTable
 70
     1
  0
APPID
  5
12
330
9
100
AcDbSymbolTableRecord
100
AcDbRegAppTableRecord
  2
ACAD
 70
     0
  0
ENDTAB
  0
TABLE
  2
DIMSTYLE
  5
A
330
0
100
AcDbSymbolTable
 70
     1
100
AcDbDimStyleTable
  0
DIMSTYLE
105
27
330
A
100
AcDbSymbolTableRecord
100
AcDbDimStyleTableRecord
  2
Standard
 70
     0
340
11
  0
ENDTAB
  0
TABLE
  2
BLOCK_RECORD
  5
1
330
0
100
AcDbSymbolTable
 70
     1
  0
BLOCK_RECORD
  5
1F
330
1
100
AcDbSymbolTableRecord
100
AcDbBlockTableRecord
  2
*Model_Space
340
22
  0
BLOCK_RECORD
  5
1B
330
1
100
AcDbSymbolTableRecord
100
AcDbBlockTableRecord
  2
*Paper_Space
340
1E
  0
BLOCK_RECORD
  5
23
330
1
100
AcDbSymbolTableRecord
100
AcDbBlockTableRecord
  2
*Paper_Space0
340
26
  0
ENDTAB
  0
ENDSEC
  0
SECTION
  2
BLOCKS
  0
BLOCK
  5
20
330
1F
100
AcDbEntity
  8
0
100
AcDbBlockBegin
  2
*Model_Space
 70
     0
 10
0.0
 20
0.0
 30
0.0
  3
*Model_Space
  1

  0
ENDBLK
  5
21
330
1F
100
AcDbEntity
  8
0
100
AcDbBlockEnd
  0
BLOCK
  5
1C
330
1B
100
AcDbEntity
 67
     1
  8
0
100
AcDbBlockBegin
  2
*Paper_Space
 70
     0
 10
0.0
 20
0.0
 30
0.0
  3
*Paper_Space
  1

  0
ENDBLK
  5
1D
330
1B
100
AcDbEntity
 67
     1
  8
0
100
AcDbBlockEnd
  0
BLOCK
  5
24
330
23
100
AcDbEntity
  8
0
100
AcDbBlockBegin
  2
*Paper_Space0
 70
     0
 10
0.0
 20
0.0
 30
0.0
  3
*Paper_Space0
  1

  0
ENDBLK
  5
25
330
23
100
AcDbEntity
  8
0
100
AcDbBlockEnd
  0
ENDSEC
  0
SECTION
  2
ENTITIES
  0
SPLINE
  5
3C
330
1F
100
AcDbEntity
  8
Make2D visible lines
100
AcDbSpline
210
0.0
220
0.0
230
1.0
 70
    24
 71
     2
 72
     6
 73
     3
 74
     0
 42
0.0000000001
 43
0.0000000001
 40
0.0
 40
0.0
 40
0.0
 40
0.0399960912937067
 40
0.0399960912937067
 40
0.0399960912937067
 10
-1.204519965289371
 20
9.907469510884283
 30
0.0
 10
-1.204868979309929
 20
9.887474511036643
 30
0.0
 10
-1.205217993330486
 20
9.867479511189005
 30
0.0
  0
ARC
  5
3E
330
1F
100
AcDbEntity
  8
Make2D visible lines - Tangent
100
AcDbCircle
 10
-1.338428905757056
 20
9.694752037040397
 30
0.0
 40
0.1665138748586413
100
AcDbArc
 50
245.0009483154782
 51
284.0035977510277
  0
LINE
  5
3F
330
1F
100
AcDbEntity
  8
Make2D visible lines - Tangent
100
AcDbLine
 10
-1.408798212303452
 20
9.543838050887295
 30
0.0
 11
-5.407404452761639
 21
11.40833819077282
 31
0.0
  0
ARC
  5
40
330
1F
100
AcDbEntity
  8
Make2D visible lines
100
AcDbCircle
 10
-1.784909830652637
 20
7.632663593949713
 30
0.0
 40
0.5393705911335501
100
AcDbArc
 50
26.19427060885366
 51
59.10999539419113
  0
ARC
  5
41
330
1F
100
AcDbEntity
  8
Make2D visible lines
100
AcDbCircle
 10
-617.1528704366432
 20
-1020.979455727856
 30
0.0
 40
1199.172182988689
100
AcDbArc
 50
59.10999539418733
 51
59.41970713211845
  0
POLYLINE
  5
43
330
1F
100
AcDbEntity
  8
Default
100
AcDb2dPolyline
 66
     1
 10
0.0
 20
0.0
 30
0.0
  0
VERTEX
  5
44
330
43
100
AcDbEntity
  8
Default
100
AcDbVertex
100
AcDb2dVertex
 10
-0.5732765079336559
 20
11.40833819077929
 30
0.0
  0
VERTEX
  5
45
330
43
100
AcDbEntity
  8
Default
100
AcDbVertex
100
AcDb2dVertex
 10
0.5628401721601648
 20
11.40833819077929
 30
0.0
  0
SEQEND
  5
46
330
43
100
AcDbEntity
  8
Default
  0
SPLINE
  5
47
330
1F
100
AcDbEntity
  8
Make2D visible lines
100
AcDbSpline
210
0.0
220
0.0
230
1.0
 70
    24
 71
     2
 72
     6
 73
     3
 74
     0
 42
0.0000000001
 43
0.0000000001
 40
0.0
 40
0.0
 40
0.0
 40
0.0399960912937067
 40
0.0399960912937067
 40
0.0399960912937067
 10
1.19408362951588
 20
9.907469510884283
 30
0.0
 10
1.194432643536437
 20
9.887474511036643
 30
0.0
 10
1.194781657556995
 20
9.867479511189005
 30
0.0
  0
ARC
  5
48
330
1F
100
AcDbEntity
  8
Make2D visible lines - Tangent
100
AcDbCircle
 10
1.327992569983564
 20
9.694752037040397
 30
0.0
 40
0.1665138748586413
100
AcDbArc
 50
255.9964022489723
 51
294.9990516845218
  0
LINE
  5
49
330
1F
100
AcDbEntity
  8
Make2D visible lines - Tangent
100
AcDbLine
 10
1.398361876529961
 20
9.543838050887295
 30
0.0
 11
5.396968116988148
 21
11.40833819077282
 31
0.0
  0
ARC
  5
4A
330
1F
100
AcDbEntity
  8
Make2D visible lines
100
AcDbCircle
 10
1.774473494879146
 20
7.632663593949713
 30
0.0
 40
0.5393705911335501
100
AcDbArc
 50
120.8900046058089
 51
153.8057293911463
  0
ARC
  5
4B
330
1F
100
AcDbEntity
  8
Make2D visible lines
100
AcDbCircle
 10
617.1424341008697
 20
-1020.979455727856
 30
0.0
 40
1199.172182988689
100
AcDbArc
 50
120.5802928678849
 51
120.890004605816
  0
SPLINE
  5
4C
330
1F
100
AcDbEntity
  8
Default
100
AcDbSpline
210
0.0
220
0.0
230
1.0
 70
    24
 71
     2
 72
     6
 73
     3
 74
     0
 42
0.0000000001
 43
0.0000000001
 40
0.0
 40
0.0
 40
0.0
 40
0.9316089876431572
 40
0.9316089876431572
 40
0.9316089876431572
 10
-0.3636091802433867
 20
9.867469510884291
 30
0.0
 10
-0.8294136740649662
 20
9.867469510884291
 30
0.0
 10
-1.295218167886546
 20
9.867469510884291
 30
0.0
  0
POLYLINE
  5
4D
330
1F
100
AcDbEntity
  8
Default
100
AcDb2dPolyline
 66
     1
 10
0.0
 20
0.0
 30
0.0
  0
VERTEX
  5
4E
330
4D
100
AcDbEntity
  8
Default
100
AcDbVertex
100
AcDb2dVertex
 10
-1.295218167886546
 20
9.867469510884291
 30
0.0
  0
VERTEX
  5
4F
330
4D
100
AcDbEntity
  8
Default
100
AcDbVertex
100
AcDb2dVertex
 10
-1.289999999999992
 20
7.317469510884273
 30
0.0
  0
SEQEND
  5
50
330
4D
100
AcDbEntity
  8
Default
  0
SPLINE
  5
51
330
1F
100
AcDbEntity
  8
Default
100
AcDbSpline
210
0.0
220
0.0
230
1.0
 70
    24
 71
     2
 72
     6
 73
     3
 74
     0
 42
0.0000000001
 43
0.0000000001
 40
0.0
 40
0.0
 40
0.0
 40
2.574781832113447
 40
2.574781832113447
 40
2.574781832113447
 10
-1.289999999999992
 20
7.317469510884273
 30
0.0
 10
-0.0039136259150077
 20
7.317469510884273
 30
0.0
 10
1.282172748169977
 20
7.317469510884273
 30
0.0
  0
POLYLINE
  5
52
330
1F
100
AcDbEntity
  8
Default
100
AcDb2dPolyline
 66
     1
 10
0.0
 20
0.0
 30
0.0
  0
VERTEX
  5
53
330
52
100
AcDbEntity
  8
Default
100
AcDbVertex
100
AcDb2dVertex
 10
1.282172748169977
 20
7.317469510884273
 30
0.0
  0
VERTEX
  5
54
330
52
100
AcDbEntity
  8
Default
100
AcDbVertex
100
AcDb2dVertex
 10
1.284781832113055
 20
9.867469510884291
 30
0.0
  0
SEQEND
  5
55
330
52
100
AcDbEntity
  8
Default
  0
SPLINE
  5
56
330
1F
100
AcDbEntity
  8
Default
100
AcDbSpline
210
0.0
220
0.0
230
1.0
 70
    24
 71
     2
 72
     6
 73
     3
 74
     0
 42
0.0000000001
 43
0.0000000001
 40
-0.9316089876431572
 40
-0.9316089876431572
 40
-0.9316089876431572
 40
0.0
 40
0.0
 40
0.0
 10
1.284781832113055
 20
9.867469510884291
 30
0.0
 10
0.8189773382914751
 20
9.867469510884291
 30
0.0
 10
0.3531728444698956
 20
9.867469510884291
 30
0.0
  0
SPLINE
  5
57
330
1F
100
AcDbEntity
  8
Default
100
AcDbSpline
210
0.0
220
0.0
230
1.0
 70
    24
 71
     2
 72
     6
 73
     3
 74
     0
 42
0.0000000001
 43
0.0000000001
 40
0.0
 40
0.0
 40
0.0
 40
1.500868679895007
 40
1.500868679895007
 40
1.500868679895007
 10
-1.295218167886745
 20
11.4083381907793
 30
0.0
 10
-1.295218167886745
 20
10.65790385083179
 30
0.0
 10
-1.295218167886745
 20
9.90746951088429
 30
0.0
  0
POLYLINE
  5
58
330
1F
100
AcDbEntity
  8
Default
100
AcDb2dPolyline
 66
     1
 10
0.0
 20
0.0
 30
0.0
  0
VERTEX
  5
59
330
58
100
AcDbEntity
  8
Default
100
AcDbVertex
100
AcDb2dVertex
 10
-1.295218167886745
 20
9.90746951088429
 30
0.0
  0
VERTEX
  5
5A
330
58
100
AcDbEntity
  8
Default
100
AcDbVertex
100
AcDb2dVertex
 10
-0.362339309822481
 20
9.90746951088429
 30
0.0
  0
SEQEND
  5
5B
330
58
100
AcDbEntity
  8
Default
  0
SPLINE
  5
5C
330
1F
100
AcDbEntity
  8
Default
100
AcDbSpline
210
0.0
220
0.0
230
1.0
 70
    24
 71
     2
 72
     6
 73
     3
 74
     0
 42
0.0000000001
 43
0.0000000001
 40
0.0
 40
0.0
 40
0.0
 40
1.500868679895007
 40
1.500868679895007
 40
1.500868679895007
 10
1.284781832113254
 20
11.4083381907793
 30
0.0
 10
1.284781832113254
 20
10.65790385083179
 30
0.0
 10
1.284781832113254
 20
9.90746951088429
 30
0.0
  0
POLYLINE
  5
5D
330
1F
100
AcDbEntity
  8
Default
100
AcDb2dPolyline
 66
     1
 10
0.0
 20
0.0
 30
0.0
  0
VERTEX
  5
5E
330
5D
100
AcDbEntity
  8
Default
100
AcDbVertex
100
AcDb2dVertex
 10
1.284781832113254
 20
9.90746951088429
 30
0.0
  0
VERTEX
  5
5F
330
5D
100
AcDbEntity
  8
Default
100
AcDbVertex
100
AcDb2dVertex
 10
0.3519029740489898
 20
9.90746951088429
 30
0.0
  0
SEQEND
  5
60
330
5D
100
AcDbEntity
  8
Default
  0
SPLINE
  5
61
330
1F
100
AcDbEntity
  8
Default
100
AcDbSpline
210
0.0
220
0.0
230
1.0
 70
    12
 71
     2
 72
     6
 73
     3
 74
     0
 42
0.0000000001
 43
0.0000000001
 40
-0.3420516372259224
 40
-0.3420516372259224
 40
-0.3420516372259224
 40
0.0
 40
0.0
 40
0.0
 10
8.357381408409239
 20
12.58746951088429
 30
0.0
 41
1.0
 10
8.561217945442213
 20
12.58740559994866
 30
0.0
 41
0.7751522767319682
 10
8.602273683509267
 20
12.38774647973129
 30
0.0
 41
1.0
  0
SPLINE
  5
62
330
1F
100
AcDbEntity
  8
Default
100
AcDbSpline
210
0.0
220
0.0
230
1.0
 70
    12
 71
     2
 72
     6
 73
     3
 74
     0
 42
0.0000000001
 43
0.0000000001
 40
-0.6455488671731082
 40
-0.6455488671731082
 40
-0.6455488671731082
 40
0.0
 40
0.0
 40
0.0
 10
8.602273683509267
 20
12.38774647973129
 30
0.0
 41
1.0
 10
8.66737093131195
 20
12.07066723020385
 30
0.0
 41
0.9957505983657335
 10
8.673211930672153
 20
11.74702733019329
 30
0.0
 41
1.0
  0
SPLINE
  5
63
330
1F
100
AcDbEntity
  8
Default
100
AcDbSpline
210
0.0
220
0.0
230
1.0
 70
     8
 71
     3
 72
     8
 73
     4
 74
     0
 42
0.0000000001
 43
0.0000000001
 40
0.0
 40
0.0
 40
0.0
 40
0.0
 40
1.0
 40
1.0
 40
1.0
 40
1.0
 10
8.673211930672153
 20
11.74702733019329
 30
0.0
 10
8.673891768245184
 20
11.70935867957554
 30
0.0
 10
8.644984821614074
 20
11.66938115811783
 30
0.0
 10
8.611329297223605
 20
11.65244908510562
 30
0.0
  0
SPLINE
  5
64
330
1F
100
AcDbEntity
  8
Default
100
AcDbSpline
210
0.0
220
0.0
230
1.0
 70
    24
 71
     2
 72
     6
 73
     3
 74
     0
 42
0.0000000001
 43
0.0000000001
 40
-0.5282062900802154
 40
-0.5282062900802154
 40
-0.5282062900802154
 40
0.0
 40
0.0
 40
0.0
 10
8.611329297223605
 20
11.65244908510562
 30
0.0
 10
8.375401478146522
 20
11.53375394870314
 30
0.0
 10
8.139473659069438
 20
11.41505881230065
 30
0.0
  0
SPLINE
  5
65
330
1F
100
AcDbEntity
  8
Default
100
AcDbSpline
210
0.0
220
0.0
230
1.0
 70
     8
 71
     3
 72
     8
 73
     4
 74
     0
 42
0.0000000001
 43
0.0000000001
 40
0.0
 40
0.0
 40
0.0
 40
0.0
 40
1.0
 40
1.0
 40
1.0
 40
1.0
 10
8.139473659069438
 20
11.41505881230065
 30
0.0
 10
8.130808544342187
 20
11.41069939856759
 30
0.0
 10
8.12086049342119
 20
11.40833819077929
 30
0.0
 10
8.111160560363047
 20
11.40833819077929
 30
0.0
  0
POLYLINE
  5
66
330
1F
100
AcDbEntity
  8
Default
100
AcDb2dPolyline
 66
     1
 10
0.0
 20
0.0
 30
0.0
  0
VERTEX
  5
67
330
66
100
AcDbEntity
  8
Default
100
AcDbVertex
100
AcDb2dVertex
 10
8.111160560363047
 20
11.40833819077929
 30
0.0
  0
VERTEX
  5
68
330
66
100
AcDbEntity
  8
Default
100
AcDbVertex
100
AcDb2dVertex
 10
0.5628401721601648
 20
11.40833819077929
 30
0.0
  0
SEQEND
  5
69
330
66
100
AcDbEntity
  8
Default
  0
SPLINE
  5
6A
330
1F
100
AcDbEntity
  8
Default
100
AcDbSpline
210
0.0
220
0.0
230
1.0
 70
     8
 71
     3
 72
     8
 73
     4
 74
     0
 42
0.0000000001
 43
0.0000000001
 40
0.0
 40
0.0
 40
0.0
 40
0.0
 40
1.0
 40
1.0
 40
1.0
 40
1.0
 10
0.5628401721601648
 20
11.40833819077929
 30
0.0
 10
0.4715995035108378
 20
11.40833819077929
 30
0.0
 10
0.3095309777616961
 20
11.38966769597026
 30
0.0
 10
0.3121382340317354
 20
11.29846428687653
 30
0.0
  0
LINE
  5
6B
330
1F
100
AcDbEntity
  8
Default
100
AcDbLine
 10
0.3121382340317354
 20
11.29846428687653
 30
0.0
 11
0.3519029740489898
 21
9.907469510883924
 31
0.0
  0
ARC
  5
6C
330
1F
100
AcDbEntity
  8
Default
100
AcDbCircle
 10
-218.8584031954331
 20
3.637341033961746
 30
0.0
 40
219.2999608801497
100
AcDbArc
 50
1.311504589706014
 51
1.638399122484089
  0
SPLINE
  5
6D
330
1F
100
AcDbEntity
  8
Default
100
AcDbSpline
210
0.0
220
0.0
230
1.0
 70
     8
 71
     3
 72
     8
 73
     4
 74
     0
 42
0.0000000001
 43
0.0000000001
 40
0.0
 40
0.0
 40
0.0
 40
0.0
 40
1.0
 40
1.0
 40
1.0
 40
1.0
 10
0.384108487991405
 20
8.656694854789123
 30
0.0
 10
0.3857580687398467
 20
8.584642108674121
 30
0.0
 10
0.3701876993063493
 20
8.513009427918561
 30
0.0
 10
0.3564941931554131
 20
8.442250631796433
 30
0.0
  0
SPLINE
  5
6E
330
1F
100
AcDbEntity
  8
Default
100
AcDbSpline
210
0.0
220
0.0
230
1.0
 70
    12
 71
     3
 72
    12
 73
     8
 74
     0
 42
0.0000000001
 43
0.0000000001
 40
-1.0
 40
-1.0
 40
-1.0
 40
-1.0
 40
-0.7500117976938739
 40
-0.7500117976938739
 40
-0.5000773685227505
 40
-0.5000773685227505
 40
0.0
 40
0.0
 40
0.0
 40
0.0
 10
0.3564941931554131
 20
8.442250631796433
 30
0.0
 41
1.0
 10
0.3481939627714681
 20
8.399360644160666
 30
0.0
 41
1.0
 10
0.3376808562327227
 20
8.35565154020042
 30
0.0
 41
1.0
 10
0.3065656349868462
 20
8.268904567751548
 30
0.0
 41
1.0
 10
0.2859223422646266
 20
8.225529024161098
 30
0.0
 41
1.0
 10
0.1952038059194763
 20
8.121417734034505
 30
0.0
 41
1.0
 10
0.1004769006845194
 20
8.089923660181558
 30
0.0
 41
1.0
 10
-0.0052181678867456
 20
8.08854311199125
 30
0.0
 41
1.0
  0
SPLINE
  5
6F
330
1F
100
AcDbEntity
  8
Default
100
AcDbSpline
210
0.0
220
0.0
230
1.0
 70
    12
 71
     3
 72
    12
 73
     8
 74
     0
 42
0.0000000001
 43
0.0000000001
 40
0.0
 40
0.0
 40
0.0
 40
0.0
 40
0.5000773685227505
 40
0.5000773685227505
 40
0.7500117976938739
 40
0.7500117976938739
 40
1.0
 40
1.0
 40
1.0
 40
1.0
 10
-0.0052181678867456
 20
8.08854311199125
 30
0.0
 41
1.0
 10
-0.1109132364580105
 20
8.089923660181558
 30
0.0
 41
1.0
 10
-0.2056401416929674
 20
8.121417734034505
 30
0.0
 41
1.0
 10
-0.2963586780381178
 20
8.225529024161098
 30
0.0
 41
1.0
 10
-0.3170019707603373
 20
8.268904567751548
 30
0.0
 41
1.0
 10
-0.3481171920062138
 20
8.35565154020042
 30
0.0
 41
1.0
 10
-0.3586302985449592
 20
8.399360644160666
 30
0.0
 41
1.0
 10
-0.3669305289289042
 20
8.442250631796433
 30
0.0
 41
1.0
  0
SPLINE
  5
70
330
1F
100
AcDbEntity
  8
Default
100
AcDbSpline
210
0.0
220
0.0
230
1.0
 70
     8
 71
     3
 72
     8
 73
     4
 74
     0
 42
0.0000000001
 43
0.0000000001
 40
-1.0
 40
-1.0
 40
-1.0
 40
-1.0
 40
0.0
 40
0.0
 40
0.0
 40
0.0
 10
-0.3669305289289042
 20
8.442250631796433
 30
0.0
 10
-0.3806240350798404
 20
8.513009427918561
 30
0.0
 10
-0.3961944045133379
 20
8.584642108674121
 30
0.0
 10
-0.3945448237648961
 20
8.656694854789123
 30
0.0
  0
ARC
  5
71
330
1F
100
AcDbEntity
  8
Default
100
AcDbCircle
 10
218.8479668596596
 20
3.637341033961746
 30
0.0
 40
219.2999608801497
100
AcDbArc
 50
178.3616008775161
 51
178.6884954102942
  0
LINE
  5
72
330
1F
100
AcDbEntity
  8
Default
100
AcDbLine
 10
-0.362339309822481
 20
9.907469510883924
 30
0.0
 11
-0.3225745698052265
 21
11.29846428687653
 31
0.0
  0
SPLINE
  5
73
330
1F
100
AcDbEntity
  8
Default
100
AcDbSpline
210
0.0
220
0.0
230
1.0
 70
     8
 71
     3
 72
     8
 73
     4
 74
     0
 42
0.0000000001
 43
0.0000000001
 40
-1.0
 40
-1.0
 40
-1.0
 40
-1.0
 40
0.0
 40
0.0
 40
0.0
 40
0.0
 10
-0.3225745698052265
 20
11.29846428687653
 30
0.0
 10
-0.3199673135351873
 20
11.38966769597026
 30
0.0
 10
-0.4820358392843289
 20
11.40833819077929
 30
0.0
 10
-0.5732765079336559
 20
11.40833819077929
 30
0.0
  0
POLYLINE
  5
74
330
1F
100
AcDbEntity
  8
Default
100
AcDb2dPolyline
 66
     1
 10
0.0
 20
0.0
 30
0.0
  0
VERTEX
  5
75
330
74
100
AcDbEntity
  8
Default
100
AcDbVertex
100
AcDb2dVertex
 10
-0.5732765079336559
 20
11.40833819077929
 30
0.0
  0
VERTEX
  5
76
330
74
100
AcDbEntity
  8
Default
100
AcDbVertex
100
AcDb2dVertex
 10
-8.121596896136538
 20
11.40833819077929
 30
0.0
  0
SEQEND
  5
77
330
74
100
AcDbEntity
  8
Default
  0
SPLINE
  5
78
330
1F
100
AcDbEntity
  8
Default
100
AcDbSpline
210
0.0
220
0.0
230
1.0
 70
     8
 71
     3
 72
     8
 73
     4
 74
     0
 42
0.0000000001
 43
0.0000000001
 40
-1.0
 40
-1.0
 40
-1.0
 40
-1.0
 40
0.0
 40
0.0
 40
0.0
 40
0.0
 10
-8.121596896136538
 20
11.40833819077929
 30
0.0
 10
-8.131296829194682
 20
11.40833819077929
 30
0.0
 10
-8.141244880115678
 20
11.41069939856759
 30
0.0
 10
-8.149909994842929
 20
11.41505881230065
 30
0.0
  0
SPLINE
  5
79
330
1F
100
AcDbEntity
  8
Default
100
AcDbSpline
210
0.0
220
0.0
230
1.0
 70
    24
 71
     2
 72
     6
 73
     3
 74
     0
 42
0.0000000001
 43
0.0000000001
 40
0.0
 40
0.0
 40
0.0
 40
0.5282062900802154
 40
0.5282062900802154
 40
0.5282062900802154
 10
-8.149909994842929
 20
11.41505881230065
 30
0.0
 10
-8.385837813920013
 20
11.53375394870314
 30
0.0
 10
-8.621765632997096
 20
11.65244908510562
 30
0.0
  0
SPLINE
  5
7A
330
1F
100
AcDbEntity
  8
Default
100
AcDbSpline
210
0.0
220
0.0
230
1.0
 70
     8
 71
     3
 72
     8
 73
     4
 74
     0
 42
0.0000000001
 43
0.0000000001
 40
-1.0
 40
-1.0
 40
-1.0
 40
-1.0
 40
0.0
 40
0.0
 40
0.0
 40
0.0
 10
-8.621765632997096
 20
11.65244908510562
 30
0.0
 10
-8.655421157387565
 20
11.66938115811783
 30
0.0
 10
-8.684328104018675
 20
11.70935867957554
 30
0.0
 10
-8.683648266445644
 20
11.74702733019329
 30
0.0
  0
SPLINE
  5
7B
330
1F
100
AcDbEntity
  8
Default
100
AcDbSpline
210
0.0
220
0.0
230
1.0
 70
    12
 71
     2
 72
     6
 73
     3
 74
     0
 42
0.0000000001
 43
0.0000000001
 40
0.0
 40
0.0
 40
0.0
 40
0.6455488671731082
 40
0.6455488671731082
 40
0.6455488671731082
 10
-8.683648266445644
 20
11.74702733019329
 30
0.0
 41
1.0
 10
-8.677807267085441
 20
12.07066723020385
 30
0.0
 41
0.9957505983657335
 10
-8.612710019282758
 20
12.38774647973129
 30
0.0
 41
1.0
  0
SPLINE
  5
7C
330
1F
100
AcDbEntity
  8
Default
100
AcDbSpline
210
0.0
220
0.0
230
1.0
 70
    12
 71
     2
 72
     6
 73
     3
 74
     0
 42
0.0000000001
 43
0.0000000001
 40
0.0
 40
0.0
 40
0.0
 40
0.3420516372259224
 40
0.3420516372259224
 40
0.3420516372259224
 10
-8.612710019282758
 20
12.38774647973129
 30
0.0
 41
1.0
 10
-8.571654281215704
 20
12.58740559994866
 30
0.0
 41
0.7751522767319682
 10
-8.36781774418273
 20
12.58746951088429
 30
0.0
 41
1.0
  0
POLYLINE
  5
7D
330
1F
100
AcDbEntity
  8
Default
100
AcDb2dPolyline
 66
     1
 10
0.0
 20
0.0
 30
0.0
  0
VERTEX
  5
7E
330
7D
100
AcDbEntity
  8
Default
100
AcDbVertex
100
AcDb2dVertex
 10
-8.36781774418273
 20
12.58746951088429
 30
0.0
  0
VERTEX
  5
7F
330
7D
100
AcDbEntity
  8
Default
100
AcDbVertex
100
AcDb2dVertex
 10
8.357381408409239
 20
12.58746951088429
 30
0.0
  0
SEQEND
  5
80
330
7D
100
AcDbEntity
  8
Default
  0
SPLINE
  5
81
330
1F
100
AcDbEntity
  8
Make2D visible lines
100
AcDbSpline
210
0.0
220
0.0
230
1.0
 70
    24
 71
     2
 72
     6
 73
     3
 74
     0
 42
0.0000000001
 43
0.0000000001
 40
0.0
 40
0.0
 40
0.0
 40
0.0401014385929007
 40
0.0401014385929007
 40
0.0401014385929007
 10
-1.202286551467045
 20
7.277374179934711
 30
0.0
 10
-1.201936618164524
 20
7.297421845409494
 30
0.0
 10
-1.201586684862002
 20
7.317469510884278
 30
0.0
  0
SPLINE
  5
82
330
1F
100
AcDbEntity
  8
Make2D visible lines
100
AcDbSpline
210
0.0
220
0.0
230
1.0
 70
    24
 71
     2
 72
     6
 73
     3
 74
     0
 42
0.0000000001
 43
0.0000000001
 40
0.0
 40
0.0
 40
0.0
 40
0.0401014385929007
 40
0.0401014385929007
 40
0.0401014385929007
 10
1.199164200979846
 20
7.277374179934711
 30
0.0
 10
1.198814267677324
 20
7.297421845409494
 30
0.0
 10
1.198464334374803
 20
7.317469510884278
 30
0.0
  0
SPLINE
  5
83
330
1F
100
AcDbEntity
  8
Make2D visible lines
100
AcDbSpline
210
0.0
220
0.0
230
1.0
 70
    24
 71
     2
 72
     6
 73
     3
 74
     0
 42
0.0000000001
 43
0.0000000001
 40
-2.415105433753071
 40
-2.415105433753071
 40
-2.415105433753071
 40
0.0
 40
0.0
 40
0.0
 10
-12.05606468864558
 20
2.485022227760873
 30
0.0
 10
-12.05606468864558
 20
1.276245870742605
 30
0.0
 10
-12.05606468864558
 20
0.0674695137243367
 30
0.0
  0
SPLINE
  5
84
330
1F
100
AcDbEntity
  8
Make2D visible lines
100
AcDbSpline
210
0.0
220
0.0
230
1.0
 70
    12
 71
     2
 72
     6
 73
     3
 74
     0
 42
0.0000000001
 43
0.0000000001
 40
0.0
 40
0.0
 40
0.0
 40
0.1099557457156439
 40
0.1099557457156439
 40
0.1099557457156439
 10
-12.05606468864558
 20
0.0674695137243367
 30
0.0
 41
1.0
 10
-12.05606469148557
 20
-0.0025304891156631
 30
0.0
 41
0.7071067668423728
 10
-11.98606468864557
 20
-0.0025304891156638
 30
0.0
 41
1.0
  0
SPLINE
  5
85
330
1F
100
AcDbEntity
  8
Make2D visible lines
100
AcDbSpline
210
0.0
220
0.0
230
1.0
 70
    24
 71
     2
 72
     6
 73
     3
 74
     0
 42
0.0000000001
 43
0.0000000001
 40
0.0
 40
0.0
 40
0.0
 40
0.3520000000000003
 40
0.3520000000000003
 40
0.3520000000000003
 10
-11.98606468864557
 20
-0.0025304891156638
 30
0.0
 10
-11.81006468864557
 20
-0.0025304891156638
 30
0.0
 10
-11.63406468864556
 20
-0.0025304891156638
 30
0.0
  0
SPLINE
  5
86
330
1F
100
AcDbEntity
  8
Make2D visible lines
100
AcDbSpline
210
0.0
220
0.0
230
1.0
 70
    12
 71
     2
 72
     6
 73
     3
 74
     0
 42
0.0000000001
 43
0.0000000001
 40
0.0
 40
0.0
 40
0.0
 40
0.2356194519512337
 40
0.2356194519512337
 40
0.2356194519512337
 10
-11.63406468864556
 20
-0.0025304891156638
 30
0.0
 41
1.0
 10
-11.48406468571357
 20
-0.002530489115661
 30
0.0
 41
0.7071067742757676
 10
-11.48406468864557
 20
0.1474695138163361
 30
0.0
 41
1.0
  0
SPLINE
  5
87
330
1F
100
AcDbEntity
  8
Make2D visible lines
100
AcDbSpline
210
0.0
220
0.0
230
1.0
 70
    24
 71
     2
 72
     6
 73
     3
 74
     0
 42
0.0000000001
 43
0.0000000001
 40
0.0
 40
0.0
 40
0.0
 40
2.255429040880414
 40
2.255429040880414
 40
2.255429040880414
 10
-11.48406468864557
 20
0.1474695138163361
 30
0.0
 10
-11.48406468864557
 20
1.27632677257044
 30
0.0
 10
-11.48406468864557
 20
2.405184031324544
 30
0.0
  0
SPLINE
  5
88
330
1F
100
AcDbEntity
  8
Make2D visible lines
100
AcDbSpline
210
0.0
220
0.0
230
1.0
 70
    12
 71
     2
 72
     6
 73
     3
 74
     0
 42
0.0000000001
 43
0.0000000001
 40
0.0
 40
0.0
 40
0.0
 40
0.2356194519512344
 40
0.2356194519512344
 40
0.2356194519512344
 10
-11.48406468864557
 20
2.405184031324544
 30
0.0
 41
1.0
 10
-11.48406468571356
 20
2.557469510884338
 30
0.0
 41
0.7071067742757604
 10
-11.63406468864556
 20
2.557469510884338
 30
0.0
 41
1.0
  0
SPLINE
  5
89
330
1F
100
AcDbEntity
  8
Make2D visible lines
100
AcDbSpline
210
0.0
220
0.0
230
1.0
 70
    24
 71
     2
 72
     6
 73
     3
 74
     0
 42
0.0000000001
 43
0.0000000001
 40
0.0
 40
0.0
 40
0.0
 40
0.3520000000000003
 40
0.3520000000000003
 40
0.3520000000000003
 10
-11.63406468864556
 20
2.557469510884338
 30
0.0
 10
-11.81006468864557
 20
2.557469510884338
 30
0.0
 10
-11.98606468864557
 20
2.557469510884338
 30
0.0
  0
SPLINE
  5
8A
330
1F
100
AcDbEntity
  8
Make2D visible lines
100
AcDbSpline
210
0.0
220
0.0
230
1.0
 70
    12
 71
     2
 72
     6
 73
     3
 74
     0
 42
0.0000000001
 43
0.0000000001
 40
0.0
 40
0.0
 40
0.0
 40
0.1099557457156434
 40
0.1099557457156434
 40
0.1099557457156434
 10
-11.98606468864557
 20
2.557469510884338
 30
0.0
 41
1.0
 10
-12.05606469148557
 20
2.557469510884339
 30
0.0
 41
0.7071067668423767
 10
-12.05606468864558
 20
2.485022227760873
 30
0.0
 41
1.0
  0
SPLINE
  5
8B
330
1F
100
AcDbEntity
  8
Make2D visible lines
100
AcDbSpline
210
0.0
220
0.0
230
1.0
 70
    24
 71
     2
 72
     6
 73
     3
 74
     0
 42
0.0000000001
 43
0.0000000001
 40
-2.415105423527796
 40
-2.415105423527796
 40
-2.415105423527796
 40
0.0
 40
0.0
 40
0.0
 10
-12.98206468864556
 20
2.485022222648236
 30
0.0
 10
-12.98206468864556
 20
1.276245870747786
 30
0.0
 10
-12.98206468864556
 20
0.0674695188473357
 30
0.0
  0
SPLINE
  5
8C
330
1F
100
AcDbEntity
  8
Make2D visible lines
100
AcDbSpline
210
0.0
220
0.0
230
1.0
 70
    12
 71
     2
 72
     8
 73
     5
 74
     0
 42
0.0000000001
 43
0.0000000001
 40
-0.1099557508386429
 40
-0.1099557508386429
 40
-0.1099557508386429
 40
-0.0549778754193212
 40
-0.0549778754193212
 40
0.0
 40
0.0
 40
0.0
 10
-12.98206468864556
 20
0.0674695188473357
 30
0.0
 41
1.0
 10
-12.98206468534718
 20
0.0384745671489101
 30
0.0
 41
0.9238795216280429
 10
-13.00256721114716
 20
0.017972039016623
 30
0.0
 41
1.0
 10
-13.02306973694714
 20
-0.0025304891156634
 30
0.0
 41
0.923879521628049
 10
-13.05206468864557
 20
-0.0025304891156638
 30
0.0
 41
1.0
  0
SPLINE
  5
8D
330
1F
100
AcDbEntity
  8
Make2D visible lines
100
AcDbSpline
210
0.0
220
0.0
230
1.0
 70
    24
 71
     2
 72
     6
 73
     3
 74
     0
 42
0.0000000001
 43
0.0000000001
 40
0.0
 40
0.0
 40
0.0
 40
0.3520000000000003
 40
0.3520000000000003
 40
0.3520000000000003
 10
-13.05206468864557
 20
-0.0025304891156638
 30
0.0
 10
-13.22806468864557
 20
-0.0025304891156638
 30
0.0
 10
-13.40406468864556
 20
-0.0025304891156638
 30
0.0
  0
SPLINE
  5
8E
330
1F
100
AcDbEntity
  8
Make2D visible lines
100
AcDbSpline
210
0.0
220
0.0
230
1.0
 70
    12
 71
     2
 72
     6
 73
     3
 74
     0
 42
0.0000000001
 43
0.0000000001
 40
0.0
 40
0.0
 40
0.0
 40
0.2356194483882336
 40
0.2356194483882336
 40
0.2356194483882336
 10
-13.40406468864556
 20
-0.0025304891156638
 30
0.0
 41
1.0
 10
-13.55406468801457
 20
-0.0025304891156627
 30
0.0
 41
0.7071067826738353
 10
-13.55406468864557
 20
0.1474695102533373
 30
0.0
 41
1.0
  0
SPLINE
  5
8F
330
1F
100
AcDbEntity
  8
Make2D visible lines
100
AcDbSpline
210
0.0
220
0.0
230
1.0
 70
    24
 71
     2
 72
     6
 73
     3
 74
     0
 42
0.0000000001
 43
0.0000000001
 40
-2.260000001262
 40
-2.260000001262
 40
-2.260000001262
 40
0.0
 40
0.0
 40
0.0
 10
-13.55406468864557
 20
0.1474695102533373
 30
0.0
 10
-13.55406468864557
 20
1.277469510884337
 30
0.0
 10
-13.55406468864557
 20
2.407469511515337
 30
0.0
  0
SPLINE
  5
90
330
1F
100
AcDbEntity
  8
Make2D visible lines
100
AcDbSpline
210
0.0
220
0.0
230
1.0
 70
    12
 71
     2
 72
     6
 73
     3
 74
     0
 42
0.0000000001
 43
0.0000000001
 40
0.0
 40
0.0
 40
0.0
 40
0.2356194483882358
 40
0.2356194483882358
 40
0.2356194483882358
 10
-13.55406468864557
 20
2.407469511515337
 30
0.0
 41
1.0
 10
-13.55406468801458
 20
2.557469510884337
 30
0.0
 41
0.7071067826738272
 10
-13.40406468864556
 20
2.557469510884338
 30
0.0
 41
1.0
  0
SPLINE
  5
91
330
1F
100
AcDbEntity
  8
Make2D visible lines
100
AcDbSpline
210
0.0
220
0.0
230
1.0
 70
    24
 71
     2
 72
     6
 73
     3
 74
     0
 42
0.0000000001
 43
0.0000000001
 40
0.0
 40
0.0
 40
0.0
 40
0.3520000000000003
 40
0.3520000000000003
 40
0.3520000000000003
 10
-13.40406468864556
 20
2.557469510884338
 30
0.0
 10
-13.22806468864557
 20
2.557469510884338
 30
0.0
 10
-13.05206468864557
 20
2.557469510884338
 30
0.0
  0
SPLINE
  5
92
330
1F
100
AcDbEntity
  8
Make2D visible lines
100
AcDbSpline
210
0.0
220
0.0
230
1.0
 70
    12
 71
     2
 72
     8
 73
     5
 74
     0
 42
0.0000000001
 43
0.0000000001
 40
-0.1099557508386414
 40
-0.1099557508386414
 40
-0.1099557508386414
 40
-0.0549778754193184
 40
-0.0549778754193184
 40
0.0
 40
0.0
 40
0.0
 10
-13.05206468864557
 20
2.557469510884338
 30
0.0
 41
1.0
 10
-13.02306973694713
 20
2.557469510884337
 30
0.0
 41
0.9238795216280236
 10
-13.00256721114716
 20
2.536966982752047
 30
0.0
 41
1.0
 10
-12.98206468534719
 20
2.516464454619762
 30
0.0
 41
0.9238795216280324
 10
-12.98206468864556
 20
2.485022222648236
 30
0.0
 41
1.0
  0
SPLINE
  5
93
330
1F
100
AcDbEntity
  8
Make2D visible lines
100
AcDbSpline
210
0.0
220
0.0
230
1.0
 70
    24
 71
     2
 72
     6
 73
     3
 74
     0
 42
0.0000000001
 43
0.0000000001
 40
-2.415105433753071
 40
-2.415105433753071
 40
-2.415105433753071
 40
0.0
 40
0.0
 40
0.0
 10
-7.274426553780968
 20
2.487552716876537
 30
0.0
 10
-7.274426553780968
 20
1.278776359858269
 30
0.0
 10
-7.274426553780968
 20
0.0700000028400004
 30
0.0
  0
SPLINE
  5
94
330
1F
100
AcDbEntity
  8
Make2D visible lines
100
AcDbSpline
210
0.0
220
0.0
230
1.0
 70
    12
 71
     2
 72
     6
 73
     3
 74
     0
 42
0.0000000001
 43
0.0000000001
 40
0.0
 40
0.0
 40
0.0
 40
0.1099557457156439
 40
0.1099557457156439
 40
0.1099557457156439
 10
-7.274426553780968
 20
0.0700000028400004
 30
0.0
 41
1.0
 10
-7.274426556620962
 20
0.0000000000000011
 30
0.0
 41
0.7071067668423728
 10
-7.20442655378096
 20
-0.0000000000000001
 30
0.0
 41
1.0
  0
SPLINE
  5
95
330
1F
100
AcDbEntity
  8
Make2D visible lines
100
AcDbSpline
210
0.0
220
0.0
230
1.0
 70
    24
 71
     2
 72
     6
 73
     3
 74
     0
 42
0.0000000001
 43
0.0000000001
 40
0.0
 40
0.0
 40
0.0
 40
0.3520000000000003
 40
0.3520000000000003
 40
0.3520000000000003
 10
-7.20442655378096
 20
-0.0000000000000001
 30
0.0
 10
-7.028426553780958
 20
-0.0000000000000001
 30
0.0
 10
-6.852426553780957
 20
-0.0000000000000001
 30
0.0
  0
SPLINE
  5
96
330
1F
100
AcDbEntity
  8
Make2D visible lines
100
AcDbSpline
210
0.0
220
0.0
230
1.0
 70
    12
 71
     2
 72
     6
 73
     3
 74
     0
 42
0.0000000001
 43
0.0000000001
 40
0.0
 40
0.0
 40
0.0
 40
0.2356194519512337
 40
0.2356194519512337
 40
0.2356194519512337
 10
-6.852426553780957
 20
-0.0000000000000001
 30
0.0
 41
1.0
 10
-6.702426550848959
 20
0.0000000000000028
 30
0.0
 41
0.7071067742757676
 10
-6.702426553780965
 20
0.1500000029319998
 30
0.0
 41
1.0
  0
SPLINE
  5
97
330
1F
100
AcDbEntity
  8
Make2D visible lines
100
AcDbSpline
210
0.0
220
0.0
230
1.0
 70
    24
 71
     2
 72
     6
 73
     3
 74
     0
 42
0.0000000001
 43
0.0000000001
 40
0.0
 40
0.0
 40
0.0
 40
2.255429040880414
 40
2.255429040880414
 40
2.255429040880414
 10
-6.702426553780965
 20
0.1500000029319998
 30
0.0
 10
-6.702426553780965
 20
1.278857261686104
 30
0.0
 10
-6.702426553780965
 20
2.407714520440208
 30
0.0
  0
SPLINE
  5
98
330
1F
100
AcDbEntity
  8
Make2D visible lines
100
AcDbSpline
210
0.0
220
0.0
230
1.0
 70
    12
 71
     2
 72
     6
 73
     3
 74
     0
 42
0.0000000001
 43
0.0000000001
 40
0.0
 40
0.0
 40
0.0
 40
0.2356194519512344
 40
0.2356194519512344
 40
0.2356194519512344
 10
-6.702426553780965
 20
2.407714520440208
 30
0.0
 41
1.0
 10
-6.702426550848959
 20
2.560000000000002
 30
0.0
 41
0.7071067742757604
 10
-6.852426553780957
 20
2.560000000000001
 30
0.0
 41
1.0
  0
SPLINE
  5
99
330
1F
100
AcDbEntity
  8
Make2D visible lines
100
AcDbSpline
210
0.0
220
0.0
230
1.0
 70
    24
 71
     2
 72
     6
 73
     3
 74
     0
 42
0.0000000001
 43
0.0000000001
 40
0.0
 40
0.0
 40
0.0
 40
0.3520000000000003
 40
0.3520000000000003
 40
0.3520000000000003
 10
-6.852426553780957
 20
2.560000000000001
 30
0.0
 10
-7.028426553780958
 20
2.560000000000001
 30
0.0
 10
-7.20442655378096
 20
2.560000000000001
 30
0.0
  0
SPLINE
  5
9A
330
1F
100
AcDbEntity
  8
Make2D visible lines
100
AcDbSpline
210
0.0
220
0.0
230
1.0
 70
    12
 71
     2
 72
     6
 73
     3
 74
     0
 42
0.0000000001
 43
0.0000000001
 40
0.0
 40
0.0
 40
0.0
 40
0.1099557457156434
 40
0.1099557457156434
 40
0.1099557457156434
 10
-7.20442655378096
 20
2.560000000000001
 30
0.0
 41
1.0
 10
-7.274426556620965
 20
2.560000000000001
 30
0.0
 41
0.7071067668423767
 10
-7.274426553780968
 20
2.487552716876537
 30
0.0
 41
1.0
  0
SPLINE
  5
9B
330
1F
100
AcDbEntity
  8
Make2D visible lines
100
AcDbSpline
210
0.0
220
0.0
230
1.0
 70
    24
 71
     2
 72
     6
 73
     3
 74
     0
 42
0.0000000001
 43
0.0000000001
 40
-2.415105423527796
 40
-2.415105423527796
 40
-2.415105423527796
 40
0.0
 40
0.0
 40
0.0
 10
-8.200426553780956
 20
2.487552711763899
 30
0.0
 10
-8.200426553780956
 20
1.278776359863449
 30
0.0
 10
-8.200426553780956
 20
0.0700000079629993
 30
0.0
  0
SPLINE
  5
9C
330
1F
100
AcDbEntity
  8
Make2D visible lines
100
AcDbSpline
210
0.0
220
0.0
230
1.0
 70
    12
 71
     2
 72
     8
 73
     5
 74
     0
 42
0.0000000001
 43
0.0000000001
 40
-0.1099557508386429
 40
-0.1099557508386429
 40
-0.1099557508386429
 40
-0.0549778754193212
 40
-0.0549778754193212
 40
0.0
 40
0.0
 40
0.0
 10
-8.200426553780956
 20
0.0700000079629993
 30
0.0
 41
1.0
 10
-8.200426550482574
 20
0.0410050562645746
 30
0.0
 41
0.9238795216280429
 10
-8.220929076282557
 20
0.0205025281322867
 30
0.0
 41
1.0
 10
-8.241431602082532
 20
0.0000000000000012
 30
0.0
 41
0.923879521628049
 10
-8.270426553780963
 20
-0.0000000000000001
 30
0.0
 41
1.0
  0
SPLINE
  5
9D
330
1F
100
AcDbEntity
  8
Make2D visible lines
100
AcDbSpline
210
0.0
220
0.0
230
1.0
 70
    24
 71
     2
 72
     6
 73
     3
 74
     0
 42
0.0000000001
 43
0.0000000001
 40
0.0
 40
0.0
 40
0.0
 40
0.3520000000000003
 40
0.3520000000000003
 40
0.3520000000000003
 10
-8.270426553780963
 20
-0.0000000000000001
 30
0.0
 10
-8.446426553780958
 20
-0.0000000000000001
 30
0.0
 10
-8.622426553780953
 20
-0.0000000000000001
 30
0.0
  0
SPLINE
  5
9E
330
1F
100
AcDbEntity
  8
Make2D visible lines
100
AcDbSpline
210
0.0
220
0.0
230
1.0
 70
    12
 71
     2
 72
     6
 73
     3
 74
     0
 42
0.0000000001
 43
0.0000000001
 40
0.0
 40
0.0
 40
0.0
 40
0.2356194483882336
 40
0.2356194483882336
 40
0.2356194483882336
 10
-8.622426553780953
 20
-0.0000000000000001
 30
0.0
 41
1.0
 10
-8.772426553149968
 20
0.0000000000000002
 30
0.0
 41
0.7071067826738353
 10
-8.772426553780958
 20
0.149999999369001
 30
0.0
 41
1.0
  0
SPLINE
  5
9F
330
1F
100
AcDbEntity
  8
Make2D visible lines
100
AcDbSpline
210
0.0
220
0.0
230
1.0
 70
    24
 71
     2
 72
     6
 73
     3
 74
     0
 42
0.0000000001
 43
0.0000000001
 40
-2.260000001262
 40
-2.260000001262
 40
-2.260000001262
 40
0.0
 40
0.0
 40
0.0
 10
-8.772426553780958
 20
0.149999999369001
 30
0.0
 10
-8.772426553780958
 20
1.280000000000001
 30
0.0
 10
-8.772426553780958
 20
2.410000000631
 30
0.0
  0
SPLINE
  5
A0
330
1F
100
AcDbEntity
  8
Make2D visible lines
100
AcDbSpline
210
0.0
220
0.0
230
1.0
 70
    12
 71
     2
 72
     6
 73
     3
 74
     0
 42
0.0000000001
 43
0.0000000001
 40
0.0
 40
0.0
 40
0.0
 40
0.2356194483882358
 40
0.2356194483882358
 40
0.2356194483882358
 10
-8.772426553780958
 20
2.410000000631
 30
0.0
 41
1.0
 10
-8.77242655314997
 20
2.560000000000001
 30
0.0
 41
0.7071067826738272
 10
-8.622426553780953
 20
2.560000000000001
 30
0.0
 41
1.0
  0
SPLINE
  5
A1
330
1F
100
AcDbEntity
  8
Make2D visible lines
100
AcDbSpline
210
0.0
220
0.0
230
1.0
 70
    24
 71
     2
 72
     6
 73
     3
 74
     0
 42
0.0000000001
 43
0.0000000001
 40
0.0
 40
0.0
 40
0.0
 40
0.3520000000000003
 40
0.3520000000000003
 40
0.3520000000000003
 10
-8.622426553780953
 20
2.560000000000001
 30
0.0
 10
-8.446426553780958
 20
2.560000000000001
 30
0.0
 10
-8.270426553780963
 20
2.560000000000001
 30
0.0
  0
SPLINE
  5
A2
330
1F
100
AcDbEntity
  8
Make2D visible lines
100
AcDbSpline
210
0.0
220
0.0
230
1.0
 70
    12
 71
     2
 72
     8
 73
     5
 74
     0
 42
0.0000000001
 43
0.0000000001
 40
-0.1099557508386414
 40
-0.1099557508386414
 40
-0.1099557508386414
 40
-0.0549778754193184
 40
-0.0549778754193184
 40
0.0
 40
0.0
 40
0.0
 10
-8.270426553780963
 20
2.560000000000001
 30
0.0
 41
1.0
 10
-8.241431602082528
 20
2.560000000000001
 30
0.0
 41
0.9238795216280236
 10
-8.220929076282557
 20
2.539497471867711
 30
0.0
 41
1.0
 10
-8.200426550482582
 20
2.518994943735426
 30
0.0
 41
0.9238795216280324
 10
-8.200426553780956
 20
2.487552711763899
 30
0.0
 41
1.0
  0
SPLINE
  5
A3
330
1F
100
AcDbEntity
  8
Make2D visible lines
100
AcDbSpline
210
0.0
220
0.0
230
1.0
 70
    12
 71
     2
 72
     6
 73
     3
 74
     0
 42
0.0000000001
 43
0.0000000001
 40
0.0
 40
0.0
 40
0.0
 40
0.1228476419690088
 40
0.1228476419690088
 40
0.1228476419690088
 10
0.3432167070844252
 20
2.133165168117521
 30
0.0
 41
1.0
 10
0.3785325286172616
 20
2.184268654765809
 30
0.0
 41
0.9832969456840381
 10
0.3932167025537887
 20
2.24462715569113
 30
0.0
 41
1.0
  0
SPLINE
  5
A4
330
1F
100
AcDbEntity
  8
Make2D visible lines
100
AcDbSpline
210
0.0
220
0.0
230
1.0
 70
     8
 71
     3
 72
    12
 73
     8
 74
     0
 42
0.0000000001
 43
0.0000000001
 40
0.0
 40
0.0
 40
0.0
 40
0.0
 40
0.1463411183411369
 40
0.2853842069860231
 40
0.4774826785392335
 40
0.6695434217140405
 40
0.9551044705190225
 40
0.9551044705190225
 40
0.9551044705190225
 40
0.9551044705190225
 10
0.3432167070844252
 20
2.133165168117521
 30
0.0
 10
0.3226588537956467
 20
2.089704799878537
 30
0.0
 10
0.2674244886251693
 20
2.008608954637671
 30
0.0
 10
0.1684771160075251
 20
1.890337146437135
 30
0.0
 10
-0.0019053503563362
 20
1.797661440149863
 30
0.0
 10
-0.2138836848904311
 20
1.916212772144814
 30
0.0
 10
-0.2980714322946318
 20
2.048960364479087
 30
0.0
 10
-0.344783292915563
 20
2.133165168117521
 30
0.0
  0
SPLINE
  5
A5
330
1F
100
AcDbEntity
  8
Make2D visible lines
100
AcDbSpline
210
0.0
220
0.0
230
1.0
 70
    24
 71
     2
 72
     6
 73
     3
 74
     0
 42
0.0000000001
 43
0.0000000001
 40
0.0
 40
0.0
 40
0.0
 40
0.0690000000000008
 40
0.0690000000000008
 40
0.0690000000000008
 10
-0.4637832929155628
 20
1.592469510884339
 30
0.0
 10
-0.4292832929155685
 20
1.592469510884339
 30
0.0
 10
-0.3947832929155743
 20
1.592469510884339
 30
0.0
  0
SPLINE
  5
A6
330
1F
100
AcDbEntity
  8
Make2D visible lines
100
AcDbSpline
210
0.0
220
0.0
230
1.0
 70
    12
 71
     2
 72
     6
 73
     3
 74
     0
 42
0.0000000001
 43
0.0000000001
 40
0.0
 40
0.0
 40
0.0
 40
0.1227840813427634
 40
0.1227840813427634
 40
0.1227840813427634
 10
-0.344783292915563
 20
2.133165168117521
 30
0.0
 41
1.0
 10
-0.3796001603639674
 20
2.184492477276991
 30
0.0
 41
0.9848379823800321
 10
-0.3947832883849265
 20
2.24462715569113
 30
0.0
 41
1.0
  0
SPLINE
  5
A7
330
1F
100
AcDbEntity
  8
Make2D visible lines
100
AcDbSpline
210
0.0
220
0.0
230
1.0
 70
    24
 71
     2
 72
     6
 73
     3
 74
     0
 42
0.0000000001
 43
0.0000000001
 40
0.0
 40
0.0
 40
0.0
 40
0.0689999999999991
 40
0.0689999999999991
 40
0.0689999999999991
 10
0.3932167070844366
 20
1.592469510884339
 30
0.0
 10
0.4277167070844308
 20
1.592469510884339
 30
0.0
 10
0.462216707084425
 20
1.592469510884339
 30
0.0
  0
SPLINE
  5
A8
330
1F
100
AcDbEntity
  8
Make2D visible lines
100
AcDbSpline
210
0.0
220
0.0
230
1.0
 70
    24
 71
     2
 72
     6
 73
     3
 74
     0
 42
0.0000000001
 43
0.0000000001
 40
0.0
 40
0.0
 40
0.0
 40
0.9260000000000002
 40
0.9260000000000002
 40
0.9260000000000002
 10
0.462216707084425
 20
0.9624695108843396
 30
0.0
 10
-0.0007832929155689
 20
0.9624695108843396
 30
0.0
 10
-0.4637832929155628
 20
0.9624695108843396
 30
0.0
  0
SPLINE
  5
A9
330
1F
100
AcDbEntity
  8
Make2D visible lines
100
AcDbSpline
210
0.0
220
0.0
230
1.0
 70
    24
 71
     2
 72
     6
 73
     3
 74
     0
 42
0.0000000001
 43
0.0000000001
 40
-2.415105433753071
 40
-2.415105433753071
 40
-2.415105433753071
 40
0.0
 40
0.0
 40
0.0
 10
0.462216707084425
 20
2.485022227760873
 30
0.0
 10
0.462216707084425
 20
1.276245870742605
 30
0.0
 10
0.462216707084425
 20
0.0674695137243367
 30
0.0
  0
SPLINE
  5
AA
330
1F
100
AcDbEntity
  8
Make2D visible lines
100
AcDbSpline
210
0.0
220
0.0
230
1.0
 70
    12
 71
     2
 72
     6
 73
     3
 74
     0
 42
0.0000000001
 43
0.0000000001
 40
0.0
 40
0.0
 40
0.0
 40
0.1099557457156439
 40
0.1099557457156439
 40
0.1099557457156439
 10
0.462216707084425
 20
0.0674695137243367
 30
0.0
 41
1.0
 10
0.4622167042444306
 20
-0.0025304891156631
 30
0.0
 41
0.7071067668423728
 10
0.5322167070844324
 20
-0.0025304891156638
 30
0.0
 41
1.0
  0
SPLINE
  5
AB
330
1F
100
AcDbEntity
  8
Make2D visible lines
100
AcDbSpline
210
0.0
220
0.0
230
1.0
 70
    24
 71
     2
 72
     6
 73
     3
 74
     0
 42
0.0000000001
 43
0.0000000001
 40
0.0
 40
0.0
 40
0.0
 40
0.3520000000000003
 40
0.3520000000000003
 40
0.3520000000000003
 10
0.5322167070844324
 20
-0.0025304891156638
 30
0.0
 10
0.7082167070844343
 20
-0.0025304891156638
 30
0.0
 10
0.8842167070844362
 20
-0.0025304891156638
 30
0.0
  0
SPLINE
  5
AC
330
1F
100
AcDbEntity
  8
Make2D visible lines
100
AcDbSpline
210
0.0
220
0.0
230
1.0
 70
    12
 71
     2
 72
     6
 73
     3
 74
     0
 42
0.0000000001
 43
0.0000000001
 40
0.0
 40
0.0
 40
0.0
 40
0.2356194519512337
 40
0.2356194519512337
 40
0.2356194519512337
 10
0.8842167070844362
 20
-0.0025304891156638
 30
0.0
 41
1.0
 10
1.034216710016433
 20
-0.002530489115661
 30
0.0
 41
0.7071067742757676
 10
1.034216707084428
 20
0.1474695138163361
 30
0.0
 41
1.0
  0
SPLINE
  5
AD
330
1F
100
AcDbEntity
  8
Make2D visible lines
100
AcDbSpline
210
0.0
220
0.0
230
1.0
 70
    24
 71
     2
 72
     6
 73
     3
 74
     0
 42
0.0000000001
 43
0.0000000001
 40
0.0
 40
0.0
 40
0.0
 40
2.255429040880414
 40
2.255429040880414
 40
2.255429040880414
 10
1.034216707084428
 20
0.1474695138163361
 30
0.0
 10
1.034216707084428
 20
1.27632677257044
 30
0.0
 10
1.034216707084428
 20
2.405184031324544
 30
0.0
  0
SPLINE
  5
AE
330
1F
100
AcDbEntity
  8
Make2D visible lines
100
AcDbSpline
210
0.0
220
0.0
230
1.0
 70
    12
 71
     2
 72
     6
 73
     3
 74
     0
 42
0.0000000001
 43
0.0000000001
 40
0.0
 40
0.0
 40
0.0
 40
0.2356194519512344
 40
0.2356194519512344
 40
0.2356194519512344
 10
1.034216707084428
 20
2.405184031324544
 30
0.0
 41
1.0
 10
1.034216710016434
 20
2.557469510884338
 30
0.0
 41
0.7071067742757604
 10
0.8842167070844362
 20
2.557469510884338
 30
0.0
 41
1.0
  0
SPLINE
  5
AF
330
1F
100
AcDbEntity
  8
Make2D visible lines
100
AcDbSpline
210
0.0
220
0.0
230
1.0
 70
    24
 71
     2
 72
     6
 73
     3
 74
     0
 42
0.0000000001
 43
0.0000000001
 40
0.0
 40
0.0
 40
0.0
 40
0.3520000000000003
 40
0.3520000000000003
 40
0.3520000000000003
 10
0.8842167070844362
 20
2.557469510884338
 30
0.0
 10
0.7082167070844343
 20
2.557469510884338
 30
0.0
 10
0.5322167070844324
 20
2.557469510884338
 30
0.0
  0
SPLINE
  5
B0
330
1F
100
AcDbEntity
  8
Make2D visible lines
100
AcDbSpline
210
0.0
220
0.0
230
1.0
 70
    12
 71
     2
 72
     6
 73
     3
 74
     0
 42
0.0000000001
 43
0.0000000001
 40
0.0
 40
0.0
 40
0.0
 40
0.1099557457156434
 40
0.1099557457156434
 40
0.1099557457156434
 10
0.5322167070844324
 20
2.557469510884338
 30
0.0
 41
1.0
 10
0.4622167042444276
 20
2.557469510884339
 30
0.0
 41
0.7071067668423767
 10
0.462216707084425
 20
2.485022227760873
 30
0.0
 41
1.0
  0
SPLINE
  5
B1
330
1F
100
AcDbEntity
  8
Make2D visible lines
100
AcDbSpline
210
0.0
220
0.0
230
1.0
 70
    24
 71
     2
 72
     6
 73
     3
 74
     0
 42
0.0000000001
 43
0.0000000001
 40
-2.415105423527796
 40
-2.415105423527796
 40
-2.415105423527796
 40
0.0
 40
0.0
 40
0.0
 10
-0.4637832929155628
 20
2.485022222648236
 30
0.0
 10
-0.4637832929155628
 20
1.276245870747786
 30
0.0
 10
-0.4637832929155628
 20
0.0674695188473357
 30
0.0
  0
SPLINE
  5
B2
330
1F
100
AcDbEntity
  8
Make2D visible lines
100
AcDbSpline
210
0.0
220
0.0
230
1.0
 70
    12
 71
     2
 72
     8
 73
     5
 74
     0
 42
0.0000000001
 43
0.0000000001
 40
-0.1099557508386429
 40
-0.1099557508386429
 40
-0.1099557508386429
 40
-0.0549778754193212
 40
-0.0549778754193212
 40
0.0
 40
0.0
 40
0.0
 10
-0.4637832929155628
 20
0.0674695188473357
 30
0.0
 41
1.0
 10
-0.4637832896171811
 20
0.0384745671489101
 30
0.0
 41
0.9238795216280429
 10
-0.4842858154171643
 20
0.017972039016623
 30
0.0
 41
1.0
 10
-0.5047883412171391
 20
-0.0025304891156634
 30
0.0
 41
0.923879521628049
 10
-0.5337832929155701
 20
-0.0025304891156638
 30
0.0
 41
1.0
  0
SPLINE
  5
B3
330
1F
100
AcDbEntity
  8
Make2D visible lines
100
AcDbSpline
210
0.0
220
0.0
230
1.0
 70
    24
 71
     2
 72
     6
 73
     3
 74
     0
 42
0.0000000001
 43
0.0000000001
 40
0.0
 40
0.0
 40
0.0
 40
0.3520000000000003
 40
0.3520000000000003
 40
0.3520000000000003
 10
-0.5337832929155701
 20
-0.0025304891156638
 30
0.0
 10
-0.709783292915565
 20
-0.0025304891156638
 30
0.0
 10
-0.8857832929155598
 20
-0.0025304891156638
 30
0.0
  0
SPLINE
  5
B4
330
1F
100
AcDbEntity
  8
Make2D visible lines
100
AcDbSpline
210
0.0
220
0.0
230
1.0
 70
    12
 71
     2
 72
     6
 73
     3
 74
     0
 42
0.0000000001
 43
0.0000000001
 40
0.0
 40
0.0
 40
0.0
 40
0.2356194483882336
 40
0.2356194483882336
 40
0.2356194483882336
 10
-0.8857832929155598
 20
-0.0025304891156638
 30
0.0
 41
1.0
 10
-1.035783292284575
 20
-0.0025304891156627
 30
0.0
 41
0.7071067826738353
 10
-1.035783292915565
 20
0.1474695102533373
 30
0.0
 41
1.0
  0
SPLINE
  5
B5
330
1F
100
AcDbEntity
  8
Make2D visible lines
100
AcDbSpline
210
0.0
220
0.0
230
1.0
 70
    24
 71
     2
 72
     6
 73
     3
 74
     0
 42
0.0000000001
 43
0.0000000001
 40
-2.260000001262
 40
-2.260000001262
 40
-2.260000001262
 40
0.0
 40
0.0
 40
0.0
 10
-1.035783292915565
 20
0.1474695102533373
 30
0.0
 10
-1.035783292915565
 20
1.277469510884337
 30
0.0
 10
-1.035783292915565
 20
2.407469511515337
 30
0.0
  0
SPLINE
  5
B6
330
1F
100
AcDbEntity
  8
Make2D visible lines
100
AcDbSpline
210
0.0
220
0.0
230
1.0
 70
    12
 71
     2
 72
     6
 73
     3
 74
     0
 42
0.0000000001
 43
0.0000000001
 40
0.0
 40
0.0
 40
0.0
 40
0.2356194483882358
 40
0.2356194483882358
 40
0.2356194483882358
 10
-1.035783292915565
 20
2.407469511515337
 30
0.0
 41
1.0
 10
-1.035783292284577
 20
2.557469510884337
 30
0.0
 41
0.7071067826738272
 10
-0.8857832929155598
 20
2.557469510884338
 30
0.0
 41
1.0
  0
SPLINE
  5
B7
330
1F
100
AcDbEntity
  8
Make2D visible lines
100
AcDbSpline
210
0.0
220
0.0
230
1.0
 70
    24
 71
     2
 72
     6
 73
     3
 74
     0
 42
0.0000000001
 43
0.0000000001
 40
0.0
 40
0.0
 40
0.0
 40
0.3520000000000003
 40
0.3520000000000003
 40
0.3520000000000003
 10
-0.8857832929155598
 20
2.557469510884338
 30
0.0
 10
-0.709783292915565
 20
2.557469510884338
 30
0.0
 10
-0.5337832929155701
 20
2.557469510884338
 30
0.0
  0
SPLINE
  5
B8
330
1F
100
AcDbEntity
  8
Make2D visible lines
100
AcDbSpline
210
0.0
220
0.0
230
1.0
 70
    12
 71
     2
 72
     8
 73
     5
 74
     0
 42
0.0000000001
 43
0.0000000001
 40
-0.1099557508386414
 40
-0.1099557508386414
 40
-0.1099557508386414
 40
-0.0549778754193184
 40
-0.0549778754193184
 40
0.0
 40
0.0
 40
0.0
 10
-0.5337832929155701
 20
2.557469510884338
 30
0.0
 41
1.0
 10
-0.5047883412171357
 20
2.557469510884337
 30
0.0
 41
0.9238795216280236
 10
-0.4842858154171643
 20
2.536966982752047
 30
0.0
 41
1.0
 10
-0.4637832896171891
 20
2.516464454619762
 30
0.0
 41
0.9238795216280324
 10
-0.4637832929155628
 20
2.485022222648236
 30
0.0
 41
1.0
  0
SPLINE
  5
B9
330
1F
100
AcDbEntity
  8
Default
100
AcDbSpline
210
0.0
220
0.0
230
1.0
 70
    12
 71
     2
 72
     6
 73
     3
 74
     0
 42
0.0000000001
 43
0.0000000001
 40
-0.0205148466803361
 40
-0.0205148466803361
 40
-0.0205148466803361
 40
0.0
 40
0.0
 40
0.0
 10
0.390103425227283
 20
1.319386267395462
 30
0.0
 41
1.0
 10
0.3928476455990754
 20
1.329319827470546
 30
0.0
 41
0.9929165310438545
 10
0.3931698760962016
 20
1.339620435674375
 30
0.0
 41
0.9999992470307488
  0
SPLINE
  5
BA
330
1F
100
AcDbEntity
  8
Default
100
AcDbSpline
210
0.0
220
0.0
230
1.0
 70
    12
 71
     2
 72
     6
 73
     3
 74
     0
 42
0.0000000001
 43
0.0000000001
 40
-0.1306670865212424
 40
-0.1306670865212424
 40
-0.1306670865212424
 40
0.0
 40
0.0
 40
0.0
 10
0.3931698760961972
 20
1.339620435674375
 30
0.0
 41
1.0
 10
0.3904134008094099
 20
1.257468882836154
 30
0.0
 41
0.7188571908882943
 10
0.3082167057777832
 20
1.257470000277223
 30
0.0
 41
1.0
  0
SPLINE
  5
BB
330
1F
100
AcDbEntity
  8
Default
100
AcDbSpline
210
0.0
220
0.0
230
1.0
 70
    24
 71
     2
 72
     6
 73
     3
 74
     0
 42
0.0000000001
 43
0.0000000001
 40
-0.6179999986728006
 40
-0.6179999986728006
 40
-0.6179999986728006
 40
0.0
 40
0.0
 40
0.0
 10
0.3082167057777832
 20
1.257470000277223
 30
0.0
 10
-0.0007832935586172
 20
1.257470000265
 30
0.0
 10
-0.3097832928950175
 20
1.257470000252777
 30
0.0
  0
SPLINE
  5
BC
330
1F
100
AcDbEntity
  8
Default
100
AcDbSpline
210
0.0
220
0.0
230
1.0
 70
    12
 71
     2
 72
     6
 73
     3
 74
     0
 42
0.0000000001
 43
0.0000000001
 40
-0.1306642149348706
 40
-0.1306642149348706
 40
-0.1306642149348706
 40
0.0
 40
0.0
 40
0.0
 10
-0.3097832928950175
 20
1.257470000252777
 30
0.0
 41
1.0
 10
-0.3919772065730836
 20
1.257468888520126
 30
0.0
 41
0.7188689686272367
 10
-0.3947592246310143
 20
1.341043006845954
 30
0.0
 41
1.0
  0
LINE
  5
BD
330
1F
100
AcDbEntity
  8
Default
100
AcDbLine
 10
-0.3947592246310143
 20
1.341043006845954
 30
0.0
 11
-0.3947834068468956
 21
2.717469510884282
 31
0.0
  0
SPLINE
  5
BE
330
1F
100
AcDbEntity
  8
Default
100
AcDbSpline
210
0.0
220
0.0
230
1.0
 70
    12
 71
     2
 72
     8
 73
     5
 74
     0
 42
0.0000000001
 43
0.0000000001
 40
-0.0628318931243996
 40
-0.0628318931243996
 40
-0.0628318931243996
 40
-0.0314159465621985
 40
-0.0314159465621985
 40
0.0
 40
0.0
 40
0.0
 10
-0.3947834068468956
 20
2.717469510884282
 30
0.0
 41
1.0
 10
-0.3947832929155778
 20
2.734038065110399
 30
0.0
 41
0.923879436714611
 10
-0.3830675500022926
 20
2.745753796292532
 30
0.0
 41
1.0
 10
-0.3713518070890216
 20
2.757469527474663
 30
0.0
 41
0.9238794367145934
 10
-0.3547832528629704
 20
2.757469510884323
 30
0.0
 41
1.0
  0
POLYLINE
  5
BF
330
1F
100
AcDbEntity
  8
Default
100
AcDb2dPolyline
 66
     1
 10
0.0
 20
0.0
 30
0.0
  0
VERTEX
  5
C0
330
BF
100
AcDbEntity
  8
Default
100
AcDbVertex
100
AcDb2dVertex
 10
-0.3547832528629704
 20
2.757469510884323
 30
0.0
  0
VERTEX
  5
C1
330
BF
100
AcDbEntity
  8
Default
100
AcDbVertex
100
AcDb2dVertex
 10
0.3532166657457219
 20
2.757469510884323
 30
0.0
  0
SEQEND
  5
C2
330
BF
100
AcDbEntity
  8
Default
  0
SPLINE
  5
C3
330
1F
100
AcDbEntity
  8
Default
100
AcDbSpline
210
0.0
220
0.0
230
1.0
 70
    12
 71
     2
 72
     8
 73
     5
 74
     0
 42
0.0000000001
 43
0.0000000001
 40
0.0
 40
0.0
 40
0.0
 40
0.0314159465621985
 40
0.0314159465621985
 40
0.0628318931243996
 40
0.0628318931243996
 40
0.0628318931243996
 10
0.3532166657457219
 20
2.757469510884323
 30
0.0
 41
1.0
 10
0.3697852199717762
 20
2.757469527474663
 30
0.0
 41
0.9238794367145934
 10
0.3815009628850583
 20
2.745753796292532
 30
0.0
 41
1.0
 10
0.39321670579833
 20
2.734038065110399
 30
0.0
 41
0.923879436714611
 10
0.3932168197296471
 20
2.717469510884282
 30
0.0
 41
1.0
  0
LINE
  5
C4
330
1F
100
AcDbEntity
  8
Default
100
AcDbLine
 10
0.3932168197296471
 20
2.717469510884282
 30
0.0
 11
0.39319263751378
 21
1.341043006845954
 31
0.0
  0
SPLINE
  5
C5
330
1F
100
AcDbEntity
  8
Make2D visible lines
100
AcDbSpline
210
0.0
220
0.0
230
1.0
 70
    12
 71
     2
 72
     6
 73
     3
 74
     0
 42
0.0000000001
 43
0.0000000001
 40
0.0
 40
0.0
 40
0.0
 40
0.8430454948973277
 40
0.8430454948973277
 40
0.8430454948973277
 10
0.3723359247392346
 20
3.63529064533714
 30
0.0
 41
1.0
 10
0.3909426992537484
 20
3.21411558362214
 30
0.0
 41
0.9997754301764012
 10
0.39156238624498
 20
2.790424062017685
 30
0.0
 41
1.0
  0
SPLINE
  5
C6
330
1F
100
AcDbEntity
  8
Make2D visible lines
100
AcDbSpline
210
0.0
220
0.0
230
1.0
 70
    12
 71
     2
 72
     6
 73
     3
 74
     0
 42
0.0000000001
 43
0.0000000001
 40
0.0
 40
0.0
 40
0.0
 40
0.0508163155668431
 40
0.0508163155668431
 40
0.0508163155668431
 10
0.39156238624498
 20
2.790424062017685
 30
0.0
 41
1.0
 10
0.3877535659682172
 20
2.75746951096079
 30
0.0
 41
0.7478708527965573
 10
0.3566859711392021
 20
2.757469510884288
 30
0.0
 41
1.0
  0
SPLINE
  5
C7
330
1F
100
AcDbEntity
  8
Make2D visible lines - Tangent
100
AcDbSpline
210
0.0
220
0.0
230
1.0
 70
    12
 71
     2
 72
     6
 73
     3
 74
     0
 42
0.0000000001
 43
0.0000000001
 40
0.0
 40
0.0
 40
0.0
 40
0.4532404920517378
 40
0.4532404920517378
 40
0.4532404920517378
 10
-0.4508098972449779
 20
4.150380393159491
 30
0.0
 41
1.0
 10
-0.3919148533699636
 20
3.792960813353542
 30
0.0
 41
0.9997612429162962
 10
-0.3632470393705183
 20
3.568124769821164
 30
0.0
 41
1.0
  0
SPLINE
  5
C8
330
1F
100
AcDbEntity
  8
Make2D visible lines - Tangent
100
AcDbSpline
210
0.0
220
0.0
230
1.0
 70
    12
 71
     3
 72
    12
 73
     8
 74
     0
 42
0.0000000001
 43
0.0000000001
 40
0.0
 40
0.0
 40
0.0
 40
0.0
 40
0.1353903037540804
 40
0.4235935358360524
 40
0.5676951518770383
 40
0.7117967679180244
 40
1.0
 40
1.0
 40
1.0
 40
1.0
 10
-0.3632470393705183
 20
3.568124769821164
 30
0.0
 41
1.0
 10
-0.3585576492765319
 20
3.531346802888205
 30
0.0
 41
1.0
 10
-0.3374854860586232
 20
3.418507437090643
 30
0.0
 41
1.0
 10
-0.2833933103884454
 20
3.284905035108419
 30
0.0
 41
1.0
 10
-0.2080243889470785
 20
3.182893959827762
 30
0.0
 41
1.0
 10
-0.122053315688317
 20
3.107014621863048
 30
0.0
 41
1.0
 10
-0.0493038066714866
 20
3.083100022449646
 30
0.0
 41
1.0
 10
-0.0007832935586243
 20
3.08310002167865
 30
0.0
 41
1.0
  0
SPLINE
  5
C9
330
1F
100
AcDbEntity
  8
Make2D visible lines - Tangent
100
AcDbSpline
210
0.0
220
0.0
230
1.0
 70
    12
 71
     3
 72
    12
 73
     8
 74
     0
 42
0.0000000001
 43
0.0000000001
 40
-1.0
 40
-1.0
 40
-1.0
 40
-1.0
 40
-0.7117967679180244
 40
-0.5676951518770383
 40
-0.4235935358360524
 40
-0.1353903037540804
 40
0.0
 40
0.0
 40
0.0
 40
0.0
 10
-0.0007832935586243
 20
3.08310002167865
 30
0.0
 41
1.0
 10
0.047737219554238
 20
3.083100022449646
 30
0.0
 41
1.0
 10
0.1204867285710685
 20
3.107014621863048
 30
0.0
 41
1.0
 10
0.20645780182983
 20
3.182893959827762
 30
0.0
 41
1.0
 10
0.2818267232711968
 20
3.284905035108419
 30
0.0
 41
1.0
 10
0.3359188989413746
 20
3.418507437090643
 30
0.0
 41
1.0
 10
0.3569910621592833
 20
3.531346802888205
 30
0.0
 41
1.0
 10
0.3616804522532697
 20
3.568124769821164
 30
0.0
 41
1.0
  0
SPLINE
  5
CA
330
1F
100
AcDbEntity
  8
Make2D visible lines - Tangent
100
AcDbSpline
210
0.0
220
0.0
230
1.0
 70
    12
 71
     2
 72
     6
 73
     3
 74
     0
 42
0.0000000001
 43
0.0000000001
 40
-0.4532404920517378
 40
-0.4532404920517378
 40
-0.4532404920517378
 40
0.0
 40
0.0
 40
0.0
 10
0.3616804522532697
 20
3.568124769821164
 30
0.0
 41
1.0
 10
0.390348266252715
 20
3.792960813353542
 30
0.0
 41
0.9997612429162962
 10
0.4492433101277293
 20
4.150380393159491
 30
0.0
 41
1.0
  0
SPLINE
  5
CB
330
1F
100
AcDbEntity
  8
Make2D visible lines
100
AcDbSpline
210
0.0
220
0.0
230
1.0
 70
    12
 71
     2
 72
     6
 73
     3
 74
     0
 42
0.0000000001
 43
0.0000000001
 40
0.0
 40
0.0
 40
0.0
 40
0.8430454948973277
 40
0.8430454948973277
 40
0.8430454948973277
 10
-0.3739025118564832
 20
3.63529064533714
 30
0.0
 41
1.0
 10
-0.392509286370997
 20
3.21411558362214
 30
0.0
 41
0.9997754301764012
 10
-0.3931289733622285
 20
2.790424062017685
 30
0.0
 41
1.0
  0
SPLINE
  5
CC
330
1F
100
AcDbEntity
  8
Make2D visible lines
100
AcDbSpline
210
0.0
220
0.0
230
1.0
 70
    12
 71
     2
 72
     6
 73
     3
 74
     0
 42
0.0000000001
 43
0.0000000001
 40
0.0
 40
0.0
 40
0.0
 40
0.0508163155668431
 40
0.0508163155668431
 40
0.0508163155668431
 10
-0.3931289733622285
 20
2.790424062017685
 30
0.0
 41
1.0
 10
-0.3893201530854657
 20
2.75746951096079
 30
0.0
 41
0.7478708527965573
 10
-0.3582525582564506
 20
2.757469510884288
 30
0.0
 41
1.0
  0
SPLINE
  5
CD
330
1F
100
AcDbEntity
  8
Make2D visible lines
100
AcDbSpline
210
0.0
220
0.0
230
1.0
 70
    12
 71
     2
 72
     6
 73
     3
 74
     0
 42
0.0000000001
 43
0.0000000001
 40
0.0
 40
0.0
 40
0.0
 40
0.1228476419690088
 40
0.1228476419690088
 40
0.1228476419690088
 10
12.17349810152833
 20
2.133165168117521
 30
0.0
 41
1.0
 10
12.13818227999549
 20
2.184268654765809
 30
0.0
 41
0.9832969456840381
 10
12.12349810605896
 20
2.24462715569113
 30
0.0
 41
1.0
  0
SPLINE
  5
CE
330
1F
100
AcDbEntity
  8
Make2D visible lines
100
AcDbSpline
210
0.0
220
0.0
230
1.0
 70
     8
 71
     3
 72
    12
 73
     8
 74
     0
 42
0.0000000001
 43
0.0000000001
 40
0.0
 40
0.0
 40
0.0
 40
0.0
 40
0.1463411183411369
 40
0.2853842069860231
 40
0.4774826785392335
 40
0.6695434217140405
 40
0.9551044705190225
 40
0.9551044705190225
 40
0.9551044705190225
 40
0.9551044705190225
 10
12.17349810152833
 20
2.133165168117521
 30
0.0
 10
12.1940559548171
 20
2.089704799878537
 30
0.0
 10
12.24929031998758
 20
2.008608954637671
 30
0.0
 10
12.34823769260523
 20
1.890337146437135
 30
0.0
 10
12.51862015896909
 20
1.797661440149863
 30
0.0
 10
12.73059849350318
 20
1.916212772144814
 30
0.0
 10
12.81478624090738
 20
2.048960364479087
 30
0.0
 10
12.86149810152831
 20
2.133165168117521
 30
0.0
  0
SPLINE
  5
CF
330
1F
100
AcDbEntity
  8
Make2D visible lines
100
AcDbSpline
210
0.0
220
0.0
230
1.0
 70
    24
 71
     2
 72
     6
 73
     3
 74
     0
 42
0.0000000001
 43
0.0000000001
 40
0.0
 40
0.0
 40
0.0
 40
0.0690000000000008
 40
0.0690000000000008
 40
0.0690000000000008
 10
12.98049810152831
 20
1.592469510884339
 30
0.0
 10
12.94599810152832
 20
1.592469510884339
 30
0.0
 10
12.91149810152833
 20
1.592469510884339
 30
0.0
  0
SPLINE
  5
D0
330
1F
100
AcDbEntity
  8
Make2D visible lines
100
AcDbSpline
210
0.0
220
0.0
230
1.0
 70
    12
 71
     2
 72
     6
 73
     3
 74
     0
 42
0.0000000001
 43
0.0000000001
 40
0.0
 40
0.0
 40
0.0
 40
0.1227840813427634
 40
0.1227840813427634
 40
0.1227840813427634
 10
12.86149810152831
 20
2.133165168117521
 30
0.0
 41
1.0
 10
12.89631496897672
 20
2.184492477276991
 30
0.0
 41
0.9848379823800321
 10
12.91149809699768
 20
2.24462715569113
 30
0.0
 41
1.0
  0
SPLINE
  5
D1
330
1F
100
AcDbEntity
  8
Make2D visible lines
100
AcDbSpline
210
0.0
220
0.0
230
1.0
 70
    24
 71
     2
 72
     6
 73
     3
 74
     0
 42
0.0000000001
 43
0.0000000001
 40
0.0
 40
0.0
 40
0.0
 40
0.0689999999999991
 40
0.0689999999999991
 40
0.0689999999999991
 10
12.12349810152831
 20
1.592469510884339
 30
0.0
 10
12.08899810152832
 20
1.592469510884339
 30
0.0
 10
12.05449810152833
 20
1.592469510884339
 30
0.0
  0
SPLINE
  5
D2
330
1F
100
AcDbEntity
  8
Make2D visible lines
100
AcDbSpline
210
0.0
220
0.0
230
1.0
 70
    24
 71
     2
 72
     6
 73
     3
 74
     0
 42
0.0000000001
 43
0.0000000001
 40
0.0
 40
0.0
 40
0.0
 40
0.9260000000000002
 40
0.9260000000000002
 40
0.9260000000000002
 10
12.05449810152833
 20
0.9624695108843396
 30
0.0
 10
12.51749810152832
 20
0.9624695108843396
 30
0.0
 10
12.98049810152831
 20
0.9624695108843396
 30
0.0
  0
SPLINE
  5
D3
330
1F
100
AcDbEntity
  8
Make2D visible lines
100
AcDbSpline
210
0.0
220
0.0
230
1.0
 70
    24
 71
     2
 72
     6
 73
     3
 74
     0
 42
0.0000000001
 43
0.0000000001
 40
-2.415105433753071
 40
-2.415105433753071
 40
-2.415105433753071
 40
0.0
 40
0.0
 40
0.0
 10
12.05449810152833
 20
2.485022227760873
 30
0.0
 10
12.05449810152833
 20
1.276245870742605
 30
0.0
 10
12.05449810152833
 20
0.0674695137243367
 30
0.0
  0
SPLINE
  5
D4
330
1F
100
AcDbEntity
  8
Make2D visible lines
100
AcDbSpline
210
0.0
220
0.0
230
1.0
 70
    12
 71
     2
 72
     6
 73
     3
 74
     0
 42
0.0000000001
 43
0.0000000001
 40
0.0
 40
0.0
 40
0.0
 40
0.1099557457156439
 40
0.1099557457156439
 40
0.1099557457156439
 10
12.05449810152833
 20
0.0674695137243367
 30
0.0
 41
1.0
 10
12.05449810436832
 20
-0.0025304891156631
 30
0.0
 41
0.7071067668423728
 10
11.98449810152832
 20
-0.0025304891156638
 30
0.0
 41
1.0
  0
SPLINE
  5
D5
330
1F
100
AcDbEntity
  8
Make2D visible lines
100
AcDbSpline
210
0.0
220
0.0
230
1.0
 70
    24
 71
     2
 72
     6
 73
     3
 74
     0
 42
0.0000000001
 43
0.0000000001
 40
0.0
 40
0.0
 40
0.0
 40
0.3520000000000003
 40
0.3520000000000003
 40
0.3520000000000003
 10
11.98449810152832
 20
-0.0025304891156638
 30
0.0
 10
11.80849810152832
 20
-0.0025304891156638
 30
0.0
 10
11.63249810152831
 20
-0.0025304891156638
 30
0.0
  0
SPLINE
  5
D6
330
1F
100
AcDbEntity
  8
Make2D visible lines
100
AcDbSpline
210
0.0
220
0.0
230
1.0
 70
    12
 71
     2
 72
     6
 73
     3
 74
     0
 42
0.0000000001
 43
0.0000000001
 40
0.0
 40
0.0
 40
0.0
 40
0.2356194519512337
 40
0.2356194519512337
 40
0.2356194519512337
 10
11.63249810152831
 20
-0.0025304891156638
 30
0.0
 41
1.0
 10
11.48249809859632
 20
-0.002530489115661
 30
0.0
 41
0.7071067742757676
 10
11.48249810152832
 20
0.1474695138163361
 30
0.0
 41
1.0
  0
SPLINE
  5
D7
330
1F
100
AcDbEntity
  8
Make2D visible lines
100
AcDbSpline
210
0.0
220
0.0
230
1.0
 70
    24
 71
     2
 72
     6
 73
     3
 74
     0
 42
0.0000000001
 43
0.0000000001
 40
0.0
 40
0.0
 40
0.0
 40
2.255429040880414
 40
2.255429040880414
 40
2.255429040880414
 10
11.48249810152832
 20
0.1474695138163361
 30
0.0
 10
11.48249810152832
 20
1.27632677257044
 30
0.0
 10
11.48249810152832
 20
2.405184031324544
 30
0.0
  0
SPLINE
  5
D8
330
1F
100
AcDbEntity
  8
Make2D visible lines
100
AcDbSpline
210
0.0
220
0.0
230
1.0
 70
    12
 71
     2
 72
     6
 73
     3
 74
     0
 42
0.0000000001
 43
0.0000000001
 40
0.0
 40
0.0
 40
0.0
 40
0.2356194519512344
 40
0.2356194519512344
 40
0.2356194519512344
 10
11.48249810152832
 20
2.405184031324544
 30
0.0
 41
1.0
 10
11.48249809859632
 20
2.557469510884338
 30
0.0
 41
0.7071067742757604
 10
11.63249810152831
 20
2.557469510884338
 30
0.0
 41
1.0
  0
SPLINE
  5
D9
330
1F
100
AcDbEntity
  8
Make2D visible lines
100
AcDbSpline
210
0.0
220
0.0
230
1.0
 70
    24
 71
     2
 72
     6
 73
     3
 74
     0
 42
0.0000000001
 43
0.0000000001
 40
0.0
 40
0.0
 40
0.0
 40
0.3520000000000003
 40
0.3520000000000003
 40
0.3520000000000003
 10
11.63249810152831
 20
2.557469510884338
 30
0.0
 10
11.80849810152832
 20
2.557469510884338
 30
0.0
 10
11.98449810152832
 20
2.557469510884338
 30
0.0
  0
SPLINE
  5
DA
330
1F
100
AcDbEntity
  8
Make2D visible lines
100
AcDbSpline
210
0.0
220
0.0
230
1.0
 70
    12
 71
     2
 72
     6
 73
     3
 74
     0
 42
0.0000000001
 43
0.0000000001
 40
0.0
 40
0.0
 40
0.0
 40
0.1099557457156434
 40
0.1099557457156434
 40
0.1099557457156434
 10
11.98449810152832
 20
2.557469510884338
 30
0.0
 41
1.0
 10
12.05449810436832
 20
2.557469510884339
 30
0.0
 41
0.7071067668423767
 10
12.05449810152833
 20
2.485022227760873
 30
0.0
 41
1.0
  0
SPLINE
  5
DB
330
1F
100
AcDbEntity
  8
Make2D visible lines
100
AcDbSpline
210
0.0
220
0.0
230
1.0
 70
    24
 71
     2
 72
     6
 73
     3
 74
     0
 42
0.0000000001
 43
0.0000000001
 40
-2.415105423527796
 40
-2.415105423527796
 40
-2.415105423527796
 40
0.0
 40
0.0
 40
0.0
 10
12.98049810152831
 20
2.485022222648236
 30
0.0
 10
12.98049810152831
 20
1.276245870747786
 30
0.0
 10
12.98049810152831
 20
0.0674695188473357
 30
0.0
  0
SPLINE
  5
DC
330
1F
100
AcDbEntity
  8
Make2D visible lines
100
AcDbSpline
210
0.0
220
0.0
230
1.0
 70
    12
 71
     2
 72
     8
 73
     5
 74
     0
 42
0.0000000001
 43
0.0000000001
 40
-0.1099557508386429
 40
-0.1099557508386429
 40
-0.1099557508386429
 40
-0.0549778754193212
 40
-0.0549778754193212
 40
0.0
 40
0.0
 40
0.0
 10
12.98049810152831
 20
0.0674695188473357
 30
0.0
 41
1.0
 10
12.98049809822993
 20
0.0384745671489101
 30
0.0
 41
0.9238795216280429
 10
13.00100062402992
 20
0.017972039016623
 30
0.0
 41
1.0
 10
13.02150314982989
 20
-0.0025304891156634
 30
0.0
 41
0.923879521628049
 10
13.05049810152832
 20
-0.0025304891156638
 30
0.0
 41
1.0
  0
SPLINE
  5
DD
330
1F
100
AcDbEntity
  8
Make2D visible lines
100
AcDbSpline
210
0.0
220
0.0
230
1.0
 70
    24
 71
     2
 72
     6
 73
     3
 74
     0
 42
0.0000000001
 43
0.0000000001
 40
0.0
 40
0.0
 40
0.0
 40
0.3520000000000003
 40
0.3520000000000003
 40
0.3520000000000003
 10
13.05049810152832
 20
-0.0025304891156638
 30
0.0
 10
13.22649810152832
 20
-0.0025304891156638
 30
0.0
 10
13.40249810152831
 20
-0.0025304891156638
 30
0.0
  0
SPLINE
  5
DE
330
1F
100
AcDbEntity
  8
Make2D visible lines
100
AcDbSpline
210
0.0
220
0.0
230
1.0
 70
    12
 71
     2
 72
     6
 73
     3
 74
     0
 42
0.0000000001
 43
0.0000000001
 40
0.0
 40
0.0
 40
0.0
 40
0.2356194483882336
 40
0.2356194483882336
 40
0.2356194483882336
 10
13.40249810152831
 20
-0.0025304891156638
 30
0.0
 41
1.0
 10
13.55249810089733
 20
-0.0025304891156627
 30
0.0
 41
0.7071067826738353
 10
13.55249810152832
 20
0.1474695102533373
 30
0.0
 41
1.0
  0
SPLINE
  5
DF
330
1F
100
AcDbEntity
  8
Make2D visible lines
100
AcDbSpline
210
0.0
220
0.0
230
1.0
 70
    24
 71
     2
 72
     6
 73
     3
 74
     0
 42
0.0000000001
 43
0.0000000001
 40
-2.260000001262
 40
-2.260000001262
 40
-2.260000001262
 40
0.0
 40
0.0
 40
0.0
 10
13.55249810152832
 20
0.1474695102533373
 30
0.0
 10
13.55249810152832
 20
1.277469510884337
 30
0.0
 10
13.55249810152832
 20
2.407469511515337
 30
0.0
  0
SPLINE
  5
E0
330
1F
100
AcDbEntity
  8
Make2D visible lines
100
AcDbSpline
210
0.0
220
0.0
230
1.0
 70
    12
 71
     2
 72
     6
 73
     3
 74
     0
 42
0.0000000001
 43
0.0000000001
 40
0.0
 40
0.0
 40
0.0
 40
0.2356194483882358
 40
0.2356194483882358
 40
0.2356194483882358
 10
13.55249810152832
 20
2.407469511515337
 30
0.0
 41
1.0
 10
13.55249810089733
 20
2.557469510884337
 30
0.0
 41
0.7071067826738272
 10
13.40249810152831
 20
2.557469510884338
 30
0.0
 41
1.0
  0
SPLINE
  5
E1
330
1F
100
AcDbEntity
  8
Make2D visible lines
100
AcDbSpline
210
0.0
220
0.0
230
1.0
 70
    24
 71
     2
 72
     6
 73
     3
 74
     0
 42
0.0000000001
 43
0.0000000001
 40
0.0
 40
0.0
 40
0.0
 40
0.3520000000000003
 40
0.3520000000000003
 40
0.3520000000000003
 10
13.40249810152831
 20
2.557469510884338
 30
0.0
 10
13.22649810152832
 20
2.557469510884338
 30
0.0
 10
13.05049810152832
 20
2.557469510884338
 30
0.0
  0
SPLINE
  5
E2
330
1F
100
AcDbEntity
  8
Make2D visible lines
100
AcDbSpline
210
0.0
220
0.0
230
1.0
 70
    12
 71
     2
 72
     8
 73
     5
 74
     0
 42
0.0000000001
 43
0.0000000001
 40
-0.1099557508386414
 40
-0.1099557508386414
 40
-0.1099557508386414
 40
-0.0549778754193184
 40
-0.0549778754193184
 40
0.0
 40
0.0
 40
0.0
 10
13.05049810152832
 20
2.557469510884338
 30
0.0
 41
1.0
 10
13.02150314982989
 20
2.557469510884337
 30
0.0
 41
0.9238795216280236
 10
13.00100062402992
 20
2.536966982752047
 30
0.0
 41
1.0
 10
12.98049809822994
 20
2.516464454619762
 30
0.0
 41
0.9238795216280324
 10
12.98049810152831
 20
2.485022222648236
 30
0.0
 41
1.0
  0
SPLINE
  5
E3
330
1F
100
AcDbEntity
  8
Default
100
AcDbSpline
210
0.0
220
0.0
230
1.0
 70
    12
 71
     2
 72
     6
 73
     3
 74
     0
 42
0.0000000001
 43
0.0000000001
 40
-0.0205148466803361
 40
-0.0205148466803361
 40
-0.0205148466803361
 40
0.0
 40
0.0
 40
0.0
 10
12.12661138338547
 20
1.319386267395462
 30
0.0
 41
1.0
 10
12.12386716301368
 20
1.329319827470546
 30
0.0
 41
0.9929165310438545
 10
12.12354493251655
 20
1.339620435674375
 30
0.0
 41
0.9999992470307488
  0
SPLINE
  5
E4
330
1F
100
AcDbEntity
  8
Default
100
AcDbSpline
210
0.0
220
0.0
230
1.0
 70
    12
 71
     2
 72
     6
 73
     3
 74
     0
 42
0.0000000001
 43
0.0000000001
 40
-0.1306670865212424
 40
-0.1306670865212424
 40
-0.1306670865212424
 40
0.0
 40
0.0
 40
0.0
 10
12.12354493251655
 20
1.339620435674375
 30
0.0
 41
1.0
 10
12.12630140780334
 20
1.257468882836154
 30
0.0
 41
0.7188571908882943
 10
12.20849810283497
 20
1.257470000277223
 30
0.0
 41
1.0
  0
SPLINE
  5
E5
330
1F
100
AcDbEntity
  8
Default
100
AcDbSpline
210
0.0
220
0.0
230
1.0
 70
    24
 71
     2
 72
     6
 73
     3
 74
     0
 42
0.0000000001
 43
0.0000000001
 40
-0.6179999986728006
 40
-0.6179999986728006
 40
-0.6179999986728006
 40
0.0
 40
0.0
 40
0.0
 10
12.20849810283497
 20
1.257470000277223
 30
0.0
 10
12.51749810217137
 20
1.257470000265
 30
0.0
 10
12.82649810150777
 20
1.257470000252777
 30
0.0
  0
SPLINE
  5
E6
330
1F
100
AcDbEntity
  8
Default
100
AcDbSpline
210
0.0
220
0.0
230
1.0
 70
    12
 71
     2
 72
     6
 73
     3
 74
     0
 42
0.0000000001
 43
0.0000000001
 40
-0.1306642149348706
 40
-0.1306642149348706
 40
-0.1306642149348706
 40
0.0
 40
0.0
 40
0.0
 10
12.82649810150777
 20
1.257470000252777
 30
0.0
 41
1.0
 10
12.90869201518584
 20
1.257468888520126
 30
0.0
 41
0.7188689686272367
 10
12.91147403324377
 20
1.341043006845954
 30
0.0
 41
1.0
  0
LINE
  5
E7
330
1F
100
AcDbEntity
  8
Default
100
AcDbLine
 10
12.91147403324377
 20
1.341043006845954
 30
0.0
 11
12.91149821545965
 21
2.717469510884282
 31
0.0
  0
SPLINE
  5
E8
330
1F
100
AcDbEntity
  8
Default
100
AcDbSpline
210
0.0
220
0.0
230
1.0
 70
    12
 71
     2
 72
     8
 73
     5
 74
     0
 42
0.0000000001
 43
0.0000000001
 40
-0.0628318931243996
 40
-0.0628318931243996
 40
-0.0628318931243996
 40
-0.0314159465621985
 40
-0.0314159465621985
 40
0.0
 40
0.0
 40
0.0
 10
12.91149821545965
 20
2.717469510884282
 30
0.0
 41
1.0
 10
12.91149810152833
 20
2.734038065110399
 30
0.0
 41
0.923879436714611
 10
12.89978235861504
 20
2.745753796292532
 30
0.0
 41
1.0
 10
12.88806661570177
 20
2.757469527474663
 30
0.0
 41
0.9238794367145934
 10
12.87149806147572
 20
2.757469510884323
 30
0.0
 41
1.0
  0
POLYLINE
  5
E9
330
1F
100
AcDbEntity
  8
Default
100
AcDb2dPolyline
 66
     1
 10
0.0
 20
0.0
 30
0.0
  0
VERTEX
  5
EA
330
E9
100
AcDbEntity
  8
Default
100
AcDbVertex
100
AcDb2dVertex
 10
12.87149806147572
 20
2.757469510884323
 30
0.0
  0
VERTEX
  5
EB
330
E9
100
AcDbEntity
  8
Default
100
AcDbVertex
100
AcDb2dVertex
 10
12.16349814286703
 20
2.757469510884323
 30
0.0
  0
SEQEND
  5
EC
330
E9
100
AcDbEntity
  8
Default
  0
SPLINE
  5
ED
330
1F
100
AcDbEntity
  8
Default
100
AcDbSpline
210
0.0
220
0.0
230
1.0
 70
    12
 71
     2
 72
     8
 73
     5
 74
     0
 42
0.0000000001
 43
0.0000000001
 40
0.0
 40
0.0
 40
0.0
 40
0.0314159465621985
 40
0.0314159465621985
 40
0.0628318931243996
 40
0.0628318931243996
 40
0.0628318931243996
 10
12.16349814286703
 20
2.757469510884323
 30
0.0
 41
1.0
 10
12.14692958864098
 20
2.757469527474663
 30
0.0
 41
0.9238794367145934
 10
12.13521384572769
 20
2.745753796292532
 30
0.0
 41
1.0
 10
12.12349810281442
 20
2.734038065110399
 30
0.0
 41
0.923879436714611
 10
12.1234979888831
 20
2.717469510884282
 30
0.0
 41
1.0
  0
LINE
  5
EE
330
1F
100
AcDbEntity
  8
Default
100
AcDbLine
 10
12.1234979888831
 20
2.717469510884282
 30
0.0
 11
12.12352217109897
 21
1.341043006845954
 31
0.0
  0
SPLINE
  5
EF
330
1F
100
AcDbEntity
  8
Make2D visible lines
100
AcDbSpline
210
0.0
220
0.0
230
1.0
 70
    12
 71
     2
 72
     6
 73
     3
 74
     0
 42
0.0000000001
 43
0.0000000001
 40
0.0
 40
0.0
 40
0.0
 40
0.1228476419690088
 40
0.1228476419690088
 40
0.1228476419690088
 10
7.391859966663718
 20
2.135695657233184
 30
0.0
 41
1.0
 10
7.356544145130884
 20
2.186799143881472
 30
0.0
 41
0.9832969456840381
 10
7.341859971194355
 20
2.247157644806793
 30
0.0
 41
1.0
  0
SPLINE
  5
F0
330
1F
100
AcDbEntity
  8
Make2D visible lines
100
AcDbSpline
210
0.0
220
0.0
230
1.0
 70
     8
 71
     3
 72
    12
 73
     8
 74
     0
 42
0.0000000001
 43
0.0000000001
 40
0.0
 40
0.0
 40
0.0
 40
0.0
 40
0.1463411183411369
 40
0.2853842069860231
 40
0.4774826785392335
 40
0.6695434217140405
 40
0.9551044705190225
 40
0.9551044705190225
 40
0.9551044705190225
 40
0.9551044705190225
 10
7.391859966663718
 20
2.135695657233184
 30
0.0
 10
7.412417819952497
 20
2.092235288994201
 30
0.0
 10
7.467652185122974
 20
2.011139443753335
 30
0.0
 10
7.566599557740618
 20
1.892867635552799
 30
0.0
 10
7.73698202410448
 20
1.800191929265527
 30
0.0
 10
7.948960358638574
 20
1.918743261260477
 30
0.0
 10
8.033148106042775
 20
2.051490853594751
 30
0.0
 10
8.079859966663706
 20
2.135695657233184
 30
0.0
  0
SPLINE
  5
F1
330
1F
100
AcDbEntity
  8
Make2D visible lines
100
AcDbSpline
210
0.0
220
0.0
230
1.0
 70
    24
 71
     2
 72
     6
 73
     3
 74
     0
 42
0.0000000001
 43
0.0000000001
 40
0.0
 40
0.0
 40
0.0
 40
0.0690000000000008
 40
0.0690000000000008
 40
0.0690000000000008
 10
8.198859966663706
 20
1.595000000000002
 30
0.0
 10
8.164359966663712
 20
1.595000000000002
 30
0.0
 10
8.129859966663718
 20
1.595000000000002
 30
0.0
  0
SPLINE
  5
F2
330
1F
100
AcDbEntity
  8
Make2D visible lines
100
AcDbSpline
210
0.0
220
0.0
230
1.0
 70
    12
 71
     2
 72
     6
 73
     3
 74
     0
 42
0.0000000001
 43
0.0000000001
 40
0.0
 40
0.0
 40
0.0
 40
0.1227840813427634
 40
0.1227840813427634
 40
0.1227840813427634
 10
8.079859966663706
 20
2.135695657233184
 30
0.0
 41
1.0
 10
8.114676834112112
 20
2.187022966392655
 30
0.0
 41
0.9848379823800321
 10
8.12985996213307
 20
2.247157644806793
 30
0.0
 41
1.0
  0
SPLINE
  5
F3
330
1F
100
AcDbEntity
  8
Make2D visible lines
100
AcDbSpline
210
0.0
220
0.0
230
1.0
 70
    24
 71
     2
 72
     6
 73
     3
 74
     0
 42
0.0000000001
 43
0.0000000001
 40
0.0
 40
0.0
 40
0.0
 40
0.0689999999999991
 40
0.0689999999999991
 40
0.0689999999999991
 10
7.341859966663707
 20
1.595000000000002
 30
0.0
 10
7.307359966663713
 20
1.595000000000002
 30
0.0
 10
7.272859966663718
 20
1.595000000000002
 30
0.0
  0
SPLINE
  5
F4
330
1F
100
AcDbEntity
  8
Make2D visible lines
100
AcDbSpline
210
0.0
220
0.0
230
1.0
 70
    24
 71
     2
 72
     6
 73
     3
 74
     0
 42
0.0000000001
 43
0.0000000001
 40
0.0
 40
0.0
 40
0.0
 40
0.9260000000000002
 40
0.9260000000000002
 40
0.9260000000000002
 10
7.272859966663718
 20
0.9650000000000033
 30
0.0
 10
7.735859966663712
 20
0.9650000000000033
 30
0.0
 10
8.198859966663706
 20
0.9650000000000033
 30
0.0
  0
SPLINE
  5
F5
330
1F
100
AcDbEntity
  8
Make2D visible lines
100
AcDbSpline
210
0.0
220
0.0
230
1.0
 70
    24
 71
     2
 72
     6
 73
     3
 74
     0
 42
0.0000000001
 43
0.0000000001
 40
-2.415105433753071
 40
-2.415105433753071
 40
-2.415105433753071
 40
0.0
 40
0.0
 40
0.0
 10
7.272859966663718
 20
2.487552716876537
 30
0.0
 10
7.272859966663718
 20
1.278776359858269
 30
0.0
 10
7.272859966663718
 20
0.0700000028400004
 30
0.0
  0
SPLINE
  5
F6
330
1F
100
AcDbEntity
  8
Make2D visible lines
100
AcDbSpline
210
0.0
220
0.0
230
1.0
 70
    12
 71
     2
 72
     6
 73
     3
 74
     0
 42
0.0000000001
 43
0.0000000001
 40
0.0
 40
0.0
 40
0.0
 40
0.1099557457156439
 40
0.1099557457156439
 40
0.1099557457156439
 10
7.272859966663718
 20
0.0700000028400004
 30
0.0
 41
1.0
 10
7.272859969503714
 20
0.0000000000000011
 30
0.0
 41
0.7071067668423728
 10
7.202859966663711
 20
-0.0000000000000001
 30
0.0
 41
1.0
  0
SPLINE
  5
F7
330
1F
100
AcDbEntity
  8
Make2D visible lines
100
AcDbSpline
210
0.0
220
0.0
230
1.0
 70
    24
 71
     2
 72
     6
 73
     3
 74
     0
 42
0.0000000001
 43
0.0000000001
 40
0.0
 40
0.0
 40
0.0
 40
0.3520000000000003
 40
0.3520000000000003
 40
0.3520000000000003
 10
7.202859966663711
 20
-0.0000000000000001
 30
0.0
 10
7.026859966663709
 20
-0.0000000000000001
 30
0.0
 10
6.850859966663707
 20
-0.0000000000000001
 30
0.0
  0
SPLINE
  5
F8
330
1F
100
AcDbEntity
  8
Make2D visible lines
100
AcDbSpline
210
0.0
220
0.0
230
1.0
 70
    12
 71
     2
 72
     6
 73
     3
 74
     0
 42
0.0000000001
 43
0.0000000001
 40
0.0
 40
0.0
 40
0.0
 40
0.2356194519512337
 40
0.2356194519512337
 40
0.2356194519512337
 10
6.850859966663707
 20
-0.0000000000000001
 30
0.0
 41
1.0
 10
6.70085996373171
 20
0.0000000000000028
 30
0.0
 41
0.7071067742757676
 10
6.700859966663716
 20
0.1500000029319998
 30
0.0
 41
1.0
  0
SPLINE
  5
F9
330
1F
100
AcDbEntity
  8
Make2D visible lines
100
AcDbSpline
210
0.0
220
0.0
230
1.0
 70
    24
 71
     2
 72
     6
 73
     3
 74
     0
 42
0.0000000001
 43
0.0000000001
 40
0.0
 40
0.0
 40
0.0
 40
2.255429040880414
 40
2.255429040880414
 40
2.255429040880414
 10
6.700859966663716
 20
0.1500000029319998
 30
0.0
 10
6.700859966663716
 20
1.278857261686104
 30
0.0
 10
6.700859966663716
 20
2.407714520440208
 30
0.0
  0
SPLINE
  5
FA
330
1F
100
AcDbEntity
  8
Make2D visible lines
100
AcDbSpline
210
0.0
220
0.0
230
1.0
 70
    12
 71
     2
 72
     6
 73
     3
 74
     0
 42
0.0000000001
 43
0.0000000001
 40
0.0
 40
0.0
 40
0.0
 40
0.2356194519512344
 40
0.2356194519512344
 40
0.2356194519512344
 10
6.700859966663716
 20
2.407714520440208
 30
0.0
 41
1.0
 10
6.70085996373171
 20
2.560000000000002
 30
0.0
 41
0.7071067742757604
 10
6.850859966663707
 20
2.560000000000001
 30
0.0
 41
1.0
  0
SPLINE
  5
FB
330
1F
100
AcDbEntity
  8
Make2D visible lines
100
AcDbSpline
210
0.0
220
0.0
230
1.0
 70
    24
 71
     2
 72
     6
 73
     3
 74
     0
 42
0.0000000001
 43
0.0000000001
 40
0.0
 40
0.0
 40
0.0
 40
0.3520000000000003
 40
0.3520000000000003
 40
0.3520000000000003
 10
6.850859966663707
 20
2.560000000000001
 30
0.0
 10
7.026859966663709
 20
2.560000000000001
 30
0.0
 10
7.202859966663711
 20
2.560000000000001
 30
0.0
  0
SPLINE
  5
FC
330
1F
100
AcDbEntity
  8
Make2D visible lines
100
AcDbSpline
210
0.0
220
0.0
230
1.0
 70
    12
 71
     2
 72
     6
 73
     3
 74
     0
 42
0.0000000001
 43
0.0000000001
 40
0.0
 40
0.0
 40
0.0
 40
0.1099557457156434
 40
0.1099557457156434
 40
0.1099557457156434
 10
7.202859966663711
 20
2.560000000000001
 30
0.0
 41
1.0
 10
7.272859969503717
 20
2.560000000000001
 30
0.0
 41
0.7071067668423767
 10
7.272859966663718
 20
2.487552716876537
 30
0.0
 41
1.0
  0
SPLINE
  5
FD
330
1F
100
AcDbEntity
  8
Make2D visible lines
100
AcDbSpline
210
0.0
220
0.0
230
1.0
 70
    24
 71
     2
 72
     6
 73
     3
 74
     0
 42
0.0000000001
 43
0.0000000001
 40
-2.415105423527796
 40
-2.415105423527796
 40
-2.415105423527796
 40
0.0
 40
0.0
 40
0.0
 10
8.198859966663706
 20
2.487552711763899
 30
0.0
 10
8.198859966663706
 20
1.278776359863449
 30
0.0
 10
8.198859966663706
 20
0.0700000079629993
 30
0.0
  0
SPLINE
  5
FE
330
1F
100
AcDbEntity
  8
Make2D visible lines
100
AcDbSpline
210
0.0
220
0.0
230
1.0
 70
    12
 71
     2
 72
     8
 73
     5
 74
     0
 42
0.0000000001
 43
0.0000000001
 40
-0.1099557508386429
 40
-0.1099557508386429
 40
-0.1099557508386429
 40
-0.0549778754193212
 40
-0.0549778754193212
 40
0.0
 40
0.0
 40
0.0
 10
8.198859966663706
 20
0.0700000079629993
 30
0.0
 41
1.0
 10
8.198859963365324
 20
0.0410050562645746
 30
0.0
 41
0.9238795216280429
 10
8.219362489165308
 20
0.0205025281322867
 30
0.0
 41
1.0
 10
8.239865014965282
 20
0.0000000000000012
 30
0.0
 41
0.923879521628049
 10
8.268859966663713
 20
-0.0000000000000001
 30
0.0
 41
1.0
  0
SPLINE
  5
FF
330
1F
100
AcDbEntity
  8
Make2D visible lines
100
AcDbSpline
210
0.0
220
0.0
230
1.0
 70
    24
 71
     2
 72
     6
 73
     3
 74
     0
 42
0.0000000001
 43
0.0000000001
 40
0.0
 40
0.0
 40
0.0
 40
0.3520000000000003
 40
0.3520000000000003
 40
0.3520000000000003
 10
8.268859966663713
 20
-0.0000000000000001
 30
0.0
 10
8.444859966663708
 20
-0.0000000000000001
 30
0.0
 10
8.620859966663703
 20
-0.0000000000000001
 30
0.0
  0
SPLINE
  5
100
330
1F
100
AcDbEntity
  8
Make2D visible lines
100
AcDbSpline
210
0.0
220
0.0
230
1.0
 70
    12
 71
     2
 72
     6
 73
     3
 74
     0
 42
0.0000000001
 43
0.0000000001
 40
0.0
 40
0.0
 40
0.0
 40
0.2356194483882336
 40
0.2356194483882336
 40
0.2356194483882336
 10
8.620859966663703
 20
-0.0000000000000001
 30
0.0
 41
1.0
 10
8.770859966032718
 20
0.0000000000000002
 30
0.0
 41
0.7071067826738353
 10
8.770859966663709
 20
0.149999999369001
 30
0.0
 41
1.0
  0
SPLINE
  5
101
330
1F
100
AcDbEntity
  8
Make2D visible lines
100
AcDbSpline
210
0.0
220
0.0
230
1.0
 70
    24
 71
     2
 72
     6
 73
     3
 74
     0
 42
0.0000000001
 43
0.0000000001
 40
-2.260000001262
 40
-2.260000001262
 40
-2.260000001262
 40
0.0
 40
0.0
 40
0.0
 10
8.770859966663709
 20
0.149999999369001
 30
0.0
 10
8.770859966663709
 20
1.280000000000001
 30
0.0
 10
8.770859966663709
 20
2.410000000631
 30
0.0
  0
SPLINE
  5
102
330
1F
100
AcDbEntity
  8
Make2D visible lines
100
AcDbSpline
210
0.0
220
0.0
230
1.0
 70
    12
 71
     2
 72
     6
 73
     3
 74
     0
 42
0.0000000001
 43
0.0000000001
 40
0.0
 40
0.0
 40
0.0
 40
0.2356194483882358
 40
0.2356194483882358
 40
0.2356194483882358
 10
8.770859966663709
 20
2.410000000631
 30
0.0
 41
1.0
 10
8.770859966032718
 20
2.560000000000001
 30
0.0
 41
0.7071067826738272
 10
8.620859966663703
 20
2.560000000000001
 30
0.0
 41
1.0
  0
SPLINE
  5
103
330
1F
100
AcDbEntity
  8
Make2D visible lines
100
AcDbSpline
210
0.0
220
0.0
230
1.0
 70
    24
 71
     2
 72
     6
 73
     3
 74
     0
 42
0.0000000001
 43
0.0000000001
 40
0.0
 40
0.0
 40
0.0
 40
0.3520000000000003
 40
0.3520000000000003
 40
0.3520000000000003
 10
8.620859966663703
 20
2.560000000000001
 30
0.0
 10
8.444859966663708
 20
2.560000000000001
 30
0.0
 10
8.268859966663713
 20
2.560000000000001
 30
0.0
  0
SPLINE
  5
104
330
1F
100
AcDbEntity
  8
Make2D visible lines
100
AcDbSpline
210
0.0
220
0.0
230
1.0
 70
    12
 71
     2
 72
     8
 73
     5
 74
     0
 42
0.0000000001
 43
0.0000000001
 40
-0.1099557508386414
 40
-0.1099557508386414
 40
-0.1099557508386414
 40
-0.0549778754193184
 40
-0.0549778754193184
 40
0.0
 40
0.0
 40
0.0
 10
8.268859966663713
 20
2.560000000000001
 30
0.0
 41
1.0
 10
8.239865014965279
 20
2.560000000000001
 30
0.0
 41
0.9238795216280236
 10
8.219362489165308
 20
2.539497471867711
 30
0.0
 41
1.0
 10
8.198859963365333
 20
2.518994943735426
 30
0.0
 41
0.9238795216280324
 10
8.198859966663706
 20
2.487552711763899
 30
0.0
 41
1.0
  0
SPLINE
  5
105
330
1F
100
AcDbEntity
  8
Default
100
AcDbSpline
210
0.0
220
0.0
230
1.0
 70
    12
 71
     2
 72
     6
 73
     3
 74
     0
 42
0.0000000001
 43
0.0000000001
 40
-0.0205148466803361
 40
-0.0205148466803361
 40
-0.0205148466803361
 40
0.0
 40
0.0
 40
0.0
 10
7.34497324852086
 20
1.321916756511126
 30
0.0
 41
1.0
 10
7.342229028149069
 20
1.331850316586209
 30
0.0
 41
0.9929165310438545
 10
7.341906797651942
 20
1.342150924790039
 30
0.0
 41
0.9999992470307488
  0
SPLINE
  5
106
330
1F
100
AcDbEntity
  8
Default
100
AcDbSpline
210
0.0
220
0.0
230
1.0
 70
    12
 71
     2
 72
     6
 73
     3
 74
     0
 42
0.0000000001
 43
0.0000000001
 40
-0.1306670865212424
 40
-0.1306670865212424
 40
-0.1306670865212424
 40
0.0
 40
0.0
 40
0.0
 10
7.341906797651946
 20
1.342150924790039
 30
0.0
 41
1.0
 10
7.344663272938734
 20
1.259999371951817
 30
0.0
 41
0.7188571908882943
 10
7.42685996797036
 20
1.260000489392887
 30
0.0
 41
1.0
  0
SPLINE
  5
107
330
1F
100
AcDbEntity
  8
Default
100
AcDbSpline
210
0.0
220
0.0
230
1.0
 70
    24
 71
     2
 72
     6
 73
     3
 74
     0
 42
0.0000000001
 43
0.0000000001
 40
-0.6179999986728006
 40
-0.6179999986728006
 40
-0.6179999986728006
 40
0.0
 40
0.0
 40
0.0
 10
7.42685996797036
 20
1.260000489392887
 30
0.0
 10
7.735859967306761
 20
1.260000489380664
 30
0.0
 10
8.04485996664316
 20
1.260000489368441
 30
0.0
  0
SPLINE
  5
108
330
1F
100
AcDbEntity
  8
Default
100
AcDbSpline
210
0.0
220
0.0
230
1.0
 70
    12
 71
     2
 72
     6
 73
     3
 74
     0
 42
0.0000000001
 43
0.0000000001
 40
-0.1306642149348706
 40
-0.1306642149348706
 40
-0.1306642149348706
 40
0.0
 40
0.0
 40
0.0
 10
8.04485996664316
 20
1.260000489368441
 30
0.0
 41
1.0
 10
8.127053880321228
 20
1.25999937763579
 30
0.0
 41
0.7188689686272367
 10
8.129835898379158
 20
1.343573495961618
 30
0.0
 41
1.0
  0
LINE
  5
109
330
1F
100
AcDbEntity
  8
Default
100
AcDbLine
 10
8.129835898379158
 20
1.343573495961618
 30
0.0
 11
8.129860080595039
 21
2.719999999999946
 31
0.0
  0
SPLINE
  5
10A
330
1F
100
AcDbEntity
  8
Default
100
AcDbSpline
210
0.0
220
0.0
230
1.0
 70
    12
 71
     2
 72
     8
 73
     5
 74
     0
 42
0.0000000001
 43
0.0000000001
 40
-0.0628318931243996
 40
-0.0628318931243996
 40
-0.0628318931243996
 40
-0.0314159465621985
 40
-0.0314159465621985
 40
0.0
 40
0.0
 40
0.0
 10
8.129860080595039
 20
2.719999999999946
 30
0.0
 41
1.0
 10
8.129859966663721
 20
2.736568554226063
 30
0.0
 41
0.923879436714611
 10
8.118144223750436
 20
2.748284285408196
 30
0.0
 41
1.0
 10
8.106428480837165
 20
2.760000016590327
 30
0.0
 41
0.9238794367145934
 10
8.089859926611114
 20
2.759999999999986
 30
0.0
 41
1.0
  0
POLYLINE
  5
10B
330
1F
100
AcDbEntity
  8
Default
100
AcDb2dPolyline
 66
     1
 10
0.0
 20
0.0
 30
0.0
  0
VERTEX
  5
10C
330
10B
100
AcDbEntity
  8
Default
100
AcDbVertex
100
AcDb2dVertex
 10
8.089859926611114
 20
2.759999999999986
 30
0.0
  0
VERTEX
  5
10D
330
10B
100
AcDbEntity
  8
Default
100
AcDbVertex
100
AcDb2dVertex
 10
7.381860008002421
 20
2.759999999999986
 30
0.0
  0
SEQEND
  5
10E
330
10B
100
AcDbEntity
  8
Default
  0
SPLINE
  5
10F
330
1F
100
AcDbEntity
  8
Default
100
AcDbSpline
210
0.0
220
0.0
230
1.0
 70
    12
 71
     2
 72
     8
 73
     5
 74
     0
 42
0.0000000001
 43
0.0000000001
 40
0.0
 40
0.0
 40
0.0
 40
0.0314159465621985
 40
0.0314159465621985
 40
0.0628318931243996
 40
0.0628318931243996
 40
0.0628318931243996
 10
7.381860008002421
 20
2.759999999999986
 30
0.0
 41
1.0
 10
7.365291453776368
 20
2.760000016590327
 30
0.0
 41
0.9238794367145934
 10
7.353575710863085
 20
2.748284285408196
 30
0.0
 41
1.0
 10
7.341859967949813
 20
2.736568554226063
 30
0.0
 41
0.923879436714611
 10
7.341859854018496
 20
2.719999999999946
 30
0.0
 41
1.0
  0
LINE
  5
110
330
1F
100
AcDbEntity
  8
Default
100
AcDbLine
 10
7.341859854018496
 20
2.719999999999946
 30
0.0
 11
7.341884036234363
 21
1.343573495961618
 31
0.0
  0
SPLINE
  5
111
330
1F
100
AcDbEntity
  8
Default
100
AcDbSpline
210
0.0
220
0.0
230
1.0
 70
     8
 71
     3
 72
    11
 73
     7
 74
     0
 42
0.0000000001
 43
0.0000000001
 40
0.0
 40
0.0
 40
0.0
 40
0.0
 40
2.8688235795738
 40
3.104701040664252
 40
3.312694134854429
 40
3.668788503692642
 40
3.668788503692642
 40
3.668788503692642
 40
3.668788503692642
 10
8.084282874204492
 20
3.508714899801948
 30
0.0
 10
9.036151552759423
 20
3.417374047192308
 30
0.0
 10
10.06781576865983
 20
3.333416378047477
 30
0.0
 10
11.1661325450181
 20
3.219876546076772
 30
0.0
 10
11.42773615564714
 20
3.164059020704062
 30
0.0
 10
11.61114340280003
 20
3.125019407093692
 30
0.0
 10
11.72290895750229
 20
3.083100021677499
 30
0.0
  0
SPLINE
  5
112
330
1F
100
AcDbEntity
  8
Default
100
AcDbSpline
210
0.0
220
0.0
230
1.0
 70
     8
 71
     3
 72
     8
 73
     4
 74
     0
 42
0.0000000001
 43
0.0000000001
 40
-1.0
 40
-1.0
 40
-1.0
 40
-1.0
 40
0.0
 40
0.0
 40
0.0
 40
0.0
 10
11.72290895750229
 20
3.083100021677499
 30
0.0
 10
11.82603762692164
 20
3.044420032548777
 30
0.0
 10
11.93028011226186
 20
2.998031463612328
 30
0.0
 10
12.0136057444965
 20
2.926000199373103
 30
0.0
  0
SPLINE
  5
113
330
1F
100
AcDbEntity
  8
Default
100
AcDbSpline
210
0.0
220
0.0
230
1.0
 70
    12
 71
     2
 72
     6
 73
     3
 74
     0
 42
0.0000000001
 43
0.0000000001
 40
0.0
 40
0.0
 40
0.0
 40
0.1808026656653218
 40
0.1808026656653218
 40
0.1808026656653218
 10
12.0136057444965
 20
2.926000199373103
 30
0.0
 41
1.0
 10
12.08335094675076
 20
2.865708606519084
 30
0.0
 41
0.9711092885721068
 10
12.11723828078232
 20
2.779967047327546
 30
0.0
 41
1.0
  0
SPLINE
  5
114
330
1F
100
AcDbEntity
  8
Default
100
AcDbSpline
210
0.0
220
0.0
230
1.0
 70
    12
 71
     2
 72
     6
 73
     3
 74
     0
 42
0.0000000001
 43
0.0000000001
 40
0.0
 40
0.0
 40
0.0
 40
0.0415477248850592
 40
0.0415477248850592
 40
0.0415477248850592
 10
12.11723828078232
 20
2.779967047327546
 30
0.0
 41
1.0
 10
12.12575684600228
 20
2.757974216869785
 30
0.0
 41
0.8305635939044282
 10
12.14933403645984
 20
2.75747402933678
 30
0.0
 41
1.0
  0
SPLINE
  5
115
330
1F
100
AcDbEntity
  8
Make2D visible lines
100
AcDbSpline
210
0.0
220
0.0
230
1.0
 70
     8
 71
     3
 72
    12
 73
     8
 74
     0
 42
0.0000000001
 43
0.0000000001
 40
0.0
 40
0.0
 40
0.0
 40
0.0
 40
0.1249099641044791
 40
0.2483671557381741
 40
0.4769042860897503
 40
0.6677581897049999
 40
0.8263437489995382
 40
0.8263437489995382
 40
0.8263437489995382
 40
0.8263437489995382
 10
0.7618282262314318
 20
6.851689439078282
 30
0.0
 10
0.7622637940151713
 20
6.810053228486947
 30
0.0
 10
0.7669245484677156
 20
6.72730400179125
 30
0.0
 10
0.7917390443409027
 20
6.570074824917238
 30
0.0
 10
0.8474092058365721
 20
6.396740462144546
 30
0.0
 10
0.954774283736159
 20
6.23363078645075
 30
0.0
 10
1.054228580920937
 20
6.1672329726747
 30
0.0
 10
1.105428664543683
 20
6.152842126982666
 30
0.0
  0
SPLINE
  5
116
330
1F
100
AcDbEntity
  8
Make2D visible lines
100
AcDbSpline
210
0.0
220
0.0
230
1.0
 70
    24
 71
     2
 72
     6
 73
     3
 74
     0
 42
0.0000000001
 43
0.0000000001
 40
0.0
 40
0.0
 40
0.0
 40
6.716811955325165
 40
6.716811955325165
 40
6.716811955325165
 10
1.105428664543683
 20
6.152842126982666
 30
0.0
 10
4.334179035160128
 20
5.228687510566164
 30
0.0
 10
7.562929405776574
 20
4.304532894149663
 30
0.0
  0
SPLINE
  5
117
330
1F
100
AcDbEntity
  8
Make2D visible lines
100
AcDbSpline
210
0.0
220
0.0
230
1.0
 70
     8
 71
     3
 72
    12
 73
     8
 74
     0
 42
0.0000000001
 43
0.0000000001
 40
-1.705881642133609
 40
-1.705881642133609
 40
-1.705881642133609
 40
-1.705881642133609
 40
-1.416066905155252
 40
-1.091210665253267
 40
-0.9412195217984375
 40
-0.7611467879990472
 40
0.0
 40
0.0
 40
0.0
 40
0.0
 10
7.562929405776574
 20
4.304532894149663
 30
0.0
 10
7.654884585334804
 20
4.278212865055583
 30
0.0
 10
7.877305303168415
 20
4.163465372790132
 30
0.0
 10
7.998717319666357
 20
3.933593134167307
 30
0.0
 10
8.059660895393963
 20
3.723608807248841
 30
0.0
 10
8.10402976787792
 20
3.361939281814937
 30
0.0
 10
8.103789331915126
 20
3.047636961223763
 30
0.0
 10
8.12593947289348
 20
2.794770494892443
 30
0.0
  0
SPLINE
  5
118
330
1F
100
AcDbEntity
  8
Make2D visible lines
100
AcDbSpline
210
0.0
220
0.0
230
1.0
 70
    12
 71
     2
 72
     8
 73
     5
 74
     0
 42
0.0000000001
 43
0.0000000001
 40
-0.0572123046278942
 40
-0.0572123046278942
 40
-0.0572123046278942
 40
-0.0286061523139471
 40
-0.0286061523139471
 40
0.0
 40
0.0
 40
0.0
 10
8.12593947289348
 20
2.794770494892443
 30
0.0
 41
1.0
 10
8.12687635355985
 20
2.779642114366944
 30
0.0
 41
0.918220039366415
 10
8.116520683734935
 20
2.768584008684858
 30
0.0
 41
1.0
 10
8.106165013910012
 20
2.757525903002779
 30
0.0
 41
0.918220039366415
 10
8.091015148606049
 20
2.757469510884281
 30
0.0
 41
1.0
  0
SPLINE
  5
119
330
1F
100
AcDbEntity
  8
Make2D visible lines
100
AcDbSpline
210
0.0
220
0.0
230
1.0
 70
    12
 71
     2
 72
     6
 73
     3
 74
     0
 42
0.0000000001
 43
0.0000000001
 40
-0.1228476419690088
 40
-0.1228476419690088
 40
-0.1228476419690088
 40
0.0
 40
0.0
 40
0.0
 10
-7.343426558311604
 20
2.247157644806793
 30
0.0
 41
1.0
 10
-7.358110732248131
 20
2.186799143881472
 30
0.0
 41
0.9832969456840381
 10
-7.393426553780968
 20
2.135695657233184
 30
0.0
 41
1.0
  0
SPLINE
  5
11A
330
1F
100
AcDbEntity
  8
Make2D visible lines
100
AcDbSpline
210
0.0
220
0.0
230
1.0
 70
     8
 71
     3
 72
    12
 73
     8
 74
     0
 42
0.0000000001
 43
0.0000000001
 40
0.0
 40
0.0
 40
0.0
 40
0.0
 40
0.1463411183411369
 40
0.2853842069860231
 40
0.4774826785392335
 40
0.6695434217140405
 40
0.9551044705190225
 40
0.9551044705190225
 40
0.9551044705190225
 40
0.9551044705190225
 10
-7.393426553780968
 20
2.135695657233184
 30
0.0
 10
-7.413984407069746
 20
2.092235288994201
 30
0.0
 10
-7.469218772240223
 20
2.011139443753335
 30
0.0
 10
-7.568166144857868
 20
1.892867635552799
 30
0.0
 10
-7.738548611221729
 20
1.800191929265527
 30
0.0
 10
-7.950526945755824
 20
1.918743261260477
 30
0.0
 10
-8.034714693160025
 20
2.051490853594751
 30
0.0
 10
-8.081426553780956
 20
2.135695657233184
 30
0.0
  0
SPLINE
  5
11B
330
1F
100
AcDbEntity
  8
Make2D visible lines
100
AcDbSpline
210
0.0
220
0.0
230
1.0
 70
    12
 71
     2
 72
     6
 73
     3
 74
     0
 42
0.0000000001
 43
0.0000000001
 40
0.0
 40
0.0
 40
0.0
 40
0.1227840813427634
 40
0.1227840813427634
 40
0.1227840813427634
 10
-8.081426553780956
 20
2.135695657233184
 30
0.0
 41
1.0
 10
-8.11624342122936
 20
2.187022966392655
 30
0.0
 41
0.9848379823800321
 10
-8.13142654925032
 20
2.247157644806793
 30
0.0
 41
1.0
  0
SPLINE
  5
11C
330
1F
100
AcDbEntity
  8
Make2D visible lines
100
AcDbSpline
210
0.0
220
0.0
230
1.0
 70
    12
 71
     2
 72
     6
 73
     3
 74
     0
 42
0.0000000001
 43
0.0000000001
 40
-0.1228476419690088
 40
-0.1228476419690088
 40
-0.1228476419690088
 40
0.0
 40
0.0
 40
0.0
 10
-12.12506469317621
 20
2.24462715569113
 30
0.0
 41
1.0
 10
-12.13974886711274
 20
2.184268654765809
 30
0.0
 41
0.9832969456840381
 10
-12.17506468864558
 20
2.133165168117521
 30
0.0
 41
1.0
  0
SPLINE
  5
11D
330
1F
100
AcDbEntity
  8
Make2D visible lines
100
AcDbSpline
210
0.0
220
0.0
230
1.0
 70
     8
 71
     3
 72
    12
 73
     8
 74
     0
 42
0.0000000001
 43
0.0000000001
 40
0.0
 40
0.0
 40
0.0
 40
0.0
 40
0.1463411183411369
 40
0.2853842069860231
 40
0.4774826785392335
 40
0.6695434217140405
 40
0.9551044705190225
 40
0.9551044705190225
 40
0.9551044705190225
 40
0.9551044705190225
 10
-12.17506468864558
 20
2.133165168117521
 30
0.0
 10
-12.19562254193435
 20
2.089704799878537
 30
0.0
 10
-12.25085690710483
 20
2.008608954637671
 30
0.0
 10
-12.34980427972248
 20
1.890337146437135
 30
0.0
 10
-12.52018674608634
 20
1.797661440149863
 30
0.0
 10
-12.73216508062043
 20
1.916212772144814
 30
0.0
 10
-12.81635282802463
 20
2.048960364479087
 30
0.0
 10
-12.86306468864556
 20
2.133165168117521
 30
0.0
  0
SPLINE
  5
11E
330
1F
100
AcDbEntity
  8
Make2D visible lines
100
AcDbSpline
210
0.0
220
0.0
230
1.0
 70
    12
 71
     2
 72
     6
 73
     3
 74
     0
 42
0.0000000001
 43
0.0000000001
 40
0.0
 40
0.0
 40
0.0
 40
0.1227840813427634
 40
0.1227840813427634
 40
0.1227840813427634
 10
-12.86306468864556
 20
2.133165168117521
 30
0.0
 41
1.0
 10
-12.89788155609397
 20
2.184492477276991
 30
0.0
 41
0.9848379823800321
 10
-12.91306468411493
 20
2.24462715569113
 30
0.0
 41
1.0
  0
SPLINE
  5
11F
330
1F
100
AcDbEntity
  8
Make2D visible lines
100
AcDbSpline
210
0.0
220
0.0
230
1.0
 70
    12
 71
     2
 72
     6
 73
     3
 74
     0
 42
0.0000000001
 43
0.0000000001
 40
-0.0483212497951268
 40
-0.0483212497951268
 40
-0.0483212497951268
 40
0.0
 40
0.0
 40
0.0
 10
-7.374227493729689
 20
2.757469510910699
 30
0.0
 41
1.0
 10
-7.345361114011158
 20
2.757570238822488
 30
0.0
 41
0.7724816399952892
 10
-7.339813200919172
 20
2.78616937531886
 30
0.0
 41
1.0
  0
SPLINE
  5
120
330
1F
100
AcDbEntity
  8
Make2D visible lines
100
AcDbSpline
210
0.0
220
0.0
230
1.0
 70
     8
 71
     3
 72
    11
 73
     7
 74
     0
 42
0.0000000001
 43
0.0000000001
 40
-0.3653949324067015
 40
-0.3653949324067015
 40
-0.3653949324067015
 40
-0.3653949324067015
 40
-0.2219000933033248
 40
-0.1218189801654542
 40
-0.0711118126883581
 40
0.0
 40
0.0
 40
0.0
 40
0.0
 10
-7.339813200919172
 20
2.78616937531886
 30
0.0
 10
-7.332807540507501
 20
2.834702599341785
 30
0.0
 10
-7.309302541491958
 20
2.910200813167155
 30
0.0
 10
-7.288640494222433
 20
3.009206330078808
 30
0.0
 10
-7.24214056341283
 20
3.067635211879395
 30
0.0
 10
-7.203491350088639
 20
3.085923806011234
 30
0.0
 10
-7.182340168807356
 20
3.099222261044371
 30
0.0
  0
SPLINE
  5
121
330
1F
100
AcDbEntity
  8
Make2D visible lines
100
AcDbSpline
210
0.0
220
0.0
230
1.0
 70
     8
 71
     3
 72
    11
 73
     7
 74
     0
 42
0.0000000001
 43
0.0000000001
 40
-6.015830923011213
 40
-6.015830923011213
 40
-6.015830923011213
 40
-6.015830923011213
 40
-5.775552264657868
 40
-5.632627670533231
 40
-5.473716393082068
 40
0.0
 40
0.0
 40
0.0
 40
0.0
 10
-7.182340168807356
 20
3.099222261044371
 30
0.0
 10
-7.110827572206672
 20
3.140701703721387
 30
0.0
 10
-6.990585334869619
 20
3.183089294828651
 30
0.0
 10
-6.816568363412498
 20
3.234547083816846
 30
0.0
 10
-4.91311258700709
 20
3.522919344280883
 30
0.0
 10
-3.055046012049485
 20
3.792836090435816
 30
0.0
 10
-1.250120767429377
 20
4.059813241774254
 30
0.0
  0
SPLINE
  5
122
330
1F
100
AcDbEntity
  8
Make2D visible lines
100
AcDbSpline
210
0.0
220
0.0
230
1.0
 70
    12
 71
     2
 72
     6
 73
     3
 74
     0
 42
0.0000000001
 43
0.0000000001
 40
-0.6586014410198432
 40
-0.6586014410198432
 40
-0.6586014410198432
 40
0.0
 40
0.0
 40
0.0
 10
-1.250120767429377
 20
4.059813241774254
 30
0.0
 41
1.0
 10
-0.6505979280952958
 20
4.168942644927538
 30
0.0
 41
0.9986085234443102
 10
-0.2998888230241454
 20
4.150005567884808
 30
0.0
 41
1.0
  0
SPLINE
  5
123
330
1F
100
AcDbEntity
  8
Make2D visible lines
100
AcDbSpline
210
0.0
220
0.0
230
1.0
 70
    12
 71
     2
 72
     6
 73
     3
 74
     0
 42
0.0000000001
 43
0.0000000001
 40
-0.1791010567270706
 40
-0.1791010567270706
 40
-0.1791010567270706
 40
0.0
 40
0.0
 40
0.0
 10
-0.2998888230241454
 20
4.150005567884808
 30
0.0
 41
1.0
 10
-0.2104511035617338
 20
4.14517624078866
 30
0.0
 41
0.9997072928049198
 10
-0.1208844761257359
 20
4.144678935471774
 30
0.0
 41
1.0
  0
SPLINE
  5
124
330
1F
100
AcDbEntity
  8
Make2D visible lines
100
AcDbSpline
210
0.0
220
0.0
230
1.0
 70
    12
 71
     2
 72
     6
 73
     3
 74
     0
 42
0.0000000001
 43
0.0000000001
 40
0.0
 40
0.0
 40
0.0
 40
0.1200993458198927
 40
0.1200993458198927
 40
0.1200993458198927
 10
-0.1208844761257359
 20
4.144678935471774
 30
0.0
 41
1.0
 10
-0.0608347928339637
 20
4.144743935127942
 30
0.0
 41
0.9999988619271625
 10
-0.0007832935586243
 20
4.144990126950152
 30
0.0
 41
1.0
  0
SPLINE
  5
125
330
1F
100
AcDbEntity
  8
Make2D visible lines
100
AcDbSpline
210
0.0
220
0.0
230
1.0
 70
    12
 71
     2
 72
     6
 73
     3
 74
     0
 42
0.0000000001
 43
0.0000000001
 40
-0.1200993458198927
 40
-0.1200993458198927
 40
-0.1200993458198927
 40
0.0
 40
0.0
 40
0.0
 10
-0.0007832935586243
 20
4.144990126950152
 30
0.0
 41
1.0
 10
0.0592682057167152
 20
4.144743935127942
 30
0.0
 41
0.9999988619271625
 10
0.1193178890084874
 20
4.144678935471774
 30
0.0
 41
1.0
  0
SPLINE
  5
126
330
1F
100
AcDbEntity
  8
Make2D visible lines
100
AcDbSpline
210
0.0
220
0.0
230
1.0
 70
    12
 71
     2
 72
     6
 73
     3
 74
     0
 42
0.0000000001
 43
0.0000000001
 40
0.0
 40
0.0
 40
0.0
 40
0.1791010567270706
 40
0.1791010567270706
 40
0.1791010567270706
 10
0.1193178890084874
 20
4.144678935471774
 30
0.0
 41
1.0
 10
0.2088845164444852
 20
4.14517624078866
 30
0.0
 41
0.9997072928049198
 10
0.2983222359068969
 20
4.150005567884808
 30
0.0
 41
1.0
  0
SPLINE
  5
127
330
1F
100
AcDbEntity
  8
Make2D visible lines
100
AcDbSpline
210
0.0
220
0.0
230
1.0
 70
    12
 71
     2
 72
     6
 73
     3
 74
     0
 42
0.0000000001
 43
0.0000000001
 40
0.0
 40
0.0
 40
0.0
 40
0.6586014410198432
 40
0.6586014410198432
 40
0.6586014410198432
 10
0.2983222359068969
 20
4.150005567884808
 30
0.0
 41
1.0
 10
0.6490313409780473
 20
4.168942644927538
 30
0.0
 41
0.9986085234443102
 10
1.248554180312129
 20
4.059813241774254
 30
0.0
 41
1.0
  0
SPLINE
  5
128
330
1F
100
AcDbEntity
  8
Make2D visible lines
100
AcDbSpline
210
0.0
220
0.0
230
1.0
 70
     8
 71
     3
 72
    11
 73
     7
 74
     0
 42
0.0000000001
 43
0.0000000001
 40
0.0
 40
0.0
 40
0.0
 40
0.0
 40
5.473716393082068
 40
5.632627670533231
 40
5.775552264657868
 40
6.015830923011213
 40
6.015830923011213
 40
6.015830923011213
 40
6.015830923011213
 10
1.248554180312129
 20
4.059813241774254
 30
0.0
 10
3.053479424932237
 20
3.792836090435816
 30
0.0
 10
4.911545999889841
 20
3.522919344280883
 30
0.0
 10
6.815001776295249
 20
3.234547083816846
 30
0.0
 10
6.98901874775237
 20
3.183089294828651
 30
0.0
 10
7.109260985089422
 20
3.140701703721387
 30
0.0
 10
7.180773581690106
 20
3.099222261044371
 30
0.0
  0
SPLINE
  5
129
330
1F
100
AcDbEntity
  8
Make2D visible lines
100
AcDbSpline
210
0.0
220
0.0
230
1.0
 70
     8
 71
     3
 72
    11
 73
     7
 74
     0
 42
0.0000000001
 43
0.0000000001
 40
0.0
 40
0.0
 40
0.0
 40
0.0
 40
0.0711118126883581
 40
0.1218189801654542
 40
0.2219000933033248
 40
0.3653949324067015
 40
0.3653949324067015
 40
0.3653949324067015
 40
0.3653949324067015
 10
7.180773581690106
 20
3.099222261044371
 30
0.0
 10
7.201924762971389
 20
3.085923806011234
 30
0.0
 10
7.240573976295581
 20
3.067635211879395
 30
0.0
 10
7.287073907105183
 20
3.009206330078808
 30
0.0
 10
7.307735954374708
 20
2.910200813167155
 30
0.0
 10
7.331240953390251
 20
2.834702599341785
 30
0.0
 10
7.338246613801923
 20
2.78616937531886
 30
0.0
  0
SPLINE
  5
12A
330
1F
100
AcDbEntity
  8
Make2D visible lines
100
AcDbSpline
210
0.0
220
0.0
230
1.0
 70
    12
 71
     2
 72
     6
 73
     3
 74
     0
 42
0.0000000001
 43
0.0000000001
 40
0.0
 40
0.0
 40
0.0
 40
0.0483212497951268
 40
0.0483212497951268
 40
0.0483212497951268
 10
7.338246613801923
 20
2.78616937531886
 30
0.0
 41
1.0
 10
7.34379452689391
 20
2.757570238822488
 30
0.0
 41
0.7724816399952892
 10
7.37266090661244
 20
2.757469510910699
 30
0.0
 41
1.0
  0
SPLINE
  5
12B
330
1F
100
AcDbEntity
  8
Make2D visible lines
100
AcDbSpline
210
0.0
220
0.0
230
1.0
 70
     8
 71
     3
 72
    12
 73
     8
 74
     0
 42
0.0000000001
 43
0.0000000001
 40
0.0
 40
0.0
 40
0.0
 40
0.0
 40
0.1249099641044791
 40
0.2483671557381741
 40
0.4769042860897503
 40
0.6677581897049999
 40
0.8263437489995382
 40
0.8263437489995382
 40
0.8263437489995382
 40
0.8263437489995382
 10
-0.7633948133486803
 20
6.851689439078282
 30
0.0
 10
-0.7638303811324199
 20
6.810053228486947
 30
0.0
 10
-0.7684911355849642
 20
6.72730400179125
 30
0.0
 10
-0.7933056314581513
 20
6.570074824917238
 30
0.0
 10
-0.8489757929538206
 20
6.396740462144546
 30
0.0
 10
-0.9563408708534076
 20
6.23363078645075
 30
0.0
 10
-1.055795168038185
 20
6.1672329726747
 30
0.0
 10
-1.106995251660931
 20
6.152842126982666
 30
0.0
  0
SPLINE
  5
12C
330
1F
100
AcDbEntity
  8
Make2D visible lines
100
AcDbSpline
210
0.0
220
0.0
230
1.0
 70
    24
 71
     2
 72
     6
 73
     3
 74
     0
 42
0.0000000001
 43
0.0000000001
 40
0.0
 40
0.0
 40
0.0
 40
6.716811955325165
 40
6.716811955325165
 40
6.716811955325165
 10
-1.106995251660931
 20
6.152842126982666
 30
0.0
 10
-4.335745622277377
 20
5.228687510566164
 30
0.0
 10
-7.564495992893823
 20
4.304532894149663
 30
0.0
  0
SPLINE
  5
12D
330
1F
100
AcDbEntity
  8
Make2D visible lines
100
AcDbSpline
210
0.0
220
0.0
230
1.0
 70
     8
 71
     3
 72
    12
 73
     8
 74
     0
 42
0.0000000001
 43
0.0000000001
 40
-1.705881642133609
 40
-1.705881642133609
 40
-1.705881642133609
 40
-1.705881642133609
 40
-1.416066905155252
 40
-1.091210665253267
 40
-0.9412195217984375
 40
-0.7611467879990472
 40
0.0
 40
0.0
 40
0.0
 40
0.0
 10
-7.564495992893823
 20
4.304532894149663
 30
0.0
 10
-7.656451172452053
 20
4.278212865055583
 30
0.0
 10
-7.878871890285664
 20
4.163465372790132
 30
0.0
 10
-8.000283906783606
 20
3.933593134167307
 30
0.0
 10
-8.061227482511212
 20
3.723608807248841
 30
0.0
 10
-8.10559635499517
 20
3.361939281814937
 30
0.0
 10
-8.105355919032375
 20
3.047636961223763
 30
0.0
 10
-8.12750606001073
 20
2.794770494892443
 30
0.0
  0
SPLINE
  5
12E
330
1F
100
AcDbEntity
  8
Make2D visible lines
100
AcDbSpline
210
0.0
220
0.0
230
1.0
 70
    12
 71
     2
 72
     8
 73
     5
 74
     0
 42
0.0000000001
 43
0.0000000001
 40
-0.0572123046278942
 40
-0.0572123046278942
 40
-0.0572123046278942
 40
-0.0286061523139471
 40
-0.0286061523139471
 40
0.0
 40
0.0
 40
0.0
 10
-8.12750606001073
 20
2.794770494892443
 30
0.0
 41
1.0
 10
-8.128442940677097
 20
2.779642114366944
 30
0.0
 41
0.918220039366415
 10
-8.118087270852184
 20
2.768584008684858
 30
0.0
 41
1.0
 10
-8.10773160102726
 20
2.757525903002779
 30
0.0
 41
0.918220039366415
 10
-8.092581735723298
 20
2.757469510884281
 30
0.0
 41
1.0
  0
SPLINE
  5
12F
330
1F
100
AcDbEntity
  8
Default
100
AcDbSpline
210
0.0
220
0.0
230
1.0
 70
     8
 71
     3
 72
    11
 73
     7
 74
     0
 42
0.0000000001
 43
0.0000000001
 40
0.0
 40
0.0
 40
0.0
 40
0.0
 40
2.8688235795738
 40
3.104701040664252
 40
3.312694134854429
 40
3.668788503692642
 40
3.668788503692642
 40
3.668788503692642
 40
3.668788503692642
 10
-8.085849461321741
 20
3.508714899801948
 30
0.0
 10
-9.037718139876672
 20
3.417374047192308
 30
0.0
 10
-10.06938235577708
 20
3.333416378047477
 30
0.0
 10
-11.16769913213535
 20
3.219876546076772
 30
0.0
 10
-11.42930274276439
 20
3.164059020704062
 30
0.0
 10
-11.61270998991728
 20
3.125019407093692
 30
0.0
 10
-11.72447554461954
 20
3.083100021677499
 30
0.0
  0
SPLINE
  5
130
330
1F
100
AcDbEntity
  8
Default
100
AcDbSpline
210
0.0
220
0.0
230
1.0
 70
     8
 71
     3
 72
     8
 73
     4
 74
     0
 42
0.0000000001
 43
0.0000000001
 40
-1.0
 40
-1.0
 40
-1.0
 40
-1.0
 40
0.0
 40
0.0
 40
0.0
 40
0.0
 10
-11.72447554461954
 20
3.083100021677499
 30
0.0
 10
-11.82760421403889
 20
3.044420032548777
 30
0.0
 10
-11.93184669937911
 20
2.998031463612328
 30
0.0
 10
-12.01517233161375
 20
2.926000199373103
 30
0.0
  0
SPLINE
  5
131
330
1F
100
AcDbEntity
  8
Default
100
AcDbSpline
210
0.0
220
0.0
230
1.0
 70
    12
 71
     2
 72
     6
 73
     3
 74
     0
 42
0.0000000001
 43
0.0000000001
 40
0.0
 40
0.0
 40
0.0
 40
0.1808026656653218
 40
0.1808026656653218
 40
0.1808026656653218
 10
-12.01517233161375
 20
2.926000199373103
 30
0.0
 41
1.0
 10
-12.08491753386801
 20
2.865708606519084
 30
0.0
 41
0.9711092885721068
 10
-12.11880486789957
 20
2.779967047327546
 30
0.0
 41
1.0
  0
SPLINE
  5
132
330
1F
100
AcDbEntity
  8
Default
100
AcDbSpline
210
0.0
220
0.0
230
1.0
 70
    12
 71
     2
 72
     6
 73
     3
 74
     0
 42
0.0000000001
 43
0.0000000001
 40
0.0
 40
0.0
 40
0.0
 40
0.0415477248850592
 40
0.0415477248850592
 40
0.0415477248850592
 10
-12.11880486789957
 20
2.779967047327546
 30
0.0
 41
1.0
 10
-12.12732343311953
 20
2.757974216869785
 30
0.0
 41
0.8305635939044282
 10
-12.15090062357709
 20
2.75747402933678
 30
0.0
 41
1.0
  0
SPLINE
  5
133
330
1F
100
AcDbEntity
  8
Default
100
AcDbSpline
210
0.0
220
0.0
230
1.0
 70
    12
 71
     2
 72
     6
 73
     3
 74
     0
 42
0.0000000001
 43
0.0000000001
 40
-0.0205148466803361
 40
-0.0205148466803361
 40
-0.0205148466803361
 40
0.0
 40
0.0
 40
0.0
 10
-7.34653983563811
 20
1.321916756511126
 30
0.0
 41
1.0
 10
-7.343795615266317
 20
1.331850316586209
 30
0.0
 41
0.9929165310438545
 10
-7.343473384769189
 20
1.342150924790039
 30
0.0
 41
0.9999992470307488
  0
SPLINE
  5
134
330
1F
100
AcDbEntity
  8
Default
100
AcDbSpline
210
0.0
220
0.0
230
1.0
 70
    12
 71
     2
 72
     6
 73
     3
 74
     0
 42
0.0000000001
 43
0.0000000001
 40
-0.1306670865212424
 40
-0.1306670865212424
 40
-0.1306670865212424
 40
0.0
 40
0.0
 40
0.0
 10
-7.343473384769196
 20
1.342150924790039
 30
0.0
 41
1.0
 10
-7.346229860055983
 20
1.259999371951817
 30
0.0
 41
0.7188571908882943
 10
-7.42842655508761
 20
1.260000489392887
 30
0.0
 41
1.0
  0
SPLINE
  5
135
330
1F
100
AcDbEntity
  8
Default
100
AcDbSpline
210
0.0
220
0.0
230
1.0
 70
    24
 71
     2
 72
     6
 73
     3
 74
     0
 42
0.0000000001
 43
0.0000000001
 40
-0.6179999986728006
 40
-0.6179999986728006
 40
-0.6179999986728006
 40
0.0
 40
0.0
 40
0.0
 10
-7.42842655508761
 20
1.260000489392887
 30
0.0
 10
-7.73742655442401
 20
1.260000489380664
 30
0.0
 10
-8.04642655376041
 20
1.260000489368441
 30
0.0
  0
SPLINE
  5
136
330
1F
100
AcDbEntity
  8
Default
100
AcDbSpline
210
0.0
220
0.0
230
1.0
 70
    12
 71
     2
 72
     6
 73
     3
 74
     0
 42
0.0000000001
 43
0.0000000001
 40
-0.1306642149348706
 40
-0.1306642149348706
 40
-0.1306642149348706
 40
0.0
 40
0.0
 40
0.0
 10
-8.04642655376041
 20
1.260000489368441
 30
0.0
 41
1.0
 10
-8.128620467438477
 20
1.25999937763579
 30
0.0
 41
0.7188689686272367
 10
-8.131402485496407
 20
1.343573495961618
 30
0.0
 41
1.0
  0
LINE
  5
137
330
1F
100
AcDbEntity
  8
Default
100
AcDbLine
 10
-8.131402485496407
 20
1.343573495961618
 30
0.0
 11
-8.131426667712288
 21
2.719999999999946
 31
0.0
  0
SPLINE
  5
138
330
1F
100
AcDbEntity
  8
Default
100
AcDbSpline
210
0.0
220
0.0
230
1.0
 70
    12
 71
     2
 72
     8
 73
     5
 74
     0
 42
0.0000000001
 43
0.0000000001
 40
-0.0628318931243996
 40
-0.0628318931243996
 40
-0.0628318931243996
 40
-0.0314159465621985
 40
-0.0314159465621985
 40
0.0
 40
0.0
 40
0.0
 10
-8.131426667712288
 20
2.719999999999946
 30
0.0
 41
1.0
 10
-8.13142655378097
 20
2.736568554226063
 30
0.0
 41
0.923879436714611
 10
-8.119710810867685
 20
2.748284285408196
 30
0.0
 41
1.0
 10
-8.107995067954414
 20
2.760000016590327
 30
0.0
 41
0.9238794367145934
 10
-8.091426513728363
 20
2.759999999999986
 30
0.0
 41
1.0
  0
POLYLINE
  5
139
330
1F
100
AcDbEntity
  8
Default
100
AcDb2dPolyline
 66
     1
 10
0.0
 20
0.0
 30
0.0
  0
VERTEX
  5
13A
330
139
100
AcDbEntity
  8
Default
100
AcDbVertex
100
AcDb2dVertex
 10
-8.091426513728363
 20
2.759999999999986
 30
0.0
  0
VERTEX
  5
13B
330
139
100
AcDbEntity
  8
Default
100
AcDbVertex
100
AcDb2dVertex
 10
-7.383426595119671
 20
2.759999999999986
 30
0.0
  0
SEQEND
  5
13C
330
139
100
AcDbEntity
  8
Default
  0
SPLINE
  5
13D
330
1F
100
AcDbEntity
  8
Default
100
AcDbSpline
210
0.0
220
0.0
230
1.0
 70
    12
 71
     2
 72
     8
 73
     5
 74
     0
 42
0.0000000001
 43
0.0000000001
 40
0.0
 40
0.0
 40
0.0
 40
0.0314159465621985
 40
0.0314159465621985
 40
0.0628318931243996
 40
0.0628318931243996
 40
0.0628318931243996
 10
-7.383426595119671
 20
2.759999999999986
 30
0.0
 41
1.0
 10
-7.366858040893617
 20
2.760000016590327
 30
0.0
 41
0.9238794367145934
 10
-7.355142297980334
 20
2.748284285408196
 30
0.0
 41
1.0
 10
-7.343426555067063
 20
2.736568554226063
 30
0.0
 41
0.923879436714611
 10
-7.343426441135746
 20
2.719999999999946
 30
0.0
 41
1.0
  0
LINE
  5
13E
330
1F
100
AcDbEntity
  8
Default
100
AcDbLine
 10
-7.343426441135746
 20
2.719999999999946
 30
0.0
 11
-7.343450623351613
 21
1.343573495961618
 31
0.0
  0
SPLINE
  5
13F
330
1F
100
AcDbEntity
  8
Make2D visible lines
100
AcDbSpline
210
0.0
220
0.0
230
1.0
 70
    24
 71
     2
 72
     6
 73
     3
 74
     0
 42
0.0000000001
 43
0.0000000001
 40
0.0
 40
0.0
 40
0.0
 40
0.9260000000000002
 40
0.9260000000000002
 40
0.9260000000000002
 10
-7.274426553780968
 20
0.9650000000000033
 30
0.0
 10
-7.737426553780962
 20
0.9650000000000033
 30
0.0
 10
-8.200426553780956
 20
0.9650000000000033
 30
0.0
  0
SPLINE
  5
140
330
1F
100
AcDbEntity
  8
Make2D visible lines
100
AcDbSpline
210
0.0
220
0.0
230
1.0
 70
    24
 71
     2
 72
     6
 73
     3
 74
     0
 42
0.0000000001
 43
0.0000000001
 40
0.0
 40
0.0
 40
0.0
 40
0.0689999999999991
 40
0.0689999999999991
 40
0.0689999999999991
 10
-7.343426553780956
 20
1.595000000000002
 30
0.0
 10
-7.308926553780962
 20
1.595000000000002
 30
0.0
 10
-7.274426553780968
 20
1.595000000000002
 30
0.0
  0
SPLINE
  5
141
330
1F
100
AcDbEntity
  8
Make2D visible lines
100
AcDbSpline
210
0.0
220
0.0
230
1.0
 70
    24
 71
     2
 72
     6
 73
     3
 74
     0
 42
0.0000000001
 43
0.0000000001
 40
0.0
 40
0.0
 40
0.0
 40
0.0690000000000008
 40
0.0690000000000008
 40
0.0690000000000008
 10
-8.200426553780956
 20
1.595000000000002
 30
0.0
 10
-8.165926553780961
 20
1.595000000000002
 30
0.0
 10
-8.131426553780967
 20
1.595000000000002
 30
0.0
  0
SPLINE
  5
142
330
1F
100
AcDbEntity
  8
Default
100
AcDbSpline
210
0.0
220
0.0
230
1.0
 70
    12
 71
     2
 72
     6
 73
     3
 74
     0
 42
0.0000000001
 43
0.0000000001
 40
-0.0205148466803361
 40
-0.0205148466803361
 40
-0.0205148466803361
 40
0.0
 40
0.0
 40
0.0
 10
-12.12817797050272
 20
1.319386267395462
 30
0.0
 41
1.0
 10
-12.12543375013092
 20
1.329319827470546
 30
0.0
 41
0.9929165310438545
 10
-12.1251115196338
 20
1.339620435674375
 30
0.0
 41
0.9999992470307488
  0
SPLINE
  5
143
330
1F
100
AcDbEntity
  8
Default
100
AcDbSpline
210
0.0
220
0.0
230
1.0
 70
    12
 71
     2
 72
     6
 73
     3
 74
     0
 42
0.0000000001
 43
0.0000000001
 40
-0.1306670865212424
 40
-0.1306670865212424
 40
-0.1306670865212424
 40
0.0
 40
0.0
 40
0.0
 10
-12.1251115196338
 20
1.339620435674375
 30
0.0
 41
1.0
 10
-12.12786799492059
 20
1.257468882836154
 30
0.0
 41
0.7188571908882943
 10
-12.21006468995222
 20
1.257470000277223
 30
0.0
 41
1.0
  0
SPLINE
  5
144
330
1F
100
AcDbEntity
  8
Default
100
AcDbSpline
210
0.0
220
0.0
230
1.0
 70
    24
 71
     2
 72
     6
 73
     3
 74
     0
 42
0.0000000001
 43
0.0000000001
 40
-0.6179999986728006
 40
-0.6179999986728006
 40
-0.6179999986728006
 40
0.0
 40
0.0
 40
0.0
 10
-12.21006468995222
 20
1.257470000277223
 30
0.0
 10
-12.51906468928862
 20
1.257470000265
 30
0.0
 10
-12.82806468862502
 20
1.257470000252777
 30
0.0
  0
SPLINE
  5
145
330
1F
100
AcDbEntity
  8
Default
100
AcDbSpline
210
0.0
220
0.0
230
1.0
 70
    12
 71
     2
 72
     6
 73
     3
 74
     0
 42
0.0000000001
 43
0.0000000001
 40
-0.1306642149348706
 40
-0.1306642149348706
 40
-0.1306642149348706
 40
0.0
 40
0.0
 40
0.0
 10
-12.82806468862502
 20
1.257470000252777
 30
0.0
 41
1.0
 10
-12.91025860230308
 20
1.257468888520126
 30
0.0
 41
0.7188689686272367
 10
-12.91304062036101
 20
1.341043006845954
 30
0.0
 41
1.0
  0
LINE
  5
146
330
1F
100
AcDbEntity
  8
Default
100
AcDbLine
 10
-12.91304062036101
 20
1.341043006845954
 30
0.0
 11
-12.9130648025769
 21
2.717469510884282
 31
0.0
  0
SPLINE
  5
147
330
1F
100
AcDbEntity
  8
Default
100
AcDbSpline
210
0.0
220
0.0
230
1.0
 70
    12
 71
     2
 72
     8
 73
     5
 74
     0
 42
0.0000000001
 43
0.0000000001
 40
-0.0628318931243996
 40
-0.0628318931243996
 40
-0.0628318931243996
 40
-0.0314159465621985
 40
-0.0314159465621985
 40
0.0
 40
0.0
 40
0.0
 10
-12.9130648025769
 20
2.717469510884282
 30
0.0
 41
1.0
 10
-12.91306468864558
 20
2.734038065110399
 30
0.0
 41
0.923879436714611
 10
-12.90134894573229
 20
2.745753796292532
 30
0.0
 41
1.0
 10
-12.88963320281902
 20
2.757469527474663
 30
0.0
 41
0.9238794367145934
 10
-12.87306464859297
 20
2.757469510884323
 30
0.0
 41
1.0
  0
POLYLINE
  5
148
330
1F
100
AcDbEntity
  8
Default
100
AcDb2dPolyline
 66
     1
 10
0.0
 20
0.0
 30
0.0
  0
VERTEX
  5
149
330
148
100
AcDbEntity
  8
Default
100
AcDbVertex
100
AcDb2dVertex
 10
-12.87306464859297
 20
2.757469510884323
 30
0.0
  0
VERTEX
  5
14A
330
148
100
AcDbEntity
  8
Default
100
AcDbVertex
100
AcDb2dVertex
 10
-12.16506472998428
 20
2.757469510884323
 30
0.0
  0
SEQEND
  5
14B
330
148
100
AcDbEntity
  8
Default
  0
SPLINE
  5
14C
330
1F
100
AcDbEntity
  8
Default
100
AcDbSpline
210
0.0
220
0.0
230
1.0
 70
    12
 71
     2
 72
     8
 73
     5
 74
     0
 42
0.0000000001
 43
0.0000000001
 40
0.0
 40
0.0
 40
0.0
 40
0.0314159465621985
 40
0.0314159465621985
 40
0.0628318931243996
 40
0.0628318931243996
 40
0.0628318931243996
 10
-12.16506472998428
 20
2.757469510884323
 30
0.0
 41
1.0
 10
-12.14849617575822
 20
2.757469527474663
 30
0.0
 41
0.9238794367145934
 10
-12.13678043284494
 20
2.745753796292532
 30
0.0
 41
1.0
 10
-12.12506468993167
 20
2.734038065110399
 30
0.0
 41
0.923879436714611
 10
-12.12506457600035
 20
2.717469510884282
 30
0.0
 41
1.0
  0
LINE
  5
14D
330
1F
100
AcDbEntity
  8
Default
100
AcDbLine
 10
-12.12506457600035
 20
2.717469510884282
 30
0.0
 11
-12.12508875821622
 21
1.341043006845954
 31
0.0
  0
SPLINE
  5
14E
330
1F
100
AcDbEntity
  8
Make2D visible lines
100
AcDbSpline
210
0.0
220
0.0
230
1.0
 70
    24
 71
     2
 72
     6
 73
     3
 74
     0
 42
0.0000000001
 43
0.0000000001
 40
0.0
 40
0.0
 40
0.0
 40
0.9260000000000002
 40
0.9260000000000002
 40
0.9260000000000002
 10
-12.05606468864558
 20
0.9624695108843396
 30
0.0
 10
-12.51906468864557
 20
0.9624695108843396
 30
0.0
 10
-12.98206468864556
 20
0.9624695108843396
 30
0.0
  0
SPLINE
  5
14F
330
1F
100
AcDbEntity
  8
Make2D visible lines
100
AcDbSpline
210
0.0
220
0.0
230
1.0
 70
    24
 71
     2
 72
     6
 73
     3
 74
     0
 42
0.0000000001
 43
0.0000000001
 40
0.0
 40
0.0
 40
0.0
 40
0.0689999999999991
 40
0.0689999999999991
 40
0.0689999999999991
 10
-12.12506468864556
 20
1.592469510884339
 30
0.0
 10
-12.09056468864557
 20
1.592469510884339
 30
0.0
 10
-12.05606468864558
 20
1.592469510884339
 30
0.0
  0
SPLINE
  5
150
330
1F
100
AcDbEntity
  8
Make2D visible lines
100
AcDbSpline
210
0.0
220
0.0
230
1.0
 70
    24
 71
     2
 72
     6
 73
     3
 74
     0
 42
0.0000000001
 43
0.0000000001
 40
0.0
 40
0.0
 40
0.0
 40
0.0690000000000008
 40
0.0690000000000008
 40
0.0690000000000008
 10
-12.98206468864556
 20
1.592469510884339
 30
0.0
 10
-12.94756468864557
 20
1.592469510884339
 30
0.0
 10
-12.91306468864557
 20
1.592469510884339
 30
0.0
  0
SPLINE
  5
151
330
1F
100
AcDbEntity
  8
Make2D visible lines
100
AcDbSpline
210
0.0
220
0.0
230
1.0
 70
    12
 71
     3
 72
    24
 73
    20
 74
     0
 42
0.0000000001
 43
0.0000000001
 40
0.0
 40
0.0
 40
0.0
 40
0.0
 40
0.0281928910243897
 40
0.0281928910243897
 40
0.0281928910243897
 40
0.0563857820487794
 40
0.0563857820487794
 40
0.0563857820487794
 40
0.8608768457985516
 40
1.021868374626662
 40
1.171751931984964
 40
1.519187963618824
 40
1.893123141335865
 40
1.893123141335865
 40
1.893123141335865
 40
12.49178118425367
 40
12.49178118425367
 40
12.49178118425367
 40
13.21666565134971
 40
13.21666565134971
 40
13.21666565134971
 40
13.21666565134971
 10
-12.87498302896966
 20
2.757469510917407
 30
0.0
 41
1.0
 10
-12.88464206406073
 20
2.757504857944221
 30
0.0
 41
0.9470163272825459
 10
-12.89351963287246
 20
2.761311034542332
 30
0.0
 41
0.9470163272825459
 10
-12.90020463680349
 20
2.768283045066202
 30
0.0
 41
1.0
 10
-12.90688964073452
 20
2.775255055590071
 30
0.0
 41
0.9470163272825459
 10
-12.91031920121661
 20
2.784296450908344
 30
0.0
 41
0.9470163272825459
 10
-12.90994818611932
 20
2.793970092029664
 30
0.0
 41
1.0
 10
-12.8924062580049
 20
3.06141095908929
 30
0.0
 41
1.0
 10
-12.89876096087724
 20
3.384565078877049
 30
0.0
 41
1.0
 10
-12.85595483996064
 20
3.753763077193387
 30
0.0
 41
1.0
 10
-12.78400564798497
 20
3.963201470367959
 30
0.0
 41
1.0
 10
-12.602613577037
 20
4.200857218107895
 30
0.0
 41
1.0
 10
-12.36263439336936
 20
4.282653018021808
 30
0.0
 41
1.0
 10
-12.24084040423364
 20
4.304540023279674
 30
0.0
 41
1.0
 10
-8.760876981383287
 20
4.920234105966821
 30
0.0
 41
0.9999999999152974
 10
-5.279744374603329
 20
5.536078187254187
 30
0.0
 41
0.9999999999152974
 10
-1.79744258477835
 20
6.152072266985286
 30
0.0
 41
1.0
 10
-1.540740482016463
 20
6.196958848939172
 30
0.0
 41
0.883617050208585
 10
-1.354573516254385
 20
6.37698969372908
 30
0.0
 41
0.883617050208585
 10
-1.302822026496583
 20
6.640614494942355
 30
0.0
 41
1.0
  0
SPLINE
  5
152
330
1F
100
AcDbEntity
  8
Make2D visible lines
100
AcDbSpline
210
0.0
220
0.0
230
1.0
 70
    24
 71
     2
 72
     6
 73
     3
 74
     0
 42
0.0000000001
 43
0.0000000001
 40
0.0
 40
0.0
 40
0.0
 40
0.625643048510957
 40
0.625643048510957
 40
0.625643048510957
 10
-1.302822026496583
 20
6.640614494942355
 30
0.0
 10
-1.296411013248288
 20
6.959042002913312
 30
0.0
 10
-1.289999999999992
 20
7.27746951088427
 30
0.0
  0
SPLINE
  5
153
330
1F
100
AcDbEntity
  8
Make2D visible lines
100
AcDbSpline
210
0.0
220
0.0
230
1.0
 70
    28
 71
     2
 72
     6
 73
     3
 74
     0
 42
0.0000000001
 43
0.0000000001
 40
5.217792698531236
 40
5.217792698531236
 40
5.217792698531236
 40
6.484247237009691
 40
6.484247237009691
 40
6.484247237009691
 10
-1.289999999999992
 20
7.27746951088427
 30
0.0
 41
0.8614627065647074
 10
-1.313899218394371
 20
7.277469510884269
 30
0.0
 41
0.8195196939567635
 10
-0.7590263823038987
 20
7.27746951088427
 30
0.0
 41
1.0
  0
LINE
  5
154
330
1F
100
AcDbEntity
  8
Make2D visible lines
100
AcDbLine
 10
-0.7590263823038987
 20
7.27746951088427
 30
0.0
 11
1.289216819729186
 21
7.277469510884271
 31
0.0
  0
SPLINE
  5
155
330
1F
100
AcDbEntity
  8
Make2D visible lines
100
AcDbSpline
210
0.0
220
0.0
230
1.0
 70
    24
 71
     2
 72
     6
 73
     3
 74
     0
 42
0.0000000001
 43
0.0000000001
 40
-0.625643048510957
 40
-0.625643048510957
 40
-0.625643048510957
 40
0.0
 40
0.0
 40
0.0
 10
1.289216819729186
 20
7.277469510884271
 30
0.0
 10
1.29523612955426
 20
6.959042002913312
 30
0.0
 10
1.301255439379335
 20
6.640614494942355
 30
0.0
  0
SPLINE
  5
156
330
1F
100
AcDbEntity
  8
Make2D visible lines
100
AcDbSpline
210
0.0
220
0.0
230
1.0
 70
    12
 71
     3
 72
    24
 73
    20
 74
     0
 42
0.0000000001
 43
0.0000000001
 40
-13.21666565134971
 40
-13.21666565134971
 40
-13.21666565134971
 40
-13.21666565134971
 40
-12.49178118425367
 40
-12.49178118425367
 40
-12.49178118425367
 40
-1.893123141335865
 40
-1.893123141335865
 40
-1.893123141335865
 40
-1.519187963618824
 40
-1.171751931984964
 40
-1.021868374626662
 40
-0.8608768457985516
 40
-0.0563857820487794
 40
-0.0563857820487794
 40
-0.0563857820487794
 40
-0.0281928910243897
 40
-0.0281928910243897
 40
-0.0281928910243897
 40
0.0
 40
0.0
 40
0.0
 40
0.0
 10
1.301255439379335
 20
6.640614494942355
 30
0.0
 41
1.0
 10
1.353006929137136
 20
6.37698969372908
 30
0.0
 41
0.883617050208585
 10
1.539173894899214
 20
6.196958848939172
 30
0.0
 41
0.883617050208585
 10
1.795875997661101
 20
6.152072266985286
 30
0.0
 41
1.0
 10
5.27817778748608
 20
5.536078187254187
 30
0.0
 41
0.9999999999152974
 10
8.75931039426604
 20
4.920234105966821
 30
0.0
 41
0.9999999999152974
 10
12.23927381711639
 20
4.304540023279674
 30
0.0
 41
1.0
 10
12.36106780625211
 20
4.282653018021808
 30
0.0
 41
1.0
 10
12.60104698991975
 20
4.200857218107895
 30
0.0
 41
1.0
 10
12.78243906086772
 20
3.963201470367959
 30
0.0
 41
1.0
 10
12.85438825284339
 20
3.753763077193387
 30
0.0
 41
1.0
 10
12.89719437375999
 20
3.384565078877049
 30
0.0
 41
1.0
 10
12.89083967088765
 20
3.06141095908929
 30
0.0
 41
1.0
 10
12.90838159900207
 20
2.793970092029664
 30
0.0
 41
1.0
 10
12.90875261409936
 20
2.784296450908344
 30
0.0
 41
0.9470163272825459
 10
12.90532305361727
 20
2.775255055590071
 30
0.0
 41
0.9470163272825459
 10
12.89863804968624
 20
2.768283045066202
 30
0.0
 41
1.0
 10
12.89195304575521
 20
2.761311034542332
 30
0.0
 41
0.9470163272825459
 10
12.88307547694349
 20
2.757504857944221
 30
0.0
 41
0.9470163272825459
 10
12.87341644185241
 20
2.757469510917407
 30
0.0
 41
1.0
  0
SPLINE
  5
157
330
1F
100
AcDbEntity
  8
Default
100
AcDbSpline
210
0.0
220
0.0
230
1.0
 70
    24
 71
     2
 72
     6
 73
     3
 74
     0
 42
0.0000000001
 43
0.0000000001
 40
0.0
 40
0.0
 40
0.0
 40
1.415121265539391
 40
1.415121265539391
 40
1.415121265539391
 10
36.12732753269005
 20
11.4083381907793
 30
0.0
 10
36.12732753269005
 20
10.7007775580096
 30
0.0
 10
36.12732753269005
 20
9.993216925239906
 30
0.0
  0
SPLINE
  5
158
330
1F
100
AcDbEntity
  8
Default
100
AcDbSpline
210
0.0
220
0.0
230
1.0
 70
    24
 71
     2
 72
     6
 73
     3
 74
     0
 42
0.0000000001
 43
0.0000000001
 40
0.0
 40
0.0
 40
0.0
 40
1.500868679895007
 40
1.500868679895007
 40
1.500868679895007
 10
38.70732753269004
 20
11.4083381907793
 30
0.0
 10
38.70732753269004
 20
10.65790385083179
 30
0.0
 10
38.70732753269004
 20
9.90746951088429
 30
0.0
  0
LINE
  5
159
330
1F
100
AcDbEntity
  8
Default
100
AcDbLine
 10
38.70732753269004
 20
9.90746951088429
 30
0.0
 11
36.23363700485275
 21
9.90746951088429
 31
0.0
  0
SPLINE
  5
15A
330
1F
100
AcDbEntity
  8
Make2D visible lines
100
AcDbSpline
210
0.0
220
0.0
230
1.0
 70
    24
 71
     2
 72
     6
 73
     3
 74
     0
 42
0.0000000001
 43
0.0000000001
 40
0.0
 40
0.0
 40
0.0
 40
0.0399960912937067
 40
0.0399960912937067
 40
0.0399960912937067
 10
38.61662933009268
 20
9.907469510884283
 30
0.0
 10
38.61697834411324
 20
9.887474511036643
 30
0.0
 10
38.61732735813379
 20
9.867479511189005
 30
0.0
  0
LINE
  5
15B
330
1F
100
AcDbEntity
  8
Make2D visible lines
100
AcDbLine
 10
39.11694012730676
 20
8.08854311199125
 30
0.0
 11
45.30846240011768
 21
11.28407889799967
 31
0.0
  0
ARC
  5
15C
330
1F
100
AcDbEntity
  8
Make2D visible lines
100
AcDbCircle
 10
42.69894913443638
 20
16.34015105228563
 30
0.0
 40
5.689764943573027
100
AcDbArc
 50
297.2989246852032
 51
299.9126408086053
  0
LINE
  5
15D
330
1F
100
AcDbEntity
  8
Default
100
AcDbLine
 10
29.303557888385
 20
11.40833819077929
 30
0.0
 11
45.53631534488458
 21
11.40833819077929
 31
0.0
  0
SPLINE
  5
15E
330
1F
100
AcDbEntity
  8
Default
100
AcDbSpline
210
0.0
220
0.0
230
1.0
 70
     8
 71
     3
 72
     8
 73
     4
 74
     0
 42
0.0000000001
 43
0.0000000001
 40
-1.0
 40
-1.0
 40
-1.0
 40
-1.0
 40
0.0
 40
0.0
 40
0.0
 40
0.0
 10
45.53631534488458
 20
11.40833819077929
 30
0.0
 10
45.54601527794273
 20
11.40833819077929
 30
0.0
 10
45.55596332886373
 20
11.41069939856759
 30
0.0
 10
45.56462844359098
 20
11.41505881230065
 30
0.0
  0
SPLINE
  5
15F
330
1F
100
AcDbEntity
  8
Default
100
AcDbSpline
210
0.0
220
0.0
230
1.0
 70
    24
 71
     2
 72
     6
 73
     3
 74
     0
 42
0.0000000001
 43
0.0000000001
 40
0.0
 40
0.0
 40
0.0
 40
0.5282062900802154
 40
0.5282062900802154
 40
0.5282062900802154
 10
45.56462844359098
 20
11.41505881230065
 30
0.0
 10
45.80055626266806
 20
11.53375394870314
 30
0.0
 10
46.03648408174514
 20
11.65244908510562
 30
0.0
  0
SPLINE
  5
160
330
1F
100
AcDbEntity
  8
Default
100
AcDbSpline
210
0.0
220
0.0
230
1.0
 70
     8
 71
     3
 72
     8
 73
     4
 74
     0
 42
0.0000000001
 43
0.0000000001
 40
-1.0
 40
-1.0
 40
-1.0
 40
-1.0
 40
0.0
 40
0.0
 40
0.0
 40
0.0
 10
46.03648408174514
 20
11.65244908510562
 30
0.0
 10
46.07013960613561
 20
11.66938115811783
 30
0.0
 10
46.09904655276672
 20
11.70935867957554
 30
0.0
 10
46.09836671519369
 20
11.74702733019329
 30
0.0
  0
SPLINE
  5
161
330
1F
100
AcDbEntity
  8
Default
100
AcDbSpline
210
0.0
220
0.0
230
1.0
 70
    12
 71
     2
 72
     6
 73
     3
 74
     0
 42
0.0000000001
 43
0.0000000001
 40
0.0
 40
0.0
 40
0.0
 40
0.6455488671731082
 40
0.6455488671731082
 40
0.6455488671731082
 10
46.09836671519369
 20
11.74702733019329
 30
0.0
 41
1.0
 10
46.09252571583348
 20
12.07066723020385
 30
0.0
 41
0.9957505983657335
 10
46.02742846803081
 20
12.38774647973129
 30
0.0
 41
1.0
  0
SPLINE
  5
162
330
1F
100
AcDbEntity
  8
Default
100
AcDbSpline
210
0.0
220
0.0
230
1.0
 70
    12
 71
     2
 72
     6
 73
     3
 74
     0
 42
0.0000000001
 43
0.0000000001
 40
0.0
 40
0.0
 40
0.0
 40
0.3420516372259224
 40
0.3420516372259224
 40
0.3420516372259224
 10
46.02742846803081
 20
12.38774647973129
 30
0.0
 41
1.0
 10
45.98637272996375
 20
12.58740559994866
 30
0.0
 41
0.7751522767319682
 10
45.78253619293078
 20
12.58746951088429
 30
0.0
 41
1.0
  0
LINE
  5
163
330
1F
100
AcDbEntity
  8
Default
100
AcDbLine
 10
45.78253619293078
 20
12.58746951088429
 30
0.0
 11
29.05733704033881
 21
12.58746951088429
 31
0.0
  0
SPLINE
  5
164
330
1F
100
AcDbEntity
  8
Default
100
AcDbSpline
210
0.0
220
0.0
230
1.0
 70
    12
 71
     2
 72
     6
 73
     3
 74
     0
 42
0.0000000001
 43
0.0000000001
 40
-0.3420516372259224
 40
-0.3420516372259224
 40
-0.3420516372259224
 40
0.0
 40
0.0
 40
0.0
 10
29.05733704033881
 20
12.58746951088429
 30
0.0
 41
1.0
 10
28.85350050330584
 20
12.58740559994866
 30
0.0
 41
0.7751522767319682
 10
28.81244476523878
 20
12.38774647973129
 30
0.0
 41
1.0
  0
SPLINE
  5
165
330
1F
100
AcDbEntity
  8
Default
100
AcDbSpline
210
0.0
220
0.0
230
1.0
 70
    12
 71
     2
 72
     6
 73
     3
 74
     0
 42
0.0000000001
 43
0.0000000001
 40
-0.6455488671731082
 40
-0.6455488671731082
 40
-0.6455488671731082
 40
0.0
 40
0.0
 40
0.0
 10
28.81244476523878
 20
12.38774647973129
 30
0.0
 41
1.0
 10
28.74734751743609
 20
12.07066723020385
 30
0.0
 41
0.9957505983657335
 10
28.74150651807589
 20
11.74702733019329
 30
0.0
 41
1.0
  0
SPLINE
  5
166
330
1F
100
AcDbEntity
  8
Default
100
AcDbSpline
210
0.0
220
0.0
230
1.0
 70
     8
 71
     3
 72
     8
 73
     4
 74
     0
 42
0.0000000001
 43
0.0000000001
 40
0.0
 40
0.0
 40
0.0
 40
0.0
 40
1.0
 40
1.0
 40
1.0
 40
1.0
 10
28.74150651807589
 20
11.74702733019329
 30
0.0
 10
28.74082668050286
 20
11.70935867957554
 30
0.0
 10
28.76973362713397
 20
11.66938115811783
 30
0.0
 10
28.80338915152444
 20
11.65244908510562
 30
0.0
  0
SPLINE
  5
167
330
1F
100
AcDbEntity
  8
Default
100
AcDbSpline
210
0.0
220
0.0
230
1.0
 70
    24
 71
     2
 72
     6
 73
     3
 74
     0
 42
0.0000000001
 43
0.0000000001
 40
-0.5282062900802154
 40
-0.5282062900802154
 40
-0.5282062900802154
 40
0.0
 40
0.0
 40
0.0
 10
28.80338915152444
 20
11.65244908510562
 30
0.0
 10
29.03931697060153
 20
11.53375394870314
 30
0.0
 10
29.27524478967861
 20
11.41505881230065
 30
0.0
  0
SPLINE
  5
168
330
1F
100
AcDbEntity
  8
Default
100
AcDbSpline
210
0.0
220
0.0
230
1.0
 70
     8
 71
     3
 72
     8
 73
     4
 74
     0
 42
0.0000000001
 43
0.0000000001
 40
0.0
 40
0.0
 40
0.0
 40
0.0
 40
1.0
 40
1.0
 40
1.0
 40
1.0
 10
29.27524478967861
 20
11.41505881230065
 30
0.0
 10
29.28390990440586
 20
11.41069939856759
 30
0.0
 10
29.29385795532686
 20
11.40833819077929
 30
0.0
 10
29.303557888385
 20
11.40833819077929
 30
0.0
  0
SPLINE
  5
169
330
1F
100
AcDbEntity
  8
Make2D visible lines
100
AcDbSpline
210
0.0
220
0.0
230
1.0
 70
    12
 71
     2
 72
    28
 73
    25
 74
     0
 42
0.0000000001
 43
0.0000000001
 40
0.0
 40
0.0
 40
0.0
 40
0.0140468681407047
 40
0.0140468681407047
 40
0.0285022039833023
 40
0.0285022039833023
 40
0.0432370017690572
 40
0.0432370017690572
 40
0.058076842079312
 40
0.058076842079312
 40
0.0728277182437654
 40
0.0728277182437654
 40
0.0872949293865356
 40
0.0872949293865356
 40
0.1012844926610201
 40
0.1012844926610201
 40
0.1149934196890438
 40
0.1149934196890438
 40
0.1292033157759231
 40
0.1292033157759231
 40
0.1441227222662706
 40
0.1441227222662706
 40
0.1597995803026915
 40
0.1597995803026915
 40
0.1711131267289225
 40
0.1711131267289225
 40
0.1711131267289225
 10
36.57144939471188
 20
8.08852811017423
 30
0.0
 41
1.0
 10
36.56443005408462
 20
8.088409829595792
 30
0.0
 41
0.9997318673218968
 10
36.55741276460019
 20
8.088616666315076
 30
0.0
 41
1.0
 10
36.5501912595594
 20
8.088829150500574
 30
0.0
 41
0.9997008370617729
 10
36.54298878598969
 20
8.089394534494938
 30
0.0
 41
1.0
 10
36.53564681447419
 20
8.089970403066687
 30
0.0
 41
0.999656372223062
 10
36.52834511331136
 20
8.090930262678727
 30
0.0
 41
1.0
 10
36.52099099302715
 20
8.091896491914397
 30
0.0
 41
0.9995954392542505
 10
36.5137037121923
 20
8.093279323113304
 30
0.0
 41
1.0
 10
36.50645956815463
 20
8.094653177297085
 30
0.0
 41
0.9995115816120003
 10
36.49931539887112
 20
8.096476894217322
 30
0.0
 41
1.0
 10
36.49230797033886
 20
8.098265144234139
 30
0.0
 41
0.9994024730501939
 10
36.48544083097825
 20
8.100533246912462
 30
0.0
 41
1.0
 10
36.47879947746382
 20
8.102725808064937
 30
0.0
 41
0.9992556387409859
 10
36.47234692886202
 20
8.105423866154045
 30
0.0
 41
1.0
 10
36.46602290104187
 20
8.108068119510422
 30
0.0
 41
0.9990431628104504
 10
36.45995413795396
 20
8.111254891900368
 30
0.0
 41
1.0
 10
36.4536645903515
 20
8.114561203615896
 30
0.0
 41
0.998925111124771
 10
36.44770825748886
 20
8.11843576230471
 30
0.0
 41
1.0
 10
36.44145526085452
 20
8.12250589084994
 30
0.0
 41
0.9988185990540612
 10
36.43562689873424
 20
8.12716379899404
 30
0.0
 41
1.0
 10
36.42950343307
 20
8.132059374280733
 30
0.0
 41
0.998796330741097
 10
36.42388910876178
 20
8.13753138046596
 30
0.0
 41
1.0
 10
36.419838902813
 20
8.141478430024423
 30
0.0
 41
0.999436228297278
 10
36.41599899832558
 20
8.145631204145916
 30
0.0
 41
0.9999895245906828
  0
ARC
  5
16A
330
1F
100
AcDbEntity
  8
Make2D visible lines
100
AcDbCircle
 10
-132.0667628206047
 20
-152.1472227955528
 30
0.0
 40
232.5515858331289
100
AcDbArc
 50
43.57303855142976
 51
44.3553992497951
  0
ARC
  5
16B
330
1F
100
AcDbEntity
  8
Make2D visible lines
100
AcDbCircle
 10
26.43482891080245
 20
2.827484667947199
 30
0.0
 40
10.87634018132619
100
AcDbArc
 50
44.35539924979687
 51
50.84254136769272
  0
ARC
  5
16C
330
1F
100
AcDbEntity
  8
Make2D visible lines
100
AcDbCircle
 10
32.9463985658749
 20
10.83145084004937
 30
0.0
 40
0.5582235121632735
100
AcDbArc
 50
50.33189695080642
 51
73.77841135406798
  0
LINE
  5
16D
330
1F
100
AcDbEntity
  8
Make2D visible lines
100
AcDbLine
 10
33.10233993296048
 20
11.36745063441816
 30
0.0
 11
32.96180171522263
 21
11.40833819077929
 31
0.0
  0
SPLINE
  5
16E
330
1F
100
AcDbEntity
  8
Make2D visible lines
100
AcDbSpline
210
0.0
220
0.0
230
1.0
 70
     8
 71
     3
 72
    11
 73
     7
 74
     0
 42
0.0000000001
 43
0.0000000001
 40
0.0
 40
0.0
 40
0.0
 40
0.0
 40
7.085634484360607
 40
7.361795627002613
 40
7.606429217984398
 40
8.018050506220703
 40
8.018050506220703
 40
8.018050506220703
 40
8.018050506220703
 10
33.06641086780161
 20
3.871585286712858
 30
0.0
 10
30.71363017798832
 20
3.664538704418595
 30
0.0
 10
28.26869108472761
 20
3.454420641091897
 30
0.0
 10
25.74324534340705
 20
3.229280513659393
 30
0.0
 10
25.4370822216446
 20
3.171471040392374
 30
0.0
 10
25.22291398009735
 20
3.129078722471389
 30
0.0
 10
25.09291720517162
 20
3.08310002167865
 30
0.0
  0
SPLINE
  5
16F
330
1F
100
AcDbEntity
  8
Make2D visible lines
100
AcDbSpline
210
0.0
220
0.0
230
1.0
 70
    12
 71
     3
 72
    12
 73
     8
 74
     0
 42
0.0000000001
 43
0.0000000001
 40
-1.0
 40
-1.0
 40
-1.0
 40
-1.0
 40
-0.5
 40
-0.5
 40
-0.25
 40
-0.25
 40
0.0
 40
0.0
 40
0.0
 40
0.0
 10
25.09291720517162
 20
3.08310002167865
 30
0.0
 41
1.0
 10
25.00055796718341
 20
3.052019476638632
 30
0.0
 41
1.0
 10
24.91372522620716
 20
3.015481787138144
 30
0.0
 41
1.0
 10
24.79966325651678
 20
2.944691457246863
 30
0.0
 41
1.0
 10
24.76437841840739
 20
2.918393228785648
 30
0.0
 41
1.0
 10
24.70265825843265
 20
2.857058356542369
 30
0.0
 41
1.0
 10
24.67594800223895
 20
2.822293192433795
 30
0.0
 41
1.0
 10
24.6578817858084
 20
2.778992541818647
 30
0.0
 41
1.0
  0
SPLINE
  5
170
330
1F
100
AcDbEntity
  8
Make2D visible lines
100
AcDbSpline
210
0.0
220
0.0
230
1.0
 70
    12
 71
     2
 72
     6
 73
     3
 74
     0
 42
0.0000000001
 43
0.0000000001
 40
0.0
 40
0.0
 40
0.0
 40
0.0411434641823458
 40
0.0411434641823458
 40
0.0411434641823458
 10
24.6578817858084
 20
2.778992541818647
 30
0.0
 41
1.0
 10
24.64890178834642
 20
2.757469510735566
 30
0.0
 41
0.832182746877927
 10
24.62558052720082
 20
2.757469510884281
 30
0.0
 41
1.0
  0
SPLINE
  5
171
330
1F
100
AcDbEntity
  8
Make2D visible lines
100
AcDbSpline
210
0.0
220
0.0
230
1.0
 70
    12
 71
     2
 72
     8
 73
     5
 74
     0
 42
0.0000000001
 43
0.0000000001
 40
0.0
 40
0.0
 40
0.0
 40
1.497204518884547
 40
1.497204518884547
 40
2.994409037769108
 40
2.994409037769108
 40
2.994409037769108
 10
34.11234416863682
 20
2.230619510884283
 30
0.0
 41
1.0
 10
35.06549416863681
 20
2.230619510884284
 30
0.0
 41
0.7071067811865408
 10
35.0654941686368
 20
1.277469510884282
 30
0.0
 41
1.0
 10
35.06549416863682
 20
0.3243195108842724
 30
0.0
 41
0.7071067811865419
 10
34.11234416863682
 20
0.3243195108842727
 30
0.0
 41
1.0
  0
SPLINE
  5
172
330
1F
100
AcDbEntity
  8
Make2D visible lines
100
AcDbSpline
210
0.0
220
0.0
230
1.0
 70
    12
 71
     2
 72
     8
 73
     5
 74
     0
 42
0.0000000001
 43
0.0000000001
 40
0.0
 40
0.0
 40
0.0
 40
2.010589900836999
 40
2.010589900836999
 40
4.021209199134468
 40
4.021209199134468
 40
4.021209199134468
 10
34.11237356609727
 20
2.557469510546701
 30
0.0
 41
1.0
 10
35.39234416863681
 20
2.557440113761405
 30
0.0
 41
0.7071149011179003
 10
35.39234416863679
 20
1.277469510884282
 30
0.0
 41
1.0
 10
35.39234416863684
 20
-0.002530489115745
 30
0.0
 41
0.7071067811865291
 10
34.11234416863682
 20
-0.0025304891157134
 30
0.0
 41
1.0
  0
SPLINE
  5
173
330
1F
100
AcDbEntity
  8
Make2D visible lines - Tangent
100
AcDbSpline
210
0.0
220
0.0
230
1.0
 70
    12
 71
     2
 72
     8
 73
     5
 74
     0
 42
0.0000000001
 43
0.0000000001
 40
0.0
 40
0.0
 40
0.0
 40
1.520766455445231
 40
1.520766455445231
 40
3.04153291089047
 40
3.04153291089047
 40
3.04153291089047
 10
34.11234416863682
 20
0.3093195161944831
 30
0.0
 41
1.0
 10
35.08049416332663
 20
0.3093195161944814
 30
0.0
 41
0.7071067811865446
 10
35.08049416332661
 20
1.277469510884282
 30
0.0
 41
1.0
 10
35.08049416332661
 20
2.245619505574087
 30
0.0
 41
0.707106781186544
 10
34.11234416863682
 20
2.245619505574087
 30
0.0
 41
1.0
  0
SPLINE
  5
174
330
1F
100
AcDbEntity
  8
Make2D visible lines
100
AcDbSpline
210
0.0
220
0.0
230
1.0
 70
    12
 71
     2
 72
     8
 73
     5
 74
     0
 42
0.0000000001
 43
0.0000000001
 40
0.0
 40
0.0
 40
0.0
 40
2.010619298297465
 40
2.010619298297465
 40
4.021238596594936
 40
4.021238596594936
 40
4.021238596594936
 10
34.11234416863682
 20
-0.002530489115717
 30
0.0
 41
1.0
 10
32.83234416863679
 20
-0.0025304891157166
 30
0.0
 41
0.7071067811865468
 10
32.83234416863682
 20
1.277469510884282
 30
0.0
 41
1.0
 10
32.83234416863682
 20
2.557469510884285
 30
0.0
 41
0.7071067811865471
 10
34.11234416863682
 20
2.557469510884285
 30
0.0
 41
1.0
  0
SPLINE
  5
175
330
1F
100
AcDbEntity
  8
Make2D visible lines
100
AcDbSpline
210
0.0
220
0.0
230
1.0
 70
    12
 71
     2
 72
     8
 73
     5
 74
     0
 42
0.0000000001
 43
0.0000000001
 40
0.0
 40
0.0
 40
0.0
 40
1.497204518884545
 40
1.497204518884545
 40
2.994409037769103
 40
2.994409037769103
 40
2.994409037769103
 10
25.0172803570948
 20
0.3243195108842851
 30
0.0
 41
1.0
 10
24.06413035709484
 20
0.3243195108843109
 30
0.0
 41
0.7071067811865704
 10
24.0641303570948
 20
1.277469510884284
 30
0.0
 41
1.0
 10
24.0641303570948
 20
2.230619510884264
 30
0.0
 41
0.7071067811865678
 10
25.0172803570948
 20
2.230619510884294
 30
0.0
 41
1.0
  0
SPLINE
  5
176
330
1F
100
AcDbEntity
  8
Make2D visible lines - Tangent
100
AcDbSpline
210
0.0
220
0.0
230
1.0
 70
    12
 71
     2
 72
     8
 73
     5
 74
     0
 42
0.0000000001
 43
0.0000000001
 40
0.0
 40
0.0
 40
0.0
 40
1.520766455445226
 40
1.520766455445226
 40
3.041532910890458
 40
3.041532910890458
 40
3.041532910890458
 10
25.0172803570948
 20
2.245619505574084
 30
0.0
 41
1.0
 10
24.04913036240499
 20
2.24561950557407
 30
0.0
 41
0.7071067811865557
 10
24.04913036240501
 20
1.277469510884284
 30
0.0
 41
1.0
 10
24.04913036240502
 20
0.3093195161945032
 30
0.0
 41
0.7071067811865631
 10
25.0172803570948
 20
0.3093195161944742
 30
0.0
 41
1.0
  0
SPLINE
  5
177
330
1F
100
AcDbEntity
  8
Make2D visible lines - Tangent
100
AcDbSpline
210
0.0
220
0.0
230
1.0
 70
    12
 71
     2
 72
     8
 73
     5
 74
     0
 42
0.0000000001
 43
0.0000000001
 40
0.0
 40
0.0
 40
0.0
 40
0.0281548017607272
 40
0.0281548017607272
 40
0.0563096035214544
 40
0.0563096035214544
 40
0.0563096035214544
 10
32.99683292599647
 20
2.757469510917316
 30
0.0
 41
1.0
 10
32.98194986577951
 20
2.757523866544195
 30
0.0
 41
0.9207353083954195
 10
32.97163764854253
 20
2.768255437333817
 30
0.0
 41
1.0
 10
32.96132543130552
 20
2.77898700812344
 30
0.0
 41
0.9207353083954195
 10
32.9618729101547
 20
2.7940678874151
 30
0.0
 41
1.0
  0
SPLINE
  5
178
330
1F
100
AcDbEntity
  8
Make2D visible lines - Tangent
100
AcDbSpline
210
0.0
220
0.0
230
1.0
 70
     8
 71
     3
 72
    12
 73
     8
 74
     0
 42
0.0000000001
 43
0.0000000001
 40
0.0
 40
0.0
 40
0.0
 40
0.0
 40
0.7038593348424074
 40
0.8875771840295935
 40
1.044695281968214
 40
1.349887694187137
 40
1.596737400594657
 40
1.596737400594657
 40
1.596737400594657
 40
1.596737400594657
 10
32.9618729101547
 20
2.7940678874151
 30
0.0
 10
32.97609266138576
 20
3.028456991125694
 30
0.0
 10
32.98203376292027
 20
3.324487107619898
 30
0.0
 10
33.0188407420312
 20
3.671075104233458
 30
0.0
 10
33.06357267774409
 20
3.881763243661922
 30
0.0
 10
33.1459972924533
 20
4.106088590132117
 30
0.0
 10
33.27715045197894
 20
4.243080590175975
 30
0.0
 10
33.3504760222318
 20
4.281313867189647
 30
0.0
  0
SPLINE
  5
179
330
1F
100
AcDbEntity
  8
Make2D visible lines - Tangent
100
AcDbSpline
210
0.0
220
0.0
230
1.0
 70
    12
 71
     3
 72
    15
 73
    11
 74
     0
 42
0.0000000001
 43
0.0000000001
 40
-4.541433547693557
 40
-4.541433547693557
 40
-4.541433547693557
 40
-4.541433547693557
 40
-0.7414861370963696
 40
-0.7414861370963696
 40
-0.7414861370963696
 40
-0.6324431721007214
 40
-0.4665084344538327
 40
-0.2470339465480142
 40
-0.1247233484072336
 40
0.0
 40
0.0
 40
0.0
 40
0.0
 10
33.3504760222318
 20
4.281313867189647
 30
0.0
 41
1.0
 10
34.50130228640508
 20
4.910799402010203
 30
0.0
 41
0.9999999265147085
 10
35.61255408372242
 20
5.51868063776409
 30
0.0
 41
0.9999999265147085
 10
36.72409117536921
 20
6.126040043483858
 30
0.0
 41
1.0
 10
36.75616769318756
 20
6.144688823668025
 30
0.0
 41
1.0
 10
36.80950394200372
 20
6.221553876754989
 30
0.0
 41
1.0
 10
36.86142984032826
 20
6.378643047332755
 30
0.0
 41
1.0
 10
36.88929912397262
 20
6.545979139327875
 30
0.0
 41
1.0
 10
36.90204127082546
 20
6.70095923545446
 30
0.0
 41
1.0
 10
36.90452351133926
 20
6.783324085408321
 30
0.0
 41
1.0
 10
36.90473261592793
 20
6.824887355579378
 30
0.0
 41
1.0
  0
SPLINE
  5
17A
330
1F
100
AcDbEntity
  8
Make2D visible lines
100
AcDbSpline
210
0.0
220
0.0
230
1.0
 70
    12
 71
     2
 72
     8
 73
     5
 74
     0
 42
0.0000000001
 43
0.0000000001
 40
0.0
 40
0.0
 40
0.0
 40
1.497204518884545
 40
1.497204518884545
 40
2.994409037769103
 40
2.994409037769103
 40
2.994409037769103
 10
48.82846654555479
 20
0.3243195108842798
 30
0.0
 41
1.0
 10
47.87531654555482
 20
0.3243195108843084
 30
0.0
 41
0.7071067811865704
 10
47.87531654555478
 20
1.277469510884279
 30
0.0
 41
1.0
 10
47.87531654555478
 20
2.230619510884259
 30
0.0
 41
0.7071067811865678
 10
48.82846654555479
 20
2.230619510884289
 30
0.0
 41
1.0
  0
SPLINE
  5
17B
330
1F
100
AcDbEntity
  8
Make2D visible lines
100
AcDbSpline
210
0.0
220
0.0
230
1.0
 70
    12
 71
     2
 72
     8
 73
     5
 74
     0
 42
0.0000000001
 43
0.0000000001
 40
0.0
 40
0.0
 40
0.0
 40
1.497204518884547
 40
1.497204518884547
 40
2.994409037769108
 40
2.994409037769108
 40
2.994409037769108
 10
48.82846654555479
 20
2.23061951088428
 30
0.0
 41
1.0
 10
49.78161654555479
 20
2.230619510884281
 30
0.0
 41
0.7071067811865408
 10
49.78161654555477
 20
1.277469510884279
 30
0.0
 41
1.0
 10
49.7816165455548
 20
0.3243195108842699
 30
0.0
 41
0.7071067811865419
 10
48.82846654555479
 20
0.3243195108842691
 30
0.0
 41
1.0
  0
SPLINE
  5
17C
330
1F
100
AcDbEntity
  8
Make2D visible lines
100
AcDbSpline
210
0.0
220
0.0
230
1.0
 70
    12
 71
     2
 72
     8
 73
     5
 74
     0
 42
0.0000000001
 43
0.0000000001
 40
0.0
 40
0.0
 40
0.0
 40
2.010589900836999
 40
2.010589900836999
 40
4.021209199134468
 40
4.021209199134468
 40
4.021209199134468
 10
48.82849594301524
 20
2.557469510546698
 30
0.0
 41
1.0
 10
50.10846654555478
 20
2.557440113761403
 30
0.0
 41
0.7071149011179003
 10
50.10846654555476
 20
1.277469510884279
 30
0.0
 41
1.0
 10
50.1084665455548
 20
-0.0025304891157475
 30
0.0
 41
0.7071067811865291
 10
48.82846654555479
 20
-0.002530489115717
 30
0.0
 41
1.0
  0
SPLINE
  5
17D
330
1F
100
AcDbEntity
  8
Make2D visible lines - Tangent
100
AcDbSpline
210
0.0
220
0.0
230
1.0
 70
    12
 71
     2
 72
     8
 73
     5
 74
     0
 42
0.0000000001
 43
0.0000000001
 40
0.0
 40
0.0
 40
0.0
 40
1.520766455445231
 40
1.520766455445231
 40
3.04153291089047
 40
3.04153291089047
 40
3.04153291089047
 10
48.82846654555479
 20
0.3093195161944795
 30
0.0
 41
1.0
 10
49.79661654024461
 20
0.3093195161944789
 30
0.0
 41
0.7071067811865446
 10
49.79661654024459
 20
1.277469510884279
 30
0.0
 41
1.0
 10
49.79661654024459
 20
2.245619505574084
 30
0.0
 41
0.707106781186544
 10
48.82846654555479
 20
2.245619505574084
 30
0.0
 41
1.0
  0
SPLINE
  5
17E
330
1F
100
AcDbEntity
  8
Make2D visible lines - Tangent
100
AcDbSpline
210
0.0
220
0.0
230
1.0
 70
    12
 71
     2
 72
     8
 73
     5
 74
     0
 42
0.0000000001
 43
0.0000000001
 40
0.0
 40
0.0
 40
0.0
 40
1.520766455445226
 40
1.520766455445226
 40
3.041532910890458
 40
3.041532910890458
 40
3.041532910890458
 10
48.82846654555479
 20
2.245619505574078
 30
0.0
 41
1.0
 10
47.86031655086497
 20
2.245619505574064
 30
0.0
 41
0.7071067811865557
 10
47.86031655086499
 20
1.277469510884279
 30
0.0
 41
1.0
 10
47.860316550865
 20
0.3093195161944982
 30
0.0
 41
0.7071067811865631
 10
48.82846654555479
 20
0.3093195161944688
 30
0.0
 41
1.0
  0
SPLINE
  5
17F
330
1F
100
AcDbEntity
  8
Make2D visible lines
100
AcDbSpline
210
0.0
220
0.0
230
1.0
 70
    12
 71
     2
 72
     8
 73
     5
 74
     0
 42
0.0000000001
 43
0.0000000001
 40
0.0
 40
0.0
 40
0.0
 40
2.010619298297465
 40
2.010619298297465
 40
4.021238596594936
 40
4.021238596594936
 40
4.021238596594936
 10
48.82846654555479
 20
-0.0025304891157205
 30
0.0
 41
1.0
 10
47.54846654555477
 20
-0.0025304891157191
 30
0.0
 41
0.7071067811865468
 10
47.54846654555479
 20
1.277469510884279
 30
0.0
 41
1.0
 10
47.5484665455548
 20
2.557469510884283
 30
0.0
 41
0.7071067811865471
 10
48.82846654555479
 20
2.557469510884282
 30
0.0
 41
1.0
  0
SPLINE
  5
180
330
1F
100
AcDbEntity
  8
Make2D visible lines - Tangent
100
AcDbSpline
210
0.0
220
0.0
230
1.0
 70
     8
 71
     3
 72
    11
 73
     7
 74
     0
 42
0.0000000001
 43
0.0000000001
 40
0.0
 40
0.0
 40
0.0
 40
0.0
 40
0.1251400008539807
 40
0.249997976020166
 40
0.4891881354632792
 40
0.9100604574811362
 40
0.9100604574811362
 40
0.9100604574811362
 40
0.9100604574811362
 10
38.46958116888878
 20
6.851689439078276
 30
0.0
 10
38.47035383112102
 20
6.810006860304778
 30
0.0
 10
38.47637098115642
 20
6.726674603643012
 30
0.0
 10
38.5119094992689
 20
6.567078205211685
 30
0.0
 10
38.61927334719194
 20
6.325834321309088
 30
0.0
 10
38.80316478703234
 20
6.181018774529853
 30
0.0
 10
38.94250660004883
 20
6.152842126982664
 30
0.0
  0
SPLINE
  5
181
330
1F
100
AcDbEntity
  8
Make2D visible lines
100
AcDbSpline
210
0.0
220
0.0
230
1.0
 70
    12
 71
     2
 72
     8
 73
     5
 74
     0
 42
0.0000000001
 43
0.0000000001
 40
0.0
 40
0.0
 40
0.0
 40
2.010589900836999
 40
2.010589900836999
 40
4.021209199134468
 40
4.021209199134468
 40
4.021209199134468
 10
25.01730975455526
 20
2.557469510546703
 30
0.0
 41
1.0
 10
26.29728035709479
 20
2.557440113761408
 30
0.0
 41
0.7071149011179003
 10
26.29728035709478
 20
1.277469510884284
 30
0.0
 41
1.0
 10
26.29728035709483
 20
-0.0025304891157425
 30
0.0
 41
0.7071067811865291
 10
25.0172803570948
 20
-0.0025304891157134
 30
0.0
 41
1.0
  0
SPLINE
  5
182
330
1F
100
AcDbEntity
  8
Default
100
AcDbSpline
210
0.0
220
0.0
230
1.0
 70
    24
 71
     2
 72
     6
 73
     3
 74
     0
 42
0.0000000001
 43
0.0000000001
 40
0.0
 40
0.0
 40
0.0
 40
0.8769692108444929
 40
0.8769692108444929
 40
0.8769692108444929
 10
23.8634366166327
 20
1.840500300039793
 30
0.0
 10
23.8634366166327
 20
2.278984905462039
 30
0.0
 10
23.8634366166327
 20
2.717469510884285
 30
0.0
  0
SPLINE
  5
183
330
1F
100
AcDbEntity
  8
Default
100
AcDbSpline
210
0.0
220
0.0
230
1.0
 70
    12
 71
     2
 72
     6
 73
     3
 74
     0
 42
0.0000000001
 43
0.0000000001
 40
0.0
 40
0.0
 40
0.0
 40
0.061047366478666
 40
0.061047366478666
 40
0.061047366478666
 10
23.8634366166327
 20
2.717469510884285
 30
0.0
 41
1.0
 10
23.86350567110099
 20
2.755679029358341
 30
0.0
 41
0.7238690675884838
 10
23.90167450939703
 20
2.757443074048657
 30
0.0
 41
1.0
  0
POLYLINE
  5
184
330
1F
100
AcDbEntity
  8
Default
100
AcDb2dPolyline
 66
     1
 10
0.0
 20
0.0
 30
0.0
  0
VERTEX
  5
185
330
184
100
AcDbEntity
  8
Default
100
AcDbVertex
100
AcDb2dVertex
 10
23.90167450939703
 20
2.757443074048657
 30
0.0
  0
VERTEX
  5
186
330
184
100
AcDbEntity
  8
Default
100
AcDbVertex
100
AcDb2dVertex
 10
24.61143661662337
 20
2.757469510884285
 30
0.0
  0
SEQEND
  5
187
330
184
100
AcDbEntity
  8
Default
  0
SPLINE
  5
188
330
1F
100
AcDbEntity
  8
Default
100
AcDbSpline
210
0.0
220
0.0
230
1.0
 70
    12
 71
     2
 72
     6
 73
     3
 74
     0
 42
0.0000000001
 43
0.0000000001
 40
0.0
 40
0.0
 40
0.0
 40
0.0627492515484099
 40
0.0627492515484099
 40
0.0627492515484099
 10
24.61143661662337
 20
2.757469510884285
 30
0.0
 41
1.0
 10
24.65124431769734
 20
2.757277211958214
 30
0.0
 41
0.7105143094883521
 10
24.6514366166327
 20
2.717469510884285
 30
0.0
 41
1.0
  0
SPLINE
  5
189
330
1F
100
AcDbEntity
  8
Default
100
AcDbSpline
210
0.0
220
0.0
230
1.0
 70
    24
 71
     2
 72
     6
 73
     3
 74
     0
 42
0.0000000001
 43
0.0000000001
 40
0.0
 40
0.0
 40
0.0
 40
0.2133911288261197
 40
0.2133911288261197
 40
0.2133911288261197
 10
24.6514366166327
 20
2.717469510884285
 30
0.0
 10
24.6514366166327
 20
2.610773946471225
 30
0.0
 10
24.65143661663271
 20
2.504078382058164
 30
0.0
  0
SPLINE
  5
18A
330
1F
100
AcDbEntity
  8
Make2D visible lines
100
AcDbSpline
210
0.0
220
0.0
230
1.0
 70
    12
 71
     2
 72
     8
 73
     5
 74
     0
 42
0.0000000001
 43
0.0000000001
 40
0.0
 40
0.0
 40
0.0
 40
1.497204518884547
 40
1.497204518884547
 40
2.994409037769108
 40
2.994409037769108
 40
2.994409037769108
 10
25.0172803570948
 20
2.230619510884285
 30
0.0
 41
1.0
 10
25.9704303570948
 20
2.230619510884286
 30
0.0
 41
0.7071067811865408
 10
25.97043035709478
 20
1.277469510884284
 30
0.0
 41
1.0
 10
25.97043035709482
 20
0.3243195108842749
 30
0.0
 41
0.7071067811865419
 10
25.0172803570948
 20
0.3243195108842745
 30
0.0
 41
1.0
  0
SPLINE
  5
18B
330
1F
100
AcDbEntity
  8
Make2D visible lines
100
AcDbSpline
210
0.0
220
0.0
230
1.0
 70
    12
 71
     2
 72
     6
 73
     3
 74
     0
 42
0.0000000001
 43
0.0000000001
 40
0.0
 40
0.0
 40
0.0
 40
0.4169760767400937
 40
0.4169760767400937
 40
0.4169760767400937
 10
33.7860866225396
 20
3.205746069935147
 30
0.0
 41
1.0
 10
33.7618531066211
 20
2.998629953124385
 30
0.0
 41
0.9997052877389728
 10
33.74765487044085
 20
2.790057163362526
 30
0.0
 41
1.0
  0
SPLINE
  5
18C
330
1F
100
AcDbEntity
  8
Make2D visible lines
100
AcDbSpline
210
0.0
220
0.0
230
1.0
 70
    12
 71
     2
 72
     6
 73
     3
 74
     0
 42
0.0000000001
 43
0.0000000001
 40
0.0
 40
0.0
 40
0.0
 40
0.051971837302968
 40
0.051971837302968
 40
0.051971837302968
 10
33.74765487044085
 20
2.790057163362526
 30
0.0
 41
1.0
 10
33.74479121033279
 20
2.757609266840618
 30
0.0
 41
0.7390041367116041
 10
33.71274408466452
 20
2.757469511236073
 30
0.0
 41
1.0
  0
SPLINE
  5
18D
330
1F
100
AcDbEntity
  8
Default
100
AcDbSpline
210
0.0
220
0.0
230
1.0
 70
    24
 71
     2
 72
     6
 73
     3
 74
     0
 42
0.0000000001
 43
0.0000000001
 40
0.0
 40
0.0
 40
0.0
 40
0.8769692108444929
 40
0.8769692108444929
 40
0.8769692108444929
 10
47.67462280509268
 20
1.840500300039787
 30
0.0
 10
47.67462280509268
 20
2.278984905462034
 30
0.0
 10
47.67462280509268
 20
2.71746951088428
 30
0.0
  0
SPLINE
  5
18E
330
1F
100
AcDbEntity
  8
Default
100
AcDbSpline
210
0.0
220
0.0
230
1.0
 70
    12
 71
     2
 72
     6
 73
     3
 74
     0
 42
0.0000000001
 43
0.0000000001
 40
0.0
 40
0.0
 40
0.0
 40
0.061047366478666
 40
0.061047366478666
 40
0.061047366478666
 10
47.67462280509268
 20
2.71746951088428
 30
0.0
 41
1.0
 10
47.67469185956098
 20
2.755679029358336
 30
0.0
 41
0.7238690675884838
 10
47.71286069785701
 20
2.757443074048652
 30
0.0
 41
1.0
  0
POLYLINE
  5
18F
330
1F
100
AcDbEntity
  8
Default
100
AcDb2dPolyline
 66
     1
 10
0.0
 20
0.0
 30
0.0
  0
VERTEX
  5
190
330
18F
100
AcDbEntity
  8
Default
100
AcDbVertex
100
AcDb2dVertex
 10
47.71286069785701
 20
2.757443074048652
 30
0.0
  0
VERTEX
  5
191
330
18F
100
AcDbEntity
  8
Default
100
AcDbVertex
100
AcDb2dVertex
 10
48.42262280508335
 20
2.757469510884279
 30
0.0
  0
SEQEND
  5
192
330
18F
100
AcDbEntity
  8
Default
  0
SPLINE
  5
193
330
1F
100
AcDbEntity
  8
Default
100
AcDbSpline
210
0.0
220
0.0
230
1.0
 70
    12
 71
     2
 72
     6
 73
     3
 74
     0
 42
0.0000000001
 43
0.0000000001
 40
0.0
 40
0.0
 40
0.0
 40
0.0627492515484099
 40
0.0627492515484099
 40
0.0627492515484099
 10
48.42262280508335
 20
2.757469510884279
 30
0.0
 41
1.0
 10
48.46243050615733
 20
2.757277211958209
 30
0.0
 41
0.7105143094883521
 10
48.46262280509269
 20
2.71746951088428
 30
0.0
 41
1.0
  0
SPLINE
  5
194
330
1F
100
AcDbEntity
  8
Default
100
AcDbSpline
210
0.0
220
0.0
230
1.0
 70
    24
 71
     2
 72
     6
 73
     3
 74
     0
 42
0.0000000001
 43
0.0000000001
 40
0.0
 40
0.0
 40
0.0
 40
0.2133911288261197
 40
0.2133911288261197
 40
0.2133911288261197
 10
48.46262280509269
 20
2.71746951088428
 30
0.0
 10
48.46262280509269
 20
2.610773946471221
 30
0.0
 10
48.46262280509269
 20
2.504078382058161
 30
0.0
  0
SPLINE
  5
195
330
1F
100
AcDbEntity
  8
Make2D visible lines
100
AcDbSpline
210
0.0
220
0.0
230
1.0
 70
    12
 71
     2
 72
     8
 73
     5
 74
     0
 42
0.0000000001
 43
0.0000000001
 40
0.0
 40
0.0
 40
0.0
 40
1.497204518884545
 40
1.497204518884545
 40
2.994409037769103
 40
2.994409037769103
 40
2.994409037769103
 10
34.11234416863682
 20
0.3243195108842833
 30
0.0
 41
1.0
 10
33.15919416863686
 20
0.3243195108843109
 30
0.0
 41
0.7071067811865704
 10
33.15919416863681
 20
1.277469510884282
 30
0.0
 41
1.0
 10
33.15919416863681
 20
2.230619510884264
 30
0.0
 41
0.7071067811865678
 10
34.11234416863682
 20
2.230619510884292
 30
0.0
 41
1.0
  0
SPLINE
  5
196
330
1F
100
AcDbEntity
  8
Make2D visible lines
100
AcDbSpline
210
0.0
220
0.0
230
1.0
 70
    24
 71
     2
 72
     6
 73
     3
 74
     0
 42
0.0000000001
 43
0.0000000001
 40
0.0
 40
0.0
 40
0.0
 40
0.0399213772270059
 40
0.0399213772270059
 40
0.0399213772270059
 10
36.21993809513145
 20
7.27755421387638
 30
0.0
 10
36.2202864571819
 20
7.297511862380325
 30
0.0
 10
36.22063481923234
 20
7.317469510884271
 30
0.0
  0
SPLINE
  5
197
330
1F
100
AcDbEntity
  8
Make2D visible lines
100
AcDbSpline
210
0.0
220
0.0
230
1.0
 70
    24
 71
     2
 72
     6
 73
     3
 74
     0
 42
0.0000000001
 43
0.0000000001
 40
0.0
 40
0.0
 40
0.0
 40
0.0399213772270059
 40
0.0399213772270059
 40
0.0399213772270059
 10
38.61923841403721
 20
7.317469510884271
 30
0.0
 10
38.61958677608766
 20
7.297511862380325
 30
0.0
 10
38.6199351381381
 20
7.27755421387638
 30
0.0
  0
SPLINE
  5
198
330
1F
100
AcDbEntity
  8
Default
100
AcDbSpline
210
0.0
220
0.0
230
1.0
 70
    24
 71
     2
 72
     6
 73
     3
 74
     0
 42
0.0000000001
 43
0.0000000001
 40
0.0
 40
0.0
 40
0.0
 40
0.8769692108444929
 40
0.8769692108444929
 40
0.8769692108444929
 10
32.95850042817471
 20
1.840500300039791
 30
0.0
 10
32.95850042817471
 20
2.278984905462037
 30
0.0
 10
32.95850042817471
 20
2.717469510884284
 30
0.0
  0
SPLINE
  5
199
330
1F
100
AcDbEntity
  8
Default
100
AcDbSpline
210
0.0
220
0.0
230
1.0
 70
    12
 71
     2
 72
     6
 73
     3
 74
     0
 42
0.0000000001
 43
0.0000000001
 40
0.0
 40
0.0
 40
0.0
 40
0.061047366478666
 40
0.061047366478666
 40
0.061047366478666
 10
32.95850042817471
 20
2.717469510884284
 30
0.0
 41
1.0
 10
32.958569482643
 20
2.755679029358339
 30
0.0
 41
0.7238690675884838
 10
32.99673832093904
 20
2.757443074048656
 30
0.0
 41
1.0
  0
POLYLINE
  5
19A
330
1F
100
AcDbEntity
  8
Default
100
AcDb2dPolyline
 66
     1
 10
0.0
 20
0.0
 30
0.0
  0
VERTEX
  5
19B
330
19A
100
AcDbEntity
  8
Default
100
AcDbVertex
100
AcDb2dVertex
 10
32.99673832093904
 20
2.757443074048656
 30
0.0
  0
VERTEX
  5
19C
330
19A
100
AcDbEntity
  8
Default
100
AcDbVertex
100
AcDb2dVertex
 10
33.70650042816538
 20
2.757469510884283
 30
0.0
  0
SEQEND
  5
19D
330
19A
100
AcDbEntity
  8
Default
  0
SPLINE
  5
19E
330
1F
100
AcDbEntity
  8
Default
100
AcDbSpline
210
0.0
220
0.0
230
1.0
 70
    12
 71
     2
 72
     6
 73
     3
 74
     0
 42
0.0000000001
 43
0.0000000001
 40
0.0
 40
0.0
 40
0.0
 40
0.0627492515484099
 40
0.0627492515484099
 40
0.0627492515484099
 10
33.70650042816538
 20
2.757469510884283
 30
0.0
 41
1.0
 10
33.74630812923936
 20
2.757277211958212
 30
0.0
 41
0.7105143094883521
 10
33.74650042817471
 20
2.717469510884284
 30
0.0
 41
1.0
  0
SPLINE
  5
19F
330
1F
100
AcDbEntity
  8
Default
100
AcDbSpline
210
0.0
220
0.0
230
1.0
 70
    24
 71
     2
 72
     6
 73
     3
 74
     0
 42
0.0000000001
 43
0.0000000001
 40
0.0
 40
0.0
 40
0.0
 40
0.2133911288261197
 40
0.2133911288261197
 40
0.2133911288261197
 10
33.74650042817471
 20
2.717469510884284
 30
0.0
 10
33.74650042817471
 20
2.610773946471224
 30
0.0
 10
33.74650042817472
 20
2.504078382058164
 30
0.0
  0
SPLINE
  5
1A0
330
1F
100
AcDbEntity
  8
Make2D visible lines
100
AcDbSpline
210
0.0
220
0.0
230
1.0
 70
    24
 71
     2
 72
     6
 73
     3
 74
     0
 42
0.0000000001
 43
0.0000000001
 40
-0.9827469620957527
 40
-0.9827469620957527
 40
-0.9827469620957527
 40
0.0
 40
0.0
 40
0.0
 10
38.72708791604185
 20
6.294872225910884
 30
0.0
 10
38.7185122663381
 20
6.786170868397576
 30
0.0
 10
38.70993661663435
 20
7.277469510884268
 30
0.0
  0
POLYLINE
  5
1A1
330
1F
100
AcDbEntity
  8
Make2D visible lines
100
AcDb2dPolyline
 66
     1
 10
0.0
 20
0.0
 30
0.0
  0
VERTEX
  5
1A2
330
1A1
100
AcDbEntity
  8
Make2D visible lines
100
AcDbVertex
100
AcDb2dVertex
 10
38.70993661663435
 20
7.277469510884268
 30
0.0
  0
VERTEX
  5
1A3
330
1A1
100
AcDbEntity
  8
Make2D visible lines
100
AcDbVertex
100
AcDb2dVertex
 10
36.12993661663522
 20
7.277469510884272
 30
0.0
  0
SEQEND
  5
1A4
330
1A1
100
AcDbEntity
  8
Make2D visible lines
  0
SPLINE
  5
1A5
330
1F
100
AcDbEntity
  8
Make2D visible lines
100
AcDbSpline
210
0.0
220
0.0
230
1.0
 70
    24
 71
     2
 72
     6
 73
     3
 74
     0
 42
0.0000000001
 43
0.0000000001
 40
-0.4258449300514819
 40
-0.4258449300514819
 40
-0.4258449300514819
 40
0.0
 40
0.0
 40
0.0
 10
36.12993661663522
 20
7.277469510884272
 30
0.0
 10
36.12617635649106
 20
7.062603551405641
 30
0.0
 10
36.1224160963469
 20
6.847737591927011
 30
0.0
  0
SPLINE
  5
1A6
330
1F
100
AcDbEntity
  8
Make2D visible lines
100
AcDbSpline
210
0.0
220
0.0
230
1.0
 70
    12
 71
     2
 72
     6
 73
     3
 74
     0
 42
0.0000000001
 43
0.0000000001
 40
0.0
 40
0.0
 40
0.0
 40
0.977584328121768
 40
0.977584328121768
 40
0.977584328121768
 10
36.1224160963469
 20
6.847737591927011
 30
0.0
 41
1.0
 10
36.11846360550869
 20
6.258403667301125
 30
0.0
 41
0.7698935221867936
 10
35.54022906657088
 20
6.153235357691557
 30
0.0
 41
1.0
  0
SPLINE
  5
1A7
330
1F
100
AcDbEntity
  8
Make2D visible lines
100
AcDbSpline
210
0.0
220
0.0
230
1.0
 70
    24
 71
     2
 72
     6
 73
     3
 74
     0
 42
0.0000000001
 43
0.0000000001
 40
0.0
 40
0.0
 40
0.0
 40
11.14055117956391
 40
11.14055117956391
 40
11.14055117956391
 10
35.54022906657088
 20
6.153235357691557
 30
0.0
 10
30.04600461613788
 20
5.228884125920628
 30
0.0
 10
24.55178016570488
 20
4.3045328941497
 30
0.0
  0
SPLINE
  5
1A8
330
1F
100
AcDbEntity
  8
Make2D visible lines
100
AcDbSpline
210
0.0
220
0.0
230
1.0
 70
     8
 71
     3
 72
    14
 73
    10
 74
     0
 42
0.0000000001
 43
0.0000000001
 40
0.0
 40
0.0
 40
0.0
 40
0.0
 40
0.2009292250050245
 40
0.3900776916751833
 40
0.738926480845994
 40
1.049164478402313
 40
1.137757166010446
 40
1.199819143043104
 40
1.855059888109911
 40
1.855059888109911
 40
1.855059888109911
 40
1.855059888109911
 10
24.55178016570488
 20
4.3045328941497
 30
0.0
 10
24.48505520380833
 20
4.293839012187505
 30
0.0
 10
24.36025837573412
 20
4.260829099259649
 30
0.0
 10
24.13599842976741
 20
4.149866990513335
 30
0.0
 10
23.95447958419736
 20
3.920507641793289
 30
0.0
 10
23.90169334906766
 20
3.67222073013666
 30
0.0
 10
23.89227862600295
 20
3.519566596100105
 30
0.0
 10
23.88346692988432
 20
3.25072256146583
 30
0.0
 10
23.87386529169729
 20
3.012152772650674
 30
0.0
 10
23.86625727675771
 20
2.793743024256523
 30
0.0
  0
SPLINE
  5
1A9
330
1F
100
AcDbEntity
  8
Make2D visible lines
100
AcDbSpline
210
0.0
220
0.0
230
1.0
 70
    12
 71
     2
 72
     8
 73
     5
 74
     0
 42
0.0000000001
 43
0.0000000001
 40
0.0
 40
0.0
 40
0.0
 40
0.0281258329950497
 40
0.0281258329950497
 40
0.0562516659900993
 40
0.0562516659900993
 40
0.0562516659900993
 10
23.86625727675771
 20
2.793743024256523
 30
0.0
 41
1.0
 10
23.86571614337901
 20
2.778880890158927
 30
0.0
 41
0.9203594822606724
 10
23.87603913057494
 20
2.76817520052111
 30
0.0
 41
1.0
 10
23.88636211777087
 20
2.757469510883296
 30
0.0
 41
0.9203594822606724
 10
23.90123409999478
 20
2.757469510884281
 30
0.0
 41
1.0
  0
SPLINE
  5
1AA
330
1F
100
AcDbEntity
  8
Make2D visible lines
100
AcDbSpline
210
0.0
220
0.0
230
1.0
 70
    12
 71
     2
 72
     8
 73
     5
 74
     0
 42
0.0000000001
 43
0.0000000001
 40
0.0
 40
0.0
 40
0.0
 40
2.010619298297465
 40
2.010619298297465
 40
4.021238596594936
 40
4.021238596594936
 40
4.021238596594936
 10
25.0172803570948
 20
-0.002530489115717
 30
0.0
 41
1.0
 10
23.73728035709479
 20
-0.0025304891157141
 30
0.0
 41
0.7071067811865468
 10
23.7372803570948
 20
1.277469510884284
 30
0.0
 41
1.0
 10
23.7372803570948
 20
2.557469510884288
 30
0.0
 41
0.7071067811865471
 10
25.0172803570948
 20
2.557469510884287
 30
0.0
 41
1.0
  0
SPLINE
  5
1AB
330
1F
100
AcDbEntity
  8
Make2D visible lines - Tangent
100
AcDbSpline
210
0.0
220
0.0
230
1.0
 70
    12
 71
     2
 72
     8
 73
     5
 74
     0
 42
0.0000000001
 43
0.0000000001
 40
0.0
 40
0.0
 40
0.0
 40
0.3253370284247422
 40
0.3253370284247422
 40
9.403473663300316
 40
9.403473663300316
 40
9.403473663300316
 10
38.69379990104821
 20
6.348675053685307
 30
0.0
 41
1.0
 10
38.77448853708316
 20
6.195302024318955
 30
0.0
 41
0.9103553742893397
 10
38.94281349332779
 20
6.154044413241913
 30
0.0
 41
0.9999882185796083
 10
43.38665368252123
 20
5.229288653695787
 30
0.0
 41
0.9999882185796083
 10
47.92489694548375
 20
4.282447040450448
 30
0.0
 41
0.9999882185796083
  0
SPLINE
  5
1AC
330
1F
100
AcDbEntity
  8
Make2D visible lines - Tangent
100
AcDbSpline
210
0.0
220
0.0
230
1.0
 70
     8
 71
     3
 72
    13
 73
     9
 74
     0
 42
0.0000000001
 43
0.0000000001
 40
0.0
 40
0.0
 40
0.0
 40
0.0
 40
0.1566065189818115
 40
0.3091157047045195
 40
0.6293465835033908
 40
0.9251044512314791
 40
1.003042613551681
 40
1.701534992922182
 40
1.701534992922182
 40
1.701534992922182
 40
1.701534992922182
 10
47.92489694548375
 20
4.28244704045045
 30
0.0
 10
47.97503789700284
 20
4.266836115006011
 30
0.0
 10
48.06922755449084
 20
4.226120546708403
 30
0.0
 10
48.24040465527253
 20
4.098894501420725
 30
0.0
 10
48.37138848013602
 20
3.871955586619443
 30
0.0
 10
48.41520487961722
 20
3.642875371319086
 30
0.0
 10
48.43618527895504
 20
3.286241395056477
 30
0.0
 10
48.44400302005236
 20
3.027358610854956
 30
0.0
 10
48.45890174768662
 20
2.79476676941459
 30
0.0
  0
SPLINE
  5
1AD
330
1F
100
AcDbEntity
  8
Make2D visible lines - Tangent
100
AcDbSpline
210
0.0
220
0.0
230
1.0
 70
    12
 71
     2
 72
     8
 73
     5
 74
     0
 42
0.0000000001
 43
0.0000000001
 40
0.0
 40
0.0
 40
0.0
 40
0.0284675552628037
 40
0.0284675552628037
 40
0.0569351105256074
 40
0.0569351105256074
 40
0.0569351105256074
 10
48.45890174768662
 20
2.79476676941459
 30
0.0
 41
1.0
 10
48.45972585224732
 20
2.779449970656164
 30
0.0
 41
0.919080792879801
 10
48.44938503682303
 20
2.768491856120882
 30
0.0
 41
1.0
 10
48.43904422139875
 20
2.757533741585603
 30
0.0
 41
0.919080792879801
 10
48.42397741642132
 20
2.757469510907711
 30
0.0
 41
1.0
  0
SPLINE
  5
1AE
330
1F
100
AcDbEntity
  8
Make2D visible lines - Tangent
100
AcDbSpline
210
0.0
220
0.0
230
1.0
 70
    12
 71
     2
 72
     8
 73
     5
 74
     0
 42
0.0000000001
 43
0.0000000001
 40
0.0
 40
0.0
 40
0.0
 40
1.520766455445226
 40
1.520766455445226
 40
3.041532910890458
 40
3.041532910890458
 40
3.041532910890458
 10
34.11234416863682
 20
2.245619505574082
 30
0.0
 41
1.0
 10
33.144194173947
 20
2.245619505574067
 30
0.0
 41
0.7071067811865557
 10
33.14419417394702
 20
1.277469510884282
 30
0.0
 41
1.0
 10
33.14419417394704
 20
0.3093195161945007
 30
0.0
 41
0.7071067811865631
 10
34.11234416863682
 20
0.3093195161944724
 30
0.0
 41
1.0
  0
SPLINE
  5
1AF
330
1F
100
AcDbEntity
  8
Default
100
AcDbSpline
210
0.0
220
0.0
230
1.0
 70
     8
 71
     3
 72
    11
 73
     7
 74
     0
 42
0.0000000001
 43
0.0000000001
 40
-3.23693309777242
 40
-3.23693309777242
 40
-3.23693309777242
 40
-3.23693309777242
 40
-3.132310362624433
 40
-3.011080897647895
 40
-1.234264891972177
 40
0.0
 40
0.0
 40
0.0
 40
0.0
 10
33.78179501596175
 20
3.168828844384329
 30
0.0
 10
33.80854077226732
 20
3.189537036726856
 30
0.0
 10
33.87028634603135
 20
3.237901553797855
 30
0.0
 10
34.5119058409408
 20
3.42260343432415
 30
0.0
 10
35.51809039784054
 20
3.700986156414013
 30
0.0
 10
36.48587860861123
 20
3.96731351972532
 30
0.0
 10
36.88335419506235
 20
4.073470074332633
 30
0.0
  0
ARC
  5
1B0
330
1F
100
AcDbEntity
  8
Default
100
AcDbCircle
 10
37.53815108827587
 20
1.621753549628457
 30
0.0
 40
2.537651057350004
100
AcDbArc
 50
95.34616773553827
 51
104.9533600631068
  0
SPLINE
  5
1B1
330
1F
100
AcDbEntity
  8
Default
100
AcDbSpline
210
0.0
220
0.0
230
1.0
 70
     8
 71
     3
 72
     8
 73
     4
 74
     0
 42
0.0000000001
 43
0.0000000001
 40
0.0
 40
0.0
 40
0.0
 40
0.0
 40
1.0
 40
1.0
 40
1.0
 40
1.0
 10
37.30171080185389
 20
4.148365684449765
 30
0.0
 10
37.49844585758544
 20
4.166776144957467
 30
0.0
 10
37.69683536340547
 20
4.187998313985108
 30
0.0
 10
37.8939375870421
 20
4.17405770254593
 30
0.0
  0
ARC
  5
1B2
330
1F
100
AcDbEntity
  8
Default
100
AcDbCircle
 10
35.34430537537929
 20
-31.8744456623823
 30
0.0
 40
36.13855585473762
100
AcDbArc
 50
83.85567458097645
 51
85.954331250513
  0
SPLINE
  5
1B3
330
1F
100
AcDbEntity
  8
Default
100
AcDbSpline
210
0.0
220
0.0
230
1.0
 70
     8
 71
     3
 72
    14
 73
    10
 74
     0
 42
0.0000000001
 43
0.0000000001
 40
-8.204530470148132
 40
-8.204530470148132
 40
-8.204530470148132
 40
-8.204530470148132
 40
-4.787868609135582
 40
-1.282026189816285
 40
-0.9685074939250532
 40
-0.751754173128408
 40
-0.3313090765086819
 40
-0.1541283884282293
 40
-0.0000000000000001
 40
-0.0000000000000001
 40
-0.0000000000000001
 40
-0.0000000000000001
 10
39.21233367521972
 20
4.056510021228789
 30
0.0
 10
40.34467544811376
 20
3.934611509504986
 30
0.0
 10
42.6389182024722
 20
3.687498582807454
 30
0.0
 10
45.03691926582668
 20
3.428098672638365
 30
0.0
 10
46.37453336735936
 20
3.28363990188986
 30
0.0
 10
46.68966194702746
 20
3.250509617526772
 30
0.0
 10
46.9583654879672
 20
3.209748300138049
 30
0.0
 10
47.20149216430681
 20
3.148036722288593
 30
0.0
 10
47.30614967979817
 20
3.112619906425849
 30
0.0
 10
47.35382299092068
 20
3.093393715035839
 30
0.0
  0
SPLINE
  5
1B4
330
1F
100
AcDbEntity
  8
Default
100
AcDbSpline
210
0.0
220
0.0
230
1.0
 70
    12
 71
     3
 72
    14
 73
    10
 74
     0
 42
0.0000000001
 43
0.0000000001
 40
-0.4850350027423287
 40
-0.4850350027423287
 40
-0.4850350027423287
 40
-0.4850350027423287
 40
-0.2503328357454272
 40
-0.2049997550560486
 40
-0.1554078339195929
 40
-0.0419729879099941
 40
-0.0419729879099941
 40
-0.0419729879099941
 40
0.0
 40
0.0
 40
0.0
 40
0.0
 10
47.35382299092068
 20
3.093393715035839
 30
0.0
 41
1.0
 10
47.4254111083099
 20
3.064522910517169
 30
0.0
 41
1.0
 10
47.53085246355374
 20
3.013636361900643
 30
0.0
 41
1.0
 10
47.60275165853915
 20
2.929580331268372
 30
0.0
 41
1.0
 10
47.63794231702214
 20
2.869548476682597
 30
0.0
 41
1.0
 10
47.6583705097753
 20
2.818976462343056
 30
0.0
 41
1.0
 10
47.67014591459949
 20
2.779846612439799
 30
0.0
 41
1.0
 10
47.67554195678769
 20
2.765962886670473
 30
0.0
 41
0.8842711137923068
 10
47.68781884316973
 20
2.757527652631215
 30
0.0
 41
0.8842711137923068
 10
47.70271420258435
 20
2.757469511042819
 30
0.0
 41
1.0
  0
SPLINE
  5
1B5
330
1F
100
AcDbEntity
  8
Make2D visible lines - Tangent
100
AcDbSpline
210
0.0
220
0.0
230
1.0
 70
    12
 71
     2
 72
     8
 73
     5
 74
     0
 42
0.0000000001
 43
0.0000000001
 40
0.0
 40
0.0
 40
0.0
 40
1.520766455445231
 40
1.520766455445231
 40
3.04153291089047
 40
3.04153291089047
 40
3.04153291089047
 10
25.0172803570948
 20
0.3093195161944848
 30
0.0
 41
1.0
 10
25.98543035178461
 20
0.3093195161944839
 30
0.0
 41
0.7071067811865446
 10
25.9854303517846
 20
1.277469510884284
 30
0.0
 41
1.0
 10
25.98543035178459
 20
2.245619505574089
 30
0.0
 41
0.707106781186544
 10
25.0172803570948
 20
2.245619505574089
 30
0.0
 41
1.0
  0
SPLINE
  5
1B6
330
1F
100
AcDbEntity
  8
Make2D visible lines
100
AcDbSpline
210
0.0
220
0.0
230
1.0
 70
    12
 71
     2
 72
     6
 73
     3
 74
     0
 42
0.0000000001
 43
0.0000000001
 40
0.0
 40
0.0
 40
0.0
 40
0.1139471155232706
 40
0.1139471155232706
 40
0.1139471155232706
 10
36.1186077700481
 20
8.456526645323132
 30
0.0
 41
1.0
 10
36.11876324441177
 20
8.399553025714754
 30
0.0
 41
0.9999927866500362
 10
36.11935151044142
 20
8.342582231033301
 30
0.0
 41
1.0
  0
SPLINE
  5
1B7
330
1F
100
AcDbEntity
  8
Make2D visible lines
100
AcDbSpline
210
0.0
220
0.0
230
1.0
 70
    24
 71
     2
 72
     6
 73
     3
 74
     0
 42
0.0000000001
 43
0.0000000001
 40
0.0
 40
0.0
 40
0.0
 40
0.112599937293033
 40
0.112599937293033
 40
0.112599937293033
 10
38.70993661663509
 20
7.317469510884258
 30
0.0
 10
38.71051792771181
 20
7.373766478360587
 30
0.0
 10
38.71109923878852
 20
7.430063445836916
 30
0.0
  0
SPLINE
  5
1B8
330
1F
100
AcDbEntity
  8
Make2D visible lines
100
AcDbSpline
210
0.0
220
0.0
230
1.0
 70
    24
 71
     2
 72
     6
 73
     3
 74
     0
 42
0.0000000001
 43
0.0000000001
 40
0.0
 40
0.0
 40
0.0
 40
1.025167281498075
 40
1.025167281498075
 40
1.025167281498075
 10
36.11935151133964
 20
8.342582144012955
 30
0.0
 10
36.12464406398706
 20
7.830025827448607
 30
0.0
 10
36.12993661663448
 20
7.317469510884258
 30
0.0
  0
SPLINE
  5
1B9
330
1F
100
AcDbEntity
  8
Make2D visible lines
100
AcDbSpline
210
0.0
220
0.0
230
1.0
 70
    12
 71
     2
 72
     6
 73
     3
 74
     0
 42
0.0000000001
 43
0.0000000001
 40
0.0
 40
0.0
 40
0.0
 40
4.969299551361565
 40
4.969299551361565
 40
4.969299551361565
 10
43.66135042298468
 20
11.40833819077751
 30
0.0
 41
1.0
 10
41.35797406880123
 20
10.47670420512714
 30
0.0
 41
0.9999999994587758
 10
39.0538748661464
 20
9.544956562995695
 30
0.0
 41
1.0
  0
SPLINE
  5
1BA
330
1F
100
AcDbEntity
  8
Make2D visible lines
100
AcDbSpline
210
0.0
220
0.0
230
1.0
 70
    12
 71
     2
 72
     8
 73
     5
 74
     0
 42
0.0000000001
 43
0.0000000001
 40
0.0
 40
0.0
 40
0.0
 40
0.2369381088234469
 40
0.2369381088234469
 40
0.4738762176468938
 40
0.4738762176468938
 40
0.4738762176468938
 10
39.0538748661464
 20
9.544956562995695
 30
0.0
 41
1.0
 10
38.93404172982221
 20
9.497462892303949
 30
0.0
 41
0.8900494139534328
 10
38.82607563926913
 20
9.566569449984234
 30
0.0
 41
1.0
 10
38.71810954871607
 20
9.635676007664516
 30
0.0
 41
0.8900494139534328
 10
38.7109195176227
 20
9.76934320178802
 30
0.0
 41
1.0
  0
SPLINE
  5
1BB
330
1F
100
AcDbEntity
  8
Make2D visible lines
100
AcDbSpline
210
0.0
220
0.0
230
1.0
 70
    24
 71
     2
 72
     6
 73
     3
 74
     0
 42
0.0000000001
 43
0.0000000001
 40
0.0
 40
0.0
 40
0.0
 40
0.092459499146895
 40
0.092459499146895
 40
0.092459499146895
 10
38.7109195176227
 20
9.76934320178802
 30
0.0
 10
38.70912352515627
 20
9.818406356336155
 30
0.0
 10
38.70732753268985
 20
9.867469510884291
 30
0.0
  0
LINE
  5
1BC
330
1F
100
AcDbEntity
  8
Make2D visible lines
100
AcDbLine
 10
38.70732753268985
 20
9.867469510884291
 30
0.0
 11
36.28323093925282
 21
9.867469510884291
 31
0.0
  0
SPLINE
  5
1BD
330
1F
100
AcDbEntity
  8
Make2D visible lines
100
AcDbSpline
210
0.0
220
0.0
230
1.0
 70
    24
 71
     2
 72
     6
 73
     3
 74
     0
 42
0.0000000001
 43
0.0000000001
 40
0.0
 40
0.0
 40
0.0
 40
1.28478183211061
 40
1.28478183211061
 40
1.28478183211061
 10
37.41993661663479
 20
7.317469510884273
 30
0.0
 10
36.77754570057948
 20
7.317469510884273
 30
0.0
 10
36.13515478452418
 20
7.317469510884273
 30
0.0
  0
SPLINE
  5
1BE
330
1F
100
AcDbEntity
  8
Make2D visible lines
100
AcDbSpline
210
0.0
220
0.0
230
1.0
 70
    28
 71
     2
 72
     8
 73
     5
 74
     0
 42
0.0000000001
 43
0.0000000001
 40
-2.152972715413255
 40
-2.152972715413255
 40
-2.152972715413255
 40
-2.026327261565417
 40
-2.026327261565417
 40
0.0
 40
0.0
 40
0.0
 10
38.70471844874539
 20
7.317469510884272
 30
0.0
 41
0.9656765759202985
 10
38.70993661663479
 20
7.317469510884273
 30
0.0
 41
0.9816941738241592
 10
38.70993661663479
 20
7.317469510884273
 30
0.0
 41
1.0
 10
38.70993661663479
 20
7.317469510884272
 30
0.0
 41
0.7071067811865476
 10
37.41993661663479
 20
7.317469510884273
 30
0.0
 41
1.0
  0
SPLINE
  5
1BF
330
1F
100
AcDbEntity
  8
Make2D visible lines
100
AcDbSpline
210
0.0
220
0.0
230
1.0
 70
    12
 71
     2
 72
     6
 73
     3
 74
     0
 42
0.0000000001
 43
0.0000000001
 40
0.0
 40
0.0
 40
0.0
 40
0.8127150281096842
 40
0.8127150281096842
 40
0.8127150281096842
 10
39.11694012730676
 20
8.08854311199125
 30
0.0
 41
1.0
 10
38.71575671242811
 20
7.881498730496157
 30
0.0
 41
0.8566678452191085
 10
38.71109668534172
 20
7.43006347220329
 30
0.0
 41
1.0
  0
SPLINE
  5
1C0
330
1F
100
AcDbEntity
  8
Make2D visible lines - Tangent
100
AcDbSpline
210
0.0
220
0.0
230
1.0
 70
    12
 71
     2
 72
    10
 73
     7
 74
     0
 42
0.0000000001
 43
0.0000000001
 40
0.0
 40
0.0
 40
0.0
 40
0.036780884482198
 40
0.036780884482198
 40
0.0785663750001306
 40
0.0785663750001306
 40
0.1265652217040752
 40
0.1265652217040752
 40
0.1265652217040752
 10
36.98423331644818
 20
9.11099402486544
 30
0.0
 41
1.0
 10
36.98739699643293
 20
9.092872592288689
 30
0.0
 41
0.9995859284274482
 10
36.98951299914333
 20
9.074599176565043
 30
0.0
 41
1.0
 10
36.99190959556052
 20
9.053839532889246
 30
0.0
 41
0.999657073279319
 10
36.99321603071533
 20
9.032982886295912
 30
0.0
 41
1.0
 10
36.99470757360181
 20
9.009026328176088
 30
0.0
 41
0.9997799275259601
 10
36.99519288061855
 20
8.985028289626445
 30
0.0
 41
1.0
  0
SPLINE
  5
1C1
330
1F
100
AcDbEntity
  8
Make2D visible lines - Tangent
100
AcDbSpline
210
0.0
220
0.0
230
1.0
 70
    12
 71
     2
 72
    36
 73
    33
 74
     0
 42
0.0000000001
 43
0.0000000001
 40
0.0
 40
0.0
 40
0.0
 40
0.0207278195486716
 40
0.0207278195486716
 40
0.0447609852077238
 40
0.0447609852077238
 40
0.0660642124248079
 40
0.0660642124248079
 40
0.0847694714969161
 40
0.0847694714969161
 40
0.101788701148515
 40
0.101788701148515
 40
0.1183131468167998
 40
0.1183131468167998
 40
0.1355240290901271
 40
0.1355240290901271
 40
0.1544562824522833
 40
0.1544562824522833
 40
0.1758277246372123
 40
0.1758277246372123
 40
0.1997540769519208
 40
0.1997540769519208
 40
0.2264299923083884
 40
0.2264299923083884
 40
0.2563513658433622
 40
0.2563513658433622
 40
0.2903216356134053
 40
0.2903216356134053
 40
0.3291822137306459
 40
0.3291822137306459
 40
0.3725145395906161
 40
0.3725145395906161
 40
0.4185535150399717
 40
0.4185535150399717
 40
0.4185535150399717
 10
36.78066577229102
 20
9.466320152316777
 30
0.0
 41
1.0
 10
36.78872460719796
 20
9.459801437573981
 30
0.0
 41
0.9998056818439512
 10
36.79652022315717
 20
9.452970124832511
 30
0.0
 41
1.0
 10
36.80555917636921
 20
9.445049120505708
 30
0.0
 41
0.9997574049011436
 10
36.8142405127826
 20
9.43673771973376
 30
0.0
 41
1.0
 10
36.82193574937115
 20
9.429371067998288
 30
0.0
 41
0.9998192371356499
 10
36.82934534917985
 20
9.421717176529228
 30
0.0
 41
1.0
 10
36.83585129920597
 20
9.414997053759844
 30
0.0
 41
0.9998649239449685
 10
36.84213286360554
 20
9.408066730212417
 30
0.0
 41
1.0
 10
36.84784823117896
 20
9.401761275785976
 30
0.0
 41
0.9998898408798503
 10
36.85337392102063
 20
9.395288955197739
 30
0.0
 41
1.0
 10
36.85874016617275
 20
9.389005808311168
 30
0.0
 41
0.9998879994950548
 10
36.86391595821335
 20
9.382564869048664
 30
0.0
 41
1.0
 10
36.86930527940002
 20
9.375855095388712
 30
0.0
 41
0.9998761745574073
 10
36.87448078165571
 20
9.368979048426807
 30
0.0
 41
1.0
 10
36.88017424839945
 20
9.361415374365622
 30
0.0
 41
0.9998562790121603
 10
36.88560801758791
 20
9.353663027542071
 30
0.0
 41
1.0
 10
36.89174191464247
 20
9.344911629283738
 30
0.0
 41
0.9998225042559923
 10
36.8975417562844
 20
9.335935354918492
 30
0.0
 41
1.0
 10
36.90403507344685
 20
9.325885698238938
 30
0.0
 41
0.999784241260799
 10
36.91010537684328
 20
9.315575015243892
 30
0.0
 41
1.0
 10
36.91687349719096
 20
9.304079119947277
 30
0.0
 41
0.9997389322376274
 10
36.92310935317956
 20
9.292286021889488
 30
0.0
 41
1.0
 10
36.93010361839663
 20
9.27905736349466
 30
0.0
 41
0.9996817975717703
 10
36.93642180764753
 20
9.265492790761124
 30
0.0
 41
1.0
 10
36.94359897992798
 20
9.250093314065465
 30
0.0
 41
0.9995819943092834
 10
36.94987410291854
 20
9.23430475757994
 30
0.0
 41
1.0
 10
36.95704908532267
 20
9.21624009251742
 30
0.0
 41
0.9994513777016976
 10
36.9630123746734
 20
9.197740047208292
 30
0.0
 41
1.0
 10
36.96965824270251
 20
9.17710877234137
 30
0.0
 41
0.9993703027586827
 10
36.97482420569997
 20
9.156058121738509
 30
0.0
 41
1.0
 10
36.98030705291885
 20
9.133691688849282
 30
0.0
 41
0.9994030095476978
 10
36.98423226382499
 20
9.111000024010494
 30
0.0
 41
1.0
  0
SPLINE
  5
1C2
330
1F
100
AcDbEntity
  8
Make2D visible lines
100
AcDbSpline
210
0.0
220
0.0
230
1.0
 70
    12
 71
     2
 72
     6
 73
     3
 74
     0
 42
0.0000000001
 43
0.0000000001
 40
0.0
 40
0.0
 40
0.0
 40
0.0016458492352807
 40
0.0016458492352807
 40
0.0016458492352807
 10
38.71080924634281
 20
9.770998438758944
 30
0.0
 41
1.0
 10
38.71078918860818
 20
9.771821121892975
 30
0.0
 41
0.9999945451705072
 10
38.71077456588159
 20
9.772643919576252
 30
0.0
 41
1.0
  0
SPLINE
  5
1C3
330
1F
100
AcDbEntity
  8
Make2D visible lines
100
AcDbSpline
210
0.0
220
0.0
230
1.0
 70
    12
 71
     2
 72
     6
 73
     3
 74
     0
 42
0.0000000001
 43
0.0000000001
 40
0.0
 40
0.0
 40
0.0
 40
3.092011503542182
 40
3.092011503542182
 40
3.092011503542182
 10
36.78012223211884
 20
9.466758779824332
 30
0.0
 41
1.0
 10
35.57662022850921
 20
10.43717975108787
 30
0.0
 41
0.9999999530410956
 10
34.37371324159126
 20
11.4083381907789
 30
0.0
 41
1.0
  0
SPLINE
  5
1C4
330
1F
100
AcDbEntity
  8
Make2D visible lines - Tangent
100
AcDbSpline
210
0.0
220
0.0
230
1.0
 70
    12
 71
     2
 72
     6
 73
     3
 74
     0
 42
0.0000000001
 43
0.0000000001
 40
0.0
 40
0.0
 40
0.0
 40
0.1189580718783975
 40
0.1189580718783975
 40
0.1189580718783975
 10
-0.8425687153118488
 20
22.93323055110456
 30
0.0
 41
1.0
 10
-0.902047605254034
 20
22.93336285270265
 30
0.0
 41
0.9999999711234281
 10
-0.9615264247369044
 20
22.93352374207987
 30
0.0
 41
1.0
  0
SPLINE
  5
1C5
330
1F
100
AcDbEntity
  8
Make2D visible lines - Tangent
100
AcDbSpline
210
0.0
220
0.0
230
1.0
 70
    12
 71
     2
 72
     6
 73
     3
 74
     0
 42
0.0000000001
 43
0.0000000001
 40
0.0
 40
0.0
 40
0.0
 40
0.108041166178154
 40
0.108041166178154
 40
0.108041166178154
 10
0.8501839326224356
 20
22.93324773581939
 30
0.0
 41
1.0
 10
0.9042043792921445
 20
22.93336952232137
 30
0.0
 41
0.9999999760822954
 10
0.958224767521072
 20
22.93351493876697
 30
0.0
 41
1.0
  0
SPLINE
  5
1C6
330
1F
100
AcDbEntity
  8
Make2D visible lines
100
AcDbSpline
210
0.0
220
0.0
230
1.0
 70
     8
 71
     3
 72
    16
 73
    12
 74
     0
 42
0.0000000001
 43
0.0000000001
 40
0.0
 40
0.0
 40
0.0
 40
0.0
 40
1.00258309120359
 40
2.00516618240718
 40
3.007749273610769
 40
4.010332364814359
 40
5.012915456017948
 40
6.015498547221538
 40
7.018081638425128
 40
8.020664729628718
 40
9.0
 40
9.0
 40
9.0
 40
9.0
 10
-7.861791163652551
 20
26.2700556493836
 30
0.0
 10
-7.889420376289145
 20
26.14972545062506
 30
0.0
 10
-7.943359467580027
 20
25.90876287318025
 30
0.0
 10
-8.019685037281622
 20
25.54631495528183
 30
0.0
 10
-8.091218369617202
 20
25.18291437865052
 30
0.0
 10
-8.160566872259878
 20
24.81902631364433
 30
0.0
 10
-8.22903474323871
 20
24.45523656480193
 30
0.0
 10
-8.28386648022412
 20
24.0879741029446
 30
0.0
 10
-8.317154212428672
 20
23.72202219897823
 30
0.0
 10
-8.31912487931329
 20
23.34249267020664
 30
0.0
 10
-8.15120144569504
 20
23.14109948556196
 30
0.0
 10
-8.036879167071238
 20
23.09685796888391
 30
0.0
  0
SPLINE
  5
1C7
330
1F
100
AcDbEntity
  8
Make2D visible lines
100
AcDbSpline
210
0.0
220
0.0
230
1.0
 70
     8
 71
     3
 72
    16
 73
    12
 74
     0
 42
0.0000000001
 43
0.0000000001
 40
-9.0
 40
-9.0
 40
-9.0
 40
-9.0
 40
-8.027903846492539
 40
-7.024415865680972
 40
-6.020927884869404
 40
-5.017439904057837
 40
-4.013951923246269
 40
-3.010463942434702
 40
-2.006975961623135
 40
-1.003487980811567
 40
0.0
 40
0.0
 40
0.0
 40
0.0
 10
-8.036879167071238
 20
23.09685796888391
 30
0.0
 10
-7.953662092501197
 20
23.06207457579239
 30
0.0
 10
-7.772817056515759
 20
23.02899723960721
 30
0.0
 10
-7.498243242069396
 20
23.00689639868524
 30
0.0
 10
-7.219772888617381
 20
22.99781401422365
 30
0.0
 10
-6.941316468999005
 20
22.99363441923871
 30
0.0
 10
-6.662806598070501
 20
22.99188202431214
 30
0.0
 10
-6.384302082076651
 20
22.99107894163031
 30
0.0
 10
-6.105795993474839
 20
22.98973556841963
 30
0.0
 10
-5.827307816996077
 20
22.98632045154346
 30
0.0
 10
-5.64166085412759
 20
22.9832801751068
 30
0.0
 10
-5.548837868990859
 20
22.98173422115739
 30
0.0
  0
SPLINE
  5
1C8
330
1F
100
AcDbEntity
  8
Make2D visible lines
100
AcDbSpline
210
0.0
220
0.0
230
1.0
 70
     8
 71
     3
 72
    16
 73
    12
 74
     0
 42
0.0000000001
 43
0.0000000001
 40
0.0
 40
0.0
 40
0.0
 40
0.0
 40
1.00258309120359
 40
2.00516618240718
 40
3.007749273610769
 40
4.010332364814359
 40
5.012915456017948
 40
6.015498547221538
 40
7.018081638425128
 40
8.020664729628718
 40
9.0
 40
9.0
 40
9.0
 40
9.0
 10
7.861791163652551
 20
26.2700556493836
 30
0.0
 10
7.889420376289145
 20
26.14972545062506
 30
0.0
 10
7.943359467580027
 20
25.90876287318025
 30
0.0
 10
8.019685037281622
 20
25.54631495528183
 30
0.0
 10
8.091218369617202
 20
25.18291437865052
 30
0.0
 10
8.160566872259878
 20
24.81902631364433
 30
0.0
 10
8.22903474323871
 20
24.45523656480193
 30
0.0
 10
8.28386648022412
 20
24.0879741029446
 30
0.0
 10
8.317154212428672
 20
23.72202219897823
 30
0.0
 10
8.31912487931329
 20
23.34249267020664
 30
0.0
 10
8.15120144569504
 20
23.14109948556196
 30
0.0
 10
8.036879167071238
 20
23.09685796888391
 30
0.0
  0
SPLINE
  5
1C9
330
1F
100
AcDbEntity
  8
Make2D visible lines
100
AcDbSpline
210
0.0
220
0.0
230
1.0
 70
     8
 71
     3
 72
    16
 73
    12
 74
     0
 42
0.0000000001
 43
0.0000000001
 40
-9.0
 40
-9.0
 40
-9.0
 40
-9.0
 40
-8.027903846492539
 40
-7.024415865680972
 40
-6.020927884869404
 40
-5.017439904057837
 40
-4.013951923246269
 40
-3.010463942434702
 40
-2.006975961623135
 40
-1.003487980811567
 40
0.0
 40
0.0
 40
0.0
 40
0.0
 10
8.036879167071238
 20
23.09685796888391
 30
0.0
 10
7.953662092501197
 20
23.06207457579239
 30
0.0
 10
7.772817056515759
 20
23.02899723960721
 30
0.0
 10
7.498243242069396
 20
23.00689639868524
 30
0.0
 10
7.219772888617381
 20
22.99781401422365
 30
0.0
 10
6.941316468999005
 20
22.99363441923871
 30
0.0
 10
6.662806598070501
 20
22.99188202431214
 30
0.0
 10
6.384302082076651
 20
22.99107894163031
 30
0.0
 10
6.105795993474839
 20
22.98973556841963
 30
0.0
 10
5.827307816996077
 20
22.98632045154346
 30
0.0
 10
5.64166085412759
 20
22.9832801751068
 30
0.0
 10
5.548837868990859
 20
22.98173422115739
 30
0.0
  0
SPLINE
  5
1CA
330
1F
100
AcDbEntity
  8
Make2D visible lines
100
AcDbSpline
210
0.0
220
0.0
230
1.0
 70
     8
 71
     3
 72
    16
 73
    12
 74
     0
 42
0.0000000001
 43
0.0000000001
 40
0.0
 40
0.0
 40
0.0
 40
0.0
 40
1.0
 40
2.0
 40
3.0
 40
4.0
 40
5.0
 40
6.0
 40
7.0
 40
8.0
 40
9.0
 40
9.0
 40
9.0
 40
9.0
 10
-5.541037182042748
 20
22.98159781583477
 30
0.0
 10
-5.130645056641064
 20
22.97379709635527
 30
0.0
 10
-4.30983291346409
 20
22.95874502767681
 30
0.0
 10
-3.078412153042076
 20
22.95524123921349
 30
0.0
 10
-1.847136749290853
 20
22.93604006496442
 30
0.0
 10
-0.6157211532640989
 20
22.93239714775328
 30
0.0
 10
0.6156765581287544
 20
22.93239969615212
 30
0.0
 10
1.847091347373333
 20
22.93613422246661
 30
0.0
 10
3.078367115558889
 20
22.95521367298043
 30
0.0
 10
4.309787740600505
 20
22.95891827872693
 30
0.0
 10
5.130600292520372
 20
22.97378800368061
 30
0.0
 10
5.540992713433077
 20
22.98159781583477
 30
0.0
  0
SPLINE
  5
1CB
330
1F
100
AcDbEntity
  8
Make2D visible lines
100
AcDbSpline
210
0.0
220
0.0
230
1.0
 70
    12
 71
     3
 72
    13
 73
     9
 74
     0
 42
0.0000000001
 43
0.0000000001
 40
0.0
 40
0.0
 40
0.0
 40
0.0
 40
1.053335442547121
 40
1.053335442547121
 40
1.053335442547121
 40
2.053335442547121
 40
3.053335442547121
 40
4.053335442547121
 40
4.053335442547121
 40
4.053335442547121
 40
4.053335442547121
 10
-7.471626943140972
 20
23.00774208769507
 30
0.0
 41
1.0
 10
-7.471701847087928
 20
23.35885389388968
 30
0.0
 41
0.999999999988567
 10
-7.471769859872029
 20
23.71012104220618
 30
0.0
 41
0.999999999988567
 10
-7.471830981493271
 20
24.06154353263252
 30
0.0
 41
1.0
 10
-7.471755651344607
 20
24.13591629623206
 30
0.0
 41
1.0
 10
-7.438215317333994
 20
24.28356465271447
 30
0.0
 41
1.0
 10
-7.298331584257884
 20
24.46253613711306
 30
0.0
 41
1.0
 10
-7.163372651895152
 20
24.53082070773626
 30
0.0
 41
1.0
 10
-7.085992096008079
 20
24.55196566902352
 30
0.0
 41
1.0
  0
SPLINE
  5
1CC
330
1F
100
AcDbEntity
  8
Make2D visible lines
100
AcDbSpline
210
0.0
220
0.0
230
1.0
 70
     8
 71
     3
 72
    24
 73
    20
 74
     0
 42
0.0000000001
 43
0.0000000001
 40
0.0
 40
0.0
 40
0.0
 40
0.0
 40
0.4756204116735477
 40
1.037874145811131
 40
1.751547460034968
 40
2.579212799338552
 40
3.533919572654042
 40
4.599922209386605
 40
7.10655874517638
 40
7.10655874517638
 40
7.10655874517638
 40
8.422990800458749
 40
9.613199772756646
 40
10.67920240948794
 40
11.63390918280298
 40
12.46157863514173
 40
13.17525002288431
 40
13.7374633978668
 40
14.21310373438742
 40
14.21310373438742
 40
14.21310373438742
 40
14.21310373438742
 10
-7.085992096008079
 20
24.55196566902352
 30
0.0
 10
-6.926801420977387
 20
24.59505898498159
 30
0.0
 10
-6.588630436516767
 20
24.66933277132838
 30
0.0
 10
-6.010962800605741
 20
24.75554163866195
 30
0.0
 10
-5.313222061531506
 20
24.82633132523408
 30
0.0
 10
-4.483386495938926
 20
24.88713000546374
 30
0.0
 10
-3.534956328644164
 20
24.93283138066424
 30
0.0
 10
-2.026521398766856
 20
24.97912749451129
 30
0.0
 10
-0.8355474206185072
 20
24.98861976431094
 30
0.0
 10
-0.0000244801994604
 20
24.98884349464055
 30
0.0
 10
0.4387932943635775
 20
24.98891262258045
 30
0.0
 10
1.274329044032367
 20
24.98495047152199
 30
0.0
 10
2.46509741057154
 20
24.96576332894949
 30
0.0
 10
3.534907883724724
 20
24.93278568794677
 30
0.0
 10
4.483344291745443
 20
24.88714594145501
 30
0.0
 10
5.313181481671588
 20
24.82633765451049
 30
0.0
 10
6.010909866609783
 20
24.75556305843717
 30
0.0
 10
6.588567455011036
 20
24.66932317078147
 30
0.0
 10
6.926729275314937
 20
24.59505683427185
 30
0.0
 10
7.08575296545863
 20
24.55202099073102
 30
0.0
  0
SPLINE
  5
1CD
330
1F
100
AcDbEntity
  8
Make2D visible lines
100
AcDbSpline
210
0.0
220
0.0
230
1.0
 70
    12
 71
     3
 72
    16
 73
    12
 74
     0
 42
0.0000000001
 43
0.0000000001
 40
0.0
 40
0.0
 40
0.0
 40
0.0
 40
0.0003868506854388
 40
0.0003868506854388
 40
0.0003868506854388
 40
1.000386817650529
 40
2.000386834167984
 40
3.000386850685439
 40
3.000386850685439
 40
3.000386850685439
 40
4.053722138827087
 40
4.053722138827087
 40
4.053722138827087
 40
4.053722138827087
 10
7.08575296545863
 20
24.55202099073102
 30
0.0
 41
1.0
 10
7.091846367214576
 20
24.55034433737633
 30
0.0
 41
1.0
 10
7.091970497036161
 20
24.55030941144479
 30
0.0
 41
1.0
 10
7.092094626857746
 20
24.55027448551326
 30
0.0
 41
1.0
 10
7.16333625161672
 20
24.53085558639255
 30
0.0
 41
1.0
 10
7.298323854952315
 20
24.46250629356974
 30
0.0
 41
1.0
 10
7.437986675338001
 20
24.28352240766913
 30
0.0
 41
1.0
 10
7.471870526118397
 20
24.13592810423243
 30
0.0
 41
1.0
 10
7.471786757838801
 20
24.06154356401755
 30
0.0
 41
1.0
 10
7.471725472933977
 20
23.71012110413635
 30
0.0
 41
0.999999999988567
 10
7.471657378508654
 20
23.35885399682666
 30
0.0
 41
0.999999999988567
 10
7.471582474562833
 20
23.00774224210053
 30
0.0
 41
1.0
  0
SPLINE
  5
1CE
330
1F
100
AcDbEntity
  8
Make2D visible lines
100
AcDbSpline
210
0.0
220
0.0
230
1.0
 70
     8
 71
     3
 72
    24
 73
    20
 74
     0
 42
0.0000000001
 43
0.0000000001
 40
-17.0
 40
-17.0
 40
-17.0
 40
-17.0
 40
-16.0
 40
-15.0
 40
-14.0
 40
-13.0
 40
-12.0
 40
-11.0
 40
-10.0
 40
-9.0
 40
-8.0
 40
-7.0
 40
-6.0
 40
-5.0
 40
-4.0
 40
-3.0
 40
-2.0
 40
-1.0
 40
0.0
 40
0.0
 40
0.0
 40
0.0
 10
-3.139155252525493
 20
35.15675841510095
 30
0.0
 10
-3.403974498686678
 20
35.05228655222008
 30
0.0
 10
-3.916331811790091
 20
34.80140138917859
 30
0.0
 10
-4.6306333709879
 20
34.33015731445754
 30
0.0
 10
-5.271048464396524
 20
33.76223953595471
 30
0.0
 10
-5.826768053352589
 20
33.11090981831383
 30
0.0
 10
-6.279022401012906
 20
32.38482597146798
 30
0.0
 10
-6.677274423862764
 20
31.62930452177008
 30
0.0
 10
-7.030900074039732
 20
30.85175219100374
 30
0.0
 10
-7.348582684806648
 20
30.05911915725686
 30
0.0
 10
-7.65581077085023
 20
29.26245339864892
 30
0.0
 10
-7.943345854496031
 20
28.45836717556262
 30
0.0
 10
-8.202218746175848
 20
27.64457512095898
 30
0.0
 10
-8.434562357545962
 20
26.82285648183072
 30
0.0
 10
-8.642511784034127
 20
25.9946249304152
 30
0.0
 10
-8.825119927914693
 20
25.16043718546684
 30
0.0
 10
-8.988540181223872
 20
24.32245631465572
 30
0.0
 10
-9.121282832821425
 20
23.47813070407452
 30
0.0
 10
-9.041736453150989
 20
22.89843959817812
 30
0.0
 10
-8.878771991358676
 20
22.64267594048627
 30
0.0
  0
SPLINE
  5
1CF
330
1F
100
AcDbEntity
  8
Make2D visible lines
100
AcDbSpline
210
0.0
220
0.0
230
1.0
 70
     8
 71
     3
 72
    27
 73
    23
 74
     0
 42
0.0000000001
 43
0.0000000001
 40
-18.83111841284734
 40
-18.83111841284734
 40
-18.83111841284734
 40
-18.83111841284734
 40
-18.12139515389392
 40
-17.33406901731112
 40
-16.39226406263531
 40
-15.26738722035227
 40
-14.19761811640272
 40
-12.97707286339049
 40
-12.16653376857398
 40
-11.28104803432978
 40
-9.415559027500588
 40
-9.415559027500588
 40
-9.415559027500588
 40
-7.550109556230834
 40
-6.664584286188914
 40
-5.854045191365194
 40
-4.633499938353434
 40
-3.563730834404709
 40
-2.438854020312084
 40
-1.494987139935695
 40
-0.7087441542904526
 40
0.0
 40
0.0
 40
0.0
 40
0.0
 10
-8.878771991358676
 20
22.64267594048627
 30
0.0
 10
-8.741799202468073
 20
22.43268232392175
 30
0.0
 10
-8.406470223879396
 20
22.05703594116949
 30
0.0
 10
-7.726695545752149
 20
21.60182333982509
 30
0.0
 10
-6.848860161144426
 20
21.22893536542817
 30
0.0
 10
-5.843810747084756
 20
20.93604788446434
 30
0.0
 10
-4.724532075787698
 20
20.72215299530327
 30
0.0
 10
-3.695391128740566
 20
20.61782270772142
 30
0.0
 10
-2.725140309701903
 20
20.55809881906339
 30
0.0
 10
-1.538857786319795
 20
20.5084663681901
 30
0.0
 10
-0.6218621396327695
 20
20.49655630870307
 30
0.0
 10
-0.0000222343048888
 20
20.49689508283815
 30
0.0
 10
0.6218057535865622
 20
20.49655712560738
 30
0.0
 10
1.53879735655182
 20
20.50846442424271
 30
0.0
 10
2.725083730893203
 20
20.5580982929654
 30
0.0
 10
3.695345438578986
 20
20.61782302880549
 30
0.0
 10
4.724489334526035
 20
20.72215199228334
 30
0.0
 10
5.843764231635808
 20
20.93604933139889
 30
0.0
 10
6.849477504495574
 20
21.22912650148923
 30
0.0
 10
7.727590168302772
 20
21.60224594224277
 30
0.0
 10
8.407144442700332
 20
22.05777335495096
 30
0.0
 10
8.741936486713744
 20
22.43295710622786
 30
0.0
 10
8.878727681006902
 20
22.64267581956806
 30
0.0
  0
SPLINE
  5
1D0
330
1F
100
AcDbEntity
  8
Make2D visible lines
100
AcDbSpline
210
0.0
220
0.0
230
1.0
 70
     8
 71
     3
 72
    24
 73
    20
 74
     0
 42
0.0000000001
 43
0.0000000001
 40
-17.0
 40
-17.0
 40
-17.0
 40
-17.0
 40
-16.0
 40
-15.0
 40
-14.0
 40
-13.0
 40
-12.0
 40
-11.0
 40
-10.0
 40
-9.0
 40
-8.0
 40
-7.0
 40
-6.0
 40
-5.0
 40
-4.0
 40
-3.0
 40
-2.0
 40
-1.0
 40
0.0
 40
0.0
 40
0.0
 40
0.0
 10
8.878727681006902
 20
22.64267581956806
 30
0.0
 10
9.041722924887255
 20
22.89842515381764
 30
0.0
 10
9.121229099247277
 20
23.47814619117502
 30
0.0
 10
8.988428748158203
 20
24.32243817628073
 30
0.0
 10
8.824926629334984
 20
25.16040114334489
 30
0.0
 10
8.642500987637629
 20
25.99463053125925
 30
0.0
 10
8.434818553890404
 20
26.82292950722461
 30
0.0
 10
8.20211390782331
 20
27.64455047655087
 30
0.0
 10
7.943005363313601
 20
28.45825963493133
 30
0.0
 10
7.655893913221537
 20
29.26249765856588
 30
0.0
 10
7.348639747220824
 20
30.05915064123473
 30
0.0
 10
7.030803191415148
 20
30.85173794160103
 30
0.0
 10
6.677165135815929
 20
31.629236735487
 30
0.0
 10
6.279110726849523
 20
32.38493823036569
 30
0.0
 10
5.826429181532393
 20
33.1106409856651
 30
0.0
 10
5.271261239210642
 20
33.76249912031884
 30
0.0
 10
4.630459621951137
 20
34.33000263667256
 30
0.0
 10
3.916329018718253
 20
34.80145245920214
 30
0.0
 10
3.403921196098001
 20
35.05227661766077
 30
0.0
 10
3.139110811612383
 20
35.15675840418466
 30
0.0
  0
SPLINE
  5
1D1
330
1F
100
AcDbEntity
  8
Default
100
AcDbSpline
210
0.0
220
0.0
230
1.0
 70
     8
 71
     3
 72
    34
 73
    30
 74
     0
 42
0.0000000001
 43
0.0000000001
 40
0.0
 40
0.0
 40
0.0
 40
0.0
 40
0.9999812069975019
 40
1.99998192980529
 40
2.999982652613078
 40
3.999983375420867
 40
4.999984098228655
 40
5.999984821036444
 40
6.999985543844232
 40
7.99998626665202
 40
8.999986989459808
 40
9.999987712267597
 40
10.99998843507539
 40
11.99998915788317
 40
12.99998988069096
 40
13.99999060349875
 40
14.99999132630654
 40
15.99999204911433
 40
16.99999277192212
 40
17.99999349472991
 40
18.99999421753769
 40
19.99999494034548
 40
20.99999566315327
 40
21.99999638596106
 40
22.99999710876885
 40
23.99999783157664
 40
24.99999855438442
 40
25.99999927719221
 40
27.0
 40
27.0
 40
27.0
 40
27.0
 10
0.0
 20
35.61530768992215
 30
0.0
 10
-0.2473116733284656
 20
35.61519797624895
 30
0.0
 10
-0.742065636380099
 20
35.6049238922094
 30
0.0
 10
-1.48203790823691
 20
35.54738882622797
 30
0.0
 10
-2.217655354040202
 20
35.44451408784703
 30
0.0
 10
-2.935963902535643
 20
35.25098559707037
 30
0.0
 10
-3.618361647401824
 20
34.95544091705861
 30
0.0
 10
-4.26011026502897
 20
34.58040173754586
 30
0.0
 10
-4.851629702789558
 20
34.13010383367063
 30
0.0
 10
-5.381545505457609
 20
33.60855193556705
 30
0.0
 10
-5.838961191338145
 20
33.02209263721217
 30
0.0
 10
-6.214841683314561
 20
32.3811732857244
 30
0.0
 10
-6.548050190758945
 20
31.71797337876319
 30
0.0
 10
-6.840535513814583
 20
31.03566717888554
 30
0.0
 10
-7.097223042715258
 20
30.33938773043944
 30
0.0
 10
-7.349034498839115
 20
29.64145453225838
 30
0.0
 10
-7.597944494325672
 20
28.94243460023779
 30
0.0
 10
-7.831709988009893
 20
28.23815523083751
 30
0.0
 10
-8.042411919120376
 20
27.5265671409541
 30
0.0
 10
-8.230635424095658
 20
26.80888365482124
 30
0.0
 10
-8.401538273889788
 20
26.08637474341024
 30
0.0
 10
-8.551974913248625
 20
25.36119685685872
 30
0.0
 10
-8.706565731224801
 20
24.63016255343608
 30
0.0
 10
-8.874562182950196
 20
23.92729290886993
 30
0.0
 10
-8.83279748753038
 20
23.09143957014978
 30
0.0
 10
-8.03631087336519
 20
22.85644545214328
 30
0.0
 10
-7.315192745803534
 20
22.81247125456799
 30
0.0
 10
-6.568575052478309
 20
22.77687928198472
 30
0.0
 10
-6.075775091602869
 20
22.75939379288194
 30
0.0
 10
-5.828409248094879
 20
22.74882022979117
 30
0.0
  0
SPLINE
  5
1D2
330
1F
100
AcDbEntity
  8
Default
100
AcDbSpline
210
0.0
220
0.0
230
1.0
 70
     8
 71
     3
 72
     8
 73
     4
 74
     0
 42
0.0000000001
 43
0.0000000001
 40
0.0
 40
0.0
 40
0.0
 40
0.0
 40
1.0
 40
1.0
 40
1.0
 40
1.0
 10
-5.828409248094879
 20
22.74882022979117
 30
0.0
 10
-3.887037032149974
 20
22.66583697989358
 30
0.0
 10
-1.943144951002473
 20
22.63947516963895
 30
0.0
 10
-0.0000000000000021
 20
22.63947516963895
 30
0.0
  0
SPLINE
  5
1D3
330
1F
100
AcDbEntity
  8
Default
100
AcDbSpline
210
0.0
220
0.0
230
1.0
 70
     8
 71
     3
 72
     8
 73
     4
 74
     0
 42
0.0000000001
 43
0.0000000001
 40
-1.0
 40
-1.0
 40
-1.0
 40
-1.0
 40
0.0
 40
0.0
 40
0.0
 40
0.0
 10
0.0000000000000021
 20
22.63947516963895
 30
0.0
 10
1.943144951002473
 20
22.63947516963895
 30
0.0
 10
3.887037032149974
 20
22.66583697989358
 30
0.0
 10
5.828409248094879
 20
22.74882022979117
 30
0.0
  0
SPLINE
  5
1D4
330
1F
100
AcDbEntity
  8
Default
100
AcDbSpline
210
0.0
220
0.0
230
1.0
 70
     8
 71
     3
 72
    34
 73
    30
 74
     0
 42
0.0000000001
 43
0.0000000001
 40
-27.0
 40
-27.0
 40
-27.0
 40
-27.0
 40
-25.99999927719221
 40
-24.99999855438442
 40
-23.99999783157664
 40
-22.99999710876885
 40
-21.99999638596106
 40
-20.99999566315327
 40
-19.99999494034548
 40
-18.99999421753769
 40
-17.99999349472991
 40
-16.99999277192212
 40
-15.99999204911433
 40
-14.99999132630654
 40
-13.99999060349875
 40
-12.99998988069096
 40
-11.99998915788317
 40
-10.99998843507539
 40
-9.999987712267597
 40
-8.999986989459808
 40
-7.99998626665202
 40
-6.999985543844232
 40
-5.999984821036444
 40
-4.999984098228655
 40
-3.999983375420867
 40
-2.999982652613078
 40
-1.99998192980529
 40
-0.9999812069975019
 40
0.0
 40
0.0
 40
0.0
 40
0.0
 10
5.828409248094879
 20
22.74882022979117
 30
0.0
 10
6.075775091602869
 20
22.75939379288194
 30
0.0
 10
6.568575052478309
 20
22.77687928198472
 30
0.0
 10
7.315192745803534
 20
22.81247125456799
 30
0.0
 10
8.03631087336519
 20
22.85644545214328
 30
0.0
 10
8.83279748753038
 20
23.09143957014978
 30
0.0
 10
8.874562182950196
 20
23.92729290886993
 30
0.0
 10
8.706565731224801
 20
24.63016255343608
 30
0.0
 10
8.551974913248625
 20
25.36119685685872
 30
0.0
 10
8.401538273889788
 20
26.08637474341024
 30
0.0
 10
8.230635424095658
 20
26.80888365482124
 30
0.0
 10
8.042411919120376
 20
27.5265671409541
 30
0.0
 10
7.831709988009893
 20
28.23815523083751
 30
0.0
 10
7.597944494325672
 20
28.94243460023779
 30
0.0
 10
7.349034498839115
 20
29.64145453225838
 30
0.0
 10
7.097223042715258
 20
30.33938773043944
 30
0.0
 10
6.840535513814583
 20
31.03566717888554
 30
0.0
 10
6.548050190758945
 20
31.71797337876319
 30
0.0
 10
6.214841683314561
 20
32.3811732857244
 30
0.0
 10
5.838961191338145
 20
33.02209263721217
 30
0.0
 10
5.381545505457609
 20
33.60855193556705
 30
0.0
 10
4.851629702789558
 20
34.13010383367063
 30
0.0
 10
4.26011026502897
 20
34.58040173754586
 30
0.0
 10
3.618361647401824
 20
34.95544091705861
 30
0.0
 10
2.935963902535643
 20
35.25098559707037
 30
0.0
 10
2.217655354040202
 20
35.44451408784703
 30
0.0
 10
1.48203790823691
 20
35.54738882622797
 30
0.0
 10
0.742065636380099
 20
35.6049238922094
 30
0.0
 10
0.2473116733284656
 20
35.61519797624895
 30
0.0
 10
0.0
 20
35.61530768992215
 30
0.0
  0
SPLINE
  5
1D5
330
1F
100
AcDbEntity
  8
Make2D visible lines
100
AcDbSpline
210
0.0
220
0.0
230
1.0
 70
    12
 71
     2
 72
     8
 73
     5
 74
     0
 42
0.0000000001
 43
0.0000000001
 40
5.0
 40
5.0
 40
5.0
 40
6.424963949417644
 40
6.424963949417644
 40
7.849927898835288
 40
7.849927898835288
 40
7.849927898835288
 10
47.07798014834246
 20
22.93232347580311
 30
-0.0000312453044315
 41
1.0
 10
47.47529200809331
 20
22.93927243996315
 30
-0.0000312453044315
 41
0.7567417068888759
 10
47.53990299031858
 20
22.5471877246466
 30
-0.0000312453044315
 41
1.0
 10
47.60451397254385
 20
22.15510300933006
 30
-0.0000312453044315
 41
0.7567417068888759
 10
47.22541903253055
 20
22.03402246052351
 30
-0.0000312453044315
 41
1.0
  0
SPLINE
  5
1D6
330
1F
100
AcDbEntity
  8
Make2D visible lines
100
AcDbSpline
210
0.0
220
0.0
230
1.0
 70
     8
 71
     3
 72
    24
 73
    20
 74
     0
 42
0.0000000001
 43
0.0000000001
 40
-17.0
 40
-17.0
 40
-17.0
 40
-17.0
 40
-16.0
 40
-15.0
 40
-14.0
 40
-13.0
 40
-12.0
 40
-11.0
 40
-10.0
 40
-9.0
 40
-8.0
 40
-7.0
 40
-6.0
 40
-5.0
 40
-4.0
 40
-3.0
 40
-2.0
 40
-1.0
 40
0.0
 40
0.0
 40
0.0
 40
0.0
 10
47.22541903253055
 20
22.03402246052351
 30
-0.0000312453044315
 10
46.66331673333531
 20
21.85454030066748
 30
-0.0000312453044315
 10
45.53162572114253
 20
21.52244652919434
 30
-0.0000312453044315
 10
43.8079319592551
 20
21.12339062815624
 30
-0.0000312453044315
 10
42.06279651748976
 20
20.83215795295321
 30
-0.0000312453044315
 10
40.30399558922412
 20
20.64103662807956
 30
-0.0000312453044315
 10
38.53863203930501
 20
20.53421206824595
 30
-0.0000312453044315
 10
36.7702907451413
 20
20.47815964421232
 30
-0.0000312453044315
 10
35.00255140715494
 20
20.53446292385894
 30
-0.0000312453044315
 10
33.24349037126321
 20
20.78587929996934
 30
-0.0000312453044315
 10
31.61231231507384
 20
21.56174004938291
 30
-0.0000312453044315
 10
30.52030262310576
 20
23.00172353384539
 30
-0.0000312453044315
 10
29.83644632533498
 20
24.63628154801895
 30
-0.0000312453044315
 10
29.38793400609629
 20
26.35044306300223
 30
-0.0000312453044315
 10
29.08361836412425
 20
28.09321633393277
 30
-0.0000312453044315
 10
28.87850000130025
 20
29.85031572387449
 30
-0.0000312453044315
 10
28.74352941611142
 20
31.61384684209964
 30
-0.0000312453044315
 10
28.6621662024482
 20
33.38060070928532
 30
-0.0000312453044315
 10
28.63601718821049
 20
34.55935188261988
 30
-0.0000312453044315
 10
28.6285491686556
 20
35.14909171927063
 30
-0.0000312453044315
  0
SPLINE
  5
1D7
330
1F
100
AcDbEntity
  8
Make2D visible lines
100
AcDbSpline
210
0.0
220
0.0
230
1.0
 70
    12
 71
     2
 72
     6
 73
     3
 74
     0
 42
0.0000000001
 43
0.0000000001
 40
0.0
 40
0.0
 40
0.0
 40
0.7220528620518178
 40
0.7220528620518178
 40
0.7220528620518178
 10
28.6285491686556
 20
35.14909171927063
 30
-0.0000312453044315
 41
1.0
 10
28.62274178445282
 20
35.60884399937574
 30
-0.0000312453044315
 41
0.7075013098333874
 10
29.08218520323001
 20
35.61516040458713
 30
-0.0000312453044315
 41
1.0
  0
SPLINE
  5
1D8
330
1F
100
AcDbEntity
  8
Make2D visible lines
100
AcDbSpline
210
0.0
220
0.0
230
1.0
 70
    12
 71
     2
 72
     6
 73
     3
 74
     0
 42
0.0000000001
 43
0.0000000001
 40
0.0
 40
0.0
 40
0.0
 40
0.4121427471181011
 40
0.4121427471181011
 40
0.4121427471181011
 10
29.08218520323001
 20
35.61516040458713
 30
-0.0000312453044315
 41
1.0
 10
29.30322544461464
 20
35.61819924815411
 30
-0.0000312453044315
 41
0.9013233606580734
 10
29.44369605542144
 20
35.4475040815225
 30
-0.0000312453044315
 41
1.0
  0
SPLINE
  5
1D9
330
1F
100
AcDbEntity
  8
Make2D visible lines
100
AcDbSpline
210
0.0
220
0.0
230
1.0
 70
     8
 71
     3
 72
    34
 73
    30
 74
     0
 42
0.0000000001
 43
0.0000000001
 40
-22.18647873397526
 40
-22.18647873397526
 40
-22.18647873397526
 40
-22.18647873397526
 40
-22.03860679434289
 40
-21.92002185522579
 40
-21.63208902688433
 40
-21.37010291654892
 40
-21.25876276557128
 40
-20.8520438218059
 40
-20.13718589939647
 40
-19.41841840794001
 40
-19.1690734851703
 40
-18.27329645432434
 40
-17.44068902438653
 40
-16.83064568111283
 40
-16.3868047105227
 40
-14.69137808953177
 40
-13.32597882191751
 40
-12.12003779990974
 40
-11.01223819576992
 40
-10.00284901793387
 40
-9.053432248559982
 40
-8.006962631295124
 40
-6.965753494607664
 40
-5.884696930912772
 40
-4.753835594724273
 40
-3.536372436354696
 40
-2.309169967207457
 40
-0.5055621831563853
 40
0.0
 40
0.0
 40
0.0
 40
0.0
 10
29.44369605542144
 20
35.4475040815225
 30
-0.0000312453044315
 10
29.47446570588567
 20
35.40899769593388
 30
-0.0000312453044315
 10
29.52720265243435
 20
35.33749237579137
 30
-0.0000312453044315
 10
29.63028141483583
 20
35.18400046828891
 30
-0.0000312453044315
 10
29.73432005011611
 20
34.9865365589542
 30
-0.0000312453044315
 10
29.82811926742553
 20
34.78718155812179
 30
-0.0000312453044315
 10
29.93506913904019
 20
34.55015842409017
 30
-0.0000312453044315
 10
30.10355523887158
 20
34.17529168131094
 30
-0.0000312453044315
 10
30.35913697126949
 20
33.61764688516902
 30
-0.0000312453044315
 10
30.58519062057321
 20
33.10413756931878
 30
-0.0000312453044315
 10
30.81919974865904
 20
32.52857644342812
 30
-0.0000312453044315
 10
31.06430643324225
 20
31.91660932009863
 30
-0.0000312453044315
 10
31.36418555605048
 20
31.19706098367949
 30
-0.0000312453044315
 10
31.61103310471365
 20
30.61877714624225
 30
-0.0000312453044315
 10
31.98514765649074
 20
29.78191478901085
 30
-0.0000312453044315
 10
32.53712821603624
 20
28.75088121363357
 30
-0.0000312453044315
 10
33.28936929290155
 20
27.54363060599129
 30
-0.0000312453044315
 10
34.01092355138313
 20
26.5499358033545
 30
-0.0000312453044315
 10
34.7431666554568
 20
25.71801746765368
 30
-0.0000312453044315
 10
35.49506037921435
 20
25.02167422437231
 30
-0.0000312453044315
 10
36.32352673600674
 20
24.45452170996511
 30
-0.0000312453044315
 10
37.22421091070709
 20
23.98878840102707
 30
-0.0000312453044315
 10
38.21171580335748
 20
23.60898534091891
 30
-0.0000312453044315
 10
39.26251366697404
 20
23.33569513317323
 30
-0.0000312453044315
 10
40.39116544632783
 20
23.14862044804445
 30
-0.0000312453044315
 10
41.57856359125719
 20
23.03886820483467
 30
-0.0000312453044315
 10
42.99414927620427
 20
22.98897781360293
 30
-0.0000312453044315
 10
44.17305793159132
 20
22.99430032427476
 30
-0.0000312453044315
 10
44.94271214690831
 20
22.98542478665826
 30
-0.0000312453044315
 10
45.1116062547753
 20
22.98149038824386
 30
-0.0000312453044315
  0
SPLINE
  5
1DA
330
1F
100
AcDbEntity
  8
Make2D visible lines
100
AcDbSpline
210
0.0
220
0.0
230
1.0
 70
     8
 71
     3
 72
    15
 73
    11
 74
     0
 42
0.0000000001
 43
0.0000000001
 40
-1.983810194125966
 40
-1.983810194125966
 40
-1.983810194125966
 40
-1.983810194125966
 40
-1.240216830441202
 40
-0.8693970465609351
 40
-0.830207921274915
 40
-0.6514225927554392
 40
-0.5721492481317013
 40
-0.1892530055028681
 40
-0.0009716977050293
 40
0.0
 40
0.0
 40
0.0
 40
0.0
 10
45.1116062547753
 20
22.98149038824386
 30
-0.0000312453044315
 10
45.35984187732242
 20
22.97754866952065
 30
-0.0000312453044315
 10
45.73111471189945
 20
22.96313134790635
 30
-0.0000312453044315
 10
46.11564338256632
 20
22.96078252190733
 30
-0.0000312453044315
 10
46.31190875401954
 20
22.95843342546891
 30
-0.0000312453044315
 10
46.41089995813599
 20
22.95632141551173
 30
-0.0000312453044315
 10
46.62459205820883
 20
22.94911078182411
 30
-0.0000312453044315
 10
46.84082756680608
 20
22.93878098697897
 30
-0.0000312453044315
 10
47.03199946996814
 20
22.93356200114081
 30
-0.0000312453044315
 10
47.09447437908617
 20
22.93230728653013
 30
-0.0000312453044315
 10
47.09317511480447
 20
22.9323381925593
 30
-0.0000312453044315
  0
SPLINE
  5
1DB
330
1F
100
AcDbEntity
  8
Make2D visible lines - Tangent
100
AcDbSpline
210
0.0
220
0.0
230
1.0
 70
     8
 71
     3
 72
    35
 73
    31
 74
     0
 42
0.0000000001
 43
0.0000000001
 40
0.0
 40
0.0
 40
0.0
 40
0.0
 40
0.2402532621163592
 40
0.3763572098504003
 40
0.551672431345357
 40
0.9958821897849119
 40
1.101052378124962
 40
1.868053494370825
 40
2.180869109681214
 40
2.831499668067848
 40
3.090556060853209
 40
3.977814129654295
 40
4.828734707418617
 40
5.548259278857759
 40
6.129507735893566
 40
8.019918460328226
 40
9.322400280740641
 40
10.47679261219735
 40
11.55862261620068
 40
12.55229102610752
 40
13.51912324008647
 40
14.54579470889808
 40
15.57534625379321
 40
16.66749462626378
 40
19.04522153365165
 40
20.41195135910109
 40
21.01834190818906
 40
21.62020844203624
 40
22.33410790169653
 40
22.84220939650538
 40
22.84220939650538
 40
22.84220939650538
 40
22.84220939650538
 10
29.08218520323001
 20
35.61516040458713
 30
-0.0000312453044315
 10
29.13176250170015
 20
35.55230873394895
 30
-0.0000312453044315
 10
29.20618819035341
 20
35.45101601435408
 30
-0.0000312453044315
 10
29.29798594114804
 20
35.29150068176985
 30
-0.0000312453044315
 10
29.41821804208388
 20
35.07025093203457
 30
-0.0000312453044315
 10
29.52560167143141
 20
34.85372891893198
 30
-0.0000312453044315
 10
29.72044207590339
 20
34.46064106472002
 30
-0.0000312453044315
 10
29.89494535968262
 20
34.10622785645629
 30
-0.0000312453044315
 10
30.14965857818023
 20
33.58873257684594
 30
-0.0000312453044315
 10
30.32292423214261
 20
33.21983449729019
 30
-0.0000312453044315
 10
30.56686942967566
 20
32.67279152848458
 30
-0.0000312453044315
 10
30.83189670908568
 20
32.06204383202665
 30
-0.0000312453044315
 10
31.17270679996104
 20
31.31702495073268
 30
-0.0000312453044315
 10
31.47459938576767
 20
30.66644466066403
 30
-0.0000312453044315
 10
31.93856356158625
 20
29.7091178163724
 30
-0.0000312453044315
 10
32.54833278725029
 20
28.6075964481034
 30
-0.0000312453044315
 10
33.33336296992142
 20
27.38880129425798
 30
-0.0000312453044315
 10
34.04323023903488
 20
26.44548645204799
 30
-0.0000312453044315
 10
34.76434151751468
 20
25.6444784742783
 30
-0.0000312453044315
 10
35.51757842025744
 20
24.96284649415162
 30
-0.0000312453044315
 10
36.33847576837441
 20
24.39559013270484
 30
-0.0000312453044315
 10
37.23103271973324
 20
23.92441803969268
 30
-0.0000312453044315
 10
38.2092358096491
 20
23.53997348542762
 30
-0.0000312453044315
 10
39.65897551407456
 20
23.14707548231859
 30
-0.0000312453044315
 10
41.26202355135129
 20
22.93772645212132
 30
-0.0000312453044315
 10
42.70863610072375
 20
22.85035358044741
 30
-0.0000312453044315
 10
43.56673740174766
 20
22.8149098711787
 30
-0.0000312453044315
 10
44.2068457287296
 20
22.79155224072949
 30
-0.0000312453044315
 10
44.81459438939942
 20
22.7735129499857
 30
-0.0000312453044315
 10
45.22158172943764
 20
22.75653340750543
 30
-0.0000312453044315
 10
45.390767738918
 20
22.74871641605451
 30
-0.0000312453044315
  0
ARC
  5
1DC
330
1F
100
AcDbEntity
  8
Make2D visible lines - Tangent
100
AcDbCircle
 10
36.0736024324145
 20
-178.9061053620035
 30
-0.0000312453044315
 40
201.8699500066541
100
AcDbArc
 50
86.75100191540152
 51
87.35461389063919
  0
SPLINE
  5
1DD
330
1F
100
AcDbEntity
  8
Make2D visible lines
100
AcDbSpline
210
0.0
220
0.0
230
1.0
 70
     8
 71
     3
 72
    12
 73
     8
 74
     0
 42
0.0000000001
 43
0.0000000001
 40
0.0
 40
0.0
 40
0.0
 40
0.0
 40
1.0
 40
2.0
 40
3.0
 40
4.0
 40
5.0
 40
5.0
 40
5.0
 40
5.0
 10
46.63464022470995
 20
24.67009544341469
 30
-0.0000312453044315
 10
45.92291393785283
 20
24.80989448648286
 30
-0.0000312453044315
 10
44.47544130619193
 20
24.91788705804247
 30
-0.0000312453044315
 10
42.30333561009026
 20
24.98935147717469
 30
-0.0000312453044315
 10
40.12918814072545
 20
24.99288613578359
 30
-0.0000312453044315
 10
37.95588318061886
 20
24.94571321748449
 30
-0.0000312453044315
 10
36.50815754536094
 20
24.87777771484026
 30
-0.0000312453044315
 10
35.7850381916146
 20
24.8317167682034
 30
-0.0000312453044315
  0
LINE
  5
1DE
330
1F
100
AcDbEntity
  8
Make2D visible lines
100
AcDbLine
 10
47.05142181324591
 20
22.93324291926988
 30
-0.0000312453044315
 11
47.02944126292428
 21
24.18999433620322
 31
-0.0000312453044315
  0
SPLINE
  5
1DF
330
1F
100
AcDbEntity
  8
Make2D visible lines
100
AcDbSpline
210
0.0
220
0.0
230
1.0
 70
    12
 71
     2
 72
     6
 73
     3
 74
     0
 42
0.0000000001
 43
0.0000000001
 40
-0.0074089630355015
 40
-0.0074089630355015
 40
-0.0074089630355015
 40
0.0
 40
0.0
 40
0.0
 10
47.02944126292428
 20
24.18999433620322
 30
-0.0000312453044315
 41
1.0
 10
47.02937647996198
 20
24.19369831901916
 30
-0.0000312453044315
 41
0.9999725537599726
 10
47.02925677463114
 20
24.19740236190159
 30
-0.0000312453044315
 41
1.0
  0
SPLINE
  5
1E0
330
1F
100
AcDbEntity
  8
Make2D visible lines
100
AcDbSpline
210
0.0
220
0.0
230
1.0
 70
    12
 71
     2
 72
     6
 73
     3
 74
     0
 42
0.0000000001
 43
0.0000000001
 40
0.0
 40
0.0
 40
0.0
 40
0.6585991013635981
 40
0.6585991013635981
 40
0.6585991013635981
 10
47.02925677463114
 20
24.19740236190159
 30
-0.0000312453044315
 41
1.0
 10
47.01673266661278
 20
24.58412152386089
 30
-0.0000312453044315
 41
0.7908816648000885
 10
46.63925026633636
 20
24.66905971571803
 30
-0.0000312453044315
 41
1.0
  0
POLYLINE
  5
1E1
330
1F
100
AcDbEntity
  8
Default
100
AcDb2dPolyline
 66
     1
 10
0.0
 20
0.0
 30
0.0
  0
VERTEX
  5
1E2
330
1E1
100
AcDbEntity
  8
Default
100
AcDbVertex
100
AcDb2dVertex
 10
7.827441774684672
 20
48.99281849248091
 30
0.0
  0
VERTEX
  5
1E3
330
1E1
100
AcDbEntity
  8
Default
100
AcDbVertex
100
AcDb2dVertex
 10
8.08047248390747
 20
48.99281849248091
 30
0.0
  0
SEQEND
  5
1E4
330
1E1
100
AcDbEntity
  8
Default
  0
SPLINE
  5
1E5
330
1F
100
AcDbEntity
  8
Default
100
AcDbSpline
210
0.0
220
0.0
230
1.0
 70
    12
 71
     2
 72
     6
 73
     3
 74
     0
 42
0.0000000001
 43
0.0000000001
 40
-0.0784842030870699
 40
-0.0784842030870699
 40
-0.0784842030870699
 40
0.0
 40
0.0
 40
0.0
 10
8.08047248390747
 20
48.99281849248091
 30
0.0
 41
1.0
 10
8.130436298116187
 20
48.99285218747076
 30
0.0
 41
0.7071217743558633
 10
8.13047252442206
 20
48.94288837473589
 30
0.0
 41
1.0
  0
ARC
  5
1E6
330
1F
100
AcDbEntity
  8
Default
100
AcDbCircle
 10
-3515562.163765607
 20
49.01974651371386
 30
0.0
 40
3515570.294238132
100
AcDbArc
 50
359.9999911428347
 51
359.9999987473872
  0
POLYLINE
  5
1E7
330
1F
100
AcDbEntity
  8
Default
100
AcDb2dPolyline
 66
     1
 10
0.0
 20
0.0
 30
0.0
  0
VERTEX
  5
1E8
330
1E7
100
AcDbEntity
  8
Default
100
AcDbVertex
100
AcDb2dVertex
 10
-7.273974282692123
 20
48.46109641008859
 30
0.0
  0
VERTEX
  5
1E9
330
1E7
100
AcDbEntity
  8
Default
100
AcDbVertex
100
AcDb2dVertex
 10
-7.273974282692123
 20
46.50460705801648
 30
0.0
  0
SEQEND
  5
1EA
330
1E7
100
AcDbEntity
  8
Default
  0
SPLINE
  5
1EB
330
1F
100
AcDbEntity
  8
Default
100
AcDbSpline
210
0.0
220
0.0
230
1.0
 70
    12
 71
     2
 72
     6
 73
     3
 74
     0
 42
0.0000000001
 43
0.0000000001
 40
0.0
 40
0.0
 40
0.0
 40
0.109941564851661
 40
0.109941564851661
 40
0.109941564851661
 10
-7.273974282692123
 20
46.50460705801648
 30
0.0
 41
1.0
 10
-7.273941248237448
 20
46.43464009246982
 30
0.0
 41
0.7074405726109262
 10
-7.20397428269213
 20
46.43460705517649
 30
0.0
 41
1.0
  0
SPLINE
  5
1EC
330
1F
100
AcDbEntity
  8
Default
100
AcDbSpline
210
0.0
220
0.0
230
1.0
 70
    24
 71
     2
 72
     6
 73
     3
 74
     0
 42
0.0000000001
 43
0.0000000001
 40
0.0
 40
0.0
 40
0.0
 40
0.3520000000000003
 40
0.3520000000000003
 40
0.3520000000000003
 10
-7.20397428269213
 20
46.43460705517649
 30
0.0
 10
-7.027974282692128
 20
46.43460705517648
 30
0.0
 10
-6.851974282692126
 20
46.43460705517647
 30
0.0
  0
SPLINE
  5
1ED
330
1F
100
AcDbEntity
  8
Default
100
AcDbSpline
210
0.0
220
0.0
230
1.0
 70
    12
 71
     2
 72
     6
 73
     3
 74
     0
 42
0.0000000001
 43
0.0000000001
 40
0.0
 40
0.0
 40
0.0
 40
0.2356186331260159
 40
0.2356186331260159
 40
0.2356186331260159
 10
-6.851974282692126
 20
46.43460705517647
 30
0.0
 41
1.0
 10
-6.701976187533774
 20
46.43460896295008
 30
0.0
 41
0.7071157676638842
 10
-6.70197428269212
 20
46.58460705810847
 30
0.0
 41
1.0
  0
POLYLINE
  5
1EE
330
1F
100
AcDbEntity
  8
Default
100
AcDb2dPolyline
 66
     1
 10
0.0
 20
0.0
 30
0.0
  0
VERTEX
  5
1EF
330
1EE
100
AcDbEntity
  8
Default
100
AcDbVertex
100
AcDb2dVertex
 10
-6.70197428269212
 20
46.58460705810847
 30
0.0
  0
VERTEX
  5
1F0
330
1EE
100
AcDbEntity
  8
Default
100
AcDbVertex
100
AcDb2dVertex
 10
-6.70197428269212
 20
48.84460705224448
 30
0.0
  0
SEQEND
  5
1F1
330
1EE
100
AcDbEntity
  8
Default
  0
SPLINE
  5
1F2
330
1F
100
AcDbEntity
  8
Default
100
AcDbSpline
210
0.0
220
0.0
230
1.0
 70
    12
 71
     2
 72
     6
 73
     3
 74
     0
 42
0.0000000001
 43
0.0000000001
 40
0.0
 40
0.0
 40
0.0
 40
0.2355890798875016
 40
0.2355890798875016
 40
0.2355890798875016
 10
-6.70197428269212
 20
48.84460705224448
 30
0.0
 41
1.0
 10
-6.70204503784991
 20
48.99453629708807
 30
0.0
 41
0.7074404097356639
 10
-6.851974282692126
 20
48.99460705517647
 30
0.0
 41
1.0
  0
SPLINE
  5
1F3
330
1F
100
AcDbEntity
  8
Default
100
AcDbSpline
210
0.0
220
0.0
230
1.0
 70
    24
 71
     2
 72
     6
 73
     3
 74
     0
 42
0.0000000001
 43
0.0000000001
 40
0.0
 40
0.0
 40
0.0
 40
0.044335403351365
 40
0.044335403351365
 40
0.044335403351365
 10
-6.851974282692126
 20
48.99460705517647
 30
0.0
 10
-6.87414198436781
 20
48.99460705517647
 30
0.0
 10
-6.896309686043494
 20
48.99460705517647
 30
0.0
  0
POLYLINE
  5
1F4
330
1F
100
AcDbEntity
  8
Default
100
AcDb2dPolyline
 66
     1
 10
0.0
 20
0.0
 30
0.0
  0
VERTEX
  5
1F5
330
1F4
100
AcDbEntity
  8
Default
100
AcDbVertex
100
AcDb2dVertex
 10
7.273472483907867
 20
48.46109641006218
 30
0.0
  0
VERTEX
  5
1F6
330
1F4
100
AcDbEntity
  8
Default
100
AcDbVertex
100
AcDb2dVertex
 10
7.273472483907867
 20
46.50460705801648
 30
0.0
  0
SEQEND
  5
1F7
330
1F4
100
AcDbEntity
  8
Default
  0
SPLINE
  5
1F8
330
1F
100
AcDbEntity
  8
Default
100
AcDbSpline
210
0.0
220
0.0
230
1.0
 70
    12
 71
     2
 72
     6
 73
     3
 74
     0
 42
0.0000000001
 43
0.0000000001
 40
0.0
 40
0.0
 40
0.0
 40
0.109941564851661
 40
0.109941564851661
 40
0.109941564851661
 10
7.273472483907867
 20
46.50460705801648
 30
0.0
 41
1.0
 10
7.273439449453178
 20
46.43464009246982
 30
0.0
 41
0.7074405726109262
 10
7.203472483907873
 20
46.43460705517649
 30
0.0
 41
1.0
  0
SPLINE
  5
1F9
330
1F
100
AcDbEntity
  8
Default
100
AcDbSpline
210
0.0
220
0.0
230
1.0
 70
    24
 71
     2
 72
     6
 73
     3
 74
     0
 42
0.0000000001
 43
0.0000000001
 40
0.0
 40
0.0
 40
0.0
 40
0.3520000000000003
 40
0.3520000000000003
 40
0.3520000000000003
 10
7.203472483907873
 20
46.43460705517649
 30
0.0
 10
7.027472483907871
 20
46.43460705517648
 30
0.0
 10
6.85147248390787
 20
46.43460705517647
 30
0.0
  0
SPLINE
  5
1FA
330
1F
100
AcDbEntity
  8
Default
100
AcDbSpline
210
0.0
220
0.0
230
1.0
 70
    12
 71
     2
 72
     6
 73
     3
 74
     0
 42
0.0000000001
 43
0.0000000001
 40
0.0
 40
0.0
 40
0.0
 40
0.2356186331260159
 40
0.2356186331260159
 40
0.2356186331260159
 10
6.85147248390787
 20
46.43460705517647
 30
0.0
 41
1.0
 10
6.701474388749513
 20
46.43460896295008
 30
0.0
 41
0.7071157676638842
 10
6.701472483907864
 20
46.58460705810847
 30
0.0
 41
1.0
  0
POLYLINE
  5
1FB
330
1F
100
AcDbEntity
  8
Default
100
AcDb2dPolyline
 66
     1
 10
0.0
 20
0.0
 30
0.0
  0
VERTEX
  5
1FC
330
1FB
100
AcDbEntity
  8
Default
100
AcDbVertex
100
AcDb2dVertex
 10
6.701472483907864
 20
46.58460705810847
 30
0.0
  0
VERTEX
  5
1FD
330
1FB
100
AcDbEntity
  8
Default
100
AcDbVertex
100
AcDb2dVertex
 10
6.701472483907864
 20
48.84460705224448
 30
0.0
  0
SEQEND
  5
1FE
330
1FB
100
AcDbEntity
  8
Default
  0
SPLINE
  5
1FF
330
1F
100
AcDbEntity
  8
Default
100
AcDbSpline
210
0.0
220
0.0
230
1.0
 70
    12
 71
     2
 72
     6
 73
     3
 74
     0
 42
0.0000000001
 43
0.0000000001
 40
0.0
 40
0.0
 40
0.0
 40
0.2355890798875016
 40
0.2355890798875016
 40
0.2355890798875016
 10
6.701472483907864
 20
48.84460705224448
 30
0.0
 41
1.0
 10
6.701543239065653
 20
48.99453629708807
 30
0.0
 41
0.7074404097356639
 10
6.85147248390787
 20
48.99460705517647
 30
0.0
 41
1.0
  0
SPLINE
  5
200
330
1F
100
AcDbEntity
  8
Default
100
AcDbSpline
210
0.0
220
0.0
230
1.0
 70
    24
 71
     2
 72
     6
 73
     3
 74
     0
 42
0.0000000001
 43
0.0000000001
 40
0.0
 40
0.0
 40
0.0
 40
0.0443355314108551
 40
0.0443355314108551
 40
0.0443355314108551
 10
6.85147248390787
 20
48.99460705517647
 30
0.0
 10
6.873640249613295
 20
48.99460705517647
 30
0.0
 10
6.895808015318721
 20
48.99460705517647
 30
0.0
  0
POLYLINE
  5
201
330
1F
100
AcDbEntity
  8
Default
100
AcDb2dPolyline
 66
     1
 10
0.0
 20
0.0
 30
0.0
  0
VERTEX
  5
202
330
201
100
AcDbEntity
  8
Default
100
AcDbVertex
100
AcDb2dVertex
 10
8.049493222117079
 20
48.71132302225422
 30
0.0
  0
VERTEX
  5
203
330
201
100
AcDbEntity
  8
Default
100
AcDbVertex
100
AcDb2dVertex
 10
7.704268704053476
 20
49.14896546579504
 30
0.0
  0
SEQEND
  5
204
330
201
100
AcDbEntity
  8
Default
  0
POLYLINE
  5
205
330
1F
100
AcDbEntity
  8
Default
100
AcDb2dPolyline
 66
     1
 10
0.0
 20
0.0
 30
0.0
  0
VERTEX
  5
206
330
205
100
AcDbEntity
  8
Default
100
AcDbVertex
100
AcDb2dVertex
 10
12.38948034938699
 20
63.56147112888681
 30
0.0
  0
VERTEX
  5
207
330
205
100
AcDbEntity
  8
Default
100
AcDbVertex
100
AcDb2dVertex
 10
11.8665774086936
 20
63.36838205391146
 30
0.0
  0
SEQEND
  5
208
330
205
100
AcDbEntity
  8
Default
  0
POLYLINE
  5
209
330
1F
100
AcDbEntity
  8
Default
100
AcDb2dPolyline
 66
     1
 10
0.0
 20
0.0
 30
0.0
  0
VERTEX
  5
20A
330
209
100
AcDbEntity
  8
Default
100
AcDbVertex
100
AcDb2dVertex
 10
-7.414966680338893
 20
48.24994792634695
 30
0.0
  0
VERTEX
  5
20B
330
209
100
AcDbEntity
  8
Default
100
AcDbVertex
100
AcDb2dVertex
 10
-7.105424225558608
 20
48.71351490635008
 30
0.0
  0
SEQEND
  5
20C
330
209
100
AcDbEntity
  8
Default
  0
POLYLINE
  5
20D
330
1F
100
AcDbEntity
  8
Default
100
AcDb2dPolyline
 66
     1
 10
0.0
 20
0.0
 30
0.0
  0
VERTEX
  5
20E
330
20D
100
AcDbEntity
  8
Default
100
AcDbVertex
100
AcDb2dVertex
 10
-12.05553229512212
 20
62.65015006026161
 30
0.0
  0
VERTEX
  5
20F
330
20D
100
AcDbEntity
  8
Default
100
AcDbVertex
100
AcDb2dVertex
 10
-12.05553229512213
 20
61.2207294349345
 30
0.0
  0
SEQEND
  5
210
330
20D
100
AcDbEntity
  8
Default
  0
SPLINE
  5
211
330
1F
100
AcDbEntity
  8
Default
100
AcDbSpline
210
0.0
220
0.0
230
1.0
 70
    12
 71
     2
 72
     6
 73
     3
 74
     0
 42
0.0000000001
 43
0.0000000001
 40
0.0
 40
0.0
 40
0.0
 40
0.109941564851661
 40
0.109941564851661
 40
0.109941564851661
 10
-12.05553229512213
 20
61.2207294349345
 30
0.0
 41
1.0
 10
-12.05549926066744
 20
61.15076246938784
 30
0.0
 41
0.7074405726109262
 10
-11.98553229512213
 20
61.15072943209449
 30
0.0
 41
1.0
  0
SPLINE
  5
212
330
1F
100
AcDbEntity
  8
Default
100
AcDbSpline
210
0.0
220
0.0
230
1.0
 70
    24
 71
     2
 72
     6
 73
     3
 74
     0
 42
0.0000000001
 43
0.0000000001
 40
0.0
 40
0.0
 40
0.0
 40
0.3520000000000003
 40
0.3520000000000003
 40
0.3520000000000003
 10
-11.98553229512213
 20
61.15072943209449
 30
0.0
 10
-11.80953229512212
 20
61.15072943209449
 30
0.0
 10
-11.63353229512212
 20
61.15072943209449
 30
0.0
  0
SPLINE
  5
213
330
1F
100
AcDbEntity
  8
Default
100
AcDbSpline
210
0.0
220
0.0
230
1.0
 70
    12
 71
     2
 72
     6
 73
     3
 74
     0
 42
0.0000000001
 43
0.0000000001
 40
0.0
 40
0.0
 40
0.0
 40
0.2356186331260159
 40
0.2356186331260159
 40
0.2356186331260159
 10
-11.63353229512212
 20
61.15072943209449
 30
0.0
 41
1.0
 10
-11.48353419996378
 20
61.15073133986809
 30
0.0
 41
0.7071157676638842
 10
-11.48353229512213
 20
61.30072943502648
 30
0.0
 41
1.0
  0
POLYLINE
  5
214
330
1F
100
AcDbEntity
  8
Default
100
AcDb2dPolyline
 66
     1
 10
0.0
 20
0.0
 30
0.0
  0
VERTEX
  5
215
330
214
100
AcDbEntity
  8
Default
100
AcDbVertex
100
AcDb2dVertex
 10
-11.48353229512213
 20
61.30072943502648
 30
0.0
  0
VERTEX
  5
216
330
214
100
AcDbEntity
  8
Default
100
AcDbVertex
100
AcDb2dVertex
 10
-11.48353229512213
 20
62.45711949461327
 30
0.0
  0
SEQEND
  5
217
330
214
100
AcDbEntity
  8
Default
  0
POLYLINE
  5
218
330
1F
100
AcDbEntity
  8
Default
100
AcDb2dPolyline
 66
     1
 10
0.0
 20
0.0
 30
0.0
  0
VERTEX
  5
219
330
218
100
AcDbEntity
  8
Default
100
AcDbVertex
100
AcDb2dVertex
 10
-11.48353229512213
 20
63.24853121267753
 30
0.0
  0
VERTEX
  5
21A
330
218
100
AcDbEntity
  8
Default
100
AcDbVertex
100
AcDb2dVertex
 10
-11.48353229512213
 20
63.56072942916248
 30
0.0
  0
SEQEND
  5
21B
330
218
100
AcDbEntity
  8
Default
  0
SPLINE
  5
21C
330
1F
100
AcDbEntity
  8
Default
100
AcDbSpline
210
0.0
220
0.0
230
1.0
 70
    12
 71
     2
 72
     6
 73
     3
 74
     0
 42
0.0000000001
 43
0.0000000001
 40
0.0
 40
0.0
 40
0.0
 40
0.2355890798875016
 40
0.2355890798875016
 40
0.2355890798875016
 10
-11.48353229512213
 20
63.56072942916248
 30
0.0
 41
1.0
 10
-11.48360305027991
 20
63.71065867400608
 30
0.0
 41
0.7074404097356639
 10
-11.63353229512212
 20
63.7107294320945
 30
0.0
 41
1.0
  0
SPLINE
  5
21D
330
1F
100
AcDbEntity
  8
Default
100
AcDbSpline
210
0.0
220
0.0
230
1.0
 70
    24
 71
     2
 72
     6
 73
     3
 74
     0
 42
0.0000000001
 43
0.0000000001
 40
0.0
 40
0.0
 40
0.0
 40
0.3520000000000003
 40
0.3520000000000003
 40
0.3520000000000003
 10
-11.63353229512212
 20
63.7107294320945
 30
0.0
 10
-11.80953229512212
 20
63.7107294320945
 30
0.0
 10
-11.98553229512213
 20
63.7107294320945
 30
0.0
  0
SPLINE
  5
21E
330
1F
100
AcDbEntity
  8
Default
100
AcDbSpline
210
0.0
220
0.0
230
1.0
 70
    12
 71
     2
 72
     6
 73
     3
 74
     0
 42
0.0000000001
 43
0.0000000001
 40
0.0
 40
0.0
 40
0.0
 40
0.1098876245644455
 40
0.1098876245644455
 40
0.1098876245644455
 10
-11.98553229512213
 20
63.7107294320945
 30
0.0
 41
1.0
 10
-12.05537364333181
 20
63.7105707774706
 30
0.0
 41
0.7087112325863247
 10
-12.05553229512212
 20
63.64072942925449
 30
0.0
 41
1.0
  0
POLYLINE
  5
21F
330
1F
100
AcDbEntity
  8
Default
100
AcDb2dPolyline
 66
     1
 10
0.0
 20
0.0
 30
0.0
  0
VERTEX
  5
220
330
21F
100
AcDbEntity
  8
Default
100
AcDbVertex
100
AcDb2dVertex
 10
-12.05553229512212
 20
63.64072942925449
 30
0.0
  0
VERTEX
  5
221
330
21F
100
AcDbEntity
  8
Default
100
AcDbVertex
100
AcDb2dVertex
 10
-12.05553229512212
 20
63.43797093846908
 30
0.0
  0
SEQEND
  5
222
330
21F
100
AcDbEntity
  8
Default
  0
LINE
  5
223
330
1F
100
AcDbEntity
  8
Default
100
AcDbLine
 10
-12.12453238469644
 20
62.67184331194747
 30
0.0
 11
-12.12453263410821
 21
61.20366993884565
 31
0.0
  0
SPLINE
  5
224
330
1F
100
AcDbEntity
  8
Default
100
AcDbSpline
210
0.0
220
0.0
230
1.0
 70
    12
 71
     2
 72
     6
 73
     3
 74
     0
 42
0.0000000001
 43
0.0000000001
 40
-0.0784456577816192
 40
-0.0784456577816192
 40
-0.0784456577816192
 40
0.0
 40
0.0
 40
0.0
 10
-12.12453266386564
 20
61.20366993884565
 30
0.0
 41
1.0
 10
-12.12459232534237
 20
61.15372996923488
 30
0.0
 41
0.707107785543906
 10
-12.17453229512242
 20
61.15378948884447
 30
0.0
 41
1.0
  0
SPLINE
  5
225
330
1F
100
AcDbEntity
  8
Default
100
AcDbSpline
210
0.0
220
0.0
230
1.0
 70
    12
 71
     2
 72
     6
 73
     3
 74
     0
 42
0.0000000001
 43
0.0000000001
 40
-0.0351460122197656
 40
-0.0351460122197656
 40
-0.0351460122197656
 40
0.0
 40
0.0
 40
0.0
 10
-12.17453229512242
 20
61.15378948884447
 30
0.0
 41
1.0
 10
-12.19190837757673
 20
61.15062208489723
 30
0.0
 41
0.9924246303389436
 10
-12.20953230058349
 20
61.15178742908481
 30
0.0
 41
1.0
  0
SPLINE
  5
226
330
1F
100
AcDbEntity
  8
Default
100
AcDbSpline
210
0.0
220
0.0
230
1.0
 70
    24
 71
     2
 72
     6
 73
     3
 74
     0
 42
0.0000000001
 43
0.0000000001
 40
0.0
 40
0.0
 40
0.0
 40
0.6179999945348698
 40
0.6179999945348698
 40
0.6179999945348698
 10
-12.20953230058349
 20
61.15178742908481
 30
0.0
 10
-12.51853229785092
 20
61.15178742908476
 30
0.0
 10
-12.82753229511836
 20
61.15178742908472
 30
0.0
  0
SPLINE
  5
227
330
1F
100
AcDbEntity
  8
Default
100
AcDbSpline
210
0.0
220
0.0
230
1.0
 70
    12
 71
     2
 72
     6
 73
     3
 74
     0
 42
0.0000000001
 43
0.0000000001
 40
-0.0351460068279919
 40
-0.0351460068279919
 40
-0.0351460068279919
 40
0.0
 40
0.0
 40
0.0
 10
-12.82753229511836
 20
61.15178742908472
 30
0.0
 41
1.0
 10
-12.84515621544933
 20
61.15062208454401
 30
0.0
 41
0.9924246250463485
 10
-12.8625322951218
 20
61.1537894889934
 30
0.0
 41
1.0
  0
SPLINE
  5
228
330
1F
100
AcDbEntity
  8
Default
100
AcDbSpline
210
0.0
220
0.0
230
1.0
 70
    12
 71
     2
 72
     6
 73
     3
 74
     0
 42
0.0000000001
 43
0.0000000001
 40
-0.0784456575506041
 40
-0.0784456575506041
 40
-0.0784456575506041
 40
0.0
 40
0.0
 40
0.0
 10
-12.8625322951218
 20
61.1537894889934
 30
0.0
 41
1.0
 10
-12.91247226494329
 20
61.15372996886714
 30
0.0
 41
0.7071077818591103
 10
-12.91253194127613
 20
61.20366993851999
 30
0.0
 41
1.0
  0
LINE
  5
229
330
1F
100
AcDbEntity
  8
Default
100
AcDbLine
 10
-12.91253194127613
 20
61.20366993851999
 30
0.0
 11
-12.91253228423274
 21
63.13502549320197
 31
0.0
  0
ARC
  5
22A
330
1F
100
AcDbEntity
  8
Default
100
AcDbCircle
 10
3515557.381705795
 20
63.73586889063188
 30
0.0
 40
3515570.294238132
100
AcDbArc
 50
180.0000088558216
 51
180.0000097923777
  0
ARC
  5
22B
330
1F
100
AcDbEntity
  8
Make2D visible lines - Tangent
100
AcDbCircle
 10
3515562.163263807
 20
49.01974651371386
 30
0.0
 40
3515570.294238132
100
AcDbArc
 50
180.0000088571633
 51
180.0000097923777
  0
LINE
  5
22C
330
1F
100
AcDbEntity
  8
Make2D visible lines - Tangent
100
AcDbLine
 10
-8.130974271802728
 20
48.41890311628394
 30
0.0
 11
-8.130973928846132
 21
46.48754756160197
 31
0.0
  0
SPLINE
  5
22D
330
1F
100
AcDbEntity
  8
Make2D visible lines - Tangent
100
AcDbSpline
210
0.0
220
0.0
230
1.0
 70
    12
 71
     2
 72
     6
 73
     3
 74
     0
 42
0.0000000001
 43
0.0000000001
 40
0.0
 40
0.0
 40
0.0
 40
0.0784456575506041
 40
0.0784456575506041
 40
0.0784456575506041
 10
-8.130973928846132
 20
46.48754756160197
 30
0.0
 41
1.0
 10
-8.130914252513282
 20
46.43760759194912
 30
0.0
 41
0.7071077818591103
 10
-8.080974282691798
 20
46.43766711207537
 30
0.0
 41
1.0
  0
SPLINE
  5
22E
330
1F
100
AcDbEntity
  8
Make2D visible lines - Tangent
100
AcDbSpline
210
0.0
220
0.0
230
1.0
 70
    12
 71
     2
 72
     6
 73
     3
 74
     0
 42
0.0000000001
 43
0.0000000001
 40
0.0
 40
0.0
 40
0.0
 40
0.0351460068279919
 40
0.0351460068279919
 40
0.0351460068279919
 10
-8.080974282691798
 20
46.43766711207537
 30
0.0
 41
1.0
 10
-8.063598203019323
 20
46.434499707626
 30
0.0
 41
0.9924246250463485
 10
-8.045974282688363
 20
46.4356650521667
 30
0.0
 41
1.0
  0
SPLINE
  5
22F
330
1F
100
AcDbEntity
  8
Make2D visible lines - Tangent
100
AcDbSpline
210
0.0
220
0.0
230
1.0
 70
    24
 71
     2
 72
     6
 73
     3
 74
     0
 42
0.0000000001
 43
0.0000000001
 40
-0.6179999945348698
 40
-0.6179999945348698
 40
-0.6179999945348698
 40
0.0
 40
0.0
 40
0.0
 10
-8.045974282688363
 20
46.4356650521667
 30
0.0
 10
-7.736974285420928
 20
46.43566505216674
 30
0.0
 10
-7.427974288153493
 20
46.43566505216678
 30
0.0
  0
SPLINE
  5
230
330
1F
100
AcDbEntity
  8
Make2D visible lines - Tangent
100
AcDbSpline
210
0.0
220
0.0
230
1.0
 70
    12
 71
     2
 72
     6
 73
     3
 74
     0
 42
0.0000000001
 43
0.0000000001
 40
0.0
 40
0.0
 40
0.0
 40
0.0351460122197656
 40
0.0351460122197656
 40
0.0351460122197656
 10
-7.427974288153493
 20
46.43566505216678
 30
0.0
 41
1.0
 10
-7.41035036514673
 20
46.43449970797922
 30
0.0
 41
0.9924246303389436
 10
-7.392974282692421
 20
46.43766711192644
 30
0.0
 41
1.0
  0
SPLINE
  5
231
330
1F
100
AcDbEntity
  8
Make2D visible lines - Tangent
100
AcDbSpline
210
0.0
220
0.0
230
1.0
 70
    12
 71
     2
 72
     6
 73
     3
 74
     0
 42
0.0000000001
 43
0.0000000001
 40
0.0
 40
0.0
 40
0.0
 40
0.0784456577816192
 40
0.0784456577816192
 40
0.0784456577816192
 10
-7.392974282692421
 20
46.43766711192644
 30
0.0
 41
1.0
 10
-7.343034312912369
 20
46.43760759231686
 30
0.0
 41
0.707107785543906
 10
-7.34297465143564
 20
46.48754756192763
 30
0.0
 41
1.0
  0
LINE
  5
232
330
1F
100
AcDbEntity
  8
Make2D visible lines - Tangent
100
AcDbLine
 10
-7.342974621678209
 20
46.48754756192763
 30
0.0
 11
-7.342974303152346
 21
48.35776282652107
 31
0.0
  0
ARC
  5
233
330
1F
100
AcDbEntity
  8
Default
100
AcDbCircle
 10
-3515562.163765607
 20
49.01974651371386
 30
0.0
 40
3515570.294238132
100
AcDbArc
 50
359.9999902076223
 51
359.9999911428347
  0
LINE
  5
234
330
1F
100
AcDbEntity
  8
Default
100
AcDbLine
 10
8.130472473018472
 20
48.41890311628394
 30
0.0
 11
8.130472130061875
 21
46.48754756160197
 31
0.0
  0
SPLINE
  5
235
330
1F
100
AcDbEntity
  8
Default
100
AcDbSpline
210
0.0
220
0.0
230
1.0
 70
    12
 71
     2
 72
     6
 73
     3
 74
     0
 42
0.0000000001
 43
0.0000000001
 40
0.0
 40
0.0
 40
0.0
 40
0.0784456575506041
 40
0.0784456575506041
 40
0.0784456575506041
 10
8.130472130061875
 20
46.48754756160197
 30
0.0
 41
1.0
 10
8.13041245372904
 20
46.43760759194912
 30
0.0
 41
0.7071077818591103
 10
8.080472483907542
 20
46.43766711207537
 30
0.0
 41
1.0
  0
SPLINE
  5
236
330
1F
100
AcDbEntity
  8
Default
100
AcDbSpline
210
0.0
220
0.0
230
1.0
 70
    12
 71
     2
 72
     6
 73
     3
 74
     0
 42
0.0000000001
 43
0.0000000001
 40
0.0
 40
0.0
 40
0.0
 40
0.0351460068279919
 40
0.0351460068279919
 40
0.0351460068279919
 10
8.080472483907542
 20
46.43766711207537
 30
0.0
 41
1.0
 10
8.063096404235047
 20
46.434499707626
 30
0.0
 41
0.9924246250463485
 10
8.045472483904106
 20
46.4356650521667
 30
0.0
 41
1.0
  0
SPLINE
  5
237
330
1F
100
AcDbEntity
  8
Default
100
AcDbSpline
210
0.0
220
0.0
230
1.0
 70
    24
 71
     2
 72
     6
 73
     3
 74
     0
 42
0.0000000001
 43
0.0000000001
 40
-0.6179999945348698
 40
-0.6179999945348698
 40
-0.6179999945348698
 40
0.0
 40
0.0
 40
0.0
 10
8.045472483904106
 20
46.4356650521667
 30
0.0
 10
7.736472486636671
 20
46.43566505216674
 30
0.0
 10
7.427472489369237
 20
46.43566505216678
 30
0.0
  0
SPLINE
  5
238
330
1F
100
AcDbEntity
  8
Default
100
AcDbSpline
210
0.0
220
0.0
230
1.0
 70
    12
 71
     2
 72
     6
 73
     3
 74
     0
 42
0.0000000001
 43
0.0000000001
 40
0.0
 40
0.0
 40
0.0
 40
0.0351460122197656
 40
0.0351460122197656
 40
0.0351460122197656
 10
7.427472489369237
 20
46.43566505216678
 30
0.0
 41
1.0
 10
7.409848566362476
 20
46.43449970797922
 30
0.0
 41
0.9924246303389436
 10
7.392472483908165
 20
46.43766711192644
 30
0.0
 41
1.0
  0
SPLINE
  5
239
330
1F
100
AcDbEntity
  8
Default
100
AcDbSpline
210
0.0
220
0.0
230
1.0
 70
    12
 71
     2
 72
     6
 73
     3
 74
     0
 42
0.0000000001
 43
0.0000000001
 40
0.0
 40
0.0
 40
0.0
 40
0.0784456577816192
 40
0.0784456577816192
 40
0.0784456577816192
 10
7.392472483908165
 20
46.43766711192644
 30
0.0
 41
1.0
 10
7.342532514128115
 20
46.43760759231686
 30
0.0
 41
0.707107785543906
 10
7.342472822893953
 20
46.48754756192763
 30
0.0
 41
1.0
  0
LINE
  5
23A
330
1F
100
AcDbEntity
  8
Default
100
AcDbLine
 10
7.342472822893953
 20
46.48754756192763
 30
0.0
 11
7.342472505183707
 21
48.35776282530658
 31
0.0
  0
ARC
  5
23B
330
1F
100
AcDbEntity
  8
Default
100
AcDbCircle
 10
3515557.381705795
 20
63.73586889063188
 30
0.0
 40
3515570.294238132
100
AcDbArc
 50
180.0000012526127
 51
180.0000088558216
  0
SPLINE
  5
23C
330
1F
100
AcDbEntity
  8
Default
100
AcDbSpline
210
0.0
220
0.0
230
1.0
 70
    12
 71
     2
 72
     6
 73
     3
 74
     0
 42
0.0000000001
 43
0.0000000001
 40
0.0
 40
0.0
 40
0.0
 40
0.0784842030870699
 40
0.0784842030870699
 40
0.0784842030870699
 10
-12.91253233563631
 20
63.65901075165388
 30
0.0
 41
1.0
 10
-12.91249610933046
 20
63.70897456438877
 30
0.0
 41
0.7071217743558633
 10
-12.86253229512174
 20
63.7089408693989
 30
0.0
 41
1.0
  0
POLYLINE
  5
23D
330
1F
100
AcDbEntity
  8
Default
100
AcDb2dPolyline
 66
     1
 10
0.0
 20
0.0
 30
0.0
  0
VERTEX
  5
23E
330
23D
100
AcDbEntity
  8
Default
100
AcDbVertex
100
AcDb2dVertex
 10
-12.86253229512174
 20
63.7089408693989
 30
0.0
  0
VERTEX
  5
23F
330
23D
100
AcDbEntity
  8
Default
100
AcDbVertex
100
AcDb2dVertex
 10
-12.17453229512252
 20
63.7089408693989
 30
0.0
  0
SEQEND
  5
240
330
23D
100
AcDbEntity
  8
Default
  0
SPLINE
  5
241
330
1F
100
AcDbEntity
  8
Default
100
AcDbSpline
210
0.0
220
0.0
230
1.0
 70
    12
 71
     2
 72
     6
 73
     3
 74
     0
 42
0.0000000001
 43
0.0000000001
 40
-0.0784842030870699
 40
-0.0784842030870699
 40
-0.0784842030870699
 40
0.0
 40
0.0
 40
0.0
 10
-12.17453229512252
 20
63.7089408693989
 30
0.0
 41
1.0
 10
-12.12456848091382
 20
63.70897456438877
 30
0.0
 41
0.7071217743558633
 10
-12.12453225460794
 20
63.65901075165388
 30
0.0
 41
1.0
  0
ARC
  5
242
330
1F
100
AcDbEntity
  8
Default
100
AcDbCircle
 10
-3515582.418770386
 20
63.73586889063188
 30
0.0
 40
3515570.294238132
100
AcDbArc
 50
359.9999955601949
 51
359.9999987473872
  0
POLYLINE
  5
243
330
1F
100
AcDbEntity
  8
Make2D visible lines - Tangent
100
AcDb2dPolyline
 66
     1
 10
0.0
 20
0.0
 30
0.0
  0
VERTEX
  5
244
330
243
100
AcDbEntity
  8
Make2D visible lines - Tangent
100
AcDbVertex
100
AcDb2dVertex
 10
-7.827943573480852
 20
48.99281849248091
 30
0.0
  0
VERTEX
  5
245
330
243
100
AcDbEntity
  8
Make2D visible lines - Tangent
100
AcDbVertex
100
AcDb2dVertex
 10
-8.080974282691727
 20
48.99281849248091
 30
0.0
  0
SEQEND
  5
246
330
243
100
AcDbEntity
  8
Make2D visible lines - Tangent
  0
SPLINE
  5
247
330
1F
100
AcDbEntity
  8
Make2D visible lines - Tangent
100
AcDbSpline
210
0.0
220
0.0
230
1.0
 70
    12
 71
     2
 72
     6
 73
     3
 74
     0
 42
0.0000000001
 43
0.0000000001
 40
-0.0784842030870699
 40
-0.0784842030870699
 40
-0.0784842030870699
 40
0.0
 40
0.0
 40
0.0
 10
-8.080974282691727
 20
48.99281849248091
 30
0.0
 41
1.0
 10
-8.130938096900458
 20
48.99285218747076
 30
0.0
 41
0.7071217743558633
 10
-8.130974323206317
 20
48.94288837473589
 30
0.0
 41
1.0
  0
ARC
  5
248
330
1F
100
AcDbEntity
  8
Make2D visible lines - Tangent
100
AcDbCircle
 10
3515562.163263807
 20
49.01974651371386
 30
0.0
 40
3515570.294238132
100
AcDbArc
 50
180.0000012526127
 51
180.0000088571633
  0
SPLINE
  5
249
330
1F
100
AcDbEntity
  8
Make2D visible lines - Tangent
100
AcDbSpline
210
0.0
220
0.0
230
1.0
 70
    12
 71
     2
 72
     6
 73
     3
 74
     0
 42
0.0000000001
 43
0.0000000001
 40
-3.403321403424402
 40
-3.403321403424402
 40
-3.403321403424402
 40
0.0
 40
0.0
 40
0.0
 10
-8.871493389593779
 20
61.57518773986182
 30
0.0
 41
0.9999999483996463
 10
-10.48366460394428
 20
62.11975464730313
 30
0.0
 41
0.9999999615293037
 10
-12.09600911436775
 20
62.66380824830935
 30
0.0
 41
1.0
  0
SPLINE
  5
24A
330
1F
100
AcDbEntity
  8
Make2D visible lines - Tangent
100
AcDbSpline
210
0.0
220
0.0
230
1.0
 70
     8
 71
     3
 72
    11
 73
     7
 74
     0
 42
0.0000000001
 43
0.0000000001
 40
-0.5061957594563898
 40
-0.5061957594563898
 40
-0.5061957594563898
 40
-0.5061957594563898
 40
-0.2779307972340258
 40
-0.1436576036068027
 40
-0.0724650654421722
 40
0.0
 40
0.0
 40
0.0
 40
0.0
 10
-12.09600911436775
 20
62.66380824830935
 30
0.0
 10
-12.17060241109677
 20
62.6877411813029
 30
0.0
 10
-12.24974773729282
 20
62.79269956860628
 30
0.0
 10
-12.26621843104023
 20
62.93746302340617
 30
0.0
 10
-12.2579150382581
 20
63.03013413130441
 30
0.0
 10
-12.24590059329661
 20
63.07659514809578
 30
0.0
 10
-12.23859494475452
 20
63.09961601370944
 30
0.0
  0
SPLINE
  5
24B
330
1F
100
AcDbEntity
  8
Make2D visible lines - Tangent
100
AcDbSpline
210
0.0
220
0.0
230
1.0
 70
     8
 71
     3
 72
    11
 73
     7
 74
     0
 42
0.0000000001
 43
0.0000000001
 40
0.0
 40
0.0
 40
0.0
 40
0.0
 40
0.0724650654421701
 40
0.143657603606799
 40
0.2779307972340275
 40
0.5061957594563471
 40
0.5061957594563471
 40
0.5061957594563471
 40
0.5061957594563471
 10
-12.23859494475452
 20
63.09961601370944
 30
0.0
 10
-12.23097401327723
 20
63.12253443768753
 30
0.0
 10
-12.21338480295252
 20
63.16718410341056
 30
0.0
 10
-12.16563167828815
 20
63.24703721640915
 30
0.0
 10
-12.06721678333501
 20
63.35447208062686
 30
0.0
 10
-11.94149387725574
 20
63.39286474413154
 30
0.0
 10
-11.86707920747806
 20
63.36838205391081
 30
0.0
  0
SPLINE
  5
24C
330
1F
100
AcDbEntity
  8
Make2D visible lines - Tangent
100
AcDbSpline
210
0.0
220
0.0
230
1.0
 70
    12
 71
     2
 72
     6
 73
     3
 74
     0
 42
0.0000000001
 43
0.0000000001
 40
0.0
 40
0.0
 40
0.0
 40
3.309460617476487
 40
3.309460617476487
 40
3.309460617476487
 10
-11.86707920747806
 20
63.36838205391081
 30
0.0
 41
1.0
 10
-10.28767273724155
 20
62.8748158598256
 30
0.0
 41
0.9999999620019553
 10
-8.708112341139545
 20
62.38174249689185
 30
0.0
 41
0.9999999483431025
  0
SPLINE
  5
24D
330
1F
100
AcDbEntity
  8
Make2D visible lines - Tangent
100
AcDbSpline
210
0.0
220
0.0
230
1.0
 70
    12
 71
     2
 72
     6
 73
     3
 74
     0
 42
0.0000000001
 43
0.0000000001
 40
-2.701359589562231
 40
-2.701359589562231
 40
-2.701359589562231
 40
0.0
 40
0.0
 40
0.0
 10
6.141466579857167
 20
51.3523703113993
 30
0.0
 41
0.9999999548939029
 10
6.922728436599568
 20
50.25056915484605
 30
0.0
 41
0.9999999694641876
 10
7.704268704053476
 20
49.14896546579504
 30
0.0
 41
1.0
  0
SPLINE
  5
24E
330
1F
100
AcDbEntity
  8
Make2D visible lines - Tangent
100
AcDbSpline
210
0.0
220
0.0
230
1.0
 70
     8
 71
     3
 72
    11
 73
     7
 74
     0
 42
0.0000000001
 43
0.0000000001
 40
-0.5061957594563898
 40
-0.5061957594563898
 40
-0.5061957594563898
 40
-0.5061957594563898
 40
-0.2779307972340258
 40
-0.1436576036068027
 40
-0.0724650654421722
 40
0.0
 40
0.0
 40
0.0
 40
0.0
 10
7.704268704053476
 20
49.14896546579504
 30
0.0
 10
7.750548523715977
 20
49.08575847654082
 30
0.0
 10
7.752885445472614
 20
48.95432490198429
 30
0.0
 10
7.681120692821125
 20
48.82752757600699
 30
0.0
 10
7.619932396413219
 20
48.75743568665109
 30
0.0
 10
7.582903405784904
 20
48.72690984805378
 30
0.0
 10
7.563461686656723
 20
48.71257972901859
 30
0.0
  0
SPLINE
  5
24F
330
1F
100
AcDbEntity
  8
Make2D visible lines - Tangent
100
AcDbSpline
210
0.0
220
0.0
230
1.0
 70
     8
 71
     3
 72
    11
 73
     7
 74
     0
 42
0.0000000001
 43
0.0000000001
 40
0.0
 40
0.0
 40
0.0
 40
0.0
 40
0.0724650654421701
 40
0.143657603606799
 40
0.2779307972340275
 40
0.5061957594563471
 40
0.5061957594563471
 40
0.5061957594563471
 40
0.5061957594563471
 10
7.563461686656723
 20
48.71257972901859
 30
0.0
 10
7.543825111958512
 20
48.69851780566708
 30
0.0
 10
7.503350726856411
 20
48.67273414573235
 30
0.0
 10
7.417781155298215
 20
48.63620020269134
 30
0.0
 10
7.275013204012282
 20
48.6071303956102
 30
0.0
 10
7.150734595007663
 20
48.64996814844434
 30
0.0
 10
7.104922426774905
 20
48.71351490635047
 30
0.0
  0
SPLINE
  5
250
330
1F
100
AcDbEntity
  8
Make2D visible lines - Tangent
100
AcDbSpline
210
0.0
220
0.0
230
1.0
 70
    12
 71
     2
 72
     6
 73
     3
 74
     0
 42
0.0000000001
 43
0.0000000001
 40
0.0
 40
0.0
 40
0.0
 40
2.636212692995294
 40
2.636212692995294
 40
2.636212692995294
 10
7.104922426774905
 20
48.71351490635047
 30
0.0
 41
1.0
 10
6.318186794143456
 20
49.77108351064011
 30
0.0
 41
0.9999999697319475
 10
5.531188331657967
 20
50.8284565424868
 30
0.0
 41
0.9999999549076396
  0
SPLINE
  5
251
330
1F
100
AcDbEntity
  8
Make2D visible lines - Tangent
100
AcDbSpline
210
0.0
220
0.0
230
1.0
 70
    12
 71
     2
 72
     6
 73
     3
 74
     0
 42
0.0000000001
 43
0.0000000001
 40
-3.813524120924055
 40
-3.813524120924055
 40
-3.813524120924055
 40
0.0
 40
0.0
 40
0.0
 10
-0.414339668958687
 20
67.90774024585829
 30
0.0
 41
0.9999999456027501
 10
-0.3921633716182486
 20
69.81437335093952
 30
0.0
 41
0.9999999568924264
 10
-0.370667269781336
 20
71.72101424611648
 30
0.0
 41
1.0
  0
SPLINE
  5
252
330
1F
100
AcDbEntity
  8
Make2D visible lines - Tangent
100
AcDbSpline
210
0.0
220
0.0
230
1.0
 70
     8
 71
     3
 72
    11
 73
     7
 74
     0
 42
0.0000000001
 43
0.0000000001
 40
-0.5061957594563898
 40
-0.5061957594563898
 40
-0.5061957594563898
 40
-0.5061957594563898
 40
-0.2779307972340258
 40
-0.1436576036068027
 40
-0.0724650654421722
 40
0.0
 40
0.0
 40
0.0
 40
0.0
 10
-0.370667269781336
 20
71.72101424611648
 30
0.0
 10
-0.3709562942594715
 20
71.79935237006282
 30
0.0
 10
-0.2955921868947087
 20
71.90705797365482
 30
0.0
 10
-0.163003684162959
 20
71.96745690196877
 30
0.0
 10
-0.0723023336433926
 20
71.9881968533841
 30
0.0
 10
-0.0244026131991859
 20
71.99112768097825
 30
0.0
 10
-0.0002508993921282
 20
71.99129343502639
 30
0.0
  0
SPLINE
  5
253
330
1F
100
AcDbEntity
  8
Make2D visible lines - Tangent
100
AcDbSpline
210
0.0
220
0.0
230
1.0
 70
     8
 71
     3
 72
    11
 73
     7
 74
     0
 42
0.0000000001
 43
0.0000000001
 40
0.0
 40
0.0
 40
0.0
 40
0.0
 40
0.0724650654421701
 40
0.143657603606799
 40
0.2779307972340275
 40
0.5061957594563471
 40
0.5061957594563471
 40
0.5061957594563471
 40
0.5061957594563471
 10
-0.0002508993921282
 20
71.99129343502639
 30
0.0
 10
0.0239008144149153
 20
71.9911276809782
 30
0.0
 10
0.0718005348591646
 20
71.98819685338395
 30
0.0
 10
0.1625018853787168
 20
71.96745690196877
 30
0.0
 10
0.2950903881104097
 20
71.90705797365473
 30
0.0
 10
0.3704544954751725
 20
71.79935237006273
 30
0.0
 10
0.3701654709964117
 20
71.72101424611648
 30
0.0
  0
SPLINE
  5
254
330
1F
100
AcDbEntity
  8
Make2D visible lines - Tangent
100
AcDbSpline
210
0.0
220
0.0
230
1.0
 70
    12
 71
     2
 72
     6
 73
     3
 74
     0
 42
0.0000000001
 43
0.0000000001
 40
0.0
 40
0.0
 40
0.0
 40
3.81347611961648
 40
3.81347611961648
 40
3.81347611961648
 10
0.3701654709964117
 20
71.72101424611648
 30
0.0
 41
1.0
 10
0.3916604985228425
 20
69.81439734088333
 30
0.0
 41
0.9999999562150292
 10
0.4138410291725867
 20
67.90778828719948
 30
0.0
 41
0.9999999447472627
  0
SPLINE
  5
255
330
1F
100
AcDbEntity
  8
Make2D visible lines - Tangent
100
AcDbSpline
210
0.0
220
0.0
230
1.0
 70
    12
 71
     2
 72
     6
 73
     3
 74
     0
 42
0.0000000001
 43
0.0000000001
 40
-2.637661450887665
 40
-2.637661450887665
 40
-2.637661450887665
 40
0.0
 40
0.0
 40
0.0
 10
-5.530826275448786
 20
50.82961958056028
 30
0.0
 41
0.9999999555899155
 10
-6.318255788049663
 20
49.77166437671839
 30
0.0
 41
0.9999999701842229
 10
-7.105424225558608
 20
48.71351490635008
 30
0.0
 41
1.0
  0
SPLINE
  5
256
330
1F
100
AcDbEntity
  8
Make2D visible lines - Tangent
100
AcDbSpline
210
0.0
220
0.0
230
1.0
 70
     8
 71
     3
 72
    11
 73
     7
 74
     0
 42
0.0000000001
 43
0.0000000001
 40
-0.5061957594563898
 40
-0.5061957594563898
 40
-0.5061957594563898
 40
-0.5061957594563898
 40
-0.2779307972340258
 40
-0.1436576036068027
 40
-0.0724650654421722
 40
0.0
 40
0.0
 40
0.0
 40
0.0
 10
-7.105424225558608
 20
48.71351490635008
 30
0.0
 10
-7.151236393791919
 20
48.64996814844426
 30
0.0
 10
-7.275515002796539
 20
48.60713039561011
 30
0.0
 10
-7.418282954082486
 20
48.63620020269134
 30
0.0
 10
-7.503852525640752
 20
48.67273414573226
 30
0.0
 10
-7.544326910742797
 20
48.69851780566704
 30
0.0
 10
-7.563963485440979
 20
48.71257972901859
 30
0.0
  0
SPLINE
  5
257
330
1F
100
AcDbEntity
  8
Make2D visible lines - Tangent
100
AcDbSpline
210
0.0
220
0.0
230
1.0
 70
     8
 71
     3
 72
    11
 73
     7
 74
     0
 42
0.0000000001
 43
0.0000000001
 40
0.0
 40
0.0
 40
0.0
 40
0.0
 40
0.0724650654421701
 40
0.143657603606799
 40
0.2779307972340275
 40
0.5061957594563471
 40
0.5061957594563471
 40
0.5061957594563471
 40
0.5061957594563471
 10
-7.563963485440979
 20
48.71257972901859
 30
0.0
 10
-7.583405204569118
 20
48.72690984805382
 30
0.0
 10
-7.620434195197419
 20
48.75743568665121
 30
0.0
 10
-7.681622491605381
 20
48.82752757600701
 30
0.0
 10
-7.7533872442568
 20
48.95432490198434
 30
0.0
 10
-7.751050322500149
 20
49.08575847654086
 30
0.0
 10
-7.704770502837178
 20
49.14896546579465
 30
0.0
  0
SPLINE
  5
258
330
1F
100
AcDbEntity
  8
Make2D visible lines - Tangent
100
AcDbSpline
210
0.0
220
0.0
230
1.0
 70
    12
 71
     2
 72
     6
 73
     3
 74
     0
 42
0.0000000001
 43
0.0000000001
 40
0.0
 40
0.0
 40
0.0
 40
2.703011912568099
 40
2.703011912568099
 40
2.703011912568099
 10
-7.704770502837178
 20
49.14896546579465
 30
0.0
 41
1.0
 10
-6.922751731165697
 20
50.25124263580472
 30
0.0
 41
0.9999999689649827
 10
-6.141013893220584
 20
51.35371906253543
 30
0.0
 41
0.9999999541662868
  0
SPLINE
  5
259
330
1F
100
AcDbEntity
  8
Make2D visible lines
100
AcDbSpline
210
0.0
220
0.0
230
1.0
 70
    24
 71
     2
 72
     6
 73
     3
 74
     0
 42
0.0000000001
 43
0.0000000001
 40
0.0
 40
0.0
 40
0.0
 40
0.0653749093108864
 40
0.0653749093108864
 40
0.0653749093108864
 10
7.273472483907867
 20
48.02960705517647
 30
0.0
 10
7.306159938563312
 20
48.02960705517647
 30
0.0
 10
7.338847393218757
 20
48.02960705517647
 30
0.0
  0
SPLINE
  5
25A
330
1F
100
AcDbEntity
  8
Make2D visible lines
100
AcDbSpline
210
0.0
220
0.0
230
1.0
 70
    24
 71
     2
 72
     6
 73
     3
 74
     0
 42
0.0000000001
 43
0.0000000001
 40
0.0
 40
0.0
 40
0.0
 40
0.071889705667429
 40
0.071889705667429
 40
0.071889705667429
 10
7.345362189575297
 20
47.39960705517647
 30
0.0
 10
7.309417336741582
 20
47.39960705517647
 30
0.0
 10
7.273472483907867
 20
47.39960705517647
 30
0.0
  0
SPLINE
  5
25B
330
1F
100
AcDbEntity
  8
Make2D visible lines
100
AcDbSpline
210
0.0
220
0.0
230
1.0
 70
     8
 71
     3
 72
    14
 73
    10
 74
     0
 42
0.0000000001
 43
0.0000000001
 40
0.0
 40
0.0
 40
0.0
 40
0.0
 40
1.481699860261515
 40
2.955788216511599
 40
4.416700758545095
 40
5.884108663557239
 40
7.358109975686019
 40
8.8584154561495
 40
11.80891716318226
 40
11.80891716318226
 40
11.80891716318226
 40
11.80891716318226
 10
0.0009028715117719
 20
64.57850594045094
 30
0.0
 10
0.4947774420256479
 20
64.57867029116059
 30
0.0
 10
1.480309891801545
 20
64.48526529972312
 30
0.0
 10
2.897187057612562
 20
64.05885695001142
 30
0.0
 10
4.19602443079284
 20
63.35992329880457
 30
0.0
 10
5.329135189388444
 20
62.41610291750671
 30
0.0
 10
6.265131882910473
 20
61.25992439694438
 30
0.0
 10
7.188475856729801
 20
59.50296511775447
 30
0.0
 10
7.475396178977429
 20
58.01892751208648
 30
0.0
 10
7.472630799394389
 20
57.03544716896486
 30
0.0
  0
SPLINE
  5
25C
330
1F
100
AcDbEntity
  8
Make2D visible lines
100
AcDbSpline
210
0.0
220
0.0
230
1.0
 70
     8
 71
     3
 72
    14
 73
    10
 74
     0
 42
0.0000000001
 43
0.0000000001
 40
-11.77268051163042
 40
-11.77268051163042
 40
-11.77268051163042
 40
-11.77268051163042
 40
-10.31305521956241
 40
-9.555794665613513
 40
-8.831339706698616
 40
-5.863857530525329
 40
-2.926562433324921
 40
-1.46251707193435
 40
0.0
 40
0.0
 40
0.0
 40
0.0
 10
7.472630799394389
 20
57.03544716896486
 30
0.0
 10
7.471518669930325
 20
56.54885055655737
 30
0.0
 10
7.397504122070887
 20
55.81029954546689
 30
0.0
 10
7.160381017466579
 20
54.85761367849919
 30
0.0
 10
6.663671088326578
 20
53.45858127067774
 30
0.0
 10
5.419815613552223
 20
51.58023505090637
 30
0.0
 10
3.342920107202004
 20
50.18101085595497
 30
0.0
 10
1.463656970618733
 20
49.60889407881798
 30
0.0
 10
0.4884956263930381
 20
49.51105537335513
 30
0.0
 10
0.0009150454939435
 20
49.51103207211504
 30
0.0
  0
SPLINE
  5
25D
330
1F
100
AcDbEntity
  8
Make2D visible lines
100
AcDbSpline
210
0.0
220
0.0
230
1.0
 70
     8
 71
     3
 72
    13
 73
     9
 74
     0
 42
0.0000000001
 43
0.0000000001
 40
-11.7727400990787
 40
-11.7727400990787
 40
-11.7727400990787
 40
-11.7727400990787
 40
-8.846116153537672
 40
-5.908821855544183
 40
-2.941340482501388
 40
-2.216885661225311
 40
-1.45962521411269
 40
0.0
 40
0.0
 40
0.0
 40
0.0
 10
0.0009150454939435
 20
49.51103207211504
 30
0.0
 10
-0.9745657855047256
 20
49.51106385460113
 30
0.0
 10
-2.928769689303595
 20
49.90328495757082
 30
0.0
 10
-5.418160277235254
 20
51.58023864958903
 30
0.0
 10
-6.661828199107909
 20
53.45857906260227
 30
0.0
 10
-7.15864515531922
 20
54.85761482198653
 30
0.0
 10
-7.395699585465041
 20
55.81029856635743
 30
0.0
 10
-7.469761028085855
 20
56.54885105982474
 30
0.0
 10
-7.470844351824906
 20
57.03544716885861
 30
0.0
  0
SPLINE
  5
25E
330
1F
100
AcDbEntity
  8
Make2D visible lines
100
AcDbSpline
210
0.0
220
0.0
230
1.0
 70
     8
 71
     3
 72
    15
 73
    11
 74
     0
 42
0.0000000001
 43
0.0000000001
 40
0.0
 40
0.0
 40
0.0
 40
0.0
 40
1.470019918796529
 40
2.970242495676714
 40
4.437641340435603
 40
5.921518609508079
 40
7.379060719792957
 40
8.853121015021442
 40
10.32719972765261
 40
11.80891731241405
 40
11.80891731241405
 40
11.80891731241405
 40
11.80891731241405
 10
-7.470844351824906
 20
57.03544716885861
 30
0.0
 10
-7.472319467764761
 20
57.52549509366878
 30
0.0
 10
-7.378107378394024
 20
58.51559889252567
 30
0.0
 10
-6.956378982609492
 20
59.94092309609729
 30
0.0
 10
-6.262106981938589
 20
61.2603278986069
 30
0.0
 10
-5.334276962814374
 20
62.40906145698138
 30
0.0
 10
-4.198890361813391
 20
63.35689033983317
 30
0.0
 10
-2.899615346363406
 20
64.05759063717947
 30
0.0
 10
-1.47850925788409
 20
64.48525790985234
 30
0.0
 10
-0.4929785011992546
 20
64.57867474884083
 30
0.0
 10
0.0009028715117719
 20
64.57850594045094
 30
0.0
  0
SPLINE
  5
25F
330
1F
100
AcDbEntity
  8
Default
100
AcDbSpline
210
0.0
220
0.0
230
1.0
 70
     8
 71
     3
 72
    11
 73
     7
 74
     0
 42
0.0000000001
 43
0.0000000001
 40
0.0
 40
0.0
 40
0.0
 40
0.0
 40
0.4676055475834519
 40
0.9142111430713328
 40
1.790162585470304
 40
3.41236708694784
 40
3.41236708694784
 40
3.41236708694784
 40
3.41236708694784
 10
0.0009324003164568
 20
67.91196467675437
 30
0.0
 10
-0.1549279392707307
 20
67.91181078766591
 30
0.0
 10
-0.4596822948891311
 20
67.908711939803
 30
0.0
 10
-1.056044913479862
 20
67.88736205300316
 30
0.0
 10
-2.03554004098656
 20
67.81918896034885
 30
0.0
 10
-2.860119449589974
 20
67.69365850117686
 30
0.0
 10
-3.388327740689552
 20
67.57764780625116
 30
0.0
  0
SPLINE
  5
260
330
1F
100
AcDbEntity
  8
Default
100
AcDbSpline
210
0.0
220
0.0
230
1.0
 70
     8
 71
     3
 72
     8
 73
     4
 74
     0
 42
0.0000000001
 43
0.0000000001
 40
0.0
 40
0.0
 40
0.0
 40
0.0
 40
1.0
 40
1.0
 40
1.0
 40
1.0
 10
-3.388327740689552
 20
67.57764780625116
 30
0.0
 10
-4.959321659231166
 20
67.23260949601439
 30
0.0
 10
-6.556986761336637
 20
66.51769561133665
 30
0.0
 10
-7.648193019085949
 20
64.89438108748348
 30
0.0
  0
SPLINE
  5
261
330
1F
100
AcDbEntity
  8
Default
100
AcDbSpline
210
0.0
220
0.0
230
1.0
 70
     8
 71
     3
 72
    35
 73
    31
 74
     0
 42
0.0000000001
 43
0.0000000001
 40
0.0
 40
0.0
 40
0.0
 40
0.0
 40
1.200721309039849
 40
2.474806189780193
 40
3.195853407963301
 40
3.98021372722645
 40
5.573951835782333
 40
7.111438093592549
 40
8.62293150650128
 40
9.33701971540726
 40
10.03763722837931
 40
10.71619595131842
 40
11.38765340373526
 40
12.6667968358364
 40
13.90631383006255
 40
14.48211977252136
 40
15.05812707602911
 40
16.24216093903146
 40
16.56621434235525
 40
16.81447999607517
 40
17.05433016171483
 40
17.29779240719692
 40
17.64791820344995
 40
18.00118544930303
 40
18.20323209221873
 40
18.40348689596203
 40
18.79616858581713
 40
19.4508953258949
 40
20.09030225747283
 40
21.29052340907742
 40
21.29052340907742
 40
21.29052340907742
 40
21.29052340907742
 10
-7.648193019085949
 20
64.89438108748348
 30
0.0
 10
-7.871470625674225
 20
64.5622259343656
 30
0.0
 10
-8.267483009759724
 20
63.83468752257158
 30
0.0
 10
-8.609746150853196
 20
62.82238475030184
 30
0.0
 10
-8.816754860161916
 20
61.91909525901497
 30
0.0
 10
-8.984787945944605
 20
60.8993721450903
 30
0.0
 10
-9.103006610595953
 20
59.59769689010191
 30
0.0
 10
-9.059284491179826
 20
58.04785818070491
 30
0.0
 10
-8.893034022351001
 20
56.80328365491124
 30
0.0
 10
-8.678386723212261
 20
55.85083267491862
 30
0.0
 10
-8.483129914087408
 20
55.18087123248316
 30
0.0
 10
-8.250365833895037
 20
54.53761755248429
 30
0.0
 10
-7.896154043160949
 20
53.73554805492633
 30
0.0
 10
-7.373842532228349
 20
52.80671298824282
 30
0.0
 10
-6.750131114303499
 20
51.98188235260521
 30
0.0
 10
-6.20228400410043
 20
51.40213018846755
 30
0.0
 10
-5.623165330481108
 20
50.88063586321177
 30
0.0
 10
-5.057466297385564
 20
50.47453542252575
 30
0.0
 10
-4.553420564994771
 20
50.17641885035637
 30
0.0
 10
-4.316685200700634
 20
50.04510518122001
 30
0.0
 10
-4.098108785763078
 20
49.93670267560859
 30
0.0
 10
-3.843481306750435
 20
49.82555175870286
 30
0.0
 10
-3.549926845669883
 20
49.70942176633346
 30
0.0
 10
-3.267151021595299
 20
49.60397924488957
 30
0.0
 10
-3.027853967991974
 20
49.52518146051001
 30
0.0
 10
-2.775542664394767
 20
49.44430671091963
 30
0.0
 10
-2.376809710517997
 20
49.32580360176081
 30
0.0
 10
-1.83042991629701
 20
49.19195986909254
 30
0.0
 10
-1.011987022889383
 20
49.04338272395646
 30
0.0
 10
-0.3992201160088264
 20
48.99438756939364
 30
0.0
 10
0.0009324003164568
 20
48.99444903534796
 30
0.0
  0
SPLINE
  5
262
330
1F
100
AcDbEntity
  8
Default
100
AcDbSpline
210
0.0
220
0.0
230
1.0
 70
     8
 71
     3
 72
    35
 73
    31
 74
     0
 42
0.0000000001
 43
0.0000000001
 40
-21.29052340907742
 40
-21.29052340907742
 40
-21.29052340907742
 40
-21.29052340907742
 40
-20.09030225747283
 40
-19.4508953258949
 40
-18.79616858581713
 40
-18.40348689596203
 40
-18.20323209221873
 40
-18.00118544930303
 40
-17.64791820344995
 40
-17.29779240719692
 40
-17.05433016171483
 40
-16.81447999607517
 40
-16.56621434235525
 40
-16.24216093903146
 40
-15.05812707602911
 40
-14.48211977252136
 40
-13.90631383006255
 40
-12.6667968358364
 40
-11.38765340373526
 40
-10.71619595131842
 40
-10.03763722837931
 40
-9.33701971540726
 40
-8.62293150650128
 40
-7.111438093592549
 40
-5.573951835782333
 40
-3.98021372722645
 40
-3.195853407963301
 40
-2.474806189780193
 40
-1.200721309039849
 40
0.0
 40
0.0
 40
0.0
 40
0.0
 10
0.0009324003164568
 20
48.99444903534796
 30
0.0
 10
0.4010849166417401
 20
48.99438756939364
 30
0.0
 10
1.013851823522297
 20
49.04338272395646
 30
0.0
 10
1.832294716929923
 20
49.19195986909254
 30
0.0
 10
2.378674511150911
 20
49.32580360176081
 30
0.0
 10
2.777407465027681
 20
49.44430671091963
 30
0.0
 10
3.029718768624888
 20
49.52518146051001
 30
0.0
 10
3.269015822228213
 20
49.60397924488957
 30
0.0
 10
3.551791646302797
 20
49.70942176633346
 30
0.0
 10
3.845346107383349
 20
49.82555175870286
 30
0.0
 10
4.099973586395993
 20
49.93670267560859
 30
0.0
 10
4.318550001333548
 20
50.04510518122001
 30
0.0
 10
4.555285365627685
 20
50.17641885035637
 30
0.0
 10
5.059331098018478
 20
50.47453542252575
 30
0.0
 10
5.625030131114023
 20
50.88063586321177
 30
0.0
 10
6.204148804733344
 20
51.40213018846755
 30
0.0
 10
6.751995914936413
 20
51.98188235260521
 30
0.0
 10
7.375707332861263
 20
52.80671298824282
 30
0.0
 10
7.898018843793863
 20
53.73554805492633
 30
0.0
 10
8.25223063452795
 20
54.53761755248429
 30
0.0
 10
8.48499471472032
 20
55.18087123248316
 30
0.0
 10
8.680251523845174
 20
55.85083267491862
 30
0.0
 10
8.894898822983913
 20
56.80328365491124
 30
0.0
 10
9.061149291812738
 20
58.04785818070491
 30
0.0
 10
9.104871411228865
 20
59.59769689010191
 30
0.0
 10
8.986652746577517
 20
60.8993721450903
 30
0.0
 10
8.818619660794829
 20
61.91909525901497
 30
0.0
 10
8.611610951486108
 20
62.82238475030184
 30
0.0
 10
8.269347810392636
 20
63.83468752257158
 30
0.0
 10
7.873335426307139
 20
64.5622259343656
 30
0.0
 10
7.650057819718863
 20
64.89438108748348
 30
0.0
  0
SPLINE
  5
263
330
1F
100
AcDbEntity
  8
Default
100
AcDbSpline
210
0.0
220
0.0
230
1.0
 70
     8
 71
     3
 72
     8
 73
     4
 74
     0
 42
0.0000000001
 43
0.0000000001
 40
-1.0
 40
-1.0
 40
-1.0
 40
-1.0
 40
0.0
 40
0.0
 40
0.0
 40
0.0
 10
7.650057819718863
 20
64.89438108748348
 30
0.0
 10
6.558851561969552
 20
66.51769561133665
 30
0.0
 10
4.96118645986408
 20
67.23260949601439
 30
0.0
 10
3.390192541322466
 20
67.57764780625116
 30
0.0
  0
SPLINE
  5
264
330
1F
100
AcDbEntity
  8
Default
100
AcDbSpline
210
0.0
220
0.0
230
1.0
 70
     8
 71
     3
 72
    11
 73
     7
 74
     0
 42
0.0000000001
 43
0.0000000001
 40
-3.41236708694784
 40
-3.41236708694784
 40
-3.41236708694784
 40
-3.41236708694784
 40
-1.790162585470304
 40
-0.9142111430713328
 40
-0.4676055475834519
 40
0.0
 40
0.0
 40
0.0
 40
0.0
 10
3.390192541322466
 20
67.57764780625116
 30
0.0
 10
2.861984250222888
 20
67.69365850117686
 30
0.0
 10
2.037404841619474
 20
67.81918896034885
 30
0.0
 10
1.057909714112775
 20
67.88736205300316
 30
0.0
 10
0.4615470955220449
 20
67.908711939803
 30
0.0
 10
0.1567927399036444
 20
67.91181078766591
 30
0.0
 10
0.0009324003164568
 20
67.91196467675437
 30
0.0
  0
LINE
  5
265
330
1F
100
AcDbEntity
  8
Make2D visible lines - Tangent
100
AcDbLine
 10
5.14704910375373
 20
50.54867799390465
 30
0.0
 11
5.829332667479718
 21
51.14970559610872
 31
0.0
  0
SPLINE
  5
266
330
1F
100
AcDbEntity
  8
Make2D visible lines - Tangent
100
AcDbSpline
210
0.0
220
0.0
230
1.0
 70
     8
 71
     3
 72
    24
 73
    20
 74
     0
 42
0.0000000001
 43
0.0000000001
 40
-17.0
 40
-17.0
 40
-17.0
 40
-17.0
 40
-15.99999896874797
 40
-14.99999793749595
 40
-13.99999690624392
 40
-12.9999958749919
 40
-11.99999484373987
 40
-10.99999381248784
 40
-9.999992781235816
 40
-8.99999174998379
 40
-7.999990718731764
 40
-6.999989687479738
 40
-5.999988656227711
 40
-4.999987624975685
 40
-3.999986593723659
 40
-2.999985562471633
 40
-1.999984531219607
 40
-0.9999834999675806
 40
0.0
 40
0.0
 40
0.0
 40
0.0
 10
5.829332667479718
 20
51.14970559610872
 30
0.0
 10
6.164255373063581
 20
51.4447409763566
 30
0.0
 10
6.77527838119711
 20
52.09980321047313
 30
0.0
 10
7.517034104286181
 20
53.21895125389646
 30
0.0
 10
8.090198609053331
 20
54.43210565256349
 30
0.0
 10
8.498517710505268
 20
55.70975699161906
 30
0.0
 10
8.750053648484359
 20
57.02675027537029
 30
0.0
 10
8.863746651855642
 20
58.3619209507312
 30
0.0
 10
8.841996169551608
 20
59.7032832851349
 30
0.0
 10
8.637919464406867
 20
61.02783565921452
 30
0.0
 10
8.386791978692928
 20
62.34309214692006
 30
0.0
 10
7.946577857293606
 20
63.61490514490083
 30
0.0
 10
7.245058596505942
 20
64.7605539388939
 30
0.0
 10
6.37843879097132
 20
65.79216910384478
 30
0.0
 10
5.23729763718109
 20
66.51906309340669
 30
0.0
 10
3.980909826608344
 20
66.9906321858665
 30
0.0
 10
2.67146432400172
 20
67.28213528514931
 30
0.0
 10
1.339571973270358
 20
67.42881097630686
 30
0.0
 10
0.4471343892224349
 20
67.45841700097586
 30
0.0
 10
0.0009324003164568
 20
67.4582881317967
 30
0.0
  0
SPLINE
  5
267
330
1F
100
AcDbEntity
  8
Make2D visible lines - Tangent
100
AcDbSpline
210
0.0
220
0.0
230
1.0
 70
     8
 71
     3
 72
    24
 73
    20
 74
     0
 42
0.0000000001
 43
0.0000000001
 40
0.0
 40
0.0
 40
0.0
 40
0.0
 40
0.9999834999675806
 40
1.999984531219607
 40
2.999985562471633
 40
3.999986593723659
 40
4.999987624975685
 40
5.999988656227711
 40
6.999989687479738
 40
7.999990718731764
 40
8.99999174998379
 40
9.999992781235816
 40
10.99999381248784
 40
11.99999484373987
 40
12.9999958749919
 40
13.99999690624392
 40
14.99999793749595
 40
15.99999896874797
 40
17.0
 40
17.0
 40
17.0
 40
17.0
 10
0.0009324003164568
 20
67.4582881317967
 30
0.0
 10
-0.4452695885895211
 20
67.45841700097586
 30
0.0
 10
-1.337707172637444
 20
67.42881097630686
 30
0.0
 10
-2.669599523368805
 20
67.28213528514931
 30
0.0
 10
-3.97904502597543
 20
66.9906321858665
 30
0.0
 10
-5.235432836548176
 20
66.51906309340669
 30
0.0
 10
-6.376573990338406
 20
65.79216910384478
 30
0.0
 10
-7.243193795873028
 20
64.7605539388939
 30
0.0
 10
-7.944713056660692
 20
63.61490514490083
 30
0.0
 10
-8.384927178060016
 20
62.34309214692006
 30
0.0
 10
-8.636054663773955
 20
61.02783565921452
 30
0.0
 10
-8.840131368918696
 20
59.7032832851349
 30
0.0
 10
-8.86188185122273
 20
58.3619209507312
 30
0.0
 10
-8.748188847851447
 20
57.02675027537029
 30
0.0
 10
-8.496652909872356
 20
55.70975699161906
 30
0.0
 10
-8.088333808420419
 20
54.43210565256349
 30
0.0
 10
-7.515169303653267
 20
53.21895125389646
 30
0.0
 10
-6.773413580564196
 20
52.09980321047313
 30
0.0
 10
-6.162390572430668
 20
51.4447409763566
 30
0.0
 10
-5.827467866846804
 20
51.14970559610872
 30
0.0
  0
LINE
  5
268
330
1F
100
AcDbEntity
  8
Make2D visible lines - Tangent
100
AcDbLine
 10
-5.827467866846804
 20
51.14970559610872
 30
0.0
 11
-5.145184303120788
 21
50.54867799390462
 31
0.0
  0
SPLINE
  5
269
330
1F
100
AcDbEntity
  8
Make2D visible lines
100
AcDbSpline
210
0.0
220
0.0
230
1.0
 70
     8
 71
     3
 72
    16
 73
    12
 74
     0
 42
0.0000000001
 43
0.0000000001
 40
8.859681867019631
 40
8.859681867019631
 40
8.859681867019631
 40
8.859681867019631
 40
9.014211833764461
 40
9.264211833764461
 40
9.514211833764461
 40
9.514211833764461
 40
9.514211833764461
 40
9.764211833764461
 40
10.01421183376446
 40
10.26421183376446
 40
10.51421183376446
 40
10.51421183376446
 40
10.51421183376446
 40
10.51421183376446
 10
8.242536050620451
 20
57.26215247096536
 30
0.0
 10
8.221638233921338
 20
57.05710348670553
 30
0.0
 10
8.151714831081161
 20
56.5083383951559
 30
0.0
 10
7.948664902024777
 20
55.51225064190089
 30
0.0
 10
7.709408427874041
 20
54.81013785432485
 30
0.0
 10
7.558127463653
 20
54.4538398738614
 30
0.0
 10
7.436106254785375
 20
54.16300765906566
 30
0.0
 10
7.149807614337546
 20
53.5767195722463
 30
0.0
 10
6.620894400882313
 20
52.76655239756573
 30
0.0
 10
6.046280923950163
 20
52.0767008166878
 30
0.0
 10
5.286092883565884
 20
51.35342632478668
 30
0.0
 10
4.005745318807518
 20
50.68749378198741
 30
0.0
  0
SPLINE
  5
26A
330
1F
100
AcDbEntity
  8
Make2D visible lines
100
AcDbSpline
210
0.0
220
0.0
230
1.0
 70
     8
 71
     3
 72
    16
 73
    12
 74
     0
 42
0.0000000001
 43
0.0000000001
 40
8.859681867019631
 40
8.859681867019631
 40
8.859681867019631
 40
8.859681867019631
 40
9.014211833764461
 40
9.264211833764461
 40
9.514211833764461
 40
9.514211833764461
 40
9.514211833764461
 40
9.764211833764461
 40
10.01421183376446
 40
10.26421183376446
 40
10.51421183376446
 40
10.51421183376446
 40
10.51421183376446
 40
10.51421183376446
 10
-8.240671249987539
 20
57.26215247096536
 30
0.0
 10
-8.219773433288426
 20
57.05710348670553
 30
0.0
 10
-8.149850030448249
 20
56.5083383951559
 30
0.0
 10
-7.946800101391863
 20
55.51225064190089
 30
0.0
 10
-7.707543627241127
 20
54.81013785432485
 30
0.0
 10
-7.556262663020086
 20
54.4538398738614
 30
0.0
 10
-7.434241454152461
 20
54.16300765906566
 30
0.0
 10
-7.147942813704632
 20
53.5767195722463
 30
0.0
 10
-6.619029600249399
 20
52.76655239756573
 30
0.0
 10
-6.044416123317249
 20
52.0767008166878
 30
0.0
 10
-5.28422808293297
 20
51.35342632478668
 30
0.0
 10
-4.003880518174604
 20
50.68749378198741
 30
0.0
  0
POLYLINE
  5
26B
330
1F
100
AcDbEntity
  8
Default
100
AcDb2dPolyline
 66
     1
 10
0.0
 20
0.0
 30
0.0
  0
VERTEX
  5
26C
330
26B
100
AcDbEntity
  8
Default
100
AcDbVertex
100
AcDb2dVertex
 10
12.05503049633786
 20
62.65015007856297
 30
0.0
  0
VERTEX
  5
26D
330
26B
100
AcDbEntity
  8
Default
100
AcDbVertex
100
AcDb2dVertex
 10
12.05503049633788
 20
61.2207294349345
 30
0.0
  0
SEQEND
  5
26E
330
26B
100
AcDbEntity
  8
Default
  0
SPLINE
  5
26F
330
1F
100
AcDbEntity
  8
Default
100
AcDbSpline
210
0.0
220
0.0
230
1.0
 70
    12
 71
     2
 72
     6
 73
     3
 74
     0
 42
0.0000000001
 43
0.0000000001
 40
0.0
 40
0.0
 40
0.0
 40
0.109941564851661
 40
0.109941564851661
 40
0.109941564851661
 10
12.05503049633788
 20
61.2207294349345
 30
0.0
 41
1.0
 10
12.05499746188317
 20
61.15076246938784
 30
0.0
 41
0.7074405726109262
 10
11.98503049633787
 20
61.15072943209449
 30
0.0
 41
1.0
  0
SPLINE
  5
270
330
1F
100
AcDbEntity
  8
Default
100
AcDbSpline
210
0.0
220
0.0
230
1.0
 70
    24
 71
     2
 72
     6
 73
     3
 74
     0
 42
0.0000000001
 43
0.0000000001
 40
0.0
 40
0.0
 40
0.0
 40
0.3520000000000003
 40
0.3520000000000003
 40
0.3520000000000003
 10
11.98503049633787
 20
61.15072943209449
 30
0.0
 10
11.80903049633787
 20
61.15072943209449
 30
0.0
 10
11.63303049633787
 20
61.15072943209449
 30
0.0
  0
SPLINE
  5
271
330
1F
100
AcDbEntity
  8
Default
100
AcDbSpline
210
0.0
220
0.0
230
1.0
 70
    12
 71
     2
 72
     6
 73
     3
 74
     0
 42
0.0000000001
 43
0.0000000001
 40
0.0
 40
0.0
 40
0.0
 40
0.2356186331260159
 40
0.2356186331260159
 40
0.2356186331260159
 10
11.63303049633787
 20
61.15072943209449
 30
0.0
 41
1.0
 10
11.48303240117952
 20
61.15073133986809
 30
0.0
 41
0.7071157676638842
 10
11.48303049633788
 20
61.30072943502648
 30
0.0
 41
1.0
  0
POLYLINE
  5
272
330
1F
100
AcDbEntity
  8
Default
100
AcDb2dPolyline
 66
     1
 10
0.0
 20
0.0
 30
0.0
  0
VERTEX
  5
273
330
272
100
AcDbEntity
  8
Default
100
AcDbVertex
100
AcDb2dVertex
 10
11.48303049633788
 20
61.30072943502648
 30
0.0
  0
VERTEX
  5
274
330
272
100
AcDbEntity
  8
Default
100
AcDbVertex
100
AcDb2dVertex
 10
11.48303049633788
 20
62.45711962072735
 30
0.0
  0
SEQEND
  5
275
330
272
100
AcDbEntity
  8
Default
  0
POLYLINE
  5
276
330
1F
100
AcDbEntity
  8
Default
100
AcDb2dPolyline
 66
     1
 10
0.0
 20
0.0
 30
0.0
  0
VERTEX
  5
277
330
276
100
AcDbEntity
  8
Default
100
AcDbVertex
100
AcDb2dVertex
 10
-1.035250899392125
 20
70.39579324656847
 30
0.0
  0
VERTEX
  5
278
330
276
100
AcDbEntity
  8
Default
100
AcDbVertex
100
AcDb2dVertex
 10
-1.035250899392125
 20
72.65579324070447
 30
0.0
  0
SEQEND
  5
279
330
276
100
AcDbEntity
  8
Default
  0
SPLINE
  5
27A
330
1F
100
AcDbEntity
  8
Default
100
AcDbSpline
210
0.0
220
0.0
230
1.0
 70
    12
 71
     2
 72
     6
 73
     3
 74
     0
 42
0.0000000001
 43
0.0000000001
 40
0.0
 40
0.0
 40
0.0
 40
0.2355890798875016
 40
0.2355890798875016
 40
0.2355890798875016
 10
-1.035250899392125
 20
72.65579324070447
 30
0.0
 41
1.0
 10
-1.03518014423435
 20
72.80572248554807
 30
0.0
 41
0.7074404097356639
 10
-0.8852508993921333
 20
72.80579324363649
 30
0.0
 41
1.0
  0
SPLINE
  5
27B
330
1F
100
AcDbEntity
  8
Default
100
AcDbSpline
210
0.0
220
0.0
230
1.0
 70
    24
 71
     2
 72
     6
 73
     3
 74
     0
 42
0.0000000001
 43
0.0000000001
 40
0.0
 40
0.0
 40
0.0
 40
0.3520000000000003
 40
0.3520000000000003
 40
0.3520000000000003
 10
-0.8852508993921333
 20
72.80579324363649
 30
0.0
 10
-0.7092508993921314
 20
72.80579324363649
 30
0.0
 10
-0.5332508993921294
 20
72.80579324363649
 30
0.0
  0
SPLINE
  5
27C
330
1F
100
AcDbEntity
  8
Default
100
AcDbSpline
210
0.0
220
0.0
230
1.0
 70
    12
 71
     2
 72
     6
 73
     3
 74
     0
 42
0.0000000001
 43
0.0000000001
 40
0.0
 40
0.0
 40
0.0
 40
0.1098876245644455
 40
0.1098876245644455
 40
0.1098876245644455
 10
-0.5332508993921294
 20
72.80579324363649
 30
0.0
 41
1.0
 10
-0.4634095511824427
 20
72.80563458901258
 30
0.0
 41
0.7087112325863247
 10
-0.4632508993921363
 20
72.73579324079648
 30
0.0
 41
1.0
  0
POLYLINE
  5
27D
330
1F
100
AcDbEntity
  8
Default
100
AcDb2dPolyline
 66
     1
 10
0.0
 20
0.0
 30
0.0
  0
VERTEX
  5
27E
330
27D
100
AcDbEntity
  8
Default
100
AcDbVertex
100
AcDb2dVertex
 10
-0.4632508993921363
 20
72.73579324079648
 30
0.0
  0
VERTEX
  5
27F
330
27D
100
AcDbEntity
  8
Default
100
AcDbVertex
100
AcDb2dVertex
 10
-0.4632508993921363
 20
70.31579324647649
 30
0.0
  0
SEQEND
  5
280
330
27D
100
AcDbEntity
  8
Default
  0
SPLINE
  5
281
330
1F
100
AcDbEntity
  8
Default
100
AcDbSpline
210
0.0
220
0.0
230
1.0
 70
    12
 71
     2
 72
     6
 73
     3
 74
     0
 42
0.0000000001
 43
0.0000000001
 40
0.0
 40
0.0
 40
0.0
 40
0.109941564851661
 40
0.109941564851661
 40
0.109941564851661
 10
-0.4632508993921363
 20
70.31579324647649
 30
0.0
 41
1.0
 10
-0.4632839338468303
 20
70.24582628092983
 30
0.0
 41
0.7074405726109262
 10
-0.5332508993921294
 20
70.24579324363648
 30
0.0
 41
1.0
  0
SPLINE
  5
282
330
1F
100
AcDbEntity
  8
Default
100
AcDbSpline
210
0.0
220
0.0
230
1.0
 70
    24
 71
     2
 72
     6
 73
     3
 74
     0
 42
0.0000000001
 43
0.0000000001
 40
0.0
 40
0.0
 40
0.0
 40
0.3520000000000003
 40
0.3520000000000003
 40
0.3520000000000003
 10
-0.5332508993921294
 20
70.24579324363648
 30
0.0
 10
-0.7092508993921314
 20
70.24579324363648
 30
0.0
 10
-0.8852508993921333
 20
70.24579324363648
 30
0.0
  0
SPLINE
  5
283
330
1F
100
AcDbEntity
  8
Default
100
AcDbSpline
210
0.0
220
0.0
230
1.0
 70
    12
 71
     2
 72
     6
 73
     3
 74
     0
 42
0.0000000001
 43
0.0000000001
 40
0.0
 40
0.0
 40
0.0
 40
0.2356186331260159
 40
0.2356186331260159
 40
0.2356186331260159
 10
-0.8852508993921333
 20
70.24579324363648
 30
0.0
 41
1.0
 10
-1.035248994550485
 20
70.24579515141009
 30
0.0
 41
0.7071157676638842
 10
-1.035250899392125
 20
70.39579324656847
 30
0.0
 41
1.0
  0
SPLINE
  5
284
330
1F
100
AcDbEntity
  8
Make2D visible lines
100
AcDbSpline
210
0.0
220
0.0
230
1.0
 70
    24
 71
     2
 72
     6
 73
     3
 74
     0
 42
0.0000000001
 43
0.0000000001
 40
0.0
 40
0.0
 40
0.0
 40
0.071889705667429
 40
0.071889705667429
 40
0.071889705667429
 10
-0.3913611937247055
 20
71.21079324363649
 30
0.0
 10
-0.4273060465584209
 20
71.21079324363649
 30
0.0
 10
-0.4632508993921363
 20
71.21079324363649
 30
0.0
  0
POLYLINE
  5
285
330
1F
100
AcDbEntity
  8
Default
100
AcDb2dPolyline
 66
     1
 10
0.0
 20
0.0
 30
0.0
  0
VERTEX
  5
286
330
285
100
AcDbEntity
  8
Default
100
AcDbVertex
100
AcDb2dVertex
 10
11.48303049633788
 20
63.24853132820374
 30
0.0
  0
VERTEX
  5
287
330
285
100
AcDbEntity
  8
Default
100
AcDbVertex
100
AcDb2dVertex
 10
11.48303049633788
 20
63.56072942916248
 30
0.0
  0
SEQEND
  5
288
330
285
100
AcDbEntity
  8
Default
  0
SPLINE
  5
289
330
1F
100
AcDbEntity
  8
Default
100
AcDbSpline
210
0.0
220
0.0
230
1.0
 70
    12
 71
     2
 72
     6
 73
     3
 74
     0
 42
0.0000000001
 43
0.0000000001
 40
0.0
 40
0.0
 40
0.0
 40
0.2355890798875016
 40
0.2355890798875016
 40
0.2355890798875016
 10
11.48303049633788
 20
63.56072942916248
 30
0.0
 41
1.0
 10
11.48310125149565
 20
63.71065867400608
 30
0.0
 41
0.7074404097356639
 10
11.63303049633787
 20
63.7107294320945
 30
0.0
 41
1.0
  0
SPLINE
  5
28A
330
1F
100
AcDbEntity
  8
Default
100
AcDbSpline
210
0.0
220
0.0
230
1.0
 70
    24
 71
     2
 72
     6
 73
     3
 74
     0
 42
0.0000000001
 43
0.0000000001
 40
0.0
 40
0.0
 40
0.0
 40
0.3520000000000003
 40
0.3520000000000003
 40
0.3520000000000003
 10
11.63303049633787
 20
63.7107294320945
 30
0.0
 10
11.80903049633787
 20
63.7107294320945
 30
0.0
 10
11.98503049633787
 20
63.7107294320945
 30
0.0
  0
SPLINE
  5
28B
330
1F
100
AcDbEntity
  8
Default
100
AcDbSpline
210
0.0
220
0.0
230
1.0
 70
    12
 71
     2
 72
     6
 73
     3
 74
     0
 42
0.0000000001
 43
0.0000000001
 40
0.0
 40
0.0
 40
0.0
 40
0.1098876245644455
 40
0.1098876245644455
 40
0.1098876245644455
 10
11.98503049633787
 20
63.7107294320945
 30
0.0
 41
1.0
 10
12.05487184454755
 20
63.7105707774706
 30
0.0
 41
0.7087112325863247
 10
12.05503049633786
 20
63.64072942925449
 30
0.0
 41
1.0
  0
POLYLINE
  5
28C
330
1F
100
AcDbEntity
  8
Default
100
AcDb2dPolyline
 66
     1
 10
0.0
 20
0.0
 30
0.0
  0
VERTEX
  5
28D
330
28C
100
AcDbEntity
  8
Default
100
AcDbVertex
100
AcDb2dVertex
 10
12.05503049633786
 20
63.64072942925449
 30
0.0
  0
VERTEX
  5
28E
330
28C
100
AcDbEntity
  8
Default
100
AcDbVertex
100
AcDb2dVertex
 10
12.05503049633786
 20
63.43797093845899
 30
0.0
  0
SEQEND
  5
28F
330
28C
100
AcDbEntity
  8
Default
  0
POLYLINE
  5
290
330
1F
100
AcDbEntity
  8
Default
100
AcDb2dPolyline
 66
     1
 10
0.0
 20
0.0
 30
0.0
  0
VERTEX
  5
291
330
290
100
AcDbEntity
  8
Default
100
AcDbVertex
100
AcDb2dVertex
 10
-12.3899821475089
 20
63.56147112867151
 30
0.0
  0
VERTEX
  5
292
330
290
100
AcDbEntity
  8
Default
100
AcDbVertex
100
AcDb2dVertex
 10
-11.86707920747806
 20
63.36838205391081
 30
0.0
  0
SEQEND
  5
293
330
290
100
AcDbEntity
  8
Default
  0
SPLINE
  5
294
330
1F
100
AcDbEntity
  8
Make2D visible lines - Tangent
100
AcDbSpline
210
0.0
220
0.0
230
1.0
 70
    12
 71
     2
 72
     6
 73
     3
 74
     0
 42
0.0000000001
 43
0.0000000001
 40
0.0
 40
0.0
 40
0.0
 40
0.6213186892081751
 40
0.6213186892081751
 40
0.6213186892081751
 10
12.38948034938699
 20
63.56147112888681
 30
0.0
 41
1.0
 10
12.76451350533386
 20
63.6862196038361
 30
0.0
 41
0.7078628796196968
 10
12.89006415791229
 20
63.3114542323051
 30
0.0
 41
1.0
  0
SPLINE
  5
295
330
1F
100
AcDbEntity
  8
Make2D visible lines - Tangent
100
AcDbSpline
210
0.0
220
0.0
230
1.0
 70
    12
 71
     2
 72
     6
 73
     3
 74
     0
 42
0.0000000001
 43
0.0000000001
 40
0.0
 40
0.0
 40
0.0
 40
0.6213184385489916
 40
0.6213184385489916
 40
0.6213184385489916
 10
12.89006415791229
 20
63.3114542323051
 30
0.0
 41
1.0
 10
13.00877238462605
 20
62.93446622947996
 30
0.0
 41
0.7078638982414072
 10
12.63203959099999
 20
62.81495054193095
 30
0.0
 41
1.0
  0
POLYLINE
  5
296
330
1F
100
AcDbEntity
  8
Default
100
AcDb2dPolyline
 66
     1
 10
0.0
 20
0.0
 30
0.0
  0
VERTEX
  5
297
330
296
100
AcDbEntity
  8
Default
100
AcDbVertex
100
AcDb2dVertex
 10
12.63203959099999
 20
62.81495054193095
 30
0.0
  0
VERTEX
  5
298
330
296
100
AcDbEntity
  8
Default
100
AcDbVertex
100
AcDb2dVertex
 10
12.09550731558329
 20
62.66380824830998
 30
0.0
  0
SEQEND
  5
299
330
296
100
AcDbEntity
  8
Default
  0
POLYLINE
  5
29A
330
1F
100
AcDbEntity
  8
Default
100
AcDb2dPolyline
 66
     1
 10
0.0
 20
0.0
 30
0.0
  0
VERTEX
  5
29B
330
29A
100
AcDbEntity
  8
Default
100
AcDbVertex
100
AcDb2dVertex
 10
1.034749100607868
 20
70.39579324656847
 30
0.0
  0
VERTEX
  5
29C
330
29A
100
AcDbEntity
  8
Default
100
AcDbVertex
100
AcDb2dVertex
 10
1.034749100607868
 20
72.65579324070447
 30
0.0
  0
SEQEND
  5
29D
330
29A
100
AcDbEntity
  8
Default
  0
SPLINE
  5
29E
330
1F
100
AcDbEntity
  8
Default
100
AcDbSpline
210
0.0
220
0.0
230
1.0
 70
    12
 71
     2
 72
     6
 73
     3
 74
     0
 42
0.0000000001
 43
0.0000000001
 40
0.0
 40
0.0
 40
0.0
 40
0.2355890798875016
 40
0.2355890798875016
 40
0.2355890798875016
 10
1.034749100607868
 20
72.65579324070447
 30
0.0
 41
1.0
 10
1.034678345450093
 20
72.80572248554807
 30
0.0
 41
0.7074404097356639
 10
0.8847491006078769
 20
72.80579324363649
 30
0.0
 41
1.0
  0
SPLINE
  5
29F
330
1F
100
AcDbEntity
  8
Default
100
AcDbSpline
210
0.0
220
0.0
230
1.0
 70
    24
 71
     2
 72
     6
 73
     3
 74
     0
 42
0.0000000001
 43
0.0000000001
 40
0.0
 40
0.0
 40
0.0
 40
0.3520000000000003
 40
0.3520000000000003
 40
0.3520000000000003
 10
0.8847491006078769
 20
72.80579324363649
 30
0.0
 10
0.708749100607875
 20
72.80579324363649
 30
0.0
 10
0.5327491006078731
 20
72.80579324363649
 30
0.0
  0
SPLINE
  5
2A0
330
1F
100
AcDbEntity
  8
Default
100
AcDbSpline
210
0.0
220
0.0
230
1.0
 70
    12
 71
     2
 72
     6
 73
     3
 74
     0
 42
0.0000000001
 43
0.0000000001
 40
0.0
 40
0.0
 40
0.0
 40
0.1098876245644455
 40
0.1098876245644455
 40
0.1098876245644455
 10
0.5327491006078731
 20
72.80579324363649
 30
0.0
 41
1.0
 10
0.4629077523981782
 20
72.80563458901258
 30
0.0
 41
0.7087112325863247
 10
0.4627491006078799
 20
72.73579324079648
 30
0.0
 41
1.0
  0
POLYLINE
  5
2A1
330
1F
100
AcDbEntity
  8
Default
100
AcDb2dPolyline
 66
     1
 10
0.0
 20
0.0
 30
0.0
  0
VERTEX
  5
2A2
330
2A1
100
AcDbEntity
  8
Default
100
AcDbVertex
100
AcDb2dVertex
 10
0.4627491006078799
 20
72.73579324079648
 30
0.0
  0
VERTEX
  5
2A3
330
2A1
100
AcDbEntity
  8
Default
100
AcDbVertex
100
AcDb2dVertex
 10
0.4627491006078799
 20
70.31579324647649
 30
0.0
  0
SEQEND
  5
2A4
330
2A1
100
AcDbEntity
  8
Default
  0
SPLINE
  5
2A5
330
1F
100
AcDbEntity
  8
Default
100
AcDbSpline
210
0.0
220
0.0
230
1.0
 70
    12
 71
     2
 72
     6
 73
     3
 74
     0
 42
0.0000000001
 43
0.0000000001
 40
0.0
 40
0.0
 40
0.0
 40
0.109941564851661
 40
0.109941564851661
 40
0.109941564851661
 10
0.4627491006078799
 20
70.31579324647649
 30
0.0
 41
1.0
 10
0.4627821350625612
 20
70.24582628092983
 30
0.0
 41
0.7074405726109262
 10
0.5327491006078731
 20
70.24579324363648
 30
0.0
 41
1.0
  0
SPLINE
  5
2A6
330
1F
100
AcDbEntity
  8
Default
100
AcDbSpline
210
0.0
220
0.0
230
1.0
 70
    24
 71
     2
 72
     6
 73
     3
 74
     0
 42
0.0000000001
 43
0.0000000001
 40
0.0
 40
0.0
 40
0.0
 40
0.3520000000000003
 40
0.3520000000000003
 40
0.3520000000000003
 10
0.5327491006078731
 20
70.24579324363648
 30
0.0
 10
0.708749100607875
 20
70.24579324363648
 30
0.0
 10
0.8847491006078769
 20
70.24579324363648
 30
0.0
  0
SPLINE
  5
2A7
330
1F
100
AcDbEntity
  8
Default
100
AcDbSpline
210
0.0
220
0.0
230
1.0
 70
    12
 71
     2
 72
     6
 73
     3
 74
     0
 42
0.0000000001
 43
0.0000000001
 40
0.0
 40
0.0
 40
0.0
 40
0.2356186331260159
 40
0.2356186331260159
 40
0.2356186331260159
 10
0.8847491006078769
 20
70.24579324363648
 30
0.0
 41
1.0
 10
1.034747195766223
 20
70.24579515141009
 30
0.0
 41
0.7071157676638842
 10
1.034749100607868
 20
70.39579324656847
 30
0.0
 41
1.0
  0
SPLINE
  5
2A8
330
1F
100
AcDbEntity
  8
Make2D visible lines
100
AcDbSpline
210
0.0
220
0.0
230
1.0
 70
    24
 71
     2
 72
     6
 73
     3
 74
     0
 42
0.0000000001
 43
0.0000000001
 40
0.0
 40
0.0
 40
0.0
 40
0.0653749093108864
 40
0.0653749093108864
 40
0.0653749093108864
 10
0.4627491006078799
 20
71.84079324363648
 30
0.0
 10
0.4300616459524349
 20
71.84079324363648
 30
0.0
 10
0.3973741912969899
 20
71.84079324363648
 30
0.0
  0
SPLINE
  5
2A9
330
1F
100
AcDbEntity
  8
Make2D visible lines - Tangent
100
AcDbSpline
210
0.0
220
0.0
230
1.0
 70
    12
 71
     2
 72
     6
 73
     3
 74
     0
 42
0.0000000001
 43
0.0000000001
 40
0.0
 40
0.0
 40
0.0
 40
0.6213186892081751
 40
0.6213186892081751
 40
0.6213186892081751
 10
8.049493222117079
 20
48.71132302225422
 30
0.0
 41
1.0
 10
8.284027690757137
 20
48.39319469424589
 30
0.0
 41
0.7078628796196968
 10
7.966401927382393
 20
48.15798005927975
 30
0.0
 41
1.0
  0
SPLINE
  5
2AA
330
1F
100
AcDbEntity
  8
Make2D visible lines - Tangent
100
AcDbSpline
210
0.0
220
0.0
230
1.0
 70
    12
 71
     2
 72
     6
 73
     3
 74
     0
 42
0.0000000001
 43
0.0000000001
 40
0.0
 40
0.0
 40
0.0
 40
0.6213184385489916
 40
0.6213184385489916
 40
0.6213184385489916
 10
7.966401927382393
 20
48.15798005927975
 30
0.0
 41
1.0
 10
7.644547890157122
 20
47.92858612717735
 30
0.0
 41
0.7078638982414072
 10
7.414464881145349
 20
48.24994792691042
 30
0.0
 41
1.0
  0
SPLINE
  5
2AB
330
1F
100
AcDbEntity
  8
Make2D visible lines
100
AcDbSpline
210
0.0
220
0.0
230
1.0
 70
    24
 71
     2
 72
     6
 73
     3
 74
     0
 42
0.0000000001
 43
0.0000000001
 40
0.0
 40
0.0
 40
0.0
 40
0.071889705667429
 40
0.071889705667429
 40
0.071889705667429
 10
12.12692020200529
 20
62.1157294320945
 30
0.0
 10
12.09097534917159
 20
62.1157294320945
 30
0.0
 10
12.05503049633788
 20
62.1157294320945
 30
0.0
  0
SPLINE
  5
2AC
330
1F
100
AcDbEntity
  8
Make2D visible lines
100
AcDbSpline
210
0.0
220
0.0
230
1.0
 70
    24
 71
     2
 72
     6
 73
     3
 74
     0
 42
0.0000000001
 43
0.0000000001
 40
0.0
 40
0.0
 40
0.0
 40
0.0653749093108864
 40
0.0653749093108864
 40
0.0653749093108864
 10
12.98103049633787
 20
62.74572943209449
 30
0.0
 10
12.94834304168243
 20
62.74572943209449
 30
0.0
 10
12.91565558702699
 20
62.74572943209449
 30
0.0
  0
SPLINE
  5
2AD
330
1F
100
AcDbEntity
  8
Make2D visible lines
100
AcDbSpline
210
0.0
220
0.0
230
1.0
 70
    24
 71
     2
 72
     6
 73
     3
 74
     0
 42
0.0000000001
 43
0.0000000001
 40
0.0
 40
0.0
 40
0.0
 40
0.071889705667429
 40
0.071889705667429
 40
0.071889705667429
 10
12.90914079067045
 20
62.1157294320945
 30
0.0
 10
12.94508564350416
 20
62.1157294320945
 30
0.0
 10
12.98103049633787
 20
62.1157294320945
 30
0.0
  0
SPLINE
  5
2AE
330
1F
100
AcDbEntity
  8
Make2D visible lines
100
AcDbSpline
210
0.0
220
0.0
230
1.0
 70
    24
 71
     2
 72
     6
 73
     3
 74
     0
 42
0.0000000001
 43
0.0000000001
 40
0.0
 40
0.0
 40
0.0
 40
0.0653749093108864
 40
0.0653749093108864
 40
0.0653749093108864
 10
-0.4632508993921363
 20
71.84079324363648
 30
0.0
 10
-0.4305634447366913
 20
71.84079324363648
 30
0.0
 10
-0.3978759900812463
 20
71.84079324363648
 30
0.0
  0
SPLINE
  5
2AF
330
1F
100
AcDbEntity
  8
Make2D visible lines - Tangent
100
AcDbSpline
210
0.0
220
0.0
230
1.0
 70
    12
 71
     2
 72
     6
 73
     3
 74
     0
 42
0.0000000001
 43
0.0000000001
 40
0.0
 40
0.0
 40
0.0
 40
0.6213186892081751
 40
0.6213186892081751
 40
0.6213186892081751
 10
-0.3927199976791513
 20
72.27799230084835
 30
0.0
 41
1.0
 10
-0.3954712290359181
 20
72.67321942642006
 30
0.0
 41
0.7078628796196968
 10
-0.0002508950579596
 20
72.67681632397355
 30
0.0
 41
1.0
  0
SPLINE
  5
2B0
330
1F
100
AcDbEntity
  8
Make2D visible lines - Tangent
100
AcDbSpline
210
0.0
220
0.0
230
1.0
 70
    12
 71
     2
 72
     6
 73
     3
 74
     0
 42
0.0000000001
 43
0.0000000001
 40
0.0
 40
0.0
 40
0.0
 40
0.6213184385489916
 40
0.6213184385489916
 40
0.6213184385489916
 10
-0.0002508950579596
 20
72.67681632397355
 30
0.0
 41
1.0
 10
0.3949688610206387
 20
72.67321885697908
 30
0.0
 41
0.7078638982414072
 10
0.3922181988948097
 20
72.27799230015191
 30
0.0
 41
1.0
  0
SPLINE
  5
2B1
330
1F
100
AcDbEntity
  8
Make2D visible lines
100
AcDbSpline
210
0.0
220
0.0
230
1.0
 70
    24
 71
     2
 72
     6
 73
     3
 74
     0
 42
0.0000000001
 43
0.0000000001
 40
0.0
 40
0.0
 40
0.0
 40
0.071889705667429
 40
0.071889705667429
 40
0.071889705667429
 10
-8.128084577024694
 20
47.39960705517647
 30
0.0
 10
-8.16402942985841
 20
47.39960705517647
 30
0.0
 10
-8.199974282692125
 20
47.39960705517647
 30
0.0
  0
LINE
  5
2B2
330
1F
100
AcDbEntity
  8
Default
100
AcDbLine
 10
0.3937487840065614
 20
70.43050269037721
 30
0.0
 11
0.393749089718483
 21
72.23008930474396
 31
0.0
  0
ARC
  5
2B3
330
1F
100
AcDbEntity
  8
Default
100
AcDbCircle
 10
-3515569.900488991
 20
72.83093270217387
 30
0.0
 40
3515570.294238132
100
AcDbArc
 50
359.9999902076223
 51
359.9999987473872
  0
SPLINE
  5
2B4
330
1F
100
AcDbEntity
  8
Default
100
AcDbSpline
210
0.0
220
0.0
230
1.0
 70
    12
 71
     2
 72
     6
 73
     3
 74
     0
 42
0.0000000001
 43
0.0000000001
 40
0.0
 40
0.0
 40
0.0
 40
0.0784842030870699
 40
0.0784842030870699
 40
0.0784842030870699
 10
0.3937491411220719
 20
72.75407456319587
 30
0.0
 41
1.0
 10
0.3937129148161798
 20
72.80403837593076
 30
0.0
 41
0.7071217743558633
 10
0.3437491006074822
 20
72.80400468094089
 30
0.0
 41
1.0
  0
POLYLINE
  5
2B5
330
1F
100
AcDbEntity
  8
Default
100
AcDb2dPolyline
 66
     1
 10
0.0
 20
0.0
 30
0.0
  0
VERTEX
  5
2B6
330
2B5
100
AcDbEntity
  8
Default
100
AcDbVertex
100
AcDb2dVertex
 10
0.3437491006074822
 20
72.80400468094089
 30
0.0
  0
VERTEX
  5
2B7
330
2B5
100
AcDbEntity
  8
Default
100
AcDbVertex
100
AcDb2dVertex
 10
-0.3442508993917386
 20
72.80400468094089
 30
0.0
  0
SEQEND
  5
2B8
330
2B5
100
AcDbEntity
  8
Default
  0
SPLINE
  5
2B9
330
1F
100
AcDbEntity
  8
Default
100
AcDbSpline
210
0.0
220
0.0
230
1.0
 70
    12
 71
     2
 72
     6
 73
     3
 74
     0
 42
0.0000000001
 43
0.0000000001
 40
-0.0784842030870699
 40
-0.0784842030870699
 40
-0.0784842030870699
 40
0.0
 40
0.0
 40
0.0
 10
-0.3442508993917386
 20
72.80400468094089
 30
0.0
 41
1.0
 10
-0.3942147136004602
 20
72.80403837593076
 30
0.0
 41
0.7071217743558633
 10
-0.3942509399063283
 20
72.75407456319587
 30
0.0
 41
1.0
  0
ARC
  5
2BA
330
1F
100
AcDbEntity
  8
Default
100
AcDbCircle
 10
3515569.89998719
 20
72.83093270217387
 30
0.0
 40
3515570.294238132
100
AcDbArc
 50
180.0000012526127
 51
180.0000097923777
  0
LINE
  5
2BB
330
1F
100
AcDbEntity
  8
Default
100
AcDbLine
 10
-0.3942508885027394
 20
72.23008930474396
 30
0.0
 11
-0.3942505827908178
 21
70.43050269037721
 31
0.0
  0
POLYLINE
  5
2BC
330
1F
100
AcDbEntity
  8
Default
100
AcDb2dPolyline
 66
     1
 10
0.0
 20
0.0
 30
0.0
  0
VERTEX
  5
2BD
330
2BC
100
AcDbEntity
  8
Default
100
AcDbVertex
100
AcDb2dVertex
 10
13.55303049633787
 20
61.30072943502648
 30
0.0
  0
VERTEX
  5
2BE
330
2BC
100
AcDbEntity
  8
Default
100
AcDbVertex
100
AcDb2dVertex
 10
13.55303049633787
 20
63.56072942916248
 30
0.0
  0
SEQEND
  5
2BF
330
2BC
100
AcDbEntity
  8
Default
  0
SPLINE
  5
2C0
330
1F
100
AcDbEntity
  8
Default
100
AcDbSpline
210
0.0
220
0.0
230
1.0
 70
    12
 71
     2
 72
     6
 73
     3
 74
     0
 42
0.0000000001
 43
0.0000000001
 40
0.0
 40
0.0
 40
0.0
 40
0.2355890798875016
 40
0.2355890798875016
 40
0.2355890798875016
 10
13.55303049633787
 20
63.56072942916248
 30
0.0
 41
1.0
 10
13.55295974118009
 20
63.71065867400608
 30
0.0
 41
0.7074404097356639
 10
13.40303049633788
 20
63.7107294320945
 30
0.0
 41
1.0
  0
SPLINE
  5
2C1
330
1F
100
AcDbEntity
  8
Default
100
AcDbSpline
210
0.0
220
0.0
230
1.0
 70
    24
 71
     2
 72
     6
 73
     3
 74
     0
 42
0.0000000001
 43
0.0000000001
 40
0.0
 40
0.0
 40
0.0
 40
0.3520000000000003
 40
0.3520000000000003
 40
0.3520000000000003
 10
13.40303049633788
 20
63.7107294320945
 30
0.0
 10
13.22703049633787
 20
63.7107294320945
 30
0.0
 10
13.05103049633787
 20
63.7107294320945
 30
0.0
  0
SPLINE
  5
2C2
330
1F
100
AcDbEntity
  8
Default
100
AcDbSpline
210
0.0
220
0.0
230
1.0
 70
    12
 71
     2
 72
     6
 73
     3
 74
     0
 42
0.0000000001
 43
0.0000000001
 40
0.0
 40
0.0
 40
0.0
 40
0.1098876245644455
 40
0.1098876245644455
 40
0.1098876245644455
 10
13.05103049633787
 20
63.7107294320945
 30
0.0
 41
1.0
 10
12.98118914812819
 20
63.7105707774706
 30
0.0
 41
0.7087112325863247
 10
12.98103049633788
 20
63.64072942925449
 30
0.0
 41
1.0
  0
POLYLINE
  5
2C3
330
1F
100
AcDbEntity
  8
Default
100
AcDb2dPolyline
 66
     1
 10
0.0
 20
0.0
 30
0.0
  0
VERTEX
  5
2C4
330
2C3
100
AcDbEntity
  8
Default
100
AcDbVertex
100
AcDb2dVertex
 10
12.98103049633788
 20
63.64072942925449
 30
0.0
  0
VERTEX
  5
2C5
330
2C3
100
AcDbEntity
  8
Default
100
AcDbVertex
100
AcDb2dVertex
 10
12.98103049633787
 20
61.2207294349345
 30
0.0
  0
SEQEND
  5
2C6
330
2C3
100
AcDbEntity
  8
Default
  0
SPLINE
  5
2C7
330
1F
100
AcDbEntity
  8
Default
100
AcDbSpline
210
0.0
220
0.0
230
1.0
 70
    12
 71
     2
 72
     6
 73
     3
 74
     0
 42
0.0000000001
 43
0.0000000001
 40
0.0
 40
0.0
 40
0.0
 40
0.109941564851661
 40
0.109941564851661
 40
0.109941564851661
 10
12.98103049633787
 20
61.2207294349345
 30
0.0
 41
1.0
 10
12.98106353079256
 20
61.15076246938784
 30
0.0
 41
0.7074405726109262
 10
13.05103049633787
 20
61.15072943209449
 30
0.0
 41
1.0
  0
SPLINE
  5
2C8
330
1F
100
AcDbEntity
  8
Default
100
AcDbSpline
210
0.0
220
0.0
230
1.0
 70
    24
 71
     2
 72
     6
 73
     3
 74
     0
 42
0.0000000001
 43
0.0000000001
 40
0.0
 40
0.0
 40
0.0
 40
0.3520000000000003
 40
0.3520000000000003
 40
0.3520000000000003
 10
13.05103049633787
 20
61.15072943209449
 30
0.0
 10
13.22703049633787
 20
61.15072943209449
 30
0.0
 10
13.40303049633788
 20
61.15072943209449
 30
0.0
  0
SPLINE
  5
2C9
330
1F
100
AcDbEntity
  8
Default
100
AcDbSpline
210
0.0
220
0.0
230
1.0
 70
    12
 71
     2
 72
     6
 73
     3
 74
     0
 42
0.0000000001
 43
0.0000000001
 40
0.0
 40
0.0
 40
0.0
 40
0.2356186331260159
 40
0.2356186331260159
 40
0.2356186331260159
 10
13.40303049633788
 20
61.15072943209449
 30
0.0
 41
1.0
 10
13.55302859149623
 20
61.15073133986809
 30
0.0
 41
0.7071157676638842
 10
13.55303049633787
 20
61.30072943502648
 30
0.0
 41
1.0
  0
SPLINE
  5
2CA
330
1F
100
AcDbEntity
  8
Make2D visible lines
100
AcDbSpline
210
0.0
220
0.0
230
1.0
 70
    24
 71
     2
 72
     6
 73
     3
 74
     0
 42
0.0000000001
 43
0.0000000001
 40
0.0
 40
0.0
 40
0.0
 40
0.071889705667429
 40
0.071889705667429
 40
0.071889705667429
 10
8.127582778240438
 20
47.39960705517647
 30
0.0
 10
8.163527631074153
 20
47.39960705517647
 30
0.0
 10
8.199472483907869
 20
47.39960705517647
 30
0.0
  0
SPLINE
  5
2CB
330
1F
100
AcDbEntity
  8
Make2D visible lines
100
AcDbSpline
210
0.0
220
0.0
230
1.0
 70
    24
 71
     2
 72
     6
 73
     3
 74
     0
 42
0.0000000001
 43
0.0000000001
 40
0.0
 40
0.0
 40
0.0
 40
0.0653749093108864
 40
0.0653749093108864
 40
0.0653749093108864
 10
-7.273974282692123
 20
48.02960705517647
 30
0.0
 10
-7.306661737347568
 20
48.02960705517647
 30
0.0
 10
-7.339349192003013
 20
48.02960705517647
 30
0.0
  0
SPLINE
  5
2CC
330
1F
100
AcDbEntity
  8
Make2D visible lines
100
AcDbSpline
210
0.0
220
0.0
230
1.0
 70
    24
 71
     2
 72
     6
 73
     3
 74
     0
 42
0.0000000001
 43
0.0000000001
 40
0.0
 40
0.0
 40
0.0
 40
0.0653749093108864
 40
0.0653749093108864
 40
0.0653749093108864
 10
8.199472483907869
 20
48.02960705517647
 30
0.0
 10
8.166785029252424
 20
48.02960705517647
 30
0.0
 10
8.134097574596979
 20
48.02960705517647
 30
0.0
  0
SPLINE
  5
2CD
330
1F
100
AcDbEntity
  8
Make2D visible lines
100
AcDbSpline
210
0.0
220
0.0
230
1.0
 70
    24
 71
     2
 72
     6
 73
     3
 74
     0
 42
0.0000000001
 43
0.0000000001
 40
0.0
 40
0.0
 40
0.0
 40
0.0653749093108864
 40
0.0653749093108864
 40
0.0653749093108864
 10
-8.199974282692125
 20
48.02960705517647
 30
0.0
 10
-8.16728682803668
 20
48.02960705517647
 30
0.0
 10
-8.134599373381235
 20
48.02960705517647
 30
0.0
  0
SPLINE
  5
2CE
330
1F
100
AcDbEntity
  8
Make2D visible lines
100
AcDbSpline
210
0.0
220
0.0
230
1.0
 70
    24
 71
     2
 72
     6
 73
     3
 74
     0
 42
0.0000000001
 43
0.0000000001
 40
0.0
 40
0.0
 40
0.0
 40
0.071889705667429
 40
0.071889705667429
 40
0.071889705667429
 10
-7.345863988359554
 20
47.39960705517647
 30
0.0
 10
-7.309919135525838
 20
47.39960705517647
 30
0.0
 10
-7.273974282692123
 20
47.39960705517647
 30
0.0
  0
SPLINE
  5
2CF
330
1F
100
AcDbEntity
  8
Make2D visible lines - Tangent
100
AcDbSpline
210
0.0
220
0.0
230
1.0
 70
    12
 71
     2
 72
     6
 73
     3
 74
     0
 42
0.0000000001
 43
0.0000000001
 40
0.0
 40
0.0
 40
0.0
 40
0.6213186892081751
 40
0.6213186892081751
 40
0.6213186892081751
 10
-12.63254139044665
 20
62.81495054214608
 30
0.0
 41
1.0
 10
-13.0092749008829
 20
62.93446586407602
 30
0.0
 41
0.7078628796196968
 10
-12.89056595401787
 20
63.31145424054915
 30
0.0
 41
1.0
  0
SPLINE
  5
2D0
330
1F
100
AcDbEntity
  8
Make2D visible lines - Tangent
100
AcDbSpline
210
0.0
220
0.0
230
1.0
 70
    12
 71
     2
 72
     6
 73
     3
 74
     0
 42
0.0000000001
 43
0.0000000001
 40
0.0
 40
0.0
 40
0.0
 40
0.6213184385489916
 40
0.6213184385489916
 40
0.6213184385489916
 10
-12.89056595401787
 20
63.31145424054915
 30
0.0
 41
1.0
 10
-12.76501493844962
 20
63.68621888649828
 30
0.0
 41
0.7078638982414072
 10
-12.3899821475089
 20
63.56147112867151
 30
0.0
 41
1.0
  0
LINE
  5
2D1
330
1F
100
AcDbEntity
  8
Default
100
AcDbLine
 10
12.12403058591218
 20
62.67184331194659
 30
0.0
 11
12.12403083532395
 21
61.20366993884565
 31
0.0
  0
SPLINE
  5
2D2
330
1F
100
AcDbEntity
  8
Default
100
AcDbSpline
210
0.0
220
0.0
230
1.0
 70
    12
 71
     2
 72
     6
 73
     3
 74
     0
 42
0.0000000001
 43
0.0000000001
 40
-0.0784456577816192
 40
-0.0784456577816192
 40
-0.0784456577816192
 40
0.0
 40
0.0
 40
0.0
 10
12.12403086508138
 20
61.20366993884565
 30
0.0
 41
1.0
 10
12.12409052655811
 20
61.15372996923488
 30
0.0
 41
0.707107785543906
 10
12.17403049633816
 20
61.15378948884447
 30
0.0
 41
1.0
  0
SPLINE
  5
2D3
330
1F
100
AcDbEntity
  8
Default
100
AcDbSpline
210
0.0
220
0.0
230
1.0
 70
    12
 71
     2
 72
     6
 73
     3
 74
     0
 42
0.0000000001
 43
0.0000000001
 40
-0.0351460122197656
 40
-0.0351460122197656
 40
-0.0351460122197656
 40
0.0
 40
0.0
 40
0.0
 10
12.17403049633816
 20
61.15378948884447
 30
0.0
 41
1.0
 10
12.19140657879247
 20
61.15062208489723
 30
0.0
 41
0.9924246303389436
 10
12.20903050179923
 20
61.15178742908481
 30
0.0
 41
1.0
  0
SPLINE
  5
2D4
330
1F
100
AcDbEntity
  8
Default
100
AcDbSpline
210
0.0
220
0.0
230
1.0
 70
    24
 71
     2
 72
     6
 73
     3
 74
     0
 42
0.0000000001
 43
0.0000000001
 40
0.0
 40
0.0
 40
0.0
 40
0.6179999945348698
 40
0.6179999945348698
 40
0.6179999945348698
 10
12.20903050179923
 20
61.15178742908481
 30
0.0
 10
12.51803049906667
 20
61.15178742908476
 30
0.0
 10
12.8270304963341
 20
61.15178742908472
 30
0.0
  0
SPLINE
  5
2D5
330
1F
100
AcDbEntity
  8
Default
100
AcDbSpline
210
0.0
220
0.0
230
1.0
 70
    12
 71
     2
 72
     6
 73
     3
 74
     0
 42
0.0000000001
 43
0.0000000001
 40
-0.0351460068279919
 40
-0.0351460068279919
 40
-0.0351460068279919
 40
0.0
 40
0.0
 40
0.0
 10
12.8270304963341
 20
61.15178742908472
 30
0.0
 41
1.0
 10
12.84465441666505
 20
61.15062208454401
 30
0.0
 41
0.9924246250463485
 10
12.86203049633754
 20
61.1537894889934
 30
0.0
 41
1.0
  0
SPLINE
  5
2D6
330
1F
100
AcDbEntity
  8
Default
100
AcDbSpline
210
0.0
220
0.0
230
1.0
 70
    12
 71
     2
 72
     6
 73
     3
 74
     0
 42
0.0000000001
 43
0.0000000001
 40
-0.0784456575506041
 40
-0.0784456575506041
 40
-0.0784456575506041
 40
0.0
 40
0.0
 40
0.0
 10
12.86203049633754
 20
61.1537894889934
 30
0.0
 41
1.0
 10
12.91197046615904
 20
61.15372996886714
 30
0.0
 41
0.7071077818591103
 10
12.91203014249187
 20
61.20366993851999
 30
0.0
 41
1.0
  0
LINE
  5
2D7
330
1F
100
AcDbEntity
  8
Default
100
AcDbLine
 10
12.91203014249187
 20
61.20366993851999
 30
0.0
 11
12.91203048544848
 21
63.13502549320197
 31
0.0
  0
ARC
  5
2D8
330
1F
100
AcDbEntity
  8
Default
100
AcDbCircle
 10
-3515557.382207595
 20
63.73586889063188
 30
0.0
 40
3515570.294238132
100
AcDbArc
 50
359.9999902076223
 51
359.9999911441844
  0
POLYLINE
  5
2D9
330
1F
100
AcDbEntity
  8
Default
100
AcDb2dPolyline
 66
     1
 10
0.0
 20
0.0
 30
0.0
  0
VERTEX
  5
2DA
330
2D9
100
AcDbEntity
  8
Default
100
AcDbVertex
100
AcDb2dVertex
 10
7.414464881145349
 20
48.24994792691042
 30
0.0
  0
VERTEX
  5
2DB
330
2D9
100
AcDbEntity
  8
Default
100
AcDbVertex
100
AcDb2dVertex
 10
7.104922426774905
 20
48.71351490635047
 30
0.0
  0
SEQEND
  5
2DC
330
2D9
100
AcDbEntity
  8
Default
  0
POLYLINE
  5
2DD
330
1F
100
AcDbEntity
  8
Default
100
AcDb2dPolyline
 66
     1
 10
0.0
 20
0.0
 30
0.0
  0
VERTEX
  5
2DE
330
2DD
100
AcDbEntity
  8
Default
100
AcDbVertex
100
AcDb2dVertex
 10
-8.049995020491892
 20
48.71132302281761
 30
0.0
  0
VERTEX
  5
2DF
330
2DD
100
AcDbEntity
  8
Default
100
AcDbVertex
100
AcDb2dVertex
 10
-7.704770502837178
 20
49.14896546579465
 30
0.0
  0
SEQEND
  5
2E0
330
2DD
100
AcDbEntity
  8
Default
  0
POLYLINE
  5
2E1
330
1F
100
AcDbEntity
  8
Default
100
AcDb2dPolyline
 66
     1
 10
0.0
 20
0.0
 30
0.0
  0
VERTEX
  5
2E2
330
2E1
100
AcDbEntity
  8
Default
100
AcDbVertex
100
AcDb2dVertex
 10
-12.63254139044665
 20
62.81495054214608
 30
0.0
  0
VERTEX
  5
2E3
330
2E1
100
AcDbEntity
  8
Default
100
AcDbVertex
100
AcDb2dVertex
 10
-12.09600911436775
 20
62.66380824830935
 30
0.0
  0
SEQEND
  5
2E4
330
2E1
100
AcDbEntity
  8
Default
  0
SPLINE
  5
2E5
330
1F
100
AcDbEntity
  8
Make2D visible lines
100
AcDbSpline
210
0.0
220
0.0
230
1.0
 70
    24
 71
     2
 72
     6
 73
     3
 74
     0
 42
0.0000000001
 43
0.0000000001
 40
0.0
 40
0.0
 40
0.0
 40
0.071889705667429
 40
0.071889705667429
 40
0.071889705667429
 10
0.3908593949404491
 20
71.21079324363649
 30
0.0
 10
0.4268042477741645
 20
71.21079324363649
 30
0.0
 10
0.4627491006078799
 20
71.21079324363649
 30
0.0
  0
SPLINE
  5
2E6
330
1F
100
AcDbEntity
  8
Make2D visible lines - Tangent
100
AcDbSpline
210
0.0
220
0.0
230
1.0
 70
    12
 71
     2
 72
     6
 73
     3
 74
     0
 42
0.0000000001
 43
0.0000000001
 40
0.0
 40
0.0
 40
0.0
 40
0.6213186892081751
 40
0.6213186892081751
 40
0.6213186892081751
 10
-7.414966680338893
 20
48.24994792634695
 30
0.0
 41
1.0
 10
-7.64504956313281
 20
47.92858533190433
 30
0.0
 41
0.7078628796196968
 10
-7.966903733179464
 20
48.15798006437487
 30
0.0
 41
1.0
  0
SPLINE
  5
2E7
330
1F
100
AcDbEntity
  8
Make2D visible lines - Tangent
100
AcDbSpline
210
0.0
220
0.0
230
1.0
 70
    12
 71
     2
 72
     6
 73
     3
 74
     0
 42
0.0000000001
 43
0.0000000001
 40
0.0
 40
0.0
 40
0.0
 40
0.6213184385489916
 40
0.6213184385489916
 40
0.6213184385489916
 10
-7.966903733179464
 20
48.15798006437487
 30
0.0
 41
1.0
 10
-8.284528694314801
 20
48.39319482034772
 30
0.0
 41
0.7078638982414072
 10
-8.049995020491892
 20
48.71132302281761
 30
0.0
 41
1.0
  0
SPLINE
  5
2E8
330
1F
100
AcDbEntity
  8
Make2D visible lines
100
AcDbSpline
210
0.0
220
0.0
230
1.0
 70
    24
 71
     2
 72
     6
 73
     3
 74
     0
 42
0.0000000001
 43
0.0000000001
 40
0.0
 40
0.0
 40
0.0
 40
0.071889705667429
 40
0.071889705667429
 40
0.071889705667429
 10
-12.12742200078955
 20
62.1157294320945
 30
0.0
 10
-12.09147714795584
 20
62.1157294320945
 30
0.0
 10
-12.05553229512213
 20
62.1157294320945
 30
0.0
  0
SPLINE
  5
2E9
330
1F
100
AcDbEntity
  8
Make2D visible lines
100
AcDbSpline
210
0.0
220
0.0
230
1.0
 70
    24
 71
     2
 72
     6
 73
     3
 74
     0
 42
0.0000000001
 43
0.0000000001
 40
0.0
 40
0.0
 40
0.0
 40
0.0653749093108864
 40
0.0653749093108864
 40
0.0653749093108864
 10
-12.98153229512212
 20
62.74572943209449
 30
0.0
 10
-12.94884484046668
 20
62.74572943209449
 30
0.0
 10
-12.91615738581125
 20
62.74572943209449
 30
0.0
  0
SPLINE
  5
2EA
330
1F
100
AcDbEntity
  8
Make2D visible lines
100
AcDbSpline
210
0.0
220
0.0
230
1.0
 70
    24
 71
     2
 72
     6
 73
     3
 74
     0
 42
0.0000000001
 43
0.0000000001
 40
0.0
 40
0.0
 40
0.0
 40
0.071889705667429
 40
0.071889705667429
 40
0.071889705667429
 10
-12.90964258945471
 20
62.1157294320945
 30
0.0
 10
-12.94558744228841
 20
62.1157294320945
 30
0.0
 10
-12.98153229512212
 20
62.1157294320945
 30
0.0
  0
POLYLINE
  5
2EB
330
1F
100
AcDbEntity
  8
Default
100
AcDb2dPolyline
 66
     1
 10
0.0
 20
0.0
 30
0.0
  0
VERTEX
  5
2EC
330
2EB
100
AcDbEntity
  8
Default
100
AcDbVertex
100
AcDb2dVertex
 10
-13.55353229512212
 20
61.30072943502648
 30
0.0
  0
VERTEX
  5
2ED
330
2EB
100
AcDbEntity
  8
Default
100
AcDbVertex
100
AcDb2dVertex
 10
-13.55353229512212
 20
63.56072942916248
 30
0.0
  0
SEQEND
  5
2EE
330
2EB
100
AcDbEntity
  8
Default
  0
SPLINE
  5
2EF
330
1F
100
AcDbEntity
  8
Default
100
AcDbSpline
210
0.0
220
0.0
230
1.0
 70
    12
 71
     2
 72
     6
 73
     3
 74
     0
 42
0.0000000001
 43
0.0000000001
 40
0.0
 40
0.0
 40
0.0
 40
0.2355890798875016
 40
0.2355890798875016
 40
0.2355890798875016
 10
-13.55353229512212
 20
63.56072942916248
 30
0.0
 41
1.0
 10
-13.55346153996435
 20
63.71065867400608
 30
0.0
 41
0.7074404097356639
 10
-13.40353229512213
 20
63.7107294320945
 30
0.0
 41
1.0
  0
SPLINE
  5
2F0
330
1F
100
AcDbEntity
  8
Default
100
AcDbSpline
210
0.0
220
0.0
230
1.0
 70
    24
 71
     2
 72
     6
 73
     3
 74
     0
 42
0.0000000001
 43
0.0000000001
 40
0.0
 40
0.0
 40
0.0
 40
0.3520000000000003
 40
0.3520000000000003
 40
0.3520000000000003
 10
-13.40353229512213
 20
63.7107294320945
 30
0.0
 10
-13.22753229512213
 20
63.7107294320945
 30
0.0
 10
-13.05153229512213
 20
63.7107294320945
 30
0.0
  0
SPLINE
  5
2F1
330
1F
100
AcDbEntity
  8
Default
100
AcDbSpline
210
0.0
220
0.0
230
1.0
 70
    12
 71
     2
 72
     6
 73
     3
 74
     0
 42
0.0000000001
 43
0.0000000001
 40
0.0
 40
0.0
 40
0.0
 40
0.1098876245644455
 40
0.1098876245644455
 40
0.1098876245644455
 10
-13.05153229512213
 20
63.7107294320945
 30
0.0
 41
1.0
 10
-12.98169094691243
 20
63.7105707774706
 30
0.0
 41
0.7087112325863247
 10
-12.98153229512214
 20
63.64072942925449
 30
0.0
 41
1.0
  0
POLYLINE
  5
2F2
330
1F
100
AcDbEntity
  8
Default
100
AcDb2dPolyline
 66
     1
 10
0.0
 20
0.0
 30
0.0
  0
VERTEX
  5
2F3
330
2F2
100
AcDbEntity
  8
Default
100
AcDbVertex
100
AcDb2dVertex
 10
-12.98153229512214
 20
63.64072942925449
 30
0.0
  0
VERTEX
  5
2F4
330
2F2
100
AcDbEntity
  8
Default
100
AcDbVertex
100
AcDb2dVertex
 10
-12.98153229512212
 20
61.2207294349345
 30
0.0
  0
SEQEND
  5
2F5
330
2F2
100
AcDbEntity
  8
Default
  0
SPLINE
  5
2F6
330
1F
100
AcDbEntity
  8
Default
100
AcDbSpline
210
0.0
220
0.0
230
1.0
 70
    12
 71
     2
 72
     6
 73
     3
 74
     0
 42
0.0000000001
 43
0.0000000001
 40
0.0
 40
0.0
 40
0.0
 40
0.109941564851661
 40
0.109941564851661
 40
0.109941564851661
 10
-12.98153229512212
 20
61.2207294349345
 30
0.0
 41
1.0
 10
-12.98156532957681
 20
61.15076246938784
 30
0.0
 41
0.7074405726109262
 10
-13.05153229512213
 20
61.15072943209449
 30
0.0
 41
1.0
  0
SPLINE
  5
2F7
330
1F
100
AcDbEntity
  8
Default
100
AcDbSpline
210
0.0
220
0.0
230
1.0
 70
    24
 71
     2
 72
     6
 73
     3
 74
     0
 42
0.0000000001
 43
0.0000000001
 40
0.0
 40
0.0
 40
0.0
 40
0.3520000000000003
 40
0.3520000000000003
 40
0.3520000000000003
 10
-13.05153229512213
 20
61.15072943209449
 30
0.0
 10
-13.22753229512213
 20
61.15072943209449
 30
0.0
 10
-13.40353229512213
 20
61.15072943209449
 30
0.0
  0
SPLINE
  5
2F8
330
1F
100
AcDbEntity
  8
Default
100
AcDbSpline
210
0.0
220
0.0
230
1.0
 70
    12
 71
     2
 72
     6
 73
     3
 74
     0
 42
0.0000000001
 43
0.0000000001
 40
0.0
 40
0.0
 40
0.0
 40
0.2356186331260159
 40
0.2356186331260159
 40
0.2356186331260159
 10
-13.40353229512213
 20
61.15072943209449
 30
0.0
 41
1.0
 10
-13.55353039028049
 20
61.15073133986809
 30
0.0
 41
0.7071157676638842
 10
-13.55353229512212
 20
61.30072943502648
 30
0.0
 41
1.0
  0
POLYLINE
  5
2F9
330
1F
100
AcDbEntity
  8
Default
100
AcDb2dPolyline
 66
     1
 10
0.0
 20
0.0
 30
0.0
  0
VERTEX
  5
2FA
330
2F9
100
AcDbEntity
  8
Default
100
AcDbVertex
100
AcDb2dVertex
 10
8.771472483907871
 20
46.58460705810847
 30
0.0
  0
VERTEX
  5
2FB
330
2F9
100
AcDbEntity
  8
Default
100
AcDbVertex
100
AcDb2dVertex
 10
8.771472483907871
 20
48.84460705224448
 30
0.0
  0
SEQEND
  5
2FC
330
2F9
100
AcDbEntity
  8
Default
  0
SPLINE
  5
2FD
330
1F
100
AcDbEntity
  8
Default
100
AcDbSpline
210
0.0
220
0.0
230
1.0
 70
    12
 71
     2
 72
     6
 73
     3
 74
     0
 42
0.0000000001
 43
0.0000000001
 40
0.0
 40
0.0
 40
0.0
 40
0.2355890798875016
 40
0.2355890798875016
 40
0.2355890798875016
 10
8.771472483907871
 20
48.84460705224448
 30
0.0
 41
1.0
 10
8.771401728750096
 20
48.99453629708807
 30
0.0
 41
0.7074404097356639
 10
8.621472483907866
 20
48.99460705517647
 30
0.0
 41
1.0
  0
SPLINE
  5
2FE
330
1F
100
AcDbEntity
  8
Default
100
AcDbSpline
210
0.0
220
0.0
230
1.0
 70
    24
 71
     2
 72
     6
 73
     3
 74
     0
 42
0.0000000001
 43
0.0000000001
 40
0.0
 40
0.0
 40
0.0
 40
0.3520000000000003
 40
0.3520000000000003
 40
0.3520000000000003
 10
8.621472483907866
 20
48.99460705517647
 30
0.0
 10
8.44547248390787
 20
48.99460705517647
 30
0.0
 10
8.269472483907876
 20
48.99460705517647
 30
0.0
  0
SPLINE
  5
2FF
330
1F
100
AcDbEntity
  8
Default
100
AcDbSpline
210
0.0
220
0.0
230
1.0
 70
    12
 71
     2
 72
     6
 73
     3
 74
     0
 42
0.0000000001
 43
0.0000000001
 40
0.0
 40
0.0
 40
0.0
 40
0.1098876245644455
 40
0.1098876245644455
 40
0.1098876245644455
 10
8.269472483907876
 20
48.99460705517647
 30
0.0
 41
1.0
 10
8.199631135698192
 20
48.9944484005526
 30
0.0
 41
0.7087112325863247
 10
8.199472483907869
 20
48.92460705233647
 30
0.0
 41
1.0
  0
POLYLINE
  5
300
330
1F
100
AcDbEntity
  8
Default
100
AcDb2dPolyline
 66
     1
 10
0.0
 20
0.0
 30
0.0
  0
VERTEX
  5
301
330
300
100
AcDbEntity
  8
Default
100
AcDbVertex
100
AcDb2dVertex
 10
8.199472483907869
 20
48.92460705233647
 30
0.0
  0
VERTEX
  5
302
330
300
100
AcDbEntity
  8
Default
100
AcDbVertex
100
AcDb2dVertex
 10
8.199472483907869
 20
46.50460705801648
 30
0.0
  0
SEQEND
  5
303
330
300
100
AcDbEntity
  8
Default
  0
SPLINE
  5
304
330
1F
100
AcDbEntity
  8
Default
100
AcDbSpline
210
0.0
220
0.0
230
1.0
 70
    12
 71
     2
 72
     6
 73
     3
 74
     0
 42
0.0000000001
 43
0.0000000001
 40
0.0
 40
0.0
 40
0.0
 40
0.109941564851661
 40
0.109941564851661
 40
0.109941564851661
 10
8.199472483907869
 20
46.50460705801648
 30
0.0
 41
1.0
 10
8.19950551836255
 20
46.43464009246982
 30
0.0
 41
0.7074405726109262
 10
8.269472483907876
 20
46.43460705517649
 30
0.0
 41
1.0
  0
SPLINE
  5
305
330
1F
100
AcDbEntity
  8
Default
100
AcDbSpline
210
0.0
220
0.0
230
1.0
 70
    24
 71
     2
 72
     6
 73
     3
 74
     0
 42
0.0000000001
 43
0.0000000001
 40
0.0
 40
0.0
 40
0.0
 40
0.3520000000000003
 40
0.3520000000000003
 40
0.3520000000000003
 10
8.269472483907876
 20
46.43460705517649
 30
0.0
 10
8.44547248390787
 20
46.43460705517648
 30
0.0
 10
8.621472483907866
 20
46.43460705517647
 30
0.0
  0
SPLINE
  5
306
330
1F
100
AcDbEntity
  8
Default
100
AcDbSpline
210
0.0
220
0.0
230
1.0
 70
    12
 71
     2
 72
     6
 73
     3
 74
     0
 42
0.0000000001
 43
0.0000000001
 40
0.0
 40
0.0
 40
0.0
 40
0.2356186331260159
 40
0.2356186331260159
 40
0.2356186331260159
 10
8.621472483907866
 20
46.43460705517647
 30
0.0
 41
1.0
 10
8.77147057906622
 20
46.43460896295008
 30
0.0
 41
0.7071157676638842
 10
8.771472483907871
 20
46.58460705810847
 30
0.0
 41
1.0
  0
POLYLINE
  5
307
330
1F
100
AcDbEntity
  8
Default
100
AcDb2dPolyline
 66
     1
 10
0.0
 20
0.0
 30
0.0
  0
VERTEX
  5
308
330
307
100
AcDbEntity
  8
Default
100
AcDbVertex
100
AcDb2dVertex
 10
-8.771974282692128
 20
46.58460705810847
 30
0.0
  0
VERTEX
  5
309
330
307
100
AcDbEntity
  8
Default
100
AcDbVertex
100
AcDb2dVertex
 10
-8.771974282692128
 20
48.84460705224448
 30
0.0
  0
SEQEND
  5
30A
330
307
100
AcDbEntity
  8
Default
  0
SPLINE
  5
30B
330
1F
100
AcDbEntity
  8
Default
100
AcDbSpline
210
0.0
220
0.0
230
1.0
 70
    12
 71
     2
 72
     6
 73
     3
 74
     0
 42
0.0000000001
 43
0.0000000001
 40
0.0
 40
0.0
 40
0.0
 40
0.2355890798875016
 40
0.2355890798875016
 40
0.2355890798875016
 10
-8.771974282692128
 20
48.84460705224448
 30
0.0
 41
1.0
 10
-8.771903527534354
 20
48.99453629708807
 30
0.0
 41
0.7074404097356639
 10
-8.621974282692122
 20
48.99460705517647
 30
0.0
 41
1.0
  0
SPLINE
  5
30C
330
1F
100
AcDbEntity
  8
Default
100
AcDbSpline
210
0.0
220
0.0
230
1.0
 70
    24
 71
     2
 72
     6
 73
     3
 74
     0
 42
0.0000000001
 43
0.0000000001
 40
0.0
 40
0.0
 40
0.0
 40
0.3520000000000003
 40
0.3520000000000003
 40
0.3520000000000003
 10
-8.621974282692122
 20
48.99460705517647
 30
0.0
 10
-8.445974282692127
 20
48.99460705517647
 30
0.0
 10
-8.269974282692132
 20
48.99460705517647
 30
0.0
  0
SPLINE
  5
30D
330
1F
100
AcDbEntity
  8
Default
100
AcDbSpline
210
0.0
220
0.0
230
1.0
 70
    12
 71
     2
 72
     6
 73
     3
 74
     0
 42
0.0000000001
 43
0.0000000001
 40
0.0
 40
0.0
 40
0.0
 40
0.1098876245644455
 40
0.1098876245644455
 40
0.1098876245644455
 10
-8.269974282692132
 20
48.99460705517647
 30
0.0
 41
1.0
 10
-8.200132934482438
 20
48.9944484005526
 30
0.0
 41
0.7087112325863247
 10
-8.199974282692125
 20
48.92460705233647
 30
0.0
 41
1.0
  0
POLYLINE
  5
30E
330
1F
100
AcDbEntity
  8
Default
100
AcDb2dPolyline
 66
     1
 10
0.0
 20
0.0
 30
0.0
  0
VERTEX
  5
30F
330
30E
100
AcDbEntity
  8
Default
100
AcDbVertex
100
AcDb2dVertex
 10
-8.199974282692125
 20
48.92460705233647
 30
0.0
  0
VERTEX
  5
310
330
30E
100
AcDbEntity
  8
Default
100
AcDbVertex
100
AcDb2dVertex
 10
-8.199974282692125
 20
46.50460705801648
 30
0.0
  0
SEQEND
  5
311
330
30E
100
AcDbEntity
  8
Default
  0
SPLINE
  5
312
330
1F
100
AcDbEntity
  8
Default
100
AcDbSpline
210
0.0
220
0.0
230
1.0
 70
    12
 71
     2
 72
     6
 73
     3
 74
     0
 42
0.0000000001
 43
0.0000000001
 40
0.0
 40
0.0
 40
0.0
 40
0.109941564851661
 40
0.109941564851661
 40
0.109941564851661
 10
-8.199974282692125
 20
46.50460705801648
 30
0.0
 41
1.0
 10
-8.20000731714682
 20
46.43464009246982
 30
0.0
 41
0.7074405726109262
 10
-8.269974282692132
 20
46.43460705517649
 30
0.0
 41
1.0
  0
SPLINE
  5
313
330
1F
100
AcDbEntity
  8
Default
100
AcDbSpline
210
0.0
220
0.0
230
1.0
 70
    24
 71
     2
 72
     6
 73
     3
 74
     0
 42
0.0000000001
 43
0.0000000001
 40
0.0
 40
0.0
 40
0.0
 40
0.3520000000000003
 40
0.3520000000000003
 40
0.3520000000000003
 10
-8.269974282692132
 20
46.43460705517649
 30
0.0
 10
-8.445974282692127
 20
46.43460705517648
 30
0.0
 10
-8.621974282692122
 20
46.43460705517647
 30
0.0
  0
SPLINE
  5
314
330
1F
100
AcDbEntity
  8
Default
100
AcDbSpline
210
0.0
220
0.0
230
1.0
 70
    12
 71
     2
 72
     6
 73
     3
 74
     0
 42
0.0000000001
 43
0.0000000001
 40
0.0
 40
0.0
 40
0.0
 40
0.2356186331260159
 40
0.2356186331260159
 40
0.2356186331260159
 10
-8.621974282692122
 20
46.43460705517647
 30
0.0
 41
1.0
 10
-8.771972377850481
 20
46.43460896295008
 30
0.0
 41
0.7071157676638842
 10
-8.771974282692128
 20
46.58460705810847
 30
0.0
 41
1.0
  0
ARC
  5
315
330
1F
100
AcDbEntity
  8
Default
100
AcDbCircle
 10
-3515557.382207595
 20
63.73586889063188
 30
0.0
 40
3515570.294238132
100
AcDbArc
 50
359.9999911441844
 51
359.9999987473872
  0
SPLINE
  5
316
330
1F
100
AcDbEntity
  8
Default
100
AcDbSpline
210
0.0
220
0.0
230
1.0
 70
    12
 71
     2
 72
     6
 73
     3
 74
     0
 42
0.0000000001
 43
0.0000000001
 40
0.0
 40
0.0
 40
0.0
 40
0.0784842030870699
 40
0.0784842030870699
 40
0.0784842030870699
 10
12.91203053685206
 20
63.65901075165388
 30
0.0
 41
1.0
 10
12.91199431054618
 20
63.70897456438877
 30
0.0
 41
0.7071217743558633
 10
12.86203049633748
 20
63.7089408693989
 30
0.0
 41
1.0
  0
POLYLINE
  5
317
330
1F
100
AcDbEntity
  8
Default
100
AcDb2dPolyline
 66
     1
 10
0.0
 20
0.0
 30
0.0
  0
VERTEX
  5
318
330
317
100
AcDbEntity
  8
Default
100
AcDbVertex
100
AcDb2dVertex
 10
12.86203049633748
 20
63.7089408693989
 30
0.0
  0
VERTEX
  5
319
330
317
100
AcDbEntity
  8
Default
100
AcDbVertex
100
AcDb2dVertex
 10
12.17403049633826
 20
63.7089408693989
 30
0.0
  0
SEQEND
  5
31A
330
317
100
AcDbEntity
  8
Default
  0
SPLINE
  5
31B
330
1F
100
AcDbEntity
  8
Default
100
AcDbSpline
210
0.0
220
0.0
230
1.0
 70
    12
 71
     2
 72
     6
 73
     3
 74
     0
 42
0.0000000001
 43
0.0000000001
 40
-0.0784842030870699
 40
-0.0784842030870699
 40
-0.0784842030870699
 40
0.0
 40
0.0
 40
0.0
 10
12.17403049633826
 20
63.7089408693989
 30
0.0
 41
1.0
 10
12.12406668212956
 20
63.70897456438877
 30
0.0
 41
0.7071217743558633
 10
12.12403045582369
 20
63.65901075165388
 30
0.0
 41
1.0
  0
ARC
  5
31C
330
1F
100
AcDbEntity
  8
Default
100
AcDbCircle
 10
3515582.418268586
 20
63.73586889063188
 30
0.0
 40
3515570.294238132
100
AcDbArc
 50
180.0000012526127
 51
180.0000044398051
  0
SPLINE
  5
31D
330
1F
100
AcDbEntity
  8
Make2D visible lines - Tangent
100
AcDbSpline
210
0.0
220
0.0
230
1.0
 70
    12
 71
     2
 72
     6
 73
     3
 74
     0
 42
0.0000000001
 43
0.0000000001
 40
-3.3071544768667
 40
-3.3071544768667
 40
-3.3071544768667
 40
0.0
 40
0.0
 40
0.0
 10
8.709812698879979
 20
62.38242718421841
 30
0.0
 41
0.9999999491618836
 10
10.28827131272711
 20
62.87516045826304
 30
0.0
 41
0.9999999626163621
 10
11.8665774086936
 20
63.36838205391146
 30
0.0
 41
1.0
  0
SPLINE
  5
31E
330
1F
100
AcDbEntity
  8
Make2D visible lines - Tangent
100
AcDbSpline
210
0.0
220
0.0
230
1.0
 70
     8
 71
     3
 72
    11
 73
     7
 74
     0
 42
0.0000000001
 43
0.0000000001
 40
-0.5061957594563898
 40
-0.5061957594563898
 40
-0.5061957594563898
 40
-0.5061957594563898
 40
-0.2779307972340258
 40
-0.1436576036068027
 40
-0.0724650654421722
 40
0.0
 40
0.0
 40
0.0
 40
0.0
 10
11.8665774086936
 20
63.36838205391146
 30
0.0
 10
11.94099207847154
 20
63.39286474413163
 30
0.0
 10
12.06671498455083
 20
63.35447208062692
 30
0.0
 10
12.16512987950391
 20
63.24703721640915
 30
0.0
 10
12.21288300416839
 20
63.16718410341059
 30
0.0
 10
12.23047221449303
 20
63.12253443768756
 30
0.0
 10
12.23809314597027
 20
63.09961601370944
 30
0.0
  0
SPLINE
  5
31F
330
1F
100
AcDbEntity
  8
Make2D visible lines - Tangent
100
AcDbSpline
210
0.0
220
0.0
230
1.0
 70
     8
 71
     3
 72
    11
 73
     7
 74
     0
 42
0.0000000001
 43
0.0000000001
 40
0.0
 40
0.0
 40
0.0
 40
0.0
 40
0.0724650654421701
 40
0.143657603606799
 40
0.2779307972340275
 40
0.5061957594563471
 40
0.5061957594563471
 40
0.5061957594563471
 40
0.5061957594563471
 10
12.23809314597027
 20
63.09961601370944
 30
0.0
 10
12.2453987945123
 20
63.07659514809578
 30
0.0
 10
12.25741323947373
 20
63.03013413130435
 30
0.0
 10
12.26571663225597
 20
62.93746302340617
 30
0.0
 10
12.24924593850848
 20
62.79269956860628
 30
0.0
 10
12.17010061231242
 20
62.68774118130293
 30
0.0
 10
12.09550731558329
 20
62.66380824830998
 30
0.0
  0
SPLINE
  5
320
330
1F
100
AcDbEntity
  8
Make2D visible lines - Tangent
100
AcDbSpline
210
0.0
220
0.0
230
1.0
 70
    12
 71
     2
 72
     6
 73
     3
 74
     0
 42
0.0000000001
 43
0.0000000001
 40
0.0
 40
0.0
 40
0.0
 40
3.400958511651034
 40
3.400958511651034
 40
3.400958511651034
 10
12.09550731558329
 20
62.66380824830998
 30
0.0
 41
1.0
 10
10.4842820105831
 20
62.12013305747317
 30
0.0
 41
0.9999999609514091
 10
8.873231116231036
 20
61.57594126002321
 30
0.0
 41
0.999999947606444
  0
SPLINE
  5
321
330
1F
100
AcDbEntity
  8
Make2D visible lines
100
AcDbSpline
210
0.0
220
0.0
230
1.0
 70
    24
 71
     2
 72
     6
 73
     3
 74
     0
 42
0.0000000001
 43
0.0000000001
 40
5.260000000000206
 40
5.260000000000206
 40
5.260000000000206
 40
19.34656652566211
 40
19.34656652566211
 40
19.34656652566211
 10
36.12732753268985
 20
12.5874695108843
 30
0.0
 10
36.12732753268985
 20
16.54624941749396
 30
0.0
 10
36.12732753268985
 20
20.50502932410362
 30
0.0
  0
SPLINE
  5
322
330
1F
100
AcDbEntity
  8
Make2D visible lines
100
AcDbSpline
210
0.0
220
0.0
230
1.0
 70
    24
 71
     2
 72
     6
 73
     3
 74
     0
 42
0.0000000001
 43
0.0000000001
 40
22.83775186569835
 40
22.83775186569835
 40
22.83775186569835
 40
36.97000000000042
 40
36.97000000000042
 40
36.97000000000042
 10
38.70732753269004
 20
20.55071093274378
 30
0.0
 10
38.70732753269004
 20
16.56909022181404
 30
0.0
 10
38.70732753269004
 20
12.58746951088429
 30
0.0
  0
SPLINE
  5
323
330
1F
100
AcDbEntity
  8
Make2D visible lines
100
AcDbSpline
210
0.0
220
0.0
230
1.0
 70
    24
 71
     2
 72
     6
 73
     3
 74
     0
 42
0.0000000001
 43
0.0000000001
 40
5.260000000000206
 40
5.260000000000206
 40
5.260000000000206
 40
19.35092961276052
 40
19.35092961276052
 40
19.35092961276052
 10
1.284781832113453
 20
12.5874695108843
 30
0.0
 10
1.284781832113453
 20
16.54843096104317
 30
0.0
 10
1.284781832113453
 20
20.50939241120204
 30
0.0
  0
SPLINE
  5
324
330
1F
100
AcDbEntity
  8
Make2D visible lines
100
AcDbSpline
210
0.0
220
0.0
230
1.0
 70
    24
 71
     2
 72
     6
 73
     3
 74
     0
 42
0.0000000001
 43
0.0000000001
 40
22.87885116517834
 40
22.87885116517834
 40
22.87885116517834
 40
36.97000000000042
 40
36.97000000000042
 40
36.97000000000042
 10
-1.295218167886745
 20
20.50961163326379
 30
0.0
 10
-1.295218167886745
 20
16.54854057207404
 30
0.0
 10
-1.295218167886745
 20
12.58746951088429
 30
0.0
  0
ENDSEC
  0
SECTION
  2
OBJECTS
  0
DICTIONARY
  5
C
330
0
100
AcDbDictionary
281
     1
  3
ACAD_GROUP
350
D
  3
ACAD_LAYOUT
350
1A
  3
ACAD_MLEADERSTYLE
350
326
  3
ACAD_MLINESTYLE
350
17
  3
ACAD_PLOTSETTINGS
350
19
  3
ACAD_PLOTSTYLENAME
350
E
  3
ACAD_TABLESTYLE
350
325
  3
ACAD_VISUALSTYLE
350
2A
  0
DICTIONARY
  5
D
102
{ACAD_REACTORS
330
C
102
}
330
C
100
AcDbDictionary
281
     1
  0
DICTIONARY
  5
1A
102
{ACAD_REACTORS
330
C
102
}
330
C
100
AcDbDictionary
281
     1
  3
Layout1
350
1E
  3
Layout2
350
26
  3
Model
350
22
  0
DICTIONARY
  5
326
102
{ACAD_REACTORS
330
C
102
}
330
C
100
AcDbDictionary
281
     1
  0
DICTIONARY
  5
17
102
{ACAD_REACTORS
330
C
102
}
330
C
100
AcDbDictionary
281
     1
  3
Standard
350
18
  0
DICTIONARY
  5
19
102
{ACAD_REACTORS
330
C
102
}
330
C
100
AcDbDictionary
281
     1
  0
ACDBDICTIONARYWDFLT
  5
E
102
{ACAD_REACTORS
330
C
102
}
330
C
100
AcDbDictionary
281
     1
  3
Normal
350
F
100
AcDbDictionaryWithDefault
340
F
  0
DICTIONARY
  5
325
102
{ACAD_REACTORS
330
C
102
}
330
C
100
AcDbDictionary
281
     1
  0
DICTIONARY
  5
2A
102
{ACAD_REACTORS
330
C
102
}
330
C
100
AcDbDictionary
281
     1
  3
2dWireframe
350
2F
  3
3D Hidden
350
31
  3
3dWireframe
350
30
  3
Basic
350
32
  3
Brighten
350
36
  3
ColorChange
350
3A
  3
Conceptual
350
34
  3
Dim
350
35
  3
Facepattern
350
39
  3
Flat
350
2B
  3
FlatWithEdges
350
2C
  3
Gouraud
350
2D
  3
GouraudWithEdges
350
2E
  3
Linepattern
350
38
  3
Realistic
350
33
  3
Thicken
350
37
  0
LAYOUT
  5
1E
102
{ACAD_REACTORS
330
1A
102
}
330
1A
100
AcDbPlotSettings
  1

  2
none_device
  4

  6

 40
0.0
 41
0.0
 42
0.0
 43
0.0
 44
0.0
 45
0.0
 46
0.0
 47
0.0
 48
0.0
 49
0.0
140
0.0
141
0.0
142
1.0
143
1.0
 70
   688
 72
     0
 73
     0
 74
     5
  7

 75
    16
 76
     0
 77
     2
 78
   300
147
1.0
148
0.0
149
0.0
100
AcDbLayout
  1
Layout1
 70
     1
 71
     1
 10
0.0
 20
0.0
 11
12.0
 21
9.0
 12
0.0
 22
0.0
 32
0.0
 14
1.000000000000000E+20
 24
1.000000000000000E+20
 34
1.000000000000000E+20
 15
-1.000000000000000E+20
 25
-1.000000000000000E+20
 35
-1.000000000000000E+20
146
0.0
 13
0.0
 23
0.0
 33
0.0
 16
1.0
 26
0.0
 36
0.0
 17
0.0
 27
1.0
 37
0.0
 76
     0
330
1B
  0
LAYOUT
  5
26
102
{ACAD_REACTORS
330
1A
102
}
330
1A
100
AcDbPlotSettings
  1

  2
none_device
  4

  6

 40
0.0
 41
0.0
 42
0.0
 43
0.0
 44
0.0
 45
0.0
 46
0.0
 47
0.0
 48
0.0
 49
0.0
140
0.0
141
0.0
142
1.0
143
1.0
 70
   688
 72
     0
 73
     0
 74
     5
  7

 75
    16
 76
     0
 77
     2
 78
   300
147
1.0
148
0.0
149
0.0
100
AcDbLayout
  1
Layout2
 70
     1
 71
     2
 10
0.0
 20
0.0
 11
0.0
 21
0.0
 12
0.0
 22
0.0
 32
0.0
 14
0.0
 24
0.0
 34
0.0
 15
0.0
 25
0.0
 35
0.0
146
0.0
 13
0.0
 23
0.0
 33
0.0
 16
1.0
 26
0.0
 36
0.0
 17
0.0
 27
1.0
 37
0.0
 76
     0
330
23
  0
LAYOUT
  5
22
102
{ACAD_REACTORS
330
1A
102
}
330
1A
100
AcDbPlotSettings
  1

  2
none_device
  4

  6

 40
0.0
 41
0.0
 42
0.0
 43
0.0
 44
0.0
 45
0.0
 46
0.0
 47
0.0
 48
0.0
 49
0.0
140
0.0
141
0.0
142
1.0
143
1.0
 70
  1712
 72
     0
 73
     0
 74
     0
  7

 75
     0
 76
     0
 77
     2
 78
   300
147
1.0
148
0.0
149
0.0
100
AcDbLayout
  1
Model
 70
     1
 71
     0
 10
0.0
 20
0.0
 11
12.0
 21
9.0
 12
0.0
 22
0.0
 32
0.0
 14
-13.55406468864557
 24
-0.0025304891157205
 34
-0.0000312453044315
 15
50.10846654555476
 25
72.80579324363649
 35
0.0
146
0.0
 13
0.0
 23
0.0
 33
0.0
 16
1.0
 26
0.0
 36
0.0
 17
0.0
 27
1.0
 37
0.0
 76
     0
330
1F
331
29
  0
MLINESTYLE
  5
18
102
{ACAD_REACTORS
330
17
102
}
330
17
100
AcDbMlineStyle
  2
Standard
 70
     0
  3

 62
   256
 51
90.0
 52
90.0
 71
     2
 49
0.5
 62
   256
  6
BYLAYER
 49
-0.5
 62
   256
  6
BYLAYER
  0
ACDBPLACEHOLDER
  5
F
102
{ACAD_REACTORS
330
E
102
}
330
E
  0
VISUALSTYLE
  5
2F
102
{ACAD_REACTORS
330
2A
102
}
330
2A
100
AcDbVisualStyle
  2
2dWireframe
 70
     4
 71
     0
 72
     2
 73
     0
 90
        0
 40
-0.6
 41
-30.0
 62
     5
 63
     7
421
 16777215
 74
     1
 91
        4
 64
     7
 65
   257
 75
     1
175
     1
 42
1.0
 92
        0
 66
   257
 43
1.0
 76
     1
 77
     6
 78
     2
 67
     7
 79
     5
170
     0
171
     0
290
     0
174
     0
 93
        1
 44
0.0
173
     0
291
     0
 45
0.0
1001
ACAD
1000
AcDbSavedByObjectVersion
1070
     0
  0
VISUALSTYLE
  5
31
102
{ACAD_REACTORS
330
2A
102
}
330
2A
100
AcDbVisualStyle
  2
3D Hidden
 70
     6
 71
     1
 72
     2
 73
     2
 90
        0
 40
-0.6
 41
-30.0
 62
     5
 63
     7
421
 16777215
 74
     2
 91
        2
 64
     7
 65
   257
 75
     2
175
     1
 42
40.0
 92
        0
 66
   257
 43
1.0
 76
     1
 77
     6
 78
     2
 67
     7
 79
     3
170
     0
171
     0
290
     0
174
     0
 93
        1
 44
0.0
173
     0
291
     0
 45
0.0
1001
ACAD
1000
AcDbSavedByObjectVersion
1070
     0
  0
VISUALSTYLE
  5
30
102
{ACAD_REACTORS
330
2A
102
}
330
2A
100
AcDbVisualStyle
  2
3dWireframe
 70
     5
 71
     0
 72
     2
 73
     0
 90
        0
 40
-0.6
 41
-30.0
 62
     5
 63
     7
421
 16777215
 74
     1
 91
        4
 64
     7
 65
   257
 75
     1
175
     1
 42
1.0
 92
        0
 66
   257
 43
1.0
 76
     1
 77
     6
 78
     2
 67
     7
 79
     5
170
     0
171
     0
290
     0
174
     0
 93
        1
 44
0.0
173
     0
291
     0
 45
0.0
1001
ACAD
1000
AcDbSavedByObjectVersion
1070
     0
  0
VISUALSTYLE
  5
32
102
{ACAD_REACTORS
330
2A
102
}
330
2A
100
AcDbVisualStyle
  2
Basic
 70
     7
 71
     1
 72
     0
 73
     1
 90
        0
 40
-0.6
 41
-30.0
 62
     5
 63
     7
421
 16777215
 74
     0
 91
        4
 64
     7
 65
   257
 75
     1
175
     1
 42
1.0
 92
        8
 66
     7
 43
1.0
 76
     1
 77
     6
 78
     2
 67
     7
 79
     5
170
     0
171
     0
290
     0
174
     0
 93
        1
 44
0.0
173
     0
291
     1
 45
0.0
1001
ACAD
1000
AcDbSavedByObjectVersion
1070
     0
  0
VISUALSTYLE
  5
36
102
{ACAD_REACTORS
330
2A
102
}
330
2A
100
AcDbVisualStyle
  2
Brighten
 70
    12
 71
     2
 72
     2
 73
     0
 90
        0
 40
-0.6
 41
-30.0
 62
     5
 63
     7
421
 16777215
 74
     1
 91
        4
 64
     7
 65
   257
 75
     1
175
     1
 42
1.0
 92
        8
 66
     7
 43
1.0
 76
     1
 77
     6
 78
     2
 67
     7
 79
     5
170
     0
171
     0
290
     0
174
     0
 93
        1
 44
50.0
173
     0
291
     1
 45
0.0
1001
ACAD
1000
AcDbSavedByObjectVersion
1070
     0
  0
VISUALSTYLE
  5
3A
102
{ACAD_REACTORS
330
2A
102
}
330
2A
100
AcDbVisualStyle
  2
ColorChange
 70
    16
 71
     2
 72
     2
 73
     3
 90
        0
 40
-0.6
 41
-30.0
 62
     5
 63
     8
421
  8421504
 74
     1
 91
        4
 64
     7
 65
   257
 75
     1
175
     1
 42
1.0
 92
        8
 66
     8
424
  8421504
 43
1.0
 76
     1
 77
     6
 78
     2
 67
     7
 79
     5
170
     0
171
     0
290
     0
174
     0
 93
        1
 44
0.0
173
     0
291
     1
 45
0.0
1001
ACAD
1000
AcDbSavedByObjectVersion
1070
     0
  0
VISUALSTYLE
  5
34
102
{ACAD_REACTORS
330
2A
102
}
330
2A
100
AcDbVisualStyle
  2
Conceptual
 70
     9
 71
     3
 72
     2
 73
     0
 90
        0
 40
-0.6
 41
-30.0
 62
     5
 63
     7
421
 16777215
 74
     2
 91
        2
 64
     7
 65
   257
 75
     1
175
     1
 42
40.0
 92
        8
 66
     7
 43
1.0
 76
     1
 77
     6
 78
     2
 67
     7
 79
     3
170
     0
171
     0
290
     0
174
     0
 93
        1
 44
0.0
173
     0
291
     0
 45
0.0
1001
ACAD
1000
AcDbSavedByObjectVersion
1070
     0
  0
VISUALSTYLE
  5
35
102
{ACAD_REACTORS
330
2A
102
}
330
2A
100
AcDbVisualStyle
  2
Dim
 70
    11
 71
     2
 72
     2
 73
     0
 90
        0
 40
-0.6
 41
-30.0
 62
     5
 63
     7
421
 16777215
 74
     1
 91
        4
 64
     7
 65
   257
 75
     1
175
     1
 42
1.0
 92
        8
 66
     7
 43
1.0
 76
     1
 77
     6
 78
     2
 67
     7
 79
     5
170
     0
171
     0
290
     0
174
     0
 93
        1
 44
-50.0
173
     0
291
     1
 45
0.0
1001
ACAD
1000
AcDbSavedByObjectVersion
1070
     0
  0
VISUALSTYLE
  5
39
102
{ACAD_REACTORS
330
2A
102
}
330
2A
100
AcDbVisualStyle
  2
Facepattern
 70
    15
 71
     2
 72
     2
 73
     0
 90
        0
 40
-0.6
 41
-30.0
 62
     5
 63
     7
421
 16777215
 74
     1
 91
        4
 64
     7
 65
   257
 75
     1
175
     1
 42
1.0
 92
        8
 66
     7
 43
1.0
 76
     1
 77
     6
 78
     2
 67
     7
 79
     5
170
     0
171
     0
290
     0
174
     0
 93
        1
 44
0.0
173
     0
291
     1
 45
0.0
1001
ACAD
1000
AcDbSavedByObjectVersion
1070
     0
  0
VISUALSTYLE
  5
2B
102
{ACAD_REACTORS
330
2A
102
}
330
2A
100
AcDbVisualStyle
  2
Flat
 70
     0
 71
     2
 72
     1
 73
     1
 90
        2
 40
-0.6
 41
30.0
 62
     5
 63
     7
421
 16777215
 74
     0
 91
        4
 64
     7
 65
   257
 75
     1
175
     1
 42
1.0
 92
        8
 66
     7
 43
1.0
 76
     1
 77
     6
 78
     2
 67
     7
 79
     5
170
     0
171
     0
290
     0
174
     0
 93
       13
 44
0.0
173
     0
291
     1
 45
0.0
1001
ACAD
1000
AcDbSavedByObjectVersion
1070
     0
  0
VISUALSTYLE
  5
2C
102
{ACAD_REACTORS
330
2A
102
}
330
2A
100
AcDbVisualStyle
  2
FlatWithEdges
 70
     1
 71
     2
 72
     1
 73
     1
 90
        2
 40
-0.6
 41
30.0
 62
     5
 63
     7
421
 16777215
 74
     1
 91
        4
 64
     7
 65
   257
 75
     1
175
     1
 42
1.0
 92
        0
 66
   257
 43
1.0
 76
     1
 77
     6
 78
     2
 67
     7
 79
     5
170
     0
171
     0
290
     0
174
     0
 93
       13
 44
0.0
173
     0
291
     1
 45
0.0
1001
ACAD
1000
AcDbSavedByObjectVersion
1070
     0
  0
VISUALSTYLE
  5
2D
102
{ACAD_REACTORS
330
2A
102
}
330
2A
100
AcDbVisualStyle
  2
Gouraud
 70
     2
 71
     2
 72
     2
 73
     1
 90
        2
 40
-0.6
 41
30.0
 62
     5
 63
     7
421
 16777215
 74
     0
 91
        4
 64
     7
 65
   257
 75
     1
175
     1
 42
1.0
 92
        0
 66
     7
 43
1.0
 76
     1
 77
     6
 78
     2
 67
     7
 79
     5
170
     0
171
     0
290
     0
174
     0
 93
       13
 44
0.0
173
     0
291
     1
 45
0.0
1001
ACAD
1000
AcDbSavedByObjectVersion
1070
     0
  0
VISUALSTYLE
  5
2E
102
{ACAD_REACTORS
330
2A
102
}
330
2A
100
AcDbVisualStyle
  2
GouraudWithEdges
 70
     3
 71
     2
 72
     2
 73
     1
 90
        2
 40
-0.6
 41
30.0
 62
     5
 63
     7
421
 16777215
 74
     1
 91
        4
 64
     7
 65
   257
 75
     1
175
     1
 42
1.0
 92
        0
 66
   257
 43
1.0
 76
     1
 77
     6
 78
     2
 67
     7
 79
     5
170
     0
171
     0
290
     0
174
     0
 93
       13
 44
0.0
173
     0
291
     1
 45
0.0
1001
ACAD
1000
AcDbSavedByObjectVersion
1070
     0
  0
VISUALSTYLE
  5
38
102
{ACAD_REACTORS
330
2A
102
}
330
2A
100
AcDbVisualStyle
  2
Linepattern
 70
    14
 71
     2
 72
     2
 73
     0
 90
        0
 40
-0.6
 41
-30.0
 62
     5
 63
     7
421
 16777215
 74
     1
 91
        4
 64
     7
 65
   257
 75
     7
175
     7
 42
1.0
 92
        8
 66
     7
 43
1.0
 76
     1
 77
     6
 78
     2
 67
     7
 79
     5
170
     0
171
     0
290
     0
174
     0
 93
        1
 44
0.0
173
     0
291
     1
 45
0.0
1001
ACAD
1000
AcDbSavedByObjectVersion
1070
     0
  0
VISUALSTYLE
  5
33
102
{ACAD_REACTORS
330
2A
102
}
330
2A
100
AcDbVisualStyle
  2
Realistic
 70
     8
 71
     2
 72
     2
 73
     0
 90
        0
 40
-0.6
 41
-30.0
 62
     5
 63
     7
421
 16777215
 74
     1
 91
        0
 64
     7
 65
   257
 75
     1
175
     1
 42
1.0
 92
        8
 66
     8
424
  7895160
 43
1.0
 76
     1
 77
     6
 78
     2
 67
     7
 79
     5
170
     0
171
     0
290
     0
174
     0
 93
       13
 44
0.0
173
     0
291
     0
 45
0.0
1001
ACAD
1000
AcDbSavedByObjectVersion
1070
     0
  0
VISUALSTYLE
  5
37
102
{ACAD_REACTORS
330
2A
102
}
330
2A
100
AcDbVisualStyle
  2
Thicken
 70
    13
 71
     2
 72
     2
 73
     0
 90
        0
 40
-0.6
 41
-30.0
 62
     5
 63
     7
421
 16777215
 74
     1
 91
        4
 64
     7
 65
   257
 75
     1
175
     1
 42
1.0
 92
       12
 66
     7
 43
1.0
 76
     1
 77
     6
 78
     2
 67
     7
 79
     5
170
     0
171
     0
290
     0
174
     0
 93
        1
 44
0.0
173
     0
291
     1
 45
0.0
1001
ACAD
1000
AcDbSavedByObjectVersion
1070
     0
  0
ENDSEC
  0
EOF
