  0
SECTION
  2
HEADER
  9
$ACADVER
  1
AC1018
  9
$ACADMAINTVER
 70
     0
  9
$DWGCODEPAGE
  3
ANSI_1252
  9
$INSBASE
 10
0.0
 20
0.0
 30
0.0
  9
$EXTMIN
 10
-8.022338863339897
 20
0.0000000000050596
 30
0.0
  9
$EXTMAX
 10
8.02235822425873
 20
48.66927306101704
 30
0.0
  9
$LIMMIN
 10
0.0
 20
0.0
  9
$LIMMAX
 10
12.0
 20
9.0
  9
$ORTHOMODE
 70
     0
  9
$REGENMODE
 70
     1
  9
$FILLMODE
 70
     1
  9
$QTEXTMODE
 70
     0
  9
$MIRRTEXT
 70
     1
  9
$LTSCALE
 40
0.0393700787401575
  9
$ATTMODE
 70
     1
  9
$TEXTSIZE
 40
0.2
  9
$TRACEWID
 40
0.05
  9
$TEXTSTYLE
  7
Standard
  9
$CLAYER
  8
Default
  9
$CELTYPE
  6
ByLayer
  9
$CECOLOR
 62
   256
  9
$CELTSCALE
 40
1.0
  9
$DISPSILH
 70
     0
  9
$DIMSCALE
 40
1.0
  9
$DIMASZ
 40
0.18
  9
$DIMEXO
 40
0.0625
  9
$DIMDLI
 40
0.38
  9
$DIMRND
 40
0.0
  9
$DIMDLE
 40
0.0
  9
$DIMEXE
 40
0.18
  9
$DIMTP
 40
0.0
  9
$DIMTM
 40
0.0
  9
$DIMTXT
 40
0.18
  9
$DIMCEN
 40
0.09
  9
$DIMTSZ
 40
0.0
  9
$DIMTOL
 70
     0
  9
$DIMLIM
 70
     0
  9
$DIMTIH
 70
     1
  9
$DIMTOH
 70
     1
  9
$DIMSE1
 70
     0
  9
$DIMSE2
 70
     0
  9
$DIMTAD
 70
     0
  9
$DIMZIN
 70
     0
  9
$DIMBLK
  1

  9
$DIMASO
 70
     1
  9
$DIMSHO
 70
     1
  9
$DIMPOST
  1

  9
$DIMAPOST
  1

  9
$DIMALT
 70
     0
  9
$DIMALTD
 70
     2
  9
$DIMALTF
 40
25.4
  9
$DIMLFAC
 40
1.0
  9
$DIMTOFL
 70
     0
  9
$DIMTVP
 40
0.0
  9
$DIMTIX
 70
     0
  9
$DIMSOXD
 70
     0
  9
$DIMSAH
 70
     0
  9
$DIMBLK1
  1

  9
$DIMBLK2
  1

  9
$DIMSTYLE
  2
Standard
  9
$DIMCLRD
 70
     0
  9
$DIMCLRE
 70
     0
  9
$DIMCLRT
 70
     0
  9
$DIMTFAC
 40
1.0
  9
$DIMGAP
 40
0.09
  9
$DIMJUST
 70
     0
  9
$DIMSD1
 70
     0
  9
$DIMSD2
 70
     0
  9
$DIMTOLJ
 70
     1
  9
$DIMTZIN
 70
     0
  9
$DIMALTZ
 70
     0
  9
$DIMALTTZ
 70
     0
  9
$DIMUPT
 70
     0
  9
$DIMDEC
 70
     4
  9
$DIMTDEC
 70
     4
  9
$DIMALTU
 70
     2
  9
$DIMALTTD
 70
     2
  9
$DIMTXSTY
  7
Standard
  9
$DIMAUNIT
 70
     0
  9
$DIMADEC
 70
     0
  9
$DIMALTRND
 40
0.0
  9
$DIMAZIN
 70
     0
  9
$DIMDSEP
 70
    46
  9
$DIMATFIT
 70
     3
  9
$DIMFRAC
 70
     0
  9
$DIMLDRBLK
  1

  9
$DIMLUNIT
 70
     2
  9
$DIMLWD
 70
    -2
  9
$DIMLWE
 70
    -2
  9
$DIMTMOVE
 70
     2
  9
$LUNITS
 70
     2
  9
$LUPREC
 70
     3
  9
$SKETCHINC
 40
0.1
  9
$FILLETRAD
 40
0.5
  9
$AUNITS
 70
     0
  9
$AUPREC
 70
     0
  9
$MENU
  1
.
  9
$ELEVATION
 40
0.0
  9
$PELEVATION
 40
0.0
  9
$THICKNESS
 40
0.0
  9
$LIMCHECK
 70
     0
  9
$CHAMFERA
 40
0.5
  9
$CHAMFERB
 40
0.5
  9
$CHAMFERC
 40
1.0
  9
$CHAMFERD
 40
0.0
  9
$SKPOLY
 70
     0
  9
$TDCREATE
 40
2456428.694555961
  9
$TDUCREATE
 40
2456428.861222627
  9
$TDUPDATE
 40
2456428.694555972
  9
$TDUUPDATE
 40
2456428.861222639
  9
$TDINDWG
 40
0.0000000116
  9
$TDUSRTIMER
 40
0.0000000116
  9
$USRTIMER
 70
     1
  9
$ANGBASE
 50
0.0
  9
$ANGDIR
 70
     0
  9
$PDMODE
 70
     0
  9
$PDSIZE
 40
0.0
  9
$PLINEWID
 40
0.0
  9
$SPLFRAME
 70
     0
  9
$SPLINETYPE
 70
     6
  9
$SPLINESEGS
 70
     8
  9
$HANDSEED
  5
85
  9
$SURFTAB1
 70
     6
  9
$SURFTAB2
 70
     6
  9
$SURFTYPE
 70
     6
  9
$SURFU
 70
     6
  9
$SURFV
 70
     6
  9
$UCSBASE
  2

  9
$UCSNAME
  2

  9
$UCSORG
 10
0.0
 20
0.0
 30
0.0
  9
$UCSXDIR
 10
1.0
 20
0.0
 30
0.0
  9
$UCSYDIR
 10
0.0
 20
1.0
 30
0.0
  9
$UCSORTHOREF
  2

  9
$UCSORTHOVIEW
 70
     0
  9
$UCSORGTOP
 10
0.0
 20
0.0
 30
0.0
  9
$UCSORGBOTTOM
 10
0.0
 20
0.0
 30
0.0
  9
$UCSORGLEFT
 10
0.0
 20
0.0
 30
0.0
  9
$UCSORGRIGHT
 10
0.0
 20
0.0
 30
0.0
  9
$UCSORGFRONT
 10
0.0
 20
0.0
 30
0.0
  9
$UCSORGBACK
 10
0.0
 20
0.0
 30
0.0
  9
$PUCSBASE
  2

  9
$PUCSNAME
  2

  9
$PUCSORG
 10
0.0
 20
0.0
 30
0.0
  9
$PUCSXDIR
 10
1.0
 20
0.0
 30
0.0
  9
$PUCSYDIR
 10
0.0
 20
1.0
 30
0.0
  9
$PUCSORTHOREF
  2

  9
$PUCSORTHOVIEW
 70
     0
  9
$PUCSORGTOP
 10
0.0
 20
0.0
 30
0.0
  9
$PUCSORGBOTTOM
 10
0.0
 20
0.0
 30
0.0
  9
$PUCSORGLEFT
 10
0.0
 20
0.0
 30
0.0
  9
$PUCSORGRIGHT
 10
0.0
 20
0.0
 30
0.0
  9
$PUCSORGFRONT
 10
0.0
 20
0.0
 30
0.0
  9
$PUCSORGBACK
 10
0.0
 20
0.0
 30
0.0
  9
$USERI1
 70
     0
  9
$USERI2
 70
     0
  9
$USERI3
 70
     0
  9
$USERI4
 70
     0
  9
$USERI5
 70
     0
  9
$USERR1
 40
0.0
  9
$USERR2
 40
0.0
  9
$USERR3
 40
0.0
  9
$USERR4
 40
0.0
  9
$USERR5
 40
0.0
  9
$WORLDVIEW
 70
     1
  9
$SHADEDGE
 70
     3
  9
$SHADEDIF
 70
    70
  9
$TILEMODE
 70
     1
  9
$MAXACTVP
 70
    64
  9
$PINSBASE
 10
0.0
 20
0.0
 30
0.0
  9
$PLIMCHECK
 70
     0
  9
$PEXTMIN
 10
1.000000000000000E+20
 20
1.000000000000000E+20
 30
1.000000000000000E+20
  9
$PEXTMAX
 10
-1.000000000000000E+20
 20
-1.000000000000000E+20
 30
-1.000000000000000E+20
  9
$PLIMMIN
 10
0.0
 20
0.0
  9
$PLIMMAX
 10
12.0
 20
9.0
  9
$UNITMODE
 70
     0
  9
$VISRETAIN
 70
     1
  9
$PLINEGEN
 70
     0
  9
$PSLTSCALE
 70
     1
  9
$TREEDEPTH
 70
  3020
  9
$CMLSTYLE
  2
Standard
  9
$CMLJUST
 70
     0
  9
$CMLSCALE
 40
1.0
  9
$PROXYGRAPHICS
 70
     1
  9
$MEASUREMENT
 70
     0
  9
$CELWEIGHT
370
    -1
  9
$ENDCAPS
280
     0
  9
$JOINSTYLE
280
     0
  9
$LWDISPLAY
290
     0
  9
$INSUNITS
 70
     1
  9
$HYPERLINKBASE
  1

  9
$STYLESHEET
  1

  9
$XEDIT
290
     1
  9
$CEPSNTYPE
380
     0
  9
$PSTYLEMODE
290
     1
  9
$FINGERPRINTGUID
  2
{5550408F-9C99-47CF-B6B9-3CCCF3592748}
  9
$VERSIONGUID
  2
{FAEB1C32-E019-11D5-929B-00C0DF256EC4}
  9
$EXTNAMES
290
     1
  9
$PSVPSCALE
 40
0.0
  9
$OLESTARTUP
290
     0
  9
$SORTENTS
280
   127
  9
$INDEXCTL
280
     0
  9
$HIDETEXT
280
     1
  9
$XCLIPFRAME
290
     0
  9
$HALOGAP
280
     0
  9
$OBSCOLOR
 70
   257
  9
$OBSLTYPE
280
     0
  9
$INTERSECTIONDISPLAY
280
     0
  9
$INTERSECTIONCOLOR
 70
   257
  9
$DIMASSOC
280
     2
  9
$PROJECTNAME
  1

  0
ENDSEC
  0
SECTION
  2
CLASSES
  0
CLASS
  1
ACDBDICTIONARYWDFLT
  2
AcDbDictionaryWithDefault
  3
ObjectDBX Classes
 90
        0
 91
        4
280
     0
281
     0
  0
CLASS
  1
VISUALSTYLE
  2
AcDbVisualStyle
  3
ObjectDBX Classes
 90
     4095
 91
        4
280
     0
281
     0
  0
ENDSEC
  0
SECTION
  2
TABLES
  0
TABLE
  2
VPORT
  5
8
330
0
100
AcDbSymbolTable
 70
     1
  0
VPORT
  5
29
330
8
100
AcDbSymbolTableRecord
100
AcDbViewportTableRecord
  2
*Active
 70
     0
 10
0.0
 20
0.0
 11
1.0
 21
1.0
 12
0.0000096804594172
 22
24.33463653051105
 13
0.0
 23
0.0
 14
0.5
 24
0.5
 15
0.5
 25
0.5
 16
0.0
 26
0.0
 36
1.0
 17
0.0
 27
0.0
 37
0.0
 40
49.64265852223222
 41
0.3296679008845054
 42
50.0
 43
0.0
 44
0.0
 50
0.0
 51
0.0
 71
     0
 72
   100
 73
     1
 74
     3
 75
     0
 76
     0
 77
     0
 78
     0
281
     0
 65
     1
110
0.0
120
0.0
130
0.0
111
1.0
121
0.0
131
0.0
112
0.0
122
1.0
132
0.0
 79
     0
146
0.0
  0
ENDTAB
  0
TABLE
  2
LTYPE
  5
5
330
0
100
AcDbSymbolTable
 70
     1
  0
LTYPE
  5
14
330
5
100
AcDbSymbolTableRecord
100
AcDbLinetypeTableRecord
  2
ByBlock
 70
     0
  3

 72
    65
 73
     0
 40
0.0
  0
LTYPE
  5
15
330
5
100
AcDbSymbolTableRecord
100
AcDbLinetypeTableRecord
  2
ByLayer
 70
     0
  3

 72
    65
 73
     0
 40
0.0
  0
LTYPE
  5
16
330
5
100
AcDbSymbolTableRecord
100
AcDbLinetypeTableRecord
  2
Continuous
 70
     0
  3
Solid line
 72
    65
 73
     0
 40
0.0
  0
ENDTAB
  0
TABLE
  2
LAYER
  5
2
330
0
100
AcDbSymbolTable
 70
     2
  0
LAYER
  5
10
330
2
100
AcDbSymbolTableRecord
100
AcDbLayerTableRecord
  2
0
 70
     0
 62
     7
  6
Continuous
370
    -3
390
F
  0
LAYER
  5
3B
330
2
100
AcDbSymbolTableRecord
100
AcDbLayerTableRecord
  2
Default
 70
     0
 62
     7
  6
Continuous
370
    -3
390
F
  0
ENDTAB
  0
TABLE
  2
STYLE
  5
3
330
0
100
AcDbSymbolTable
 70
     1
  0
STYLE
  5
11
330
3
100
AcDbSymbolTableRecord
100
AcDbTextStyleTableRecord
  2
Standard
 70
     0
 40
0.0
 41
1.0
 50
0.0
 71
     0
 42
0.2
  3
txt
  4

  0
ENDTAB
  0
TABLE
  2
VIEW
  5
6
330
0
100
AcDbSymbolTable
 70
     0
  0
ENDTAB
  0
TABLE
  2
UCS
  5
7
330
0
100
AcDbSymbolTable
 70
     0
  0
ENDTAB
  0
TABLE
  2
APPID
  5
9
330
0
100
AcDbSymbolTable
 70
     1
  0
APPID
  5
12
330
9
100
AcDbSymbolTableRecord
100
AcDbRegAppTableRecord
  2
ACAD
 70
     0
  0
ENDTAB
  0
TABLE
  2
DIMSTYLE
  5
A
330
0
100
AcDbSymbolTable
 70
     1
100
AcDbDimStyleTable
  0
DIMSTYLE
105
27
330
A
100
AcDbSymbolTableRecord
100
AcDbDimStyleTableRecord
  2
Standard
 70
     0
340
11
  0
ENDTAB
  0
TABLE
  2
BLOCK_RECORD
  5
1
330
0
100
AcDbSymbolTable
 70
     1
  0
BLOCK_RECORD
  5
1F
330
1
100
AcDbSymbolTableRecord
100
AcDbBlockTableRecord
  2
*Model_Space
340
22
  0
BLOCK_RECORD
  5
1B
330
1
100
AcDbSymbolTableRecord
100
AcDbBlockTableRecord
  2
*Paper_Space
340
1E
  0
BLOCK_RECORD
  5
23
330
1
100
AcDbSymbolTableRecord
100
AcDbBlockTableRecord
  2
*Paper_Space0
340
26
  0
ENDTAB
  0
ENDSEC
  0
SECTION
  2
BLOCKS
  0
BLOCK
  5
20
330
1F
100
AcDbEntity
  8
0
100
AcDbBlockBegin
  2
*Model_Space
 70
     0
 10
0.0
 20
0.0
 30
0.0
  3
*Model_Space
  1

  0
ENDBLK
  5
21
330
1F
100
AcDbEntity
  8
0
100
AcDbBlockEnd
  0
BLOCK
  5
1C
330
1B
100
AcDbEntity
 67
     1
  8
0
100
AcDbBlockBegin
  2
*Paper_Space
 70
     0
 10
0.0
 20
0.0
 30
0.0
  3
*Paper_Space
  1

  0
ENDBLK
  5
1D
330
1B
100
AcDbEntity
 67
     1
  8
0
100
AcDbBlockEnd
  0
BLOCK
  5
24
330
23
100
AcDbEntity
  8
0
100
AcDbBlockBegin
  2
*Paper_Space0
 70
     0
 10
0.0
 20
0.0
 30
0.0
  3
*Paper_Space0
  1

  0
ENDBLK
  5
25
330
23
100
AcDbEntity
  8
0
100
AcDbBlockEnd
  0
ENDSEC
  0
SECTION
  2
ENTITIES
  0
SPLINE
  5
3C
330
1F
100
AcDbEntity
  8
Default
100
AcDbSpline
210
0.0
220
0.0
230
1.0
 70
    24
 71
     2
 72
     6
 73
     3
 74
     0
 42
0.0000000001
 43
0.0000000001
 40
0.0
 40
0.0
 40
0.0
 40
0.2136688076003485
 40
0.2136688076003485
 40
0.2136688076003485
 10
6.240555375147679
 20
0.0551489470689514
 30
0.0
 10
6.228921792102835
 20
0.1617202682108504
 30
0.0
 10
6.21728820905799
 20
0.2682915893527493
 30
0.0
  0
SPLINE
  5
3D
330
1F
100
AcDbEntity
  8
Default
100
AcDbSpline
210
0.0
220
0.0
230
1.0
 70
    12
 71
     2
 72
     6
 73
     3
 74
     0
 42
0.0000000001
 43
0.0000000001
 40
0.0
 40
0.0
 40
0.0
 40
0.0900758382528228
 40
0.0900758382528228
 40
0.0900758382528228
 10
6.302555977418912
 20
0.0000000000111156
 30
0.0
 41
1.0
 10
6.247700321938084
 20
0.0000165125171284
 30
0.0
 41
0.7519449461256652
 10
6.240555375147679
 20
0.0551489470689514
 30
0.0
 41
1.0
  0
POLYLINE
  5
3E
330
1F
100
AcDbEntity
  8
Default
100
AcDb2dPolyline
 66
     1
 10
0.0
 20
0.0
 30
0.0
  0
VERTEX
  5
3F
330
3E
100
AcDbEntity
  8
Default
100
AcDbVertex
100
AcDb2dVertex
 10
6.788018548242057
 20
0.0000000000050596
 30
0.0
  0
VERTEX
  5
40
330
3E
100
AcDbEntity
  8
Default
100
AcDbVertex
100
AcDb2dVertex
 10
6.302555977418912
 20
0.0000000000111156
 30
0.0
  0
SEQEND
  5
41
330
3E
100
AcDbEntity
  8
Default
  0
SPLINE
  5
42
330
1F
100
AcDbEntity
  8
Default
100
AcDbSpline
210
0.0
220
0.0
230
1.0
 70
    12
 71
     2
 72
     8
 73
     5
 74
     0
 42
0.0000000001
 43
0.0000000001
 40
0.0
 40
0.0
 40
0.0
 40
0.0502023043957283
 40
0.0502023043957283
 40
0.1004051590776957
 40
0.1004051590776957
 40
0.1004051590776957
 10
6.850428352774175
 20
0.0649201139525072
 30
0.0
 41
0.9999982818895229
 10
6.851318702066326
 20
0.038414744486814
 30
0.0
 41
0.9216280142170413
 10
6.832928632615129
 20
0.0193064381200148
 30
0.0
 41
1.0
 10
6.814538344441614
 20
0.0001979044885421
 30
0.0
 41
0.9216271551523864
 10
6.788018548242057
 20
0.0000000000050596
 30
0.0
 41
1.0
  0
SPLINE
  5
43
330
1F
100
AcDbEntity
  8
Default
100
AcDbSpline
210
0.0
220
0.0
230
1.0
 70
    24
 71
     2
 72
     6
 73
     3
 74
     0
 42
0.0000000001
 43
0.0000000001
 40
0.0
 40
0.0
 40
0.0
 40
0.2498880817867645
 40
0.2498880817867645
 40
0.2498880817867645
 10
6.840567160999193
 20
0.3146136296329138
 30
0.0
 10
6.845497756886683
 20
0.1897668717927105
 30
0.0
 10
6.850428352774173
 20
0.0649201139525072
 30
0.0
  0
SPLINE
  5
44
330
1F
100
AcDbEntity
  8
Default
100
AcDbSpline
210
0.0
220
0.0
230
1.0
 70
     8
 71
     3
 72
     8
 73
     4
 74
     0
 42
0.0000000001
 43
0.0000000001
 40
0.0
 40
0.0
 40
0.0
 40
0.0
 40
1.0
 40
1.0
 40
1.0
 40
1.0
 10
6.220072130502423
 20
0.27177901360239
 30
0.0
 10
6.422934375655749
 20
0.3123586006650363
 30
0.0
 10
6.635485062515137
 20
0.3363326867417735
 30
0.0
 10
6.840566729323086
 20
0.3146238589519217
 30
0.0
  0
SPLINE
  5
45
330
1F
100
AcDbEntity
  8
Default
100
AcDbSpline
210
0.0
220
0.0
230
1.0
 70
    24
 71
     2
 72
     6
 73
     3
 74
     0
 42
0.0000000001
 43
0.0000000001
 40
0.0
 40
0.0
 40
0.0
 40
0.2136688076003485
 40
0.2136688076003485
 40
0.2136688076003485
 10
-6.240555375147679
 20
0.0551489470689514
 30
0.0
 10
-6.228921792102835
 20
0.1617202682108504
 30
0.0
 10
-6.21728820905799
 20
0.2682915893527493
 30
0.0
  0
SPLINE
  5
46
330
1F
100
AcDbEntity
  8
Default
100
AcDbSpline
210
0.0
220
0.0
230
1.0
 70
    12
 71
     2
 72
     6
 73
     3
 74
     0
 42
0.0000000001
 43
0.0000000001
 40
0.0
 40
0.0
 40
0.0
 40
0.0900758382528228
 40
0.0900758382528228
 40
0.0900758382528228
 10
-6.302555977418912
 20
0.0000000000111156
 30
0.0
 41
1.0
 10
-6.247700321938084
 20
0.0000165125171284
 30
0.0
 41
0.7519449461256652
 10
-6.240555375147679
 20
0.0551489470689514
 30
0.0
 41
1.0
  0
POLYLINE
  5
47
330
1F
100
AcDbEntity
  8
Default
100
AcDb2dPolyline
 66
     1
 10
0.0
 20
0.0
 30
0.0
  0
VERTEX
  5
48
330
47
100
AcDbEntity
  8
Default
100
AcDbVertex
100
AcDb2dVertex
 10
-6.788018548242057
 20
0.0000000000050596
 30
0.0
  0
VERTEX
  5
49
330
47
100
AcDbEntity
  8
Default
100
AcDbVertex
100
AcDb2dVertex
 10
-6.302555977418912
 20
0.0000000000111156
 30
0.0
  0
SEQEND
  5
4A
330
47
100
AcDbEntity
  8
Default
  0
SPLINE
  5
4B
330
1F
100
AcDbEntity
  8
Default
100
AcDbSpline
210
0.0
220
0.0
230
1.0
 70
    12
 71
     2
 72
     8
 73
     5
 74
     0
 42
0.0000000001
 43
0.0000000001
 40
0.0
 40
0.0
 40
0.0
 40
0.0502023043957283
 40
0.0502023043957283
 40
0.1004051590776957
 40
0.1004051590776957
 40
0.1004051590776957
 10
-6.850428352774175
 20
0.0649201139525072
 30
0.0
 41
0.9999982818895229
 10
-6.851318702066326
 20
0.038414744486814
 30
0.0
 41
0.9216280142170413
 10
-6.832928632615129
 20
0.0193064381200148
 30
0.0
 41
1.0
 10
-6.814538344441614
 20
0.0001979044885421
 30
0.0
 41
0.9216271551523864
 10
-6.788018548242057
 20
0.0000000000050596
 30
0.0
 41
1.0
  0
SPLINE
  5
4C
330
1F
100
AcDbEntity
  8
Default
100
AcDbSpline
210
0.0
220
0.0
230
1.0
 70
    24
 71
     2
 72
     6
 73
     3
 74
     0
 42
0.0000000001
 43
0.0000000001
 40
0.0
 40
0.0
 40
0.0
 40
0.2498880817867645
 40
0.2498880817867645
 40
0.2498880817867645
 10
-6.840567160999193
 20
0.3146136296329138
 30
0.0
 10
-6.845497756886683
 20
0.1897668717927105
 30
0.0
 10
-6.850428352774173
 20
0.0649201139525072
 30
0.0
  0
SPLINE
  5
4D
330
1F
100
AcDbEntity
  8
Default
100
AcDbSpline
210
0.0
220
0.0
230
1.0
 70
     8
 71
     3
 72
     8
 73
     4
 74
     0
 42
0.0000000001
 43
0.0000000001
 40
0.0
 40
0.0
 40
0.0
 40
0.0
 40
1.0
 40
1.0
 40
1.0
 40
1.0
 10
-6.220072130502423
 20
0.27177901360239
 30
0.0
 10
-6.422934375655749
 20
0.3123586006650363
 30
0.0
 10
-6.635485062515137
 20
0.3363326867417735
 30
0.0
 10
-6.840566729323086
 20
0.3146238589519217
 30
0.0
  0
SPLINE
  5
4E
330
1F
100
AcDbEntity
  8
Default
100
AcDbSpline
210
0.0
220
0.0
230
1.0
 70
     8
 71
     3
 72
    15
 73
    11
 74
     0
 42
0.0000000001
 43
0.0000000001
 40
-0.4773313086657199
 40
-0.4773313086657199
 40
-0.4773313086657199
 40
-0.4773313086657199
 40
-0.4696050120489261
 40
-0.4561629761550173
 40
-0.4202045209458233
 40
-0.350084159564805
 40
-0.2470344762364083
 40
-0.1495644144197567
 40
-0.0941727335867545
 40
0.0
 40
0.0
 40
0.0
 40
0.0
 10
5.638628062017872
 20
8.070961055284098
 30
0.0
 10
5.641016051974653
 20
8.069998841892815
 30
0.0
 10
5.646199089755505
 20
8.065035770432006
 30
0.0
 10
5.659062385453687
 20
8.051158038405626
 30
0.0
 10
5.683543193780331
 20
8.019400468597645
 30
0.0
 10
5.721166706903034
 20
7.961058593690796
 30
0.0
 10
5.750833892903806
 20
7.873438477872819
 30
0.0
 10
5.738468820574653
 20
7.787089574338575
 30
0.0
 10
5.708744554385163
 20
7.710445385365358
 30
0.0
 10
5.685093489423267
 20
7.666290658151125
 30
0.0
 10
5.671797757835392
 20
7.637922549150506
 30
0.0
  0
SPLINE
  5
4F
330
1F
100
AcDbEntity
  8
Default
100
AcDbSpline
210
0.0
220
0.0
230
1.0
 70
    24
 71
     2
 72
     6
 73
     3
 74
     0
 42
0.0000000001
 43
0.0000000001
 40
0.0
 40
0.0
 40
0.0
 40
11.27659507225323
 40
11.27659507225323
 40
11.27659507225323
 10
-5.638066984947464
 20
8.070943926787194
 30
0.0
 10
0.000280538535204
 20
8.070952491035646
 30
0.0
 10
5.638628062017872
 20
8.070961055284098
 30
0.0
  0
SPLINE
  5
50
330
1F
100
AcDbEntity
  8
Default
100
AcDbSpline
210
0.0
220
0.0
230
1.0
 70
     8
 71
     3
 72
    24
 73
    20
 74
     0
 42
0.0000000001
 43
0.0000000001
 40
-17.998413674648
 40
-17.998413674648
 40
-17.998413674648
 40
-17.998413674648
 40
-16.09560425149966
 40
-15.59561670522802
 40
-15.24525464136658
 40
-14.93778510194153
 40
-14.38000012571135
 40
-13.8045528288532
 40
-13.7194114724837
 40
-13.69553558990248
 40
-13.65912792601814
 40
-13.60905774490473
 40
-13.46128889762961
 40
-13.36235752261686
 40
-13.20201383278377
 40
-13.11671972761913
 40
-13.02748492666677
 40
-12.83348345928601
 40
0.0
 40
0.0
 40
0.0
 40
0.0
 10
0.0007732855706521
 20
21.19099385138255
 30
0.0
 10
-0.6334961262840935
 20
21.19139865493446
 30
0.0
 10
-1.434426040430715
 20
21.19006784355398
 30
0.0
 10
-2.352230118997234
 20
21.19237002890701
 30
0.0
 10
-2.737861695003211
 20
21.18827161996014
 30
0.0
 10
-3.143819423093845
 20
21.19673065251191
 30
0.0
 10
-3.617637394927229
 20
21.28477544992476
 30
0.0
 10
-4.003166281279867
 20
21.41520633825758
 30
0.0
 10
-4.212582021028084
 20
21.50612311627109
 30
0.0
 10
-4.259129207541541
 20
21.5197139530169
 30
0.0
 10
-4.2957973781619
 20
21.52359392584467
 30
0.0
 10
-4.374347904548458
 20
21.51249330803712
 30
0.0
 10
-4.459434336398168
 20
21.45653690400139
 30
0.0
 10
-4.547504104581307
 20
21.35326691439212
 30
0.0
 10
-4.603782573593428
 20
21.25169705105677
 30
0.0
 10
-4.640545118649065
 20
21.14681783403105
 30
0.0
 10
-4.675077923699121
 20
21.02778351289957
 30
0.0
 10
-4.999361352145291
 20
16.66750557655041
 30
0.0
 10
-5.320974298496463
 20
12.33703442900488
 30
0.0
 10
-5.638066984947464
 20
8.070943926787194
 30
0.0
  0
POLYLINE
  5
51
330
1F
100
AcDbEntity
  8
Default
100
AcDb2dPolyline
 66
     1
 10
0.0
 20
0.0
 30
0.0
  0
VERTEX
  5
52
330
51
100
AcDbEntity
  8
Default
100
AcDbVertex
100
AcDb2dVertex
 10
-0.0011721731154246
 20
21.81599372409351
 30
0.0
  0
VERTEX
  5
53
330
51
100
AcDbEntity
  8
Default
100
AcDbVertex
100
AcDb2dVertex
 10
0.0007732855706521
 20
21.19099385138255
 30
0.0
  0
SEQEND
  5
54
330
51
100
AcDbEntity
  8
Default
  0
SPLINE
  5
55
330
1F
100
AcDbEntity
  8
Default
100
AcDbSpline
210
0.0
220
0.0
230
1.0
 70
     8
 71
     3
 72
    29
 73
    25
 74
     0
 42
0.0000000001
 43
0.0000000001
 40
0.0000000000000002
 40
0.0000000000000002
 40
0.0000000000000002
 40
0.0000000000000002
 40
6.066940193774146
 40
12.13388038754829
 40
12.55095017960341
 40
12.75948507563097
 40
12.96801997165853
 40
13.17711160611613
 40
13.38620324057373
 40
13.62354179385841
 40
13.86088034714309
 40
13.99837598238468
 40
14.13587161762626
 40
14.54370099266137
 40
14.77242040011374
 40
14.92297018047678
 40
15.0638043849004
 40
15.20930245887739
 40
15.43901132213203
 40
15.84179760717257
 40
16.15381398825747
 40
16.4258901771748
 40
17.11406304497494
 40
18.9344119737509
 40
18.9344119737509
 40
18.9344119737509
 40
18.9344119737509
 10
6.261446531386234
 20
8.117268738994573
 30
0.0
 10
6.111497847270869
 20
10.13401534468352
 30
0.0
 10
5.811586733466907
 20
14.1675066884596
 30
0.0
 10
5.502062631794299
 20
18.33970620726613
 30
0.0
 10
5.336386565965377
 20
20.56437918916663
 30
0.0
 10
5.314393056893547
 20
20.84144680164453
 30
0.0
 10
5.303015998270677
 20
21.0501542582644
 30
0.0
 10
5.263768747944308
 20
21.25590530241665
 30
0.0
 10
5.192526309521675
 20
21.46304036941651
 30
0.0
 10
5.092775241798662
 20
21.66805597505162
 30
0.0
 10
4.966864754258928
 20
21.8308481062174
 30
0.0
 10
4.84224504084716
 20
21.9475052127674
 30
0.0
 10
4.656053790489999
 20
22.07993859633122
 30
0.0
 10
4.403692082782882
 20
22.16028151469711
 30
0.0
 10
4.138200509110312
 20
22.14073062970348
 30
0.0
 10
3.973523699438505
 20
22.08507917333112
 30
0.0
 10
3.840598596399406
 20
22.02698832084438
 30
0.0
 10
3.678794030849531
 20
21.96735124249455
 30
0.0
 10
3.431418396945642
 20
21.8909072450652
 30
0.0
 10
3.121781451737341
 20
21.82568239345
 30
0.0
 10
2.79272519490771
 20
21.81243916432616
 30
0.0
 10
2.368653744781188
 20
21.81787358800275
 30
0.0
 10
1.441782788284808
 20
21.81475226094948
 30
0.0
 10
0.6056106795643252
 20
21.81638098516809
 30
0.0
 10
-0.0011721731154246
 20
21.81599372409351
 30
0.0
  0
LINE
  5
56
330
1F
100
AcDbEntity
  8
Default
100
AcDbLine
 10
6.841581396424978
 20
0.3146993012490911
 30
0.0
 11
6.261446531386234
 21
8.117268738994573
 31
0.0
  0
SPLINE
  5
57
330
1F
100
AcDbEntity
  8
Default
100
AcDbSpline
210
0.0
220
0.0
230
1.0
 70
    12
 71
     3
 72
    17
 73
    13
 74
     0
 42
0.0000000001
 43
0.0000000001
 40
-3.02352089767355
 40
-3.02352089767355
 40
-3.02352089767355
 40
-3.02352089767355
 40
-2.02352089767355
 40
-2.02352089767355
 40
-2.02352089767355
 40
-1.327704312944469
 40
-1.327704312944469
 40
-1.327704312944469
 40
-0.1193805208364688
 40
-0.1193805208364688
 40
-0.1193805208364688
 40
-0.0539195519589398
 40
-0.0539195519589398
 40
-0.0539195519589398
 40
-0.0539195519589398
 10
0.0
 20
25.72590987686682
 30
0.0
 41
1.0
 10
-1.375292286336602
 20
25.72590987686685
 30
0.0
 41
1.0
 10
-4.656598035603814
 20
25.73953413980732
 30
0.0
 41
1.0
 10
-7.089103094228946
 20
25.29899504963871
 30
0.0
 41
1.0
 10
-7.337914393254056
 20
25.25393405257827
 30
0.0
 41
0.8450203445374663
 10
-7.499999999999996
 20
25.05985723257017
 30
0.0
 41
0.8450203445374662
 10
-7.499999999999993
 20
24.80699846570882
 30
0.0
 41
1.0
 10
-7.5
 20
24.40422386833949
 30
0.0
 41
1.0
 10
-7.5
 20
24.00144927097015
 30
0.0
 41
1.0
 10
-7.500000000000007
 20
23.59867467360082
 30
0.0
 41
1.0
 10
-7.500000000000005
 20
23.57635916127586
 30
0.0
 41
0.9563979656284125
 10
-7.492062182364942
 20
23.55550315155403
 30
0.0
 41
0.9563979656284117
 10
-7.477224862086828
 20
23.53883473779354
 30
0.0
 41
1.0
  0
SPLINE
  5
58
330
1F
100
AcDbEntity
  8
Default
100
AcDbSpline
210
0.0
220
0.0
230
1.0
 70
    12
 71
     3
 72
    17
 73
    13
 74
     0
 42
0.0000000001
 43
0.0000000001
 40
0.0539195519589398
 40
0.0539195519589398
 40
0.0539195519589398
 40
0.0539195519589398
 40
0.1193805208364688
 40
0.1193805208364688
 40
0.1193805208364688
 40
1.327704312944469
 40
1.327704312944469
 40
1.327704312944469
 40
2.02352089767355
 40
2.02352089767355
 40
2.02352089767355
 40
3.02352089767355
 40
3.02352089767355
 40
3.02352089767355
 40
3.02352089767355
 10
7.477224862086828
 20
23.53883473779354
 30
0.0
 41
1.0
 10
7.492062182364942
 20
23.55550315155403
 30
0.0
 41
0.9563979656284117
 10
7.500000000000005
 20
23.57635916127586
 30
0.0
 41
0.9563979656284125
 10
7.500000000000007
 20
23.59867467360082
 30
0.0
 41
1.0
 10
7.5
 20
24.00144927097015
 30
0.0
 41
1.0
 10
7.5
 20
24.40422386833949
 30
0.0
 41
1.0
 10
7.499999999999993
 20
24.80699846570882
 30
0.0
 41
1.0
 10
7.499999999999996
 20
25.05985723257017
 30
0.0
 41
0.8450203445374662
 10
7.337914393254056
 20
25.25393405257827
 30
0.0
 41
0.8450203445374663
 10
7.089103094228946
 20
25.29899504963871
 30
0.0
 41
1.0
 10
4.656598035603814
 20
25.73953413980732
 30
0.0
 41
1.0
 10
1.375292286336602
 20
25.72590987686685
 30
0.0
 41
1.0
 10
0.0
 20
25.72590987686682
 30
0.0
 41
1.0
  0
SPLINE
  5
59
330
1F
100
AcDbEntity
  8
Default
100
AcDbSpline
210
0.0
220
0.0
230
1.0
 70
     8
 71
     3
 72
    16
 73
    12
 74
     0
 42
0.0000000001
 43
0.0000000001
 40
-4.147733525010054
 40
-4.147733525010054
 40
-4.147733525010054
 40
-4.147733525010054
 40
-3.870302029476182
 40
-3.591658729902178
 40
-3.306991130647664
 40
-3.02219646347426
 40
-2.947272150599937
 40
-2.619653330864407
 40
-1.610681295810414
 40
-0.7724591555492152
 40
0.0
 40
0.0
 40
0.0
 40
0.0
 10
7.620850237350087
 20
23.53883473771154
 30
0.0
 10
7.714044555325817
 20
23.53845656569778
 30
0.0
 10
7.893937694795265
 20
23.46002212011222
 30
0.0
 10
8.037764746820464
 20
23.20275027415814
 30
0.0
 10
8.018262686953811
 20
22.91097229231858
 30
0.0
 10
7.874574291794197
 20
22.73242247588062
 30
0.0
 10
7.664998159287094
 20
22.63920032008108
 30
0.0
 10
7.216963392743708
 20
22.49441059812017
 30
0.0
 10
6.524183655603956
 20
22.28159132527124
 30
0.0
 10
5.679021425446891
 20
22.06026403746669
 30
0.0
 10
5.155401348970315
 20
21.94200558092269
 30
0.0
 10
4.903320775181591
 20
21.88933038365979
 30
0.0
  0
SPLINE
  5
5A
330
1F
100
AcDbEntity
  8
Default
100
AcDbSpline
210
0.0
220
0.0
230
1.0
 70
    24
 71
     3
 72
     8
 73
     4
 74
     0
 42
0.0000000001
 43
0.0000000001
 40
0.0
 40
0.0
 40
0.0
 40
0.0
 40
15.24170056303521
 40
15.24170056303521
 40
15.24170056303521
 40
15.24170056303521
 10
-7.620850279971394
 20
23.53883473775242
 30
0.0
 10
-2.540283440864193
 20
23.53883473779332
 30
0.0
 10
2.54028339824278
 20
23.53883473779335
 30
0.0
 10
7.620850237350087
 20
23.53883473771154
 30
0.0
  0
SPLINE
  5
5B
330
1F
100
AcDbEntity
  8
Default
100
AcDbSpline
210
0.0
220
0.0
230
1.0
 70
     8
 71
     3
 72
    16
 73
    12
 74
     0
 42
0.0000000001
 43
0.0000000001
 40
0.0
 40
0.0
 40
0.0
 40
0.0
 40
0.7724591634256136
 40
1.610681312233764
 40
2.619653357575765
 40
2.947272180651869
 40
3.02219649429016
 40
3.306991164367479
 40
3.591658766524612
 40
3.87030206893981
 40
4.147733525010054
 40
4.147733525010054
 40
4.147733525010054
 40
4.147733525010054
 10
-4.903320775181591
 20
21.88933038365979
 30
0.0
 10
-5.155401348970315
 20
21.94200558092269
 30
0.0
 10
-5.679021425446891
 20
22.06026403746669
 30
0.0
 10
-6.524183655603956
 20
22.28159132527124
 30
0.0
 10
-7.216963392743708
 20
22.49441059812017
 30
0.0
 10
-7.664998159287094
 20
22.63920032008108
 30
0.0
 10
-7.874574291794197
 20
22.73242247588062
 30
0.0
 10
-8.018262686953811
 20
22.91097229231858
 30
0.0
 10
-8.037764746820464
 20
23.20275027415814
 30
0.0
 10
-7.8939377020303
 20
23.46002210717049
 30
0.0
 10
-7.714044582689489
 20
23.53845655376706
 30
0.0
 10
-7.620850279971394
 20
23.53883473775242
 30
0.0
  0
SPLINE
  5
5C
330
1F
100
AcDbEntity
  8
Default
100
AcDbSpline
210
0.0
220
0.0
230
1.0
 70
    12
 71
     2
 72
     6
 73
     3
 74
     0
 42
0.0000000001
 43
0.0000000001
 40
-7.383055942522419
 40
-7.383055942522419
 40
-7.383055942522419
 40
0.0
 40
0.0
 40
0.0
 10
-5.670529661278817
 20
7.633447895865423
 30
0.0
 41
1.0
 10
-5.944277822767426
 20
3.952059398578538
 30
0.0
 41
0.999999999999639
 10
-6.217866857989044
 20
0.2706835956778377
 30
0.0
 41
1.0
  0
SPLINE
  5
5D
330
1F
100
AcDbEntity
  8
Default
100
AcDbSpline
210
0.0
220
0.0
230
1.0
 70
    24
 71
     2
 72
     6
 73
     3
 74
     0
 42
0.0000000001
 43
0.0000000001
 40
0.0
 40
0.0
 40
0.0
 40
11.34141375390858
 40
11.34141375390858
 40
11.34141375390858
 10
5.670859745657587
 20
7.633447895865423
 30
0.0
 10
0.0001650421893853
 20
7.633447895865423
 30
0.0
 10
-5.670529661278817
 20
7.633447895865423
 30
0.0
  0
SPLINE
  5
5E
330
1F
100
AcDbEntity
  8
Default
100
AcDbSpline
210
0.0
220
0.0
230
1.0
 70
    12
 71
     2
 72
     6
 73
     3
 74
     0
 42
0.0000000001
 43
0.0000000001
 40
0.0
 40
0.0
 40
0.0
 40
7.383055942522419
 40
7.383055942522419
 40
7.383055942522419
 10
6.217866857989044
 20
0.2706835956778377
 30
0.0
 41
1.0
 10
5.94427782317513
 20
3.952059393092524
 30
0.0
 41
0.999999999999639
 10
5.670859745657587
 20
7.633447895865423
 30
0.0
 41
1.0
  0
SPLINE
  5
5F
330
1F
100
AcDbEntity
  8
Default
100
AcDbSpline
210
0.0
220
0.0
230
1.0
 70
     8
 71
     3
 72
    29
 73
    25
 74
     0
 42
0.0000000001
 43
0.0000000001
 40
0.0000000000000002
 40
0.0000000000000002
 40
0.0000000000000002
 40
0.0000000000000002
 40
6.066940193774146
 40
12.13388038754829
 40
12.55095017960341
 40
12.75948507563097
 40
12.96801997165853
 40
13.17711160611613
 40
13.38620324057373
 40
13.62354179385841
 40
13.86088034714309
 40
13.99837598238468
 40
14.13587161762626
 40
14.54370099266137
 40
14.77242040011374
 40
14.92297018047678
 40
15.0638043849004
 40
15.20930245887739
 40
15.43901132213203
 40
15.84179760717257
 40
16.15381398825747
 40
16.4258901771748
 40
17.11406304497494
 40
18.9344119737509
 40
18.9344119737509
 40
18.9344119737509
 40
18.9344119737509
 10
-6.261446531386234
 20
8.117268738994573
 30
0.0
 10
-6.111497847270869
 20
10.13401534468352
 30
0.0
 10
-5.811586733466907
 20
14.1675066884596
 30
0.0
 10
-5.502062631794299
 20
18.33970620726613
 30
0.0
 10
-5.336386565965377
 20
20.56437918916663
 30
0.0
 10
-5.314393056893547
 20
20.84144680164453
 30
0.0
 10
-5.303015998270677
 20
21.0501542582644
 30
0.0
 10
-5.263768747944308
 20
21.25590530241665
 30
0.0
 10
-5.192526309521675
 20
21.46304036941651
 30
0.0
 10
-5.092775241798662
 20
21.66805597505162
 30
0.0
 10
-4.966864754258928
 20
21.8308481062174
 30
0.0
 10
-4.84224504084716
 20
21.9475052127674
 30
0.0
 10
-4.656053790489999
 20
22.07993859633122
 30
0.0
 10
-4.403692082782882
 20
22.16028151469711
 30
0.0
 10
-4.138200509110312
 20
22.14073062970348
 30
0.0
 10
-3.973523699438505
 20
22.08507917333112
 30
0.0
 10
-3.840598596399406
 20
22.02698832084438
 30
0.0
 10
-3.678794030849531
 20
21.96735124249455
 30
0.0
 10
-3.431418396945642
 20
21.8909072450652
 30
0.0
 10
-3.121781451737341
 20
21.82568239345
 30
0.0
 10
-2.79272519490771
 20
21.81243916432616
 30
0.0
 10
-2.368653744781188
 20
21.81787358800275
 30
0.0
 10
-1.441782788284808
 20
21.81475226094948
 30
0.0
 10
-0.6056106795643252
 20
21.81638098516809
 30
0.0
 10
0.0011721731154246
 20
21.81599372409351
 30
0.0
  0
LINE
  5
60
330
1F
100
AcDbEntity
  8
Default
100
AcDbLine
 10
-6.841581396424978
 20
0.3146993012490911
 30
0.0
 11
-6.261446531386234
 21
8.117268738994573
 31
0.0
  0
SPLINE
  5
61
330
1F
100
AcDbEntity
  8
Default
100
AcDbSpline
210
0.0
220
0.0
230
1.0
 70
     8
 71
     3
 72
    15
 73
    11
 74
     0
 42
0.0000000001
 43
0.0000000001
 40
0.0
 40
0.0
 40
0.0
 40
0.0
 40
0.0941727335867545
 40
0.1495644144197567
 40
0.2470344762364083
 40
0.350084159564805
 40
0.4202045209458233
 40
0.4561629761550173
 40
0.4696050120489261
 40
0.4773313086657199
 40
0.4773313086657199
 40
0.4773313086657199
 40
0.4773313086657199
 10
-5.671797757835392
 20
7.637922549150506
 30
0.0
 10
-5.685093489423267
 20
7.666290658151125
 30
0.0
 10
-5.708744554385163
 20
7.710445385365358
 30
0.0
 10
-5.738468820574653
 20
7.787089574338575
 30
0.0
 10
-5.750833892903806
 20
7.873438477872819
 30
0.0
 10
-5.721166706903034
 20
7.961058593690796
 30
0.0
 10
-5.683543193780331
 20
8.019400468597645
 30
0.0
 10
-5.659062385453687
 20
8.051158038405626
 30
0.0
 10
-5.646199089755505
 20
8.065035770432006
 30
0.0
 10
-5.641016051974653
 20
8.069998841892815
 30
0.0
 10
-5.638628062017872
 20
8.070961055284098
 30
0.0
  0
SPLINE
  5
62
330
1F
100
AcDbEntity
  8
Default
100
AcDbSpline
210
0.0
220
0.0
230
1.0
 70
     8
 71
     3
 72
    24
 73
    20
 74
     0
 42
0.0000000001
 43
0.0000000001
 40
0.0
 40
0.0
 40
0.0
 40
0.0
 40
12.83349048821976
 40
13.02749169158467
 40
13.11672637109773
 40
13.20202036018595
 40
13.36236383180792
 40
13.46129507218534
 40
13.60906371836241
 40
13.6591338313355
 40
13.69554144567279
 40
13.71941729576141
 40
13.80455853626237
 40
14.38000504999649
 40
14.93778926713924
 40
15.24525838813017
 40
15.59561997518521
 40
16.09560684102572
 40
17.998413674648
 40
17.998413674648
 40
17.998413674648
 40
17.998413674648
 10
5.638166959659578
 20
8.07092679829029
 30
0.0
 10
5.320975507876376
 20
12.33701814488171
 30
0.0
 10
4.999361957708288
 20
16.66749743421953
 30
0.0
 10
4.675077923699121
 20
21.02778351289957
 30
0.0
 10
4.640545118649065
 20
21.14681783403105
 30
0.0
 10
4.603782573593428
 20
21.25169705105677
 30
0.0
 10
4.547504104581307
 20
21.35326691439212
 30
0.0
 10
4.459434336398168
 20
21.45653690400139
 30
0.0
 10
4.374347904548458
 20
21.51249330803712
 30
0.0
 10
4.2957973781619
 20
21.52359392584467
 30
0.0
 10
4.259129207541541
 20
21.5197139530169
 30
0.0
 10
4.212582021028084
 20
21.50612311627109
 30
0.0
 10
4.003166281279867
 20
21.41520633825758
 30
0.0
 10
3.617637394927229
 20
21.28477544992476
 30
0.0
 10
3.143819423093845
 20
21.19673065251191
 30
0.0
 10
2.737861695003211
 20
21.18827161996014
 30
0.0
 10
2.352230118997234
 20
21.19237002890701
 30
0.0
 10
1.434426040430715
 20
21.19006784355398
 30
0.0
 10
0.6334961262840935
 20
21.19139865493446
 30
0.0
 10
-0.0007732855706521
 20
21.19099385138255
 30
0.0
  0
LINE
  5
63
330
1F
100
AcDbEntity
  8
Default
100
AcDbLine
 10
-6.749699941166138
 20
34.33948807252165
 30
0.0
 11
-5.889471219670151
 21
35.1997167938142
 31
0.0
  0
SPLINE
  5
64
330
1F
100
AcDbEntity
  8
Default
100
AcDbSpline
210
0.0
220
0.0
230
1.0
 70
     8
 71
     3
 72
    12
 73
     8
 74
     0
 42
0.0000000001
 43
0.0000000001
 40
0.0
 40
0.0
 40
0.0
 40
0.0
 40
1.0
 40
2.0
 40
3.0
 40
4.0
 40
5.0
 40
5.0
 40
5.0
 40
5.0
 10
-6.308361847482731
 20
33.89694268972203
 30
0.0
 10
-6.354478403313526
 20
33.85064167798982
 30
0.0
 10
-6.477112478569273
 20
33.7889002931128
 30
0.0
 10
-6.680211660609026
 20
33.82218558577441
 30
0.0
 10
-6.825463570182341
 20
33.96783304894148
 30
0.0
 10
-6.858235978132785
 20
34.17104192920753
 30
0.0
 10
-6.796074992969999
 20
34.29345134398432
 30
0.0
 10
-6.749699941166138
 20
34.33948807252165
 30
0.0
  0
LINE
  5
65
330
1F
100
AcDbEntity
  8
Default
100
AcDbLine
 10
-5.44754230476888
 20
34.75776223223252
 30
0.0
 11
-6.308361847482731
 21
33.89694268972203
 31
0.0
  0
SPLINE
  5
66
330
1F
100
AcDbEntity
  8
Default
100
AcDbSpline
210
0.0
220
0.0
230
1.0
 70
    24
 71
     2
 72
     6
 73
     3
 74
     0
 42
0.0000000001
 43
0.0000000001
 40
0.0
 40
0.0
 40
0.0
 40
0.6346334313874138
 40
0.6346334313874138
 40
0.6346334313874138
 10
5.743242083090053
 20
34.46144003050781
 30
0.0
 10
5.425925367396346
 20
34.46144003050781
 30
0.0
 10
5.108608651702639
 20
34.46144003050781
 30
0.0
  0
SPLINE
  5
67
330
1F
100
AcDbEntity
  8
Default
100
AcDbSpline
210
0.0
220
0.0
230
1.0
 70
    24
 71
     2
 72
     6
 73
     3
 74
     0
 42
0.0000000001
 43
0.0000000001
 40
0.0
 40
0.0
 40
0.0
 40
0.634558297979869
 40
0.634558297979869
 40
0.634558297979869
 10
6.185165222658398
 20
35.53792234231198
 30
0.0
 10
6.185165222658398
 20
35.22064319332205
 30
0.0
 10
6.185165222658398
 20
34.90336404433211
 30
0.0
  0
SPLINE
  5
68
330
1F
100
AcDbEntity
  8
Default
100
AcDbSpline
210
0.0
220
0.0
230
1.0
 70
    12
 71
     2
 72
     6
 73
     3
 74
     0
 42
0.0000000001
 43
0.0000000001
 40
0.0
 40
0.0
 40
0.0
 40
0.3142581327687826
 40
0.3142581327687826
 40
0.3142581327687826
 10
6.76075742075767
 20
33.88584783240854
 30
0.0
 41
1.0
 10
6.882951934152379
 20
34.00808132109876
 30
0.0
 41
0.8690903913843158
 10
6.840252907453319
 20
34.17556062722374
 30
0.0
 41
1.0
  0
SPLINE
  5
69
330
1F
100
AcDbEntity
  8
Default
100
AcDbSpline
210
0.0
220
0.0
230
1.0
 70
    12
 71
     2
 72
     6
 73
     3
 74
     0
 42
0.0000000001
 43
0.0000000001
 40
0.0
 40
0.0
 40
0.0
 40
0.3160567679445531
 40
0.3160567679445531
 40
0.3160567679445531
 10
6.469265513682075
 20
33.80675052635386
 30
0.0
 41
1.0
 10
6.637627450377993
 20
33.76295403919919
 30
0.0
 41
0.8680846946717405
 10
6.76075742075767
 20
33.88584783240854
 30
0.0
 41
1.0
  0
LINE
  5
6A
330
1F
100
AcDbEntity
  8
Default
100
AcDbLine
 10
6.307448618969616
 20
33.89721489559225
 30
0.0
 11
5.447219897677073
 21
34.75744361708825
 31
0.0
  0
SPLINE
  5
6B
330
1F
100
AcDbEntity
  8
Default
100
AcDbSpline
210
0.0
220
0.0
230
1.0
 70
     8
 71
     3
 72
    12
 73
     8
 74
     0
 42
0.0000000001
 43
0.0000000001
 40
0.0
 40
0.0
 40
0.0
 40
0.0
 40
1.0
 40
2.0
 40
3.0
 40
4.0
 40
5.0
 40
5.0
 40
5.0
 40
5.0
 10
6.749994001769245
 20
34.33855298927566
 30
0.0
 10
6.796295013501457
 20
34.29243643344487
 30
0.0
 10
6.858036398378474
 20
34.16980235818912
 30
0.0
 10
6.824751105716857
 20
33.96670317614937
 30
0.0
 10
6.679103642549798
 20
33.82145126657606
 30
0.0
 10
6.475894762283744
 20
33.78867885862561
 30
0.0
 10
6.353485347506947
 20
33.8508398437884
 30
0.0
 10
6.307448618969616
 20
33.89721489559225
 30
0.0
  0
LINE
  5
6C
330
1F
100
AcDbEntity
  8
Default
100
AcDbLine
 10
5.889174459258761
 20
35.19937253198952
 30
0.0
 11
6.749994001769245
 21
34.33855298927566
 31
0.0
  0
SPLINE
  5
6D
330
1F
100
AcDbEntity
  8
Default
100
AcDbSpline
210
0.0
220
0.0
230
1.0
 70
    24
 71
     2
 72
     6
 73
     3
 74
     0
 42
0.0000000001
 43
0.0000000001
 40
0.0
 40
0.0
 40
0.0
 40
0.6346334313874138
 40
0.6346334313874138
 40
0.6346334313874138
 10
6.185496660983456
 20
46.39015691984844
 30
0.0
 10
6.185496660983456
 20
46.07284020415474
 30
0.0
 10
6.185496660983456
 20
45.75552348846103
 30
0.0
  0
SPLINE
  5
6E
330
1F
100
AcDbEntity
  8
Default
100
AcDbSpline
210
0.0
220
0.0
230
1.0
 70
    24
 71
     2
 72
     6
 73
     3
 74
     0
 42
0.0000000001
 43
0.0000000001
 40
0.0
 40
0.0
 40
0.0
 40
0.634558297979869
 40
0.634558297979869
 40
0.634558297979869
 10
5.109014349179284
 20
46.83208005941679
 30
0.0
 10
5.426293498169218
 20
46.83208005941679
 30
0.0
 10
5.743572647159152
 20
46.83208005941679
 30
0.0
  0
SPLINE
  5
6F
330
1F
100
AcDbEntity
  8
Default
100
AcDbSpline
210
0.0
220
0.0
230
1.0
 70
    12
 71
     2
 72
     6
 73
     3
 74
     0
 42
0.0000000001
 43
0.0000000001
 40
0.0
 40
0.0
 40
0.0
 40
0.3142581327687826
 40
0.3142581327687826
 40
0.3142581327687826
 10
-6.761067004349854
 20
33.8861792707336
 30
0.0
 41
1.0
 10
-6.638833515659631
 20
33.7639847573389
 30
0.0
 41
0.8690903913843158
 10
-6.471354209534649
 20
33.80668378403795
 30
0.0
 41
1.0
  0
SPLINE
  5
70
330
1F
100
AcDbEntity
  8
Default
100
AcDbSpline
210
0.0
220
0.0
230
1.0
 70
    12
 71
     2
 72
     6
 73
     3
 74
     0
 42
0.0000000001
 43
0.0000000001
 40
0.0
 40
0.0
 40
0.0
 40
0.3160567679445531
 40
0.3160567679445531
 40
0.3160567679445531
 10
-6.840164310404539
 20
34.1776711778092
 30
0.0
 41
1.0
 10
-6.883960797559213
 20
34.00930924111329
 30
0.0
 41
0.8680846946717405
 10
-6.761067004349854
 20
33.8861792707336
 30
0.0
 41
1.0
  0
LINE
  5
71
330
1F
100
AcDbEntity
  8
Default
100
AcDbLine
 10
6.749721795899014
 20
46.95436345572801
 30
0.0
 11
5.889493074403027
 21
46.09413473443546
 31
0.0
  0
SPLINE
  5
72
330
1F
100
AcDbEntity
  8
Default
100
AcDbSpline
210
0.0
220
0.0
230
1.0
 70
     8
 71
     3
 72
    12
 73
     8
 74
     0
 42
0.0000000001
 43
0.0000000001
 40
0.0
 40
0.0
 40
0.0
 40
0.0
 40
1.0
 40
2.0
 40
3.0
 40
4.0
 40
5.0
 40
5.0
 40
5.0
 40
5.0
 10
6.308383702215607
 20
47.39690883852764
 30
0.0
 10
6.354500258046402
 20
47.44320985025985
 30
0.0
 10
6.477134333302149
 20
47.50495123513686
 30
0.0
 10
6.680233515341902
 20
47.47166594247525
 30
0.0
 10
6.825485424915216
 20
47.3260184793082
 30
0.0
 10
6.858257832865661
 20
47.12280959904214
 30
0.0
 10
6.796096847702874
 20
47.00040018426534
 30
0.0
 10
6.749721795899014
 20
46.95436345572801
 30
0.0
  0
LINE
  5
73
330
1F
100
AcDbEntity
  8
Default
100
AcDbLine
 10
5.447564159501756
 20
46.53608929601716
 30
0.0
 11
6.308383702215607
 21
47.39690883852764
 31
0.0
  0
SPLINE
  5
74
330
1F
100
AcDbEntity
  8
Default
100
AcDbSpline
210
0.0
220
0.0
230
1.0
 70
    12
 71
     2
 72
     6
 73
     3
 74
     0
 42
0.0000000001
 43
0.0000000001
 40
0.0
 40
0.0
 40
0.0
 40
0.3142581327687826
 40
0.3142581327687826
 40
0.3142581327687826
 10
-6.760735566024792
 20
47.40800369584112
 30
0.0
 41
1.0
 10
-6.8829300794195
 20
47.28577020715092
 30
0.0
 41
0.8690903913843158
 10
-6.840231052720441
 20
47.11829090102592
 30
0.0
 41
1.0
  0
SPLINE
  5
75
330
1F
100
AcDbEntity
  8
Default
100
AcDbSpline
210
0.0
220
0.0
230
1.0
 70
    12
 71
     2
 72
     6
 73
     3
 74
     0
 42
0.0000000001
 43
0.0000000001
 40
0.0
 40
0.0
 40
0.0
 40
0.3160567679445531
 40
0.3160567679445531
 40
0.3160567679445531
 10
-6.469243658949196
 20
47.48710100189582
 30
0.0
 41
1.0
 10
-6.637605595645113
 20
47.5308974890505
 30
0.0
 41
0.8680846946717405
 10
-6.760735566024792
 20
47.40800369584112
 30
0.0
 41
1.0
  0
SPLINE
  5
76
330
1F
100
AcDbEntity
  8
Default
100
AcDbSpline
210
0.0
220
0.0
230
1.0
 70
    12
 71
     2
 72
    12
 73
     9
 74
     0
 42
0.0000000001
 43
0.0000000001
 40
0.0
 40
0.0
 40
0.0
 40
5.890487076912201
 40
5.890487076912201
 40
11.7809741538244
 40
11.7809741538244
 40
17.6714612307366
 40
17.6714612307366
 40
23.56194830764881
 40
23.56194830764881
 40
23.56194830764881
 10
0.0000096804681231
 20
33.14692576412483
 30
0.0
 41
1.0
 10
-3.106592536086944
 20
33.14692505877241
 30
0.0
 41
0.923879510789378
 10
-5.303292279243244
 20
35.3436243031667
 30
0.0
 41
1.0
 10
-7.499992022399543
 20
37.54032354756097
 30
0.0
 41
0.923879510789378
 10
-7.49999202240315
 20
40.64692576411613
 30
0.0
 41
1.0
 10
-7.499992022406754
 20
43.75352798067127
 30
0.0
 41
0.923879510789378
 10
-5.303292279255554
 20
45.95022722507066
 30
0.0
 41
1.0
 10
-3.106592536104354
 20
48.14692646947003
 30
0.0
 41
0.923879510789378
 10
0.000009680450713
 20
48.14692576412482
 30
0.0
 41
1.0
  0
SPLINE
  5
77
330
1F
100
AcDbEntity
  8
Default
100
AcDbSpline
210
0.0
220
0.0
230
1.0
 70
    12
 71
     2
 72
    12
 73
     9
 74
     0
 42
0.0000000001
 43
0.0000000001
 40
0.0
 40
0.0
 40
0.0
 40
5.890487076912196
 40
5.890487076912196
 40
11.78097415382439
 40
11.78097415382439
 40
17.67146123073659
 40
17.67146123073659
 40
23.56194830764878
 40
23.56194830764878
 40
23.56194830764878
 10
0.000009680450713
 20
48.14692576412482
 30
0.0
 41
1.0
 10
3.106611897005779
 20
48.14692646947724
 30
0.0
 41
0.923879510789378
 10
5.303311640162077
 20
45.95022722508296
 30
0.0
 41
1.0
 10
7.500011383318376
 20
43.75352798068868
 30
0.0
 41
0.923879510789378
 10
7.500011383321981
 20
40.64692576413353
 30
0.0
 41
1.0
 10
7.500011383325586
 20
37.54032354757838
 30
0.0
 41
0.923879510789378
 10
5.303311640174387
 20
35.34362430317902
 30
0.0
 41
1.0
 10
3.10661189702319
 20
33.14692505877964
 30
0.0
 41
0.923879510789378
 10
0.0000096804681267
 20
33.14692576412484
 30
0.0
 41
1.0
  0
SPLINE
  5
78
330
1F
100
AcDbEntity
  8
Default
100
AcDbSpline
210
0.0
220
0.0
230
1.0
 70
    12
 71
     2
 72
    12
 73
     9
 74
     0
 42
0.0000000001
 43
0.0000000001
 40
0.0
 40
0.0
 40
0.0
 40
6.300737456569202
 40
6.300737456569202
 40
12.6014749131384
 40
12.6014749131384
 40
18.90221236970761
 40
18.90221236970761
 40
25.20294982627681
 40
25.20294982627681
 40
25.20294982627681
 10
0.0000096804594136
 20
32.62457846723264
 30
0.0
 41
1.0
 10
-3.322955737191089
 20
32.62457795074678
 30
0.0
 41
0.9238795176412412
 10
-5.672647300265495
 20
34.97426914861054
 30
0.0
 41
1.0
 10
-8.022338863339899
 20
37.32396034647429
 30
0.0
 41
0.9238795176412412
 10
-8.022338863339897
 20
40.64692576412484
 30
0.0
 41
1.0
 10
-8.022338863339895
 20
43.96989118177536
 30
0.0
 41
0.9238795176412412
 10
-5.672647300265488
 20
46.31958237963914
 30
0.0
 41
1.0
 10
-3.322955737191085
 20
48.66927357750288
 30
0.0
 41
0.9238795176412412
 10
0.0000096804594216
 20
48.66927306101703
 30
0.0
 41
1.0
  0
SPLINE
  5
79
330
1F
100
AcDbEntity
  8
Default
100
AcDbSpline
210
0.0
220
0.0
230
1.0
 70
    12
 71
     2
 72
    12
 73
     9
 74
     0
 42
0.0000000001
 43
0.0000000001
 40
0.0
 40
0.0
 40
0.0
 40
6.300737456569199
 40
6.300737456569199
 40
12.6014749131384
 40
12.6014749131384
 40
18.9022123697076
 40
18.9022123697076
 40
25.2029498262768
 40
25.2029498262768
 40
25.2029498262768
 10
0.0000096804594216
 20
48.66927306101703
 30
0.0
 41
1.0
 10
3.322975098109926
 20
48.66927357750288
 30
0.0
 41
0.9238795176412412
 10
5.672666661184328
 20
46.31958237963914
 30
0.0
 41
1.0
 10
8.022358224258731
 20
43.96989118177536
 30
0.0
 41
0.9238795176412412
 10
8.02235822425873
 20
40.64692576412484
 30
0.0
 41
1.0
 10
8.022358224258726
 20
37.32396034647429
 30
0.0
 41
0.9238795176412412
 10
5.672666661184321
 20
34.97426914861054
 30
0.0
 41
1.0
 10
3.32297509810992
 20
32.62457795074678
 30
0.0
 41
0.9238795176412412
 10
0.000009680459419
 20
32.62457846723262
 30
0.0
 41
1.0
  0
SPLINE
  5
7A
330
1F
100
AcDbEntity
  8
Default
100
AcDbSpline
210
0.0
220
0.0
230
1.0
 70
    24
 71
     2
 72
     6
 73
     3
 74
     0
 42
0.0000000001
 43
0.0000000001
 40
0.0
 40
0.0
 40
0.0
 40
0.634558297979869
 40
0.634558297979869
 40
0.634558297979869
 10
-5.108992494446408
 20
34.46177146883287
 30
0.0
 10
-5.426271643436342
 20
34.46177146883287
 30
0.0
 10
-5.743550792426277
 20
34.46177146883287
 30
0.0
  0
SPLINE
  5
7B
330
1F
100
AcDbEntity
  8
Default
100
AcDbSpline
210
0.0
220
0.0
230
1.0
 70
    24
 71
     2
 72
     6
 73
     3
 74
     0
 42
0.0000000001
 43
0.0000000001
 40
0.0
 40
0.0
 40
0.0
 40
0.6346334313874138
 40
0.6346334313874138
 40
0.6346334313874138
 10
-6.18547480625058
 20
34.90369460840122
 30
0.0
 10
-6.18547480625058
 20
35.22101132409492
 30
0.0
 10
-6.18547480625058
 20
35.53832803978863
 30
0.0
  0
SPLINE
  5
7C
330
1F
100
AcDbEntity
  8
Default
100
AcDbSpline
210
0.0
220
0.0
230
1.0
 70
    24
 71
     2
 72
     6
 73
     3
 74
     0
 42
0.0000000001
 43
0.0000000001
 40
0.0
 40
0.0
 40
0.0
 40
0.634558297979869
 40
0.634558297979869
 40
0.634558297979869
 10
-6.185143367925519
 20
45.75592918593768
 30
0.0
 10
-6.185143367925519
 20
46.07320833492761
 30
0.0
 10
-6.185143367925519
 20
46.39048748391755
 30
0.0
  0
SPLINE
  5
7D
330
1F
100
AcDbEntity
  8
Default
100
AcDbSpline
210
0.0
220
0.0
230
1.0
 70
    12
 71
     2
 72
     6
 73
     3
 74
     0
 42
0.0000000001
 43
0.0000000001
 40
0.0
 40
0.0
 40
0.0
 40
0.3142581327687826
 40
0.3142581327687826
 40
0.3142581327687826
 10
6.761088859082729
 20
47.40767225751606
 30
0.0
 41
1.0
 10
6.638855370392508
 20
47.52986677091079
 30
0.0
 41
0.8690903913843158
 10
6.471376064267525
 20
47.48716774421171
 30
0.0
 41
1.0
  0
SPLINE
  5
7E
330
1F
100
AcDbEntity
  8
Default
100
AcDbSpline
210
0.0
220
0.0
230
1.0
 70
    12
 71
     2
 72
     6
 73
     3
 74
     0
 42
0.0000000001
 43
0.0000000001
 40
0.0
 40
0.0
 40
0.0
 40
0.3160567679445531
 40
0.3160567679445531
 40
0.3160567679445531
 10
6.840186165137415
 20
47.11618035044047
 30
0.0
 41
1.0
 10
6.883982652292089
 20
47.28454228713639
 30
0.0
 41
0.8680846946717405
 10
6.761088859082729
 20
47.40767225751606
 30
0.0
 41
1.0
  0
SPLINE
  5
7F
330
1F
100
AcDbEntity
  8
Default
100
AcDbSpline
210
0.0
220
0.0
230
1.0
 70
    24
 71
     2
 72
     6
 73
     3
 74
     0
 42
0.0000000001
 43
0.0000000001
 40
0.0
 40
0.0
 40
0.0
 40
0.6346334313874138
 40
0.6346334313874138
 40
0.6346334313874138
 10
-5.743220228357174
 20
46.83241149774185
 30
0.0
 10
-5.425903512663467
 20
46.83241149774185
 30
0.0
 10
-5.10858679696976
 20
46.83241149774185
 30
0.0
  0
LINE
  5
80
330
1F
100
AcDbEntity
  8
Default
100
AcDbLine
 10
-6.307426764236737
 20
47.39663663265741
 30
0.0
 11
-5.447198042944194
 21
46.53640791116143
 31
0.0
  0
SPLINE
  5
81
330
1F
100
AcDbEntity
  8
Default
100
AcDbSpline
210
0.0
220
0.0
230
1.0
 70
     8
 71
     3
 72
    12
 73
     8
 74
     0
 42
0.0000000001
 43
0.0000000001
 40
0.0
 40
0.0
 40
0.0
 40
0.0
 40
1.0
 40
2.0
 40
3.0
 40
4.0
 40
5.0
 40
5.0
 40
5.0
 40
5.0
 10
-6.749972147036367
 20
46.955298538974
 30
0.0
 10
-6.796273158768578
 20
47.00141509480481
 30
0.0
 10
-6.858014543645595
 20
47.12404917006055
 30
0.0
 10
-6.824729250983978
 20
47.3271483521003
 30
0.0
 10
-6.679081787816919
 20
47.47240026167362
 30
0.0
 10
-6.475872907550865
 20
47.50517266962405
 30
0.0
 10
-6.353463492774068
 20
47.44301168446128
 30
0.0
 10
-6.307426764236737
 20
47.39663663265741
 30
0.0
  0
LINE
  5
82
330
1F
100
AcDbEntity
  8
Default
100
AcDbLine
 10
-5.889152604525883
 20
46.09447899626016
 30
0.0
 11
-6.749972147036367
 21
46.955298538974
 31
0.0
  0
ENDSEC
  0
SECTION
  2
OBJECTS
  0
DICTIONARY
  5
C
330
0
100
AcDbDictionary
281
     1
  3
ACAD_GROUP
350
D
  3
ACAD_LAYOUT
350
1A
  3
ACAD_MLEADERSTYLE
350
84
  3
ACAD_MLINESTYLE
350
17
  3
ACAD_PLOTSETTINGS
350
19
  3
ACAD_PLOTSTYLENAME
350
E
  3
ACAD_TABLESTYLE
350
83
  3
ACAD_VISUALSTYLE
350
2A
  0
DICTIONARY
  5
D
102
{ACAD_REACTORS
330
C
102
}
330
C
100
AcDbDictionary
281
     1
  0
DICTIONARY
  5
1A
102
{ACAD_REACTORS
330
C
102
}
330
C
100
AcDbDictionary
281
     1
  3
Layout1
350
1E
  3
Layout2
350
26
  3
Model
350
22
  0
DICTIONARY
  5
84
102
{ACAD_REACTORS
330
C
102
}
330
C
100
AcDbDictionary
281
     1
  0
DICTIONARY
  5
17
102
{ACAD_REACTORS
330
C
102
}
330
C
100
AcDbDictionary
281
     1
  3
Standard
350
18
  0
DICTIONARY
  5
19
102
{ACAD_REACTORS
330
C
102
}
330
C
100
AcDbDictionary
281
     1
  0
ACDBDICTIONARYWDFLT
  5
E
102
{ACAD_REACTORS
330
C
102
}
330
C
100
AcDbDictionary
281
     1
  3
Normal
350
F
100
AcDbDictionaryWithDefault
340
F
  0
DICTIONARY
  5
83
102
{ACAD_REACTORS
330
C
102
}
330
C
100
AcDbDictionary
281
     1
  0
DICTIONARY
  5
2A
102
{ACAD_REACTORS
330
C
102
}
330
C
100
AcDbDictionary
281
     1
  3
2dWireframe
350
2F
  3
3D Hidden
350
31
  3
3dWireframe
350
30
  3
Basic
350
32
  3
Brighten
350
36
  3
ColorChange
350
3A
  3
Conceptual
350
34
  3
Dim
350
35
  3
Facepattern
350
39
  3
Flat
350
2B
  3
FlatWithEdges
350
2C
  3
Gouraud
350
2D
  3
GouraudWithEdges
350
2E
  3
Linepattern
350
38
  3
Realistic
350
33
  3
Thicken
350
37
  0
LAYOUT
  5
1E
102
{ACAD_REACTORS
330
1A
102
}
330
1A
100
AcDbPlotSettings
  1

  2
none_device
  4

  6

 40
0.0
 41
0.0
 42
0.0
 43
0.0
 44
0.0
 45
0.0
 46
0.0
 47
0.0
 48
0.0
 49
0.0
140
0.0
141
0.0
142
1.0
143
1.0
 70
   688
 72
     0
 73
     0
 74
     5
  7

 75
    16
 76
     0
 77
     2
 78
   300
147
1.0
148
0.0
149
0.0
100
AcDbLayout
  1
Layout1
 70
     1
 71
     1
 10
0.0
 20
0.0
 11
12.0
 21
9.0
 12
0.0
 22
0.0
 32
0.0
 14
1.000000000000000E+20
 24
1.000000000000000E+20
 34
1.000000000000000E+20
 15
-1.000000000000000E+20
 25
-1.000000000000000E+20
 35
-1.000000000000000E+20
146
0.0
 13
0.0
 23
0.0
 33
0.0
 16
1.0
 26
0.0
 36
0.0
 17
0.0
 27
1.0
 37
0.0
 76
     0
330
1B
  0
LAYOUT
  5
26
102
{ACAD_REACTORS
330
1A
102
}
330
1A
100
AcDbPlotSettings
  1

  2
none_device
  4

  6

 40
0.0
 41
0.0
 42
0.0
 43
0.0
 44
0.0
 45
0.0
 46
0.0
 47
0.0
 48
0.0
 49
0.0
140
0.0
141
0.0
142
1.0
143
1.0
 70
   688
 72
     0
 73
     0
 74
     5
  7

 75
    16
 76
     0
 77
     2
 78
   300
147
1.0
148
0.0
149
0.0
100
AcDbLayout
  1
Layout2
 70
     1
 71
     2
 10
0.0
 20
0.0
 11
0.0
 21
0.0
 12
0.0
 22
0.0
 32
0.0
 14
0.0
 24
0.0
 34
0.0
 15
0.0
 25
0.0
 35
0.0
146
0.0
 13
0.0
 23
0.0
 33
0.0
 16
1.0
 26
0.0
 36
0.0
 17
0.0
 27
1.0
 37
0.0
 76
     0
330
23
  0
LAYOUT
  5
22
102
{ACAD_REACTORS
330
1A
102
}
330
1A
100
AcDbPlotSettings
  1

  2
none_device
  4

  6

 40
0.0
 41
0.0
 42
0.0
 43
0.0
 44
0.0
 45
0.0
 46
0.0
 47
0.0
 48
0.0
 49
0.0
140
0.0
141
0.0
142
1.0
143
1.0
 70
  1712
 72
     0
 73
     0
 74
     0
  7

 75
     0
 76
     0
 77
     2
 78
   300
147
1.0
148
0.0
149
0.0
100
AcDbLayout
  1
Model
 70
     1
 71
     0
 10
0.0
 20
0.0
 11
12.0
 21
9.0
 12
0.0
 22
0.0
 32
0.0
 14
-8.022338863339897
 24
0.0000000000050596
 34
0.0
 15
8.02235822425873
 25
48.66927306101704
 35
0.0
146
0.0
 13
0.0
 23
0.0
 33
0.0
 16
1.0
 26
0.0
 36
0.0
 17
0.0
 27
1.0
 37
0.0
 76
     0
330
1F
331
29
  0
MLINESTYLE
  5
18
102
{ACAD_REACTORS
330
17
102
}
330
17
100
AcDbMlineStyle
  2
Standard
 70
     0
  3

 62
   256
 51
90.0
 52
90.0
 71
     2
 49
0.5
 62
   256
  6
BYLAYER
 49
-0.5
 62
   256
  6
BYLAYER
  0
ACDBPLACEHOLDER
  5
F
102
{ACAD_REACTORS
330
E
102
}
330
E
  0
VISUALSTYLE
  5
2F
102
{ACAD_REACTORS
330
2A
102
}
330
2A
100
AcDbVisualStyle
  2
2dWireframe
 70
     4
 71
     0
 72
     2
 73
     0
 90
        0
 40
-0.6
 41
-30.0
 62
     5
 63
     7
421
 16777215
 74
     1
 91
        4
 64
     7
 65
   257
 75
     1
175
     1
 42
1.0
 92
        0
 66
   257
 43
1.0
 76
     1
 77
     6
 78
     2
 67
     7
 79
     5
170
     0
171
     0
290
     0
174
     0
 93
        1
 44
0.0
173
     0
291
     0
 45
0.0
1001
ACAD
1000
AcDbSavedByObjectVersion
1070
     0
  0
VISUALSTYLE
  5
31
102
{ACAD_REACTORS
330
2A
102
}
330
2A
100
AcDbVisualStyle
  2
3D Hidden
 70
     6
 71
     1
 72
     2
 73
     2
 90
        0
 40
-0.6
 41
-30.0
 62
     5
 63
     7
421
 16777215
 74
     2
 91
        2
 64
     7
 65
   257
 75
     2
175
     1
 42
40.0
 92
        0
 66
   257
 43
1.0
 76
     1
 77
     6
 78
     2
 67
     7
 79
     3
170
     0
171
     0
290
     0
174
     0
 93
        1
 44
0.0
173
     0
291
     0
 45
0.0
1001
ACAD
1000
AcDbSavedByObjectVersion
1070
     0
  0
VISUALSTYLE
  5
30
102
{ACAD_REACTORS
330
2A
102
}
330
2A
100
AcDbVisualStyle
  2
3dWireframe
 70
     5
 71
     0
 72
     2
 73
     0
 90
        0
 40
-0.6
 41
-30.0
 62
     5
 63
     7
421
 16777215
 74
     1
 91
        4
 64
     7
 65
   257
 75
     1
175
     1
 42
1.0
 92
        0
 66
   257
 43
1.0
 76
     1
 77
     6
 78
     2
 67
     7
 79
     5
170
     0
171
     0
290
     0
174
     0
 93
        1
 44
0.0
173
     0
291
     0
 45
0.0
1001
ACAD
1000
AcDbSavedByObjectVersion
1070
     0
  0
VISUALSTYLE
  5
32
102
{ACAD_REACTORS
330
2A
102
}
330
2A
100
AcDbVisualStyle
  2
Basic
 70
     7
 71
     1
 72
     0
 73
     1
 90
        0
 40
-0.6
 41
-30.0
 62
     5
 63
     7
421
 16777215
 74
     0
 91
        4
 64
     7
 65
   257
 75
     1
175
     1
 42
1.0
 92
        8
 66
     7
 43
1.0
 76
     1
 77
     6
 78
     2
 67
     7
 79
     5
170
     0
171
     0
290
     0
174
     0
 93
        1
 44
0.0
173
     0
291
     1
 45
0.0
1001
ACAD
1000
AcDbSavedByObjectVersion
1070
     0
  0
VISUALSTYLE
  5
36
102
{ACAD_REACTORS
330
2A
102
}
330
2A
100
AcDbVisualStyle
  2
Brighten
 70
    12
 71
     2
 72
     2
 73
     0
 90
        0
 40
-0.6
 41
-30.0
 62
     5
 63
     7
421
 16777215
 74
     1
 91
        4
 64
     7
 65
   257
 75
     1
175
     1
 42
1.0
 92
        8
 66
     7
 43
1.0
 76
     1
 77
     6
 78
     2
 67
     7
 79
     5
170
     0
171
     0
290
     0
174
     0
 93
        1
 44
50.0
173
     0
291
     1
 45
0.0
1001
ACAD
1000
AcDbSavedByObjectVersion
1070
     0
  0
VISUALSTYLE
  5
3A
102
{ACAD_REACTORS
330
2A
102
}
330
2A
100
AcDbVisualStyle
  2
ColorChange
 70
    16
 71
     2
 72
     2
 73
     3
 90
        0
 40
-0.6
 41
-30.0
 62
     5
 63
     8
421
  8421504
 74
     1
 91
        4
 64
     7
 65
   257
 75
     1
175
     1
 42
1.0
 92
        8
 66
     8
424
  8421504
 43
1.0
 76
     1
 77
     6
 78
     2
 67
     7
 79
     5
170
     0
171
     0
290
     0
174
     0
 93
        1
 44
0.0
173
     0
291
     1
 45
0.0
1001
ACAD
1000
AcDbSavedByObjectVersion
1070
     0
  0
VISUALSTYLE
  5
34
102
{ACAD_REACTORS
330
2A
102
}
330
2A
100
AcDbVisualStyle
  2
Conceptual
 70
     9
 71
     3
 72
     2
 73
     0
 90
        0
 40
-0.6
 41
-30.0
 62
     5
 63
     7
421
 16777215
 74
     2
 91
        2
 64
     7
 65
   257
 75
     1
175
     1
 42
40.0
 92
        8
 66
     7
 43
1.0
 76
     1
 77
     6
 78
     2
 67
     7
 79
     3
170
     0
171
     0
290
     0
174
     0
 93
        1
 44
0.0
173
     0
291
     0
 45
0.0
1001
ACAD
1000
AcDbSavedByObjectVersion
1070
     0
  0
VISUALSTYLE
  5
35
102
{ACAD_REACTORS
330
2A
102
}
330
2A
100
AcDbVisualStyle
  2
Dim
 70
    11
 71
     2
 72
     2
 73
     0
 90
        0
 40
-0.6
 41
-30.0
 62
     5
 63
     7
421
 16777215
 74
     1
 91
        4
 64
     7
 65
   257
 75
     1
175
     1
 42
1.0
 92
        8
 66
     7
 43
1.0
 76
     1
 77
     6
 78
     2
 67
     7
 79
     5
170
     0
171
     0
290
     0
174
     0
 93
        1
 44
-50.0
173
     0
291
     1
 45
0.0
1001
ACAD
1000
AcDbSavedByObjectVersion
1070
     0
  0
VISUALSTYLE
  5
39
102
{ACAD_REACTORS
330
2A
102
}
330
2A
100
AcDbVisualStyle
  2
Facepattern
 70
    15
 71
     2
 72
     2
 73
     0
 90
        0
 40
-0.6
 41
-30.0
 62
     5
 63
     7
421
 16777215
 74
     1
 91
        4
 64
     7
 65
   257
 75
     1
175
     1
 42
1.0
 92
        8
 66
     7
 43
1.0
 76
     1
 77
     6
 78
     2
 67
     7
 79
     5
170
     0
171
     0
290
     0
174
     0
 93
        1
 44
0.0
173
     0
291
     1
 45
0.0
1001
ACAD
1000
AcDbSavedByObjectVersion
1070
     0
  0
VISUALSTYLE
  5
2B
102
{ACAD_REACTORS
330
2A
102
}
330
2A
100
AcDbVisualStyle
  2
Flat
 70
     0
 71
     2
 72
     1
 73
     1
 90
        2
 40
-0.6
 41
30.0
 62
     5
 63
     7
421
 16777215
 74
     0
 91
        4
 64
     7
 65
   257
 75
     1
175
     1
 42
1.0
 92
        8
 66
     7
 43
1.0
 76
     1
 77
     6
 78
     2
 67
     7
 79
     5
170
     0
171
     0
290
     0
174
     0
 93
       13
 44
0.0
173
     0
291
     1
 45
0.0
1001
ACAD
1000
AcDbSavedByObjectVersion
1070
     0
  0
VISUALSTYLE
  5
2C
102
{ACAD_REACTORS
330
2A
102
}
330
2A
100
AcDbVisualStyle
  2
FlatWithEdges
 70
     1
 71
     2
 72
     1
 73
     1
 90
        2
 40
-0.6
 41
30.0
 62
     5
 63
     7
421
 16777215
 74
     1
 91
        4
 64
     7
 65
   257
 75
     1
175
     1
 42
1.0
 92
        0
 66
   257
 43
1.0
 76
     1
 77
     6
 78
     2
 67
     7
 79
     5
170
     0
171
     0
290
     0
174
     0
 93
       13
 44
0.0
173
     0
291
     1
 45
0.0
1001
ACAD
1000
AcDbSavedByObjectVersion
1070
     0
  0
VISUALSTYLE
  5
2D
102
{ACAD_REACTORS
330
2A
102
}
330
2A
100
AcDbVisualStyle
  2
Gouraud
 70
     2
 71
     2
 72
     2
 73
     1
 90
        2
 40
-0.6
 41
30.0
 62
     5
 63
     7
421
 16777215
 74
     0
 91
        4
 64
     7
 65
   257
 75
     1
175
     1
 42
1.0
 92
        0
 66
     7
 43
1.0
 76
     1
 77
     6
 78
     2
 67
     7
 79
     5
170
     0
171
     0
290
     0
174
     0
 93
       13
 44
0.0
173
     0
291
     1
 45
0.0
1001
ACAD
1000
AcDbSavedByObjectVersion
1070
     0
  0
VISUALSTYLE
  5
2E
102
{ACAD_REACTORS
330
2A
102
}
330
2A
100
AcDbVisualStyle
  2
GouraudWithEdges
 70
     3
 71
     2
 72
     2
 73
     1
 90
        2
 40
-0.6
 41
30.0
 62
     5
 63
     7
421
 16777215
 74
     1
 91
        4
 64
     7
 65
   257
 75
     1
175
     1
 42
1.0
 92
        0
 66
   257
 43
1.0
 76
     1
 77
     6
 78
     2
 67
     7
 79
     5
170
     0
171
     0
290
     0
174
     0
 93
       13
 44
0.0
173
     0
291
     1
 45
0.0
1001
ACAD
1000
AcDbSavedByObjectVersion
1070
     0
  0
VISUALSTYLE
  5
38
102
{ACAD_REACTORS
330
2A
102
}
330
2A
100
AcDbVisualStyle
  2
Linepattern
 70
    14
 71
     2
 72
     2
 73
     0
 90
        0
 40
-0.6
 41
-30.0
 62
     5
 63
     7
421
 16777215
 74
     1
 91
        4
 64
     7
 65
   257
 75
     7
175
     7
 42
1.0
 92
        8
 66
     7
 43
1.0
 76
     1
 77
     6
 78
     2
 67
     7
 79
     5
170
     0
171
     0
290
     0
174
     0
 93
        1
 44
0.0
173
     0
291
     1
 45
0.0
1001
ACAD
1000
AcDbSavedByObjectVersion
1070
     0
  0
VISUALSTYLE
  5
33
102
{ACAD_REACTORS
330
2A
102
}
330
2A
100
AcDbVisualStyle
  2
Realistic
 70
     8
 71
     2
 72
     2
 73
     0
 90
        0
 40
-0.6
 41
-30.0
 62
     5
 63
     7
421
 16777215
 74
     1
 91
        0
 64
     7
 65
   257
 75
     1
175
     1
 42
1.0
 92
        8
 66
     8
424
  7895160
 43
1.0
 76
     1
 77
     6
 78
     2
 67
     7
 79
     5
170
     0
171
     0
290
     0
174
     0
 93
       13
 44
0.0
173
     0
291
     0
 45
0.0
1001
ACAD
1000
AcDbSavedByObjectVersion
1070
     0
  0
VISUALSTYLE
  5
37
102
{ACAD_REACTORS
330
2A
102
}
330
2A
100
AcDbVisualStyle
  2
Thicken
 70
    13
 71
     2
 72
     2
 73
     0
 90
        0
 40
-0.6
 41
-30.0
 62
     5
 63
     7
421
 16777215
 74
     1
 91
        4
 64
     7
 65
   257
 75
     1
175
     1
 42
1.0
 92
       12
 66
     7
 43
1.0
 76
     1
 77
     6
 78
     2
 67
     7
 79
     5
170
     0
171
     0
290
     0
174
     0
 93
        1
 44
0.0
173
     0
291
     1
 45
0.0
1001
ACAD
1000
AcDbSavedByObjectVersion
1070
     0
  0
ENDSEC
  0
EOF
