  0
SECTION
  2
HEADER
  9
$ACADVER
  1
AC1018
  9
$ACADMAINTVER
 70
     0
  9
$DWGCODEPAGE
  3
ANSI_1252
  9
$INSBASE
 10
0.0
 20
0.0
 30
0.0
  9
$EXTMIN
 10
-8.022338863339897
 20
-0.0001111409067116
 30
0.0
  9
$EXTMAX
 10
8.02235822425873
 20
54.92569365253368
 30
0.0
  9
$LIMMIN
 10
0.0
 20
0.0
  9
$LIMMAX
 10
12.0
 20
9.0
  9
$ORTHOMODE
 70
     0
  9
$REGENMODE
 70
     1
  9
$FILLMODE
 70
     1
  9
$QTEXTMODE
 70
     0
  9
$MIRRTEXT
 70
     1
  9
$LTSCALE
 40
0.0393700787401575
  9
$ATTMODE
 70
     1
  9
$TEXTSIZE
 40
0.2
  9
$TRACEWID
 40
0.05
  9
$TEXTSTYLE
  7
Standard
  9
$CLAYER
  8
Default
  9
$CELTYPE
  6
ByLayer
  9
$CECOLOR
 62
   256
  9
$CELTSCALE
 40
1.0
  9
$DISPSILH
 70
     0
  9
$DIMSCALE
 40
1.0
  9
$DIMASZ
 40
0.18
  9
$DIMEXO
 40
0.0625
  9
$DIMDLI
 40
0.38
  9
$DIMRND
 40
0.0
  9
$DIMDLE
 40
0.0
  9
$DIMEXE
 40
0.18
  9
$DIMTP
 40
0.0
  9
$DIMTM
 40
0.0
  9
$DIMTXT
 40
0.18
  9
$DIMCEN
 40
0.09
  9
$DIMTSZ
 40
0.0
  9
$DIMTOL
 70
     0
  9
$DIMLIM
 70
     0
  9
$DIMTIH
 70
     1
  9
$DIMTOH
 70
     1
  9
$DIMSE1
 70
     0
  9
$DIMSE2
 70
     0
  9
$DIMTAD
 70
     0
  9
$DIMZIN
 70
     0
  9
$DIMBLK
  1

  9
$DIMASO
 70
     1
  9
$DIMSHO
 70
     1
  9
$DIMPOST
  1

  9
$DIMAPOST
  1

  9
$DIMALT
 70
     0
  9
$DIMALTD
 70
     2
  9
$DIMALTF
 40
25.4
  9
$DIMLFAC
 40
1.0
  9
$DIMTOFL
 70
     0
  9
$DIMTVP
 40
0.0
  9
$DIMTIX
 70
     0
  9
$DIMSOXD
 70
     0
  9
$DIMSAH
 70
     0
  9
$DIMBLK1
  1

  9
$DIMBLK2
  1

  9
$DIMSTYLE
  2
Standard
  9
$DIMCLRD
 70
     0
  9
$DIMCLRE
 70
     0
  9
$DIMCLRT
 70
     0
  9
$DIMTFAC
 40
1.0
  9
$DIMGAP
 40
0.09
  9
$DIMJUST
 70
     0
  9
$DIMSD1
 70
     0
  9
$DIMSD2
 70
     0
  9
$DIMTOLJ
 70
     1
  9
$DIMTZIN
 70
     0
  9
$DIMALTZ
 70
     0
  9
$DIMALTTZ
 70
     0
  9
$DIMUPT
 70
     0
  9
$DIMDEC
 70
     4
  9
$DIMTDEC
 70
     4
  9
$DIMALTU
 70
     2
  9
$DIMALTTD
 70
     2
  9
$DIMTXSTY
  7
Standard
  9
$DIMAUNIT
 70
     0
  9
$DIMADEC
 70
     0
  9
$DIMALTRND
 40
0.0
  9
$DIMAZIN
 70
     0
  9
$DIMDSEP
 70
    46
  9
$DIMATFIT
 70
     3
  9
$DIMFRAC
 70
     0
  9
$DIMLDRBLK
  1

  9
$DIMLUNIT
 70
     2
  9
$DIMLWD
 70
    -2
  9
$DIMLWE
 70
    -2
  9
$DIMTMOVE
 70
     2
  9
$LUNITS
 70
     2
  9
$LUPREC
 70
     3
  9
$SKETCHINC
 40
0.1
  9
$FILLETRAD
 40
0.5
  9
$AUNITS
 70
     0
  9
$AUPREC
 70
     0
  9
$MENU
  1
.
  9
$ELEVATION
 40
0.0
  9
$PELEVATION
 40
0.0
  9
$THICKNESS
 40
0.0
  9
$LIMCHECK
 70
     0
  9
$CHAMFERA
 40
0.5
  9
$CHAMFERB
 40
0.5
  9
$CHAMFERC
 40
1.0
  9
$CHAMFERD
 40
0.0
  9
$SKPOLY
 70
     0
  9
$TDCREATE
 40
2456428.693475926
  9
$TDUCREATE
 40
2456428.860142593
  9
$TDUPDATE
 40
2456428.693475937
  9
$TDUUPDATE
 40
2456428.860142604
  9
$TDINDWG
 40
0.0000000116
  9
$TDUSRTIMER
 40
0.0000000116
  9
$USRTIMER
 70
     1
  9
$ANGBASE
 50
0.0
  9
$ANGDIR
 70
     0
  9
$PDMODE
 70
     0
  9
$PDSIZE
 40
0.0
  9
$PLINEWID
 40
0.0
  9
$SPLFRAME
 70
     0
  9
$SPLINETYPE
 70
     6
  9
$SPLINESEGS
 70
     8
  9
$HANDSEED
  5
84
  9
$SURFTAB1
 70
     6
  9
$SURFTAB2
 70
     6
  9
$SURFTYPE
 70
     6
  9
$SURFU
 70
     6
  9
$SURFV
 70
     6
  9
$UCSBASE
  2

  9
$UCSNAME
  2

  9
$UCSORG
 10
0.0
 20
0.0
 30
0.0
  9
$UCSXDIR
 10
1.0
 20
0.0
 30
0.0
  9
$UCSYDIR
 10
0.0
 20
1.0
 30
0.0
  9
$UCSORTHOREF
  2

  9
$UCSORTHOVIEW
 70
     0
  9
$UCSORGTOP
 10
0.0
 20
0.0
 30
0.0
  9
$UCSORGBOTTOM
 10
0.0
 20
0.0
 30
0.0
  9
$UCSORGLEFT
 10
0.0
 20
0.0
 30
0.0
  9
$UCSORGRIGHT
 10
0.0
 20
0.0
 30
0.0
  9
$UCSORGFRONT
 10
0.0
 20
0.0
 30
0.0
  9
$UCSORGBACK
 10
0.0
 20
0.0
 30
0.0
  9
$PUCSBASE
  2

  9
$PUCSNAME
  2

  9
$PUCSORG
 10
0.0
 20
0.0
 30
0.0
  9
$PUCSXDIR
 10
1.0
 20
0.0
 30
0.0
  9
$PUCSYDIR
 10
0.0
 20
1.0
 30
0.0
  9
$PUCSORTHOREF
  2

  9
$PUCSORTHOVIEW
 70
     0
  9
$PUCSORGTOP
 10
0.0
 20
0.0
 30
0.0
  9
$PUCSORGBOTTOM
 10
0.0
 20
0.0
 30
0.0
  9
$PUCSORGLEFT
 10
0.0
 20
0.0
 30
0.0
  9
$PUCSORGRIGHT
 10
0.0
 20
0.0
 30
0.0
  9
$PUCSORGFRONT
 10
0.0
 20
0.0
 30
0.0
  9
$PUCSORGBACK
 10
0.0
 20
0.0
 30
0.0
  9
$USERI1
 70
     0
  9
$USERI2
 70
     0
  9
$USERI3
 70
     0
  9
$USERI4
 70
     0
  9
$USERI5
 70
     0
  9
$USERR1
 40
0.0
  9
$USERR2
 40
0.0
  9
$USERR3
 40
0.0
  9
$USERR4
 40
0.0
  9
$USERR5
 40
0.0
  9
$WORLDVIEW
 70
     1
  9
$SHADEDGE
 70
     3
  9
$SHADEDIF
 70
    70
  9
$TILEMODE
 70
     1
  9
$MAXACTVP
 70
    64
  9
$PINSBASE
 10
0.0
 20
0.0
 30
0.0
  9
$PLIMCHECK
 70
     0
  9
$PEXTMIN
 10
1.000000000000000E+20
 20
1.000000000000000E+20
 30
1.000000000000000E+20
  9
$PEXTMAX
 10
-1.000000000000000E+20
 20
-1.000000000000000E+20
 30
-1.000000000000000E+20
  9
$PLIMMIN
 10
0.0
 20
0.0
  9
$PLIMMAX
 10
12.0
 20
9.0
  9
$UNITMODE
 70
     0
  9
$VISRETAIN
 70
     1
  9
$PLINEGEN
 70
     0
  9
$PSLTSCALE
 70
     1
  9
$TREEDEPTH
 70
  3020
  9
$CMLSTYLE
  2
Standard
  9
$CMLJUST
 70
     0
  9
$CMLSCALE
 40
1.0
  9
$PROXYGRAPHICS
 70
     1
  9
$MEASUREMENT
 70
     0
  9
$CELWEIGHT
370
    -1
  9
$ENDCAPS
280
     0
  9
$JOINSTYLE
280
     0
  9
$LWDISPLAY
290
     0
  9
$INSUNITS
 70
     1
  9
$HYPERLINKBASE
  1

  9
$STYLESHEET
  1

  9
$XEDIT
290
     1
  9
$CEPSNTYPE
380
     0
  9
$PSTYLEMODE
290
     1
  9
$FINGERPRINTGUID
  2
{8960BF2D-E188-44B7-9DF7-A1FDCD1690FB}
  9
$VERSIONGUID
  2
{FAEB1C32-E019-11D5-929B-00C0DF256EC4}
  9
$EXTNAMES
290
     1
  9
$PSVPSCALE
 40
0.0
  9
$OLESTARTUP
290
     0
  9
$SORTENTS
280
   127
  9
$INDEXCTL
280
     0
  9
$HIDETEXT
280
     1
  9
$XCLIPFRAME
290
     0
  9
$HALOGAP
280
     0
  9
$OBSCOLOR
 70
   257
  9
$OBSLTYPE
280
     0
  9
$INTERSECTIONDISPLAY
280
     0
  9
$INTERSECTIONCOLOR
 70
   257
  9
$DIMASSOC
280
     2
  9
$PROJECTNAME
  1

  0
ENDSEC
  0
SECTION
  2
CLASSES
  0
CLASS
  1
ACDBDICTIONARYWDFLT
  2
AcDbDictionaryWithDefault
  3
ObjectDBX Classes
 90
        0
 91
        4
280
     0
281
     0
  0
CLASS
  1
VISUALSTYLE
  2
AcDbVisualStyle
  3
ObjectDBX Classes
 90
     4095
 91
        4
280
     0
281
     0
  0
ENDSEC
  0
SECTION
  2
TABLES
  0
TABLE
  2
VPORT
  5
8
330
0
100
AcDbSymbolTable
 70
     1
  0
VPORT
  5
29
330
8
100
AcDbSymbolTableRecord
100
AcDbViewportTableRecord
  2
*Active
 70
     0
 10
0.0
 20
0.0
 11
1.0
 21
1.0
 12
0.0000096804594172
 22
27.46279125581349
 13
0.0
 23
0.0
 14
0.5
 24
0.5
 15
0.5
 25
0.5
 16
0.0
 26
0.0
 36
1.0
 17
0.0
 27
0.0
 37
0.0
 40
56.0243208893092
 41
0.2921158305815993
 42
50.0
 43
0.0
 44
0.0
 50
0.0
 51
0.0
 71
     0
 72
   100
 73
     1
 74
     3
 75
     0
 76
     0
 77
     0
 78
     0
281
     0
 65
     1
110
0.0
120
0.0
130
0.0
111
1.0
121
0.0
131
0.0
112
0.0
122
1.0
132
0.0
 79
     0
146
0.0
  0
ENDTAB
  0
TABLE
  2
LTYPE
  5
5
330
0
100
AcDbSymbolTable
 70
     1
  0
LTYPE
  5
14
330
5
100
AcDbSymbolTableRecord
100
AcDbLinetypeTableRecord
  2
ByBlock
 70
     0
  3

 72
    65
 73
     0
 40
0.0
  0
LTYPE
  5
15
330
5
100
AcDbSymbolTableRecord
100
AcDbLinetypeTableRecord
  2
ByLayer
 70
     0
  3

 72
    65
 73
     0
 40
0.0
  0
LTYPE
  5
16
330
5
100
AcDbSymbolTableRecord
100
AcDbLinetypeTableRecord
  2
Continuous
 70
     0
  3
Solid line
 72
    65
 73
     0
 40
0.0
  0
ENDTAB
  0
TABLE
  2
LAYER
  5
2
330
0
100
AcDbSymbolTable
 70
     2
  0
LAYER
  5
10
330
2
100
AcDbSymbolTableRecord
100
AcDbLayerTableRecord
  2
0
 70
     0
 62
     7
  6
Continuous
370
    -3
390
F
  0
LAYER
  5
3B
330
2
100
AcDbSymbolTableRecord
100
AcDbLayerTableRecord
  2
Default
 70
     0
 62
     7
  6
Continuous
370
    -3
390
F
  0
ENDTAB
  0
TABLE
  2
STYLE
  5
3
330
0
100
AcDbSymbolTable
 70
     1
  0
STYLE
  5
11
330
3
100
AcDbSymbolTableRecord
100
AcDbTextStyleTableRecord
  2
Standard
 70
     0
 40
0.0
 41
1.0
 50
0.0
 71
     0
 42
0.2
  3
txt
  4

  0
ENDTAB
  0
TABLE
  2
VIEW
  5
6
330
0
100
AcDbSymbolTable
 70
     0
  0
ENDTAB
  0
TABLE
  2
UCS
  5
7
330
0
100
AcDbSymbolTable
 70
     0
  0
ENDTAB
  0
TABLE
  2
APPID
  5
9
330
0
100
AcDbSymbolTable
 70
     1
  0
APPID
  5
12
330
9
100
AcDbSymbolTableRecord
100
AcDbRegAppTableRecord
  2
ACAD
 70
     0
  0
ENDTAB
  0
TABLE
  2
DIMSTYLE
  5
A
330
0
100
AcDbSymbolTable
 70
     1
100
AcDbDimStyleTable
  0
DIMSTYLE
105
27
330
A
100
AcDbSymbolTableRecord
100
AcDbDimStyleTableRecord
  2
Standard
 70
     0
340
11
  0
ENDTAB
  0
TABLE
  2
BLOCK_RECORD
  5
1
330
0
100
AcDbSymbolTable
 70
     1
  0
BLOCK_RECORD
  5
1F
330
1
100
AcDbSymbolTableRecord
100
AcDbBlockTableRecord
  2
*Model_Space
340
22
  0
BLOCK_RECORD
  5
1B
330
1
100
AcDbSymbolTableRecord
100
AcDbBlockTableRecord
  2
*Paper_Space
340
1E
  0
BLOCK_RECORD
  5
23
330
1
100
AcDbSymbolTableRecord
100
AcDbBlockTableRecord
  2
*Paper_Space0
340
26
  0
ENDTAB
  0
ENDSEC
  0
SECTION
  2
BLOCKS
  0
BLOCK
  5
20
330
1F
100
AcDbEntity
  8
0
100
AcDbBlockBegin
  2
*Model_Space
 70
     0
 10
0.0
 20
0.0
 30
0.0
  3
*Model_Space
  1

  0
ENDBLK
  5
21
330
1F
100
AcDbEntity
  8
0
100
AcDbBlockEnd
  0
BLOCK
  5
1C
330
1B
100
AcDbEntity
 67
     1
  8
0
100
AcDbBlockBegin
  2
*Paper_Space
 70
     0
 10
0.0
 20
0.0
 30
0.0
  3
*Paper_Space
  1

  0
ENDBLK
  5
1D
330
1B
100
AcDbEntity
 67
     1
  8
0
100
AcDbBlockEnd
  0
BLOCK
  5
24
330
23
100
AcDbEntity
  8
0
100
AcDbBlockBegin
  2
*Paper_Space0
 70
     0
 10
0.0
 20
0.0
 30
0.0
  3
*Paper_Space0
  1

  0
ENDBLK
  5
25
330
23
100
AcDbEntity
  8
0
100
AcDbBlockEnd
  0
ENDSEC
  0
SECTION
  2
ENTITIES
  0
LINE
  5
3C
330
1F
100
AcDbEntity
  8
Default
100
AcDbLine
 10
5.710713545902143
 20
12.07025201561406
 30
0.0
 11
5.638166959659742
 21
13.0459730259173
 31
0.0
  0
SPLINE
  5
3D
330
1F
100
AcDbEntity
  8
Default
100
AcDbSpline
210
0.0
220
0.0
230
1.0
 70
     8
 71
     3
 72
    24
 73
    20
 74
     0
 42
0.0000000001
 43
0.0000000001
 40
-0.0000000000000003
 40
-0.0000000000000003
 40
-0.0000000000000003
 40
-0.0000000000000003
 40
12.83349048821976
 40
13.02749169158467
 40
13.11672637109773
 40
13.20202036018595
 40
13.36236383180792
 40
13.46129507218534
 40
13.60906371836241
 40
13.6591338313355
 40
13.69554144567279
 40
13.71941729576141
 40
13.80455853626237
 40
14.38000504999649
 40
14.93778926713924
 40
15.24525838813017
 40
15.59561997518521
 40
16.09560684102572
 40
17.998413674648
 40
17.998413674648
 40
17.998413674648
 40
17.998413674648
 10
5.638166959659742
 20
13.0459730259173
 30
0.0
 10
5.32097550787654
 20
17.31206437250873
 30
0.0
 10
4.999361957708452
 20
21.64254366184654
 30
0.0
 10
4.675077923699284
 20
26.00282974052659
 30
0.0
 10
4.640545118649229
 20
26.12186406165806
 30
0.0
 10
4.603782573593591
 20
26.22674327868378
 30
0.0
 10
4.547504104581471
 20
26.32831314201913
 30
0.0
 10
4.459434336398331
 20
26.4315831316284
 30
0.0
 10
4.374347904548621
 20
26.48753953566413
 30
0.0
 10
4.295797378162064
 20
26.49864015347168
 30
0.0
 10
4.259129207541704
 20
26.49476018064391
 30
0.0
 10
4.212582021028247
 20
26.48116934389811
 30
0.0
 10
4.003166281280031
 20
26.39025256588459
 30
0.0
 10
3.617637394927392
 20
26.25982167755177
 30
0.0
 10
3.143819423094008
 20
26.17177688013892
 30
0.0
 10
2.737861695003375
 20
26.16331784758715
 30
0.0
 10
2.352230118997397
 20
26.16741625653402
 30
0.0
 10
1.434426040430878
 20
26.16511407118099
 30
0.0
 10
0.6334961262842569
 20
26.16644488256147
 30
0.0
 10
-0.0007732855704887
 20
26.16604007900956
 30
0.0
  0
LINE
  5
3E
330
1F
100
AcDbEntity
  8
Default
100
AcDbLine
 10
6.588095016223097
 20
0.2698410109877917
 30
0.0
 11
5.743243432785906
 21
11.63273874670267
 31
0.0
  0
LINE
  5
3F
330
1F
100
AcDbEntity
  8
Default
100
AcDbLine
 10
-5.74311203386714
 20
11.63273874670267
 30
0.0
 11
-6.587702883734278
 21
0.2698118901891233
 31
0.0
  0
SPLINE
  5
40
330
1F
100
AcDbEntity
  8
Default
100
AcDbSpline
210
0.0
220
0.0
230
1.0
 70
     8
 71
     3
 72
    24
 73
    20
 74
     0
 42
0.0000000001
 43
0.0000000001
 40
-17.998413674648
 40
-17.998413674648
 40
-17.998413674648
 40
-17.998413674648
 40
-16.09560425149966
 40
-15.59561670522802
 40
-15.24525464136658
 40
-14.93778510194153
 40
-14.38000012571135
 40
-13.8045528288532
 40
-13.7194114724837
 40
-13.69553558990248
 40
-13.65912792601814
 40
-13.60905774490473
 40
-13.46128889762961
 40
-13.36235752261686
 40
-13.20201383278377
 40
-13.11671972761913
 40
-13.02748492666677
 40
-12.83348345928601
 40
0.0000000000000004
 40
0.0000000000000004
 40
0.0000000000000004
 40
0.0000000000000004
 10
0.0007732855708156
 20
26.16604007900956
 30
0.0
 10
-0.63349612628393
 20
26.16644488256147
 30
0.0
 10
-1.434426040430552
 20
26.16511407118099
 30
0.0
 10
-2.35223011899707
 20
26.16741625653402
 30
0.0
 10
-2.737861695003048
 20
26.16331784758715
 30
0.0
 10
-3.143819423093682
 20
26.17177688013892
 30
0.0
 10
-3.617637394927065
 20
26.25982167755177
 30
0.0
 10
-4.003166281279704
 20
26.39025256588459
 30
0.0
 10
-4.21258202102792
 20
26.48116934389811
 30
0.0
 10
-4.259129207541378
 20
26.49476018064391
 30
0.0
 10
-4.295797378161737
 20
26.49864015347168
 30
0.0
 10
-4.374347904548294
 20
26.48753953566413
 30
0.0
 10
-4.459434336398004
 20
26.4315831316284
 30
0.0
 10
-4.547504104581151
 20
26.32831314201913
 30
0.0
 10
-4.603782573593264
 20
26.22674327868378
 30
0.0
 10
-4.640545118648902
 20
26.12186406165806
 30
0.0
 10
-4.67507792369895
 20
26.00282974052659
 30
0.0
 10
-4.999361352145129
 20
21.64255180417743
 30
0.0
 10
-5.320974298496296
 20
17.31208065663188
 30
0.0
 10
-5.638066984947301
 20
13.04599015441421
 30
0.0
  0
LINE
  5
41
330
1F
100
AcDbEntity
  8
Default
100
AcDbLine
 10
-5.638066984947301
 20
13.04599015441421
 30
0.0
 11
-5.710593558988856
 21
12.07023466746174
 31
0.0
  0
LINE
  5
42
330
1F
100
AcDbEntity
  8
Default
100
AcDbLine
 10
5.743243432785906
 20
11.63273874670267
 30
0.0
 11
-5.74311203386714
 21
11.63273874670267
 31
0.0
  0
LINE
  5
43
330
1F
100
AcDbEntity
  8
Default
100
AcDbLine
 10
-5.710593558988855
 20
12.07023466746174
 30
0.0
 11
5.710713545902144
 21
12.07025201561406
 31
0.0
  0
SPLINE
  5
44
330
1F
100
AcDbEntity
  8
Default
100
AcDbSpline
210
0.0
220
0.0
230
1.0
 70
     8
 71
     3
 72
    15
 73
    11
 74
     0
 42
0.0000000001
 43
0.0000000001
 40
-0.4773313086657199
 40
-0.4773313086657199
 40
-0.4773313086657199
 40
-0.4773313086657199
 40
-0.4696050120489261
 40
-0.4561629761550173
 40
-0.4202045209458233
 40
-0.350084159564805
 40
-0.2470344762364083
 40
-0.1495644144197567
 40
-0.0941727335867545
 40
0.0
 40
0.0
 40
0.0
 40
0.0
 10
5.710623274666426
 20
12.07025181961245
 30
0.0
 10
5.713011264623207
 20
12.06928960622117
 30
0.0
 10
5.71819430240406
 20
12.06432653476036
 30
0.0
 10
5.731057598102241
 20
12.05044880273398
 30
0.0
 10
5.755538406428885
 20
12.018691232926
 30
0.0
 10
5.793161919551588
 20
11.96034935801915
 30
0.0
 10
5.82282910555236
 20
11.87272924220117
 30
0.0
 10
5.810464033223207
 20
11.78638033866693
 30
0.0
 10
5.780739767033717
 20
11.70973614969371
 30
0.0
 10
5.757088702071821
 20
11.66558142247948
 30
0.0
 10
5.743792970483947
 20
11.63721331347886
 30
0.0
  0
SPLINE
  5
45
330
1F
100
AcDbEntity
  8
Default
100
AcDbSpline
210
0.0
220
0.0
230
1.0
 70
     8
 71
     3
 72
    15
 73
    11
 74
     0
 42
0.0000000001
 43
0.0000000001
 40
0.0
 40
0.0
 40
0.0
 40
0.0
 40
0.0941727335867545
 40
0.1495644144197567
 40
0.2470344762364083
 40
0.350084159564805
 40
0.4202045209458233
 40
0.4561629761550173
 40
0.4696050120489261
 40
0.4773313086657199
 40
0.4773313086657199
 40
0.4773313086657199
 40
0.4773313086657199
 10
-5.744439009033616
 20
11.63723687926889
 30
0.0
 10
-5.75773474062149
 20
11.66560498826951
 30
0.0
 10
-5.781385805583373
 20
11.70975971548374
 30
0.0
 10
-5.811110071772877
 20
11.78640390445696
 30
0.0
 10
-5.823475144102023
 20
11.8727528079912
 30
0.0
 10
-5.793807958101244
 20
11.96037292380918
 30
0.0
 10
-5.756184444978548
 20
12.01871479871603
 30
0.0
 10
-5.731703636651904
 20
12.05047236852401
 30
0.0
 10
-5.718840340953722
 20
12.06435010055039
 30
0.0
 10
-5.713657303172869
 20
12.0693131720112
 30
0.0
 10
-5.711269313216096
 20
12.07027538540248
 30
0.0
  0
LINE
  5
46
330
1F
100
AcDbEntity
  8
Default
100
AcDbLine
 10
-0.0011721731152647
 20
26.79103995172052
 30
0.0
 11
0.0007732855708156
 21
26.16604007900956
 31
0.0
  0
SPLINE
  5
47
330
1F
100
AcDbEntity
  8
Default
100
AcDbSpline
210
0.0
220
0.0
230
1.0
 70
     8
 71
     3
 72
    29
 73
    25
 74
     0
 42
0.0000000001
 43
0.0000000001
 40
0.0000000000000002
 40
0.0000000000000002
 40
0.0000000000000002
 40
0.0000000000000002
 40
6.066940193774146
 40
12.13388038754829
 40
12.55095017960341
 40
12.75948507563097
 40
12.96801997165853
 40
13.17711160611613
 40
13.38620324057373
 40
13.62354179385841
 40
13.86088034714309
 40
13.99837598238468
 40
14.13587161762626
 40
14.54370099266137
 40
14.77242040011374
 40
14.92297018047678
 40
15.0638043849004
 40
15.20930245887739
 40
15.43901132213203
 40
15.84179760717257
 40
16.15381398825747
 40
16.4258901771748
 40
17.11406304497494
 40
18.9344119737509
 40
18.9344119737509
 40
18.9344119737509
 40
18.9344119737509
 10
6.261446531386397
 20
13.09231496662158
 30
0.0
 10
6.111497847271032
 20
15.10906157231053
 30
0.0
 10
5.811586733467067
 20
19.14255291608661
 30
0.0
 10
5.502062631794459
 20
23.31475243489314
 30
0.0
 10
5.33638656596554
 20
25.53942541679364
 30
0.0
 10
5.314393056893707
 20
25.81649302927154
 30
0.0
 10
5.303015998270837
 20
26.02520048589141
 30
0.0
 10
5.263768747944468
 20
26.23095153004367
 30
0.0
 10
5.192526309521838
 20
26.43808659704352
 30
0.0
 10
5.092775241798826
 20
26.64310220267863
 30
0.0
 10
4.966864754259092
 20
26.80589433384441
 30
0.0
 10
4.842245040847324
 20
26.92255144039441
 30
0.0
 10
4.656053790490162
 20
27.05498482395823
 30
0.0
 10
4.403692082783046
 20
27.13532774232413
 30
0.0
 10
4.138200509110476
 20
27.11577685733049
 30
0.0
 10
3.973523699438672
 20
27.06012540095813
 30
0.0
 10
3.840598596399573
 20
27.00203454847139
 30
0.0
 10
3.678794030849694
 20
26.94239747012157
 30
0.0
 10
3.431418396945801
 20
26.86595347269221
 30
0.0
 10
3.121781451737505
 20
26.80072862107701
 30
0.0
 10
2.792725194907874
 20
26.78748539195317
 30
0.0
 10
2.368653744781355
 20
26.79291981562976
 30
0.0
 10
1.441782788284968
 20
26.78979848857649
 30
0.0
 10
0.6056106795644922
 20
26.7914272127951
 30
0.0
 10
-0.0011721731152647
 20
26.79103995172052
 30
0.0
  0
LINE
  5
48
330
1F
100
AcDbEntity
  8
Default
100
AcDbLine
 10
7.21149695925554
 20
0.3145371092026372
 30
0.0
 11
6.261446531386397
 21
13.09231496662158
 31
0.0
  0
LINE
  5
49
330
1F
100
AcDbEntity
  8
Default
100
AcDbLine
 10
-7.211496959255215
 20
0.3145371092026134
 30
0.0
 11
-6.261446531386071
 21
13.09231496662158
 31
0.0
  0
SPLINE
  5
4A
330
1F
100
AcDbEntity
  8
Default
100
AcDbSpline
210
0.0
220
0.0
230
1.0
 70
     8
 71
     3
 72
    29
 73
    25
 74
     0
 42
0.0000000001
 43
0.0000000001
 40
0.0000000000000002
 40
0.0000000000000002
 40
0.0000000000000002
 40
0.0000000000000002
 40
6.066940193774146
 40
12.13388038754829
 40
12.55095017960341
 40
12.75948507563097
 40
12.96801997165853
 40
13.17711160611613
 40
13.38620324057373
 40
13.62354179385841
 40
13.86088034714309
 40
13.99837598238468
 40
14.13587161762626
 40
14.54370099266137
 40
14.77242040011374
 40
14.92297018047678
 40
15.0638043849004
 40
15.20930245887739
 40
15.43901132213203
 40
15.84179760717257
 40
16.15381398825747
 40
16.4258901771748
 40
17.11406304497494
 40
18.9344119737509
 40
18.9344119737509
 40
18.9344119737509
 40
18.9344119737509
 10
-6.261446531386071
 20
13.09231496662158
 30
0.0
 10
-6.111497847270698
 20
15.10906157231053
 30
0.0
 10
-5.81158673346674
 20
19.14255291608661
 30
0.0
 10
-5.502062631794132
 20
23.31475243489314
 30
0.0
 10
-5.336386565965213
 20
25.53942541679364
 30
0.0
 10
-5.31439305689338
 20
25.81649302927154
 30
0.0
 10
-5.30301599827051
 20
26.02520048589141
 30
0.0
 10
-5.263768747944141
 20
26.23095153004367
 30
0.0
 10
-5.192526309521512
 20
26.43808659704352
 30
0.0
 10
-5.092775241798506
 20
26.64310220267863
 30
0.0
 10
-4.966864754258765
 20
26.80589433384441
 30
0.0
 10
-4.84224504084699
 20
26.92255144039441
 30
0.0
 10
-4.656053790489835
 20
27.05498482395823
 30
0.0
 10
-4.403692082782719
 20
27.13532774232413
 30
0.0
 10
-4.138200509110149
 20
27.11577685733049
 30
0.0
 10
-3.973523699438346
 20
27.06012540095813
 30
0.0
 10
-3.840598596399246
 20
27.00203454847139
 30
0.0
 10
-3.678794030849367
 20
26.94239747012157
 30
0.0
 10
-3.431418396945475
 20
26.86595347269221
 30
0.0
 10
-3.121781451737178
 20
26.80072862107701
 30
0.0
 10
-2.792725194907547
 20
26.78748539195317
 30
0.0
 10
-2.368653744781028
 20
26.79291981562976
 30
0.0
 10
-1.441782788284641
 20
26.78979848857649
 30
0.0
 10
-0.6056106795641654
 20
26.7914272127951
 30
0.0
 10
0.0011721731155916
 20
26.79103995172052
 30
0.0
  0
SPLINE
  5
4B
330
1F
100
AcDbEntity
  8
Default
100
AcDbSpline
210
0.0
220
0.0
230
1.0
 70
     8
 71
     3
 72
     8
 73
     4
 74
     0
 42
0.0000000001
 43
0.0000000001
 40
0.0
 40
0.0
 40
0.0
 40
0.0
 40
1.0
 40
1.0
 40
1.0
 40
1.0
 10
6.589213343004026
 20
0.2699241605657985
 30
0.0
 10
6.793467548879569
 20
0.312247459753265
 30
0.0
 10
7.006018235738956
 20
0.3362215458300017
 30
0.0
 10
7.211100118384955
 20
0.3145076033806466
 30
0.0
  0
SPLINE
  5
4C
330
1F
100
AcDbEntity
  8
Default
100
AcDbSpline
210
0.0
220
0.0
230
1.0
 70
    24
 71
     2
 72
     6
 73
     3
 74
     0
 42
0.0000000001
 43
0.0000000001
 40
0.0
 40
0.0
 40
0.0
 40
0.2498880817867645
 40
0.2498880817867645
 40
0.2498880817867645
 10
7.211100118384955
 20
0.3145076033806466
 30
0.0
 10
7.21603082219147
 20
0.189658288210691
 30
0.0
 10
7.220961525997986
 20
0.0648089730407353
 30
0.0
  0
SPLINE
  5
4D
330
1F
100
AcDbEntity
  8
Default
100
AcDbSpline
210
0.0
220
0.0
230
1.0
 70
    12
 71
     2
 72
     8
 73
     5
 74
     0
 42
0.0000000001
 43
0.0000000001
 40
0.0
 40
0.0
 40
0.0
 40
0.0502023043957283
 40
0.0502023043957283
 40
0.1004051590776957
 40
0.1004051590776957
 40
0.1004051590776957
 10
7.220961525997995
 20
0.0648089730407354
 30
0.0
 41
0.9999982818895229
 10
7.221851875290145
 20
0.0383036035750422
 30
0.0
 41
0.9216280142170413
 10
7.203461805838948
 20
0.0191952972082428
 30
0.0
 41
1.0
 10
7.185071517665432
 20
0.0000867635767709
 30
0.0
 41
0.9216271551523864
 10
7.158551721465876
 20
-0.0001111409067116
 30
0.0
 41
1.0
  0
POLYLINE
  5
4E
330
1F
100
AcDbEntity
  8
Default
100
AcDb2dPolyline
 66
     1
 10
0.0
 20
0.0
 30
0.0
  0
VERTEX
  5
4F
330
4E
100
AcDbEntity
  8
Default
100
AcDbVertex
100
AcDb2dVertex
 10
7.158551721465876
 20
-0.0001111409067116
 30
0.0
  0
VERTEX
  5
50
330
4E
100
AcDbEntity
  8
Default
100
AcDbVertex
100
AcDb2dVertex
 10
6.673089150642731
 20
-0.000111140900656
 30
0.0
  0
SEQEND
  5
51
330
4E
100
AcDbEntity
  8
Default
  0
SPLINE
  5
52
330
1F
100
AcDbEntity
  8
Default
100
AcDbSpline
210
0.0
220
0.0
230
1.0
 70
    12
 71
     2
 72
     6
 73
     3
 74
     0
 42
0.0000000001
 43
0.0000000001
 40
0.0
 40
0.0
 40
0.0
 40
0.0900758382528228
 40
0.0900758382528228
 40
0.0900758382528228
 10
6.673089150642731
 20
-0.000111140900656
 30
0.0
 41
1.0
 10
6.618233495161903
 20
-0.000094628394643
 30
0.0
 41
0.7519449461256652
 10
6.611088548371505
 20
0.0550378061571797
 30
0.0
 41
1.0
  0
SPLINE
  5
53
330
1F
100
AcDbEntity
  8
Default
100
AcDbSpline
210
0.0
220
0.0
230
1.0
 70
    24
 71
     2
 72
     6
 73
     3
 74
     0
 42
0.0000000001
 43
0.0000000001
 40
0.0
 40
0.0
 40
0.0
 40
0.2136688076003485
 40
0.2136688076003485
 40
0.2136688076003485
 10
6.611088548371505
 20
0.0550378061571797
 30
0.0
 10
6.600150945687766
 20
0.1624809833614891
 30
0.0
 10
6.589213343004026
 20
0.2699241605657985
 30
0.0
  0
SPLINE
  5
54
330
1F
100
AcDbEntity
  8
Default
100
AcDbSpline
210
0.0
220
0.0
230
1.0
 70
     8
 71
     3
 72
     8
 73
     4
 74
     0
 42
0.0000000001
 43
0.0000000001
 40
0.0
 40
0.0
 40
0.0
 40
0.0
 40
1.0
 40
1.0
 40
1.0
 40
1.0
 10
-6.589213343004026
 20
0.2699241605657985
 30
0.0
 10
-6.793467548879569
 20
0.312247459753265
 30
0.0
 10
-7.006018235738956
 20
0.3362215458300017
 30
0.0
 10
-7.211100118384955
 20
0.3145076033806466
 30
0.0
  0
SPLINE
  5
55
330
1F
100
AcDbEntity
  8
Default
100
AcDbSpline
210
0.0
220
0.0
230
1.0
 70
    24
 71
     2
 72
     6
 73
     3
 74
     0
 42
0.0000000001
 43
0.0000000001
 40
0.0
 40
0.0
 40
0.0
 40
0.2498880817867645
 40
0.2498880817867645
 40
0.2498880817867645
 10
-7.211100118384955
 20
0.3145076033806466
 30
0.0
 10
-7.21603082219147
 20
0.189658288210691
 30
0.0
 10
-7.220961525997986
 20
0.0648089730407353
 30
0.0
  0
SPLINE
  5
56
330
1F
100
AcDbEntity
  8
Default
100
AcDbSpline
210
0.0
220
0.0
230
1.0
 70
    12
 71
     2
 72
     8
 73
     5
 74
     0
 42
0.0000000001
 43
0.0000000001
 40
0.0
 40
0.0
 40
0.0
 40
0.0502023043957283
 40
0.0502023043957283
 40
0.1004051590776957
 40
0.1004051590776957
 40
0.1004051590776957
 10
-7.220961525997995
 20
0.0648089730407354
 30
0.0
 41
0.9999982818895229
 10
-7.221851875290145
 20
0.0383036035750422
 30
0.0
 41
0.9216280142170413
 10
-7.203461805838948
 20
0.0191952972082428
 30
0.0
 41
1.0
 10
-7.185071517665432
 20
0.0000867635767709
 30
0.0
 41
0.9216271551523864
 10
-7.158551721465876
 20
-0.0001111409067116
 30
0.0
 41
1.0
  0
POLYLINE
  5
57
330
1F
100
AcDbEntity
  8
Default
100
AcDb2dPolyline
 66
     1
 10
0.0
 20
0.0
 30
0.0
  0
VERTEX
  5
58
330
57
100
AcDbEntity
  8
Default
100
AcDbVertex
100
AcDb2dVertex
 10
-7.158551721465876
 20
-0.0001111409067116
 30
0.0
  0
VERTEX
  5
59
330
57
100
AcDbEntity
  8
Default
100
AcDbVertex
100
AcDb2dVertex
 10
-6.673089150642731
 20
-0.000111140900656
 30
0.0
  0
SEQEND
  5
5A
330
57
100
AcDbEntity
  8
Default
  0
SPLINE
  5
5B
330
1F
100
AcDbEntity
  8
Default
100
AcDbSpline
210
0.0
220
0.0
230
1.0
 70
    12
 71
     2
 72
     6
 73
     3
 74
     0
 42
0.0000000001
 43
0.0000000001
 40
0.0
 40
0.0
 40
0.0
 40
0.0900758382528228
 40
0.0900758382528228
 40
0.0900758382528228
 10
-6.673089150642731
 20
-0.000111140900656
 30
0.0
 41
1.0
 10
-6.618233495161903
 20
-0.000094628394643
 30
0.0
 41
0.7519449461256652
 10
-6.611088548371505
 20
0.0550378061571797
 30
0.0
 41
1.0
  0
SPLINE
  5
5C
330
1F
100
AcDbEntity
  8
Default
100
AcDbSpline
210
0.0
220
0.0
230
1.0
 70
    24
 71
     2
 72
     6
 73
     3
 74
     0
 42
0.0000000001
 43
0.0000000001
 40
0.0
 40
0.0
 40
0.0
 40
0.2136688076003485
 40
0.2136688076003485
 40
0.2136688076003485
 10
-6.611088548371505
 20
0.0550378061571797
 30
0.0
 10
-6.600150945687766
 20
0.1624809833614891
 30
0.0
 10
-6.589213343004026
 20
0.2699241605657985
 30
0.0
  0
SPLINE
  5
5D
330
1F
100
AcDbEntity
  8
Default
100
AcDbSpline
210
0.0
220
0.0
230
1.0
 70
    12
 71
     3
 72
    17
 73
    13
 74
     0
 42
0.0000000001
 43
0.0000000001
 40
0.0539195519589398
 40
0.0539195519589398
 40
0.0539195519589398
 40
0.0539195519589398
 40
0.1193805208364688
 40
0.1193805208364688
 40
0.1193805208364688
 40
1.327704312944469
 40
1.327704312944469
 40
1.327704312944469
 40
2.02352089767355
 40
2.02352089767355
 40
2.02352089767355
 40
3.02352089767355
 40
3.02352089767355
 40
3.02352089767355
 40
3.02352089767355
 10
7.477224862086992
 20
28.51388096542055
 30
0.0
 41
1.0
 10
7.492062182365108
 20
28.53054937918104
 30
0.0
 41
0.9563979656284117
 10
7.500000000000171
 20
28.55140538890288
 30
0.0
 41
0.9563979656284125
 10
7.500000000000171
 20
28.57372090122783
 30
0.0
 41
1.0
 10
7.500000000000163
 20
28.97649549859716
 30
0.0
 41
1.0
 10
7.500000000000163
 20
29.3792700959665
 30
0.0
 41
1.0
 10
7.500000000000156
 20
29.78204469333583
 30
0.0
 41
1.0
 10
7.500000000000156
 20
30.03490346019717
 30
0.0
 41
0.8450203445374662
 10
7.337914393254222
 20
30.22898028020529
 30
0.0
 41
0.8450203445374663
 10
7.08910309422911
 20
30.27404127726572
 30
0.0
 41
1.0
 10
4.656598035603977
 20
30.71458036743433
 30
0.0
 41
1.0
 10
1.375292286336766
 20
30.70095610449386
 30
0.0
 41
1.0
 10
0.0000000000001634
 20
30.70095610449383
 30
0.0
 41
1.0
  0
SPLINE
  5
5E
330
1F
100
AcDbEntity
  8
Default
100
AcDbSpline
210
0.0
220
0.0
230
1.0
 70
    12
 71
     3
 72
    17
 73
    13
 74
     0
 42
0.0000000001
 43
0.0000000001
 40
-3.02352089767355
 40
-3.02352089767355
 40
-3.02352089767355
 40
-3.02352089767355
 40
-2.02352089767355
 40
-2.02352089767355
 40
-2.02352089767355
 40
-1.327704312944469
 40
-1.327704312944469
 40
-1.327704312944469
 40
-0.1193805208364688
 40
-0.1193805208364688
 40
-0.1193805208364688
 40
-0.0539195519589398
 40
-0.0539195519589398
 40
-0.0539195519589398
 40
-0.0539195519589398
 10
0.0000000000001634
 20
30.70095610449383
 30
0.0
 41
1.0
 10
-1.375292286336439
 20
30.70095610449386
 30
0.0
 41
1.0
 10
-4.65659803560365
 20
30.71458036743433
 30
0.0
 41
1.0
 10
-7.08910309422879
 20
30.27404127726572
 30
0.0
 41
1.0
 10
-7.337914393253897
 20
30.22898028020529
 30
0.0
 41
0.8450203445374663
 10
-7.49999999999983
 20
30.03490346019717
 30
0.0
 41
0.8450203445374662
 10
-7.499999999999829
 20
29.78204469333583
 30
0.0
 41
1.0
 10
-7.499999999999829
 20
29.3792700959665
 30
0.0
 41
1.0
 10
-7.499999999999829
 20
28.97649549859716
 30
0.0
 41
1.0
 10
-7.499999999999844
 20
28.57372090122783
 30
0.0
 41
1.0
 10
-7.499999999999836
 20
28.55140538890288
 30
0.0
 41
0.9563979656284125
 10
-7.492062182364779
 20
28.53054937918104
 30
0.0
 41
0.9563979656284117
 10
-7.477224862086672
 20
28.51388096542055
 30
0.0
 41
1.0
  0
SPLINE
  5
5F
330
1F
100
AcDbEntity
  8
Default
100
AcDbSpline
210
0.0
220
0.0
230
1.0
 70
     8
 71
     3
 72
    16
 73
    12
 74
     0
 42
0.0000000001
 43
0.0000000001
 40
0.0
 40
0.0
 40
0.0
 40
0.0
 40
0.7724591634256136
 40
1.610681312233764
 40
2.619653357575765
 40
2.947272180651869
 40
3.02219649429016
 40
3.306991164367479
 40
3.591658766524612
 40
3.87030206893981
 40
4.147733525010054
 40
4.147733525010054
 40
4.147733525010054
 40
4.147733525010054
 10
-4.903320775181427
 20
26.8643766112868
 30
0.0
 10
-5.155401348970145
 20
26.9170518085497
 30
0.0
 10
-5.679021425446734
 20
27.0353102650937
 30
0.0
 10
-6.524183655603792
 20
27.25663755289825
 30
0.0
 10
-7.216963392743537
 20
27.46945682574718
 30
0.0
 10
-7.664998159286938
 20
27.61424654770809
 30
0.0
 10
-7.874574291794033
 20
27.70746870350763
 30
0.0
 10
-8.018262686953648
 20
27.88601851994559
 30
0.0
 10
-8.0377647468203
 20
28.17779650178515
 30
0.0
 10
-7.893937702030144
 20
28.4350683347975
 30
0.0
 10
-7.714044582689326
 20
28.51350278139407
 30
0.0
 10
-7.620850279971236
 20
28.51388096537944
 30
0.0
  0
SPLINE
  5
60
330
1F
100
AcDbEntity
  8
Default
100
AcDbSpline
210
0.0
220
0.0
230
1.0
 70
    24
 71
     3
 72
     8
 73
     4
 74
     0
 42
0.0000000001
 43
0.0000000001
 40
0.0
 40
0.0
 40
0.0
 40
0.0
 40
15.24170056303521
 40
15.24170056303521
 40
15.24170056303521
 40
15.24170056303521
 10
-7.620850279971236
 20
28.51388096537944
 30
0.0
 10
-2.54028344086403
 20
28.51388096542033
 30
0.0
 10
2.540283398242941
 20
28.51388096542037
 30
0.0
 10
7.620850237350254
 20
28.51388096533855
 30
0.0
  0
SPLINE
  5
61
330
1F
100
AcDbEntity
  8
Default
100
AcDbSpline
210
0.0
220
0.0
230
1.0
 70
     8
 71
     3
 72
    16
 73
    12
 74
     0
 42
0.0000000001
 43
0.0000000001
 40
-4.147733525010054
 40
-4.147733525010054
 40
-4.147733525010054
 40
-4.147733525010054
 40
-3.870302029476182
 40
-3.591658729902178
 40
-3.306991130647664
 40
-3.02219646347426
 40
-2.947272150599937
 40
-2.619653330864407
 40
-1.610681295810414
 40
-0.7724591555492152
 40
0.0
 40
0.0
 40
0.0
 40
0.0
 10
7.620850237350254
 20
28.51388096533855
 30
0.0
 10
7.714044555325984
 20
28.51350279332479
 30
0.0
 10
7.893937694795426
 20
28.43506834773923
 30
0.0
 10
8.037764746820628
 20
28.17779650178515
 30
0.0
 10
8.018262686953975
 20
27.88601851994559
 30
0.0
 10
7.87457429179436
 20
27.70746870350763
 30
0.0
 10
7.664998159287258
 20
27.61424654770809
 30
0.0
 10
7.216963392743871
 20
27.46945682574718
 30
0.0
 10
6.524183655604119
 20
27.25663755289825
 30
0.0
 10
5.679021425447054
 20
27.0353102650937
 30
0.0
 10
5.155401348970479
 20
26.9170518085497
 30
0.0
 10
4.903320775181754
 20
26.8643766112868
 30
0.0
  0
LINE
  5
62
330
1F
100
AcDbEntity
  8
Default
100
AcDbLine
 10
-5.889152604525883
 20
52.35089958777681
 30
0.0
 11
-6.749972147036367
 21
53.21171913049065
 31
0.0
  0
SPLINE
  5
63
330
1F
100
AcDbEntity
  8
Default
100
AcDbSpline
210
0.0
220
0.0
230
1.0
 70
     8
 71
     3
 72
    12
 73
     8
 74
     0
 42
0.0000000001
 43
0.0000000001
 40
0.0
 40
0.0
 40
0.0
 40
0.0
 40
1.0
 40
2.0
 40
3.0
 40
4.0
 40
5.0
 40
5.0
 40
5.0
 40
5.0
 10
-6.749972147036367
 20
53.21171913049065
 30
0.0
 10
-6.796273158768578
 20
53.25783568632146
 30
0.0
 10
-6.858014543645595
 20
53.3804697615772
 30
0.0
 10
-6.824729250983978
 20
53.58356894361695
 30
0.0
 10
-6.679081787816919
 20
53.72882085319027
 30
0.0
 10
-6.475872907550865
 20
53.7615932611407
 30
0.0
 10
-6.353463492774068
 20
53.69943227597793
 30
0.0
 10
-6.307426764236737
 20
53.65305722417406
 30
0.0
  0
LINE
  5
64
330
1F
100
AcDbEntity
  8
Default
100
AcDbLine
 10
-6.307426764236737
 20
53.65305722417406
 30
0.0
 11
-5.447198042944194
 21
52.79282850267808
 31
0.0
  0
SPLINE
  5
65
330
1F
100
AcDbEntity
  8
Default
100
AcDbSpline
210
0.0
220
0.0
230
1.0
 70
    24
 71
     2
 72
     6
 73
     3
 74
     0
 42
0.0000000001
 43
0.0000000001
 40
0.0
 40
0.0
 40
0.0
 40
0.6346334313874138
 40
0.6346334313874138
 40
0.6346334313874138
 10
-5.743220228357174
 20
53.0888320892585
 30
0.0
 10
-5.425903512663467
 20
53.0888320892585
 30
0.0
 10
-5.10858679696976
 20
53.0888320892585
 30
0.0
  0
SPLINE
  5
66
330
1F
100
AcDbEntity
  8
Default
100
AcDbSpline
210
0.0
220
0.0
230
1.0
 70
    12
 71
     2
 72
     6
 73
     3
 74
     0
 42
0.0000000001
 43
0.0000000001
 40
0.0
 40
0.0
 40
0.0
 40
0.3160567679445531
 40
0.3160567679445531
 40
0.3160567679445531
 10
6.840186165137415
 20
53.37260094195712
 30
0.0
 41
1.0
 10
6.883982652292088
 20
53.54096287865304
 30
0.0
 41
0.8680846946717405
 10
6.761088859082729
 20
53.66409284903271
 30
0.0
 41
1.0
  0
SPLINE
  5
67
330
1F
100
AcDbEntity
  8
Default
100
AcDbSpline
210
0.0
220
0.0
230
1.0
 70
    12
 71
     2
 72
     6
 73
     3
 74
     0
 42
0.0000000001
 43
0.0000000001
 40
0.0
 40
0.0
 40
0.0
 40
0.3142581327687826
 40
0.3142581327687826
 40
0.3142581327687826
 10
6.761088859082729
 20
53.66409284903271
 30
0.0
 41
1.0
 10
6.638855370392508
 20
53.78628736242743
 30
0.0
 41
0.8690903913843158
 10
6.471376064267525
 20
53.74358833572836
 30
0.0
 41
1.0
  0
SPLINE
  5
68
330
1F
100
AcDbEntity
  8
Default
100
AcDbSpline
210
0.0
220
0.0
230
1.0
 70
    24
 71
     2
 72
     6
 73
     3
 74
     0
 42
0.0000000001
 43
0.0000000001
 40
0.0
 40
0.0
 40
0.0
 40
0.634558297979869
 40
0.634558297979869
 40
0.634558297979869
 10
-6.185143367925519
 20
52.01234977745433
 30
0.0
 10
-6.185143367925519
 20
52.32962892644426
 30
0.0
 10
-6.185143367925519
 20
52.6469080754342
 30
0.0
  0
SPLINE
  5
69
330
1F
100
AcDbEntity
  8
Default
100
AcDbSpline
210
0.0
220
0.0
230
1.0
 70
    24
 71
     2
 72
     6
 73
     3
 74
     0
 42
0.0000000001
 43
0.0000000001
 40
0.0
 40
0.0
 40
0.0
 40
0.6346334313874138
 40
0.6346334313874138
 40
0.6346334313874138
 10
-6.18547480625058
 20
41.16011519991787
 30
0.0
 10
-6.18547480625058
 20
41.47743191561158
 30
0.0
 10
-6.18547480625058
 20
41.79474863130528
 30
0.0
  0
SPLINE
  5
6A
330
1F
100
AcDbEntity
  8
Default
100
AcDbSpline
210
0.0
220
0.0
230
1.0
 70
    24
 71
     2
 72
     6
 73
     3
 74
     0
 42
0.0000000001
 43
0.0000000001
 40
0.0
 40
0.0
 40
0.0
 40
0.6346334313874138
 40
0.6346334313874138
 40
0.6346334313874138
 10
5.743242083090053
 20
40.71786062202446
 30
0.0
 10
5.425925367396346
 20
40.71786062202446
 30
0.0
 10
5.108608651702639
 20
40.71786062202446
 30
0.0
  0
SPLINE
  5
6B
330
1F
100
AcDbEntity
  8
Default
100
AcDbSpline
210
0.0
220
0.0
230
1.0
 70
    24
 71
     2
 72
     6
 73
     3
 74
     0
 42
0.0000000001
 43
0.0000000001
 40
0.0
 40
0.0
 40
0.0
 40
0.634558297979869
 40
0.634558297979869
 40
0.634558297979869
 10
-5.108992494446408
 20
40.71819206034952
 30
0.0
 10
-5.426271643436342
 20
40.71819206034952
 30
0.0
 10
-5.743550792426277
 20
40.71819206034952
 30
0.0
  0
SPLINE
  5
6C
330
1F
100
AcDbEntity
  8
Default
100
AcDbSpline
210
0.0
220
0.0
230
1.0
 70
    12
 71
     2
 72
    12
 73
     9
 74
     0
 42
0.0000000001
 43
0.0000000001
 40
0.0
 40
0.0
 40
0.0
 40
6.300737456569199
 40
6.300737456569199
 40
12.6014749131384
 40
12.6014749131384
 40
18.9022123697076
 40
18.9022123697076
 40
25.2029498262768
 40
25.2029498262768
 40
25.2029498262768
 10
0.0000096804594216
 20
54.92569365253368
 30
0.0
 41
1.0
 10
3.322975098109926
 20
54.92569416901953
 30
0.0
 41
0.9238795176412412
 10
5.672666661184328
 20
52.57600297115579
 30
0.0
 41
1.0
 10
8.022358224258731
 20
50.22631177329202
 30
0.0
 41
0.9238795176412412
 10
8.02235822425873
 20
46.90334635564149
 30
0.0
 41
1.0
 10
8.022358224258728
 20
43.58038093799094
 30
0.0
 41
0.9238795176412412
 10
5.672666661184321
 20
41.23068974012719
 30
0.0
 41
1.0
 10
3.32297509810992
 20
38.88099854226342
 30
0.0
 41
0.9238795176412412
 10
0.000009680459419
 20
38.88099905874927
 30
0.0
 41
1.0
  0
SPLINE
  5
6D
330
1F
100
AcDbEntity
  8
Default
100
AcDbSpline
210
0.0
220
0.0
230
1.0
 70
    12
 71
     2
 72
    12
 73
     9
 74
     0
 42
0.0000000001
 43
0.0000000001
 40
0.0
 40
0.0
 40
0.0
 40
6.300737456569202
 40
6.300737456569202
 40
12.6014749131384
 40
12.6014749131384
 40
18.90221236970761
 40
18.90221236970761
 40
25.20294982627681
 40
25.20294982627681
 40
25.20294982627681
 10
0.0000096804594136
 20
38.88099905874929
 30
0.0
 41
1.0
 10
-3.322955737191089
 20
38.88099854226343
 30
0.0
 41
0.9238795176412412
 10
-5.672647300265495
 20
41.23068974012719
 30
0.0
 41
1.0
 10
-8.022338863339899
 20
43.58038093799094
 30
0.0
 41
0.9238795176412412
 10
-8.022338863339897
 20
46.90334635564149
 30
0.0
 41
1.0
 10
-8.022338863339895
 20
50.22631177329203
 30
0.0
 41
0.9238795176412412
 10
-5.672647300265488
 20
52.57600297115579
 30
0.0
 41
1.0
 10
-3.322955737191085
 20
54.92569416901953
 30
0.0
 41
0.9238795176412412
 10
0.0000096804594216
 20
54.92569365253368
 30
0.0
 41
1.0
  0
SPLINE
  5
6E
330
1F
100
AcDbEntity
  8
Default
100
AcDbSpline
210
0.0
220
0.0
230
1.0
 70
    12
 71
     2
 72
    12
 73
     9
 74
     0
 42
0.0000000001
 43
0.0000000001
 40
0.0
 40
0.0
 40
0.0
 40
5.890487076912196
 40
5.890487076912196
 40
11.78097415382439
 40
11.78097415382439
 40
17.67146123073659
 40
17.67146123073659
 40
23.56194830764878
 40
23.56194830764878
 40
23.56194830764878
 10
0.000009680450713
 20
54.40334635564147
 30
0.0
 41
1.0
 10
3.106611897005779
 20
54.40334706099389
 30
0.0
 41
0.923879510789378
 10
5.303311640162077
 20
52.20664781659961
 30
0.0
 41
1.0
 10
7.500011383318377
 20
50.00994857220533
 30
0.0
 41
0.923879510789378
 10
7.500011383321981
 20
46.90334635565019
 30
0.0
 41
1.0
 10
7.500011383325587
 20
43.79674413909504
 30
0.0
 41
0.923879510789378
 10
5.303311640174387
 20
41.60004489469567
 30
0.0
 41
1.0
 10
3.10661189702319
 20
39.40334565029629
 30
0.0
 41
0.923879510789378
 10
0.0000096804681267
 20
39.4033463556415
 30
0.0
 41
1.0
  0
SPLINE
  5
6F
330
1F
100
AcDbEntity
  8
Default
100
AcDbSpline
210
0.0
220
0.0
230
1.0
 70
    12
 71
     2
 72
    12
 73
     9
 74
     0
 42
0.0000000001
 43
0.0000000001
 40
0.0
 40
0.0
 40
0.0
 40
5.890487076912201
 40
5.890487076912201
 40
11.7809741538244
 40
11.7809741538244
 40
17.6714612307366
 40
17.6714612307366
 40
23.56194830764881
 40
23.56194830764881
 40
23.56194830764881
 10
0.0000096804681231
 20
39.40334635564148
 30
0.0
 41
1.0
 10
-3.106592536086944
 20
39.40334565028906
 30
0.0
 41
0.923879510789378
 10
-5.303292279243244
 20
41.60004489468335
 30
0.0
 41
1.0
 10
-7.499992022399544
 20
43.79674413907762
 30
0.0
 41
0.923879510789378
 10
-7.49999202240315
 20
46.90334635563278
 30
0.0
 41
1.0
 10
-7.499992022406754
 20
50.00994857218792
 30
0.0
 41
0.923879510789378
 10
-5.303292279255554
 20
52.20664781658731
 30
0.0
 41
1.0
 10
-3.106592536104354
 20
54.40334706098668
 30
0.0
 41
0.923879510789378
 10
0.000009680450713
 20
54.40334635564147
 30
0.0
 41
1.0
  0
SPLINE
  5
70
330
1F
100
AcDbEntity
  8
Default
100
AcDbSpline
210
0.0
220
0.0
230
1.0
 70
    12
 71
     2
 72
     6
 73
     3
 74
     0
 42
0.0000000001
 43
0.0000000001
 40
0.0
 40
0.0
 40
0.0
 40
0.3160567679445531
 40
0.3160567679445531
 40
0.3160567679445531
 10
-6.469243658949196
 20
53.74352159341247
 30
0.0
 41
1.0
 10
-6.637605595645113
 20
53.78731808056713
 30
0.0
 41
0.8680846946717405
 10
-6.760735566024792
 20
53.66442428735778
 30
0.0
 41
1.0
  0
SPLINE
  5
71
330
1F
100
AcDbEntity
  8
Default
100
AcDbSpline
210
0.0
220
0.0
230
1.0
 70
    12
 71
     2
 72
     6
 73
     3
 74
     0
 42
0.0000000001
 43
0.0000000001
 40
0.0
 40
0.0
 40
0.0
 40
0.3142581327687826
 40
0.3142581327687826
 40
0.3142581327687826
 10
-6.760735566024792
 20
53.66442428735778
 30
0.0
 41
1.0
 10
-6.882930079419499
 20
53.54219079866756
 30
0.0
 41
0.8690903913843158
 10
-6.840231052720441
 20
53.37471149254257
 30
0.0
 41
1.0
  0
LINE
  5
72
330
1F
100
AcDbEntity
  8
Default
100
AcDbLine
 10
5.447564159501756
 20
52.79250988753381
 30
0.0
 11
6.308383702215607
 21
53.65332943004429
 31
0.0
  0
SPLINE
  5
73
330
1F
100
AcDbEntity
  8
Default
100
AcDbSpline
210
0.0
220
0.0
230
1.0
 70
     8
 71
     3
 72
    12
 73
     8
 74
     0
 42
0.0000000001
 43
0.0000000001
 40
0.0
 40
0.0
 40
0.0
 40
0.0
 40
1.0
 40
2.0
 40
3.0
 40
4.0
 40
5.0
 40
5.0
 40
5.0
 40
5.0
 10
6.308383702215607
 20
53.65332943004429
 30
0.0
 10
6.354500258046402
 20
53.69963044177651
 30
0.0
 10
6.477134333302149
 20
53.76137182665352
 30
0.0
 10
6.680233515341902
 20
53.7280865339919
 30
0.0
 10
6.825485424915216
 20
53.58243907082485
 30
0.0
 10
6.858257832865661
 20
53.37923019055879
 30
0.0
 10
6.796096847702874
 20
53.25682077578199
 30
0.0
 10
6.749721795899014
 20
53.21078404724466
 30
0.0
  0
LINE
  5
74
330
1F
100
AcDbEntity
  8
Default
100
AcDbLine
 10
6.749721795899014
 20
53.21078404724466
 30
0.0
 11
5.889493074403027
 21
52.35055532595212
 31
0.0
  0
SPLINE
  5
75
330
1F
100
AcDbEntity
  8
Default
100
AcDbSpline
210
0.0
220
0.0
230
1.0
 70
    12
 71
     2
 72
     6
 73
     3
 74
     0
 42
0.0000000001
 43
0.0000000001
 40
0.0
 40
0.0
 40
0.0
 40
0.3160567679445531
 40
0.3160567679445531
 40
0.3160567679445531
 10
-6.840164310404539
 20
40.43409176932585
 30
0.0
 41
1.0
 10
-6.883960797559212
 20
40.26572983262993
 30
0.0
 41
0.8680846946717405
 10
-6.761067004349854
 20
40.14259986225025
 30
0.0
 41
1.0
  0
SPLINE
  5
76
330
1F
100
AcDbEntity
  8
Default
100
AcDbSpline
210
0.0
220
0.0
230
1.0
 70
    12
 71
     2
 72
     6
 73
     3
 74
     0
 42
0.0000000001
 43
0.0000000001
 40
0.0
 40
0.0
 40
0.0
 40
0.3142581327687826
 40
0.3142581327687826
 40
0.3142581327687826
 10
-6.761067004349854
 20
40.14259986225025
 30
0.0
 41
1.0
 10
-6.638833515659631
 20
40.02040534885554
 30
0.0
 41
0.8690903913843158
 10
-6.471354209534649
 20
40.0631043755546
 30
0.0
 41
1.0
  0
SPLINE
  5
77
330
1F
100
AcDbEntity
  8
Default
100
AcDbSpline
210
0.0
220
0.0
230
1.0
 70
    24
 71
     2
 72
     6
 73
     3
 74
     0
 42
0.0000000001
 43
0.0000000001
 40
0.0
 40
0.0
 40
0.0
 40
0.634558297979869
 40
0.634558297979869
 40
0.634558297979869
 10
5.109014349179284
 20
53.08850065093344
 30
0.0
 10
5.426293498169218
 20
53.08850065093344
 30
0.0
 10
5.743572647159152
 20
53.08850065093344
 30
0.0
  0
LINE
  5
78
330
1F
100
AcDbEntity
  8
Default
100
AcDbLine
 10
-5.44754230476888
 20
41.01418282374917
 30
0.0
 11
-6.308361847482731
 21
40.15336328123868
 31
0.0
  0
SPLINE
  5
79
330
1F
100
AcDbEntity
  8
Default
100
AcDbSpline
210
0.0
220
0.0
230
1.0
 70
     8
 71
     3
 72
    12
 73
     8
 74
     0
 42
0.0000000001
 43
0.0000000001
 40
0.0
 40
0.0
 40
0.0
 40
0.0
 40
1.0
 40
2.0
 40
3.0
 40
4.0
 40
5.0
 40
5.0
 40
5.0
 40
5.0
 10
-6.308361847482731
 20
40.15336328123868
 30
0.0
 10
-6.354478403313526
 20
40.10706226950647
 30
0.0
 10
-6.477112478569273
 20
40.04532088462945
 30
0.0
 10
-6.680211660609026
 20
40.07860617729106
 30
0.0
 10
-6.825463570182341
 20
40.22425364045813
 30
0.0
 10
-6.858235978132785
 20
40.42746252072418
 30
0.0
 10
-6.796074992969999
 20
40.54987193550097
 30
0.0
 10
-6.749699941166138
 20
40.5959086640383
 30
0.0
  0
LINE
  5
7A
330
1F
100
AcDbEntity
  8
Default
100
AcDbLine
 10
-6.749699941166138
 20
40.5959086640383
 30
0.0
 11
-5.889471219670151
 21
41.45613738533085
 31
0.0
  0
SPLINE
  5
7B
330
1F
100
AcDbEntity
  8
Default
100
AcDbSpline
210
0.0
220
0.0
230
1.0
 70
    24
 71
     2
 72
     6
 73
     3
 74
     0
 42
0.0000000001
 43
0.0000000001
 40
0.0
 40
0.0
 40
0.0
 40
0.6346334313874138
 40
0.6346334313874138
 40
0.6346334313874138
 10
6.185496660983456
 20
52.64657751136509
 30
0.0
 10
6.185496660983456
 20
52.32926079567139
 30
0.0
 10
6.185496660983456
 20
52.01194407997768
 30
0.0
  0
LINE
  5
7C
330
1F
100
AcDbEntity
  8
Default
100
AcDbLine
 10
5.889174459258761
 20
41.45579312350617
 30
0.0
 11
6.749994001769245
 21
40.59497358079231
 31
0.0
  0
SPLINE
  5
7D
330
1F
100
AcDbEntity
  8
Default
100
AcDbSpline
210
0.0
220
0.0
230
1.0
 70
     8
 71
     3
 72
    12
 73
     8
 74
     0
 42
0.0000000001
 43
0.0000000001
 40
0.0
 40
0.0
 40
0.0
 40
0.0
 40
1.0
 40
2.0
 40
3.0
 40
4.0
 40
5.0
 40
5.0
 40
5.0
 40
5.0
 10
6.749994001769245
 20
40.59497358079231
 30
0.0
 10
6.796295013501457
 20
40.54885702496152
 30
0.0
 10
6.858036398378474
 20
40.42622294970577
 30
0.0
 10
6.824751105716857
 20
40.22312376766602
 30
0.0
 10
6.679103642549798
 20
40.07787185809271
 30
0.0
 10
6.475894762283744
 20
40.04509945014226
 30
0.0
 10
6.353485347506947
 20
40.10726043530505
 30
0.0
 10
6.307448618969616
 20
40.1536354871089
 30
0.0
  0
LINE
  5
7E
330
1F
100
AcDbEntity
  8
Default
100
AcDbLine
 10
6.307448618969616
 20
40.1536354871089
 30
0.0
 11
5.447219897677073
 21
41.0138642086049
 31
0.0
  0
SPLINE
  5
7F
330
1F
100
AcDbEntity
  8
Default
100
AcDbSpline
210
0.0
220
0.0
230
1.0
 70
    12
 71
     2
 72
     6
 73
     3
 74
     0
 42
0.0000000001
 43
0.0000000001
 40
0.0
 40
0.0
 40
0.0
 40
0.3160567679445531
 40
0.3160567679445531
 40
0.3160567679445531
 10
6.469265513682075
 20
40.06317111787051
 30
0.0
 41
1.0
 10
6.637627450377992
 20
40.01937463071584
 30
0.0
 41
0.8680846946717405
 10
6.76075742075767
 20
40.14226842392519
 30
0.0
 41
1.0
  0
SPLINE
  5
80
330
1F
100
AcDbEntity
  8
Default
100
AcDbSpline
210
0.0
220
0.0
230
1.0
 70
    12
 71
     2
 72
     6
 73
     3
 74
     0
 42
0.0000000001
 43
0.0000000001
 40
0.0
 40
0.0
 40
0.0
 40
0.3142581327687826
 40
0.3142581327687826
 40
0.3142581327687826
 10
6.76075742075767
 20
40.14226842392519
 30
0.0
 41
1.0
 10
6.882951934152378
 20
40.26450191261541
 30
0.0
 41
0.8690903913843158
 10
6.840252907453319
 20
40.43198121874039
 30
0.0
 41
1.0
  0
SPLINE
  5
81
330
1F
100
AcDbEntity
  8
Default
100
AcDbSpline
210
0.0
220
0.0
230
1.0
 70
    24
 71
     2
 72
     6
 73
     3
 74
     0
 42
0.0000000001
 43
0.0000000001
 40
0.0
 40
0.0
 40
0.0
 40
0.634558297979869
 40
0.634558297979869
 40
0.634558297979869
 10
6.185165222658398
 20
41.79434293382863
 30
0.0
 10
6.185165222658398
 20
41.4770637848387
 30
0.0
 10
6.185165222658398
 20
41.15978463584877
 30
0.0
  0
ENDSEC
  0
SECTION
  2
OBJECTS
  0
DICTIONARY
  5
C
330
0
100
AcDbDictionary
281
     1
  3
ACAD_GROUP
350
D
  3
ACAD_LAYOUT
350
1A
  3
ACAD_MLEADERSTYLE
350
83
  3
ACAD_MLINESTYLE
350
17
  3
ACAD_PLOTSETTINGS
350
19
  3
ACAD_PLOTSTYLENAME
350
E
  3
ACAD_TABLESTYLE
350
82
  3
ACAD_VISUALSTYLE
350
2A
  0
DICTIONARY
  5
D
102
{ACAD_REACTORS
330
C
102
}
330
C
100
AcDbDictionary
281
     1
  0
DICTIONARY
  5
1A
102
{ACAD_REACTORS
330
C
102
}
330
C
100
AcDbDictionary
281
     1
  3
Layout1
350
1E
  3
Layout2
350
26
  3
Model
350
22
  0
DICTIONARY
  5
83
102
{ACAD_REACTORS
330
C
102
}
330
C
100
AcDbDictionary
281
     1
  0
DICTIONARY
  5
17
102
{ACAD_REACTORS
330
C
102
}
330
C
100
AcDbDictionary
281
     1
  3
Standard
350
18
  0
DICTIONARY
  5
19
102
{ACAD_REACTORS
330
C
102
}
330
C
100
AcDbDictionary
281
     1
  0
ACDBDICTIONARYWDFLT
  5
E
102
{ACAD_REACTORS
330
C
102
}
330
C
100
AcDbDictionary
281
     1
  3
Normal
350
F
100
AcDbDictionaryWithDefault
340
F
  0
DICTIONARY
  5
82
102
{ACAD_REACTORS
330
C
102
}
330
C
100
AcDbDictionary
281
     1
  0
DICTIONARY
  5
2A
102
{ACAD_REACTORS
330
C
102
}
330
C
100
AcDbDictionary
281
     1
  3
2dWireframe
350
2F
  3
3D Hidden
350
31
  3
3dWireframe
350
30
  3
Basic
350
32
  3
Brighten
350
36
  3
ColorChange
350
3A
  3
Conceptual
350
34
  3
Dim
350
35
  3
Facepattern
350
39
  3
Flat
350
2B
  3
FlatWithEdges
350
2C
  3
Gouraud
350
2D
  3
GouraudWithEdges
350
2E
  3
Linepattern
350
38
  3
Realistic
350
33
  3
Thicken
350
37
  0
LAYOUT
  5
1E
102
{ACAD_REACTORS
330
1A
102
}
330
1A
100
AcDbPlotSettings
  1

  2
none_device
  4

  6

 40
0.0
 41
0.0
 42
0.0
 43
0.0
 44
0.0
 45
0.0
 46
0.0
 47
0.0
 48
0.0
 49
0.0
140
0.0
141
0.0
142
1.0
143
1.0
 70
   688
 72
     0
 73
     0
 74
     5
  7

 75
    16
 76
     0
 77
     2
 78
   300
147
1.0
148
0.0
149
0.0
100
AcDbLayout
  1
Layout1
 70
     1
 71
     1
 10
0.0
 20
0.0
 11
12.0
 21
9.0
 12
0.0
 22
0.0
 32
0.0
 14
1.000000000000000E+20
 24
1.000000000000000E+20
 34
1.000000000000000E+20
 15
-1.000000000000000E+20
 25
-1.000000000000000E+20
 35
-1.000000000000000E+20
146
0.0
 13
0.0
 23
0.0
 33
0.0
 16
1.0
 26
0.0
 36
0.0
 17
0.0
 27
1.0
 37
0.0
 76
     0
330
1B
  0
LAYOUT
  5
26
102
{ACAD_REACTORS
330
1A
102
}
330
1A
100
AcDbPlotSettings
  1

  2
none_device
  4

  6

 40
0.0
 41
0.0
 42
0.0
 43
0.0
 44
0.0
 45
0.0
 46
0.0
 47
0.0
 48
0.0
 49
0.0
140
0.0
141
0.0
142
1.0
143
1.0
 70
   688
 72
     0
 73
     0
 74
     5
  7

 75
    16
 76
     0
 77
     2
 78
   300
147
1.0
148
0.0
149
0.0
100
AcDbLayout
  1
Layout2
 70
     1
 71
     2
 10
0.0
 20
0.0
 11
0.0
 21
0.0
 12
0.0
 22
0.0
 32
0.0
 14
0.0
 24
0.0
 34
0.0
 15
0.0
 25
0.0
 35
0.0
146
0.0
 13
0.0
 23
0.0
 33
0.0
 16
1.0
 26
0.0
 36
0.0
 17
0.0
 27
1.0
 37
0.0
 76
     0
330
23
  0
LAYOUT
  5
22
102
{ACAD_REACTORS
330
1A
102
}
330
1A
100
AcDbPlotSettings
  1

  2
none_device
  4

  6

 40
0.0
 41
0.0
 42
0.0
 43
0.0
 44
0.0
 45
0.0
 46
0.0
 47
0.0
 48
0.0
 49
0.0
140
0.0
141
0.0
142
1.0
143
1.0
 70
  1712
 72
     0
 73
     0
 74
     0
  7

 75
     0
 76
     0
 77
     2
 78
   300
147
1.0
148
0.0
149
0.0
100
AcDbLayout
  1
Model
 70
     1
 71
     0
 10
0.0
 20
0.0
 11
12.0
 21
9.0
 12
0.0
 22
0.0
 32
0.0
 14
-8.022338863339897
 24
-0.0001111409067116
 34
0.0
 15
8.02235822425873
 25
54.92569365253368
 35
0.0
146
0.0
 13
0.0
 23
0.0
 33
0.0
 16
1.0
 26
0.0
 36
0.0
 17
0.0
 27
1.0
 37
0.0
 76
     0
330
1F
331
29
  0
MLINESTYLE
  5
18
102
{ACAD_REACTORS
330
17
102
}
330
17
100
AcDbMlineStyle
  2
Standard
 70
     0
  3

 62
   256
 51
90.0
 52
90.0
 71
     2
 49
0.5
 62
   256
  6
BYLAYER
 49
-0.5
 62
   256
  6
BYLAYER
  0
ACDBPLACEHOLDER
  5
F
102
{ACAD_REACTORS
330
E
102
}
330
E
  0
VISUALSTYLE
  5
2F
102
{ACAD_REACTORS
330
2A
102
}
330
2A
100
AcDbVisualStyle
  2
2dWireframe
 70
     4
 71
     0
 72
     2
 73
     0
 90
        0
 40
-0.6
 41
-30.0
 62
     5
 63
     7
421
 16777215
 74
     1
 91
        4
 64
     7
 65
   257
 75
     1
175
     1
 42
1.0
 92
        0
 66
   257
 43
1.0
 76
     1
 77
     6
 78
     2
 67
     7
 79
     5
170
     0
171
     0
290
     0
174
     0
 93
        1
 44
0.0
173
     0
291
     0
 45
0.0
1001
ACAD
1000
AcDbSavedByObjectVersion
1070
     0
  0
VISUALSTYLE
  5
31
102
{ACAD_REACTORS
330
2A
102
}
330
2A
100
AcDbVisualStyle
  2
3D Hidden
 70
     6
 71
     1
 72
     2
 73
     2
 90
        0
 40
-0.6
 41
-30.0
 62
     5
 63
     7
421
 16777215
 74
     2
 91
        2
 64
     7
 65
   257
 75
     2
175
     1
 42
40.0
 92
        0
 66
   257
 43
1.0
 76
     1
 77
     6
 78
     2
 67
     7
 79
     3
170
     0
171
     0
290
     0
174
     0
 93
        1
 44
0.0
173
     0
291
     0
 45
0.0
1001
ACAD
1000
AcDbSavedByObjectVersion
1070
     0
  0
VISUALSTYLE
  5
30
102
{ACAD_REACTORS
330
2A
102
}
330
2A
100
AcDbVisualStyle
  2
3dWireframe
 70
     5
 71
     0
 72
     2
 73
     0
 90
        0
 40
-0.6
 41
-30.0
 62
     5
 63
     7
421
 16777215
 74
     1
 91
        4
 64
     7
 65
   257
 75
     1
175
     1
 42
1.0
 92
        0
 66
   257
 43
1.0
 76
     1
 77
     6
 78
     2
 67
     7
 79
     5
170
     0
171
     0
290
     0
174
     0
 93
        1
 44
0.0
173
     0
291
     0
 45
0.0
1001
ACAD
1000
AcDbSavedByObjectVersion
1070
     0
  0
VISUALSTYLE
  5
32
102
{ACAD_REACTORS
330
2A
102
}
330
2A
100
AcDbVisualStyle
  2
Basic
 70
     7
 71
     1
 72
     0
 73
     1
 90
        0
 40
-0.6
 41
-30.0
 62
     5
 63
     7
421
 16777215
 74
     0
 91
        4
 64
     7
 65
   257
 75
     1
175
     1
 42
1.0
 92
        8
 66
     7
 43
1.0
 76
     1
 77
     6
 78
     2
 67
     7
 79
     5
170
     0
171
     0
290
     0
174
     0
 93
        1
 44
0.0
173
     0
291
     1
 45
0.0
1001
ACAD
1000
AcDbSavedByObjectVersion
1070
     0
  0
VISUALSTYLE
  5
36
102
{ACAD_REACTORS
330
2A
102
}
330
2A
100
AcDbVisualStyle
  2
Brighten
 70
    12
 71
     2
 72
     2
 73
     0
 90
        0
 40
-0.6
 41
-30.0
 62
     5
 63
     7
421
 16777215
 74
     1
 91
        4
 64
     7
 65
   257
 75
     1
175
     1
 42
1.0
 92
        8
 66
     7
 43
1.0
 76
     1
 77
     6
 78
     2
 67
     7
 79
     5
170
     0
171
     0
290
     0
174
     0
 93
        1
 44
50.0
173
     0
291
     1
 45
0.0
1001
ACAD
1000
AcDbSavedByObjectVersion
1070
     0
  0
VISUALSTYLE
  5
3A
102
{ACAD_REACTORS
330
2A
102
}
330
2A
100
AcDbVisualStyle
  2
ColorChange
 70
    16
 71
     2
 72
     2
 73
     3
 90
        0
 40
-0.6
 41
-30.0
 62
     5
 63
     8
421
  8421504
 74
     1
 91
        4
 64
     7
 65
   257
 75
     1
175
     1
 42
1.0
 92
        8
 66
     8
424
  8421504
 43
1.0
 76
     1
 77
     6
 78
     2
 67
     7
 79
     5
170
     0
171
     0
290
     0
174
     0
 93
        1
 44
0.0
173
     0
291
     1
 45
0.0
1001
ACAD
1000
AcDbSavedByObjectVersion
1070
     0
  0
VISUALSTYLE
  5
34
102
{ACAD_REACTORS
330
2A
102
}
330
2A
100
AcDbVisualStyle
  2
Conceptual
 70
     9
 71
     3
 72
     2
 73
     0
 90
        0
 40
-0.6
 41
-30.0
 62
     5
 63
     7
421
 16777215
 74
     2
 91
        2
 64
     7
 65
   257
 75
     1
175
     1
 42
40.0
 92
        8
 66
     7
 43
1.0
 76
     1
 77
     6
 78
     2
 67
     7
 79
     3
170
     0
171
     0
290
     0
174
     0
 93
        1
 44
0.0
173
     0
291
     0
 45
0.0
1001
ACAD
1000
AcDbSavedByObjectVersion
1070
     0
  0
VISUALSTYLE
  5
35
102
{ACAD_REACTORS
330
2A
102
}
330
2A
100
AcDbVisualStyle
  2
Dim
 70
    11
 71
     2
 72
     2
 73
     0
 90
        0
 40
-0.6
 41
-30.0
 62
     5
 63
     7
421
 16777215
 74
     1
 91
        4
 64
     7
 65
   257
 75
     1
175
     1
 42
1.0
 92
        8
 66
     7
 43
1.0
 76
     1
 77
     6
 78
     2
 67
     7
 79
     5
170
     0
171
     0
290
     0
174
     0
 93
        1
 44
-50.0
173
     0
291
     1
 45
0.0
1001
ACAD
1000
AcDbSavedByObjectVersion
1070
     0
  0
VISUALSTYLE
  5
39
102
{ACAD_REACTORS
330
2A
102
}
330
2A
100
AcDbVisualStyle
  2
Facepattern
 70
    15
 71
     2
 72
     2
 73
     0
 90
        0
 40
-0.6
 41
-30.0
 62
     5
 63
     7
421
 16777215
 74
     1
 91
        4
 64
     7
 65
   257
 75
     1
175
     1
 42
1.0
 92
        8
 66
     7
 43
1.0
 76
     1
 77
     6
 78
     2
 67
     7
 79
     5
170
     0
171
     0
290
     0
174
     0
 93
        1
 44
0.0
173
     0
291
     1
 45
0.0
1001
ACAD
1000
AcDbSavedByObjectVersion
1070
     0
  0
VISUALSTYLE
  5
2B
102
{ACAD_REACTORS
330
2A
102
}
330
2A
100
AcDbVisualStyle
  2
Flat
 70
     0
 71
     2
 72
     1
 73
     1
 90
        2
 40
-0.6
 41
30.0
 62
     5
 63
     7
421
 16777215
 74
     0
 91
        4
 64
     7
 65
   257
 75
     1
175
     1
 42
1.0
 92
        8
 66
     7
 43
1.0
 76
     1
 77
     6
 78
     2
 67
     7
 79
     5
170
     0
171
     0
290
     0
174
     0
 93
       13
 44
0.0
173
     0
291
     1
 45
0.0
1001
ACAD
1000
AcDbSavedByObjectVersion
1070
     0
  0
VISUALSTYLE
  5
2C
102
{ACAD_REACTORS
330
2A
102
}
330
2A
100
AcDbVisualStyle
  2
FlatWithEdges
 70
     1
 71
     2
 72
     1
 73
     1
 90
        2
 40
-0.6
 41
30.0
 62
     5
 63
     7
421
 16777215
 74
     1
 91
        4
 64
     7
 65
   257
 75
     1
175
     1
 42
1.0
 92
        0
 66
   257
 43
1.0
 76
     1
 77
     6
 78
     2
 67
     7
 79
     5
170
     0
171
     0
290
     0
174
     0
 93
       13
 44
0.0
173
     0
291
     1
 45
0.0
1001
ACAD
1000
AcDbSavedByObjectVersion
1070
     0
  0
VISUALSTYLE
  5
2D
102
{ACAD_REACTORS
330
2A
102
}
330
2A
100
AcDbVisualStyle
  2
Gouraud
 70
     2
 71
     2
 72
     2
 73
     1
 90
        2
 40
-0.6
 41
30.0
 62
     5
 63
     7
421
 16777215
 74
     0
 91
        4
 64
     7
 65
   257
 75
     1
175
     1
 42
1.0
 92
        0
 66
     7
 43
1.0
 76
     1
 77
     6
 78
     2
 67
     7
 79
     5
170
     0
171
     0
290
     0
174
     0
 93
       13
 44
0.0
173
     0
291
     1
 45
0.0
1001
ACAD
1000
AcDbSavedByObjectVersion
1070
     0
  0
VISUALSTYLE
  5
2E
102
{ACAD_REACTORS
330
2A
102
}
330
2A
100
AcDbVisualStyle
  2
GouraudWithEdges
 70
     3
 71
     2
 72
     2
 73
     1
 90
        2
 40
-0.6
 41
30.0
 62
     5
 63
     7
421
 16777215
 74
     1
 91
        4
 64
     7
 65
   257
 75
     1
175
     1
 42
1.0
 92
        0
 66
   257
 43
1.0
 76
     1
 77
     6
 78
     2
 67
     7
 79
     5
170
     0
171
     0
290
     0
174
     0
 93
       13
 44
0.0
173
     0
291
     1
 45
0.0
1001
ACAD
1000
AcDbSavedByObjectVersion
1070
     0
  0
VISUALSTYLE
  5
38
102
{ACAD_REACTORS
330
2A
102
}
330
2A
100
AcDbVisualStyle
  2
Linepattern
 70
    14
 71
     2
 72
     2
 73
     0
 90
        0
 40
-0.6
 41
-30.0
 62
     5
 63
     7
421
 16777215
 74
     1
 91
        4
 64
     7
 65
   257
 75
     7
175
     7
 42
1.0
 92
        8
 66
     7
 43
1.0
 76
     1
 77
     6
 78
     2
 67
     7
 79
     5
170
     0
171
     0
290
     0
174
     0
 93
        1
 44
0.0
173
     0
291
     1
 45
0.0
1001
ACAD
1000
AcDbSavedByObjectVersion
1070
     0
  0
VISUALSTYLE
  5
33
102
{ACAD_REACTORS
330
2A
102
}
330
2A
100
AcDbVisualStyle
  2
Realistic
 70
     8
 71
     2
 72
     2
 73
     0
 90
        0
 40
-0.6
 41
-30.0
 62
     5
 63
     7
421
 16777215
 74
     1
 91
        0
 64
     7
 65
   257
 75
     1
175
     1
 42
1.0
 92
        8
 66
     8
424
  7895160
 43
1.0
 76
     1
 77
     6
 78
     2
 67
     7
 79
     5
170
     0
171
     0
290
     0
174
     0
 93
       13
 44
0.0
173
     0
291
     0
 45
0.0
1001
ACAD
1000
AcDbSavedByObjectVersion
1070
     0
  0
VISUALSTYLE
  5
37
102
{ACAD_REACTORS
330
2A
102
}
330
2A
100
AcDbVisualStyle
  2
Thicken
 70
    13
 71
     2
 72
     2
 73
     0
 90
        0
 40
-0.6
 41
-30.0
 62
     5
 63
     7
421
 16777215
 74
     1
 91
        4
 64
     7
 65
   257
 75
     1
175
     1
 42
1.0
 92
       12
 66
     7
 43
1.0
 76
     1
 77
     6
 78
     2
 67
     7
 79
     5
170
     0
171
     0
290
     0
174
     0
 93
        1
 44
0.0
173
     0
291
     1
 45
0.0
1001
ACAD
1000
AcDbSavedByObjectVersion
1070
     0
  0
ENDSEC
  0
EOF
