  0
SECTION
  2
HEADER
  9
$ACADVER
  1
AC1018
  9
$ACADMAINTVER
 70
     0
  9
$DWGCODEPAGE
  3
ANSI_1252
  9
$INSBASE
 10
0.0
 20
0.0
 30
0.0
  9
$EXTMIN
 10
-10.43195633604333
 20
0.0000000000141378
 30
0.0
  9
$EXTMAX
 10
47.85428262125117
 20
58.91584559710249
 30
0.0
  9
$LIMMIN
 10
0.0
 20
0.0
  9
$LIMMAX
 10
12.0
 20
9.0
  9
$ORTHOMODE
 70
     0
  9
$REGENMODE
 70
     1
  9
$FILLMODE
 70
     1
  9
$QTEXTMODE
 70
     0
  9
$MIRRTEXT
 70
     1
  9
$LTSCALE
 40
0.0393700787401575
  9
$ATTMODE
 70
     1
  9
$TEXTSIZE
 40
0.2
  9
$TRACEWID
 40
0.05
  9
$TEXTSTYLE
  7
Standard
  9
$CLAYER
  8
Default
  9
$CELTYPE
  6
ByLayer
  9
$CECOLOR
 62
   256
  9
$CELTSCALE
 40
1.0
  9
$DISPSILH
 70
     0
  9
$DIMSCALE
 40
1.0
  9
$DIMASZ
 40
0.18
  9
$DIMEXO
 40
0.0625
  9
$DIMDLI
 40
0.38
  9
$DIMRND
 40
0.0
  9
$DIMDLE
 40
0.0
  9
$DIMEXE
 40
0.18
  9
$DIMTP
 40
0.0
  9
$DIMTM
 40
0.0
  9
$DIMTXT
 40
0.18
  9
$DIMCEN
 40
0.09
  9
$DIMTSZ
 40
0.0
  9
$DIMTOL
 70
     0
  9
$DIMLIM
 70
     0
  9
$DIMTIH
 70
     1
  9
$DIMTOH
 70
     1
  9
$DIMSE1
 70
     0
  9
$DIMSE2
 70
     0
  9
$DIMTAD
 70
     0
  9
$DIMZIN
 70
     0
  9
$DIMBLK
  1

  9
$DIMASO
 70
     1
  9
$DIMSHO
 70
     1
  9
$DIMPOST
  1

  9
$DIMAPOST
  1

  9
$DIMALT
 70
     0
  9
$DIMALTD
 70
     2
  9
$DIMALTF
 40
25.4
  9
$DIMLFAC
 40
1.0
  9
$DIMTOFL
 70
     0
  9
$DIMTVP
 40
0.0
  9
$DIMTIX
 70
     0
  9
$DIMSOXD
 70
     0
  9
$DIMSAH
 70
     0
  9
$DIMBLK1
  1

  9
$DIMBLK2
  1

  9
$DIMSTYLE
  2
Standard
  9
$DIMCLRD
 70
     0
  9
$DIMCLRE
 70
     0
  9
$DIMCLRT
 70
     0
  9
$DIMTFAC
 40
1.0
  9
$DIMGAP
 40
0.09
  9
$DIMJUST
 70
     0
  9
$DIMSD1
 70
     0
  9
$DIMSD2
 70
     0
  9
$DIMTOLJ
 70
     1
  9
$DIMTZIN
 70
     0
  9
$DIMALTZ
 70
     0
  9
$DIMALTTZ
 70
     0
  9
$DIMUPT
 70
     0
  9
$DIMDEC
 70
     4
  9
$DIMTDEC
 70
     4
  9
$DIMALTU
 70
     2
  9
$DIMALTTD
 70
     2
  9
$DIMTXSTY
  7
Standard
  9
$DIMAUNIT
 70
     0
  9
$DIMADEC
 70
     0
  9
$DIMALTRND
 40
0.0
  9
$DIMAZIN
 70
     0
  9
$DIMDSEP
 70
    46
  9
$DIMATFIT
 70
     3
  9
$DIMFRAC
 70
     0
  9
$DIMLDRBLK
  1

  9
$DIMLUNIT
 70
     2
  9
$DIMLWD
 70
    -2
  9
$DIMLWE
 70
    -2
  9
$DIMTMOVE
 70
     2
  9
$LUNITS
 70
     2
  9
$LUPREC
 70
     3
  9
$SKETCHINC
 40
0.1
  9
$FILLETRAD
 40
0.5
  9
$AUNITS
 70
     0
  9
$AUPREC
 70
     0
  9
$MENU
  1
.
  9
$ELEVATION
 40
0.0
  9
$PELEVATION
 40
0.0
  9
$THICKNESS
 40
0.0
  9
$LIMCHECK
 70
     0
  9
$CHAMFERA
 40
0.5
  9
$CHAMFERB
 40
0.5
  9
$CHAMFERC
 40
1.0
  9
$CHAMFERD
 40
0.0
  9
$SKPOLY
 70
     0
  9
$TDCREATE
 40
2456427.471060474
  9
$TDUCREATE
 40
2456427.637727141
  9
$TDUPDATE
 40
2456427.471060486
  9
$TDUUPDATE
 40
2456427.637727153
  9
$TDINDWG
 40
0.0000000116
  9
$TDUSRTIMER
 40
0.0000000116
  9
$USRTIMER
 70
     1
  9
$ANGBASE
 50
0.0
  9
$ANGDIR
 70
     0
  9
$PDMODE
 70
     0
  9
$PDSIZE
 40
0.0
  9
$PLINEWID
 40
0.0
  9
$SPLFRAME
 70
     0
  9
$SPLINETYPE
 70
     6
  9
$SPLINESEGS
 70
     8
  9
$HANDSEED
  5
12C
  9
$SURFTAB1
 70
     6
  9
$SURFTAB2
 70
     6
  9
$SURFTYPE
 70
     6
  9
$SURFU
 70
     6
  9
$SURFV
 70
     6
  9
$UCSBASE
  2

  9
$UCSNAME
  2

  9
$UCSORG
 10
0.0
 20
0.0
 30
0.0
  9
$UCSXDIR
 10
1.0
 20
0.0
 30
0.0
  9
$UCSYDIR
 10
0.0
 20
1.0
 30
0.0
  9
$UCSORTHOREF
  2

  9
$UCSORTHOVIEW
 70
     0
  9
$UCSORGTOP
 10
0.0
 20
0.0
 30
0.0
  9
$UCSORGBOTTOM
 10
0.0
 20
0.0
 30
0.0
  9
$UCSORGLEFT
 10
0.0
 20
0.0
 30
0.0
  9
$UCSORGRIGHT
 10
0.0
 20
0.0
 30
0.0
  9
$UCSORGFRONT
 10
0.0
 20
0.0
 30
0.0
  9
$UCSORGBACK
 10
0.0
 20
0.0
 30
0.0
  9
$PUCSBASE
  2

  9
$PUCSNAME
  2

  9
$PUCSORG
 10
0.0
 20
0.0
 30
0.0
  9
$PUCSXDIR
 10
1.0
 20
0.0
 30
0.0
  9
$PUCSYDIR
 10
0.0
 20
1.0
 30
0.0
  9
$PUCSORTHOREF
  2

  9
$PUCSORTHOVIEW
 70
     0
  9
$PUCSORGTOP
 10
0.0
 20
0.0
 30
0.0
  9
$PUCSORGBOTTOM
 10
0.0
 20
0.0
 30
0.0
  9
$PUCSORGLEFT
 10
0.0
 20
0.0
 30
0.0
  9
$PUCSORGRIGHT
 10
0.0
 20
0.0
 30
0.0
  9
$PUCSORGFRONT
 10
0.0
 20
0.0
 30
0.0
  9
$PUCSORGBACK
 10
0.0
 20
0.0
 30
0.0
  9
$USERI1
 70
     0
  9
$USERI2
 70
     0
  9
$USERI3
 70
     0
  9
$USERI4
 70
     0
  9
$USERI5
 70
     0
  9
$USERR1
 40
0.0
  9
$USERR2
 40
0.0
  9
$USERR3
 40
0.0
  9
$USERR4
 40
0.0
  9
$USERR5
 40
0.0
  9
$WORLDVIEW
 70
     1
  9
$SHADEDGE
 70
     3
  9
$SHADEDIF
 70
    70
  9
$TILEMODE
 70
     1
  9
$MAXACTVP
 70
    64
  9
$PINSBASE
 10
0.0
 20
0.0
 30
0.0
  9
$PLIMCHECK
 70
     0
  9
$PEXTMIN
 10
1.000000000000000E+20
 20
1.000000000000000E+20
 30
1.000000000000000E+20
  9
$PEXTMAX
 10
-1.000000000000000E+20
 20
-1.000000000000000E+20
 30
-1.000000000000000E+20
  9
$PLIMMIN
 10
0.0
 20
0.0
  9
$PLIMMAX
 10
12.0
 20
9.0
  9
$UNITMODE
 70
     0
  9
$VISRETAIN
 70
     1
  9
$PLINEGEN
 70
     0
  9
$PSLTSCALE
 70
     1
  9
$TREEDEPTH
 70
  3020
  9
$CMLSTYLE
  2
Standard
  9
$CMLJUST
 70
     0
  9
$CMLSCALE
 40
1.0
  9
$PROXYGRAPHICS
 70
     1
  9
$MEASUREMENT
 70
     0
  9
$CELWEIGHT
370
    -1
  9
$ENDCAPS
280
     0
  9
$JOINSTYLE
280
     0
  9
$LWDISPLAY
290
     0
  9
$INSUNITS
 70
     1
  9
$HYPERLINKBASE
  1

  9
$STYLESHEET
  1

  9
$XEDIT
290
     1
  9
$CEPSNTYPE
380
     0
  9
$PSTYLEMODE
290
     1
  9
$FINGERPRINTGUID
  2
{5B7E8310-081B-48C2-84AD-6780807BD202}
  9
$VERSIONGUID
  2
{FAEB1C32-E019-11D5-929B-00C0DF256EC4}
  9
$EXTNAMES
290
     1
  9
$PSVPSCALE
 40
0.0
  9
$OLESTARTUP
290
     0
  9
$SORTENTS
280
   127
  9
$INDEXCTL
280
     0
  9
$HIDETEXT
280
     1
  9
$XCLIPFRAME
290
     0
  9
$HALOGAP
280
     0
  9
$OBSCOLOR
 70
   257
  9
$OBSLTYPE
280
     0
  9
$INTERSECTIONDISPLAY
280
     0
  9
$INTERSECTIONCOLOR
 70
   257
  9
$DIMASSOC
280
     2
  9
$PROJECTNAME
  1

  0
ENDSEC
  0
SECTION
  2
CLASSES
  0
CLASS
  1
ACDBDICTIONARYWDFLT
  2
AcDbDictionaryWithDefault
  3
ObjectDBX Classes
 90
        0
 91
        4
280
     0
281
     0
  0
CLASS
  1
VISUALSTYLE
  2
AcDbVisualStyle
  3
ObjectDBX Classes
 90
     4095
 91
        4
280
     0
281
     0
  0
ENDSEC
  0
SECTION
  2
TABLES
  0
TABLE
  2
VPORT
  5
8
330
0
100
AcDbSymbolTable
 70
     1
  0
VPORT
  5
29
330
8
100
AcDbSymbolTableRecord
100
AcDbViewportTableRecord
  2
*Active
 70
     0
 10
0.0
 20
0.0
 11
1.0
 21
1.0
 12
18.71116314260392
 22
29.45792279855831
 13
0.0
 23
0.0
 14
0.5
 24
0.5
 15
0.5
 25
0.5
 16
0.0
 26
0.0
 36
1.0
 17
0.0
 27
0.0
 37
0.0
 40
60.09416250903012
 41
0.9893134583164673
 42
50.0
 43
0.0
 44
0.0
 50
0.0
 51
0.0
 71
     0
 72
   100
 73
     1
 74
     3
 75
     0
 76
     0
 77
     0
 78
     0
281
     0
 65
     1
110
0.0
120
0.0
130
0.0
111
1.0
121
0.0
131
0.0
112
0.0
122
1.0
132
0.0
 79
     0
146
0.0
  0
ENDTAB
  0
TABLE
  2
LTYPE
  5
5
330
0
100
AcDbSymbolTable
 70
     1
  0
LTYPE
  5
14
330
5
100
AcDbSymbolTableRecord
100
AcDbLinetypeTableRecord
  2
ByBlock
 70
     0
  3

 72
    65
 73
     0
 40
0.0
  0
LTYPE
  5
15
330
5
100
AcDbSymbolTableRecord
100
AcDbLinetypeTableRecord
  2
ByLayer
 70
     0
  3

 72
    65
 73
     0
 40
0.0
  0
LTYPE
  5
16
330
5
100
AcDbSymbolTableRecord
100
AcDbLinetypeTableRecord
  2
Continuous
 70
     0
  3
Solid line
 72
    65
 73
     0
 40
0.0
  0
ENDTAB
  0
TABLE
  2
LAYER
  5
2
330
0
100
AcDbSymbolTable
 70
     2
  0
LAYER
  5
10
330
2
100
AcDbSymbolTableRecord
100
AcDbLayerTableRecord
  2
0
 70
     0
 62
     7
  6
Continuous
370
    -3
390
F
  0
LAYER
  5
3B
330
2
100
AcDbSymbolTableRecord
100
AcDbLayerTableRecord
  2
Default
 70
     0
 62
     7
  6
Continuous
370
    -3
390
F
  0
ENDTAB
  0
TABLE
  2
STYLE
  5
3
330
0
100
AcDbSymbolTable
 70
     1
  0
STYLE
  5
11
330
3
100
AcDbSymbolTableRecord
100
AcDbTextStyleTableRecord
  2
Standard
 70
     0
 40
0.0
 41
1.0
 50
0.0
 71
     0
 42
0.2
  3
txt
  4

  0
ENDTAB
  0
TABLE
  2
VIEW
  5
6
330
0
100
AcDbSymbolTable
 70
     0
  0
ENDTAB
  0
TABLE
  2
UCS
  5
7
330
0
100
AcDbSymbolTable
 70
     0
  0
ENDTAB
  0
TABLE
  2
APPID
  5
9
330
0
100
AcDbSymbolTable
 70
     1
  0
APPID
  5
12
330
9
100
AcDbSymbolTableRecord
100
AcDbRegAppTableRecord
  2
ACAD
 70
     0
  0
ENDTAB
  0
TABLE
  2
DIMSTYLE
  5
A
330
0
100
AcDbSymbolTable
 70
     1
100
AcDbDimStyleTable
  0
DIMSTYLE
105
27
330
A
100
AcDbSymbolTableRecord
100
AcDbDimStyleTableRecord
  2
Standard
 70
     0
340
11
  0
ENDTAB
  0
TABLE
  2
BLOCK_RECORD
  5
1
330
0
100
AcDbSymbolTable
 70
     1
  0
BLOCK_RECORD
  5
1F
330
1
100
AcDbSymbolTableRecord
100
AcDbBlockTableRecord
  2
*Model_Space
340
22
  0
BLOCK_RECORD
  5
1B
330
1
100
AcDbSymbolTableRecord
100
AcDbBlockTableRecord
  2
*Paper_Space
340
1E
  0
BLOCK_RECORD
  5
23
330
1
100
AcDbSymbolTableRecord
100
AcDbBlockTableRecord
  2
*Paper_Space0
340
26
  0
ENDTAB
  0
ENDSEC
  0
SECTION
  2
BLOCKS
  0
BLOCK
  5
20
330
1F
100
AcDbEntity
  8
0
100
AcDbBlockBegin
  2
*Model_Space
 70
     0
 10
0.0
 20
0.0
 30
0.0
  3
*Model_Space
  1

  0
ENDBLK
  5
21
330
1F
100
AcDbEntity
  8
0
100
AcDbBlockEnd
  0
BLOCK
  5
1C
330
1B
100
AcDbEntity
 67
     1
  8
0
100
AcDbBlockBegin
  2
*Paper_Space
 70
     0
 10
0.0
 20
0.0
 30
0.0
  3
*Paper_Space
  1

  0
ENDBLK
  5
1D
330
1B
100
AcDbEntity
 67
     1
  8
0
100
AcDbBlockEnd
  0
BLOCK
  5
24
330
23
100
AcDbEntity
  8
0
100
AcDbBlockBegin
  2
*Paper_Space0
 70
     0
 10
0.0
 20
0.0
 30
0.0
  3
*Paper_Space0
  1

  0
ENDBLK
  5
25
330
23
100
AcDbEntity
  8
0
100
AcDbBlockEnd
  0
ENDSEC
  0
SECTION
  2
ENTITIES
  0
SPLINE
  5
3C
330
1F
100
AcDbEntity
  8
Default
100
AcDbSpline
210
0.0
220
0.0
230
1.0
 70
    12
 71
     2
 72
     6
 73
     3
 74
     0
 42
0.0000000001
 43
0.0000000001
 40
0.0
 40
0.0
 40
0.0
 40
0.0311225103432869
 40
0.0311225103432869
 40
0.0311225103432869
 10
-6.001668859549923
 20
43.12278610794808
 30
0.0
 41
1.0
 10
-5.990758383782406
 20
43.13388179093635
 30
0.0
 41
0.9999999999976652
 10
-5.97984790439173
 20
43.14497747036194
 30
0.0
 41
0.999999999995357
  0
SPLINE
  5
3D
330
1F
100
AcDbEntity
  8
Default
100
AcDbSpline
210
0.0
220
0.0
230
1.0
 70
     8
 71
     3
 72
     9
 73
     5
 74
     0
 42
0.0000000001
 43
0.0000000001
 40
-2.0
 40
-2.0
 40
-2.0
 40
-2.0
 40
-1.0
 40
0.0
 40
0.0
 40
0.0
 40
0.0
 10
-6.44075991288743
 20
54.30934718855671
 30
0.0
 10
-6.990164649404951
 20
54.86793020387511
 30
0.0
 10
-8.088968301970098
 20
55.98510222042009
 30
0.0
 10
-9.187864050189013
 20
57.10218342469314
 30
0.0
 10
-9.73723086645829
 20
57.66080375693384
 30
0.0
  0
SPLINE
  5
3E
330
1F
100
AcDbEntity
  8
Default
100
AcDbSpline
210
0.0
220
0.0
230
1.0
 70
     8
 71
     3
 72
    20
 73
    16
 74
     0
 42
0.0000000001
 43
0.0000000001
 40
-13.0
 40
-13.0
 40
-13.0
 40
-13.0
 40
-12.0
 40
-11.0
 40
-10.0
 40
-9.0
 40
-8.0
 40
-7.0
 40
-6.0
 40
-5.0
 40
-4.0
 40
-3.0
 40
-2.0
 40
-1.0
 40
0.0
 40
0.0
 40
0.0
 40
0.0
 10
-9.73723086645829
 20
57.66080375693384
 30
0.0
 10
-9.786142938796031
 20
57.71053970255473
 30
0.0
 10
-9.934570266931313
 20
57.8601332562471
 30
0.0
 10
-10.08389264085223
 20
58.00666541576958
 30
0.0
 10
-10.23089989009837
 20
58.15603074284113
 30
0.0
 10
-10.34646094941213
 20
58.33236950154067
 30
0.0
 10
-10.42345138867844
 20
58.52703331108542
 30
0.0
 10
-10.43458056678336
 20
58.74585440325598
 30
0.0
 10
-10.28703523257876
 20
58.91834287019565
 30
0.0
 10
-10.06505415387161
 20
58.9234199424281
 30
0.0
 10
-9.867610887654571
 20
58.85418956731709
 30
0.0
 10
-9.68794114920995
 20
58.7435404974853
 30
0.0
 10
-9.535509153901682
 20
58.59970811318407
 30
0.0
 10
-9.389727036272344
 20
58.44960526764959
 30
0.0
 10
-9.217712989689334
 20
58.27897108325544
 30
0.0
 10
-9.16797632053115
 20
58.23005830286053
 30
0.0
  0
SPLINE
  5
3F
330
1F
100
AcDbEntity
  8
Default
100
AcDbSpline
210
0.0
220
0.0
230
1.0
 70
     8
 71
     3
 72
     9
 73
     5
 74
     0
 42
0.0000000001
 43
0.0000000001
 40
0.0
 40
0.0
 40
0.0
 40
0.0
 40
1.0
 40
2.0
 40
2.0
 40
2.0
 40
2.0
 10
-9.16797632053115
 20
58.23005830286053
 30
0.0
 10
-8.609355963168616
 20
57.68069150113727
 30
0.0
 10
-7.49227480558558
 20
56.58179574428736
 30
0.0
 10
-6.37510276514449
 20
55.48299208196322
 30
0.0
 10
-5.816519751323355
 20
54.93358734996434
 30
0.0
  0
SPLINE
  5
40
330
1F
100
AcDbEntity
  8
Default
100
AcDbSpline
210
0.0
220
0.0
230
1.0
 70
     8
 71
     3
 72
     9
 73
     5
 74
     0
 42
0.0000000001
 43
0.0000000001
 40
-2.0
 40
-2.0
 40
-2.0
 40
-2.0
 40
-1.0
 40
0.0
 40
0.0
 40
0.0
 40
0.0
 10
6.44075991288743
 20
54.30934718855671
 30
0.0
 10
6.990164649404951
 20
54.86793020387511
 30
0.0
 10
8.088968301970098
 20
55.98510222042009
 30
0.0
 10
9.187864050189013
 20
57.10218342469314
 30
0.0
 10
9.73723086645829
 20
57.66080375693384
 30
0.0
  0
SPLINE
  5
41
330
1F
100
AcDbEntity
  8
Default
100
AcDbSpline
210
0.0
220
0.0
230
1.0
 70
     8
 71
     3
 72
    20
 73
    16
 74
     0
 42
0.0000000001
 43
0.0000000001
 40
-13.0
 40
-13.0
 40
-13.0
 40
-13.0
 40
-12.0
 40
-11.0
 40
-10.0
 40
-9.0
 40
-8.0
 40
-7.0
 40
-6.0
 40
-5.0
 40
-4.0
 40
-3.0
 40
-2.0
 40
-1.0
 40
0.0
 40
0.0
 40
0.0
 40
0.0
 10
9.73723086645829
 20
57.66080375693384
 30
0.0
 10
9.786142938796031
 20
57.71053970255473
 30
0.0
 10
9.934570266931313
 20
57.8601332562471
 30
0.0
 10
10.08389264085223
 20
58.00666541576958
 30
0.0
 10
10.23089989009837
 20
58.15603074284113
 30
0.0
 10
10.34646094941213
 20
58.33236950154067
 30
0.0
 10
10.42345138867844
 20
58.52703331108542
 30
0.0
 10
10.43458056678336
 20
58.74585440325598
 30
0.0
 10
10.28703523257876
 20
58.91834287019565
 30
0.0
 10
10.06505415387161
 20
58.9234199424281
 30
0.0
 10
9.867610887654571
 20
58.85418956731709
 30
0.0
 10
9.68794114920995
 20
58.7435404974853
 30
0.0
 10
9.535509153901682
 20
58.59970811318407
 30
0.0
 10
9.389727036272344
 20
58.44960526764959
 30
0.0
 10
9.217712989689334
 20
58.27897108325544
 30
0.0
 10
9.16797632053115
 20
58.23005830286053
 30
0.0
  0
SPLINE
  5
42
330
1F
100
AcDbEntity
  8
Default
100
AcDbSpline
210
0.0
220
0.0
230
1.0
 70
     8
 71
     3
 72
     9
 73
     5
 74
     0
 42
0.0000000001
 43
0.0000000001
 40
0.0
 40
0.0
 40
0.0
 40
0.0
 40
1.0
 40
2.0
 40
2.0
 40
2.0
 40
2.0
 10
9.16797632053115
 20
58.23005830286053
 30
0.0
 10
8.609355963168616
 20
57.68069150113727
 30
0.0
 10
7.49227480558558
 20
56.58179574428736
 30
0.0
 10
6.37510276514449
 20
55.48299208196322
 30
0.0
 10
5.816519751323355
 20
54.93358734996434
 30
0.0
  0
SPLINE
  5
43
330
1F
100
AcDbEntity
  8
Default
100
AcDbSpline
210
0.0
220
0.0
230
1.0
 70
     8
 71
     3
 72
     9
 73
     5
 74
     0
 42
0.0000000001
 43
0.0000000001
 40
-2.0
 40
-2.0
 40
-2.0
 40
-2.0
 40
-1.0
 40
0.0
 40
0.0
 40
0.0
 40
0.0
 10
6.44075991288743
 20
42.6763076842464
 30
0.0
 10
6.990164649404951
 20
42.117724668928
 30
0.0
 10
8.088968301970098
 20
41.00055265238302
 30
0.0
 10
9.187864050189013
 20
39.88347144810997
 30
0.0
 10
9.73723086645829
 20
39.32485111586927
 30
0.0
  0
SPLINE
  5
44
330
1F
100
AcDbEntity
  8
Default
100
AcDbSpline
210
0.0
220
0.0
230
1.0
 70
     8
 71
     3
 72
    20
 73
    16
 74
     0
 42
0.0000000001
 43
0.0000000001
 40
-13.0
 40
-13.0
 40
-13.0
 40
-13.0
 40
-12.0
 40
-11.0
 40
-10.0
 40
-9.0
 40
-8.0
 40
-7.0
 40
-6.0
 40
-5.0
 40
-4.0
 40
-3.0
 40
-2.0
 40
-1.0
 40
0.0
 40
0.0
 40
0.0
 40
0.0
 10
9.73723086645829
 20
39.32485111586927
 30
0.0
 10
9.786142938796031
 20
39.27511517024838
 30
0.0
 10
9.934570266931313
 20
39.12552161655601
 30
0.0
 10
10.08389264085223
 20
38.97898945703353
 30
0.0
 10
10.23089989009837
 20
38.82962412996198
 30
0.0
 10
10.34646094941213
 20
38.65328537126244
 30
0.0
 10
10.42345138867844
 20
38.45862156171769
 30
0.0
 10
10.43458056678336
 20
38.23980046954713
 30
0.0
 10
10.28703523257876
 20
38.06731200260746
 30
0.0
 10
10.06505415387161
 20
38.06223493037501
 30
0.0
 10
9.867610887654571
 20
38.13146530548602
 30
0.0
 10
9.68794114920995
 20
38.24211437531781
 30
0.0
 10
9.535509153901682
 20
38.38594675961904
 30
0.0
 10
9.389727036272344
 20
38.53604960515352
 30
0.0
 10
9.217712989689334
 20
38.70668378954767
 30
0.0
 10
9.16797632053115
 20
38.75559656994258
 30
0.0
  0
SPLINE
  5
45
330
1F
100
AcDbEntity
  8
Default
100
AcDbSpline
210
0.0
220
0.0
230
1.0
 70
     8
 71
     3
 72
     9
 73
     5
 74
     0
 42
0.0000000001
 43
0.0000000001
 40
0.0
 40
0.0
 40
0.0
 40
0.0
 40
1.0
 40
2.0
 40
2.0
 40
2.0
 40
2.0
 10
9.16797632053115
 20
38.75559656994258
 30
0.0
 10
8.609355963168616
 20
39.30496337166584
 30
0.0
 10
7.49227480558558
 20
40.40385912851575
 30
0.0
 10
6.37510276514449
 20
41.50266279083989
 30
0.0
 10
5.816519751323355
 20
42.05206752283877
 30
0.0
  0
SPLINE
  5
46
330
1F
100
AcDbEntity
  8
Default
100
AcDbSpline
210
0.0
220
0.0
230
1.0
 70
     8
 71
     3
 72
     9
 73
     5
 74
     0
 42
0.0000000001
 43
0.0000000001
 40
-2.0
 40
-2.0
 40
-2.0
 40
-2.0
 40
-1.0
 40
0.0
 40
0.0
 40
0.0
 40
0.0
 10
-6.44075991288743
 20
42.6763076842464
 30
0.0
 10
-6.990164649404951
 20
42.117724668928
 30
0.0
 10
-8.088968301970098
 20
41.00055265238302
 30
0.0
 10
-9.187864050189013
 20
39.88347144810997
 30
0.0
 10
-9.73723086645829
 20
39.32485111586927
 30
0.0
  0
SPLINE
  5
47
330
1F
100
AcDbEntity
  8
Default
100
AcDbSpline
210
0.0
220
0.0
230
1.0
 70
     8
 71
     3
 72
    20
 73
    16
 74
     0
 42
0.0000000001
 43
0.0000000001
 40
-13.0
 40
-13.0
 40
-13.0
 40
-13.0
 40
-12.0
 40
-11.0
 40
-10.0
 40
-9.0
 40
-8.0
 40
-7.0
 40
-6.0
 40
-5.0
 40
-4.0
 40
-3.0
 40
-2.0
 40
-1.0
 40
0.0
 40
0.0
 40
0.0
 40
0.0
 10
-9.73723086645829
 20
39.32485111586927
 30
0.0
 10
-9.786142938796031
 20
39.27511517024838
 30
0.0
 10
-9.934570266931313
 20
39.12552161655601
 30
0.0
 10
-10.08389264085223
 20
38.97898945703353
 30
0.0
 10
-10.23089989009837
 20
38.82962412996198
 30
0.0
 10
-10.34646094941213
 20
38.65328537126244
 30
0.0
 10
-10.42345138867844
 20
38.45862156171769
 30
0.0
 10
-10.43458056678336
 20
38.23980046954713
 30
0.0
 10
-10.28703523257876
 20
38.06731200260746
 30
0.0
 10
-10.06505415387161
 20
38.06223493037501
 30
0.0
 10
-9.867610887654571
 20
38.13146530548602
 30
0.0
 10
-9.68794114920995
 20
38.24211437531781
 30
0.0
 10
-9.535509153901682
 20
38.38594675961904
 30
0.0
 10
-9.389727036272344
 20
38.53604960515352
 30
0.0
 10
-9.217712989689334
 20
38.70668378954767
 30
0.0
 10
-9.16797632053115
 20
38.75559656994258
 30
0.0
  0
SPLINE
  5
48
330
1F
100
AcDbEntity
  8
Default
100
AcDbSpline
210
0.0
220
0.0
230
1.0
 70
     8
 71
     3
 72
     9
 73
     5
 74
     0
 42
0.0000000001
 43
0.0000000001
 40
0.0
 40
0.0
 40
0.0
 40
0.0
 40
1.0
 40
2.0
 40
2.0
 40
2.0
 40
2.0
 10
-9.16797632053115
 20
38.75559656994258
 30
0.0
 10
-8.609355963168616
 20
39.30496337166584
 30
0.0
 10
-7.49227480558558
 20
40.40385912851575
 30
0.0
 10
-6.37510276514449
 20
41.50266279083989
 30
0.0
 10
-5.816519751323355
 20
42.05206752283877
 30
0.0
  0
SPLINE
  5
49
330
1F
100
AcDbEntity
  8
Default
100
AcDbSpline
210
0.0
220
0.0
230
1.0
 70
    12
 71
     2
 72
     6
 73
     3
 74
     0
 42
0.0000000001
 43
0.0000000001
 40
4.761170663444154
 40
4.761170663444154
 40
4.761170663444154
 40
4.792292789997687
 40
4.792292789997687
 40
4.792292789997687
 10
-5.979846662136368
 20
53.84067879150341
 30
0.0
 41
0.9999999999962923
 10
-5.990757662431415
 20
53.85177368955878
 30
0.0
 41
0.9999999999979723
 10
-6.001668675811633
 20
53.86286857474585
 30
0.0
 41
1.0
  0
SPLINE
  5
4A
330
1F
100
AcDbEntity
  8
Default
100
AcDbSpline
210
0.0
220
0.0
230
1.0
 70
    12
 71
     2
 72
     6
 73
     3
 74
     0
 42
0.0000000001
 43
0.0000000001
 40
0.0
 40
0.0
 40
0.0
 40
0.0311222733603082
 40
0.0311222733603082
 40
0.0311222733603082
 10
-5.37004124320471
 20
54.4944962139182
 30
0.0
 41
1.0
 10
-5.358946300982013
 20
54.48358515384864
 30
0.0
 41
0.9999999999961513
 10
-5.347851346617113
 20
54.47267410612593
 30
0.0
 41
0.9999999999926121
  0
SPLINE
  5
4B
330
1F
100
AcDbEntity
  8
Default
100
AcDbSpline
210
0.0
220
0.0
230
1.0
 70
    12
 71
     2
 72
     6
 73
     3
 74
     0
 42
0.0000000001
 43
0.0000000001
 40
0.0
 40
0.0
 40
0.0
 40
0.0311223369417638
 40
0.0311223369417638
 40
0.0311223369417638
 10
-5.370041207934506
 20
42.49115870111043
 30
0.0
 41
1.0
 10
-5.358945587218177
 20
42.50206911654866
 30
0.0
 41
0.9999999999976728
 10
-5.347849970058817
 20
42.51297953560424
 30
0.0
 41
0.9999999999953721
  0
SPLINE
  5
4C
330
1F
100
AcDbEntity
  8
Default
100
AcDbSpline
210
0.0
220
0.0
230
1.0
 70
    12
 71
     2
 72
     8
 73
     5
 74
     0
 42
0.0000000001
 43
0.0000000001
 40
0.0
 40
0.0
 40
0.0
 40
13.63205890972085
 40
13.63205890972085
 40
27.26411781944171
 40
27.26411781944171
 40
27.26411781944171
 10
0.000000000002089
 20
39.81438919639361
 30
0.0
 41
1.0
 10
8.678438240010045
 20
39.81438919639568
 30
0.0
 41
0.7071067811865471
 10
8.678438240007953
 20
48.49282743640364
 30
0.0
 41
1.0
 10
8.678438240005875
 20
57.17126567641159
 30
0.0
 41
0.7071067811865467
 10
-0.0000000000020854
 20
57.1712656764095
 30
0.0
 41
1.0
  0
SPLINE
  5
4D
330
1F
100
AcDbEntity
  8
Default
100
AcDbSpline
210
0.0
220
0.0
230
1.0
 70
    12
 71
     2
 72
     8
 73
     5
 74
     0
 42
0.0000000001
 43
0.0000000001
 40
0.0
 40
0.0
 40
0.0
 40
13.63205890972085
 40
13.63205890972085
 40
27.2641178194417
 40
27.2641178194417
 40
27.2641178194417
 10
-0.0000000000020854
 20
57.1712656764095
 30
0.0
 41
1.0
 10
-8.678438240010035
 20
57.17126567640741
 30
0.0
 41
0.7071067811865477
 10
-8.67843824000795
 20
48.49282743639947
 30
0.0
 41
1.0
 10
-8.678438240005866
 20
39.81438919639152
 30
0.0
 41
0.7071067811865477
 10
0.000000000002089
 20
39.81438919639361
 30
0.0
 41
1.0
  0
SPLINE
  5
4E
330
1F
100
AcDbEntity
  8
Default
100
AcDbSpline
210
0.0
220
0.0
230
1.0
 70
    15
 71
     2
 72
    12
 73
     9
 74
     0
 42
0.0000000001
 43
0.0000000001
 40
0.0
 40
0.0
 40
0.0
 40
12.60147602241891
 40
12.60147602241891
 40
25.20295204483783
 40
25.20295204483783
 40
37.80442806725674
 40
37.80442806725674
 40
50.40590408967565
 40
50.40590408967565
 40
50.40590408967565
 10
-0.0000065155498384
 20
56.51517623328677
 30
0.0
 41
1.0
 10
8.022342281335378
 20
56.51518274883662
 30
0.0
 41
0.7071067811865476
 10
8.022348796885218
 20
48.4928339519514
 30
0.0
 41
1.0
 10
8.02235531243506
 20
40.47048515506618
 30
0.0
 41
0.7071067811865476
 10
0.0000065155498436
 20
40.47047863951634
 30
0.0
 41
1.0
 10
-8.022342281335376
 20
40.47047212396649
 30
0.0
 41
0.7071067811865476
 10
-8.022348796885217
 20
48.49282092085171
 30
0.0
 41
1.0
 10
-8.022355312435057
 20
56.51516971773693
 30
0.0
 41
0.7071067811865476
 10
-0.0000065155498384
 20
56.51517623328677
 30
0.0
 41
1.0
  0
SPLINE
  5
4F
330
1F
100
AcDbEntity
  8
Default
100
AcDbSpline
210
0.0
220
0.0
230
1.0
 70
    15
 71
     2
 72
    12
 73
     9
 74
     0
 42
0.0000000001
 43
0.0000000001
 40
0.0
 40
0.0
 40
0.0
 40
11.78097476525765
 40
11.78097476525765
 40
23.56194953051529
 40
23.56194953051529
 40
35.34292429577294
 40
35.34292429577294
 40
47.12389906103058
 40
47.12389906103058
 40
47.12389906103058
 10
-0.0000065155585496
 20
55.99282893639457
 30
0.0
 41
1.0
 10
7.499994957764686
 20
55.99283597797246
 30
0.0
 41
0.7071067811865476
 10
7.500001999342585
 20
48.49283450464922
 30
0.0
 41
1.0
 10
7.500009040920484
 20
40.99283303132599
 30
0.0
 41
0.7071067811865476
 10
0.0000075675972457
 20
40.99282598974809
 30
0.0
 41
1.0
 10
-7.499993905725992
 20
40.99281894817019
 30
0.0
 41
0.7071067811865476
 10
-7.50000094730389
 20
48.49282042149343
 30
0.0
 41
1.0
 10
-7.50000798888179
 20
55.99282189481666
 30
0.0
 41
0.7071067811865476
 10
-0.0000065155585496
 20
55.99282893639457
 30
0.0
 41
1.0
  0
SPLINE
  5
50
330
1F
100
AcDbEntity
  8
Default
100
AcDbSpline
210
0.0
220
0.0
230
1.0
 70
    12
 71
     2
 72
     6
 73
     3
 74
     0
 42
0.0000000001
 43
0.0000000001
 40
0.0117686935156192
 40
0.0117686935156192
 40
0.0117686935156192
 40
0.1338965989858833
 40
0.1338965989858833
 40
0.1338965989858833
 10
-7.158588035147224
 20
52.11397332713439
 30
0.0
 41
0.9928050207437479
 10
-7.211218706873835
 20
52.07986839733938
 30
0.0
 41
0.9590700849288174
 10
-7.238308912834185
 20
52.02330644383932
 30
0.0
 41
1.0
  0
SPLINE
  5
51
330
1F
100
AcDbEntity
  8
Default
100
AcDbSpline
210
0.0
220
0.0
230
1.0
 70
    12
 71
     2
 72
     8
 73
     5
 74
     0
 42
0.0000000001
 43
0.0000000001
 40
0.0
 40
0.0
 40
0.0
 40
7.870388937238173
 40
7.870388937238173
 40
15.74077787447417
 40
15.74077787447417
 40
15.74077787447417
 10
-7.238308912834185
 20
52.02330644383932
 30
0.0
 41
1.0
 10
-9.115248130217532
 20
48.17514050978799
 30
0.0
 41
0.8829734150930073
 10
-6.97495300185097
 20
44.46698481655785
 30
0.0
 41
1.0
 10
-4.834657873484364
 20
40.75882912332855
 30
0.0
 41
0.8829734150928629
 10
-0.5636525718194392
 20
40.45916999216644
 30
0.0
 41
1.0
  0
SPLINE
  5
52
330
1F
100
AcDbEntity
  8
Default
100
AcDbSpline
210
0.0
220
0.0
230
1.0
 70
    12
 71
     2
 72
     6
 73
     3
 74
     0
 42
0.0000000001
 43
0.0000000001
 40
0.0
 40
0.0
 40
0.0
 40
0.1222860980901102
 40
0.1222860980901102
 40
0.1222860980901102
 10
-0.5636525718194392
 20
40.45916999216644
 30
0.0
 41
1.0
 10
-0.5008863289222656
 20
40.45401890737522
 30
0.0
 41
0.9443660915446895
 10
-0.4448825945448005
 20
40.48282371006039
 30
0.0
 41
0.9647222903891886
  0
SPLINE
  5
53
330
1F
100
AcDbEntity
  8
Default
100
AcDbSpline
210
0.0
220
0.0
230
1.0
 70
    12
 71
     2
 72
     6
 73
     3
 74
     0
 42
0.0000000001
 43
0.0000000001
 40
0.013283267876232
 40
0.013283267876232
 40
0.013283267876232
 40
0.1362421782741509
 40
0.1362421782741509
 40
0.1362421782741509
 10
0.445961747872953
 20
40.48288372009728
 30
0.0
 41
0.9919353035868196
 10
0.5022623005293777
 20
40.45428185331974
 30
0.0
 41
0.9586415098796043
 10
0.565213632950794
 20
40.45927672658614
 30
0.0
 41
1.0
  0
SPLINE
  5
54
330
1F
100
AcDbEntity
  8
Default
100
AcDbSpline
210
0.0
220
0.0
230
1.0
 70
    12
 71
     2
 72
     8
 73
     5
 74
     0
 42
0.0000000001
 43
0.0000000001
 40
0.0
 40
0.0
 40
0.0
 40
7.868615559496922
 40
7.868615559496922
 40
15.73723111899384
 40
15.73723111899384
 40
15.73723111899384
 10
0.565213632950794
 20
40.45927672658614
 30
0.0
 41
1.0
 10
4.835026052812545
 20
40.75968679967432
 30
0.0
 41
0.8830251182217259
 10
6.974848262310562
 20
44.46680228540681
 30
0.0
 41
1.0
 10
9.114670471808566
 20
48.17391777113928
 30
0.0
 41
0.8830251182217265
 10
7.239176672763083
 20
52.02152317223753
 30
0.0
 41
1.0
  0
SPLINE
  5
55
330
1F
100
AcDbEntity
  8
Default
100
AcDbSpline
210
0.0
220
0.0
230
1.0
 70
    12
 71
     2
 72
     6
 73
     3
 74
     0
 42
0.0000000001
 43
0.0000000001
 40
0.0
 40
0.0
 40
0.0
 40
0.1225959064184418
 40
0.1225959064184418
 40
0.1225959064184418
 10
7.239176672763083
 20
52.02152317223753
 30
0.0
 41
1.0
 10
7.211951792345499
 20
52.07823179298162
 30
0.0
 41
0.960969979377698
 10
7.159274936319454
 20
52.11261508281346
 30
0.0
 41
0.9955579475786183
  0
SPLINE
  5
56
330
1F
100
AcDbEntity
  8
Default
100
AcDbSpline
210
0.0
220
0.0
230
1.0
 70
    12
 71
     2
 72
     6
 73
     3
 74
     0
 42
0.0000000001
 43
0.0000000001
 40
0.0
 40
0.0
 40
0.0
 40
0.0094211670328261
 40
0.0094211670328261
 40
0.0094211670328261
 10
6.714159222609783
 20
52.87472860146973
 30
0.0
 41
1.0
 10
6.714084468026003
 20
52.87938613835514
 30
0.0
 41
0.9969965108799085
 10
6.713818699807995
 20
52.88403668728413
 30
0.0
 41
0.9944206388810783
  0
SPLINE
  5
57
330
1F
100
AcDbEntity
  8
Default
100
AcDbSpline
210
0.0
220
0.0
230
1.0
 70
    12
 71
     2
 72
     6
 73
     3
 74
     0
 42
0.0000000001
 43
0.0000000001
 40
0.0094211670328261
 40
0.0094211670328261
 40
0.0094211670328261
 40
0.1323444327869086
 40
0.1323444327869086
 40
0.1323444327869086
 10
6.713818699807995
 20
52.88403668728413
 30
0.0
 41
0.9944206388810783
 10
6.710220479533223
 20
52.94700019575204
 30
0.0
 41
0.9608117879651096
 10
6.67465810656843
 20
52.9990834773004
 30
0.0
 41
1.0
  0
SPLINE
  5
58
330
1F
100
AcDbEntity
  8
Default
100
AcDbSpline
210
0.0
220
0.0
230
1.0
 70
    12
 71
     2
 72
     8
 73
     5
 74
     0
 42
0.0000000001
 43
0.0000000001
 40
0.0
 40
0.0
 40
0.0
 40
7.86861959126793
 40
7.86861959126793
 40
15.73723918253356
 40
15.73723918253356
 40
15.73723918253356
 10
6.67465810656843
 20
52.9990834773004
 30
0.0
 41
1.0
 10
4.279592445913449
 20
56.54664987360577
 30
0.0
 41
0.8830249864055182
 10
-0.0007774777795859
 20
56.54623588349944
 30
0.0
 41
1.0
 10
-4.281147401471879
 20
56.54582189339264
 30
0.0
 41
0.8830249864053663
 10
-6.675526788132736
 20
52.99779227009876
 30
0.0
 41
1.0
  0
SPLINE
  5
59
330
1F
100
AcDbEntity
  8
Default
100
AcDbSpline
210
0.0
220
0.0
230
1.0
 70
    12
 71
     2
 72
     6
 73
     3
 74
     0
 42
0.0000000001
 43
0.0000000001
 40
0.0
 40
0.0
 40
0.0
 40
0.1225327071870427
 40
0.1225327071870427
 40
0.1225327071870427
 10
-6.675526788132736
 20
52.99779227009876
 30
0.0
 41
1.0
 10
-6.710833565674016
 20
52.94581211463674
 30
0.0
 41
0.9618249334825437
 10
-6.714445078723368
 20
52.88307885331787
 30
0.0
 41
0.9957312157002917
  0
SPLINE
  5
5A
330
1F
100
AcDbEntity
  8
Default
100
AcDbSpline
210
0.0
220
0.0
230
1.0
 70
    12
 71
     2
 72
     6
 73
     3
 74
     0
 42
0.0000000001
 43
0.0000000001
 40
5.420481043178389
 40
5.420481043178389
 40
5.420481043178389
 40
5.451604536017916
 40
5.451604536017916
 40
5.451604536017916
 10
5.979846662136701
 20
43.14497608130007
 30
0.0
 41
0.9999999999962922
 10
5.990758141433401
 20
43.13388069617
 30
0.0
 41
0.9999999999979722
 10
6.001669633816451
 20
43.12278532390942
 30
0.0
 41
1.0
  0
SPLINE
  5
5B
330
1F
100
AcDbEntity
  8
Default
100
AcDbSpline
210
0.0
220
0.0
230
1.0
 70
    12
 71
     2
 72
     6
 73
     3
 74
     0
 42
0.0000000001
 43
0.0000000001
 40
0.0
 40
0.0
 40
0.0
 40
0.0311237416119354
 40
0.0311237416119354
 40
0.0311237416119354
 10
5.370042206326378
 20
42.4911577135156
 30
0.0
 41
1.0
 10
5.358946084371189
 20
42.50206862092386
 30
0.0
 41
0.9999999999976651
 10
5.347849965978956
 20
42.51297953195557
 30
0.0
 41
0.9999999999953569
  0
SPLINE
  5
5C
330
1F
100
AcDbEntity
  8
Default
100
AcDbSpline
210
0.0
220
0.0
230
1.0
 70
    12
 71
     2
 72
     6
 73
     3
 74
     0
 42
0.0000000001
 43
0.0000000001
 40
0.0
 40
0.0
 40
0.0
 40
0.0311243604747063
 40
0.0311243604747063
 40
0.0311243604747063
 10
6.00167017617763
 20
53.86287010361618
 30
0.0
 41
1.0
 10
5.990758897311081
 20
53.85177391295304
 30
0.0
 41
0.9999999999998981
 10
5.979847617637001
 20
53.84067772308397
 30
0.0
 41
0.9999999999997974
  0
SPLINE
  5
5D
330
1F
100
AcDbEntity
  8
Default
100
AcDbSpline
210
0.0
220
0.0
230
1.0
 70
    12
 71
     2
 72
     6
 73
     3
 74
     0
 42
0.0000000001
 43
0.0000000001
 40
0.0
 40
0.0
 40
0.0
 40
0.0311243086895068
 40
0.0311243086895068
 40
0.0311243086895068
 10
5.370042613765452
 20
54.49449755422599
 30
0.0
 41
1.0
 10
5.358946290089575
 20
54.48358644756056
 30
0.0
 41
0.9999999999976726
 10
5.34784996997111
 20
54.47267533727732
 30
0.0
 41
0.9999999999953718
  0
SPLINE
  5
5E
330
1F
100
AcDbEntity
  8
Default
100
AcDbSpline
210
0.0
220
0.0
230
1.0
 70
    24
 71
     2
 72
     6
 73
     3
 74
     0
 42
0.0000000001
 43
0.0000000001
 40
0.0
 40
0.0
 40
0.0
 40
0.0401014385929007
 40
0.0401014385929007
 40
0.0401014385929007
 10
1.204382368866504
 20
6.462904669050454
 30
0.0
 10
1.204032435563981
 20
6.482952334525238
 30
0.0
 10
1.203682502261458
 20
6.503000000000021
 30
0.0
  0
LINE
  5
5F
330
1F
100
AcDbEntity
  8
Default
100
AcDbLine
 10
-1.299788735184038
 20
5.694156213727071
 30
0.0
 11
-1.284781832113339
 21
6.463000000000013
 31
0.0
  0
LINE
  5
60
330
1F
100
AcDbEntity
  8
Default
100
AcDbLine
 10
-1.284781832113339
 20
6.463000000000013
 30
0.0
 11
1.292095817399428
 21
6.463000000000013
 31
0.0
  0
LINE
  5
61
330
1F
100
AcDbEntity
  8
Default
100
AcDbLine
 10
1.292095817399428
 20
6.463000000000013
 30
0.0
 11
1.307102720470141
 21
5.694156213727071
 31
0.0
  0
SPLINE
  5
62
330
1F
100
AcDbEntity
  8
Default
100
AcDbSpline
210
0.0
220
0.0
230
1.0
 70
    12
 71
     3
 72
    11
 73
     7
 74
     0
 42
0.0000000001
 43
0.0000000001
 40
-1.0
 40
-1.0
 40
-1.0
 40
-1.0
 40
-0.75000000000032
 40
-0.5000000000001401
 40
-0.2499999999999602
 40
0.0
 40
0.0
 40
0.0
 40
0.0
 10
0.9168376693515938
 20
6.382999045766024
 30
0.0
 41
1.0
 10
0.9177508660286549
 20
6.309011631162427
 30
0.0
 41
1.0
 10
0.9424168944393472
 20
6.156227170012551
 30
0.0
 41
1.0
 10
1.032548852533765
 20
5.941965920377289
 30
0.0
 41
1.0
 10
1.160427736414391
 20
5.771964450750335
 30
0.0
 41
1.0
 10
1.260587616397402
 20
5.707699549616574
 30
0.0
 41
1.0
 10
1.311830047456112
 20
5.692725175023856
 30
0.0
 41
1.0
  0
SPLINE
  5
63
330
1F
100
AcDbEntity
  8
Default
100
AcDbSpline
210
0.0
220
0.0
230
1.0
 70
    24
 71
     2
 72
     6
 73
     3
 74
     0
 42
0.0000000001
 43
0.0000000001
 40
0.0
 40
0.0
 40
0.0
 40
8.866685525010693
 40
8.866685525010693
 40
8.866685525010693
 10
1.311830047456112
 20
5.692725175023856
 30
0.0
 10
5.585358868257231
 20
4.444736992526536
 30
0.0
 10
9.85888768905835
 20
3.196748810029216
 30
0.0
  0
SPLINE
  5
64
330
1F
100
AcDbEntity
  8
Default
100
AcDbSpline
210
0.0
220
0.0
230
1.0
 70
    12
 71
     3
 72
    15
 73
    11
 74
     0
 42
0.0000000001
 43
0.0000000001
 40
-2.981790466646582
 40
-2.981790466646582
 40
-2.981790466646582
 40
-2.981790466646582
 40
-2.616657786617163
 40
-2.192645165643878
 40
-2.102734417348108
 40
-2.004984739545305
 40
-0.0458357933849737
 40
-0.0458357933849737
 40
-0.0458357933849737
 40
0.0
 40
0.0
 40
0.0
 40
0.0
 10
9.85888768905835
 20
3.196748810029216
 30
0.0
 41
1.0
 10
10.00975621046278
 20
3.144520779471575
 30
0.0
 41
1.0
 10
10.21620133446788
 20
2.96598142376593
 30
0.0
 41
1.0
 10
10.32343780803704
 20
2.685804255123775
 30
0.0
 41
1.0
 10
10.35535679059927
 20
2.484521370671054
 30
0.0
 41
1.0
 10
10.38486609296203
 20
1.769312895268122
 30
0.0
 41
1.0
 10
10.40737531199346
 20
1.084304406818143
 30
0.0
 41
1.0
 10
10.42738548414196
 20
0.431254831455157
 30
0.0
 41
1.0
 10
10.42792509079728
 20
0.4141813191650052
 30
0.0
 41
0.8162530315979053
 10
10.41662575203624
 20
0.4014560510364074
 30
0.0
 41
0.8162530315979053
 10
10.39971612558571
 20
0.4000937153915651
 30
0.0
 41
1.0
  0
SPLINE
  5
65
330
1F
100
AcDbEntity
  8
Default
100
AcDbSpline
210
0.0
220
0.0
230
1.0
 70
    12
 71
     3
 72
    19
 73
    15
 74
     0
 42
0.0000000001
 43
0.0000000001
 40
-1.776830323858946
 40
-1.776830323858946
 40
-1.776830323858946
 40
-1.776830323858946
 40
-1.730740559805822
 40
-1.730740559805822
 40
-1.730740559805822
 40
-1.166323066479676
 40
-0.3953525441163947
 40
-0.3329837224435752
 40
-0.146821164453521
 40
-0.066479626133287
 40
0.0
 40
0.0
 40
0.0
 40
7.409842642081587
 40
7.409842642081587
 40
7.409842642081587
 40
7.409842642081587
 10
9.307991341920799
 20
0.4000000001201026
 30
0.0
 41
1.000010664015164
 10
9.29092670864214
 20
0.4001332222571752
 30
0.0
 41
0.8156224804937415
 10
9.278674166354815
 20
0.412011089550992
 30
0.0
 41
0.8156189258220201
 10
9.278011307761375
 20
0.4290634387891377
 30
0.0
 41
1.0
 10
9.272015770039346
 20
0.6171335124673757
 30
0.0
 41
1.0
 10
9.255500015881154
 20
1.061871383443985
 30
0.0
 41
1.0
 10
9.249669360662935
 20
1.527948877959231
 30
0.0
 41
1.0
 10
9.241827655919039
 20
1.867531567168534
 30
0.0
 41
1.0
 10
9.203905947049932
 20
1.974665697475469
 30
0.0
 41
1.0
 10
9.133673968664425
 20
2.060462021586257
 30
0.0
 41
1.0
 10
9.08787517809705
 20
2.083566369208939
 30
0.0
 41
1.0
 10
9.053673614291213
 20
2.090684750335243
 30
0.0
 41
1.0
 10
6.621447991633775
 20
2.56825616005577
 30
0.0
 41
0.999999926815662
 10
4.193278349521488
 20
3.043852428734946
 30
0.0
 41
0.999999926815662
 10
1.754039772265855
 20
3.520469192765969
 30
0.0
 41
1.0
  0
SPLINE
  5
66
330
1F
100
AcDbEntity
  8
Default
100
AcDbSpline
210
0.0
220
0.0
230
1.0
 70
    12
 71
     2
 72
     6
 73
     3
 74
     0
 42
0.0000000001
 43
0.0000000001
 40
-0.9145789757291128
 40
-0.9145789757291128
 40
-0.9145789757291128
 40
0.0
 40
0.0
 40
0.0
 10
1.754039772265855
 20
3.520469192765969
 30
0.0
 41
1.0
 10
1.292149969113699
 20
3.625046535779716
 30
0.0
 41
0.9971288252443241
 10
0.8351096453615128
 20
3.657995578618199
 30
0.0
 41
1.0
  0
SPLINE
  5
67
330
1F
100
AcDbEntity
  8
Default
100
AcDbSpline
210
0.0
220
0.0
230
1.0
 70
    12
 71
     2
 72
     6
 73
     3
 74
     0
 42
0.0000000001
 43
0.0000000001
 40
-0.1809632896943791
 40
-0.1809632896943791
 40
-0.1809632896943791
 40
0.0
 40
0.0
 40
0.0
 10
0.8351096453615128
 20
3.657995578618199
 30
0.0
 41
1.0
 10
0.744550866946602
 20
3.662987693469204
 30
0.0
 41
0.9974315730756723
 10
0.6480691392700493
 20
3.682313990687126
 30
0.0
 41
1.0
  0
SPLINE
  5
68
330
1F
100
AcDbEntity
  8
Default
100
AcDbSpline
210
0.0
220
0.0
230
1.0
 70
    12
 71
     2
 72
     6
 73
     3
 74
     0
 42
0.0000000001
 43
0.0000000001
 40
-0.6434477656097529
 40
-0.6434477656097529
 40
-0.6434477656097529
 40
0.0
 40
0.0
 40
0.0
 10
0.6480691392700493
 20
3.682313990687126
 30
0.0
 41
1.0
 10
0.3265832622257752
 20
3.760045174446677
 30
0.0
 41
0.9940965158983979
 10
0.0036569926430587
 20
3.766820847692415
 30
0.0
 41
1.0
  0
POLYLINE
  5
69
330
1F
100
AcDbEntity
  8
Default
100
AcDb2dPolyline
 66
     1
 10
0.0
 20
0.0
 30
0.0
  0
VERTEX
  5
6A
330
69
100
AcDbEntity
  8
Default
100
AcDbVertex
100
AcDb2dVertex
 10
10.41397778391095
 20
0.3999999999454623
 30
0.0
  0
VERTEX
  5
6B
330
69
100
AcDbEntity
  8
Default
100
AcDbVertex
100
AcDb2dVertex
 10
9.294224427874283
 20
0.3999999999601238
 30
0.0
  0
SEQEND
  5
6C
330
69
100
AcDbEntity
  8
Default
  0
SPLINE
  5
6D
330
1F
100
AcDbEntity
  8
Default
100
AcDbSpline
210
0.0
220
0.0
230
1.0
 70
    12
 71
     2
 72
     6
 73
     3
 74
     0
 42
0.0000000001
 43
0.0000000001
 40
0.0
 40
0.0
 40
0.0
 40
0.0234509349460152
 40
0.0234509349460152
 40
0.0234509349460152
 10
9.294224427874283
 20
0.3999999999601238
 30
0.0
 41
1.0
 10
9.27966266581947
 20
0.3994296958625432
 30
0.0
 41
0.7311049470194118
 10
9.279226457141434
 20
0.3848484327136488
 30
0.0
 41
1.0
  0
SPLINE
  5
6E
330
1F
100
AcDbEntity
  8
Default
100
AcDbSpline
210
0.0
220
0.0
230
1.0
 70
    24
 71
     2
 72
     6
 73
     3
 74
     0
 42
0.0000000001
 43
0.0000000001
 40
0.0
 40
0.0
 40
0.0
 40
0.2302029156997716
 40
0.2302029156997716
 40
0.2302029156997716
 10
9.279226457141434
 20
0.3848484327136488
 30
0.0
 10
9.280506338654149
 20
0.2696526866620697
 30
0.0
 10
9.281786220166865
 20
0.1544569406104906
 30
0.0
  0
SPLINE
  5
6F
330
1F
100
AcDbEntity
  8
Default
100
AcDbSpline
210
0.0
220
0.0
230
1.0
 70
    12
 71
     2
 72
     6
 73
     3
 74
     0
 42
0.0000000001
 43
0.0000000001
 40
0.0
 40
0.0
 40
0.0
 40
0.2433059460872006
 40
0.2433059460872006
 40
0.2433059460872006
 10
9.281786220166865
 20
0.1544569406104906
 30
0.0
 41
1.0
 10
9.283498022443133
 20
0.0000041307138962
 30
0.0
 41
0.7110160985064136
 10
9.437772389763197
 20
0.0000000000141378
 30
0.0
 41
1.0
  0
LINE
  5
70
330
1F
100
AcDbEntity
  8
Default
100
AcDbLine
 10
9.437772389763197
 20
0.0000000000141378
 30
0.0
 11
10.28341865110175
 21
0.0000000000280538
 31
0.0
  0
SPLINE
  5
71
330
1F
100
AcDbEntity
  8
Default
100
AcDbSpline
210
0.0
220
0.0
230
1.0
 70
    12
 71
     2
 72
     8
 73
     5
 74
     0
 42
0.0000000001
 43
0.0000000001
 40
0.0
 40
0.0
 40
0.0
 40
0.1260117615689853
 40
0.1260117615689853
 40
0.2520235231379707
 40
0.2520235231379707
 40
0.2520235231379707
 10
10.28341865110175
 20
0.0000000000280538
 30
0.0
 41
1.0
 10
10.35010605513236
 20
0.0000187838016934
 30
0.0
 41
0.9195801389452859
 10
10.39617791611053
 20
0.0482076413338472
 30
0.0
 41
1.0
 10
10.4422497770887
 20
0.096396498866001
 30
0.0
 41
0.9195801389452859
 10
10.43927032132508
 20
0.1631126379907634
 30
0.0
 41
1.0
  0
SPLINE
  5
72
330
1F
100
AcDbEntity
  8
Default
100
AcDbSpline
210
0.0
220
0.0
230
1.0
 70
    12
 71
     2
 72
     6
 73
     3
 74
     0
 42
0.0000000001
 43
0.0000000001
 40
0.0
 40
0.0
 40
0.0
 40
0.2227059867082511
 40
0.2227059867082511
 40
0.2227059867082511
 10
10.43927032132508
 20
0.1631126379907634
 30
0.0
 41
1.0
 10
10.43410735980046
 20
0.2744594309887787
 30
0.0
 41
0.999999998781251
 10
10.42895556626749
 20
0.3857268171168863
 30
0.0
 41
1.0
  0
SPLINE
  5
73
330
1F
100
AcDbEntity
  8
Default
100
AcDbSpline
210
0.0
220
0.0
230
1.0
 70
    12
 71
     2
 72
     6
 73
     3
 74
     0
 42
0.0000000001
 43
0.0000000001
 40
0.0
 40
0.0
 40
0.0
 40
0.0225621385862125
 40
0.0225621385862125
 40
0.0225621385862125
 10
10.42895556626749
 20
0.3857268171168863
 30
0.0
 41
1.0
 10
10.42770813367495
 20
0.39944547381019
 30
0.0
 41
0.7518431492968729
 10
10.41397778391095
 20
0.3999999999454623
 30
0.0
 41
1.0
  0
SPLINE
  5
74
330
1F
100
AcDbEntity
  8
Default
100
AcDbSpline
210
0.0
220
0.0
230
1.0
 70
    12
 71
     3
 72
    11
 73
     7
 74
     0
 42
0.0000000001
 43
0.0000000001
 40
-1.0
 40
-1.0
 40
-1.0
 40
-1.0
 40
-0.75000000000032
 40
-0.5000000000001401
 40
-0.2499999999999602
 40
0.0
 40
0.0
 40
0.0
 40
0.0
 10
-0.9095236840654906
 20
6.382999045766024
 30
0.0
 41
1.0
 10
-0.9104368807425516
 20
6.309011631162427
 30
0.0
 41
1.0
 10
-0.9351029091532439
 20
6.156227170012551
 30
0.0
 41
1.0
 10
-1.025234867247647
 20
5.941965920377289
 30
0.0
 41
1.0
 10
-1.153113751128288
 20
5.771964450750335
 30
0.0
 41
1.0
 10
-1.253273631111284
 20
5.707699549616574
 30
0.0
 41
1.0
 10
-1.304516062170009
 20
5.692725175023856
 30
0.0
 41
1.0
  0
SPLINE
  5
75
330
1F
100
AcDbEntity
  8
Default
100
AcDbSpline
210
0.0
220
0.0
230
1.0
 70
    24
 71
     2
 72
     6
 73
     3
 74
     0
 42
0.0000000001
 43
0.0000000001
 40
0.0
 40
0.0
 40
0.0
 40
8.866685525010693
 40
8.866685525010693
 40
8.866685525010693
 10
-1.304516062170009
 20
5.692725175023856
 30
0.0
 10
-5.578044882971128
 20
4.444736992526536
 30
0.0
 10
-9.851573703772246
 20
3.196748810029216
 30
0.0
  0
SPLINE
  5
76
330
1F
100
AcDbEntity
  8
Default
100
AcDbSpline
210
0.0
220
0.0
230
1.0
 70
    12
 71
     3
 72
    15
 73
    11
 74
     0
 42
0.0000000001
 43
0.0000000001
 40
-2.981790466646582
 40
-2.981790466646582
 40
-2.981790466646582
 40
-2.981790466646582
 40
-2.616657786617163
 40
-2.192645165643878
 40
-2.102734417348108
 40
-2.004984739545305
 40
-0.0458357933849737
 40
-0.0458357933849737
 40
-0.0458357933849737
 40
0.0
 40
0.0
 40
0.0
 40
0.0
 10
-9.851573703772246
 20
3.196748810029216
 30
0.0
 41
1.0
 10
-10.00244222517668
 20
3.144520779471575
 30
0.0
 41
1.0
 10
-10.20888734918177
 20
2.96598142376593
 30
0.0
 41
1.0
 10
-10.31612382275094
 20
2.685804255123775
 30
0.0
 41
1.0
 10
-10.34804280531317
 20
2.484521370671054
 30
0.0
 41
1.0
 10
-10.37755210767592
 20
1.769312895268122
 30
0.0
 41
1.0
 10
-10.40006132670734
 20
1.084304406818143
 30
0.0
 41
1.0
 10
-10.42007149885586
 20
0.431254831455157
 30
0.0
 41
1.0
 10
-10.42061110551117
 20
0.4141813191650052
 30
0.0
 41
0.8162530315979053
 10
-10.40931176675013
 20
0.4014560510364074
 30
0.0
 41
0.8162530315979053
 10
-10.39240214029961
 20
0.4000937153915651
 30
0.0
 41
1.0
  0
SPLINE
  5
77
330
1F
100
AcDbEntity
  8
Default
100
AcDbSpline
210
0.0
220
0.0
230
1.0
 70
    12
 71
     3
 72
    19
 73
    15
 74
     0
 42
0.0000000001
 43
0.0000000001
 40
-1.776830323858946
 40
-1.776830323858946
 40
-1.776830323858946
 40
-1.776830323858946
 40
-1.730740559805822
 40
-1.730740559805822
 40
-1.730740559805822
 40
-1.166323066479676
 40
-0.3953525441163947
 40
-0.3329837224435752
 40
-0.146821164453521
 40
-0.066479626133287
 40
0.0
 40
0.0
 40
0.0
 40
7.409842642081587
 40
7.409842642081587
 40
7.409842642081587
 40
7.409842642081587
 10
-9.300677356634688
 20
0.4000000001201026
 30
0.0
 41
1.000010664015164
 10
-9.283612723356024
 20
0.4001332222571752
 30
0.0
 41
0.8156224804937415
 10
-9.271360181068703
 20
0.412011089550992
 30
0.0
 41
0.8156189258220201
 10
-9.270697322475272
 20
0.4290634387891377
 30
0.0
 41
1.0
 10
-9.264701784753242
 20
0.6171335124673757
 30
0.0
 41
1.0
 10
-9.24818603059505
 20
1.061871383443985
 30
0.0
 41
1.0
 10
-9.242355375376832
 20
1.527948877959231
 30
0.0
 41
1.0
 10
-9.234513670632936
 20
1.867531567168534
 30
0.0
 41
1.0
 10
-9.19659196176383
 20
1.974665697475469
 30
0.0
 41
1.0
 10
-9.126359983378322
 20
2.060462021586257
 30
0.0
 41
1.0
 10
-9.080561192810933
 20
2.083566369208939
 30
0.0
 41
1.0
 10
-9.04635962900511
 20
2.090684750335243
 30
0.0
 41
1.0
 10
-6.614134006347665
 20
2.56825616005577
 30
0.0
 41
0.999999926815662
 10
-4.185964364235378
 20
3.043852428734946
 30
0.0
 41
0.999999926815662
 10
-1.746725786979738
 20
3.520469192765969
 30
0.0
 41
1.0
  0
SPLINE
  5
78
330
1F
100
AcDbEntity
  8
Default
100
AcDbSpline
210
0.0
220
0.0
230
1.0
 70
    12
 71
     2
 72
     6
 73
     3
 74
     0
 42
0.0000000001
 43
0.0000000001
 40
-0.9145789757291128
 40
-0.9145789757291128
 40
-0.9145789757291128
 40
0.0
 40
0.0
 40
0.0
 10
-1.746725786979738
 20
3.520469192765969
 30
0.0
 41
1.0
 10
-1.284835983827597
 20
3.625046535779716
 30
0.0
 41
0.9971288252443241
 10
-0.8277956600754095
 20
3.657995578618199
 30
0.0
 41
1.0
  0
SPLINE
  5
79
330
1F
100
AcDbEntity
  8
Default
100
AcDbSpline
210
0.0
220
0.0
230
1.0
 70
    12
 71
     2
 72
     6
 73
     3
 74
     0
 42
0.0000000001
 43
0.0000000001
 40
-0.1809632896943791
 40
-0.1809632896943791
 40
-0.1809632896943791
 40
0.0
 40
0.0
 40
0.0
 10
-0.8277956600754095
 20
3.657995578618199
 30
0.0
 41
1.0
 10
-0.7372368816604912
 20
3.662987693469204
 30
0.0
 41
0.9974315730756723
 10
-0.640755153983946
 20
3.682313990687126
 30
0.0
 41
1.0
  0
SPLINE
  5
7A
330
1F
100
AcDbEntity
  8
Default
100
AcDbSpline
210
0.0
220
0.0
230
1.0
 70
    12
 71
     2
 72
     6
 73
     3
 74
     0
 42
0.0000000001
 43
0.0000000001
 40
-0.6434477656097529
 40
-0.6434477656097529
 40
-0.6434477656097529
 40
0.0
 40
0.0
 40
0.0
 10
-0.640755153983946
 20
3.682313990687126
 30
0.0
 41
1.0
 10
-0.3192692769396612
 20
3.760045174446677
 30
0.0
 41
0.9940965158983979
 10
0.0036569926430587
 20
3.766820847692415
 30
0.0
 41
1.0
  0
POLYLINE
  5
7B
330
1F
100
AcDbEntity
  8
Default
100
AcDb2dPolyline
 66
     1
 10
0.0
 20
0.0
 30
0.0
  0
VERTEX
  5
7C
330
7B
100
AcDbEntity
  8
Default
100
AcDbVertex
100
AcDb2dVertex
 10
-10.40666379862485
 20
0.3999999999454623
 30
0.0
  0
VERTEX
  5
7D
330
7B
100
AcDbEntity
  8
Default
100
AcDbVertex
100
AcDb2dVertex
 10
-9.28691044258818
 20
0.3999999999601238
 30
0.0
  0
SEQEND
  5
7E
330
7B
100
AcDbEntity
  8
Default
  0
SPLINE
  5
7F
330
1F
100
AcDbEntity
  8
Default
100
AcDbSpline
210
0.0
220
0.0
230
1.0
 70
    12
 71
     2
 72
     6
 73
     3
 74
     0
 42
0.0000000001
 43
0.0000000001
 40
0.0
 40
0.0
 40
0.0
 40
0.0234509349460152
 40
0.0234509349460152
 40
0.0234509349460152
 10
-9.28691044258818
 20
0.3999999999601238
 30
0.0
 41
1.0
 10
-9.272348680533357
 20
0.3994296958625432
 30
0.0
 41
0.7311049470194118
 10
-9.27191247185533
 20
0.3848484327136488
 30
0.0
 41
1.0
  0
SPLINE
  5
80
330
1F
100
AcDbEntity
  8
Default
100
AcDbSpline
210
0.0
220
0.0
230
1.0
 70
    24
 71
     2
 72
     6
 73
     3
 74
     0
 42
0.0000000001
 43
0.0000000001
 40
0.0
 40
0.0
 40
0.0
 40
0.2302029156997716
 40
0.2302029156997716
 40
0.2302029156997716
 10
-9.27191247185533
 20
0.3848484327136488
 30
0.0
 10
-9.273192353368046
 20
0.2696526866620697
 30
0.0
 10
-9.274472234880761
 20
0.1544569406104906
 30
0.0
  0
SPLINE
  5
81
330
1F
100
AcDbEntity
  8
Default
100
AcDbSpline
210
0.0
220
0.0
230
1.0
 70
    12
 71
     2
 72
     6
 73
     3
 74
     0
 42
0.0000000001
 43
0.0000000001
 40
0.0
 40
0.0
 40
0.0
 40
0.2433059460872006
 40
0.2433059460872006
 40
0.2433059460872006
 10
-9.274472234880761
 20
0.1544569406104906
 30
0.0
 41
1.0
 10
-9.276184037157027
 20
0.0000041307138962
 30
0.0
 41
0.7110160985064136
 10
-9.430458404477093
 20
0.0000000000141378
 30
0.0
 41
1.0
  0
LINE
  5
82
330
1F
100
AcDbEntity
  8
Default
100
AcDbLine
 10
-9.430458404477093
 20
0.0000000000141378
 30
0.0
 11
-10.27610466581564
 21
0.0000000000280538
 31
0.0
  0
SPLINE
  5
83
330
1F
100
AcDbEntity
  8
Default
100
AcDbSpline
210
0.0
220
0.0
230
1.0
 70
    12
 71
     2
 72
     8
 73
     5
 74
     0
 42
0.0000000001
 43
0.0000000001
 40
0.0
 40
0.0
 40
0.0
 40
0.1260117615689853
 40
0.1260117615689853
 40
0.2520235231379707
 40
0.2520235231379707
 40
0.2520235231379707
 10
-10.27610466581564
 20
0.0000000000280538
 30
0.0
 41
1.0
 10
-10.34279206984626
 20
0.0000187838016934
 30
0.0
 41
0.9195801389452859
 10
-10.38886393082443
 20
0.0482076413338472
 30
0.0
 41
1.0
 10
-10.43493579180258
 20
0.096396498866001
 30
0.0
 41
0.9195801389452859
 10
-10.43195633603898
 20
0.1631126379907634
 30
0.0
 41
1.0
  0
SPLINE
  5
84
330
1F
100
AcDbEntity
  8
Default
100
AcDbSpline
210
0.0
220
0.0
230
1.0
 70
    12
 71
     2
 72
     6
 73
     3
 74
     0
 42
0.0000000001
 43
0.0000000001
 40
0.0
 40
0.0
 40
0.0
 40
0.2227059867082511
 40
0.2227059867082511
 40
0.2227059867082511
 10
-10.43195633603898
 20
0.1631126379907634
 30
0.0
 41
1.0
 10
-10.42679337451436
 20
0.2744594309887787
 30
0.0
 41
0.999999998781251
 10
-10.42164158098139
 20
0.3857268171168863
 30
0.0
 41
1.0
  0
SPLINE
  5
85
330
1F
100
AcDbEntity
  8
Default
100
AcDbSpline
210
0.0
220
0.0
230
1.0
 70
    12
 71
     2
 72
     6
 73
     3
 74
     0
 42
0.0000000001
 43
0.0000000001
 40
0.0
 40
0.0
 40
0.0
 40
0.0225621385862125
 40
0.0225621385862125
 40
0.0225621385862125
 10
-10.42164158098139
 20
0.3857268171168863
 30
0.0
 41
1.0
 10
-10.42039414838885
 20
0.39944547381019
 30
0.0
 41
0.7518431492968729
 10
-10.40666379862485
 20
0.3999999999454623
 30
0.0
 41
1.0
  0
SPLINE
  5
86
330
1F
100
AcDbEntity
  8
Default
100
AcDbSpline
210
0.0
220
0.0
230
1.0
 70
    24
 71
     2
 72
     6
 73
     3
 74
     0
 42
0.0000000001
 43
0.0000000001
 40
0.0
 40
0.0
 40
0.0
 40
0.0401014385929007
 40
0.0401014385929007
 40
0.0401014385929007
 10
-1.197068383580387
 20
6.462904669050454
 30
0.0
 10
-1.196718450277871
 20
6.482952334525238
 30
0.0
 10
-1.196368516975355
 20
6.503000000000021
 30
0.0
  0
SPLINE
  5
87
330
1F
100
AcDbEntity
  8
Default
100
AcDbSpline
210
0.0
220
0.0
230
1.0
 70
    12
 71
     2
 72
     6
 73
     3
 74
     0
 42
0.0000000001
 43
0.0000000001
 40
-0.3420516372259224
 40
-0.3420516372259224
 40
-0.3420516372259224
 40
0.0
 40
0.0
 40
0.0
 10
8.362599576295892
 20
11.77300000000003
 30
0.0
 41
1.0
 10
8.56643611332887
 20
11.7729360890644
 30
0.0
 41
0.7751522767319682
 10
8.60749185139592
 20
11.57327696884704
 30
0.0
 41
1.0
  0
SPLINE
  5
88
330
1F
100
AcDbEntity
  8
Default
100
AcDbSpline
210
0.0
220
0.0
230
1.0
 70
    12
 71
     2
 72
     6
 73
     3
 74
     0
 42
0.0000000001
 43
0.0000000001
 40
-0.6455488671731082
 40
-0.6455488671731082
 40
-0.6455488671731082
 40
0.0
 40
0.0
 40
0.0
 10
8.60749185139592
 20
11.57327696884704
 30
0.0
 41
1.0
 10
8.672589099198605
 20
11.25619771931959
 30
0.0
 41
0.9957505983657335
 10
8.678430098558806
 20
10.93255781930903
 30
0.0
 41
1.0
  0
SPLINE
  5
89
330
1F
100
AcDbEntity
  8
Default
100
AcDbSpline
210
0.0
220
0.0
230
1.0
 70
     8
 71
     3
 72
     8
 73
     4
 74
     0
 42
0.0000000001
 43
0.0000000001
 40
0.0
 40
0.0
 40
0.0
 40
0.0
 40
1.0
 40
1.0
 40
1.0
 40
1.0
 10
8.678430098558806
 20
10.93255781930903
 30
0.0
 10
8.679109936131837
 20
10.89488916869128
 30
0.0
 10
8.650202989500727
 20
10.85491164723357
 30
0.0
 10
8.616547465110258
 20
10.83797957422137
 30
0.0
  0
SPLINE
  5
8A
330
1F
100
AcDbEntity
  8
Default
100
AcDbSpline
210
0.0
220
0.0
230
1.0
 70
    24
 71
     2
 72
     6
 73
     3
 74
     0
 42
0.0000000001
 43
0.0000000001
 40
-0.5282062900802154
 40
-0.5282062900802154
 40
-0.5282062900802154
 40
0.0
 40
0.0
 40
0.0
 10
8.616547465110258
 20
10.83797957422137
 30
0.0
 10
8.380619646033175
 20
10.71928443781888
 30
0.0
 10
8.144691826956091
 20
10.60058930141639
 30
0.0
  0
SPLINE
  5
8B
330
1F
100
AcDbEntity
  8
Default
100
AcDbSpline
210
0.0
220
0.0
230
1.0
 70
     8
 71
     3
 72
     8
 73
     4
 74
     0
 42
0.0000000001
 43
0.0000000001
 40
0.0
 40
0.0
 40
0.0
 40
0.0
 40
1.0
 40
1.0
 40
1.0
 40
1.0
 10
8.144691826956091
 20
10.60058930141639
 30
0.0
 10
8.13602671222884
 20
10.59622988768334
 30
0.0
 10
8.126078661307844
 20
10.59386867989503
 30
0.0
 10
8.1163787282497
 20
10.59386867989503
 30
0.0
  0
POLYLINE
  5
8C
330
1F
100
AcDbEntity
  8
Default
100
AcDb2dPolyline
 66
     1
 10
0.0
 20
0.0
 30
0.0
  0
VERTEX
  5
8D
330
8C
100
AcDbEntity
  8
Default
100
AcDbVertex
100
AcDb2dVertex
 10
8.1163787282497
 20
10.59386867989503
 30
0.0
  0
VERTEX
  5
8E
330
8C
100
AcDbEntity
  8
Default
100
AcDbVertex
100
AcDb2dVertex
 10
0.568058340046818
 20
10.59386867989503
 30
0.0
  0
SEQEND
  5
8F
330
8C
100
AcDbEntity
  8
Default
  0
SPLINE
  5
90
330
1F
100
AcDbEntity
  8
Default
100
AcDbSpline
210
0.0
220
0.0
230
1.0
 70
     8
 71
     3
 72
     8
 73
     4
 74
     0
 42
0.0000000001
 43
0.0000000001
 40
0.0
 40
0.0
 40
0.0
 40
0.0
 40
1.0
 40
1.0
 40
1.0
 40
1.0
 10
0.568058340046818
 20
10.59386867989503
 30
0.0
 10
0.4768176713974981
 20
10.59386867989503
 30
0.0
 10
0.3147491456483493
 20
10.575198185086
 30
0.0
 10
0.3173564019183885
 20
10.48399477599227
 30
0.0
  0
LINE
  5
91
330
1F
100
AcDbEntity
  8
Default
100
AcDbLine
 10
0.3173564019183885
 20
10.48399477599227
 30
0.0
 11
0.3571211419356359
 21
9.092999999999668
 31
0.0
  0
ARC
  5
92
330
1F
100
AcDbEntity
  8
Default
100
AcDbCircle
 10
-218.8531850275464
 20
2.822871523077489
 30
0.0
 40
219.2999608801497
100
AcDbArc
 50
1.311504589706112
 51
1.638399122484187
  0
SPLINE
  5
93
330
1F
100
AcDbEntity
  8
Default
100
AcDbSpline
210
0.0
220
0.0
230
1.0
 70
     8
 71
     3
 72
     8
 73
     4
 74
     0
 42
0.0000000001
 43
0.0000000001
 40
0.0
 40
0.0
 40
0.0
 40
0.0
 40
1.0
 40
1.0
 40
1.0
 40
1.0
 10
0.389326655878051
 20
7.842225343904866
 30
0.0
 10
0.3909762366264999
 20
7.770172597789864
 30
0.0
 10
0.3754058671929954
 20
7.698539917034305
 30
0.0
 10
0.3617123610420663
 20
7.627781120912177
 30
0.0
  0
SPLINE
  5
94
330
1F
100
AcDbEntity
  8
Default
100
AcDbSpline
210
0.0
220
0.0
230
1.0
 70
    12
 71
     3
 72
    12
 73
     8
 74
     0
 42
0.0000000001
 43
0.0000000001
 40
-1.0
 40
-1.0
 40
-1.0
 40
-1.0
 40
-0.7500117976938739
 40
-0.7500117976938739
 40
-0.5000773685227505
 40
-0.5000773685227505
 40
0.0
 40
0.0
 40
0.0
 40
0.0
 10
0.3617123610420663
 20
7.627781120912177
 30
0.0
 41
1.0
 10
0.3534121306581142
 20
7.584891133276409
 30
0.0
 41
1.0
 10
0.3428990241193759
 20
7.541182029316163
 30
0.0
 41
1.0
 10
0.3117838028734923
 20
7.454435056867291
 30
0.0
 41
1.0
 10
0.2911405101512798
 20
7.411059513276841
 30
0.0
 41
1.0
 10
0.2004219738061295
 20
7.306948223150249
 30
0.0
 41
1.0
 10
0.1056950685711797
 20
7.275454149297301
 30
0.0
 41
1.0
 10
-0.0000000000000853
 20
7.274073601106993
 30
0.0
 41
1.0
  0
SPLINE
  5
95
330
1F
100
AcDbEntity
  8
Default
100
AcDbSpline
210
0.0
220
0.0
230
1.0
 70
    12
 71
     3
 72
    12
 73
     8
 74
     0
 42
0.0000000001
 43
0.0000000001
 40
0.0
 40
0.0
 40
0.0
 40
0.0
 40
0.5000773685227505
 40
0.5000773685227505
 40
0.7500117976938739
 40
0.7500117976938739
 40
1.0
 40
1.0
 40
1.0
 40
1.0
 10
-0.0000000000000853
 20
7.274073601106993
 30
0.0
 41
1.0
 10
-0.1056950685713502
 20
7.275454149297301
 30
0.0
 41
1.0
 10
-0.2004219738063142
 20
7.306948223150249
 30
0.0
 41
1.0
 10
-0.2911405101514646
 20
7.411059513276841
 30
0.0
 41
1.0
 10
-0.3117838028736912
 20
7.454435056867291
 30
0.0
 41
1.0
 10
-0.3428990241195606
 20
7.541182029316163
 30
0.0
 41
1.0
 10
-0.3534121306583131
 20
7.584891133276409
 30
0.0
 41
1.0
 10
-0.361712361042251
 20
7.627781120912177
 30
0.0
 41
1.0
  0
SPLINE
  5
96
330
1F
100
AcDbEntity
  8
Default
100
AcDbSpline
210
0.0
220
0.0
230
1.0
 70
     8
 71
     3
 72
     8
 73
     4
 74
     0
 42
0.0000000001
 43
0.0000000001
 40
-1.0
 40
-1.0
 40
-1.0
 40
-1.0
 40
0.0
 40
0.0
 40
0.0
 40
0.0
 10
-0.361712361042251
 20
7.627781120912177
 30
0.0
 10
-0.3754058671931944
 20
7.698539917034305
 30
0.0
 10
-0.3909762366266847
 20
7.770172597789864
 30
0.0
 10
-0.38932665587825
 20
7.842225343904866
 30
0.0
  0
ARC
  5
97
330
1F
100
AcDbEntity
  8
Default
100
AcDbCircle
 10
218.8531850275463
 20
2.822871523077489
 30
0.0
 40
219.2999608801497
100
AcDbArc
 50
178.3616008775161
 51
178.6884954102942
  0
LINE
  5
98
330
1F
100
AcDbEntity
  8
Default
100
AcDbLine
 10
-0.3571211419358349
 20
9.092999999999668
 30
0.0
 11
-0.3173564019185733
 21
10.48399477599227
 31
0.0
  0
SPLINE
  5
99
330
1F
100
AcDbEntity
  8
Default
100
AcDbSpline
210
0.0
220
0.0
230
1.0
 70
     8
 71
     3
 72
     8
 73
     4
 74
     0
 42
0.0000000001
 43
0.0000000001
 40
-1.0
 40
-1.0
 40
-1.0
 40
-1.0
 40
0.0
 40
0.0
 40
0.0
 40
0.0
 10
-0.3173564019185733
 20
10.48399477599227
 30
0.0
 10
-0.3147491456485341
 20
10.575198185086
 30
0.0
 10
-0.4768176713976686
 20
10.59386867989503
 30
0.0
 10
-0.5680583400470027
 20
10.59386867989503
 30
0.0
  0
POLYLINE
  5
9A
330
1F
100
AcDbEntity
  8
Default
100
AcDb2dPolyline
 66
     1
 10
0.0
 20
0.0
 30
0.0
  0
VERTEX
  5
9B
330
9A
100
AcDbEntity
  8
Default
100
AcDbVertex
100
AcDb2dVertex
 10
-0.5680583400470027
 20
10.59386867989503
 30
0.0
  0
VERTEX
  5
9C
330
9A
100
AcDbEntity
  8
Default
100
AcDbVertex
100
AcDb2dVertex
 10
-8.116378728249884
 20
10.59386867989503
 30
0.0
  0
SEQEND
  5
9D
330
9A
100
AcDbEntity
  8
Default
  0
SPLINE
  5
9E
330
1F
100
AcDbEntity
  8
Default
100
AcDbSpline
210
0.0
220
0.0
230
1.0
 70
     8
 71
     3
 72
     8
 73
     4
 74
     0
 42
0.0000000001
 43
0.0000000001
 40
-1.0
 40
-1.0
 40
-1.0
 40
-1.0
 40
0.0
 40
0.0
 40
0.0
 40
0.0
 10
-8.116378728249884
 20
10.59386867989503
 30
0.0
 10
-8.126078661308028
 20
10.59386867989503
 30
0.0
 10
-8.136026712229025
 20
10.59622988768334
 30
0.0
 10
-8.144691826956276
 20
10.60058930141639
 30
0.0
  0
SPLINE
  5
9F
330
1F
100
AcDbEntity
  8
Default
100
AcDbSpline
210
0.0
220
0.0
230
1.0
 70
    24
 71
     2
 72
     6
 73
     3
 74
     0
 42
0.0000000001
 43
0.0000000001
 40
0.0
 40
0.0
 40
0.0
 40
0.5282062900802154
 40
0.5282062900802154
 40
0.5282062900802154
 10
-8.144691826956276
 20
10.60058930141639
 30
0.0
 10
-8.38061964603336
 20
10.71928443781888
 30
0.0
 10
-8.616547465110443
 20
10.83797957422137
 30
0.0
  0
SPLINE
  5
A0
330
1F
100
AcDbEntity
  8
Default
100
AcDbSpline
210
0.0
220
0.0
230
1.0
 70
     8
 71
     3
 72
     8
 73
     4
 74
     0
 42
0.0000000001
 43
0.0000000001
 40
-1.0
 40
-1.0
 40
-1.0
 40
-1.0
 40
0.0
 40
0.0
 40
0.0
 40
0.0
 10
-8.616547465110443
 20
10.83797957422137
 30
0.0
 10
-8.650202989500912
 20
10.85491164723357
 30
0.0
 10
-8.679109936132022
 20
10.89488916869128
 30
0.0
 10
-8.67843009855899
 20
10.93255781930903
 30
0.0
  0
SPLINE
  5
A1
330
1F
100
AcDbEntity
  8
Default
100
AcDbSpline
210
0.0
220
0.0
230
1.0
 70
    12
 71
     2
 72
     6
 73
     3
 74
     0
 42
0.0000000001
 43
0.0000000001
 40
0.0
 40
0.0
 40
0.0
 40
0.6455488671731082
 40
0.6455488671731082
 40
0.6455488671731082
 10
-8.67843009855899
 20
10.93255781930903
 30
0.0
 41
1.0
 10
-8.672589099198783
 20
11.25619771931959
 30
0.0
 41
0.9957505983657335
 10
-8.607491851396105
 20
11.57327696884704
 30
0.0
 41
1.0
  0
SPLINE
  5
A2
330
1F
100
AcDbEntity
  8
Default
100
AcDbSpline
210
0.0
220
0.0
230
1.0
 70
    12
 71
     2
 72
     6
 73
     3
 74
     0
 42
0.0000000001
 43
0.0000000001
 40
0.0
 40
0.0
 40
0.0
 40
0.3420516372259224
 40
0.3420516372259224
 40
0.3420516372259224
 10
-8.607491851396105
 20
11.57327696884704
 30
0.0
 41
1.0
 10
-8.566436113329047
 20
11.7729360890644
 30
0.0
 41
0.7751522767319682
 10
-8.362599576296077
 20
11.77300000000003
 30
0.0
 41
1.0
  0
POLYLINE
  5
A3
330
1F
100
AcDbEntity
  8
Default
100
AcDb2dPolyline
 66
     1
 10
0.0
 20
0.0
 30
0.0
  0
VERTEX
  5
A4
330
A3
100
AcDbEntity
  8
Default
100
AcDbVertex
100
AcDb2dVertex
 10
-8.362599576296077
 20
11.77300000000003
 30
0.0
  0
VERTEX
  5
A5
330
A3
100
AcDbEntity
  8
Default
100
AcDbVertex
100
AcDb2dVertex
 10
8.362599576295892
 20
11.77300000000003
 30
0.0
  0
SEQEND
  5
A6
330
A3
100
AcDbEntity
  8
Default
  0
SPLINE
  5
A7
330
1F
100
AcDbEntity
  8
Default
100
AcDbSpline
210
0.0
220
0.0
230
1.0
 70
    24
 71
     2
 72
     6
 73
     3
 74
     0
 42
0.0000000001
 43
0.0000000001
 40
0.0
 40
0.0
 40
0.0
 40
1.500868679895007
 40
1.500868679895007
 40
1.500868679895007
 10
1.289999999999907
 20
10.59386867989504
 30
0.0
 10
1.289999999999907
 20
9.843434339947537
 30
0.0
 10
1.289999999999907
 20
9.093000000000034
 30
0.0
  0
POLYLINE
  5
A8
330
1F
100
AcDbEntity
  8
Default
100
AcDb2dPolyline
 66
     1
 10
0.0
 20
0.0
 30
0.0
  0
VERTEX
  5
A9
330
A8
100
AcDbEntity
  8
Default
100
AcDbVertex
100
AcDb2dVertex
 10
1.289999999999907
 20
9.093000000000034
 30
0.0
  0
VERTEX
  5
AA
330
A8
100
AcDbEntity
  8
Default
100
AcDbVertex
100
AcDb2dVertex
 10
0.3571211419356359
 20
9.093000000000034
 30
0.0
  0
SEQEND
  5
AB
330
A8
100
AcDbEntity
  8
Default
  0
SPLINE
  5
AC
330
1F
100
AcDbEntity
  8
Default
100
AcDbSpline
210
0.0
220
0.0
230
1.0
 70
    24
 71
     2
 72
     6
 73
     3
 74
     0
 42
0.0000000001
 43
0.0000000001
 40
0.0
 40
0.0
 40
0.0
 40
1.500868679895007
 40
1.500868679895007
 40
1.500868679895007
 10
-1.290000000000092
 20
10.59386867989504
 30
0.0
 10
-1.290000000000092
 20
9.843434339947537
 30
0.0
 10
-1.290000000000092
 20
9.093000000000034
 30
0.0
  0
POLYLINE
  5
AD
330
1F
100
AcDbEntity
  8
Default
100
AcDb2dPolyline
 66
     1
 10
0.0
 20
0.0
 30
0.0
  0
VERTEX
  5
AE
330
AD
100
AcDbEntity
  8
Default
100
AcDbVertex
100
AcDb2dVertex
 10
-1.290000000000092
 20
9.093000000000034
 30
0.0
  0
VERTEX
  5
AF
330
AD
100
AcDbEntity
  8
Default
100
AcDbVertex
100
AcDb2dVertex
 10
-0.3571211419358349
 20
9.093000000000034
 30
0.0
  0
SEQEND
  5
B0
330
AD
100
AcDbEntity
  8
Default
  0
SPLINE
  5
B1
330
1F
100
AcDbEntity
  8
Default
100
AcDbSpline
210
0.0
220
0.0
230
1.0
 70
    24
 71
     2
 72
     6
 73
     3
 74
     0
 42
0.0000000001
 43
0.0000000001
 40
0.0
 40
0.0
 40
0.0
 40
0.9316089876431572
 40
0.9316089876431572
 40
0.9316089876431572
 10
-0.3583910123567335
 20
9.053000000000035
 30
0.0
 10
-0.824195506178313
 20
9.053000000000035
 30
0.0
 10
-1.289999999999893
 20
9.053000000000035
 30
0.0
  0
POLYLINE
  5
B2
330
1F
100
AcDbEntity
  8
Default
100
AcDb2dPolyline
 66
     1
 10
0.0
 20
0.0
 30
0.0
  0
VERTEX
  5
B3
330
B2
100
AcDbEntity
  8
Default
100
AcDbVertex
100
AcDb2dVertex
 10
-1.289999999999893
 20
9.053000000000035
 30
0.0
  0
VERTEX
  5
B4
330
B2
100
AcDbEntity
  8
Default
100
AcDbVertex
100
AcDb2dVertex
 10
-1.284781832113339
 20
6.503000000000016
 30
0.0
  0
SEQEND
  5
B5
330
B2
100
AcDbEntity
  8
Default
  0
SPLINE
  5
B6
330
1F
100
AcDbEntity
  8
Default
100
AcDbSpline
210
0.0
220
0.0
230
1.0
 70
    24
 71
     2
 72
     6
 73
     3
 74
     0
 42
0.0000000001
 43
0.0000000001
 40
0.0
 40
0.0
 40
0.0
 40
2.574781832113447
 40
2.574781832113447
 40
2.574781832113447
 10
-1.284781832113339
 20
6.503000000000016
 30
0.0
 10
0.0013045419716491
 20
6.503000000000016
 30
0.0
 10
1.287390916056637
 20
6.503000000000016
 30
0.0
  0
POLYLINE
  5
B7
330
1F
100
AcDbEntity
  8
Default
100
AcDb2dPolyline
 66
     1
 10
0.0
 20
0.0
 30
0.0
  0
VERTEX
  5
B8
330
B7
100
AcDbEntity
  8
Default
100
AcDbVertex
100
AcDb2dVertex
 10
1.287390916056637
 20
6.503000000000016
 30
0.0
  0
VERTEX
  5
B9
330
B7
100
AcDbEntity
  8
Default
100
AcDbVertex
100
AcDb2dVertex
 10
1.289999999999708
 20
9.053000000000035
 30
0.0
  0
SEQEND
  5
BA
330
B7
100
AcDbEntity
  8
Default
  0
SPLINE
  5
BB
330
1F
100
AcDbEntity
  8
Default
100
AcDbSpline
210
0.0
220
0.0
230
1.0
 70
    24
 71
     2
 72
     6
 73
     3
 74
     0
 42
0.0000000001
 43
0.0000000001
 40
-0.9316089876431572
 40
-0.9316089876431572
 40
-0.9316089876431572
 40
0.0
 40
0.0
 40
0.0
 10
1.289999999999708
 20
9.053000000000035
 30
0.0
 10
0.8241955061781283
 20
9.053000000000035
 30
0.0
 10
0.3583910123565488
 20
9.053000000000035
 30
0.0
  0
ARC
  5
BC
330
1F
100
AcDbEntity
  8
Default
100
AcDbCircle
 10
1.779691662765799
 20
6.818194083065457
 30
0.0
 40
0.5393705911335501
100
AcDbArc
 50
120.8900046058084
 51
153.8057293911457
  0
ARC
  5
BD
330
1F
100
AcDbEntity
  8
Default
100
AcDbCircle
 10
617.1476522687564
 20
-1021.79392523874
 30
0.0
 40
1199.172182988689
100
AcDbArc
 50
120.5802928678849
 51
120.890004605816
  0
ARC
  5
BE
330
1F
100
AcDbEntity
  8
Default
100
AcDbCircle
 10
1.333210737870218
 20
8.88028252615614
 30
0.0
 40
0.1665138748586413
100
AcDbArc
 50
255.9964022489726
 51
294.9990516845219
  0
LINE
  5
BF
330
1F
100
AcDbEntity
  8
Default
100
AcDbLine
 10
1.403580044416614
 20
8.729368540003039
 30
0.0
 11
5.402186284874801
 21
10.59386867988856
 31
0.0
  0
SPLINE
  5
C0
330
1F
100
AcDbEntity
  8
Default
100
AcDbSpline
210
0.0
220
0.0
230
1.0
 70
    24
 71
     2
 72
     6
 73
     3
 74
     0
 42
0.0000000001
 43
0.0000000001
 40
0.0
 40
0.0
 40
0.0
 40
0.0399960912937067
 40
0.0399960912937067
 40
0.0399960912937067
 10
1.199301797402541
 20
9.093000000000027
 30
0.0
 10
1.199650811423098
 20
9.073005000152389
 30
0.0
 10
1.199999825443655
 20
9.053010000304749
 30
0.0
  0
POLYLINE
  5
C1
330
1F
100
AcDbEntity
  8
Default
100
AcDb2dPolyline
 66
     1
 10
0.0
 20
0.0
 30
0.0
  0
VERTEX
  5
C2
330
C1
100
AcDbEntity
  8
Default
100
AcDbVertex
100
AcDb2dVertex
 10
-0.5680583400470027
 20
10.59386867989503
 30
0.0
  0
VERTEX
  5
C3
330
C1
100
AcDbEntity
  8
Default
100
AcDbVertex
100
AcDb2dVertex
 10
0.568058340046818
 20
10.59386867989503
 30
0.0
  0
SEQEND
  5
C4
330
C1
100
AcDbEntity
  8
Default
  0
ARC
  5
C5
330
1F
100
AcDbEntity
  8
Default
100
AcDbCircle
 10
-1.779691662765984
 20
6.818194083065457
 30
0.0
 40
0.5393705911335501
100
AcDbArc
 50
26.19427060885427
 51
59.10999539419156
  0
ARC
  5
C6
330
1F
100
AcDbEntity
  8
Default
100
AcDbCircle
 10
-617.1476522687565
 20
-1021.79392523874
 30
0.0
 40
1199.172182988689
100
AcDbArc
 50
59.10999539418733
 51
59.41970713211843
  0
ARC
  5
C7
330
1F
100
AcDbEntity
  8
Default
100
AcDbCircle
 10
-1.333210737870402
 20
8.88028252615614
 30
0.0
 40
0.1665138748586413
100
AcDbArc
 50
245.0009483154785
 51
284.0035977510279
  0
LINE
  5
C8
330
1F
100
AcDbEntity
  8
Default
100
AcDbLine
 10
-1.403580044416799
 20
8.729368540003039
 30
0.0
 11
-5.402186284874986
 21
10.59386867988856
 31
0.0
  0
SPLINE
  5
C9
330
1F
100
AcDbEntity
  8
Default
100
AcDbSpline
210
0.0
220
0.0
230
1.0
 70
    24
 71
     2
 72
     6
 73
     3
 74
     0
 42
0.0000000001
 43
0.0000000001
 40
0.0
 40
0.0
 40
0.0
 40
0.0399960912937067
 40
0.0399960912937067
 40
0.0399960912937067
 10
-1.199301797402711
 20
9.093000000000027
 30
0.0
 10
-1.199650811423268
 20
9.073005000152389
 30
0.0
 10
-1.199999825443825
 20
9.053010000304749
 30
0.0
  0
SPLINE
  5
CA
330
1F
100
AcDbEntity
  8
Default
100
AcDbSpline
210
0.0
220
0.0
230
1.0
 70
    24
 71
     2
 72
     6
 73
     3
 74
     0
 42
0.0000000001
 43
0.0000000001
 40
0.0
 40
0.0
 40
0.0
 40
0.0401014385929007
 40
0.0401014385929007
 40
0.0401014385929007
 10
38.61939466878823
 20
6.462904669050456
 30
0.0
 10
38.61904473548572
 20
6.48295233452524
 30
0.0
 10
38.61869480218319
 20
6.503000000000023
 30
0.0
  0
LINE
  5
CB
330
1F
100
AcDbEntity
  8
Default
100
AcDbLine
 10
36.1152235647377
 20
5.694156213727073
 30
0.0
 11
36.1302304678084
 21
6.463000000000015
 31
0.0
  0
LINE
  5
CC
330
1F
100
AcDbEntity
  8
Default
100
AcDbLine
 10
36.1302304678084
 20
6.463000000000015
 30
0.0
 11
38.70710811732117
 21
6.463000000000015
 31
0.0
  0
LINE
  5
CD
330
1F
100
AcDbEntity
  8
Default
100
AcDbLine
 10
38.70710811732117
 20
6.463000000000015
 30
0.0
 11
38.72211502039188
 21
5.694156213727073
 31
0.0
  0
SPLINE
  5
CE
330
1F
100
AcDbEntity
  8
Default
100
AcDbSpline
210
0.0
220
0.0
230
1.0
 70
    12
 71
     3
 72
    11
 73
     7
 74
     0
 42
0.0000000001
 43
0.0000000001
 40
-1.0
 40
-1.0
 40
-1.0
 40
-1.0
 40
-0.75000000000032
 40
-0.5000000000001401
 40
-0.2499999999999602
 40
0.0
 40
0.0
 40
0.0
 40
0.0
 10
38.33184996927333
 20
6.382999045766026
 30
0.0
 41
1.0
 10
38.33276316595039
 20
6.309011631162429
 30
0.0
 41
1.0
 10
38.35742919436108
 20
6.156227170012553
 30
0.0
 41
1.0
 10
38.44756115245549
 20
5.941965920377291
 30
0.0
 41
1.0
 10
38.57544003633613
 20
5.771964450750337
 30
0.0
 41
1.0
 10
38.67559991631913
 20
5.707699549616576
 30
0.0
 41
1.0
 10
38.72684234737785
 20
5.692725175023858
 30
0.0
 41
1.0
  0
SPLINE
  5
CF
330
1F
100
AcDbEntity
  8
Default
100
AcDbSpline
210
0.0
220
0.0
230
1.0
 70
    24
 71
     2
 72
     6
 73
     3
 74
     0
 42
0.0000000001
 43
0.0000000001
 40
0.0
 40
0.0
 40
0.0
 40
8.866685525010693
 40
8.866685525010693
 40
8.866685525010693
 10
38.72684234737785
 20
5.692725175023858
 30
0.0
 10
43.00037116817897
 20
4.444736992526538
 30
0.0
 10
47.27389998898008
 20
3.196748810029217
 30
0.0
  0
SPLINE
  5
D0
330
1F
100
AcDbEntity
  8
Default
100
AcDbSpline
210
0.0
220
0.0
230
1.0
 70
    12
 71
     3
 72
    15
 73
    11
 74
     0
 42
0.0000000001
 43
0.0000000001
 40
-2.981790466646582
 40
-2.981790466646582
 40
-2.981790466646582
 40
-2.981790466646582
 40
-2.616657786617163
 40
-2.192645165643878
 40
-2.102734417348108
 40
-2.004984739545305
 40
-0.0458357933849737
 40
-0.0458357933849737
 40
-0.0458357933849737
 40
0.0
 40
0.0
 40
0.0
 40
0.0
 10
47.27389998898008
 20
3.196748810029217
 30
0.0
 41
1.0
 10
47.42476851038452
 20
3.144520779471577
 30
0.0
 41
1.0
 10
47.63121363438961
 20
2.965981423765931
 30
0.0
 41
1.0
 10
47.73845010795878
 20
2.685804255123777
 30
0.0
 41
1.0
 10
47.77036909052102
 20
2.484521370671056
 30
0.0
 41
1.0
 10
47.79987839288377
 20
1.769312895268124
 30
0.0
 41
1.0
 10
47.82238761191519
 20
1.084304406818145
 30
0.0
 41
1.0
 10
47.84239778406371
 20
0.4312548314551587
 30
0.0
 41
1.0
 10
47.84293739071902
 20
0.4141813191650068
 30
0.0
 41
0.8162530315979053
 10
47.83163805195798
 20
0.4014560510364092
 30
0.0
 41
0.8162530315979053
 10
47.81472842550745
 20
0.4000937153915669
 30
0.0
 41
1.0
  0
SPLINE
  5
D1
330
1F
100
AcDbEntity
  8
Default
100
AcDbSpline
210
0.0
220
0.0
230
1.0
 70
    12
 71
     3
 72
    19
 73
    15
 74
     0
 42
0.0000000001
 43
0.0000000001
 40
-1.776830323858946
 40
-1.776830323858946
 40
-1.776830323858946
 40
-1.776830323858946
 40
-1.730740559805822
 40
-1.730740559805822
 40
-1.730740559805822
 40
-1.166323066479676
 40
-0.3953525441163947
 40
-0.3329837224435752
 40
-0.146821164453521
 40
-0.066479626133287
 40
0.0
 40
0.0
 40
0.0
 40
7.409842642081587
 40
7.409842642081587
 40
7.409842642081587
 40
7.409842642081587
 10
46.72300364184256
 20
0.4000000001201044
 30
0.0
 41
1.000010664015164
 10
46.70593900856387
 20
0.4001332222571771
 30
0.0
 41
0.8156224804937415
 10
46.69368646627655
 20
0.4120110895509939
 30
0.0
 41
0.8156189258220201
 10
46.6930236076831
 20
0.4290634387891394
 30
0.0
 41
1.0
 10
46.68702806996109
 20
0.6171335124673775
 30
0.0
 41
1.0
 10
46.67051231580289
 20
1.061871383443986
 30
0.0
 41
1.0
 10
46.66468166058467
 20
1.527948877959233
 30
0.0
 41
1.0
 10
46.65683995584077
 20
1.867531567168536
 30
0.0
 41
1.0
 10
46.61891824697167
 20
1.974665697475471
 30
0.0
 41
1.0
 10
46.54868626858617
 20
2.060462021586259
 30
0.0
 41
1.0
 10
46.50288747801878
 20
2.083566369208941
 30
0.0
 41
1.0
 10
46.46868591421295
 20
2.090684750335245
 30
0.0
 41
1.0
 10
44.03646029155551
 20
2.568256160055772
 30
0.0
 41
0.999999926815662
 10
41.60829064944323
 20
3.043852428734947
 30
0.0
 41
0.999999926815662
 10
39.16905207218758
 20
3.520469192765971
 30
0.0
 41
1.0
  0
SPLINE
  5
D2
330
1F
100
AcDbEntity
  8
Default
100
AcDbSpline
210
0.0
220
0.0
230
1.0
 70
    12
 71
     2
 72
     6
 73
     3
 74
     0
 42
0.0000000001
 43
0.0000000001
 40
-0.9145789757291128
 40
-0.9145789757291128
 40
-0.9145789757291128
 40
0.0
 40
0.0
 40
0.0
 10
39.16905207218758
 20
3.520469192765971
 30
0.0
 41
1.0
 10
38.70716226903546
 20
3.625046535779719
 30
0.0
 41
0.9971288252443241
 10
38.25012194528325
 20
3.657995578618201
 30
0.0
 41
1.0
  0
SPLINE
  5
D3
330
1F
100
AcDbEntity
  8
Default
100
AcDbSpline
210
0.0
220
0.0
230
1.0
 70
    12
 71
     2
 72
     6
 73
     3
 74
     0
 42
0.0000000001
 43
0.0000000001
 40
-0.1809632896943791
 40
-0.1809632896943791
 40
-0.1809632896943791
 40
0.0
 40
0.0
 40
0.0
 10
38.25012194528325
 20
3.657995578618201
 30
0.0
 41
1.0
 10
38.15956316686833
 20
3.662987693469206
 30
0.0
 41
0.9974315730756723
 10
38.06308143919179
 20
3.682313990687128
 30
0.0
 41
1.0
  0
SPLINE
  5
D4
330
1F
100
AcDbEntity
  8
Default
100
AcDbSpline
210
0.0
220
0.0
230
1.0
 70
    12
 71
     2
 72
     6
 73
     3
 74
     0
 42
0.0000000001
 43
0.0000000001
 40
-0.6434477656097529
 40
-0.6434477656097529
 40
-0.6434477656097529
 40
0.0
 40
0.0
 40
0.0
 10
38.06308143919179
 20
3.682313990687128
 30
0.0
 41
1.0
 10
37.7415955621475
 20
3.760045174446678
 30
0.0
 41
0.9940965158983979
 10
37.41866929256479
 20
3.766820847692417
 30
0.0
 41
1.0
  0
POLYLINE
  5
D5
330
1F
100
AcDbEntity
  8
Default
100
AcDb2dPolyline
 66
     1
 10
0.0
 20
0.0
 30
0.0
  0
VERTEX
  5
D6
330
D5
100
AcDbEntity
  8
Default
100
AcDbVertex
100
AcDb2dVertex
 10
47.82899008383269
 20
0.399999999945464
 30
0.0
  0
VERTEX
  5
D7
330
D5
100
AcDbEntity
  8
Default
100
AcDbVertex
100
AcDb2dVertex
 10
46.70923672779602
 20
0.3999999999601256
 30
0.0
  0
SEQEND
  5
D8
330
D5
100
AcDbEntity
  8
Default
  0
SPLINE
  5
D9
330
1F
100
AcDbEntity
  8
Default
100
AcDbSpline
210
0.0
220
0.0
230
1.0
 70
    12
 71
     2
 72
     6
 73
     3
 74
     0
 42
0.0000000001
 43
0.0000000001
 40
0.0
 40
0.0
 40
0.0
 40
0.0234509349460152
 40
0.0234509349460152
 40
0.0234509349460152
 10
46.70923672779602
 20
0.3999999999601256
 30
0.0
 41
1.0
 10
46.6946749657412
 20
0.3994296958625449
 30
0.0
 41
0.7311049470194118
 10
46.69423875706318
 20
0.3848484327136505
 30
0.0
 41
1.0
  0
SPLINE
  5
DA
330
1F
100
AcDbEntity
  8
Default
100
AcDbSpline
210
0.0
220
0.0
230
1.0
 70
    24
 71
     2
 72
     6
 73
     3
 74
     0
 42
0.0000000001
 43
0.0000000001
 40
0.0
 40
0.0
 40
0.0
 40
0.2302029156997716
 40
0.2302029156997716
 40
0.2302029156997716
 10
46.69423875706318
 20
0.3848484327136505
 30
0.0
 10
46.69551863857589
 20
0.2696526866620715
 30
0.0
 10
46.69679852008861
 20
0.1544569406104924
 30
0.0
  0
SPLINE
  5
DB
330
1F
100
AcDbEntity
  8
Default
100
AcDbSpline
210
0.0
220
0.0
230
1.0
 70
    12
 71
     2
 72
     6
 73
     3
 74
     0
 42
0.0000000001
 43
0.0000000001
 40
0.0
 40
0.0
 40
0.0
 40
0.2433059460872006
 40
0.2433059460872006
 40
0.2433059460872006
 10
46.69679852008861
 20
0.1544569406104924
 30
0.0
 41
1.0
 10
46.69851032236487
 20
0.000004130713898
 30
0.0
 41
0.7110160985064136
 10
46.85278468968492
 20
0.0000000000141396
 30
0.0
 41
1.0
  0
LINE
  5
DC
330
1F
100
AcDbEntity
  8
Default
100
AcDbLine
 10
46.85278468968492
 20
0.0000000000141396
 30
0.0
 11
47.69843095102348
 21
0.0000000000280556
 31
0.0
  0
SPLINE
  5
DD
330
1F
100
AcDbEntity
  8
Default
100
AcDbSpline
210
0.0
220
0.0
230
1.0
 70
    12
 71
     2
 72
     8
 73
     5
 74
     0
 42
0.0000000001
 43
0.0000000001
 40
0.0
 40
0.0
 40
0.0
 40
0.1260117615689853
 40
0.1260117615689853
 40
0.2520235231379707
 40
0.2520235231379707
 40
0.2520235231379707
 10
47.69843095102348
 20
0.0000000000280556
 30
0.0
 41
1.0
 10
47.7651183550541
 20
0.0000187838016952
 30
0.0
 41
0.9195801389452859
 10
47.81119021603227
 20
0.048207641333849
 30
0.0
 41
1.0
 10
47.85726207701043
 20
0.0963964988660028
 30
0.0
 41
0.9195801389452859
 10
47.85428262124682
 20
0.1631126379907652
 30
0.0
 41
1.0
  0
SPLINE
  5
DE
330
1F
100
AcDbEntity
  8
Default
100
AcDbSpline
210
0.0
220
0.0
230
1.0
 70
    12
 71
     2
 72
     6
 73
     3
 74
     0
 42
0.0000000001
 43
0.0000000001
 40
0.0
 40
0.0
 40
0.0
 40
0.2227059867082511
 40
0.2227059867082511
 40
0.2227059867082511
 10
47.85428262124682
 20
0.1631126379907652
 30
0.0
 41
1.0
 10
47.8491196597222
 20
0.2744594309887802
 30
0.0
 41
0.999999998781251
 10
47.84396786618922
 20
0.3857268171168881
 30
0.0
 41
1.0
  0
SPLINE
  5
DF
330
1F
100
AcDbEntity
  8
Default
100
AcDbSpline
210
0.0
220
0.0
230
1.0
 70
    12
 71
     2
 72
     6
 73
     3
 74
     0
 42
0.0000000001
 43
0.0000000001
 40
0.0
 40
0.0
 40
0.0
 40
0.0225621385862125
 40
0.0225621385862125
 40
0.0225621385862125
 10
47.84396786618922
 20
0.3857268171168881
 30
0.0
 41
1.0
 10
47.84272043359667
 20
0.3994454738101918
 30
0.0
 41
0.7518431492968729
 10
47.82899008383269
 20
0.399999999945464
 30
0.0
 41
1.0
  0
SPLINE
  5
E0
330
1F
100
AcDbEntity
  8
Default
100
AcDbSpline
210
0.0
220
0.0
230
1.0
 70
    12
 71
     3
 72
    11
 73
     7
 74
     0
 42
0.0000000001
 43
0.0000000001
 40
-1.0
 40
-1.0
 40
-1.0
 40
-1.0
 40
-0.75000000000032
 40
-0.5000000000001401
 40
-0.2499999999999602
 40
0.0
 40
0.0
 40
0.0
 40
0.0
 10
36.50548861585624
 20
6.382999045766026
 30
0.0
 41
1.0
 10
36.50457541917919
 20
6.309011631162429
 30
0.0
 41
1.0
 10
36.4799093907685
 20
6.156227170012553
 30
0.0
 41
1.0
 10
36.38977743267408
 20
5.941965920377291
 30
0.0
 41
1.0
 10
36.26189854879345
 20
5.771964450750337
 30
0.0
 41
1.0
 10
36.16173866881044
 20
5.707699549616576
 30
0.0
 41
1.0
 10
36.11049623775173
 20
5.692725175023858
 30
0.0
 41
1.0
  0
SPLINE
  5
E1
330
1F
100
AcDbEntity
  8
Default
100
AcDbSpline
210
0.0
220
0.0
230
1.0
 70
    24
 71
     2
 72
     6
 73
     3
 74
     0
 42
0.0000000001
 43
0.0000000001
 40
0.0
 40
0.0
 40
0.0
 40
8.866685525010693
 40
8.866685525010693
 40
8.866685525010693
 10
36.11049623775173
 20
5.692725175023858
 30
0.0
 10
31.83696741695061
 20
4.444736992526538
 30
0.0
 10
27.5634385961495
 20
3.196748810029217
 30
0.0
  0
SPLINE
  5
E2
330
1F
100
AcDbEntity
  8
Default
100
AcDbSpline
210
0.0
220
0.0
230
1.0
 70
    12
 71
     3
 72
    15
 73
    11
 74
     0
 42
0.0000000001
 43
0.0000000001
 40
-2.981790466646582
 40
-2.981790466646582
 40
-2.981790466646582
 40
-2.981790466646582
 40
-2.616657786617163
 40
-2.192645165643878
 40
-2.102734417348108
 40
-2.004984739545305
 40
-0.0458357933849737
 40
-0.0458357933849737
 40
-0.0458357933849737
 40
0.0
 40
0.0
 40
0.0
 40
0.0
 10
27.5634385961495
 20
3.196748810029217
 30
0.0
 41
1.0
 10
27.41257007474506
 20
3.144520779471577
 30
0.0
 41
1.0
 10
27.20612495073997
 20
2.965981423765931
 30
0.0
 41
1.0
 10
27.0988884771708
 20
2.685804255123777
 30
0.0
 41
1.0
 10
27.06696949460856
 20
2.484521370671056
 30
0.0
 41
1.0
 10
27.0374601922458
 20
1.769312895268124
 30
0.0
 41
1.0
 10
27.01495097321439
 20
1.084304406818145
 30
0.0
 41
1.0
 10
26.99494080106587
 20
0.4312548314551587
 30
0.0
 41
1.0
 10
26.99440119441056
 20
0.4141813191650068
 30
0.0
 41
0.8162530315979053
 10
27.0057005331716
 20
0.4014560510364092
 30
0.0
 41
0.8162530315979053
 10
27.02261015962213
 20
0.4000937153915669
 30
0.0
 41
1.0
  0
SPLINE
  5
E3
330
1F
100
AcDbEntity
  8
Default
100
AcDbSpline
210
0.0
220
0.0
230
1.0
 70
    12
 71
     3
 72
    19
 73
    15
 74
     0
 42
0.0000000001
 43
0.0000000001
 40
-1.776830323858946
 40
-1.776830323858946
 40
-1.776830323858946
 40
-1.776830323858946
 40
-1.730740559805822
 40
-1.730740559805822
 40
-1.730740559805822
 40
-1.166323066479676
 40
-0.3953525441163947
 40
-0.3329837224435752
 40
-0.146821164453521
 40
-0.066479626133287
 40
0.0
 40
0.0
 40
0.0
 40
7.409842642081587
 40
7.409842642081587
 40
7.409842642081587
 40
7.409842642081587
 10
28.11433494328704
 20
0.4000000001201044
 30
0.0
 41
1.000010664015164
 10
28.13139957656571
 20
0.4001332222571771
 30
0.0
 41
0.8156224804937415
 10
28.14365211885303
 20
0.4120110895509939
 30
0.0
 41
0.8156189258220201
 10
28.14431497744647
 20
0.4290634387891394
 30
0.0
 41
1.0
 10
28.15031051516849
 20
0.6171335124673775
 30
0.0
 41
1.0
 10
28.16682626932668
 20
1.061871383443986
 30
0.0
 41
1.0
 10
28.17265692454491
 20
1.527948877959233
 30
0.0
 41
1.0
 10
28.18049862928881
 20
1.867531567168536
 30
0.0
 41
1.0
 10
28.21842033815791
 20
1.974665697475471
 30
0.0
 41
1.0
 10
28.28865231654341
 20
2.060462021586259
 30
0.0
 41
1.0
 10
28.33445110711079
 20
2.083566369208941
 30
0.0
 41
1.0
 10
28.36865267091663
 20
2.090684750335245
 30
0.0
 41
1.0
 10
30.80087829357408
 20
2.568256160055772
 30
0.0
 41
0.999999926815662
 10
33.22904793568636
 20
3.043852428734947
 30
0.0
 41
0.999999926815662
 10
35.66828651294199
 20
3.520469192765971
 30
0.0
 41
1.0
  0
SPLINE
  5
E4
330
1F
100
AcDbEntity
  8
Default
100
AcDbSpline
210
0.0
220
0.0
230
1.0
 70
    12
 71
     2
 72
     6
 73
     3
 74
     0
 42
0.0000000001
 43
0.0000000001
 40
-0.9145789757291128
 40
-0.9145789757291128
 40
-0.9145789757291128
 40
0.0
 40
0.0
 40
0.0
 10
35.66828651294199
 20
3.520469192765971
 30
0.0
 41
1.0
 10
36.13017631609414
 20
3.625046535779719
 30
0.0
 41
0.9971288252443241
 10
36.58721663984632
 20
3.657995578618201
 30
0.0
 41
1.0
  0
SPLINE
  5
E5
330
1F
100
AcDbEntity
  8
Default
100
AcDbSpline
210
0.0
220
0.0
230
1.0
 70
    12
 71
     2
 72
     6
 73
     3
 74
     0
 42
0.0000000001
 43
0.0000000001
 40
-0.1809632896943791
 40
-0.1809632896943791
 40
-0.1809632896943791
 40
0.0
 40
0.0
 40
0.0
 10
36.58721663984632
 20
3.657995578618201
 30
0.0
 41
1.0
 10
36.67777541826125
 20
3.662987693469206
 30
0.0
 41
0.9974315730756723
 10
36.77425714593779
 20
3.682313990687128
 30
0.0
 41
1.0
  0
SPLINE
  5
E6
330
1F
100
AcDbEntity
  8
Default
100
AcDbSpline
210
0.0
220
0.0
230
1.0
 70
    12
 71
     2
 72
     6
 73
     3
 74
     0
 42
0.0000000001
 43
0.0000000001
 40
-0.6434477656097529
 40
-0.6434477656097529
 40
-0.6434477656097529
 40
0.0
 40
0.0
 40
0.0
 10
36.77425714593779
 20
3.682313990687128
 30
0.0
 41
1.0
 10
37.09574302298206
 20
3.760045174446678
 30
0.0
 41
0.9940965158983979
 10
37.41866929256479
 20
3.766820847692417
 30
0.0
 41
1.0
  0
POLYLINE
  5
E7
330
1F
100
AcDbEntity
  8
Default
100
AcDb2dPolyline
 66
     1
 10
0.0
 20
0.0
 30
0.0
  0
VERTEX
  5
E8
330
E7
100
AcDbEntity
  8
Default
100
AcDbVertex
100
AcDb2dVertex
 10
27.00834850129689
 20
0.399999999945464
 30
0.0
  0
VERTEX
  5
E9
330
E7
100
AcDbEntity
  8
Default
100
AcDbVertex
100
AcDb2dVertex
 10
28.12810185733355
 20
0.3999999999601256
 30
0.0
  0
SEQEND
  5
EA
330
E7
100
AcDbEntity
  8
Default
  0
SPLINE
  5
EB
330
1F
100
AcDbEntity
  8
Default
100
AcDbSpline
210
0.0
220
0.0
230
1.0
 70
    12
 71
     2
 72
     6
 73
     3
 74
     0
 42
0.0000000001
 43
0.0000000001
 40
0.0
 40
0.0
 40
0.0
 40
0.0234509349460152
 40
0.0234509349460152
 40
0.0234509349460152
 10
28.12810185733355
 20
0.3999999999601256
 30
0.0
 41
1.0
 10
28.14266361938837
 20
0.3994296958625449
 30
0.0
 41
0.7311049470194118
 10
28.1430998280664
 20
0.3848484327136505
 30
0.0
 41
1.0
  0
SPLINE
  5
EC
330
1F
100
AcDbEntity
  8
Default
100
AcDbSpline
210
0.0
220
0.0
230
1.0
 70
    24
 71
     2
 72
     6
 73
     3
 74
     0
 42
0.0000000001
 43
0.0000000001
 40
0.0
 40
0.0
 40
0.0
 40
0.2302029156997716
 40
0.2302029156997716
 40
0.2302029156997716
 10
28.1430998280664
 20
0.3848484327136505
 30
0.0
 10
28.14181994655369
 20
0.2696526866620715
 30
0.0
 10
28.14054006504097
 20
0.1544569406104924
 30
0.0
  0
SPLINE
  5
ED
330
1F
100
AcDbEntity
  8
Default
100
AcDbSpline
210
0.0
220
0.0
230
1.0
 70
    12
 71
     2
 72
     6
 73
     3
 74
     0
 42
0.0000000001
 43
0.0000000001
 40
0.0
 40
0.0
 40
0.0
 40
0.2433059460872006
 40
0.2433059460872006
 40
0.2433059460872006
 10
28.14054006504097
 20
0.1544569406104924
 30
0.0
 41
1.0
 10
28.13882826276471
 20
0.000004130713898
 30
0.0
 41
0.7110160985064136
 10
27.98455389544465
 20
0.0000000000141396
 30
0.0
 41
1.0
  0
LINE
  5
EE
330
1F
100
AcDbEntity
  8
Default
100
AcDbLine
 10
27.98455389544465
 20
0.0000000000141396
 30
0.0
 11
27.13890763410609
 21
0.0000000000280556
 31
0.0
  0
SPLINE
  5
EF
330
1F
100
AcDbEntity
  8
Default
100
AcDbSpline
210
0.0
220
0.0
230
1.0
 70
    12
 71
     2
 72
     8
 73
     5
 74
     0
 42
0.0000000001
 43
0.0000000001
 40
0.0
 40
0.0
 40
0.0
 40
0.1260117615689853
 40
0.1260117615689853
 40
0.2520235231379707
 40
0.2520235231379707
 40
0.2520235231379707
 10
27.13890763410609
 20
0.0000000000280556
 30
0.0
 41
1.0
 10
27.07222023007548
 20
0.0000187838016952
 30
0.0
 41
0.9195801389452859
 10
27.02614836909731
 20
0.048207641333849
 30
0.0
 41
1.0
 10
26.98007650811914
 20
0.0963964988660028
 30
0.0
 41
0.9195801389452859
 10
26.98305596388276
 20
0.1631126379907652
 30
0.0
 41
1.0
  0
SPLINE
  5
F0
330
1F
100
AcDbEntity
  8
Default
100
AcDbSpline
210
0.0
220
0.0
230
1.0
 70
    12
 71
     2
 72
     6
 73
     3
 74
     0
 42
0.0000000001
 43
0.0000000001
 40
0.0
 40
0.0
 40
0.0
 40
0.2227059867082511
 40
0.2227059867082511
 40
0.2227059867082511
 10
26.98305596388276
 20
0.1631126379907652
 30
0.0
 41
1.0
 10
26.98821892540738
 20
0.2744594309887802
 30
0.0
 41
0.999999998781251
 10
26.99337071894035
 20
0.3857268171168881
 30
0.0
 41
1.0
  0
SPLINE
  5
F1
330
1F
100
AcDbEntity
  8
Default
100
AcDbSpline
210
0.0
220
0.0
230
1.0
 70
    12
 71
     2
 72
     6
 73
     3
 74
     0
 42
0.0000000001
 43
0.0000000001
 40
0.0
 40
0.0
 40
0.0
 40
0.0225621385862125
 40
0.0225621385862125
 40
0.0225621385862125
 10
26.99337071894035
 20
0.3857268171168881
 30
0.0
 41
1.0
 10
26.99461815153289
 20
0.3994454738101918
 30
0.0
 41
0.7518431492968729
 10
27.00834850129689
 20
0.399999999945464
 30
0.0
 41
1.0
  0
SPLINE
  5
F2
330
1F
100
AcDbEntity
  8
Default
100
AcDbSpline
210
0.0
220
0.0
230
1.0
 70
    24
 71
     2
 72
     6
 73
     3
 74
     0
 42
0.0000000001
 43
0.0000000001
 40
0.0
 40
0.0
 40
0.0
 40
0.0401014385929007
 40
0.0401014385929007
 40
0.0401014385929007
 10
36.21794391634134
 20
6.462904669050456
 30
0.0
 10
36.21829384964386
 20
6.48295233452524
 30
0.0
 10
36.21864378294639
 20
6.503000000000023
 30
0.0
  0
SPLINE
  5
F3
330
1F
100
AcDbEntity
  8
Default
100
AcDbSpline
210
0.0
220
0.0
230
1.0
 70
    24
 71
     2
 72
     6
 73
     3
 74
     0
 42
0.0000000001
 43
0.0000000001
 40
0.0
 40
0.0
 40
0.0
 40
1.415121265539391
 40
1.415121265539391
 40
1.415121265539391
 10
38.70732753268983
 20
10.59386867989504
 30
0.0
 10
38.70732753268983
 20
9.886308047125345
 30
0.0
 10
38.70732753268983
 20
9.17874741435565
 30
0.0
  0
SPLINE
  5
F4
330
1F
100
AcDbEntity
  8
Default
100
AcDbSpline
210
0.0
220
0.0
230
1.0
 70
    24
 71
     2
 72
     6
 73
     3
 74
     0
 42
0.0000000001
 43
0.0000000001
 40
0.0
 40
0.0
 40
0.0
 40
1.500868679895007
 40
1.500868679895007
 40
1.500868679895007
 10
36.12732753268983
 20
10.59386867989504
 30
0.0
 10
36.12732753268983
 20
9.843434339947537
 30
0.0
 10
36.12732753268983
 20
9.093000000000034
 30
0.0
  0
LINE
  5
F5
330
1F
100
AcDbEntity
  8
Default
100
AcDbLine
 10
36.12732753268983
 20
9.093000000000034
 30
0.0
 11
38.60101806052712
 21
9.093000000000034
 31
0.0
  0
SPLINE
  5
F6
330
1F
100
AcDbEntity
  8
Default
100
AcDbSpline
210
0.0
220
0.0
230
1.0
 70
    24
 71
     2
 72
     6
 73
     3
 74
     0
 42
0.0000000001
 43
0.0000000001
 40
0.0
 40
0.0
 40
0.0
 40
0.0399960912937067
 40
0.0399960912937067
 40
0.0399960912937067
 10
36.2180257352872
 20
9.093000000000027
 30
0.0
 10
36.21767672126664
 20
9.073005000152389
 30
0.0
 10
36.21732770724608
 20
9.053010000304749
 30
0.0
  0
LINE
  5
F7
330
1F
100
AcDbEntity
  8
Default
100
AcDbLine
 10
35.71771493807312
 20
7.274073601106993
 30
0.0
 11
29.5261926652622
 21
10.46960938711542
 31
0.0
  0
ARC
  5
F8
330
1F
100
AcDbEntity
  8
Default
100
AcDbCircle
 10
32.1357059309435
 20
15.52568154140137
 30
0.0
 40
5.689764943573027
100
AcDbArc
 50
240.0873591913948
 51
242.7010753147969
  0
LINE
  5
F9
330
1F
100
AcDbEntity
  8
Default
100
AcDbLine
 10
45.53109717699488
 20
10.59386867989503
 30
0.0
 11
29.29833972049529
 21
10.59386867989503
 31
0.0
  0
SPLINE
  5
FA
330
1F
100
AcDbEntity
  8
Default
100
AcDbSpline
210
0.0
220
0.0
230
1.0
 70
     8
 71
     3
 72
     8
 73
     4
 74
     0
 42
0.0000000001
 43
0.0000000001
 40
-1.0
 40
-1.0
 40
-1.0
 40
-1.0
 40
0.0
 40
0.0
 40
0.0
 40
0.0
 10
29.29833972049529
 20
10.59386867989503
 30
0.0
 10
29.28863978743715
 20
10.59386867989503
 30
0.0
 10
29.27869173651615
 20
10.59622988768334
 30
0.0
 10
29.2700266217889
 20
10.60058930141639
 30
0.0
  0
SPLINE
  5
FB
330
1F
100
AcDbEntity
  8
Default
100
AcDbSpline
210
0.0
220
0.0
230
1.0
 70
    24
 71
     2
 72
     6
 73
     3
 74
     0
 42
0.0000000001
 43
0.0000000001
 40
0.0
 40
0.0
 40
0.0
 40
0.5282062900802154
 40
0.5282062900802154
 40
0.5282062900802154
 10
29.2700266217889
 20
10.60058930141639
 30
0.0
 10
29.03409880271182
 20
10.71928443781888
 30
0.0
 10
28.79817098363473
 20
10.83797957422137
 30
0.0
  0
SPLINE
  5
FC
330
1F
100
AcDbEntity
  8
Default
100
AcDbSpline
210
0.0
220
0.0
230
1.0
 70
     8
 71
     3
 72
     8
 73
     4
 74
     0
 42
0.0000000001
 43
0.0000000001
 40
-1.0
 40
-1.0
 40
-1.0
 40
-1.0
 40
0.0
 40
0.0
 40
0.0
 40
0.0
 10
28.79817098363473
 20
10.83797957422137
 30
0.0
 10
28.76451545924427
 20
10.85491164723357
 30
0.0
 10
28.73560851261315
 20
10.89488916869128
 30
0.0
 10
28.73628835018619
 20
10.93255781930903
 30
0.0
  0
SPLINE
  5
FD
330
1F
100
AcDbEntity
  8
Default
100
AcDbSpline
210
0.0
220
0.0
230
1.0
 70
    12
 71
     2
 72
     6
 73
     3
 74
     0
 42
0.0000000001
 43
0.0000000001
 40
0.0
 40
0.0
 40
0.0
 40
0.6455488671731082
 40
0.6455488671731082
 40
0.6455488671731082
 10
28.73628835018619
 20
10.93255781930903
 30
0.0
 41
1.0
 10
28.74212934954639
 20
11.25619771931959
 30
0.0
 41
0.9957505983657335
 10
28.80722659734907
 20
11.57327696884704
 30
0.0
 41
1.0
  0
SPLINE
  5
FE
330
1F
100
AcDbEntity
  8
Default
100
AcDbSpline
210
0.0
220
0.0
230
1.0
 70
    12
 71
     2
 72
     6
 73
     3
 74
     0
 42
0.0000000001
 43
0.0000000001
 40
0.0
 40
0.0
 40
0.0
 40
0.3420516372259224
 40
0.3420516372259224
 40
0.3420516372259224
 10
28.80722659734907
 20
11.57327696884704
 30
0.0
 41
1.0
 10
28.84828233541612
 20
11.7729360890644
 30
0.0
 41
0.7751522767319682
 10
29.0521188724491
 20
11.77300000000003
 30
0.0
 41
1.0
  0
LINE
  5
FF
330
1F
100
AcDbEntity
  8
Default
100
AcDbLine
 10
29.0521188724491
 20
11.77300000000003
 30
0.0
 11
45.77731802504107
 21
11.77300000000003
 31
0.0
  0
SPLINE
  5
100
330
1F
100
AcDbEntity
  8
Default
100
AcDbSpline
210
0.0
220
0.0
230
1.0
 70
    12
 71
     2
 72
     6
 73
     3
 74
     0
 42
0.0000000001
 43
0.0000000001
 40
-0.3420516372259224
 40
-0.3420516372259224
 40
-0.3420516372259224
 40
0.0
 40
0.0
 40
0.0
 10
45.77731802504107
 20
11.77300000000003
 30
0.0
 41
1.0
 10
45.98115456207404
 20
11.7729360890644
 30
0.0
 41
0.7751522767319682
 10
46.0222103001411
 20
11.57327696884704
 30
0.0
 41
1.0
  0
SPLINE
  5
101
330
1F
100
AcDbEntity
  8
Default
100
AcDbSpline
210
0.0
220
0.0
230
1.0
 70
    12
 71
     2
 72
     6
 73
     3
 74
     0
 42
0.0000000001
 43
0.0000000001
 40
-0.6455488671731082
 40
-0.6455488671731082
 40
-0.6455488671731082
 40
0.0
 40
0.0
 40
0.0
 10
46.0222103001411
 20
11.57327696884704
 30
0.0
 41
1.0
 10
46.08730754794378
 20
11.25619771931959
 30
0.0
 41
0.9957505983657335
 10
46.09314854730398
 20
10.93255781930903
 30
0.0
 41
1.0
  0
SPLINE
  5
102
330
1F
100
AcDbEntity
  8
Default
100
AcDbSpline
210
0.0
220
0.0
230
1.0
 70
     8
 71
     3
 72
     8
 73
     4
 74
     0
 42
0.0000000001
 43
0.0000000001
 40
0.0
 40
0.0
 40
0.0
 40
0.0
 40
1.0
 40
1.0
 40
1.0
 40
1.0
 10
46.09314854730398
 20
10.93255781930903
 30
0.0
 10
46.09382838487701
 20
10.89488916869128
 30
0.0
 10
46.0649214382459
 20
10.85491164723357
 30
0.0
 10
46.03126591385544
 20
10.83797957422137
 30
0.0
  0
SPLINE
  5
103
330
1F
100
AcDbEntity
  8
Default
100
AcDbSpline
210
0.0
220
0.0
230
1.0
 70
    24
 71
     2
 72
     6
 73
     3
 74
     0
 42
0.0000000001
 43
0.0000000001
 40
-0.5282062900802154
 40
-0.5282062900802154
 40
-0.5282062900802154
 40
0.0
 40
0.0
 40
0.0
 10
46.03126591385544
 20
10.83797957422137
 30
0.0
 10
45.79533809477835
 20
10.71928443781888
 30
0.0
 10
45.55941027570127
 20
10.60058930141639
 30
0.0
  0
SPLINE
  5
104
330
1F
100
AcDbEntity
  8
Default
100
AcDbSpline
210
0.0
220
0.0
230
1.0
 70
     8
 71
     3
 72
     8
 73
     4
 74
     0
 42
0.0000000001
 43
0.0000000001
 40
0.0
 40
0.0
 40
0.0
 40
0.0
 40
1.0
 40
1.0
 40
1.0
 40
1.0
 10
45.55941027570127
 20
10.60058930141639
 30
0.0
 10
45.55074516097402
 20
10.59622988768334
 30
0.0
 10
45.54079711005302
 20
10.59386867989503
 30
0.0
 10
45.53109717699488
 20
10.59386867989503
 30
0.0
  0
SPLINE
  5
105
330
1F
100
AcDbEntity
  8
Default
100
AcDbSpline
210
0.0
220
0.0
230
1.0
 70
    12
 71
     2
 72
    28
 73
    25
 74
     0
 42
0.0000000001
 43
0.0000000001
 40
0.0
 40
0.0
 40
0.0
 40
0.0140468681407047
 40
0.0140468681407047
 40
0.0285022039833023
 40
0.0285022039833023
 40
0.0432370017690572
 40
0.0432370017690572
 40
0.058076842079312
 40
0.058076842079312
 40
0.0728277182437654
 40
0.0728277182437654
 40
0.0872949293865356
 40
0.0872949293865356
 40
0.1012844926610201
 40
0.1012844926610201
 40
0.1149934196890438
 40
0.1149934196890438
 40
0.1292033157759231
 40
0.1292033157759231
 40
0.1441227222662706
 40
0.1441227222662706
 40
0.1597995803026915
 40
0.1597995803026915
 40
0.1711131267289225
 40
0.1711131267289225
 40
0.1711131267289225
 10
38.263205670668
 20
7.274058599289974
 30
0.0
 41
1.0
 10
38.27022501129525
 20
7.273940318711536
 30
0.0
 41
0.9997318673218968
 10
38.27724230077969
 20
7.274147155430819
 30
0.0
 41
1.0
 10
38.28446380582048
 20
7.274359639616318
 30
0.0
 41
0.9997008370617729
 10
38.29166627939018
 20
7.274925023610681
 30
0.0
 41
1.0
 10
38.29900825090569
 20
7.27550089218243
 30
0.0
 41
0.999656372223062
 10
38.30630995206852
 20
7.276460751794471
 30
0.0
 41
1.0
 10
38.31366407235272
 20
7.277426981030141
 30
0.0
 41
0.9995954392542505
 10
38.32095135318758
 20
7.278809812229047
 30
0.0
 41
1.0
 10
38.32819549722524
 20
7.280183666412829
 30
0.0
 41
0.9995115816120003
 10
38.33533966650876
 20
7.282007383333065
 30
0.0
 41
1.0
 10
38.34234709504103
 20
7.283795633349881
 30
0.0
 41
0.9994024730501939
 10
38.34921423440163
 20
7.286063736028206
 30
0.0
 41
1.0
 10
38.35585558791605
 20
7.288256297180681
 30
0.0
 41
0.9992556387409859
 10
38.36230813651785
 20
7.290954355269788
 30
0.0
 41
1.0
 10
38.368632164338
 20
7.293598608626163
 30
0.0
 41
0.9990431628104504
 10
38.37470092742592
 20
7.296785381016111
 30
0.0
 41
1.0
 10
38.38099047502837
 20
7.300091692731638
 30
0.0
 41
0.998925111124771
 10
38.38694680789102
 20
7.303966251420454
 30
0.0
 41
1.0
 10
38.39319980452536
 20
7.308036379965684
 30
0.0
 41
0.9988185990540612
 10
38.39902816664564
 20
7.312694288109785
 30
0.0
 41
1.0
 10
38.40515163230988
 20
7.317589863396478
 30
0.0
 41
0.998796330741097
 10
38.41076595661809
 20
7.323061869581704
 30
0.0
 41
1.0
 10
38.41481616256688
 20
7.327008919140166
 30
0.0
 41
0.999436228297278
 10
38.41865606705431
 20
7.331161693261659
 30
0.0
 41
0.9999895245906828
  0
ARC
  5
106
330
1F
100
AcDbEntity
  8
Default
100
AcDbCircle
 10
206.9014178859846
 20
-152.961692306437
 30
0.0
 40
232.5515858331289
100
AcDbArc
 50
135.6446007502038
 51
136.4269614485691
  0
ARC
  5
107
330
1F
100
AcDbEntity
  8
Default
100
AcDbCircle
 10
48.39982615457743
 20
2.013015157062942
 30
0.0
 40
10.87634018132619
100
AcDbArc
 50
129.1574586323073
 51
135.6446007502032
  0
ARC
  5
108
330
1F
100
AcDbEntity
  8
Default
100
AcDbCircle
 10
41.88825649950498
 20
10.01698132916511
 30
0.0
 40
0.5582235121632735
100
AcDbArc
 50
106.221588645932
 51
129.6681030491936
  0
LINE
  5
109
330
1F
100
AcDbEntity
  8
Default
100
AcDbLine
 10
41.7323151324194
 20
10.5529811235339
 30
0.0
 11
41.87285335015724
 21
10.59386867989503
 31
0.0
  0
SPLINE
  5
10A
330
1F
100
AcDbEntity
  8
Default
100
AcDbSpline
210
0.0
220
0.0
230
1.0
 70
    12
 71
     2
 72
     6
 73
     3
 74
     0
 42
0.0000000001
 43
0.0000000001
 40
0.0
 40
0.0
 40
0.0
 40
4.969299551361565
 40
4.969299551361565
 40
4.969299551361565
 10
31.17330464239519
 20
10.59386867989326
 30
0.0
 41
1.0
 10
33.47668099657865
 20
9.662234694242882
 30
0.0
 41
0.9999999994587758
 10
35.78078019923348
 20
8.730487052111439
 30
0.0
 41
1.0
  0
SPLINE
  5
10B
330
1F
100
AcDbEntity
  8
Default
100
AcDbSpline
210
0.0
220
0.0
230
1.0
 70
    12
 71
     2
 72
     8
 73
     5
 74
     0
 42
0.0000000001
 43
0.0000000001
 40
0.0
 40
0.0
 40
0.0
 40
0.2369381088234469
 40
0.2369381088234469
 40
0.4738762176468938
 40
0.4738762176468938
 40
0.4738762176468938
 10
35.78078019923348
 20
8.730487052111439
 30
0.0
 41
1.0
 10
35.90061333555766
 20
8.682993381419692
 30
0.0
 41
0.8900494139534328
 10
36.00857942611074
 20
8.752099939099978
 30
0.0
 41
1.0
 10
36.1165455166638
 20
8.82120649678026
 30
0.0
 41
0.8900494139534328
 10
36.12373554775718
 20
8.954873690903764
 30
0.0
 41
1.0
  0
SPLINE
  5
10C
330
1F
100
AcDbEntity
  8
Default
100
AcDbSpline
210
0.0
220
0.0
230
1.0
 70
    24
 71
     2
 72
     6
 73
     3
 74
     0
 42
0.0000000001
 43
0.0000000001
 40
0.0
 40
0.0
 40
0.0
 40
0.092459499146895
 40
0.092459499146895
 40
0.092459499146895
 10
36.12373554775718
 20
8.954873690903764
 30
0.0
 10
36.12553154022361
 20
9.0039368454519
 30
0.0
 10
36.12732753269003
 20
9.053000000000035
 30
0.0
  0
LINE
  5
10D
330
1F
100
AcDbEntity
  8
Default
100
AcDbLine
 10
36.12732753269003
 20
9.053000000000035
 30
0.0
 11
38.55142412612705
 21
9.053000000000035
 31
0.0
  0
SPLINE
  5
10E
330
1F
100
AcDbEntity
  8
Default
100
AcDbSpline
210
0.0
220
0.0
230
1.0
 70
    24
 71
     2
 72
     6
 73
     3
 74
     0
 42
0.0000000001
 43
0.0000000001
 40
0.0
 40
0.0
 40
0.0
 40
1.28478183211061
 40
1.28478183211061
 40
1.28478183211061
 10
37.41471844874509
 20
6.503000000000016
 30
0.0
 10
38.0571093648004
 20
6.503000000000016
 30
0.0
 10
38.6995002808557
 20
6.503000000000016
 30
0.0
  0
SPLINE
  5
10F
330
1F
100
AcDbEntity
  8
Default
100
AcDbSpline
210
0.0
220
0.0
230
1.0
 70
    28
 71
     2
 72
     8
 73
     5
 74
     0
 42
0.0000000001
 43
0.0000000001
 40
-2.152972715413255
 40
-2.152972715413255
 40
-2.152972715413255
 40
-2.026327261565417
 40
-2.026327261565417
 40
0.0
 40
0.0
 40
0.0
 10
36.12993661663448
 20
6.503000000000014
 30
0.0
 41
0.9656765759202985
 10
36.12471844874509
 20
6.503000000000016
 30
0.0
 41
0.9816941738241592
 10
36.12471844874509
 20
6.503000000000016
 30
0.0
 41
1.0
 10
36.12471844874509
 20
6.503000000000015
 30
0.0
 41
0.7071067811865476
 10
37.41471844874509
 20
6.503000000000016
 30
0.0
 41
1.0
  0
SPLINE
  5
110
330
1F
100
AcDbEntity
  8
Default
100
AcDbSpline
210
0.0
220
0.0
230
1.0
 70
    12
 71
     2
 72
     6
 73
     3
 74
     0
 42
0.0000000001
 43
0.0000000001
 40
0.0
 40
0.0
 40
0.0
 40
0.8127150281096842
 40
0.8127150281096842
 40
0.8127150281096842
 10
35.71771493807312
 20
7.274073601106993
 30
0.0
 41
1.0
 10
36.11889835295177
 20
7.0670292196119
 30
0.0
 41
0.8566678452191085
 10
36.12355838003816
 20
6.615593961319034
 30
0.0
 41
1.0
  0
SPLINE
  5
111
330
1F
100
AcDbEntity
  8
Default
100
AcDbSpline
210
0.0
220
0.0
230
1.0
 70
    12
 71
     2
 72
    10
 73
     7
 74
     0
 42
0.0000000001
 43
0.0000000001
 40
0.0
 40
0.0
 40
0.0
 40
0.036780884482198
 40
0.036780884482198
 40
0.0785663750001306
 40
0.0785663750001306
 40
0.1265652217040752
 40
0.1265652217040752
 40
0.1265652217040752
 10
37.85042174893169
 20
8.296524513981183
 30
0.0
 41
1.0
 10
37.84725806894695
 20
8.278403081404432
 30
0.0
 41
0.9995859284274482
 10
37.84514206623655
 20
8.260129665680786
 30
0.0
 41
1.0
 10
37.84274546981936
 20
8.239370022004985
 30
0.0
 41
0.999657073279319
 10
37.84143903466455
 20
8.218513375411655
 30
0.0
 41
1.0
 10
37.83994749177806
 20
8.194556817291831
 30
0.0
 41
0.9997799275259601
 10
37.83946218476133
 20
8.170558778742189
 30
0.0
 41
1.0
  0
SPLINE
  5
112
330
1F
100
AcDbEntity
  8
Default
100
AcDbSpline
210
0.0
220
0.0
230
1.0
 70
    12
 71
     2
 72
    36
 73
    33
 74
     0
 42
0.0000000001
 43
0.0000000001
 40
0.0
 40
0.0
 40
0.0
 40
0.0207278195486716
 40
0.0207278195486716
 40
0.0447609852077238
 40
0.0447609852077238
 40
0.0660642124248079
 40
0.0660642124248079
 40
0.0847694714969161
 40
0.0847694714969161
 40
0.101788701148515
 40
0.101788701148515
 40
0.1183131468167998
 40
0.1183131468167998
 40
0.1355240290901271
 40
0.1355240290901271
 40
0.1544562824522833
 40
0.1544562824522833
 40
0.1758277246372123
 40
0.1758277246372123
 40
0.1997540769519208
 40
0.1997540769519208
 40
0.2264299923083884
 40
0.2264299923083884
 40
0.2563513658433622
 40
0.2563513658433622
 40
0.2903216356134053
 40
0.2903216356134053
 40
0.3291822137306459
 40
0.3291822137306459
 40
0.3725145395906161
 40
0.3725145395906161
 40
0.4185535150399717
 40
0.4185535150399717
 40
0.4185535150399717
 10
38.05398929308886
 20
8.651850641432521
 30
0.0
 41
1.0
 10
38.04593045818191
 20
8.645331926689723
 30
0.0
 41
0.9998056818439512
 10
38.0381348422227
 20
8.638500613948255
 30
0.0
 41
1.0
 10
38.02909588901067
 20
8.630579609621451
 30
0.0
 41
0.9997574049011436
 10
38.02041455259727
 20
8.622268208849503
 30
0.0
 41
1.0
 10
38.01271931600873
 20
8.614901557114031
 30
0.0
 41
0.9998192371356499
 10
38.00530971620003
 20
8.607247665644971
 30
0.0
 41
1.0
 10
37.99880376617391
 20
8.600527542875588
 30
0.0
 41
0.9998649239449685
 10
37.99252220177434
 20
8.59359721932816
 30
0.0
 41
1.0
 10
37.98680683420091
 20
8.58729176490172
 30
0.0
 41
0.9998898408798503
 10
37.98128114435924
 20
8.580819444313482
 30
0.0
 41
1.0
 10
37.97591489920712
 20
8.574536297426912
 30
0.0
 41
0.9998879994950548
 10
37.97073910716652
 20
8.568095358164408
 30
0.0
 41
1.0
 10
37.96534978597985
 20
8.561385584504455
 30
0.0
 41
0.9998761745574073
 10
37.96017428372417
 20
8.55450953754255
 30
0.0
 41
1.0
 10
37.95448081698042
 20
8.546945863481367
 30
0.0
 41
0.9998562790121603
 10
37.94904704779196
 20
8.539193516657814
 30
0.0
 41
1.0
 10
37.94291315073741
 20
8.530442118399483
 30
0.0
 41
0.9998225042559923
 10
37.93711330909548
 20
8.521465844034235
 30
0.0
 41
1.0
 10
37.93061999193302
 20
8.511416187354683
 30
0.0
 41
0.999784241260799
 10
37.9245496885366
 20
8.501105504359636
 30
0.0
 41
1.0
 10
37.91778156818893
 20
8.48960960906302
 30
0.0
 41
0.9997389322376274
 10
37.91154571220032
 20
8.477816511005232
 30
0.0
 41
1.0
 10
37.90455144698326
 20
8.464587852610403
 30
0.0
 41
0.9996817975717703
 10
37.89823325773234
 20
8.451023279876868
 30
0.0
 41
1.0
 10
37.89105608545189
 20
8.435623803181212
 30
0.0
 41
0.9995819943092834
 10
37.88478096246133
 20
8.419835246695683
 30
0.0
 41
1.0
 10
37.87760598005721
 20
8.401770581633164
 30
0.0
 41
0.9994513777016976
 10
37.87164269070648
 20
8.383270536324035
 30
0.0
 41
1.0
 10
37.86499682267735
 20
8.36263926145711
 30
0.0
 41
0.9993703027586827
 10
37.8598308596799
 20
8.341588610854252
 30
0.0
 41
1.0
 10
37.854348012461
 20
8.319222177965022
 30
0.0
 41
0.9994030095476978
 10
37.85042280155488
 20
8.296530513126237
 30
0.0
 41
1.0
  0
SPLINE
  5
113
330
1F
100
AcDbEntity
  8
Default
100
AcDbSpline
210
0.0
220
0.0
230
1.0
 70
    12
 71
     2
 72
     6
 73
     3
 74
     0
 42
0.0000000001
 43
0.0000000001
 40
0.0
 40
0.0
 40
0.0
 40
0.1139471155232706
 40
0.1139471155232706
 40
0.1139471155232706
 10
38.71604729533178
 20
7.642057134438875
 30
0.0
 41
1.0
 10
38.71589182096811
 20
7.585083514830497
 30
0.0
 41
0.9999927866500362
 10
38.71530355493846
 20
7.528112720149045
 30
0.0
 41
1.0
  0
SPLINE
  5
114
330
1F
100
AcDbEntity
  8
Default
100
AcDbSpline
210
0.0
220
0.0
230
1.0
 70
    12
 71
     2
 72
     6
 73
     3
 74
     0
 42
0.0000000001
 43
0.0000000001
 40
0.0
 40
0.0
 40
0.0
 40
0.0016458492352807
 40
0.0016458492352807
 40
0.0016458492352807
 10
36.12384581903707
 20
8.956528927874688
 30
0.0
 41
1.0
 10
36.1238658767717
 20
8.957351611008718
 30
0.0
 41
0.9999945451705072
 10
36.12388049949828
 20
8.958174408691995
 30
0.0
 41
1.0
  0
SPLINE
  5
115
330
1F
100
AcDbEntity
  8
Default
100
AcDbSpline
210
0.0
220
0.0
230
1.0
 70
    24
 71
     2
 72
     6
 73
     3
 74
     0
 42
0.0000000001
 43
0.0000000001
 40
0.0
 40
0.0
 40
0.0
 40
0.112599937293033
 40
0.112599937293033
 40
0.112599937293033
 10
36.12471844874479
 20
6.503000000000002
 30
0.0
 10
36.12413713766807
 20
6.559296967476331
 30
0.0
 10
36.12355582659136
 20
6.61559393495266
 30
0.0
  0
SPLINE
  5
116
330
1F
100
AcDbEntity
  8
Default
100
AcDbSpline
210
0.0
220
0.0
230
1.0
 70
    12
 71
     2
 72
     6
 73
     3
 74
     0
 42
0.0000000001
 43
0.0000000001
 40
0.0
 40
0.0
 40
0.0
 40
3.092011503542182
 40
3.092011503542182
 40
3.092011503542182
 10
38.05453283326104
 20
8.652289268940075
 30
0.0
 41
1.0
 10
39.25803483687066
 20
9.622710240203618
 30
0.0
 41
0.9999999530410956
 10
40.46094182378862
 20
10.59386867989464
 30
0.0
 41
1.0
  0
SPLINE
  5
117
330
1F
100
AcDbEntity
  8
Default
100
AcDbSpline
210
0.0
220
0.0
230
1.0
 70
    24
 71
     2
 72
     6
 73
     3
 74
     0
 42
0.0000000001
 43
0.0000000001
 40
0.0
 40
0.0
 40
0.0
 40
1.025167281498075
 40
1.025167281498075
 40
1.025167281498075
 10
38.71530355404023
 20
7.528112633128699
 30
0.0
 10
38.71001100139281
 20
7.01555631656435
 30
0.0
 10
38.7047184487454
 20
6.503000000000002
 30
0.0
  0
SPLINE
  5
118
330
1F
100
AcDbEntity
  8
Default
100
AcDbSpline
210
0.0
220
0.0
230
1.0
 70
     8
 71
     3
 72
    17
 73
    13
 74
     0
 42
0.0000000001
 43
0.0000000001
 40
0.0
 40
0.0
 40
0.0
 40
0.0
 40
1.583348977181871
 40
3.166690142938187
 40
6.559616324916756
 40
7.288544629302502
 40
7.740948595691073
 40
7.89507841486297
 40
7.941157448574656
 40
8.091243362495282
 40
8.602996629603426
 40
9.085710318200702
 40
9.085710318200702
 40
9.085710318200702
 40
9.085710318200702
 10
-0.0001702804436588
 20
20.66574109891014
 30
0.0
 10
-0.5282532155006598
 20
20.66663398799276
 30
0.0
 10
-1.583867537253268
 20
20.7021100690689
 30
0.0
 10
-3.760567931294594
 20
20.92060091785211
 30
0.0
 10
-5.628415602148469
 20
21.30235328290907
 30
0.0
 10
-7.089317296136566
 20
21.74047124355862
 30
0.0
 10
-7.513373647517646
 20
21.8747399063552
 30
0.0
 10
-7.71867829334071
 20
21.94864086105559
 30
0.0
 10
-7.824321516969406
 20
21.99559608899124
 30
0.0
 10
-8.01527796652012
 20
22.1480069050879
 30
0.0
 10
-8.079795214727357
 20
22.57844432584982
 30
0.0
 10
-7.786037949927675
 20
22.82464616577117
 30
0.0
 10
-7.621030869381713
 20
22.82466872414886
 30
0.0
  0
SPLINE
  5
119
330
1F
100
AcDbEntity
  8
Default
100
AcDbSpline
210
0.0
220
0.0
230
1.0
 70
     8
 71
     3
 72
    16
 73
    12
 74
     0
 42
0.0000000001
 43
0.0000000001
 40
0.0
 40
0.0
 40
0.0
 40
0.0
 40
0.25917357824941
 40
0.5313250951131223
 40
0.8062891213771717
 40
1.076007683076276
 40
1.184304794422798
 40
1.53312099352432
 40
2.827659996460979
 40
4.863332835929444
 40
9.085659008899984
 40
9.085659008899984
 40
9.085659008899984
 40
9.085659008899984
 10
7.620690308492119
 20
22.82466872414886
 30
0.0
 10
7.707605889845897
 20
22.82393217099808
 30
0.0
 10
7.880460718854942
 20
22.75483010303822
 30
0.0
 10
8.029737009513752
 20
22.51389765209371
 30
0.0
 10
8.027074761098742
 20
22.23541795460014
 30
0.0
 10
7.901757994202302
 20
22.03887235258862
 30
0.0
 10
7.684851312802171
 20
21.92945459121078
 30
0.0
 10
7.128018413461779
 20
21.75168853596108
 30
0.0
 10
5.954130219945237
 20
21.39712427872903
 30
0.0
 10
3.492450443191149
 20
20.85498443945166
 30
0.0
 10
1.408084850600769
 20
20.66657677813721
 30
0.0
 10
-0.0001702804436588
 20
20.66574109891014
 30
0.0
  0
SPLINE
  5
11A
330
1F
100
AcDbEntity
  8
Default
100
AcDbSpline
210
0.0
220
0.0
230
1.0
 70
    24
 71
     2
 72
     6
 73
     3
 74
     0
 42
0.0000000001
 43
0.0000000001
 40
-15.24172117787628
 40
-15.24172117787628
 40
-15.24172117787628
 40
0.0
 40
0.0
 40
0.0
 10
-7.621030869381713
 20
22.82466872414886
 30
0.0
 10
-0.0001702804447974
 20
22.82466872414886
 30
0.0
 10
7.620690308492119
 20
22.82466872414886
 30
0.0
  0
SPLINE
  5
11B
330
1F
100
AcDbEntity
  8
Default
100
AcDbSpline
210
0.0
220
0.0
230
1.0
 70
    12
 71
     2
 72
     6
 73
     3
 74
     0
 42
0.0000000001
 43
0.0000000001
 40
-0.0656173027366791
 40
-0.0656173027366791
 40
-0.0656173027366791
 40
0.0
 40
0.0
 40
0.0
 10
7.499924066972764
 20
22.88466362845017
 30
0.0
 41
1.0
 10
7.499855046733224
 20
22.85034480414052
 30
0.0
 41
0.9352792519983516
 10
7.477083894275168
 20
22.82466872419201
 30
0.0
 41
1.0
  0
SPLINE
  5
11C
330
1F
100
AcDbEntity
  8
Default
100
AcDbSpline
210
0.0
220
0.0
230
1.0
 70
     8
 71
     3
 72
    17
 73
    13
 74
     0
 42
0.0000000001
 43
0.0000000001
 40
-8.755626097726196
 40
-8.755626097726196
 40
-8.755626097726196
 40
-8.755626097726196
 40
-4.776282370863886
 40
-3.164298721649736
 40
-2.434389325513071
 40
-2.044295135349463
 40
-1.897362089687086
 40
-1.848238087264318
 40
-1.312328825047647
 40
-1.20934836101286
 40
-1.179167756295077
 40
0.0
 40
0.0
 40
0.0
 40
0.0
 10
-0.0001231067354479
 20
25.0117900908494
 30
0.0
 10
1.326129744930677
 20
25.0117900908494
 30
0.0
 10
3.450245042538919
 20
24.98409042162372
 30
0.0
 10
5.550786792350606
 20
24.8074881039173
 30
0.0
 10
6.453952405972891
 20
24.69038242949753
 30
0.0
 10
6.870999188931138
 20
24.62297479851756
 30
0.0
 10
7.063481009808384
 20
24.59096927657248
 30
0.0
 10
7.302694562787559
 20
24.53651110623977
 30
0.0
 10
7.479967629724285
 20
24.34236668224158
 30
0.0
 10
7.500213984742982
 20
24.11817640329954
 30
0.0
 10
7.499448366614544
 20
23.6810862115654
 30
0.0
 10
7.50160961399168
 20
23.27755513857672
 30
0.0
 10
7.499924066972764
 20
22.88466362845017
 30
0.0
  0
SPLINE
  5
11D
330
1F
100
AcDbEntity
  8
Default
100
AcDbSpline
210
0.0
220
0.0
230
1.0
 70
     8
 71
     3
 72
    17
 73
    13
 74
     0
 42
0.0000000001
 43
0.0000000001
 40
0.0
 40
0.0
 40
0.0
 40
0.0
 40
1.179167756295077
 40
1.20934836101286
 40
1.312328825047647
 40
1.848238087264318
 40
1.897362089687086
 40
2.044295135349463
 40
2.434389325513071
 40
3.164298721649736
 40
4.776282370863886
 40
8.755626097726196
 40
8.755626097726196
 40
8.755626097726196
 40
8.755626097726196
 10
-7.500170280443661
 20
22.88466362845017
 30
0.0
 10
-7.501855827462577
 20
23.27755513857672
 30
0.0
 10
-7.499694580085441
 20
23.6810862115654
 30
0.0
 10
-7.500460198213879
 20
24.11817640329954
 30
0.0
 10
-7.480213843195181
 20
24.34236668224158
 30
0.0
 10
-7.302940776258456
 20
24.53651110623977
 30
0.0
 10
-7.06372722327928
 20
24.59096927657248
 30
0.0
 10
-6.871245402402034
 20
24.62297479851756
 30
0.0
 10
-6.454198619443788
 20
24.69038242949753
 30
0.0
 10
-5.551033005821503
 20
24.8074881039173
 30
0.0
 10
-3.450491256009815
 20
24.98409042162372
 30
0.0
 10
-1.326375958401573
 20
25.0117900908494
 30
0.0
 10
-0.0001231067354479
 20
25.0117900908494
 30
0.0
  0
SPLINE
  5
11E
330
1F
100
AcDbEntity
  8
Default
100
AcDbSpline
210
0.0
220
0.0
230
1.0
 70
    12
 71
     2
 72
     6
 73
     3
 74
     0
 42
0.0000000001
 43
0.0000000001
 40
0.0
 40
0.0
 40
0.0
 40
0.0656173027366791
 40
0.0656173027366791
 40
0.0656173027366791
 10
-7.477330107746065
 20
22.82466872419201
 30
0.0
 41
1.0
 10
-7.500101260204119
 20
22.85034480414052
 30
0.0
 41
0.9352792519983516
 10
-7.500170280443661
 20
22.88466362845017
 30
0.0
 41
1.0
  0
SPLINE
  5
11F
330
1F
100
AcDbEntity
  8
Default
100
AcDbSpline
210
0.0
220
0.0
230
1.0
 70
     8
 71
     3
 72
    17
 73
    13
 74
     0
 42
0.0000000001
 43
0.0000000001
 40
0.0
 40
0.0
 40
0.0
 40
0.0
 40
1.583348977181871
 40
3.166690142938187
 40
6.559616324916756
 40
7.288544629302502
 40
7.740948595691073
 40
7.89507841486297
 40
7.941157448574656
 40
8.091243362495282
 40
8.602996629603426
 40
9.085710318200702
 40
9.085710318200702
 40
9.085710318200702
 40
9.085710318200702
 10
37.41471844874508
 20
20.66574109891014
 30
0.0
 10
36.88663551368808
 20
20.66663398799276
 30
0.0
 10
35.83102119193548
 20
20.7021100690689
 30
0.0
 10
33.65432079789415
 20
20.92060091785211
 30
0.0
 10
31.78647312704028
 20
21.30235328290907
 30
0.0
 10
30.32557143305218
 20
21.74047124355862
 30
0.0
 10
29.9015150816711
 20
21.8747399063552
 30
0.0
 10
29.69621043584804
 20
21.94864086105559
 30
0.0
 10
29.59056721221934
 20
21.99559608899124
 30
0.0
 10
29.39961076266863
 20
22.1480069050879
 30
0.0
 10
29.33509351446139
 20
22.57844432584982
 30
0.0
 10
29.62885077926107
 20
22.82464616577117
 30
0.0
 10
29.79385785980703
 20
22.82466872414886
 30
0.0
  0
SPLINE
  5
120
330
1F
100
AcDbEntity
  8
Default
100
AcDbSpline
210
0.0
220
0.0
230
1.0
 70
     8
 71
     3
 72
    16
 73
    12
 74
     0
 42
0.0000000001
 43
0.0000000001
 40
0.0
 40
0.0
 40
0.0
 40
0.0
 40
0.25917357824941
 40
0.5313250951131223
 40
0.8062891213771717
 40
1.076007683076276
 40
1.184304794422798
 40
1.53312099352432
 40
2.827659996460979
 40
4.863332835929444
 40
9.085659008899984
 40
9.085659008899984
 40
9.085659008899984
 40
9.085659008899984
 10
45.03557903768086
 20
22.82466872414886
 30
0.0
 10
45.12249461903464
 20
22.82393217099808
 30
0.0
 10
45.29534944804369
 20
22.75483010303822
 30
0.0
 10
45.4446257387025
 20
22.51389765209371
 30
0.0
 10
45.44196349028749
 20
22.23541795460014
 30
0.0
 10
45.31664672339105
 20
22.03887235258862
 30
0.0
 10
45.09974004199092
 20
21.92945459121078
 30
0.0
 10
44.54290714265053
 20
21.75168853596108
 30
0.0
 10
43.36901894913398
 20
21.39712427872903
 30
0.0
 10
40.90733917237989
 20
20.85498443945166
 30
0.0
 10
38.82297357978951
 20
20.66657677813721
 30
0.0
 10
37.41471844874508
 20
20.66574109891014
 30
0.0
  0
SPLINE
  5
121
330
1F
100
AcDbEntity
  8
Default
100
AcDbSpline
210
0.0
220
0.0
230
1.0
 70
    24
 71
     2
 72
     6
 73
     3
 74
     0
 42
0.0000000001
 43
0.0000000001
 40
-15.24172117787628
 40
-15.24172117787628
 40
-15.24172117787628
 40
0.0
 40
0.0
 40
0.0
 10
29.79385785980703
 20
22.82466872414886
 30
0.0
 10
37.41471844874395
 20
22.82466872414886
 30
0.0
 10
45.03557903768086
 20
22.82466872414886
 30
0.0
  0
SPLINE
  5
122
330
1F
100
AcDbEntity
  8
Default
100
AcDbSpline
210
0.0
220
0.0
230
1.0
 70
    12
 71
     2
 72
     6
 73
     3
 74
     0
 42
0.0000000001
 43
0.0000000001
 40
-0.0656173027366791
 40
-0.0656173027366791
 40
-0.0656173027366791
 40
0.0
 40
0.0
 40
0.0
 10
44.91481279616151
 20
22.88466362845017
 30
0.0
 41
1.0
 10
44.91474377592197
 20
22.85034480414052
 30
0.0
 41
0.9352792519983516
 10
44.89197262346391
 20
22.82466872419201
 30
0.0
 41
1.0
  0
SPLINE
  5
123
330
1F
100
AcDbEntity
  8
Default
100
AcDbSpline
210
0.0
220
0.0
230
1.0
 70
     8
 71
     3
 72
    17
 73
    13
 74
     0
 42
0.0000000001
 43
0.0000000001
 40
-8.755626097726196
 40
-8.755626097726196
 40
-8.755626097726196
 40
-8.755626097726196
 40
-4.776282370863886
 40
-3.164298721649736
 40
-2.434389325513071
 40
-2.044295135349463
 40
-1.897362089687086
 40
-1.848238087264318
 40
-1.312328825047647
 40
-1.20934836101286
 40
-1.179167756295077
 40
0.0
 40
0.0
 40
0.0
 40
0.0
 10
37.4147656224533
 20
25.0117900908494
 30
0.0
 10
38.74101847411942
 20
25.0117900908494
 30
0.0
 10
40.86513377172766
 20
24.98409042162372
 30
0.0
 10
42.96567552153935
 20
24.8074881039173
 30
0.0
 10
43.86884113516164
 20
24.69038242949753
 30
0.0
 10
44.28588791811988
 20
24.62297479851756
 30
0.0
 10
44.47836973899713
 20
24.59096927657248
 30
0.0
 10
44.7175832919763
 20
24.53651110623977
 30
0.0
 10
44.89485635891303
 20
24.34236668224158
 30
0.0
 10
44.91510271393173
 20
24.11817640329954
 30
0.0
 10
44.91433709580329
 20
23.6810862115654
 30
0.0
 10
44.91649834318043
 20
23.27755513857672
 30
0.0
 10
44.91481279616151
 20
22.88466362845017
 30
0.0
  0
SPLINE
  5
124
330
1F
100
AcDbEntity
  8
Default
100
AcDbSpline
210
0.0
220
0.0
230
1.0
 70
     8
 71
     3
 72
    17
 73
    13
 74
     0
 42
0.0000000001
 43
0.0000000001
 40
0.0
 40
0.0
 40
0.0
 40
0.0
 40
1.179167756295077
 40
1.20934836101286
 40
1.312328825047647
 40
1.848238087264318
 40
1.897362089687086
 40
2.044295135349463
 40
2.434389325513071
 40
3.164298721649736
 40
4.776282370863886
 40
8.755626097726196
 40
8.755626097726196
 40
8.755626097726196
 40
8.755626097726196
 10
29.91471844874508
 20
22.88466362845017
 30
0.0
 10
29.91303290172617
 20
23.27755513857672
 30
0.0
 10
29.91519414910331
 20
23.6810862115654
 30
0.0
 10
29.91442853097487
 20
24.11817640329954
 30
0.0
 10
29.93467488599357
 20
24.34236668224158
 30
0.0
 10
30.11194795293029
 20
24.53651110623977
 30
0.0
 10
30.35116150590947
 20
24.59096927657248
 30
0.0
 10
30.54364332678671
 20
24.62297479851756
 30
0.0
 10
30.96069010974496
 20
24.69038242949753
 30
0.0
 10
31.86385572336724
 20
24.8074881039173
 30
0.0
 10
33.96439747317893
 20
24.98409042162372
 30
0.0
 10
36.08851277078718
 20
25.0117900908494
 30
0.0
 10
37.4147656224533
 20
25.0117900908494
 30
0.0
  0
SPLINE
  5
125
330
1F
100
AcDbEntity
  8
Default
100
AcDbSpline
210
0.0
220
0.0
230
1.0
 70
    12
 71
     2
 72
     6
 73
     3
 74
     0
 42
0.0000000001
 43
0.0000000001
 40
0.0
 40
0.0
 40
0.0
 40
0.0656173027366791
 40
0.0656173027366791
 40
0.0656173027366791
 10
29.93755862144268
 20
22.82466872419201
 30
0.0
 41
1.0
 10
29.91478746898463
 20
22.85034480414052
 30
0.0
 41
0.9352792519983516
 10
29.91471844874508
 20
22.88466362845017
 30
0.0
 41
1.0
  0
LINE
  5
126
330
1F
100
AcDbEntity
  8
Default
100
AcDbLine
 10
36.12732753268983
 20
20.70169732328763
 30
0.0
 11
36.12732753268983
 21
11.77300000000003
 31
0.0
  0
LINE
  5
127
330
1F
100
AcDbEntity
  8
Default
100
AcDbLine
 10
38.70732753269003
 20
11.77300000000004
 30
0.0
 11
38.70732753269003
 21
20.70181546518884
 31
0.0
  0
LINE
  5
128
330
1F
100
AcDbEntity
  8
Default
100
AcDbLine
 10
-1.290000000000092
 20
20.7018303769149
 30
0.0
 11
-1.290000000000092
 21
11.77300000000003
 31
0.0
  0
LINE
  5
129
330
1F
100
AcDbEntity
  8
Default
100
AcDbLine
 10
1.290000000000106
 20
11.77300000000004
 30
0.0
 11
1.290000000000106
 21
20.70168115678116
 31
0.0
  0
ENDSEC
  0
SECTION
  2
OBJECTS
  0
DICTIONARY
  5
C
330
0
100
AcDbDictionary
281
     1
  3
ACAD_GROUP
350
D
  3
ACAD_LAYOUT
350
1A
  3
ACAD_MLEADERSTYLE
350
12B
  3
ACAD_MLINESTYLE
350
17
  3
ACAD_PLOTSETTINGS
350
19
  3
ACAD_PLOTSTYLENAME
350
E
  3
ACAD_TABLESTYLE
350
12A
  3
ACAD_VISUALSTYLE
350
2A
  0
DICTIONARY
  5
D
102
{ACAD_REACTORS
330
C
102
}
330
C
100
AcDbDictionary
281
     1
  0
DICTIONARY
  5
1A
102
{ACAD_REACTORS
330
C
102
}
330
C
100
AcDbDictionary
281
     1
  3
Layout1
350
1E
  3
Layout2
350
26
  3
Model
350
22
  0
DICTIONARY
  5
12B
102
{ACAD_REACTORS
330
C
102
}
330
C
100
AcDbDictionary
281
     1
  0
DICTIONARY
  5
17
102
{ACAD_REACTORS
330
C
102
}
330
C
100
AcDbDictionary
281
     1
  3
Standard
350
18
  0
DICTIONARY
  5
19
102
{ACAD_REACTORS
330
C
102
}
330
C
100
AcDbDictionary
281
     1
  0
ACDBDICTIONARYWDFLT
  5
E
102
{ACAD_REACTORS
330
C
102
}
330
C
100
AcDbDictionary
281
     1
  3
Normal
350
F
100
AcDbDictionaryWithDefault
340
F
  0
DICTIONARY
  5
12A
102
{ACAD_REACTORS
330
C
102
}
330
C
100
AcDbDictionary
281
     1
  0
DICTIONARY
  5
2A
102
{ACAD_REACTORS
330
C
102
}
330
C
100
AcDbDictionary
281
     1
  3
2dWireframe
350
2F
  3
3D Hidden
350
31
  3
3dWireframe
350
30
  3
Basic
350
32
  3
Brighten
350
36
  3
ColorChange
350
3A
  3
Conceptual
350
34
  3
Dim
350
35
  3
Facepattern
350
39
  3
Flat
350
2B
  3
FlatWithEdges
350
2C
  3
Gouraud
350
2D
  3
GouraudWithEdges
350
2E
  3
Linepattern
350
38
  3
Realistic
350
33
  3
Thicken
350
37
  0
LAYOUT
  5
1E
102
{ACAD_REACTORS
330
1A
102
}
330
1A
100
AcDbPlotSettings
  1

  2
none_device
  4

  6

 40
0.0
 41
0.0
 42
0.0
 43
0.0
 44
0.0
 45
0.0
 46
0.0
 47
0.0
 48
0.0
 49
0.0
140
0.0
141
0.0
142
1.0
143
1.0
 70
   688
 72
     0
 73
     0
 74
     5
  7

 75
    16
 76
     0
 77
     2
 78
   300
147
1.0
148
0.0
149
0.0
100
AcDbLayout
  1
Layout1
 70
     1
 71
     1
 10
0.0
 20
0.0
 11
12.0
 21
9.0
 12
0.0
 22
0.0
 32
0.0
 14
1.000000000000000E+20
 24
1.000000000000000E+20
 34
1.000000000000000E+20
 15
-1.000000000000000E+20
 25
-1.000000000000000E+20
 35
-1.000000000000000E+20
146
0.0
 13
0.0
 23
0.0
 33
0.0
 16
1.0
 26
0.0
 36
0.0
 17
0.0
 27
1.0
 37
0.0
 76
     0
330
1B
  0
LAYOUT
  5
26
102
{ACAD_REACTORS
330
1A
102
}
330
1A
100
AcDbPlotSettings
  1

  2
none_device
  4

  6

 40
0.0
 41
0.0
 42
0.0
 43
0.0
 44
0.0
 45
0.0
 46
0.0
 47
0.0
 48
0.0
 49
0.0
140
0.0
141
0.0
142
1.0
143
1.0
 70
   688
 72
     0
 73
     0
 74
     5
  7

 75
    16
 76
     0
 77
     2
 78
   300
147
1.0
148
0.0
149
0.0
100
AcDbLayout
  1
Layout2
 70
     1
 71
     2
 10
0.0
 20
0.0
 11
0.0
 21
0.0
 12
0.0
 22
0.0
 32
0.0
 14
0.0
 24
0.0
 34
0.0
 15
0.0
 25
0.0
 35
0.0
146
0.0
 13
0.0
 23
0.0
 33
0.0
 16
1.0
 26
0.0
 36
0.0
 17
0.0
 27
1.0
 37
0.0
 76
     0
330
23
  0
LAYOUT
  5
22
102
{ACAD_REACTORS
330
1A
102
}
330
1A
100
AcDbPlotSettings
  1

  2
none_device
  4

  6

 40
0.0
 41
0.0
 42
0.0
 43
0.0
 44
0.0
 45
0.0
 46
0.0
 47
0.0
 48
0.0
 49
0.0
140
0.0
141
0.0
142
1.0
143
1.0
 70
  1712
 72
     0
 73
     0
 74
     0
  7

 75
     0
 76
     0
 77
     2
 78
   300
147
1.0
148
0.0
149
0.0
100
AcDbLayout
  1
Model
 70
     1
 71
     0
 10
0.0
 20
0.0
 11
12.0
 21
9.0
 12
0.0
 22
0.0
 32
0.0
 14
-10.43195633604333
 24
0.0000000000141378
 34
0.0
 15
47.85428262125117
 25
58.91584559710249
 35
0.0
146
0.0
 13
0.0
 23
0.0
 33
0.0
 16
1.0
 26
0.0
 36
0.0
 17
0.0
 27
1.0
 37
0.0
 76
     0
330
1F
331
29
  0
MLINESTYLE
  5
18
102
{ACAD_REACTORS
330
17
102
}
330
17
100
AcDbMlineStyle
  2
Standard
 70
     0
  3

 62
   256
 51
90.0
 52
90.0
 71
     2
 49
0.5
 62
   256
  6
BYLAYER
 49
-0.5
 62
   256
  6
BYLAYER
  0
ACDBPLACEHOLDER
  5
F
102
{ACAD_REACTORS
330
E
102
}
330
E
  0
VISUALSTYLE
  5
2F
102
{ACAD_REACTORS
330
2A
102
}
330
2A
100
AcDbVisualStyle
  2
2dWireframe
 70
     4
 71
     0
 72
     2
 73
     0
 90
        0
 40
-0.6
 41
-30.0
 62
     5
 63
     7
421
 16777215
 74
     1
 91
        4
 64
     7
 65
   257
 75
     1
175
     1
 42
1.0
 92
        0
 66
   257
 43
1.0
 76
     1
 77
     6
 78
     2
 67
     7
 79
     5
170
     0
171
     0
290
     0
174
     0
 93
        1
 44
0.0
173
     0
291
     0
 45
0.0
1001
ACAD
1000
AcDbSavedByObjectVersion
1070
     0
  0
VISUALSTYLE
  5
31
102
{ACAD_REACTORS
330
2A
102
}
330
2A
100
AcDbVisualStyle
  2
3D Hidden
 70
     6
 71
     1
 72
     2
 73
     2
 90
        0
 40
-0.6
 41
-30.0
 62
     5
 63
     7
421
 16777215
 74
     2
 91
        2
 64
     7
 65
   257
 75
     2
175
     1
 42
40.0
 92
        0
 66
   257
 43
1.0
 76
     1
 77
     6
 78
     2
 67
     7
 79
     3
170
     0
171
     0
290
     0
174
     0
 93
        1
 44
0.0
173
     0
291
     0
 45
0.0
1001
ACAD
1000
AcDbSavedByObjectVersion
1070
     0
  0
VISUALSTYLE
  5
30
102
{ACAD_REACTORS
330
2A
102
}
330
2A
100
AcDbVisualStyle
  2
3dWireframe
 70
     5
 71
     0
 72
     2
 73
     0
 90
        0
 40
-0.6
 41
-30.0
 62
     5
 63
     7
421
 16777215
 74
     1
 91
        4
 64
     7
 65
   257
 75
     1
175
     1
 42
1.0
 92
        0
 66
   257
 43
1.0
 76
     1
 77
     6
 78
     2
 67
     7
 79
     5
170
     0
171
     0
290
     0
174
     0
 93
        1
 44
0.0
173
     0
291
     0
 45
0.0
1001
ACAD
1000
AcDbSavedByObjectVersion
1070
     0
  0
VISUALSTYLE
  5
32
102
{ACAD_REACTORS
330
2A
102
}
330
2A
100
AcDbVisualStyle
  2
Basic
 70
     7
 71
     1
 72
     0
 73
     1
 90
        0
 40
-0.6
 41
-30.0
 62
     5
 63
     7
421
 16777215
 74
     0
 91
        4
 64
     7
 65
   257
 75
     1
175
     1
 42
1.0
 92
        8
 66
     7
 43
1.0
 76
     1
 77
     6
 78
     2
 67
     7
 79
     5
170
     0
171
     0
290
     0
174
     0
 93
        1
 44
0.0
173
     0
291
     1
 45
0.0
1001
ACAD
1000
AcDbSavedByObjectVersion
1070
     0
  0
VISUALSTYLE
  5
36
102
{ACAD_REACTORS
330
2A
102
}
330
2A
100
AcDbVisualStyle
  2
Brighten
 70
    12
 71
     2
 72
     2
 73
     0
 90
        0
 40
-0.6
 41
-30.0
 62
     5
 63
     7
421
 16777215
 74
     1
 91
        4
 64
     7
 65
   257
 75
     1
175
     1
 42
1.0
 92
        8
 66
     7
 43
1.0
 76
     1
 77
     6
 78
     2
 67
     7
 79
     5
170
     0
171
     0
290
     0
174
     0
 93
        1
 44
50.0
173
     0
291
     1
 45
0.0
1001
ACAD
1000
AcDbSavedByObjectVersion
1070
     0
  0
VISUALSTYLE
  5
3A
102
{ACAD_REACTORS
330
2A
102
}
330
2A
100
AcDbVisualStyle
  2
ColorChange
 70
    16
 71
     2
 72
     2
 73
     3
 90
        0
 40
-0.6
 41
-30.0
 62
     5
 63
     8
421
  8421504
 74
     1
 91
        4
 64
     7
 65
   257
 75
     1
175
     1
 42
1.0
 92
        8
 66
     8
424
  8421504
 43
1.0
 76
     1
 77
     6
 78
     2
 67
     7
 79
     5
170
     0
171
     0
290
     0
174
     0
 93
        1
 44
0.0
173
     0
291
     1
 45
0.0
1001
ACAD
1000
AcDbSavedByObjectVersion
1070
     0
  0
VISUALSTYLE
  5
34
102
{ACAD_REACTORS
330
2A
102
}
330
2A
100
AcDbVisualStyle
  2
Conceptual
 70
     9
 71
     3
 72
     2
 73
     0
 90
        0
 40
-0.6
 41
-30.0
 62
     5
 63
     7
421
 16777215
 74
     2
 91
        2
 64
     7
 65
   257
 75
     1
175
     1
 42
40.0
 92
        8
 66
     7
 43
1.0
 76
     1
 77
     6
 78
     2
 67
     7
 79
     3
170
     0
171
     0
290
     0
174
     0
 93
        1
 44
0.0
173
     0
291
     0
 45
0.0
1001
ACAD
1000
AcDbSavedByObjectVersion
1070
     0
  0
VISUALSTYLE
  5
35
102
{ACAD_REACTORS
330
2A
102
}
330
2A
100
AcDbVisualStyle
  2
Dim
 70
    11
 71
     2
 72
     2
 73
     0
 90
        0
 40
-0.6
 41
-30.0
 62
     5
 63
     7
421
 16777215
 74
     1
 91
        4
 64
     7
 65
   257
 75
     1
175
     1
 42
1.0
 92
        8
 66
     7
 43
1.0
 76
     1
 77
     6
 78
     2
 67
     7
 79
     5
170
     0
171
     0
290
     0
174
     0
 93
        1
 44
-50.0
173
     0
291
     1
 45
0.0
1001
ACAD
1000
AcDbSavedByObjectVersion
1070
     0
  0
VISUALSTYLE
  5
39
102
{ACAD_REACTORS
330
2A
102
}
330
2A
100
AcDbVisualStyle
  2
Facepattern
 70
    15
 71
     2
 72
     2
 73
     0
 90
        0
 40
-0.6
 41
-30.0
 62
     5
 63
     7
421
 16777215
 74
     1
 91
        4
 64
     7
 65
   257
 75
     1
175
     1
 42
1.0
 92
        8
 66
     7
 43
1.0
 76
     1
 77
     6
 78
     2
 67
     7
 79
     5
170
     0
171
     0
290
     0
174
     0
 93
        1
 44
0.0
173
     0
291
     1
 45
0.0
1001
ACAD
1000
AcDbSavedByObjectVersion
1070
     0
  0
VISUALSTYLE
  5
2B
102
{ACAD_REACTORS
330
2A
102
}
330
2A
100
AcDbVisualStyle
  2
Flat
 70
     0
 71
     2
 72
     1
 73
     1
 90
        2
 40
-0.6
 41
30.0
 62
     5
 63
     7
421
 16777215
 74
     0
 91
        4
 64
     7
 65
   257
 75
     1
175
     1
 42
1.0
 92
        8
 66
     7
 43
1.0
 76
     1
 77
     6
 78
     2
 67
     7
 79
     5
170
     0
171
     0
290
     0
174
     0
 93
       13
 44
0.0
173
     0
291
     1
 45
0.0
1001
ACAD
1000
AcDbSavedByObjectVersion
1070
     0
  0
VISUALSTYLE
  5
2C
102
{ACAD_REACTORS
330
2A
102
}
330
2A
100
AcDbVisualStyle
  2
FlatWithEdges
 70
     1
 71
     2
 72
     1
 73
     1
 90
        2
 40
-0.6
 41
30.0
 62
     5
 63
     7
421
 16777215
 74
     1
 91
        4
 64
     7
 65
   257
 75
     1
175
     1
 42
1.0
 92
        0
 66
   257
 43
1.0
 76
     1
 77
     6
 78
     2
 67
     7
 79
     5
170
     0
171
     0
290
     0
174
     0
 93
       13
 44
0.0
173
     0
291
     1
 45
0.0
1001
ACAD
1000
AcDbSavedByObjectVersion
1070
     0
  0
VISUALSTYLE
  5
2D
102
{ACAD_REACTORS
330
2A
102
}
330
2A
100
AcDbVisualStyle
  2
Gouraud
 70
     2
 71
     2
 72
     2
 73
     1
 90
        2
 40
-0.6
 41
30.0
 62
     5
 63
     7
421
 16777215
 74
     0
 91
        4
 64
     7
 65
   257
 75
     1
175
     1
 42
1.0
 92
        0
 66
     7
 43
1.0
 76
     1
 77
     6
 78
     2
 67
     7
 79
     5
170
     0
171
     0
290
     0
174
     0
 93
       13
 44
0.0
173
     0
291
     1
 45
0.0
1001
ACAD
1000
AcDbSavedByObjectVersion
1070
     0
  0
VISUALSTYLE
  5
2E
102
{ACAD_REACTORS
330
2A
102
}
330
2A
100
AcDbVisualStyle
  2
GouraudWithEdges
 70
     3
 71
     2
 72
     2
 73
     1
 90
        2
 40
-0.6
 41
30.0
 62
     5
 63
     7
421
 16777215
 74
     1
 91
        4
 64
     7
 65
   257
 75
     1
175
     1
 42
1.0
 92
        0
 66
   257
 43
1.0
 76
     1
 77
     6
 78
     2
 67
     7
 79
     5
170
     0
171
     0
290
     0
174
     0
 93
       13
 44
0.0
173
     0
291
     1
 45
0.0
1001
ACAD
1000
AcDbSavedByObjectVersion
1070
     0
  0
VISUALSTYLE
  5
38
102
{ACAD_REACTORS
330
2A
102
}
330
2A
100
AcDbVisualStyle
  2
Linepattern
 70
    14
 71
     2
 72
     2
 73
     0
 90
        0
 40
-0.6
 41
-30.0
 62
     5
 63
     7
421
 16777215
 74
     1
 91
        4
 64
     7
 65
   257
 75
     7
175
     7
 42
1.0
 92
        8
 66
     7
 43
1.0
 76
     1
 77
     6
 78
     2
 67
     7
 79
     5
170
     0
171
     0
290
     0
174
     0
 93
        1
 44
0.0
173
     0
291
     1
 45
0.0
1001
ACAD
1000
AcDbSavedByObjectVersion
1070
     0
  0
VISUALSTYLE
  5
33
102
{ACAD_REACTORS
330
2A
102
}
330
2A
100
AcDbVisualStyle
  2
Realistic
 70
     8
 71
     2
 72
     2
 73
     0
 90
        0
 40
-0.6
 41
-30.0
 62
     5
 63
     7
421
 16777215
 74
     1
 91
        0
 64
     7
 65
   257
 75
     1
175
     1
 42
1.0
 92
        8
 66
     8
424
  7895160
 43
1.0
 76
     1
 77
     6
 78
     2
 67
     7
 79
     5
170
     0
171
     0
290
     0
174
     0
 93
       13
 44
0.0
173
     0
291
     0
 45
0.0
1001
ACAD
1000
AcDbSavedByObjectVersion
1070
     0
  0
VISUALSTYLE
  5
37
102
{ACAD_REACTORS
330
2A
102
}
330
2A
100
AcDbVisualStyle
  2
Thicken
 70
    13
 71
     2
 72
     2
 73
     0
 90
        0
 40
-0.6
 41
-30.0
 62
     5
 63
     7
421
 16777215
 74
     1
 91
        4
 64
     7
 65
   257
 75
     1
175
     1
 42
1.0
 92
       12
 66
     7
 43
1.0
 76
     1
 77
     6
 78
     2
 67
     7
 79
     5
170
     0
171
     0
290
     0
174
     0
 93
        1
 44
0.0
173
     0
291
     1
 45
0.0
1001
ACAD
1000
AcDbSavedByObjectVersion
1070
     0
  0
ENDSEC
  0
EOF
