  0
SECTION
  2
HEADER
  9
$ACADVER
  1
AC1018
  9
$ACADMAINTVER
 70
     0
  9
$DWGCODEPAGE
  3
ANSI_1252
  9
$INSBASE
 10
0.0
 20
0.0
 30
0.0
  9
$EXTMIN
 10
-18.0000000000003
 20
0.0000000000141378
 30
0.0
  9
$EXTMAX
 10
18.0000000000003
 20
71.0908826854074
 30
0.0
  9
$LIMMIN
 10
0.0
 20
0.0
  9
$LIMMAX
 10
12.0
 20
9.0
  9
$ORTHOMODE
 70
     0
  9
$REGENMODE
 70
     1
  9
$FILLMODE
 70
     1
  9
$QTEXTMODE
 70
     0
  9
$MIRRTEXT
 70
     1
  9
$LTSCALE
 40
0.0393700787401575
  9
$ATTMODE
 70
     1
  9
$TEXTSIZE
 40
0.2
  9
$TRACEWID
 40
0.05
  9
$TEXTSTYLE
  7
Standard
  9
$CLAYER
  8
Default
  9
$CELTYPE
  6
ByLayer
  9
$CECOLOR
 62
   256
  9
$CELTSCALE
 40
1.0
  9
$DISPSILH
 70
     0
  9
$DIMSCALE
 40
1.0
  9
$DIMASZ
 40
0.18
  9
$DIMEXO
 40
0.0625
  9
$DIMDLI
 40
0.38
  9
$DIMRND
 40
0.0
  9
$DIMDLE
 40
0.0
  9
$DIMEXE
 40
0.18
  9
$DIMTP
 40
0.0
  9
$DIMTM
 40
0.0
  9
$DIMTXT
 40
0.18
  9
$DIMCEN
 40
0.09
  9
$DIMTSZ
 40
0.0
  9
$DIMTOL
 70
     0
  9
$DIMLIM
 70
     0
  9
$DIMTIH
 70
     1
  9
$DIMTOH
 70
     1
  9
$DIMSE1
 70
     0
  9
$DIMSE2
 70
     0
  9
$DIMTAD
 70
     0
  9
$DIMZIN
 70
     0
  9
$DIMBLK
  1

  9
$DIMASO
 70
     1
  9
$DIMSHO
 70
     1
  9
$DIMPOST
  1

  9
$DIMAPOST
  1

  9
$DIMALT
 70
     0
  9
$DIMALTD
 70
     2
  9
$DIMALTF
 40
25.4
  9
$DIMLFAC
 40
1.0
  9
$DIMTOFL
 70
     0
  9
$DIMTVP
 40
0.0
  9
$DIMTIX
 70
     0
  9
$DIMSOXD
 70
     0
  9
$DIMSAH
 70
     0
  9
$DIMBLK1
  1

  9
$DIMBLK2
  1

  9
$DIMSTYLE
  2
Standard
  9
$DIMCLRD
 70
     0
  9
$DIMCLRE
 70
     0
  9
$DIMCLRT
 70
     0
  9
$DIMTFAC
 40
1.0
  9
$DIMGAP
 40
0.09
  9
$DIMJUST
 70
     0
  9
$DIMSD1
 70
     0
  9
$DIMSD2
 70
     0
  9
$DIMTOLJ
 70
     1
  9
$DIMTZIN
 70
     0
  9
$DIMALTZ
 70
     0
  9
$DIMALTTZ
 70
     0
  9
$DIMUPT
 70
     0
  9
$DIMDEC
 70
     4
  9
$DIMTDEC
 70
     4
  9
$DIMALTU
 70
     2
  9
$DIMALTTD
 70
     2
  9
$DIMTXSTY
  7
Standard
  9
$DIMAUNIT
 70
     0
  9
$DIMADEC
 70
     0
  9
$DIMALTRND
 40
0.0
  9
$DIMAZIN
 70
     0
  9
$DIMDSEP
 70
    46
  9
$DIMATFIT
 70
     3
  9
$DIMFRAC
 70
     0
  9
$DIMLDRBLK
  1

  9
$DIMLUNIT
 70
     2
  9
$DIMLWD
 70
    -2
  9
$DIMLWE
 70
    -2
  9
$DIMTMOVE
 70
     2
  9
$LUNITS
 70
     2
  9
$LUPREC
 70
     3
  9
$SKETCHINC
 40
0.1
  9
$FILLETRAD
 40
0.5
  9
$AUNITS
 70
     0
  9
$AUPREC
 70
     0
  9
$MENU
  1
.
  9
$ELEVATION
 40
0.0
  9
$PELEVATION
 40
0.0
  9
$THICKNESS
 40
0.0
  9
$LIMCHECK
 70
     0
  9
$CHAMFERA
 40
0.5
  9
$CHAMFERB
 40
0.5
  9
$CHAMFERC
 40
1.0
  9
$CHAMFERD
 40
0.0
  9
$SKPOLY
 70
     0
  9
$TDCREATE
 40
2456360.446210185
  9
$TDUCREATE
 40
2456360.654543519
  9
$TDUPDATE
 40
2456360.446210197
  9
$TDUUPDATE
 40
2456360.65454353
  9
$TDINDWG
 40
0.0000000116
  9
$TDUSRTIMER
 40
0.0000000116
  9
$USRTIMER
 70
     1
  9
$ANGBASE
 50
0.0
  9
$ANGDIR
 70
     0
  9
$PDMODE
 70
     0
  9
$PDSIZE
 40
0.0
  9
$PLINEWID
 40
0.0
  9
$SPLFRAME
 70
     0
  9
$SPLINETYPE
 70
     6
  9
$SPLINESEGS
 70
     8
  9
$HANDSEED
  5
7A
  9
$SURFTAB1
 70
     6
  9
$SURFTAB2
 70
     6
  9
$SURFTYPE
 70
     6
  9
$SURFU
 70
     6
  9
$SURFV
 70
     6
  9
$UCSBASE
  2

  9
$UCSNAME
  2

  9
$UCSORG
 10
0.0
 20
0.0
 30
0.0
  9
$UCSXDIR
 10
1.0
 20
0.0
 30
0.0
  9
$UCSYDIR
 10
0.0
 20
1.0
 30
0.0
  9
$UCSORTHOREF
  2

  9
$UCSORTHOVIEW
 70
     0
  9
$UCSORGTOP
 10
0.0
 20
0.0
 30
0.0
  9
$UCSORGBOTTOM
 10
0.0
 20
0.0
 30
0.0
  9
$UCSORGLEFT
 10
0.0
 20
0.0
 30
0.0
  9
$UCSORGRIGHT
 10
0.0
 20
0.0
 30
0.0
  9
$UCSORGFRONT
 10
0.0
 20
0.0
 30
0.0
  9
$UCSORGBACK
 10
0.0
 20
0.0
 30
0.0
  9
$PUCSBASE
  2

  9
$PUCSNAME
  2

  9
$PUCSORG
 10
0.0
 20
0.0
 30
0.0
  9
$PUCSXDIR
 10
1.0
 20
0.0
 30
0.0
  9
$PUCSYDIR
 10
0.0
 20
1.0
 30
0.0
  9
$PUCSORTHOREF
  2

  9
$PUCSORTHOVIEW
 70
     0
  9
$PUCSORGTOP
 10
0.0
 20
0.0
 30
0.0
  9
$PUCSORGBOTTOM
 10
0.0
 20
0.0
 30
0.0
  9
$PUCSORGLEFT
 10
0.0
 20
0.0
 30
0.0
  9
$PUCSORGRIGHT
 10
0.0
 20
0.0
 30
0.0
  9
$PUCSORGFRONT
 10
0.0
 20
0.0
 30
0.0
  9
$PUCSORGBACK
 10
0.0
 20
0.0
 30
0.0
  9
$USERI1
 70
     0
  9
$USERI2
 70
     0
  9
$USERI3
 70
     0
  9
$USERI4
 70
     0
  9
$USERI5
 70
     0
  9
$USERR1
 40
0.0
  9
$USERR2
 40
0.0
  9
$USERR3
 40
0.0
  9
$USERR4
 40
0.0
  9
$USERR5
 40
0.0
  9
$WORLDVIEW
 70
     1
  9
$SHADEDGE
 70
     3
  9
$SHADEDIF
 70
    70
  9
$TILEMODE
 70
     1
  9
$MAXACTVP
 70
    64
  9
$PINSBASE
 10
0.0
 20
0.0
 30
0.0
  9
$PLIMCHECK
 70
     0
  9
$PEXTMIN
 10
1.000000000000000E+20
 20
1.000000000000000E+20
 30
1.000000000000000E+20
  9
$PEXTMAX
 10
-1.000000000000000E+20
 20
-1.000000000000000E+20
 30
-1.000000000000000E+20
  9
$PLIMMIN
 10
0.0
 20
0.0
  9
$PLIMMAX
 10
12.0
 20
9.0
  9
$UNITMODE
 70
     0
  9
$VISRETAIN
 70
     1
  9
$PLINEGEN
 70
     0
  9
$PSLTSCALE
 70
     1
  9
$TREEDEPTH
 70
  3020
  9
$CMLSTYLE
  2
Standard
  9
$CMLJUST
 70
     0
  9
$CMLSCALE
 40
1.0
  9
$PROXYGRAPHICS
 70
     1
  9
$MEASUREMENT
 70
     0
  9
$CELWEIGHT
370
    -1
  9
$ENDCAPS
280
     0
  9
$JOINSTYLE
280
     0
  9
$LWDISPLAY
290
     0
  9
$INSUNITS
 70
     1
  9
$HYPERLINKBASE
  1

  9
$STYLESHEET
  1

  9
$XEDIT
290
     1
  9
$CEPSNTYPE
380
     0
  9
$PSTYLEMODE
290
     1
  9
$FINGERPRINTGUID
  2
{69B420D2-3E6C-420A-BD7B-A46AFB97F572}
  9
$VERSIONGUID
  2
{FAEB1C32-E019-11D5-929B-00C0DF256EC4}
  9
$EXTNAMES
290
     1
  9
$PSVPSCALE
 40
0.0
  9
$OLESTARTUP
290
     0
  9
$SORTENTS
280
   127
  9
$INDEXCTL
280
     0
  9
$HIDETEXT
280
     1
  9
$XCLIPFRAME
290
     0
  9
$HALOGAP
280
     0
  9
$OBSCOLOR
 70
   257
  9
$OBSLTYPE
280
     0
  9
$INTERSECTIONDISPLAY
280
     0
  9
$INTERSECTIONCOLOR
 70
   257
  9
$DIMASSOC
280
     2
  9
$PROJECTNAME
  1

  0
ENDSEC
  0
SECTION
  2
CLASSES
  0
CLASS
  1
ACDBDICTIONARYWDFLT
  2
AcDbDictionaryWithDefault
  3
ObjectDBX Classes
 90
        0
 91
        4
280
     0
281
     0
  0
CLASS
  1
VISUALSTYLE
  2
AcDbVisualStyle
  3
ObjectDBX Classes
 90
     4095
 91
        4
280
     0
281
     0
  0
ENDSEC
  0
SECTION
  2
TABLES
  0
TABLE
  2
VPORT
  5
8
330
0
100
AcDbSymbolTable
 70
     1
  0
VPORT
  5
29
330
8
100
AcDbSymbolTableRecord
100
AcDbViewportTableRecord
  2
*Active
 70
     0
 10
0.0
 20
0.0
 11
1.0
 21
1.0
 12
0.0
 22
35.54544134271077
 13
0.0
 23
0.0
 14
0.5
 24
0.5
 15
0.5
 25
0.5
 16
0.0
 26
0.0
 36
1.0
 17
0.0
 27
0.0
 37
0.0
 40
72.51270033910112
 41
0.5063940499840969
 42
50.0
 43
0.0
 44
0.0
 50
0.0
 51
0.0
 71
     0
 72
   100
 73
     1
 74
     3
 75
     0
 76
     0
 77
     0
 78
     0
281
     0
 65
     1
110
0.0
120
0.0
130
0.0
111
1.0
121
0.0
131
0.0
112
0.0
122
1.0
132
0.0
 79
     0
146
0.0
  0
ENDTAB
  0
TABLE
  2
LTYPE
  5
5
330
0
100
AcDbSymbolTable
 70
     1
  0
LTYPE
  5
14
330
5
100
AcDbSymbolTableRecord
100
AcDbLinetypeTableRecord
  2
ByBlock
 70
     0
  3

 72
    65
 73
     0
 40
0.0
  0
LTYPE
  5
15
330
5
100
AcDbSymbolTableRecord
100
AcDbLinetypeTableRecord
  2
ByLayer
 70
     0
  3

 72
    65
 73
     0
 40
0.0
  0
LTYPE
  5
16
330
5
100
AcDbSymbolTableRecord
100
AcDbLinetypeTableRecord
  2
Continuous
 70
     0
  3
Solid line
 72
    65
 73
     0
 40
0.0
  0
ENDTAB
  0
TABLE
  2
LAYER
  5
2
330
0
100
AcDbSymbolTable
 70
     2
  0
LAYER
  5
10
330
2
100
AcDbSymbolTableRecord
100
AcDbLayerTableRecord
  2
0
 70
     0
 62
     7
  6
Continuous
370
    -3
390
F
  0
LAYER
  5
3B
330
2
100
AcDbSymbolTableRecord
100
AcDbLayerTableRecord
  2
Default
 70
     0
 62
     7
  6
Continuous
370
    -3
390
F
  0
ENDTAB
  0
TABLE
  2
STYLE
  5
3
330
0
100
AcDbSymbolTable
 70
     1
  0
STYLE
  5
11
330
3
100
AcDbSymbolTableRecord
100
AcDbTextStyleTableRecord
  2
Standard
 70
     0
 40
0.0
 41
1.0
 50
0.0
 71
     0
 42
0.2
  3
txt
  4

  0
ENDTAB
  0
TABLE
  2
VIEW
  5
6
330
0
100
AcDbSymbolTable
 70
     0
  0
ENDTAB
  0
TABLE
  2
UCS
  5
7
330
0
100
AcDbSymbolTable
 70
     0
  0
ENDTAB
  0
TABLE
  2
APPID
  5
9
330
0
100
AcDbSymbolTable
 70
     1
  0
APPID
  5
12
330
9
100
AcDbSymbolTableRecord
100
AcDbRegAppTableRecord
  2
ACAD
 70
     0
  0
ENDTAB
  0
TABLE
  2
DIMSTYLE
  5
A
330
0
100
AcDbSymbolTable
 70
     1
100
AcDbDimStyleTable
  0
DIMSTYLE
105
27
330
A
100
AcDbSymbolTableRecord
100
AcDbDimStyleTableRecord
  2
Standard
 70
     0
340
11
  0
ENDTAB
  0
TABLE
  2
BLOCK_RECORD
  5
1
330
0
100
AcDbSymbolTable
 70
     1
  0
BLOCK_RECORD
  5
1F
330
1
100
AcDbSymbolTableRecord
100
AcDbBlockTableRecord
  2
*Model_Space
340
22
  0
BLOCK_RECORD
  5
1B
330
1
100
AcDbSymbolTableRecord
100
AcDbBlockTableRecord
  2
*Paper_Space
340
1E
  0
BLOCK_RECORD
  5
23
330
1
100
AcDbSymbolTableRecord
100
AcDbBlockTableRecord
  2
*Paper_Space0
340
26
  0
ENDTAB
  0
ENDSEC
  0
SECTION
  2
BLOCKS
  0
BLOCK
  5
20
330
1F
100
AcDbEntity
  8
0
100
AcDbBlockBegin
  2
*Model_Space
 70
     0
 10
0.0
 20
0.0
 30
0.0
  3
*Model_Space
  1

  0
ENDBLK
  5
21
330
1F
100
AcDbEntity
  8
0
100
AcDbBlockEnd
  0
BLOCK
  5
1C
330
1B
100
AcDbEntity
 67
     1
  8
0
100
AcDbBlockBegin
  2
*Paper_Space
 70
     0
 10
0.0
 20
0.0
 30
0.0
  3
*Paper_Space
  1

  0
ENDBLK
  5
1D
330
1B
100
AcDbEntity
 67
     1
  8
0
100
AcDbBlockEnd
  0
BLOCK
  5
24
330
23
100
AcDbEntity
  8
0
100
AcDbBlockBegin
  2
*Paper_Space0
 70
     0
 10
0.0
 20
0.0
 30
0.0
  3
*Paper_Space0
  1

  0
ENDBLK
  5
25
330
23
100
AcDbEntity
  8
0
100
AcDbBlockEnd
  0
ENDSEC
  0
SECTION
  2
ENTITIES
  0
SPLINE
  5
3C
330
1F
100
AcDbEntity
  8
Default
100
AcDbSpline
210
0.0
220
0.0
230
1.0
 70
    24
 71
     2
 72
     6
 73
     3
 74
     0
 42
0.0000000001
 43
0.0000000001
 40
0.0
 40
0.0
 40
0.0
 40
33.0
 40
33.0
 40
33.0
 10
18.0
 20
69.5908826854074
 30
0.0
 10
18.0
 20
53.09088268540739
 30
0.0
 10
18.0
 20
36.5908826854074
 30
0.0
  0
SPLINE
  5
3D
330
1F
100
AcDbEntity
  8
Default
100
AcDbSpline
210
0.0
220
0.0
230
1.0
 70
    24
 71
     2
 72
     6
 73
     3
 74
     0
 42
0.0000000001
 43
0.0000000001
 40
0.0
 40
0.0
 40
0.0
 40
33.0
 40
33.0
 40
33.0
 10
16.5
 20
35.0908826854074
 30
0.0
 10
0.0
 20
35.0908826854074
 30
0.0
 10
-16.5
 20
35.0908826854074
 30
0.0
  0
SPLINE
  5
3E
330
1F
100
AcDbEntity
  8
Default
100
AcDbSpline
210
0.0
220
0.0
230
1.0
 70
    12
 71
     2
 72
     6
 73
     3
 74
     0
 42
0.0000000001
 43
0.0000000001
 40
0.0
 40
0.0
 40
0.0
 40
2.35619449019235
 40
2.35619449019235
 40
2.35619449019235
 10
-16.5
 20
35.0908826854074
 30
0.0
 41
1.0
 10
-18.0
 20
35.0908826854074
 30
0.0
 41
0.707106781186546
 10
-18.0
 20
36.5908826854074
 30
0.0
 41
1.0
  0
SPLINE
  5
3F
330
1F
100
AcDbEntity
  8
Default
100
AcDbSpline
210
0.0
220
0.0
230
1.0
 70
    24
 71
     2
 72
     6
 73
     3
 74
     0
 42
0.0000000001
 43
0.0000000001
 40
0.0
 40
0.0
 40
0.0
 40
33.0
 40
33.0
 40
33.0
 10
-18.0
 20
36.5908826854074
 30
0.0
 10
-18.0
 20
53.09088268540739
 30
0.0
 10
-18.0
 20
69.5908826854074
 30
0.0
  0
SPLINE
  5
40
330
1F
100
AcDbEntity
  8
Default
100
AcDbSpline
210
0.0
220
0.0
230
1.0
 70
    12
 71
     2
 72
     6
 73
     3
 74
     0
 42
0.0000000001
 43
0.0000000001
 40
0.0
 40
0.0
 40
0.0
 40
2.35619449019235
 40
2.35619449019235
 40
2.35619449019235
 10
18.0
 20
36.5908826854074
 30
0.0
 41
1.0
 10
18.0
 20
35.09088268540729
 30
0.0
 41
0.707106781186547
 10
16.5
 20
35.0908826854074
 30
0.0
 41
1.0
  0
SPLINE
  5
41
330
1F
100
AcDbEntity
  8
Default
100
AcDbSpline
210
0.0
220
0.0
230
1.0
 70
    12
 71
     2
 72
     6
 73
     3
 74
     0
 42
0.0000000001
 43
0.0000000001
 40
0.0
 40
0.0
 40
0.0
 40
2.35619449019234
 40
2.35619449019234
 40
2.35619449019234
 10
16.5
 20
71.0908826854074
 30
0.0
 41
1.0
 10
18.0
 20
71.0908826854074
 30
0.0
 41
0.707106781186548
 10
18.0
 20
69.5908826854074
 30
0.0
 41
1.0
  0
SPLINE
  5
42
330
1F
100
AcDbEntity
  8
Default
100
AcDbSpline
210
0.0
220
0.0
230
1.0
 70
    12
 71
     2
 72
     6
 73
     3
 74
     0
 42
0.0000000001
 43
0.0000000001
 40
0.0
 40
0.0
 40
0.0
 40
2.35619449019236
 40
2.35619449019236
 40
2.35619449019236
 10
-18.0
 20
69.5908826854074
 30
0.0
 41
1.0
 10
-18.0
 20
71.09088268540741
 30
0.0
 41
0.707106781186538
 10
-16.5
 20
71.0908826854074
 30
0.0
 41
1.0
  0
SPLINE
  5
43
330
1F
100
AcDbEntity
  8
Default
100
AcDbSpline
210
0.0
220
0.0
230
1.0
 70
    24
 71
     2
 72
     6
 73
     3
 74
     0
 42
0.0000000001
 43
0.0000000001
 40
0.0
 40
0.0
 40
0.0
 40
33.0
 40
33.0
 40
33.0
 10
-16.5
 20
71.0908826854074
 30
0.0
 10
0.0
 20
71.0908826854074
 30
0.0
 10
16.5
 20
71.0908826854074
 30
0.0
  0
SPLINE
  5
44
330
1F
100
AcDbEntity
  8
Default
100
AcDbSpline
210
0.0
220
0.0
230
1.0
 70
    24
 71
     2
 72
     6
 73
     3
 74
     0
 42
0.0000000001
 43
0.0000000001
 40
0.0
 40
0.0
 40
0.0
 40
1.33091079765014
 40
1.33091079765014
 40
1.33091079765014
 10
-17.9945960428723
 20
25.5842458016636
 30
0.0
 10
-17.4054158706912
 20
25.27237290083195
 30
0.0
 10
-16.8162356985101
 20
24.96050000000031
 30
0.0
  0
SPLINE
  5
45
330
1F
100
AcDbEntity
  8
Default
100
AcDbSpline
210
0.0
220
0.0
230
1.0
 70
    24
 71
     2
 72
     6
 73
     3
 74
     0
 42
0.0000000001
 43
0.0000000001
 40
0.0
 40
0.0
 40
0.0
 40
0.313573759221949
 40
0.313573759221949
 40
0.313573759221949
 10
-16.8162356985101
 20
24.96050000000031
 30
0.0
 10
-16.65811784925505
 20
24.96050000000031
 30
0.0
 10
-16.5
 20
24.96050000000031
 30
0.0
  0
SPLINE
  5
46
330
1F
100
AcDbEntity
  8
Default
100
AcDbSpline
210
0.0
220
0.0
230
1.0
 70
    24
 71
     2
 72
     6
 73
     3
 74
     0
 42
0.0000000001
 43
0.0000000001
 40
0.0
 40
0.0
 40
0.0
 40
33.0
 40
33.0
 40
33.0
 10
-16.5
 20
24.96050000000031
 30
0.0
 10
0.0
 20
24.96050000000031
 30
0.0
 10
16.5
 20
24.96050000000031
 30
0.0
  0
SPLINE
  5
47
330
1F
100
AcDbEntity
  8
Default
100
AcDbSpline
210
0.0
220
0.0
230
1.0
 70
    24
 71
     2
 72
     6
 73
     3
 74
     0
 42
0.0000000001
 43
0.0000000001
 40
0.0
 40
0.0
 40
0.0
 40
0.313573759221946
 40
0.313573759221946
 40
0.313573759221946
 10
16.5
 20
24.96050000000031
 30
0.0
 10
16.65811784925505
 20
24.96050000000031
 30
0.0
 10
16.8162356985101
 20
24.96050000000031
 30
0.0
  0
SPLINE
  5
48
330
1F
100
AcDbEntity
  8
Default
100
AcDbSpline
210
0.0
220
0.0
230
1.0
 70
    24
 71
     2
 72
     6
 73
     3
 74
     0
 42
0.0000000001
 43
0.0000000001
 40
0.0
 40
0.0
 40
0.0
 40
1.33091079765014
 40
1.33091079765014
 40
1.33091079765014
 10
16.8162356985101
 20
24.96050000000031
 30
0.0
 10
17.4054158706919
 20
25.27237290083195
 30
0.0
 10
17.9945960428737
 20
25.5842458016636
 30
0.0
  0
SPLINE
  5
49
330
1F
100
AcDbEntity
  8
Default
100
AcDbSpline
210
0.0
220
0.0
230
1.0
 70
    24
 71
     2
 72
     6
 73
     3
 74
     0
 42
0.0000000001
 43
0.0000000001
 40
0.0
 40
0.0
 40
0.0
 40
1.49393236292238
 40
1.49393236292238
 40
1.49393236292238
 10
17.9945960428737
 20
25.5842458016636
 30
0.0
 10
17.24729802143685
 20
25.58487290083155
 30
0.0
 10
16.5
 20
25.5854999999995
 30
0.0
  0
SPLINE
  5
4A
330
1F
100
AcDbEntity
  8
Default
100
AcDbSpline
210
0.0
220
0.0
230
1.0
 70
    24
 71
     2
 72
     6
 73
     3
 74
     0
 42
0.0000000001
 43
0.0000000001
 40
-33.0
 40
-33.0
 40
-33.0
 40
0.0
 40
0.0
 40
0.0
 10
16.5
 20
25.5854999999995
 30
0.0
 10
0.0
 20
25.5854999999995
 30
0.0
 10
-16.5
 20
25.5854999999995
 30
0.0
  0
SPLINE
  5
4B
330
1F
100
AcDbEntity
  8
Default
100
AcDbSpline
210
0.0
220
0.0
230
1.0
 70
    24
 71
     2
 72
     6
 73
     3
 74
     0
 42
0.0000000001
 43
0.0000000001
 40
0.0
 40
0.0
 40
0.0
 40
1.49393236291955
 40
1.49393236291955
 40
1.49393236291955
 10
-16.5
 20
25.5854999999995
 30
0.0
 10
-17.24729802143615
 20
25.58487290083155
 30
0.0
 10
-17.9945960428723
 20
25.5842458016636
 30
0.0
  0
SPLINE
  5
4C
330
1F
100
AcDbEntity
  8
Default
100
AcDbSpline
210
0.0
220
0.0
230
1.0
 70
    24
 71
     2
 72
     6
 73
     3
 74
     0
 42
0.0000000001
 43
0.0000000001
 40
-0.375000000000483
 40
-0.375000000000483
 40
-0.375000000000483
 40
0.0
 40
0.0
 40
0.0
 10
18.0000000000003
 20
25.5854999999995
 30
0.0
 10
17.99848309073
 20
25.77299999999975
 30
0.0
 10
17.9969661814597
 20
25.9605
 30
0.0
  0
SPLINE
  5
4D
330
1F
100
AcDbEntity
  8
Default
100
AcDbSpline
210
0.0
220
0.0
230
1.0
 70
    24
 71
     2
 72
     6
 73
     3
 74
     0
 42
0.0000000001
 43
0.0000000001
 40
0.0
 40
0.0
 40
0.0
 40
1.49393236291932
 40
1.49393236291932
 40
1.49393236291932
 10
17.9969661814597
 20
25.9605
 30
0.0
 10
17.24848309072985
 20
25.9605
 30
0.0
 10
16.5
 20
25.9605
 30
0.0
  0
SPLINE
  5
4E
330
1F
100
AcDbEntity
  8
Default
100
AcDbSpline
210
0.0
220
0.0
230
1.0
 70
    24
 71
     2
 72
     6
 73
     3
 74
     0
 42
0.0000000001
 43
0.0000000001
 40
0.0
 40
0.0
 40
0.0
 40
33.0
 40
33.0
 40
33.0
 10
16.5
 20
25.9605
 30
0.0
 10
0.0
 20
25.9605
 30
0.0
 10
-16.5
 20
25.9605
 30
0.0
  0
SPLINE
  5
4F
330
1F
100
AcDbEntity
  8
Default
100
AcDbSpline
210
0.0
220
0.0
230
1.0
 70
    24
 71
     2
 72
     6
 73
     3
 74
     0
 42
0.0000000001
 43
0.0000000001
 40
0.0
 40
0.0
 40
0.0
 40
1.5
 40
1.5
 40
1.5
 10
-16.5
 20
25.9605
 30
0.0
 10
-17.25
 20
25.9605
 30
0.0
 10
-18.0
 20
25.9605
 30
0.0
  0
SPLINE
  5
50
330
1F
100
AcDbEntity
  8
Default
100
AcDbSpline
210
0.0
220
0.0
230
1.0
 70
    24
 71
     2
 72
     6
 73
     3
 74
     0
 42
0.0000000001
 43
0.0000000001
 40
0.0
 40
0.0
 40
0.0
 40
0.375000000000483
 40
0.375000000000483
 40
0.375000000000483
 10
-18.0
 20
25.9605
 30
0.0
 10
-18.00000000000015
 20
25.77299999999975
 30
0.0
 10
-18.0000000000003
 20
25.5854999999995
 30
0.0
  0
SPLINE
  5
51
330
1F
100
AcDbEntity
  8
Default
100
AcDbSpline
210
0.0
220
0.0
230
1.0
 70
    24
 71
     2
 72
     6
 73
     3
 74
     0
 42
0.0000000001
 43
0.0000000001
 40
0.0
 40
0.0
 40
0.0
 40
0.1875
 40
0.1875
 40
0.1875
 10
6.0
 20
24.9605
 30
0.0
 10
6.0
 20
24.86675
 30
0.0
 10
6.0
 20
24.773
 30
0.0
  0
SPLINE
  5
52
330
1F
100
AcDbEntity
  8
Default
100
AcDbSpline
210
0.0
220
0.0
230
1.0
 70
    24
 71
     2
 72
     6
 73
     3
 74
     0
 42
0.0000000001
 43
0.0000000001
 40
-12.0
 40
-12.0
 40
-12.0
 40
0.0
 40
0.0
 40
0.0
 10
6.0
 20
24.773
 30
0.0
 10
0.0
 20
24.773
 30
0.0
 10
-6.0
 20
24.773
 30
0.0
  0
SPLINE
  5
53
330
1F
100
AcDbEntity
  8
Default
100
AcDbSpline
210
0.0
220
0.0
230
1.0
 70
    24
 71
     2
 72
     6
 73
     3
 74
     0
 42
0.0000000001
 43
0.0000000001
 40
0.0
 40
0.0
 40
0.0
 40
0.1875
 40
0.1875
 40
0.1875
 10
-6.0
 20
24.773
 30
0.0
 10
-6.0
 20
24.86675
 30
0.0
 10
-6.0
 20
24.9605
 30
0.0
  0
LINE
  5
54
330
1F
100
AcDbEntity
  8
Default
100
AcDbLine
 10
-1.29978873518404
 20
5.69415621372707
 30
0.0
 11
-1.284781832113341
 21
6.463000000000012
 31
0.0
  0
LINE
  5
55
330
1F
100
AcDbEntity
  8
Default
100
AcDbLine
 10
-1.28478183211334
 20
6.46300000000001
 30
0.0
 11
1.29209581739943
 21
6.46300000000001
 31
0.0
  0
LINE
  5
56
330
1F
100
AcDbEntity
  8
Default
100
AcDbLine
 10
1.29209581739943
 20
6.46300000000001
 30
0.0
 11
1.307102720470143
 21
5.694156213727068
 31
0.0
  0
SPLINE
  5
57
330
1F
100
AcDbEntity
  8
Default
100
AcDbSpline
210
0.0
220
0.0
230
1.0
 70
    12
 71
     3
 72
    11
 73
     7
 74
     0
 42
0.0000000001
 43
0.0000000001
 40
-1.0
 40
-1.0
 40
-1.0
 40
-1.0
 40
-0.75000000000032
 40
-0.50000000000014
 40
-0.24999999999996
 40
0.0
 40
0.0
 40
0.0
 40
0.0
 10
0.916837669351594
 20
6.38299904576602
 30
0.0
 41
1.0
 10
0.917750866028655
 20
6.30901163116243
 30
0.0
 41
1.0
 10
0.942416894439347
 20
6.15622717001255
 30
0.0
 41
1.0
 10
1.03254885253376
 20
5.94196592037729
 30
0.0
 41
1.0
 10
1.16042773641439
 20
5.77196445075034
 30
0.0
 41
1.0
 10
1.2605876163974
 20
5.70769954961657
 30
0.0
 41
1.0
 10
1.31183004745611
 20
5.69272517502386
 30
0.0
 41
1.0
  0
SPLINE
  5
58
330
1F
100
AcDbEntity
  8
Default
100
AcDbSpline
210
0.0
220
0.0
230
1.0
 70
    24
 71
     2
 72
     6
 73
     3
 74
     0
 42
0.0000000001
 43
0.0000000001
 40
0.0
 40
0.0
 40
0.0
 40
8.86668552501069
 40
8.86668552501069
 40
8.86668552501069
 10
1.31183004745611
 20
5.69272517502386
 30
0.0
 10
5.58535886825723
 20
4.44473699252654
 30
0.0
 10
9.85888768905835
 20
3.19674881002922
 30
0.0
  0
SPLINE
  5
59
330
1F
100
AcDbEntity
  8
Default
100
AcDbSpline
210
0.0
220
0.0
230
1.0
 70
    12
 71
     3
 72
    15
 73
    11
 74
     0
 42
0.0000000001
 43
0.0000000001
 40
-2.98179046664658
 40
-2.98179046664658
 40
-2.98179046664658
 40
-2.98179046664658
 40
-2.61665778661716
 40
-2.19264516564388
 40
-2.10273441734811
 40
-2.0049847395453
 40
-0.0458357933849737
 40
-0.0458357933849737
 40
-0.0458357933849737
 40
0.0
 40
0.0
 40
0.0
 40
0.0
 10
9.85888768905835
 20
3.19674881002922
 30
0.0
 41
1.0
 10
10.0097562104628
 20
3.14452077947157
 30
0.0
 41
1.0
 10
10.2162013344679
 20
2.96598142376593
 30
0.0
 41
1.0
 10
10.323437808037
 20
2.68580425512378
 30
0.0
 41
1.0
 10
10.3553567905993
 20
2.48452137067105
 30
0.0
 41
1.0
 10
10.384866092962
 20
1.76931289526812
 30
0.0
 41
1.0
 10
10.4073753119935
 20
1.08430440681814
 30
0.0
 41
1.0
 10
10.427385484142
 20
0.431254831455157
 30
0.0
 41
1.0
 10
10.4279250907973
 20
0.4141813191650051
 30
0.0
 41
0.816253031597905
 10
10.4166257520362
 20
0.401456051036407
 30
0.0
 41
0.816253031597905
 10
10.3997161255857
 20
0.400093715391565
 30
0.0
 41
1.0
  0
SPLINE
  5
5A
330
1F
100
AcDbEntity
  8
Default
100
AcDbSpline
210
0.0
220
0.0
230
1.0
 70
    12
 71
     3
 72
    19
 73
    15
 74
     0
 42
0.0000000001
 43
0.0000000001
 40
-1.77683032385895
 40
-1.77683032385895
 40
-1.77683032385895
 40
-1.77683032385895
 40
-1.73074055980582
 40
-1.73074055980582
 40
-1.73074055980582
 40
-1.16632306647968
 40
-0.395352544116395
 40
-0.332983722443575
 40
-0.146821164453521
 40
-0.066479626133287
 40
0.0
 40
0.0
 40
0.0
 40
7.40984264208159
 40
7.40984264208159
 40
7.40984264208159
 40
7.40984264208159
 10
9.307991341920802
 20
0.4000000001201031
 30
0.0
 41
1.00001066401516
 10
9.29092670864214
 20
0.400133222257175
 30
0.0
 41
0.815622480493742
 10
9.27867416635481
 20
0.412011089550992
 30
0.0
 41
0.81561892582202
 10
9.27801130776137
 20
0.429063438789138
 30
0.0
 41
1.0
 10
9.27201577003935
 20
0.617133512467376
 30
0.0
 41
1.0
 10
9.25550001588115
 20
1.06187138344399
 30
0.0
 41
1.0
 10
9.24966936066294
 20
1.52794887795923
 30
0.0
 41
1.0
 10
9.24182765591904
 20
1.86753156716853
 30
0.0
 41
1.0
 10
9.20390594704993
 20
1.97466569747547
 30
0.0
 41
1.0
 10
9.13367396866443
 20
2.06046202158626
 30
0.0
 41
1.0
 10
9.08787517809705
 20
2.08356636920894
 30
0.0
 41
1.0
 10
9.05367361429121
 20
2.09068475033524
 30
0.0
 41
1.0
 10
6.62144799163378
 20
2.56825616005577
 30
0.0
 41
0.999999926815662
 10
4.193278349521491
 20
3.04385242873495
 30
0.0
 41
0.999999926815662
 10
1.75403977226585
 20
3.52046919276597
 30
0.0
 41
1.0
  0
SPLINE
  5
5B
330
1F
100
AcDbEntity
  8
Default
100
AcDbSpline
210
0.0
220
0.0
230
1.0
 70
    12
 71
     2
 72
     6
 73
     3
 74
     0
 42
0.0000000001
 43
0.0000000001
 40
-0.914578975729113
 40
-0.914578975729113
 40
-0.914578975729113
 40
0.0
 40
0.0
 40
0.0
 10
1.75403977226585
 20
3.52046919276597
 30
0.0
 41
1.0
 10
1.2921499691137
 20
3.62504653577972
 30
0.0
 41
0.997128825244324
 10
0.835109645361513
 20
3.6579955786182
 30
0.0
 41
1.0
  0
SPLINE
  5
5C
330
1F
100
AcDbEntity
  8
Default
100
AcDbSpline
210
0.0
220
0.0
230
1.0
 70
    12
 71
     2
 72
     6
 73
     3
 74
     0
 42
0.0000000001
 43
0.0000000001
 40
-0.180963289694379
 40
-0.180963289694379
 40
-0.180963289694379
 40
0.0
 40
0.0
 40
0.0
 10
0.835109645361513
 20
3.6579955786182
 30
0.0
 41
1.0
 10
0.7445508669466019
 20
3.6629876934692
 30
0.0
 41
0.997431573075672
 10
0.648069139270049
 20
3.68231399068713
 30
0.0
 41
1.0
  0
SPLINE
  5
5D
330
1F
100
AcDbEntity
  8
Default
100
AcDbSpline
210
0.0
220
0.0
230
1.0
 70
    12
 71
     2
 72
     6
 73
     3
 74
     0
 42
0.0000000001
 43
0.0000000001
 40
-0.643447765609753
 40
-0.643447765609753
 40
-0.643447765609753
 40
0.0
 40
0.0
 40
0.0
 10
0.648069139270049
 20
3.68231399068713
 30
0.0
 41
1.0
 10
0.326583262225775
 20
3.760045174446681
 30
0.0
 41
0.994096515898398
 10
0.0036569926430587
 20
3.76682084769242
 30
0.0
 41
1.0
  0
SPLINE
  5
5E
330
1F
100
AcDbEntity
  8
Default
100
AcDbSpline
210
0.0
220
0.0
230
1.0
 70
    24
 71
     2
 72
     6
 73
     3
 74
     0
 42
0.0000000001
 43
0.0000000001
 40
0.0
 40
0.0
 40
0.0
 40
1.0
 40
1.0
 40
1.0
 10
10.413977783911
 20
0.399999999945462
 30
0.0
 10
9.854101105892639
 20
0.399999999952793
 30
0.0
 10
9.29422442787428
 20
0.399999999960124
 30
0.0
  0
SPLINE
  5
5F
330
1F
100
AcDbEntity
  8
Default
100
AcDbSpline
210
0.0
220
0.0
230
1.0
 70
    12
 71
     2
 72
     6
 73
     3
 74
     0
 42
0.0000000001
 43
0.0000000001
 40
0.0
 40
0.0
 40
0.0
 40
0.0234509349460152
 40
0.0234509349460152
 40
0.0234509349460152
 10
9.29422442787428
 20
0.399999999960124
 30
0.0
 41
1.0
 10
9.27966266581947
 20
0.399429695862543
 30
0.0
 41
0.731104947019412
 10
9.27922645714143
 20
0.384848432713649
 30
0.0
 41
1.0
  0
SPLINE
  5
60
330
1F
100
AcDbEntity
  8
Default
100
AcDbSpline
210
0.0
220
0.0
230
1.0
 70
    24
 71
     2
 72
     6
 73
     3
 74
     0
 42
0.0000000001
 43
0.0000000001
 40
0.0
 40
0.0
 40
0.0
 40
0.230202915699772
 40
0.230202915699772
 40
0.230202915699772
 10
9.27922645714143
 20
0.384848432713649
 30
0.0
 10
9.28050633865415
 20
0.26965268666207
 30
0.0
 10
9.28178622016686
 20
0.154456940610491
 30
0.0
  0
SPLINE
  5
61
330
1F
100
AcDbEntity
  8
Default
100
AcDbSpline
210
0.0
220
0.0
230
1.0
 70
    12
 71
     2
 72
     6
 73
     3
 74
     0
 42
0.0000000001
 43
0.0000000001
 40
0.0
 40
0.0
 40
0.0
 40
0.243305946087201
 40
0.243305946087201
 40
0.243305946087201
 10
9.28178622016686
 20
0.154456940610491
 30
0.0
 41
1.0
 10
9.28349802244313
 20
0.0000041307138962
 30
0.0
 41
0.711016098506414
 10
9.4377723897632
 20
0.0000000000141378
 30
0.0
 41
1.0
  0
LINE
  5
62
330
1F
100
AcDbEntity
  8
Default
100
AcDbLine
 10
9.4377723897632
 20
0.0000000000141378
 30
0.0
 11
10.28341865110175
 21
0.0000000000280538
 31
0.0
  0
SPLINE
  5
63
330
1F
100
AcDbEntity
  8
Default
100
AcDbSpline
210
0.0
220
0.0
230
1.0
 70
    12
 71
     2
 72
     8
 73
     5
 74
     0
 42
0.0000000001
 43
0.0000000001
 40
0.0
 40
0.0
 40
0.0
 40
0.126011761568985
 40
0.126011761568985
 40
0.252023523137971
 40
0.252023523137971
 40
0.252023523137971
 10
10.2834186511018
 20
0.0000000000280538
 30
0.0
 41
1.0
 10
10.3501060551324
 20
0.0000187838016934
 30
0.0
 41
0.919580138945286
 10
10.3961779161105
 20
0.0482076413338472
 30
0.0
 41
1.0
 10
10.4422497770887
 20
0.096396498866001
 30
0.0
 41
0.919580138945286
 10
10.4392703213251
 20
0.163112637990763
 30
0.0
 41
1.0
  0
SPLINE
  5
64
330
1F
100
AcDbEntity
  8
Default
100
AcDbSpline
210
0.0
220
0.0
230
1.0
 70
    12
 71
     2
 72
     6
 73
     3
 74
     0
 42
0.0000000001
 43
0.0000000001
 40
0.0
 40
0.0
 40
0.0
 40
0.222705986708251
 40
0.222705986708251
 40
0.222705986708251
 10
10.4392703213251
 20
0.163112637990763
 30
0.0
 41
1.0
 10
10.4341073598005
 20
0.2744594309887791
 30
0.0
 41
0.999999998781251
 10
10.4289555662675
 20
0.385726817116886
 30
0.0
 41
1.0
  0
SPLINE
  5
65
330
1F
100
AcDbEntity
  8
Default
100
AcDbSpline
210
0.0
220
0.0
230
1.0
 70
    12
 71
     2
 72
     6
 73
     3
 74
     0
 42
0.0000000001
 43
0.0000000001
 40
0.0
 40
0.0
 40
0.0
 40
0.0225621385862125
 40
0.0225621385862125
 40
0.0225621385862125
 10
10.4289555662675
 20
0.385726817116886
 30
0.0
 41
1.0
 10
10.4277081336749
 20
0.39944547381019
 30
0.0
 41
0.751843149296873
 10
10.413977783911
 20
0.399999999945462
 30
0.0
 41
1.0
  0
SPLINE
  5
66
330
1F
100
AcDbEntity
  8
Default
100
AcDbSpline
210
0.0
220
0.0
230
1.0
 70
    12
 71
     3
 72
    11
 73
     7
 74
     0
 42
0.0000000001
 43
0.0000000001
 40
-1.0
 40
-1.0
 40
-1.0
 40
-1.0
 40
-0.75000000000032
 40
-0.50000000000014
 40
-0.24999999999996
 40
0.0
 40
0.0
 40
0.0
 40
0.0
 10
-0.909523684065491
 20
6.38299904576602
 30
0.0
 41
1.0
 10
-0.910436880742552
 20
6.30901163116243
 30
0.0
 41
1.0
 10
-0.935102909153244
 20
6.15622717001255
 30
0.0
 41
1.0
 10
-1.02523486724765
 20
5.94196592037729
 30
0.0
 41
1.0
 10
-1.15311375112829
 20
5.77196445075034
 30
0.0
 41
1.0
 10
-1.25327363111128
 20
5.70769954961657
 30
0.0
 41
1.0
 10
-1.30451606217001
 20
5.69272517502386
 30
0.0
 41
1.0
  0
SPLINE
  5
67
330
1F
100
AcDbEntity
  8
Default
100
AcDbSpline
210
0.0
220
0.0
230
1.0
 70
    24
 71
     2
 72
     6
 73
     3
 74
     0
 42
0.0000000001
 43
0.0000000001
 40
0.0
 40
0.0
 40
0.0
 40
8.86668552501069
 40
8.86668552501069
 40
8.86668552501069
 10
-1.30451606217001
 20
5.69272517502386
 30
0.0
 10
-5.57804488297113
 20
4.44473699252654
 30
0.0
 10
-9.85157370377225
 20
3.19674881002922
 30
0.0
  0
SPLINE
  5
68
330
1F
100
AcDbEntity
  8
Default
100
AcDbSpline
210
0.0
220
0.0
230
1.0
 70
    12
 71
     3
 72
    15
 73
    11
 74
     0
 42
0.0000000001
 43
0.0000000001
 40
-2.98179046664658
 40
-2.98179046664658
 40
-2.98179046664658
 40
-2.98179046664658
 40
-2.61665778661716
 40
-2.19264516564388
 40
-2.10273441734811
 40
-2.0049847395453
 40
-0.0458357933849737
 40
-0.0458357933849737
 40
-0.0458357933849737
 40
0.0
 40
0.0
 40
0.0
 40
0.0
 10
-9.85157370377225
 20
3.19674881002922
 30
0.0
 41
1.0
 10
-10.0024422251767
 20
3.14452077947157
 30
0.0
 41
1.0
 10
-10.2088873491818
 20
2.96598142376593
 30
0.0
 41
1.0
 10
-10.3161238227509
 20
2.68580425512378
 30
0.0
 41
1.0
 10
-10.3480428053132
 20
2.48452137067105
 30
0.0
 41
1.0
 10
-10.3775521076759
 20
1.76931289526812
 30
0.0
 41
1.0
 10
-10.4000613267073
 20
1.08430440681814
 30
0.0
 41
1.0
 10
-10.4200714988559
 20
0.431254831455157
 30
0.0
 41
1.0
 10
-10.4206111055112
 20
0.4141813191650051
 30
0.0
 41
0.816253031597905
 10
-10.4093117667501
 20
0.401456051036407
 30
0.0
 41
0.816253031597905
 10
-10.3924021402996
 20
0.400093715391565
 30
0.0
 41
1.0
  0
SPLINE
  5
69
330
1F
100
AcDbEntity
  8
Default
100
AcDbSpline
210
0.0
220
0.0
230
1.0
 70
    12
 71
     3
 72
    19
 73
    15
 74
     0
 42
0.0000000001
 43
0.0000000001
 40
-1.77683032385895
 40
-1.77683032385895
 40
-1.77683032385895
 40
-1.77683032385895
 40
-1.73074055980582
 40
-1.73074055980582
 40
-1.73074055980582
 40
-1.16632306647968
 40
-0.395352544116395
 40
-0.332983722443575
 40
-0.146821164453521
 40
-0.066479626133287
 40
0.0
 40
0.0
 40
0.0
 40
7.40984264208159
 40
7.40984264208159
 40
7.40984264208159
 40
7.40984264208159
 10
-9.300677356634681
 20
0.4000000001201031
 30
0.0
 41
1.00001066401516
 10
-9.28361272335602
 20
0.400133222257175
 30
0.0
 41
0.815622480493742
 10
-9.2713601810687
 20
0.412011089550992
 30
0.0
 41
0.81561892582202
 10
-9.27069732247527
 20
0.429063438789138
 30
0.0
 41
1.0
 10
-9.26470178475324
 20
0.617133512467376
 30
0.0
 41
1.0
 10
-9.24818603059505
 20
1.06187138344399
 30
0.0
 41
1.0
 10
-9.24235537537683
 20
1.52794887795923
 30
0.0
 41
1.0
 10
-9.23451367063294
 20
1.86753156716853
 30
0.0
 41
1.0
 10
-9.19659196176383
 20
1.97466569747547
 30
0.0
 41
1.0
 10
-9.12635998337832
 20
2.06046202158626
 30
0.0
 41
1.0
 10
-9.08056119281093
 20
2.08356636920894
 30
0.0
 41
1.0
 10
-9.04635962900511
 20
2.09068475033524
 30
0.0
 41
1.0
 10
-6.614134006347661
 20
2.56825616005577
 30
0.0
 41
0.999999926815662
 10
-4.18596436423538
 20
3.04385242873495
 30
0.0
 41
0.999999926815662
 10
-1.74672578697974
 20
3.52046919276597
 30
0.0
 41
1.0
  0
SPLINE
  5
6A
330
1F
100
AcDbEntity
  8
Default
100
AcDbSpline
210
0.0
220
0.0
230
1.0
 70
    12
 71
     2
 72
     6
 73
     3
 74
     0
 42
0.0000000001
 43
0.0000000001
 40
-0.914578975729113
 40
-0.914578975729113
 40
-0.914578975729113
 40
0.0
 40
0.0
 40
0.0
 10
-1.74672578697974
 20
3.52046919276597
 30
0.0
 41
1.0
 10
-1.2848359838276
 20
3.62504653577972
 30
0.0
 41
0.997128825244324
 10
-0.82779566007541
 20
3.6579955786182
 30
0.0
 41
1.0
  0
SPLINE
  5
6B
330
1F
100
AcDbEntity
  8
Default
100
AcDbSpline
210
0.0
220
0.0
230
1.0
 70
    12
 71
     2
 72
     6
 73
     3
 74
     0
 42
0.0000000001
 43
0.0000000001
 40
-0.180963289694379
 40
-0.180963289694379
 40
-0.180963289694379
 40
0.0
 40
0.0
 40
0.0
 10
-0.82779566007541
 20
3.6579955786182
 30
0.0
 41
1.0
 10
-0.737236881660491
 20
3.6629876934692
 30
0.0
 41
0.997431573075672
 10
-0.640755153983946
 20
3.68231399068713
 30
0.0
 41
1.0
  0
SPLINE
  5
6C
330
1F
100
AcDbEntity
  8
Default
100
AcDbSpline
210
0.0
220
0.0
230
1.0
 70
    12
 71
     2
 72
     6
 73
     3
 74
     0
 42
0.0000000001
 43
0.0000000001
 40
-0.643447765609753
 40
-0.643447765609753
 40
-0.643447765609753
 40
0.0
 40
0.0
 40
0.0
 10
-0.640755153983946
 20
3.68231399068713
 30
0.0
 41
1.0
 10
-0.319269276939661
 20
3.760045174446681
 30
0.0
 41
0.994096515898398
 10
0.0036569926430587
 20
3.76682084769242
 30
0.0
 41
1.0
  0
SPLINE
  5
6D
330
1F
100
AcDbEntity
  8
Default
100
AcDbSpline
210
0.0
220
0.0
230
1.0
 70
    24
 71
     2
 72
     6
 73
     3
 74
     0
 42
0.0000000001
 43
0.0000000001
 40
0.0
 40
0.0
 40
0.0
 40
1.0
 40
1.0
 40
1.0
 10
-10.4066637986249
 20
0.399999999945462
 30
0.0
 10
-9.846787120606539
 20
0.399999999952793
 30
0.0
 10
-9.28691044258818
 20
0.399999999960124
 30
0.0
  0
SPLINE
  5
6E
330
1F
100
AcDbEntity
  8
Default
100
AcDbSpline
210
0.0
220
0.0
230
1.0
 70
    12
 71
     2
 72
     6
 73
     3
 74
     0
 42
0.0000000001
 43
0.0000000001
 40
0.0
 40
0.0
 40
0.0
 40
0.0234509349460152
 40
0.0234509349460152
 40
0.0234509349460152
 10
-9.28691044258818
 20
0.399999999960124
 30
0.0
 41
1.0
 10
-9.27234868053336
 20
0.399429695862543
 30
0.0
 41
0.731104947019412
 10
-9.27191247185533
 20
0.384848432713649
 30
0.0
 41
1.0
  0
SPLINE
  5
6F
330
1F
100
AcDbEntity
  8
Default
100
AcDbSpline
210
0.0
220
0.0
230
1.0
 70
    24
 71
     2
 72
     6
 73
     3
 74
     0
 42
0.0000000001
 43
0.0000000001
 40
0.0
 40
0.0
 40
0.0
 40
0.230202915699772
 40
0.230202915699772
 40
0.230202915699772
 10
-9.27191247185533
 20
0.384848432713649
 30
0.0
 10
-9.27319235336805
 20
0.26965268666207
 30
0.0
 10
-9.27447223488076
 20
0.154456940610491
 30
0.0
  0
SPLINE
  5
70
330
1F
100
AcDbEntity
  8
Default
100
AcDbSpline
210
0.0
220
0.0
230
1.0
 70
    12
 71
     2
 72
     6
 73
     3
 74
     0
 42
0.0000000001
 43
0.0000000001
 40
0.0
 40
0.0
 40
0.0
 40
0.243305946087201
 40
0.243305946087201
 40
0.243305946087201
 10
-9.27447223488076
 20
0.154456940610491
 30
0.0
 41
1.0
 10
-9.27618403715703
 20
0.0000041307138962
 30
0.0
 41
0.711016098506414
 10
-9.43045840447709
 20
0.0000000000141378
 30
0.0
 41
1.0
  0
LINE
  5
71
330
1F
100
AcDbEntity
  8
Default
100
AcDbLine
 10
-9.43045840447709
 20
0.0000000000141378
 30
0.0
 11
-10.27610466581564
 21
0.0000000000280538
 31
0.0
  0
SPLINE
  5
72
330
1F
100
AcDbEntity
  8
Default
100
AcDbSpline
210
0.0
220
0.0
230
1.0
 70
    12
 71
     2
 72
     8
 73
     5
 74
     0
 42
0.0000000001
 43
0.0000000001
 40
0.0
 40
0.0
 40
0.0
 40
0.126011761568985
 40
0.126011761568985
 40
0.252023523137971
 40
0.252023523137971
 40
0.252023523137971
 10
-10.2761046658156
 20
0.0000000000280538
 30
0.0
 41
1.0
 10
-10.3427920698463
 20
0.0000187838016934
 30
0.0
 41
0.919580138945286
 10
-10.3888639308244
 20
0.0482076413338472
 30
0.0
 41
1.0
 10
-10.4349357918026
 20
0.096396498866001
 30
0.0
 41
0.919580138945286
 10
-10.431956336039
 20
0.163112637990763
 30
0.0
 41
1.0
  0
SPLINE
  5
73
330
1F
100
AcDbEntity
  8
Default
100
AcDbSpline
210
0.0
220
0.0
230
1.0
 70
    12
 71
     2
 72
     6
 73
     3
 74
     0
 42
0.0000000001
 43
0.0000000001
 40
0.0
 40
0.0
 40
0.0
 40
0.222705986708251
 40
0.222705986708251
 40
0.222705986708251
 10
-10.431956336039
 20
0.163112637990763
 30
0.0
 41
1.0
 10
-10.4267933745144
 20
0.2744594309887791
 30
0.0
 41
0.999999998781251
 10
-10.4216415809814
 20
0.385726817116886
 30
0.0
 41
1.0
  0
SPLINE
  5
74
330
1F
100
AcDbEntity
  8
Default
100
AcDbSpline
210
0.0
220
0.0
230
1.0
 70
    12
 71
     2
 72
     6
 73
     3
 74
     0
 42
0.0000000001
 43
0.0000000001
 40
0.0
 40
0.0
 40
0.0
 40
0.0225621385862125
 40
0.0225621385862125
 40
0.0225621385862125
 10
-10.4216415809814
 20
0.385726817116886
 30
0.0
 41
1.0
 10
-10.4203941483889
 20
0.39944547381019
 30
0.0
 41
0.751843149296873
 10
-10.4066637986249
 20
0.399999999945462
 30
0.0
 41
1.0
  0
SPLINE
  5
75
330
1F
100
AcDbEntity
  8
Default
100
AcDbSpline
210
0.0
220
0.0
230
1.0
 70
    24
 71
     2
 72
     6
 73
     3
 74
     0
 42
0.0000000001
 43
0.0000000001
 40
0.0
 40
0.0
 40
0.0
 40
7.31
 40
7.31
 40
7.31
 10
-1.28478183211334
 20
6.46300000000001
 30
0.0
 10
-1.28478183211334
 20
15.61800000000001
 30
0.0
 10
-1.28478183211334
 20
24.773
 30
0.0
  0
SPLINE
  5
76
330
1F
100
AcDbEntity
  8
Default
100
AcDbSpline
210
0.0
220
0.0
230
1.0
 70
    24
 71
     2
 72
     6
 73
     3
 74
     0
 42
0.0000000001
 43
0.0000000001
 40
0.0
 40
0.0
 40
0.0
 40
7.31
 40
7.31
 40
7.31
 10
1.28478183211334
 20
6.46300000000001
 30
0.0
 10
1.28478183211334
 20
15.61800000000001
 30
0.0
 10
1.28478183211334
 20
24.773
 30
0.0
  0
SPLINE
  5
77
330
1F
100
AcDbEntity
  8
Default
100
AcDbSpline
210
0.0
220
0.0
230
1.0
 70
    24
 71
     2
 72
     6
 73
     3
 74
     0
 42
0.0000000001
 43
0.0000000001
 40
0.0
 40
0.0
 40
0.0
 40
2.56956366422668
 40
2.56956366422668
 40
2.56956366422668
 10
-1.28478183211334
 20
24.773
 30
0.0
 10
0.0
 20
24.773
 30
0.0
 10
1.28478183211334
 20
24.773
 30
0.0
  0
ENDSEC
  0
SECTION
  2
OBJECTS
  0
DICTIONARY
  5
C
330
0
100
AcDbDictionary
281
     1
  3
ACAD_GROUP
350
D
  3
ACAD_LAYOUT
350
1A
  3
ACAD_MLEADERSTYLE
350
79
  3
ACAD_MLINESTYLE
350
17
  3
ACAD_PLOTSETTINGS
350
19
  3
ACAD_PLOTSTYLENAME
350
E
  3
ACAD_TABLESTYLE
350
78
  3
ACAD_VISUALSTYLE
350
2A
  0
DICTIONARY
  5
D
102
{ACAD_REACTORS
330
C
102
}
330
C
100
AcDbDictionary
281
     1
  0
DICTIONARY
  5
1A
102
{ACAD_REACTORS
330
C
102
}
330
C
100
AcDbDictionary
281
     1
  3
Layout1
350
1E
  3
Layout2
350
26
  3
Model
350
22
  0
DICTIONARY
  5
79
102
{ACAD_REACTORS
330
C
102
}
330
C
100
AcDbDictionary
281
     1
  0
DICTIONARY
  5
17
102
{ACAD_REACTORS
330
C
102
}
330
C
100
AcDbDictionary
281
     1
  3
Standard
350
18
  0
DICTIONARY
  5
19
102
{ACAD_REACTORS
330
C
102
}
330
C
100
AcDbDictionary
281
     1
  0
ACDBDICTIONARYWDFLT
  5
E
102
{ACAD_REACTORS
330
C
102
}
330
C
100
AcDbDictionary
281
     1
  3
Normal
350
F
100
AcDbDictionaryWithDefault
340
F
  0
DICTIONARY
  5
78
102
{ACAD_REACTORS
330
C
102
}
330
C
100
AcDbDictionary
281
     1
  0
DICTIONARY
  5
2A
102
{ACAD_REACTORS
330
C
102
}
330
C
100
AcDbDictionary
281
     1
  3
2dWireframe
350
2F
  3
3D Hidden
350
31
  3
3dWireframe
350
30
  3
Basic
350
32
  3
Brighten
350
36
  3
ColorChange
350
3A
  3
Conceptual
350
34
  3
Dim
350
35
  3
Facepattern
350
39
  3
Flat
350
2B
  3
FlatWithEdges
350
2C
  3
Gouraud
350
2D
  3
GouraudWithEdges
350
2E
  3
Linepattern
350
38
  3
Realistic
350
33
  3
Thicken
350
37
  0
LAYOUT
  5
1E
102
{ACAD_REACTORS
330
1A
102
}
330
1A
100
AcDbPlotSettings
  1

  2
none_device
  4

  6

 40
0.0
 41
0.0
 42
0.0
 43
0.0
 44
0.0
 45
0.0
 46
0.0
 47
0.0
 48
0.0
 49
0.0
140
0.0
141
0.0
142
1.0
143
1.0
 70
   688
 72
     0
 73
     0
 74
     5
  7

 75
    16
 76
     0
 77
     2
 78
   300
147
1.0
148
0.0
149
0.0
100
AcDbLayout
  1
Layout1
 70
     1
 71
     1
 10
0.0
 20
0.0
 11
12.0
 21
9.0
 12
0.0
 22
0.0
 32
0.0
 14
1.000000000000000E+20
 24
1.000000000000000E+20
 34
1.000000000000000E+20
 15
-1.000000000000000E+20
 25
-1.000000000000000E+20
 35
-1.000000000000000E+20
146
0.0
 13
0.0
 23
0.0
 33
0.0
 16
1.0
 26
0.0
 36
0.0
 17
0.0
 27
1.0
 37
0.0
 76
     0
330
1B
  0
LAYOUT
  5
26
102
{ACAD_REACTORS
330
1A
102
}
330
1A
100
AcDbPlotSettings
  1

  2
none_device
  4

  6

 40
0.0
 41
0.0
 42
0.0
 43
0.0
 44
0.0
 45
0.0
 46
0.0
 47
0.0
 48
0.0
 49
0.0
140
0.0
141
0.0
142
1.0
143
1.0
 70
   688
 72
     0
 73
     0
 74
     5
  7

 75
    16
 76
     0
 77
     2
 78
   300
147
1.0
148
0.0
149
0.0
100
AcDbLayout
  1
Layout2
 70
     1
 71
     2
 10
0.0
 20
0.0
 11
0.0
 21
0.0
 12
0.0
 22
0.0
 32
0.0
 14
0.0
 24
0.0
 34
0.0
 15
0.0
 25
0.0
 35
0.0
146
0.0
 13
0.0
 23
0.0
 33
0.0
 16
1.0
 26
0.0
 36
0.0
 17
0.0
 27
1.0
 37
0.0
 76
     0
330
23
  0
LAYOUT
  5
22
102
{ACAD_REACTORS
330
1A
102
}
330
1A
100
AcDbPlotSettings
  1

  2
none_device
  4

  6

 40
0.0
 41
0.0
 42
0.0
 43
0.0
 44
0.0
 45
0.0
 46
0.0
 47
0.0
 48
0.0
 49
0.0
140
0.0
141
0.0
142
1.0
143
1.0
 70
  1712
 72
     0
 73
     0
 74
     0
  7

 75
     0
 76
     0
 77
     2
 78
   300
147
1.0
148
0.0
149
0.0
100
AcDbLayout
  1
Model
 70
     1
 71
     0
 10
0.0
 20
0.0
 11
12.0
 21
9.0
 12
0.0
 22
0.0
 32
0.0
 14
-18.0000000000003
 24
0.0000000000141378
 34
0.0
 15
18.0000000000003
 25
71.0908826854074
 35
0.0
146
0.0
 13
0.0
 23
0.0
 33
0.0
 16
1.0
 26
0.0
 36
0.0
 17
0.0
 27
1.0
 37
0.0
 76
     0
330
1F
331
29
  0
MLINESTYLE
  5
18
102
{ACAD_REACTORS
330
17
102
}
330
17
100
AcDbMlineStyle
  2
Standard
 70
     0
  3

 62
   256
 51
90.0
 52
90.0
 71
     2
 49
0.5
 62
   256
  6
BYLAYER
 49
-0.5
 62
   256
  6
BYLAYER
  0
ACDBPLACEHOLDER
  5
F
102
{ACAD_REACTORS
330
E
102
}
330
E
  0
VISUALSTYLE
  5
2F
102
{ACAD_REACTORS
330
2A
102
}
330
2A
100
AcDbVisualStyle
  2
2dWireframe
 70
     4
 71
     0
 72
     2
 73
     0
 90
        0
 40
-0.6
 41
-30.0
 62
     5
 63
     7
421
 16777215
 74
     1
 91
        4
 64
     7
 65
   257
 75
     1
175
     1
 42
1.0
 92
        0
 66
   257
 43
1.0
 76
     1
 77
     6
 78
     2
 67
     7
 79
     5
170
     0
171
     0
290
     0
174
     0
 93
        1
 44
0.0
173
     0
291
     0
 45
0.0
1001
ACAD
1000
AcDbSavedByObjectVersion
1070
     0
  0
VISUALSTYLE
  5
31
102
{ACAD_REACTORS
330
2A
102
}
330
2A
100
AcDbVisualStyle
  2
3D Hidden
 70
     6
 71
     1
 72
     2
 73
     2
 90
        0
 40
-0.6
 41
-30.0
 62
     5
 63
     7
421
 16777215
 74
     2
 91
        2
 64
     7
 65
   257
 75
     2
175
     1
 42
40.0
 92
        0
 66
   257
 43
1.0
 76
     1
 77
     6
 78
     2
 67
     7
 79
     3
170
     0
171
     0
290
     0
174
     0
 93
        1
 44
0.0
173
     0
291
     0
 45
0.0
1001
ACAD
1000
AcDbSavedByObjectVersion
1070
     0
  0
VISUALSTYLE
  5
30
102
{ACAD_REACTORS
330
2A
102
}
330
2A
100
AcDbVisualStyle
  2
3dWireframe
 70
     5
 71
     0
 72
     2
 73
     0
 90
        0
 40
-0.6
 41
-30.0
 62
     5
 63
     7
421
 16777215
 74
     1
 91
        4
 64
     7
 65
   257
 75
     1
175
     1
 42
1.0
 92
        0
 66
   257
 43
1.0
 76
     1
 77
     6
 78
     2
 67
     7
 79
     5
170
     0
171
     0
290
     0
174
     0
 93
        1
 44
0.0
173
     0
291
     0
 45
0.0
1001
ACAD
1000
AcDbSavedByObjectVersion
1070
     0
  0
VISUALSTYLE
  5
32
102
{ACAD_REACTORS
330
2A
102
}
330
2A
100
AcDbVisualStyle
  2
Basic
 70
     7
 71
     1
 72
     0
 73
     1
 90
        0
 40
-0.6
 41
-30.0
 62
     5
 63
     7
421
 16777215
 74
     0
 91
        4
 64
     7
 65
   257
 75
     1
175
     1
 42
1.0
 92
        8
 66
     7
 43
1.0
 76
     1
 77
     6
 78
     2
 67
     7
 79
     5
170
     0
171
     0
290
     0
174
     0
 93
        1
 44
0.0
173
     0
291
     1
 45
0.0
1001
ACAD
1000
AcDbSavedByObjectVersion
1070
     0
  0
VISUALSTYLE
  5
36
102
{ACAD_REACTORS
330
2A
102
}
330
2A
100
AcDbVisualStyle
  2
Brighten
 70
    12
 71
     2
 72
     2
 73
     0
 90
        0
 40
-0.6
 41
-30.0
 62
     5
 63
     7
421
 16777215
 74
     1
 91
        4
 64
     7
 65
   257
 75
     1
175
     1
 42
1.0
 92
        8
 66
     7
 43
1.0
 76
     1
 77
     6
 78
     2
 67
     7
 79
     5
170
     0
171
     0
290
     0
174
     0
 93
        1
 44
50.0
173
     0
291
     1
 45
0.0
1001
ACAD
1000
AcDbSavedByObjectVersion
1070
     0
  0
VISUALSTYLE
  5
3A
102
{ACAD_REACTORS
330
2A
102
}
330
2A
100
AcDbVisualStyle
  2
ColorChange
 70
    16
 71
     2
 72
     2
 73
     3
 90
        0
 40
-0.6
 41
-30.0
 62
     5
 63
     8
421
  8421504
 74
     1
 91
        4
 64
     7
 65
   257
 75
     1
175
     1
 42
1.0
 92
        8
 66
     8
424
  8421504
 43
1.0
 76
     1
 77
     6
 78
     2
 67
     7
 79
     5
170
     0
171
     0
290
     0
174
     0
 93
        1
 44
0.0
173
     0
291
     1
 45
0.0
1001
ACAD
1000
AcDbSavedByObjectVersion
1070
     0
  0
VISUALSTYLE
  5
34
102
{ACAD_REACTORS
330
2A
102
}
330
2A
100
AcDbVisualStyle
  2
Conceptual
 70
     9
 71
     3
 72
     2
 73
     0
 90
        0
 40
-0.6
 41
-30.0
 62
     5
 63
     7
421
 16777215
 74
     2
 91
        2
 64
     7
 65
   257
 75
     1
175
     1
 42
40.0
 92
        8
 66
     7
 43
1.0
 76
     1
 77
     6
 78
     2
 67
     7
 79
     3
170
     0
171
     0
290
     0
174
     0
 93
        1
 44
0.0
173
     0
291
     0
 45
0.0
1001
ACAD
1000
AcDbSavedByObjectVersion
1070
     0
  0
VISUALSTYLE
  5
35
102
{ACAD_REACTORS
330
2A
102
}
330
2A
100
AcDbVisualStyle
  2
Dim
 70
    11
 71
     2
 72
     2
 73
     0
 90
        0
 40
-0.6
 41
-30.0
 62
     5
 63
     7
421
 16777215
 74
     1
 91
        4
 64
     7
 65
   257
 75
     1
175
     1
 42
1.0
 92
        8
 66
     7
 43
1.0
 76
     1
 77
     6
 78
     2
 67
     7
 79
     5
170
     0
171
     0
290
     0
174
     0
 93
        1
 44
-50.0
173
     0
291
     1
 45
0.0
1001
ACAD
1000
AcDbSavedByObjectVersion
1070
     0
  0
VISUALSTYLE
  5
39
102
{ACAD_REACTORS
330
2A
102
}
330
2A
100
AcDbVisualStyle
  2
Facepattern
 70
    15
 71
     2
 72
     2
 73
     0
 90
        0
 40
-0.6
 41
-30.0
 62
     5
 63
     7
421
 16777215
 74
     1
 91
        4
 64
     7
 65
   257
 75
     1
175
     1
 42
1.0
 92
        8
 66
     7
 43
1.0
 76
     1
 77
     6
 78
     2
 67
     7
 79
     5
170
     0
171
     0
290
     0
174
     0
 93
        1
 44
0.0
173
     0
291
     1
 45
0.0
1001
ACAD
1000
AcDbSavedByObjectVersion
1070
     0
  0
VISUALSTYLE
  5
2B
102
{ACAD_REACTORS
330
2A
102
}
330
2A
100
AcDbVisualStyle
  2
Flat
 70
     0
 71
     2
 72
     1
 73
     1
 90
        2
 40
-0.6
 41
30.0
 62
     5
 63
     7
421
 16777215
 74
     0
 91
        4
 64
     7
 65
   257
 75
     1
175
     1
 42
1.0
 92
        8
 66
     7
 43
1.0
 76
     1
 77
     6
 78
     2
 67
     7
 79
     5
170
     0
171
     0
290
     0
174
     0
 93
       13
 44
0.0
173
     0
291
     1
 45
0.0
1001
ACAD
1000
AcDbSavedByObjectVersion
1070
     0
  0
VISUALSTYLE
  5
2C
102
{ACAD_REACTORS
330
2A
102
}
330
2A
100
AcDbVisualStyle
  2
FlatWithEdges
 70
     1
 71
     2
 72
     1
 73
     1
 90
        2
 40
-0.6
 41
30.0
 62
     5
 63
     7
421
 16777215
 74
     1
 91
        4
 64
     7
 65
   257
 75
     1
175
     1
 42
1.0
 92
        0
 66
   257
 43
1.0
 76
     1
 77
     6
 78
     2
 67
     7
 79
     5
170
     0
171
     0
290
     0
174
     0
 93
       13
 44
0.0
173
     0
291
     1
 45
0.0
1001
ACAD
1000
AcDbSavedByObjectVersion
1070
     0
  0
VISUALSTYLE
  5
2D
102
{ACAD_REACTORS
330
2A
102
}
330
2A
100
AcDbVisualStyle
  2
Gouraud
 70
     2
 71
     2
 72
     2
 73
     1
 90
        2
 40
-0.6
 41
30.0
 62
     5
 63
     7
421
 16777215
 74
     0
 91
        4
 64
     7
 65
   257
 75
     1
175
     1
 42
1.0
 92
        0
 66
     7
 43
1.0
 76
     1
 77
     6
 78
     2
 67
     7
 79
     5
170
     0
171
     0
290
     0
174
     0
 93
       13
 44
0.0
173
     0
291
     1
 45
0.0
1001
ACAD
1000
AcDbSavedByObjectVersion
1070
     0
  0
VISUALSTYLE
  5
2E
102
{ACAD_REACTORS
330
2A
102
}
330
2A
100
AcDbVisualStyle
  2
GouraudWithEdges
 70
     3
 71
     2
 72
     2
 73
     1
 90
        2
 40
-0.6
 41
30.0
 62
     5
 63
     7
421
 16777215
 74
     1
 91
        4
 64
     7
 65
   257
 75
     1
175
     1
 42
1.0
 92
        0
 66
   257
 43
1.0
 76
     1
 77
     6
 78
     2
 67
     7
 79
     5
170
     0
171
     0
290
     0
174
     0
 93
       13
 44
0.0
173
     0
291
     1
 45
0.0
1001
ACAD
1000
AcDbSavedByObjectVersion
1070
     0
  0
VISUALSTYLE
  5
38
102
{ACAD_REACTORS
330
2A
102
}
330
2A
100
AcDbVisualStyle
  2
Linepattern
 70
    14
 71
     2
 72
     2
 73
     0
 90
        0
 40
-0.6
 41
-30.0
 62
     5
 63
     7
421
 16777215
 74
     1
 91
        4
 64
     7
 65
   257
 75
     7
175
     7
 42
1.0
 92
        8
 66
     7
 43
1.0
 76
     1
 77
     6
 78
     2
 67
     7
 79
     5
170
     0
171
     0
290
     0
174
     0
 93
        1
 44
0.0
173
     0
291
     1
 45
0.0
1001
ACAD
1000
AcDbSavedByObjectVersion
1070
     0
  0
VISUALSTYLE
  5
33
102
{ACAD_REACTORS
330
2A
102
}
330
2A
100
AcDbVisualStyle
  2
Realistic
 70
     8
 71
     2
 72
     2
 73
     0
 90
        0
 40
-0.6
 41
-30.0
 62
     5
 63
     7
421
 16777215
 74
     1
 91
        0
 64
     7
 65
   257
 75
     1
175
     1
 42
1.0
 92
        8
 66
     8
424
  7895160
 43
1.0
 76
     1
 77
     6
 78
     2
 67
     7
 79
     5
170
     0
171
     0
290
     0
174
     0
 93
       13
 44
0.0
173
     0
291
     0
 45
0.0
1001
ACAD
1000
AcDbSavedByObjectVersion
1070
     0
  0
VISUALSTYLE
  5
37
102
{ACAD_REACTORS
330
2A
102
}
330
2A
100
AcDbVisualStyle
  2
Thicken
 70
    13
 71
     2
 72
     2
 73
     0
 90
        0
 40
-0.6
 41
-30.0
 62
     5
 63
     7
421
 16777215
 74
     1
 91
        4
 64
     7
 65
   257
 75
     1
175
     1
 42
1.0
 92
       12
 66
     7
 43
1.0
 76
     1
 77
     6
 78
     2
 67
     7
 79
     5
170
     0
171
     0
290
     0
174
     0
 93
        1
 44
0.0
173
     0
291
     1
 45
0.0
1001
ACAD
1000
AcDbSavedByObjectVersion
1070
     0
  0
ENDSEC
  0
EOF
