  0
SECTION
  2
HEADER
  9
$ACADVER
  1
AC1018
  9
$ACADMAINTVER
 70
     0
  9
$DWGCODEPAGE
  3
ANSI_1252
  9
$INSBASE
 10
0.0
 20
0.0
 30
0.0
  9
$EXTMIN
 10
-24.0
 20
-0.0001594498495159
 30
0.0
  9
$EXTMAX
 10
24.0000000000003
 20
86.64866948334304
 30
0.0
  9
$LIMMIN
 10
0.0
 20
0.0
  9
$LIMMAX
 10
12.0
 20
9.0
  9
$ORTHOMODE
 70
     0
  9
$REGENMODE
 70
     1
  9
$FILLMODE
 70
     1
  9
$QTEXTMODE
 70
     0
  9
$MIRRTEXT
 70
     1
  9
$LTSCALE
 40
0.0393700787401575
  9
$ATTMODE
 70
     1
  9
$TEXTSIZE
 40
0.2
  9
$TRACEWID
 40
0.05
  9
$TEXTSTYLE
  7
Standard
  9
$CLAYER
  8
Default
  9
$CELTYPE
  6
ByLayer
  9
$CECOLOR
 62
   256
  9
$CELTSCALE
 40
1.0
  9
$DISPSILH
 70
     0
  9
$DIMSCALE
 40
1.0
  9
$DIMASZ
 40
0.18
  9
$DIMEXO
 40
0.0625
  9
$DIMDLI
 40
0.38
  9
$DIMRND
 40
0.0
  9
$DIMDLE
 40
0.0
  9
$DIMEXE
 40
0.18
  9
$DIMTP
 40
0.0
  9
$DIMTM
 40
0.0
  9
$DIMTXT
 40
0.18
  9
$DIMCEN
 40
0.09
  9
$DIMTSZ
 40
0.0
  9
$DIMTOL
 70
     0
  9
$DIMLIM
 70
     0
  9
$DIMTIH
 70
     1
  9
$DIMTOH
 70
     1
  9
$DIMSE1
 70
     0
  9
$DIMSE2
 70
     0
  9
$DIMTAD
 70
     0
  9
$DIMZIN
 70
     0
  9
$DIMBLK
  1

  9
$DIMASO
 70
     1
  9
$DIMSHO
 70
     1
  9
$DIMPOST
  1

  9
$DIMAPOST
  1

  9
$DIMALT
 70
     0
  9
$DIMALTD
 70
     2
  9
$DIMALTF
 40
25.4
  9
$DIMLFAC
 40
1.0
  9
$DIMTOFL
 70
     0
  9
$DIMTVP
 40
0.0
  9
$DIMTIX
 70
     0
  9
$DIMSOXD
 70
     0
  9
$DIMSAH
 70
     0
  9
$DIMBLK1
  1

  9
$DIMBLK2
  1

  9
$DIMSTYLE
  2
Standard
  9
$DIMCLRD
 70
     0
  9
$DIMCLRE
 70
     0
  9
$DIMCLRT
 70
     0
  9
$DIMTFAC
 40
1.0
  9
$DIMGAP
 40
0.09
  9
$DIMJUST
 70
     0
  9
$DIMSD1
 70
     0
  9
$DIMSD2
 70
     0
  9
$DIMTOLJ
 70
     1
  9
$DIMTZIN
 70
     0
  9
$DIMALTZ
 70
     0
  9
$DIMALTTZ
 70
     0
  9
$DIMUPT
 70
     0
  9
$DIMDEC
 70
     4
  9
$DIMTDEC
 70
     4
  9
$DIMALTU
 70
     2
  9
$DIMALTTD
 70
     2
  9
$DIMTXSTY
  7
Standard
  9
$DIMAUNIT
 70
     0
  9
$DIMADEC
 70
     0
  9
$DIMALTRND
 40
0.0
  9
$DIMAZIN
 70
     0
  9
$DIMDSEP
 70
    46
  9
$DIMATFIT
 70
     3
  9
$DIMFRAC
 70
     0
  9
$DIMLDRBLK
  1

  9
$DIMLUNIT
 70
     2
  9
$DIMLWD
 70
    -2
  9
$DIMLWE
 70
    -2
  9
$DIMTMOVE
 70
     2
  9
$LUNITS
 70
     2
  9
$LUPREC
 70
     3
  9
$SKETCHINC
 40
0.1
  9
$FILLETRAD
 40
0.5
  9
$AUNITS
 70
     0
  9
$AUPREC
 70
     0
  9
$MENU
  1
.
  9
$ELEVATION
 40
0.0
  9
$PELEVATION
 40
0.0
  9
$THICKNESS
 40
0.0
  9
$LIMCHECK
 70
     0
  9
$CHAMFERA
 40
0.5
  9
$CHAMFERB
 40
0.5
  9
$CHAMFERC
 40
1.0
  9
$CHAMFERD
 40
0.0
  9
$SKPOLY
 70
     0
  9
$TDCREATE
 40
2456360.481455394
  9
$TDUCREATE
 40
2456360.689788727
  9
$TDUPDATE
 40
2456360.481455405
  9
$TDUUPDATE
 40
2456360.689788738
  9
$TDINDWG
 40
0.0000000116
  9
$TDUSRTIMER
 40
0.0000000116
  9
$USRTIMER
 70
     1
  9
$ANGBASE
 50
0.0
  9
$ANGDIR
 70
     0
  9
$PDMODE
 70
     0
  9
$PDSIZE
 40
0.0
  9
$PLINEWID
 40
0.0
  9
$SPLFRAME
 70
     0
  9
$SPLINETYPE
 70
     6
  9
$SPLINESEGS
 70
     8
  9
$HANDSEED
  5
6D
  9
$SURFTAB1
 70
     6
  9
$SURFTAB2
 70
     6
  9
$SURFTYPE
 70
     6
  9
$SURFU
 70
     6
  9
$SURFV
 70
     6
  9
$UCSBASE
  2

  9
$UCSNAME
  2

  9
$UCSORG
 10
0.0
 20
0.0
 30
0.0
  9
$UCSXDIR
 10
1.0
 20
0.0
 30
0.0
  9
$UCSYDIR
 10
0.0
 20
1.0
 30
0.0
  9
$UCSORTHOREF
  2

  9
$UCSORTHOVIEW
 70
     0
  9
$UCSORGTOP
 10
0.0
 20
0.0
 30
0.0
  9
$UCSORGBOTTOM
 10
0.0
 20
0.0
 30
0.0
  9
$UCSORGLEFT
 10
0.0
 20
0.0
 30
0.0
  9
$UCSORGRIGHT
 10
0.0
 20
0.0
 30
0.0
  9
$UCSORGFRONT
 10
0.0
 20
0.0
 30
0.0
  9
$UCSORGBACK
 10
0.0
 20
0.0
 30
0.0
  9
$PUCSBASE
  2

  9
$PUCSNAME
  2

  9
$PUCSORG
 10
0.0
 20
0.0
 30
0.0
  9
$PUCSXDIR
 10
1.0
 20
0.0
 30
0.0
  9
$PUCSYDIR
 10
0.0
 20
1.0
 30
0.0
  9
$PUCSORTHOREF
  2

  9
$PUCSORTHOVIEW
 70
     0
  9
$PUCSORGTOP
 10
0.0
 20
0.0
 30
0.0
  9
$PUCSORGBOTTOM
 10
0.0
 20
0.0
 30
0.0
  9
$PUCSORGLEFT
 10
0.0
 20
0.0
 30
0.0
  9
$PUCSORGRIGHT
 10
0.0
 20
0.0
 30
0.0
  9
$PUCSORGFRONT
 10
0.0
 20
0.0
 30
0.0
  9
$PUCSORGBACK
 10
0.0
 20
0.0
 30
0.0
  9
$USERI1
 70
     0
  9
$USERI2
 70
     0
  9
$USERI3
 70
     0
  9
$USERI4
 70
     0
  9
$USERI5
 70
     0
  9
$USERR1
 40
0.0
  9
$USERR2
 40
0.0
  9
$USERR3
 40
0.0
  9
$USERR4
 40
0.0
  9
$USERR5
 40
0.0
  9
$WORLDVIEW
 70
     1
  9
$SHADEDGE
 70
     3
  9
$SHADEDIF
 70
    70
  9
$TILEMODE
 70
     1
  9
$MAXACTVP
 70
    64
  9
$PINSBASE
 10
0.0
 20
0.0
 30
0.0
  9
$PLIMCHECK
 70
     0
  9
$PEXTMIN
 10
1.000000000000000E+20
 20
1.000000000000000E+20
 30
1.000000000000000E+20
  9
$PEXTMAX
 10
-1.000000000000000E+20
 20
-1.000000000000000E+20
 30
-1.000000000000000E+20
  9
$PLIMMIN
 10
0.0
 20
0.0
  9
$PLIMMAX
 10
12.0
 20
9.0
  9
$UNITMODE
 70
     0
  9
$VISRETAIN
 70
     1
  9
$PLINEGEN
 70
     0
  9
$PSLTSCALE
 70
     1
  9
$TREEDEPTH
 70
  3020
  9
$CMLSTYLE
  2
Standard
  9
$CMLJUST
 70
     0
  9
$CMLSCALE
 40
1.0
  9
$PROXYGRAPHICS
 70
     1
  9
$MEASUREMENT
 70
     0
  9
$CELWEIGHT
370
    -1
  9
$ENDCAPS
280
     0
  9
$JOINSTYLE
280
     0
  9
$LWDISPLAY
290
     0
  9
$INSUNITS
 70
     1
  9
$HYPERLINKBASE
  1

  9
$STYLESHEET
  1

  9
$XEDIT
290
     1
  9
$CEPSNTYPE
380
     0
  9
$PSTYLEMODE
290
     1
  9
$FINGERPRINTGUID
  2
{882BF600-532C-405A-8716-AA3B359D746C}
  9
$VERSIONGUID
  2
{FAEB1C32-E019-11D5-929B-00C0DF256EC4}
  9
$EXTNAMES
290
     1
  9
$PSVPSCALE
 40
0.0
  9
$OLESTARTUP
290
     0
  9
$SORTENTS
280
   127
  9
$INDEXCTL
280
     0
  9
$HIDETEXT
280
     1
  9
$XCLIPFRAME
290
     0
  9
$HALOGAP
280
     0
  9
$OBSCOLOR
 70
   257
  9
$OBSLTYPE
280
     0
  9
$INTERSECTIONDISPLAY
280
     0
  9
$INTERSECTIONCOLOR
 70
   257
  9
$DIMASSOC
280
     2
  9
$PROJECTNAME
  1

  0
ENDSEC
  0
SECTION
  2
CLASSES
  0
CLASS
  1
ACDBDICTIONARYWDFLT
  2
AcDbDictionaryWithDefault
  3
ObjectDBX Classes
 90
        0
 91
        4
280
     0
281
     0
  0
CLASS
  1
VISUALSTYLE
  2
AcDbVisualStyle
  3
ObjectDBX Classes
 90
     4095
 91
        4
280
     0
281
     0
  0
ENDSEC
  0
SECTION
  2
TABLES
  0
TABLE
  2
VPORT
  5
8
330
0
100
AcDbSymbolTable
 70
     1
  0
VPORT
  5
29
330
8
100
AcDbSymbolTableRecord
100
AcDbViewportTableRecord
  2
*Active
 70
     0
 10
0.0
 20
0.0
 11
1.0
 21
1.0
 12
0.0000000000001492
 22
43.32425501674676
 13
0.0
 23
0.0
 14
0.5
 24
0.5
 15
0.5
 25
0.5
 16
0.0
 26
0.0
 36
1.0
 17
0.0
 27
0.0
 37
0.0
 40
88.38180551185641
 41
0.5539601699292319
 42
50.0
 43
0.0
 44
0.0
 50
0.0
 51
0.0
 71
     0
 72
   100
 73
     1
 74
     3
 75
     0
 76
     0
 77
     0
 78
     0
281
     0
 65
     1
110
0.0
120
0.0
130
0.0
111
1.0
121
0.0
131
0.0
112
0.0
122
1.0
132
0.0
 79
     0
146
0.0
  0
ENDTAB
  0
TABLE
  2
LTYPE
  5
5
330
0
100
AcDbSymbolTable
 70
     1
  0
LTYPE
  5
14
330
5
100
AcDbSymbolTableRecord
100
AcDbLinetypeTableRecord
  2
ByBlock
 70
     0
  3

 72
    65
 73
     0
 40
0.0
  0
LTYPE
  5
15
330
5
100
AcDbSymbolTableRecord
100
AcDbLinetypeTableRecord
  2
ByLayer
 70
     0
  3

 72
    65
 73
     0
 40
0.0
  0
LTYPE
  5
16
330
5
100
AcDbSymbolTableRecord
100
AcDbLinetypeTableRecord
  2
Continuous
 70
     0
  3
Solid line
 72
    65
 73
     0
 40
0.0
  0
ENDTAB
  0
TABLE
  2
LAYER
  5
2
330
0
100
AcDbSymbolTable
 70
     4
  0
LAYER
  5
10
330
2
100
AcDbSymbolTableRecord
100
AcDbLayerTableRecord
  2
0
 70
     0
 62
     7
  6
Continuous
370
    -3
390
F
  0
LAYER
  5
3B
330
2
100
AcDbSymbolTableRecord
100
AcDbLayerTableRecord
  2
Default
 70
     0
 62
     7
  6
Continuous
370
    -3
390
F
  0
LAYER
  5
4E
330
2
100
AcDbSymbolTableRecord
100
AcDbLayerTableRecord
  2
Make2D visible lines - Tangent
 70
     0
 62
     7
  6
Continuous
370
    -3
390
F
  0
LAYER
  5
65
330
2
100
AcDbSymbolTableRecord
100
AcDbLayerTableRecord
  2
Make2D visible lines
 70
     0
 62
     7
  6
Continuous
370
    -3
390
F
  0
ENDTAB
  0
TABLE
  2
STYLE
  5
3
330
0
100
AcDbSymbolTable
 70
     1
  0
STYLE
  5
11
330
3
100
AcDbSymbolTableRecord
100
AcDbTextStyleTableRecord
  2
Standard
 70
     0
 40
0.0
 41
1.0
 50
0.0
 71
     0
 42
0.2
  3
txt
  4

  0
ENDTAB
  0
TABLE
  2
VIEW
  5
6
330
0
100
AcDbSymbolTable
 70
     0
  0
ENDTAB
  0
TABLE
  2
UCS
  5
7
330
0
100
AcDbSymbolTable
 70
     0
  0
ENDTAB
  0
TABLE
  2
APPID
  5
9
330
0
100
AcDbSymbolTable
 70
     1
  0
APPID
  5
12
330
9
100
AcDbSymbolTableRecord
100
AcDbRegAppTableRecord
  2
ACAD
 70
     0
  0
ENDTAB
  0
TABLE
  2
DIMSTYLE
  5
A
330
0
100
AcDbSymbolTable
 70
     1
100
AcDbDimStyleTable
  0
DIMSTYLE
105
27
330
A
100
AcDbSymbolTableRecord
100
AcDbDimStyleTableRecord
  2
Standard
 70
     0
340
11
  0
ENDTAB
  0
TABLE
  2
BLOCK_RECORD
  5
1
330
0
100
AcDbSymbolTable
 70
     1
  0
BLOCK_RECORD
  5
1F
330
1
100
AcDbSymbolTableRecord
100
AcDbBlockTableRecord
  2
*Model_Space
340
22
  0
BLOCK_RECORD
  5
1B
330
1
100
AcDbSymbolTableRecord
100
AcDbBlockTableRecord
  2
*Paper_Space
340
1E
  0
BLOCK_RECORD
  5
23
330
1
100
AcDbSymbolTableRecord
100
AcDbBlockTableRecord
  2
*Paper_Space0
340
26
  0
ENDTAB
  0
ENDSEC
  0
SECTION
  2
BLOCKS
  0
BLOCK
  5
20
330
1F
100
AcDbEntity
  8
0
100
AcDbBlockBegin
  2
*Model_Space
 70
     0
 10
0.0
 20
0.0
 30
0.0
  3
*Model_Space
  1

  0
ENDBLK
  5
21
330
1F
100
AcDbEntity
  8
0
100
AcDbBlockEnd
  0
BLOCK
  5
1C
330
1B
100
AcDbEntity
 67
     1
  8
0
100
AcDbBlockBegin
  2
*Paper_Space
 70
     0
 10
0.0
 20
0.0
 30
0.0
  3
*Paper_Space
  1

  0
ENDBLK
  5
1D
330
1B
100
AcDbEntity
 67
     1
  8
0
100
AcDbBlockEnd
  0
BLOCK
  5
24
330
23
100
AcDbEntity
  8
0
100
AcDbBlockBegin
  2
*Paper_Space0
 70
     0
 10
0.0
 20
0.0
 30
0.0
  3
*Paper_Space0
  1

  0
ENDBLK
  5
25
330
23
100
AcDbEntity
  8
0
100
AcDbBlockEnd
  0
ENDSEC
  0
SECTION
  2
ENTITIES
  0
SPLINE
  5
3C
330
1F
100
AcDbEntity
  8
Default
100
AcDbSpline
210
0.0
220
0.0
230
1.0
 70
    15
 71
     2
 72
    12
 73
     9
 74
     0
 42
0.0000000001
 43
0.0000000001
 40
0.0
 40
0.0
 40
0.0
 40
37.6991118430775
 40
37.6991118430775
 40
75.398223686155
 40
75.398223686155
 40
113.097335529233
 40
113.097335529233
 40
150.79644737231
 40
150.79644737231
 40
150.79644737231
 10
-0.0000000000000036
 20
38.64866948334304
 30
0.0
 41
1.0
 10
24.0
 20
38.64866948334305
 30
0.0
 41
0.707106781186548
 10
24.0
 20
62.64866948334304
 30
0.0
 41
1.0
 10
24.0
 20
86.64866948334304
 30
0.0
 41
0.707106781186548
 10
-0.0000000000000006
 20
86.64866948334304
 30
0.0
 41
1.0
 10
-24.0
 20
86.64866948334304
 30
0.0
 41
0.707106781186548
 10
-24.0
 20
62.64866948334304
 30
0.0
 41
1.0
 10
-24.0
 20
38.64866948334305
 30
0.0
 41
0.707106781186548
 10
-0.0000000000000036
 20
38.64866948334304
 30
0.0
 41
1.0
  0
SPLINE
  5
3D
330
1F
100
AcDbEntity
  8
Default
100
AcDbSpline
210
0.0
220
0.0
230
1.0
 70
    24
 71
     2
 72
     6
 73
     3
 74
     0
 42
0.0000000001
 43
0.0000000001
 40
-1.32040782132717
 40
-1.32040782132717
 40
-1.32040782132717
 40
0.0
 40
0.0
 40
0.0
 10
-23.9859763785573
 20
28.5780791669853
 30
0.0
 10
-23.4010315905249
 20
28.26928958349305
 30
0.0
 10
-22.8160868024925
 20
27.9605000000008
 30
0.0
  0
SPLINE
  5
3E
330
1F
100
AcDbEntity
  8
Default
100
AcDbSpline
210
0.0
220
0.0
230
1.0
 70
    28
 71
     2
 72
     8
 73
     5
 74
     0
 42
0.0000000001
 43
0.0000000001
 40
35.2837805817312
 40
35.2837805817312
 40
35.2837805817312
 40
35.6821114001933
 40
35.6821114001933
 40
71.68768118193
 40
71.68768118193
 40
71.68768118193
 10
-22.8160868024925
 20
27.9605000000008
 30
0.0
 41
0.99359111993378
 10
-22.8188976378
 20
27.96050000000069
 30
0.0
 41
0.99675971255894
 10
-22.8188976378
 20
27.9605000000006
 30
0.0
 41
1.0
 10
-22.8188976378
 20
27.9605000000006
 30
0.0
 41
0.707106781186548
 10
0.0
 20
27.9605000000006
 30
0.0
 41
1.0
  0
SPLINE
  5
3F
330
1F
100
AcDbEntity
  8
Default
100
AcDbSpline
210
0.0
220
0.0
230
1.0
 70
    24
 71
     2
 72
     6
 73
     3
 74
     0
 42
0.0000000001
 43
0.0000000001
 40
0.0
 40
0.0
 40
0.0
 40
22.8132759671854
 40
22.8132759671854
 40
22.8132759671854
 10
0.0
 20
27.9605000000006
 30
0.0
 10
11.40804340124625
 20
27.9605000000007
 30
0.0
 10
22.8160868024925
 20
27.9605000000008
 30
0.0
  0
SPLINE
  5
40
330
1F
100
AcDbEntity
  8
Default
100
AcDbSpline
210
0.0
220
0.0
230
1.0
 70
    24
 71
     2
 72
     6
 73
     3
 74
     0
 42
0.0000000001
 43
0.0000000001
 40
-1.32040782132715
 40
-1.32040782132715
 40
-1.32040782132715
 40
0.0
 40
0.0
 40
0.0
 10
22.8160868024925
 20
27.9605000000008
 30
0.0
 10
23.4010315905249
 20
28.26928958349305
 30
0.0
 10
23.9859763785573
 20
28.5780791669853
 30
0.0
  0
SPLINE
  5
41
330
1F
100
AcDbEntity
  8
Default
100
AcDbSpline
210
0.0
220
0.0
230
1.0
 70
    24
 71
     2
 72
     6
 73
     3
 74
     0
 42
0.0000000001
 43
0.0000000001
 40
0.0
 40
0.0
 40
0.0
 40
0.1875
 40
0.1875
 40
0.1875
 10
6.0
 20
27.9605
 30
0.0
 10
6.0
 20
27.86675
 30
0.0
 10
6.0
 20
27.773
 30
0.0
  0
SPLINE
  5
42
330
1F
100
AcDbEntity
  8
Default
100
AcDbSpline
210
0.0
220
0.0
230
1.0
 70
    24
 71
     2
 72
     6
 73
     3
 74
     0
 42
0.0000000001
 43
0.0000000001
 40
-12.0
 40
-12.0
 40
-12.0
 40
0.0
 40
0.0
 40
0.0
 10
6.0
 20
27.773
 30
0.0
 10
0.0
 20
27.773
 30
0.0
 10
-6.0
 20
27.773
 30
0.0
  0
SPLINE
  5
43
330
1F
100
AcDbEntity
  8
Default
100
AcDbSpline
210
0.0
220
0.0
230
1.0
 70
    24
 71
     2
 72
     6
 73
     3
 74
     0
 42
0.0000000001
 43
0.0000000001
 40
0.0
 40
0.0
 40
0.0
 40
0.1875
 40
0.1875
 40
0.1875
 10
-6.0
 20
27.773
 30
0.0
 10
-6.0
 20
27.86675
 30
0.0
 10
-6.0
 20
27.9605
 30
0.0
  0
SPLINE
  5
44
330
1F
100
AcDbEntity
  8
Default
100
AcDbSpline
210
0.0
220
0.0
230
1.0
 70
    28
 71
     2
 72
     8
 73
     5
 74
     0
 42
0.0000000001
 43
0.0000000001
 40
0.0
 40
0.0
 40
0.0
 40
37.8692121099948
 40
37.8692121099948
 40
38.2881604656256
 40
38.2881604656256
 40
38.2881604656256
 10
0.0
 20
28.9605
 30
0.0
 41
1.0
 10
24.0
 20
28.9605
 30
0.0
 41
0.707106781186548
 10
24.0
 20
28.9605
 30
0.0
 41
1.0
 10
24.0
 20
28.9605
 30
0.0
 41
0.996759712559086
 10
23.9970436763228
 20
28.9605
 30
0.0
 41
0.993591119934067
  0
SPLINE
  5
45
330
1F
100
AcDbEntity
  8
Default
100
AcDbSpline
210
0.0
220
0.0
230
1.0
 70
    24
 71
     2
 72
     6
 73
     3
 74
     0
 42
0.0000000001
 43
0.0000000001
 40
0.0
 40
0.0
 40
0.0
 40
0.375
 40
0.375
 40
0.375
 10
23.9970436763228
 20
28.9605
 30
0.0
 10
23.9967775343599
 20
28.7720769725714
 30
0.0
 10
23.996511392397
 20
28.5836539451428
 30
0.0
  0
SPLINE
  5
46
330
1F
100
AcDbEntity
  8
Default
100
AcDbSpline
210
0.0
220
0.0
230
1.0
 70
    24
 71
     2
 72
     6
 73
     3
 74
     0
 42
0.0000000001
 43
0.0000000001
 40
-0.0026678155737707
 40
-0.0026678155737707
 40
-0.0026678155737707
 40
0.0
 40
0.0
 40
0.0
 10
23.996511392397
 20
28.5836539451428
 30
0.0
 10
23.99562273608665
 20
28.583965891818
 30
0.0
 10
23.9947340797763
 20
28.5842778384932
 30
0.0
  0
SPLINE
  5
47
330
1F
100
AcDbEntity
  8
Default
100
AcDbSpline
210
0.0
220
0.0
230
1.0
 70
    12
 71
     2
 72
     8
 73
     5
 74
     0
 42
0.0000000001
 43
0.0000000001
 40
-38.2881604656256
 40
-38.2881604656256
 40
-38.2881604656256
 40
-37.7316404238066
 40
-37.7316404238066
 40
0.0
 40
0.0
 40
0.0
 10
23.9947340797763
 20
28.58427783849319
 30
0.0
 41
0.991487421476147
 10
24.00000000000029
 20
28.58549999999949
 30
0.0
 41
0.995679993115812
 10
24.0000000000003
 20
28.5854999999995
 30
0.0
 41
1.0
 10
24.0000000000003
 20
28.5854999999995
 30
0.0
 41
0.707106781186548
 10
0.0
 20
28.5854999999995
 30
0.0
 41
1.0
  0
SPLINE
  5
48
330
1F
100
AcDbEntity
  8
Default
100
AcDbSpline
210
0.0
220
0.0
230
1.0
 70
    24
 71
     2
 72
     6
 73
     3
 74
     0
 42
0.0000000001
 43
0.0000000001
 40
0.0
 40
0.0
 40
0.0
 40
23.9940873526458
 40
23.9940873526458
 40
23.9940873526458
 10
0.0
 20
28.5854999999995
 30
0.0
 10
-11.99852183816145
 20
28.58549999999965
 30
0.0
 10
-23.9970436763229
 20
28.5854999999998
 30
0.0
  0
SPLINE
  5
49
330
1F
100
AcDbEntity
  8
Default
100
AcDbSpline
210
0.0
220
0.0
230
1.0
 70
    24
 71
     2
 72
     6
 73
     3
 74
     0
 42
0.0000000001
 43
0.0000000001
 40
0.0
 40
0.0
 40
0.0
 40
0.375
 40
0.375
 40
0.375
 10
-23.9970436763229
 20
28.5854999999998
 30
0.0
 10
-23.99704367632285
 20
28.7729999999999
 30
0.0
 10
-23.9970436763228
 20
28.9605
 30
0.0
  0
SPLINE
  5
4A
330
1F
100
AcDbEntity
  8
Default
100
AcDbSpline
210
0.0
220
0.0
230
1.0
 70
    24
 71
     2
 72
     6
 73
     3
 74
     0
 42
0.0000000001
 43
0.0000000001
 40
-23.9940873526456
 40
-23.9940873526456
 40
-23.9940873526456
 40
0.0
 40
0.0
 40
0.0
 10
-23.9970436763228
 20
28.9605
 30
0.0
 10
-11.9985218381614
 20
28.9605
 30
0.0
 10
0.0
 20
28.9605
 30
0.0
  0
SPLINE
  5
4B
330
1F
100
AcDbEntity
  8
Default
100
AcDbSpline
210
0.0
220
0.0
230
1.0
 70
    24
 71
     2
 72
     6
 73
     3
 74
     0
 42
0.0000000001
 43
0.0000000001
 40
0.0
 40
0.0
 40
0.0
 40
7.31
 40
7.31
 40
7.31
 10
-1.28478183211334
 20
6.46300000000001
 30
0.0
 10
-1.28478183211334
 20
17.11800000000001
 30
0.0
 10
-1.28478183211334
 20
27.773
 30
0.0
  0
SPLINE
  5
4C
330
1F
100
AcDbEntity
  8
Default
100
AcDbSpline
210
0.0
220
0.0
230
1.0
 70
    24
 71
     2
 72
     6
 73
     3
 74
     0
 42
0.0000000001
 43
0.0000000001
 40
0.0
 40
0.0
 40
0.0
 40
7.31
 40
7.31
 40
7.31
 10
1.28478183211334
 20
6.46300000000001
 30
0.0
 10
1.28478183211334
 20
17.11800000000001
 30
0.0
 10
1.28478183211334
 20
27.773
 30
0.0
  0
SPLINE
  5
4D
330
1F
100
AcDbEntity
  8
Default
100
AcDbSpline
210
0.0
220
0.0
230
1.0
 70
    24
 71
     2
 72
     6
 73
     3
 74
     0
 42
0.0000000001
 43
0.0000000001
 40
0.0
 40
0.0
 40
0.0
 40
2.56956366422668
 40
2.56956366422668
 40
2.56956366422668
 10
-1.28478183211334
 20
27.773
 30
0.0
 10
0.0
 20
27.773
 30
0.0
 10
1.28478183211334
 20
27.773
 30
0.0
  0
SPLINE
  5
4F
330
1F
100
AcDbEntity
  8
Make2D visible lines - Tangent
100
AcDbSpline
210
0.0
220
0.0
230
1.0
 70
    12
 71
     3
 72
    92
 73
    88
 74
     0
 42
0.0000000001
 43
0.0000000001
 40
-1.0
 40
-1.0
 40
-1.0
 40
-1.0
 40
-0.7499999999996545
 40
-0.4999999999998727
 40
-0.250000000000091
 40
0.0
 40
0.0
 40
0.0
 40
12.41813961573715
 40
12.41813961573715
 40
12.41813961573715
 40
12.59621158193051
 40
12.79016067065074
 40
13.21723730835177
 40
13.43719170383571
 40
15.34229994162102
 40
15.34229994162102
 40
15.34229994162102
 40
15.36667432955244
 40
15.36667432955244
 40
15.36667432955244
 40
15.39104871748385
 40
15.39104871748385
 40
15.39104871748385
 40
15.40317221162193
 40
15.45231039738603
 40
15.50144858315024
 40
15.5281014674092
 40
15.5281014674092
 40
15.5281014674092
 40
15.53721624696272
 40
15.53721624696272
 40
15.53721624696272
 40
15.57303539551719
 40
15.57303539551719
 40
15.57303539551719
 40
15.59241582078126
 40
15.59241582078126
 40
15.59241582078126
 40
15.60572098857138
 40
15.60572098857138
 40
15.60572098857138
 40
16.44940219324809
 40
16.44940219324809
 40
16.44940219324809
 40
16.75059264243526
 40
16.75059264243526
 40
16.75059264243526
 40
16.79656023791168
 40
16.79656023791168
 40
16.79656023791168
 40
17.23269193239688
 40
17.95111504347959
 40
18.04840624168958
 40
18.23203925130549
 40
18.37325669172603
 40
18.37325669172603
 40
18.37325669172603
 40
29.48229797684192
 40
29.48229797684192
 40
29.48229797684192
 40
30.24101021091782
 40
30.24101021091782
 40
30.24101021091782
 40
30.75331194527165
 40
30.75331194527165
 40
30.75331194527165
 40
31.31904426204952
 40
31.31904426204952
 40
31.31904426204952
 40
31.80782235450797
 40
31.80782235450797
 40
32.16497472764705
 40
32.16497472764705
 40
32.16497472764705
 40
32.92656424087108
 40
32.92656424087108
 40
32.92656424087108
 40
44.03358117586856
 40
44.03358117586856
 40
44.03358117586856
 40
44.0954736958677
 40
44.17449251785194
 40
44.35870513118481
 40
44.45258655565532
 40
45.19103184095889
 40
45.61020800244108
 40
45.61020800244108
 40
45.61020800244108
 40
45.61020800244108
 10
0.9123652292470523
 20
6.447000000000006
 30
0.0
 41
1.0
 10
0.9135668803136965
 20
6.349641941326265
 30
0.0
 41
1.0
 10
0.9410951234940383
 20
6.170312283441223
 30
0.0
 41
1.0
 10
1.039834452932185
 20
5.956627574013773
 30
0.0
 41
1.0
 10
1.17809288856313
 20
5.807403040999377
 30
0.0
 41
1.0
 10
1.284659344129389
 20
5.756993735941185
 30
0.0
 41
1.0
 10
1.338553136786247
 20
5.745582579152218
 30
0.0
 41
1.0
 10
5.388153672641587
 20
4.888143820993061
 30
0.0
 41
1.0
 10
9.437754208496926
 20
4.030705062833904
 30
0.0
 41
1.0
 10
13.56890724405797
 20
3.156668639971268
 30
0.0
 41
1.0
 10
13.62403579359728
 20
3.138450449169377
 30
0.0
 41
1.0
 10
13.74009589567907
 20
3.081480322007233
 30
0.0
 41
1.0
 10
13.92149462651572
 20
2.889388349105119
 30
0.0
 41
1.0
 10
14.04458493966478
 20
2.624221682192426
 30
0.0
 41
1.0
 10
14.08567674858394
 20
1.774269482666258
 30
0.0
 41
1.0
 10
14.09668066868396
 20
1.065966900527659
 30
0.0
 41
1.0
 10
14.13281074540182
 20
0.4318133226887094
 30
0.0
 41
1.0
 10
14.13320298077854
 20
0.4234680916307511
 30
0.0
 41
0.9470749378205457
 10
14.13030721635942
 20
0.4156334230377903
 30
0.0
 41
0.9470749378205457
 10
14.12458322768028
 20
0.4095532678771409
 30
0.0
 41
1.0
 10
14.11885923900113
 20
0.4034731127164912
 30
0.0
 41
0.9470749378205457
 10
14.1110695754268
 20
0.4001107360992437
 30
0.0
 41
0.9470749378205457
 10
14.10245104224438
 20
0.4000000000000142
 30
0.0
 41
1.0
 10
14.10257519707904
 20
0.4000000000000132
 30
0.0
 41
1.0
 10
14.10305727086619
 20
0.4000000000000132
 30
0.0
 41
1.0
 10
14.10266121516542
 20
0.4000000000000132
 30
0.0
 41
1.0
 10
14.10026156832413
 20
0.4000000000000132
 30
0.0
 41
1.0
 10
14.0980432617244
 20
0.4000000000000132
 30
0.0
 41
1.0
 10
14.09718139756953
 20
0.4000000000000132
 30
0.0
 41
1.0
 10
14.09414313771917
 20
0.4000000000000132
 30
0.0
 41
1.0
 10
14.09110487786881
 20
0.4000000000000132
 30
0.0
 41
1.0
 10
14.08806661801845
 20
0.4000000000000132
 30
0.0
 41
1.0
 10
14.07612690183362
 20
0.4000000000000132
 30
0.0
 41
1.0
 10
14.06418718564878
 20
0.4000000000000132
 30
0.0
 41
1.0
 10
14.05224746946394
 20
0.4000000000000132
 30
0.0
 41
1.0
 10
14.04578732773432
 20
0.4000000000000132
 30
0.0
 41
1.0
 10
14.0393271860047
 20
0.4000000000000132
 30
0.0
 41
1.0
 10
14.03286704427507
 20
0.4000000000000132
 30
0.0
 41
1.0
 10
14.02838747214624
 20
0.4000000000000132
 30
0.0
 41
1.0
 10
14.02390790001741
 20
0.4000000000000132
 30
0.0
 41
1.0
 10
14.01942832788858
 20
0.4000000000000132
 30
0.0
 41
1.0
 10
13.73815672855208
 20
0.4000000000000132
 30
0.0
 41
1.0
 10
13.45688512921559
 20
0.4000000000000132
 30
0.0
 41
1.0
 10
13.17561352987909
 20
0.4000000000000132
 30
0.0
 41
1.0
 10
13.07494938624195
 20
0.4000000000000132
 30
0.0
 41
1.0
 10
12.97428524260482
 20
0.4000000000000132
 30
0.0
 41
1.0
 10
12.87362109896769
 20
0.4000000000000132
 30
0.0
 41
1.0
 10
12.85612502590852
 20
0.4000810909985785
 30
0.0
 41
0.8154462621053655
 10
12.84353687495105
 20
0.4120389047479462
 30
0.0
 41
0.8154462621053655
 10
12.84282621703244
 20
0.4292528635746354
 30
0.0
 41
1.0
 10
12.8370450204424
 20
0.5747703495118655
 30
0.0
 41
1.0
 10
12.82352950272664
 20
0.9597537755228446
 30
0.0
 41
1.0
 10
12.8204725517609
 20
1.376549164911954
 30
0.0
 41
1.0
 10
12.81561870407387
 20
1.710113644278627
 30
0.0
 41
1.0
 10
12.76814172308038
 20
1.845891945173511
 30
0.0
 41
1.0
 10
12.68914652567115
 20
1.927037149430391
 30
0.0
 41
1.0
 10
12.64140313560234
 20
1.936342420408457
 30
0.0
 41
1.0
 10
8.935859450125413
 20
2.445617269908534
 30
0.0
 41
0.9999999787048143
 10
5.267203576103997
 20
2.948881901482836
 30
0.0
 41
0.9999999787048143
 10
1.598420616153676
 20
3.451219242481502
 30
0.0
 41
1.0
 10
1.347817235580286
 20
3.485532374988043
 30
0.0
 41
0.9997034689596856
 10
1.080184809760774
 20
3.515074966633458
 30
0.0
 41
0.9997034689596856
 10
0.7957614226600902
 20
3.539820736531444
 30
0.0
 41
1.0
 10
0.6266507150101015
 20
3.563713415882022
 30
0.0
 41
0.9998146096189497
 10
0.4581511322558227
 20
3.591571774267059
 30
0.0
 41
0.9998146096189497
 10
0.2903563890028145
 20
3.623380317671528
 30
0.0
 41
1.0
 10
0.1001165236021735
 20
3.650328786983412
 30
0.0
 41
0.9937552851059449
 10
-0.0946706375841803
 20
3.650327778828826
 30
0.0
 41
0.9937552851059449
 10
-0.2903559236963535
 20
3.623377312094682
 30
0.0
 41
1.0
 10
-0.4271226870222611
 20
3.604541311807781
 30
0.0
 41
1.0
 10
-0.5343817284791426
 20
3.579595906727917
 30
0.0
 41
1.0
 10
-0.6865326185830201
 20
3.552106479065293
 30
0.0
 41
1.0
 10
-0.7427676789690905
 20
3.543743389558939
 30
0.0
 41
1.0
 10
-0.7956712609251904
 20
3.539765335285064
 30
0.0
 41
1.0
 10
-1.048971585337356
 20
3.519899757585571
 30
0.0
 41
0.9997023529096847
 10
-1.348871329345141
 20
3.485389368587213
 30
0.0
 41
0.9997023529096847
 10
-1.600425202970125
 20
3.450945977687674
 30
0.0
 41
1.0
 10
-5.268539391954012
 20
2.948698530432416
 30
0.0
 41
0.9999999787544459
 10
-8.936526666044525
 20
2.44552504264685
 30
0.0
 41
0.9999999787544459
 10
-12.64138323682722
 20
1.936331838058584
 30
0.0
 41
1.0
 10
-12.66164144467376
 20
1.93308681435827
 30
0.0
 41
1.0
 10
-12.70507054217549
 20
1.910465996763315
 30
0.0
 41
1.0
 10
-12.77434130492029
 20
1.826835782201522
 30
0.0
 41
1.0
 10
-12.81563419948485
 20
1.711002970802085
 30
0.0
 41
1.0
 10
-12.82039928859239
 20
1.37212621434932
 30
0.0
 41
1.0
 10
-12.8236615251687
 20
0.955013072737722
 30
0.0
 41
1.0
 10
-12.83726280457359
 20
0.5692932617830048
 30
0.0
 41
1.0
 10
-12.84308926682938
 20
0.4261036639805971
 30
0.0
 41
1.0
  0
SPLINE
  5
50
330
1F
100
AcDbEntity
  8
Make2D visible lines - Tangent
100
AcDbSpline
210
0.0
220
0.0
230
1.0
 70
    12
 71
     2
 72
     6
 73
     3
 74
     0
 42
0.0000000001
 43
0.0000000001
 40
0.0
 40
0.0
 40
0.0
 40
0.0431482126651565
 40
0.0431482126651565
 40
0.0431482126651565
 10
-12.84308926682938
 20
0.4261036639805971
 30
0.0
 41
1.0
 10
-12.84661384728279
 20
0.4001384197011552
 30
0.0
 41
0.7548977763827374
 10
-12.87281685126802
 20
0.4000000000000131
 30
0.0
 41
1.0
  0
LINE
  5
51
330
1F
100
AcDbEntity
  8
Make2D visible lines - Tangent
100
AcDbLine
 10
-12.87281685126802
 20
0.4000000000000131
 30
0.0
 11
-14.10286564881909
 21
0.4000000000000132
 31
0.0
  0
SPLINE
  5
52
330
1F
100
AcDbEntity
  8
Make2D visible lines - Tangent
100
AcDbSpline
210
0.0
220
0.0
230
1.0
 70
    12
 71
     2
 72
     8
 73
     5
 74
     0
 42
0.0000000001
 43
0.0000000001
 40
0.0
 40
0.0
 40
0.0
 40
0.0244450924799417
 40
0.0244450924799417
 40
0.0488901756152644
 40
0.0488901756152644
 40
0.0488901756152644
 10
-14.10286564881909
 20
0.4000000000000132
 30
0.0
 41
1.0
 10
-14.11580692036028
 20
0.4000498793010369
 30
0.0
 41
0.9187280643436117
 10
-14.12467590849969
 20
0.4094743180870187
 30
0.0
 41
1.0
 10
-14.13354489294883
 20
0.4188987529516252
 30
0.0
 41
0.9187280954114131
 10
-14.13281088377449
 20
0.4318192827417202
 30
0.0
 41
0.9999999378644209
  0
SPLINE
  5
53
330
1F
100
AcDbEntity
  8
Make2D visible lines - Tangent
100
AcDbSpline
210
0.0
220
0.0
230
1.0
 70
     8
 71
     3
 72
    13
 73
     9
 74
     0
 42
0.0000000001
 43
0.0000000001
 40
0.0
 40
0.0
 40
0.0
 40
0.0
 40
0.8147452914497183
 40
1.57880864677493
 40
1.902192604702326
 40
2.134898135730326
 40
2.571589317713654
 40
2.949053577179115
 40
2.949053577179115
 40
2.949053577179115
 40
2.949053577179115
 10
-14.13281088377449
 20
0.4318192827417203
 30
0.0
 10
-14.11810310578022
 20
0.7029733907600042
 30
0.0
 10
-14.09976321663388
 20
1.229085519588073
 30
0.0
 10
-14.07126241927085
 20
1.862260948283719
 30
0.0
 10
-14.06477624765027
 20
2.302671963839881
 30
0.0
 10
-14.03882130541389
 20
2.632638127348641
 30
0.0
 10
-13.89231645573093
 20
2.962566910497796
 30
0.0
 10
-13.66910127604433
 20
3.131981127387906
 30
0.0
 10
-13.54503011885991
 20
3.163681332422002
 30
0.0
  0
SPLINE
  5
54
330
1F
100
AcDbEntity
  8
Make2D visible lines - Tangent
100
AcDbSpline
210
0.0
220
0.0
230
1.0
 70
    12
 71
     3
 72
    14
 73
    10
 74
     0
 42
0.0000000001
 43
0.0000000001
 40
-12.41813961573714
 40
-12.41813961573714
 40
-12.41813961573714
 40
-12.41813961573714
 40
0.0
 40
0.0
 40
0.0
 40
0.250000000000091
 40
0.4999999999998727
 40
0.7499999999996545
 40
1.0
 40
1.0
 40
1.0
 40
1.0
 10
-13.54503011885991
 20
3.163681332422002
 30
0.0
 41
1.0
 10
-9.437754208496743
 20
4.030705062833903
 30
0.0
 41
1.0
 10
-5.388153672641406
 20
4.88814382099306
 30
0.0
 41
1.0
 10
-1.338553136786067
 20
5.745582579152217
 30
0.0
 41
1.0
 10
-1.284659344129206
 20
5.756993735941185
 30
0.0
 41
1.0
 10
-1.178092888562953
 20
5.807403040999379
 30
0.0
 41
1.0
 10
-1.039834452932012
 20
5.956627574013774
 30
0.0
 41
1.0
 10
-0.9410951234938763
 20
6.170312283441222
 30
0.0
 41
1.0
 10
-0.913566880313545
 20
6.349641941326269
 30
0.0
 41
1.0
 10
-0.9123652292469009
 20
6.447000000000008
 30
0.0
 41
1.0
  0
LINE
  5
55
330
1F
100
AcDbEntity
  8
Default
100
AcDbLine
 10
-14.12339271918288
 20
0.3998405500808613
 30
0.0
 11
-12.85905547281605
 21
0.3998405500964699
 31
0.0
  0
SPLINE
  5
56
330
1F
100
AcDbEntity
  8
Default
100
AcDbSpline
210
0.0
220
0.0
230
1.0
 70
    12
 71
     2
 72
     6
 73
     3
 74
     0
 42
0.0000000001
 43
0.0000000001
 40
0.0
 40
0.0
 40
0.0
 40
0.0234509349460152
 40
0.0234509349460152
 40
0.0234509349460152
 10
-12.85905547281605
 20
0.3998405500964699
 30
0.0
 41
1.0
 10
-12.84449371076124
 20
0.3992702459988892
 30
0.0
 41
0.731104947019412
 10
-12.8440575020832
 20
0.3846889828499949
 30
0.0
 41
1.0
  0
SPLINE
  5
57
330
1F
100
AcDbEntity
  8
Default
100
AcDbSpline
210
0.0
220
0.0
230
1.0
 70
    24
 71
     2
 72
     6
 73
     3
 74
     0
 42
0.0000000001
 43
0.0000000001
 40
0.0
 40
0.0
 40
0.0
 40
0.230202915699772
 40
0.230202915699772
 40
0.230202915699772
 10
-12.8440575020832
 20
0.3846889828499949
 30
0.0
 10
-12.84533738359592
 20
0.2694932367984162
 30
0.0
 10
-12.84661726510863
 20
0.1542974907468375
 30
0.0
  0
SPLINE
  5
58
330
1F
100
AcDbEntity
  8
Default
100
AcDbSpline
210
0.0
220
0.0
230
1.0
 70
    12
 71
     2
 72
     6
 73
     3
 74
     0
 42
0.0000000001
 43
0.0000000001
 40
0.0
 40
0.0
 40
0.0
 40
0.243305946087201
 40
0.243305946087201
 40
0.243305946087201
 10
-12.84661726510863
 20
0.1542974907468375
 30
0.0
 41
1.0
 10
-12.8483290673849
 20
-0.0001553191497573
 30
0.0
 41
0.711016098506414
 10
-13.00260343470497
 20
-0.0001594498495159
 30
0.0
 41
1.0
  0
LINE
  5
59
330
1F
100
AcDbEntity
  8
Default
100
AcDbLine
 10
-13.00260343470497
 20
-0.0001594498495159
 30
0.0
 11
-13.99283358637368
 21
-0.0001594498332206
 31
0.0
  0
SPLINE
  5
5A
330
1F
100
AcDbEntity
  8
Default
100
AcDbSpline
210
0.0
220
0.0
230
1.0
 70
    12
 71
     2
 72
     8
 73
     5
 74
     0
 42
0.0000000001
 43
0.0000000001
 40
0.0
 40
0.0
 40
0.0
 40
0.126011761568985
 40
0.126011761568985
 40
0.252023523137971
 40
0.252023523137971
 40
0.252023523137971
 10
-13.99283358637368
 20
-0.0001594498355999
 30
0.0
 41
1.0
 10
-14.05952099040428
 20
-0.0001406660619604
 30
0.0
 41
0.919580138945286
 10
-14.10559285138238
 20
0.0480481914701931
 30
0.0
 41
1.0
 10
-14.15166471236058
 20
0.0962370490023467
 30
0.0
 41
0.919580138945286
 10
-14.14868525659698
 20
0.1629531881271093
 30
0.0
 41
1.0
  0
SPLINE
  5
5B
330
1F
100
AcDbEntity
  8
Default
100
AcDbSpline
210
0.0
220
0.0
230
1.0
 70
    12
 71
     2
 72
     6
 73
     3
 74
     0
 42
0.0000000001
 43
0.0000000001
 40
0.0
 40
0.0
 40
0.0
 40
0.222705986708251
 40
0.222705986708251
 40
0.222705986708251
 10
-14.14868525659698
 20
0.1629531881271093
 30
0.0
 41
1.0
 10
-14.14352229507238
 20
0.2742999811251248
 30
0.0
 41
0.999999998781251
 10
-14.13837050153938
 20
0.3855673672532323
 30
0.0
 41
1.0
  0
SPLINE
  5
5C
330
1F
100
AcDbEntity
  8
Default
100
AcDbSpline
210
0.0
220
0.0
230
1.0
 70
    12
 71
     2
 72
     6
 73
     3
 74
     0
 42
0.0000000001
 43
0.0000000001
 40
0.0
 40
0.0
 40
0.0
 40
0.0225621385862125
 40
0.0225621385862125
 40
0.0225621385862125
 10
-14.13837050153938
 20
0.3855673672532323
 30
0.0
 41
1.0
 10
-14.13712306894678
 20
0.3992860239465359
 30
0.0
 41
0.751843149296873
 10
-14.12339271918288
 20
0.3998405500808613
 30
0.0
 41
1.0
  0
LINE
  5
5D
330
1F
100
AcDbEntity
  8
Default
100
AcDbLine
 10
14.12339271918288
 20
0.3998405500808613
 30
0.0
 11
12.85905547281605
 21
0.3998405500964699
 31
0.0
  0
SPLINE
  5
5E
330
1F
100
AcDbEntity
  8
Default
100
AcDbSpline
210
0.0
220
0.0
230
1.0
 70
    12
 71
     2
 72
     6
 73
     3
 74
     0
 42
0.0000000001
 43
0.0000000001
 40
0.0
 40
0.0
 40
0.0
 40
0.0234509349460152
 40
0.0234509349460152
 40
0.0234509349460152
 10
12.85905547281605
 20
0.3998405500964699
 30
0.0
 41
1.0
 10
12.84449371076124
 20
0.3992702459988892
 30
0.0
 41
0.731104947019412
 10
12.8440575020832
 20
0.3846889828499949
 30
0.0
 41
1.0
  0
SPLINE
  5
5F
330
1F
100
AcDbEntity
  8
Default
100
AcDbSpline
210
0.0
220
0.0
230
1.0
 70
    24
 71
     2
 72
     6
 73
     3
 74
     0
 42
0.0000000001
 43
0.0000000001
 40
0.0
 40
0.0
 40
0.0
 40
0.230202915699772
 40
0.230202915699772
 40
0.230202915699772
 10
12.8440575020832
 20
0.3846889828499949
 30
0.0
 10
12.84533738359592
 20
0.2694932367984162
 30
0.0
 10
12.84661726510863
 20
0.1542974907468375
 30
0.0
  0
SPLINE
  5
60
330
1F
100
AcDbEntity
  8
Default
100
AcDbSpline
210
0.0
220
0.0
230
1.0
 70
    12
 71
     2
 72
     6
 73
     3
 74
     0
 42
0.0000000001
 43
0.0000000001
 40
0.0
 40
0.0
 40
0.0
 40
0.243305946087201
 40
0.243305946087201
 40
0.243305946087201
 10
12.84661726510863
 20
0.1542974907468375
 30
0.0
 41
1.0
 10
12.8483290673849
 20
-0.0001553191497573
 30
0.0
 41
0.711016098506414
 10
13.00260343470497
 20
-0.0001594498495159
 30
0.0
 41
1.0
  0
LINE
  5
61
330
1F
100
AcDbEntity
  8
Default
100
AcDbLine
 10
13.00260343470497
 20
-0.0001594498495159
 30
0.0
 11
13.99283358637368
 21
-0.0001594498332206
 31
0.0
  0
SPLINE
  5
62
330
1F
100
AcDbEntity
  8
Default
100
AcDbSpline
210
0.0
220
0.0
230
1.0
 70
    12
 71
     2
 72
     8
 73
     5
 74
     0
 42
0.0000000001
 43
0.0000000001
 40
0.0
 40
0.0
 40
0.0
 40
0.126011761568985
 40
0.126011761568985
 40
0.252023523137971
 40
0.252023523137971
 40
0.252023523137971
 10
13.99283358637368
 20
-0.0001594498355999
 30
0.0
 41
1.0
 10
14.05952099040428
 20
-0.0001406660619604
 30
0.0
 41
0.919580138945286
 10
14.10559285138238
 20
0.0480481914701931
 30
0.0
 41
1.0
 10
14.15166471236058
 20
0.0962370490023467
 30
0.0
 41
0.919580138945286
 10
14.14868525659698
 20
0.1629531881271093
 30
0.0
 41
1.0
  0
SPLINE
  5
63
330
1F
100
AcDbEntity
  8
Default
100
AcDbSpline
210
0.0
220
0.0
230
1.0
 70
    12
 71
     2
 72
     6
 73
     3
 74
     0
 42
0.0000000001
 43
0.0000000001
 40
0.0
 40
0.0
 40
0.0
 40
0.222705986708251
 40
0.222705986708251
 40
0.222705986708251
 10
14.14868525659698
 20
0.1629531881271093
 30
0.0
 41
1.0
 10
14.14352229507238
 20
0.2742999811251248
 30
0.0
 41
0.999999998781251
 10
14.13837050153938
 20
0.3855673672532323
 30
0.0
 41
1.0
  0
SPLINE
  5
64
330
1F
100
AcDbEntity
  8
Default
100
AcDbSpline
210
0.0
220
0.0
230
1.0
 70
    12
 71
     2
 72
     6
 73
     3
 74
     0
 42
0.0000000001
 43
0.0000000001
 40
0.0
 40
0.0
 40
0.0
 40
0.0225621385862125
 40
0.0225621385862125
 40
0.0225621385862125
 10
14.13837050153938
 20
0.3855673672532323
 30
0.0
 41
1.0
 10
14.13712306894678
 20
0.3992860239465359
 30
0.0
 41
0.751843149296873
 10
14.12339271918288
 20
0.3998405500808613
 30
0.0
 41
1.0
  0
SPLINE
  5
66
330
1F
100
AcDbEntity
  8
Make2D visible lines
100
AcDbSpline
210
0.0
220
0.0
230
1.0
 70
    24
 71
     2
 72
     6
 73
     3
 74
     0
 42
0.0000000001
 43
0.0000000001
 40
0.0
 40
0.0
 40
0.0
 40
0.6910922929294862
 40
0.6910922929294862
 40
0.6910922929294862
 10
-1.302061223581503
 20
5.772012963774114
 30
0.0
 10
-1.296030611790645
 20
6.117506481887062
 30
0.0
 10
-1.289999999999787
 20
6.46300000000001
 30
0.0
  0
LINE
  5
67
330
1F
100
AcDbEntity
  8
Make2D visible lines
100
AcDbLine
 10
-1.289999999999787
 20
6.46300000000001
 30
0.0
 11
1.289999999999787
 21
6.463000000000006
 31
0.0
  0
SPLINE
  5
68
330
1F
100
AcDbEntity
  8
Make2D visible lines
100
AcDbSpline
210
0.0
220
0.0
230
1.0
 70
    24
 71
     2
 72
     6
 73
     3
 74
     0
 42
0.0000000001
 43
0.0000000001
 40
0.0
 40
0.0
 40
0.0
 40
0.691091728601723
 40
0.691091728601723
 40
0.691091728601723
 10
1.289999999999787
 20
6.463000000000006
 30
0.0
 10
1.296030606866295
 20
6.117506764007967
 30
0.0
 10
1.302061213732802
 20
5.772013528015927
 30
0.0
  0
SPLINE
  5
69
330
1F
100
AcDbEntity
  8
Make2D visible lines
100
AcDbSpline
210
0.0
220
0.0
230
1.0
 70
    12
 71
     2
 72
     6
 73
     3
 74
     0
 42
0.0000000001
 43
0.0000000001
 40
0.0
 40
0.0
 40
0.0
 40
0.0562276811747509
 40
0.0562276811747509
 40
0.0562276811747509
 10
-13.5984731308405
 20
3.146282749624104
 30
0.0
 41
1.0
 10
-13.57220862286159
 20
3.156383244908164
 30
0.0
 41
0.9986205443069728
 10
-13.54502970309073
 20
3.163673697873985
 30
0.0
 41
1.0
  0
LINE
  5
6A
330
1F
100
AcDbEntity
  8
Default
100
AcDbLine
 10
-1.28478183211334
 20
6.46300000000001
 30
0.0
 11
1.29209581739943
 21
6.46300000000001
 31
0.0
  0
ENDSEC
  0
SECTION
  2
OBJECTS
  0
DICTIONARY
  5
C
330
0
100
AcDbDictionary
281
     1
  3
ACAD_GROUP
350
D
  3
ACAD_LAYOUT
350
1A
  3
ACAD_MLEADERSTYLE
350
6C
  3
ACAD_MLINESTYLE
350
17
  3
ACAD_PLOTSETTINGS
350
19
  3
ACAD_PLOTSTYLENAME
350
E
  3
ACAD_TABLESTYLE
350
6B
  3
ACAD_VISUALSTYLE
350
2A
  0
DICTIONARY
  5
D
102
{ACAD_REACTORS
330
C
102
}
330
C
100
AcDbDictionary
281
     1
  0
DICTIONARY
  5
1A
102
{ACAD_REACTORS
330
C
102
}
330
C
100
AcDbDictionary
281
     1
  3
Layout1
350
1E
  3
Layout2
350
26
  3
Model
350
22
  0
DICTIONARY
  5
6C
102
{ACAD_REACTORS
330
C
102
}
330
C
100
AcDbDictionary
281
     1
  0
DICTIONARY
  5
17
102
{ACAD_REACTORS
330
C
102
}
330
C
100
AcDbDictionary
281
     1
  3
Standard
350
18
  0
DICTIONARY
  5
19
102
{ACAD_REACTORS
330
C
102
}
330
C
100
AcDbDictionary
281
     1
  0
ACDBDICTIONARYWDFLT
  5
E
102
{ACAD_REACTORS
330
C
102
}
330
C
100
AcDbDictionary
281
     1
  3
Normal
350
F
100
AcDbDictionaryWithDefault
340
F
  0
DICTIONARY
  5
6B
102
{ACAD_REACTORS
330
C
102
}
330
C
100
AcDbDictionary
281
     1
  0
DICTIONARY
  5
2A
102
{ACAD_REACTORS
330
C
102
}
330
C
100
AcDbDictionary
281
     1
  3
2dWireframe
350
2F
  3
3D Hidden
350
31
  3
3dWireframe
350
30
  3
Basic
350
32
  3
Brighten
350
36
  3
ColorChange
350
3A
  3
Conceptual
350
34
  3
Dim
350
35
  3
Facepattern
350
39
  3
Flat
350
2B
  3
FlatWithEdges
350
2C
  3
Gouraud
350
2D
  3
GouraudWithEdges
350
2E
  3
Linepattern
350
38
  3
Realistic
350
33
  3
Thicken
350
37
  0
LAYOUT
  5
1E
102
{ACAD_REACTORS
330
1A
102
}
330
1A
100
AcDbPlotSettings
  1

  2
none_device
  4

  6

 40
0.0
 41
0.0
 42
0.0
 43
0.0
 44
0.0
 45
0.0
 46
0.0
 47
0.0
 48
0.0
 49
0.0
140
0.0
141
0.0
142
1.0
143
1.0
 70
   688
 72
     0
 73
     0
 74
     5
  7

 75
    16
 76
     0
 77
     2
 78
   300
147
1.0
148
0.0
149
0.0
100
AcDbLayout
  1
Layout1
 70
     1
 71
     1
 10
0.0
 20
0.0
 11
12.0
 21
9.0
 12
0.0
 22
0.0
 32
0.0
 14
1.000000000000000E+20
 24
1.000000000000000E+20
 34
1.000000000000000E+20
 15
-1.000000000000000E+20
 25
-1.000000000000000E+20
 35
-1.000000000000000E+20
146
0.0
 13
0.0
 23
0.0
 33
0.0
 16
1.0
 26
0.0
 36
0.0
 17
0.0
 27
1.0
 37
0.0
 76
     0
330
1B
  0
LAYOUT
  5
26
102
{ACAD_REACTORS
330
1A
102
}
330
1A
100
AcDbPlotSettings
  1

  2
none_device
  4

  6

 40
0.0
 41
0.0
 42
0.0
 43
0.0
 44
0.0
 45
0.0
 46
0.0
 47
0.0
 48
0.0
 49
0.0
140
0.0
141
0.0
142
1.0
143
1.0
 70
   688
 72
     0
 73
     0
 74
     5
  7

 75
    16
 76
     0
 77
     2
 78
   300
147
1.0
148
0.0
149
0.0
100
AcDbLayout
  1
Layout2
 70
     1
 71
     2
 10
0.0
 20
0.0
 11
0.0
 21
0.0
 12
0.0
 22
0.0
 32
0.0
 14
0.0
 24
0.0
 34
0.0
 15
0.0
 25
0.0
 35
0.0
146
0.0
 13
0.0
 23
0.0
 33
0.0
 16
1.0
 26
0.0
 36
0.0
 17
0.0
 27
1.0
 37
0.0
 76
     0
330
23
  0
LAYOUT
  5
22
102
{ACAD_REACTORS
330
1A
102
}
330
1A
100
AcDbPlotSettings
  1

  2
none_device
  4

  6

 40
0.0
 41
0.0
 42
0.0
 43
0.0
 44
0.0
 45
0.0
 46
0.0
 47
0.0
 48
0.0
 49
0.0
140
0.0
141
0.0
142
1.0
143
1.0
 70
  1712
 72
     0
 73
     0
 74
     0
  7

 75
     0
 76
     0
 77
     2
 78
   300
147
1.0
148
0.0
149
0.0
100
AcDbLayout
  1
Model
 70
     1
 71
     0
 10
0.0
 20
0.0
 11
12.0
 21
9.0
 12
0.0
 22
0.0
 32
0.0
 14
-24.0
 24
-0.0001594498495159
 34
0.0
 15
24.0000000000003
 25
86.64866948334304
 35
0.0
146
0.0
 13
0.0
 23
0.0
 33
0.0
 16
1.0
 26
0.0
 36
0.0
 17
0.0
 27
1.0
 37
0.0
 76
     0
330
1F
331
29
  0
MLINESTYLE
  5
18
102
{ACAD_REACTORS
330
17
102
}
330
17
100
AcDbMlineStyle
  2
Standard
 70
     0
  3

 62
   256
 51
90.0
 52
90.0
 71
     2
 49
0.5
 62
   256
  6
BYLAYER
 49
-0.5
 62
   256
  6
BYLAYER
  0
ACDBPLACEHOLDER
  5
F
102
{ACAD_REACTORS
330
E
102
}
330
E
  0
VISUALSTYLE
  5
2F
102
{ACAD_REACTORS
330
2A
102
}
330
2A
100
AcDbVisualStyle
  2
2dWireframe
 70
     4
 71
     0
 72
     2
 73
     0
 90
        0
 40
-0.6
 41
-30.0
 62
     5
 63
     7
421
 16777215
 74
     1
 91
        4
 64
     7
 65
   257
 75
     1
175
     1
 42
1.0
 92
        0
 66
   257
 43
1.0
 76
     1
 77
     6
 78
     2
 67
     7
 79
     5
170
     0
171
     0
290
     0
174
     0
 93
        1
 44
0.0
173
     0
291
     0
 45
0.0
1001
ACAD
1000
AcDbSavedByObjectVersion
1070
     0
  0
VISUALSTYLE
  5
31
102
{ACAD_REACTORS
330
2A
102
}
330
2A
100
AcDbVisualStyle
  2
3D Hidden
 70
     6
 71
     1
 72
     2
 73
     2
 90
        0
 40
-0.6
 41
-30.0
 62
     5
 63
     7
421
 16777215
 74
     2
 91
        2
 64
     7
 65
   257
 75
     2
175
     1
 42
40.0
 92
        0
 66
   257
 43
1.0
 76
     1
 77
     6
 78
     2
 67
     7
 79
     3
170
     0
171
     0
290
     0
174
     0
 93
        1
 44
0.0
173
     0
291
     0
 45
0.0
1001
ACAD
1000
AcDbSavedByObjectVersion
1070
     0
  0
VISUALSTYLE
  5
30
102
{ACAD_REACTORS
330
2A
102
}
330
2A
100
AcDbVisualStyle
  2
3dWireframe
 70
     5
 71
     0
 72
     2
 73
     0
 90
        0
 40
-0.6
 41
-30.0
 62
     5
 63
     7
421
 16777215
 74
     1
 91
        4
 64
     7
 65
   257
 75
     1
175
     1
 42
1.0
 92
        0
 66
   257
 43
1.0
 76
     1
 77
     6
 78
     2
 67
     7
 79
     5
170
     0
171
     0
290
     0
174
     0
 93
        1
 44
0.0
173
     0
291
     0
 45
0.0
1001
ACAD
1000
AcDbSavedByObjectVersion
1070
     0
  0
VISUALSTYLE
  5
32
102
{ACAD_REACTORS
330
2A
102
}
330
2A
100
AcDbVisualStyle
  2
Basic
 70
     7
 71
     1
 72
     0
 73
     1
 90
        0
 40
-0.6
 41
-30.0
 62
     5
 63
     7
421
 16777215
 74
     0
 91
        4
 64
     7
 65
   257
 75
     1
175
     1
 42
1.0
 92
        8
 66
     7
 43
1.0
 76
     1
 77
     6
 78
     2
 67
     7
 79
     5
170
     0
171
     0
290
     0
174
     0
 93
        1
 44
0.0
173
     0
291
     1
 45
0.0
1001
ACAD
1000
AcDbSavedByObjectVersion
1070
     0
  0
VISUALSTYLE
  5
36
102
{ACAD_REACTORS
330
2A
102
}
330
2A
100
AcDbVisualStyle
  2
Brighten
 70
    12
 71
     2
 72
     2
 73
     0
 90
        0
 40
-0.6
 41
-30.0
 62
     5
 63
     7
421
 16777215
 74
     1
 91
        4
 64
     7
 65
   257
 75
     1
175
     1
 42
1.0
 92
        8
 66
     7
 43
1.0
 76
     1
 77
     6
 78
     2
 67
     7
 79
     5
170
     0
171
     0
290
     0
174
     0
 93
        1
 44
50.0
173
     0
291
     1
 45
0.0
1001
ACAD
1000
AcDbSavedByObjectVersion
1070
     0
  0
VISUALSTYLE
  5
3A
102
{ACAD_REACTORS
330
2A
102
}
330
2A
100
AcDbVisualStyle
  2
ColorChange
 70
    16
 71
     2
 72
     2
 73
     3
 90
        0
 40
-0.6
 41
-30.0
 62
     5
 63
     8
421
  8421504
 74
     1
 91
        4
 64
     7
 65
   257
 75
     1
175
     1
 42
1.0
 92
        8
 66
     8
424
  8421504
 43
1.0
 76
     1
 77
     6
 78
     2
 67
     7
 79
     5
170
     0
171
     0
290
     0
174
     0
 93
        1
 44
0.0
173
     0
291
     1
 45
0.0
1001
ACAD
1000
AcDbSavedByObjectVersion
1070
     0
  0
VISUALSTYLE
  5
34
102
{ACAD_REACTORS
330
2A
102
}
330
2A
100
AcDbVisualStyle
  2
Conceptual
 70
     9
 71
     3
 72
     2
 73
     0
 90
        0
 40
-0.6
 41
-30.0
 62
     5
 63
     7
421
 16777215
 74
     2
 91
        2
 64
     7
 65
   257
 75
     1
175
     1
 42
40.0
 92
        8
 66
     7
 43
1.0
 76
     1
 77
     6
 78
     2
 67
     7
 79
     3
170
     0
171
     0
290
     0
174
     0
 93
        1
 44
0.0
173
     0
291
     0
 45
0.0
1001
ACAD
1000
AcDbSavedByObjectVersion
1070
     0
  0
VISUALSTYLE
  5
35
102
{ACAD_REACTORS
330
2A
102
}
330
2A
100
AcDbVisualStyle
  2
Dim
 70
    11
 71
     2
 72
     2
 73
     0
 90
        0
 40
-0.6
 41
-30.0
 62
     5
 63
     7
421
 16777215
 74
     1
 91
        4
 64
     7
 65
   257
 75
     1
175
     1
 42
1.0
 92
        8
 66
     7
 43
1.0
 76
     1
 77
     6
 78
     2
 67
     7
 79
     5
170
     0
171
     0
290
     0
174
     0
 93
        1
 44
-50.0
173
     0
291
     1
 45
0.0
1001
ACAD
1000
AcDbSavedByObjectVersion
1070
     0
  0
VISUALSTYLE
  5
39
102
{ACAD_REACTORS
330
2A
102
}
330
2A
100
AcDbVisualStyle
  2
Facepattern
 70
    15
 71
     2
 72
     2
 73
     0
 90
        0
 40
-0.6
 41
-30.0
 62
     5
 63
     7
421
 16777215
 74
     1
 91
        4
 64
     7
 65
   257
 75
     1
175
     1
 42
1.0
 92
        8
 66
     7
 43
1.0
 76
     1
 77
     6
 78
     2
 67
     7
 79
     5
170
     0
171
     0
290
     0
174
     0
 93
        1
 44
0.0
173
     0
291
     1
 45
0.0
1001
ACAD
1000
AcDbSavedByObjectVersion
1070
     0
  0
VISUALSTYLE
  5
2B
102
{ACAD_REACTORS
330
2A
102
}
330
2A
100
AcDbVisualStyle
  2
Flat
 70
     0
 71
     2
 72
     1
 73
     1
 90
        2
 40
-0.6
 41
30.0
 62
     5
 63
     7
421
 16777215
 74
     0
 91
        4
 64
     7
 65
   257
 75
     1
175
     1
 42
1.0
 92
        8
 66
     7
 43
1.0
 76
     1
 77
     6
 78
     2
 67
     7
 79
     5
170
     0
171
     0
290
     0
174
     0
 93
       13
 44
0.0
173
     0
291
     1
 45
0.0
1001
ACAD
1000
AcDbSavedByObjectVersion
1070
     0
  0
VISUALSTYLE
  5
2C
102
{ACAD_REACTORS
330
2A
102
}
330
2A
100
AcDbVisualStyle
  2
FlatWithEdges
 70
     1
 71
     2
 72
     1
 73
     1
 90
        2
 40
-0.6
 41
30.0
 62
     5
 63
     7
421
 16777215
 74
     1
 91
        4
 64
     7
 65
   257
 75
     1
175
     1
 42
1.0
 92
        0
 66
   257
 43
1.0
 76
     1
 77
     6
 78
     2
 67
     7
 79
     5
170
     0
171
     0
290
     0
174
     0
 93
       13
 44
0.0
173
     0
291
     1
 45
0.0
1001
ACAD
1000
AcDbSavedByObjectVersion
1070
     0
  0
VISUALSTYLE
  5
2D
102
{ACAD_REACTORS
330
2A
102
}
330
2A
100
AcDbVisualStyle
  2
Gouraud
 70
     2
 71
     2
 72
     2
 73
     1
 90
        2
 40
-0.6
 41
30.0
 62
     5
 63
     7
421
 16777215
 74
     0
 91
        4
 64
     7
 65
   257
 75
     1
175
     1
 42
1.0
 92
        0
 66
     7
 43
1.0
 76
     1
 77
     6
 78
     2
 67
     7
 79
     5
170
     0
171
     0
290
     0
174
     0
 93
       13
 44
0.0
173
     0
291
     1
 45
0.0
1001
ACAD
1000
AcDbSavedByObjectVersion
1070
     0
  0
VISUALSTYLE
  5
2E
102
{ACAD_REACTORS
330
2A
102
}
330
2A
100
AcDbVisualStyle
  2
GouraudWithEdges
 70
     3
 71
     2
 72
     2
 73
     1
 90
        2
 40
-0.6
 41
30.0
 62
     5
 63
     7
421
 16777215
 74
     1
 91
        4
 64
     7
 65
   257
 75
     1
175
     1
 42
1.0
 92
        0
 66
   257
 43
1.0
 76
     1
 77
     6
 78
     2
 67
     7
 79
     5
170
     0
171
     0
290
     0
174
     0
 93
       13
 44
0.0
173
     0
291
     1
 45
0.0
1001
ACAD
1000
AcDbSavedByObjectVersion
1070
     0
  0
VISUALSTYLE
  5
38
102
{ACAD_REACTORS
330
2A
102
}
330
2A
100
AcDbVisualStyle
  2
Linepattern
 70
    14
 71
     2
 72
     2
 73
     0
 90
        0
 40
-0.6
 41
-30.0
 62
     5
 63
     7
421
 16777215
 74
     1
 91
        4
 64
     7
 65
   257
 75
     7
175
     7
 42
1.0
 92
        8
 66
     7
 43
1.0
 76
     1
 77
     6
 78
     2
 67
     7
 79
     5
170
     0
171
     0
290
     0
174
     0
 93
        1
 44
0.0
173
     0
291
     1
 45
0.0
1001
ACAD
1000
AcDbSavedByObjectVersion
1070
     0
  0
VISUALSTYLE
  5
33
102
{ACAD_REACTORS
330
2A
102
}
330
2A
100
AcDbVisualStyle
  2
Realistic
 70
     8
 71
     2
 72
     2
 73
     0
 90
        0
 40
-0.6
 41
-30.0
 62
     5
 63
     7
421
 16777215
 74
     1
 91
        0
 64
     7
 65
   257
 75
     1
175
     1
 42
1.0
 92
        8
 66
     8
424
  7895160
 43
1.0
 76
     1
 77
     6
 78
     2
 67
     7
 79
     5
170
     0
171
     0
290
     0
174
     0
 93
       13
 44
0.0
173
     0
291
     0
 45
0.0
1001
ACAD
1000
AcDbSavedByObjectVersion
1070
     0
  0
VISUALSTYLE
  5
37
102
{ACAD_REACTORS
330
2A
102
}
330
2A
100
AcDbVisualStyle
  2
Thicken
 70
    13
 71
     2
 72
     2
 73
     0
 90
        0
 40
-0.6
 41
-30.0
 62
     5
 63
     7
421
 16777215
 74
     1
 91
        4
 64
     7
 65
   257
 75
     1
175
     1
 42
1.0
 92
       12
 66
     7
 43
1.0
 76
     1
 77
     6
 78
     2
 67
     7
 79
     5
170
     0
171
     0
290
     0
174
     0
 93
        1
 44
0.0
173
     0
291
     1
 45
0.0
1001
ACAD
1000
AcDbSavedByObjectVersion
1070
     0
  0
ENDSEC
  0
EOF
