  0
SECTION
  2
HEADER
  9
$ACADVER
  1
AC1018
  9
$ACADMAINTVER
 70
     0
  9
$DWGCODEPAGE
  3
ANSI_1252
  9
$INSBASE
 10
0.0
 20
0.0
 30
0.0
  9
$EXTMIN
 10
-42.0
 20
-0.0000000000000012
 30
0.0
  9
$EXTMAX
 10
94.88726963200001
 20
92.9261491351
 30
0.0
  9
$LIMMIN
 10
0.0
 20
0.0
  9
$LIMMAX
 10
12.0
 20
9.0
  9
$ORTHOMODE
 70
     0
  9
$REGENMODE
 70
     1
  9
$FILLMODE
 70
     1
  9
$QTEXTMODE
 70
     0
  9
$MIRRTEXT
 70
     1
  9
$LTSCALE
 40
0.0393700787401575
  9
$ATTMODE
 70
     1
  9
$TEXTSIZE
 40
0.2
  9
$TRACEWID
 40
0.05
  9
$TEXTSTYLE
  7
Standard
  9
$CLAYER
  8
Default
  9
$CELTYPE
  6
ByLayer
  9
$CECOLOR
 62
   256
  9
$CELTSCALE
 40
1.0
  9
$DISPSILH
 70
     0
  9
$DIMSCALE
 40
1.0
  9
$DIMASZ
 40
0.18
  9
$DIMEXO
 40
0.0625
  9
$DIMDLI
 40
0.38
  9
$DIMRND
 40
0.0
  9
$DIMDLE
 40
0.0
  9
$DIMEXE
 40
0.18
  9
$DIMTP
 40
0.0
  9
$DIMTM
 40
0.0
  9
$DIMTXT
 40
0.18
  9
$DIMCEN
 40
0.09
  9
$DIMTSZ
 40
0.0
  9
$DIMTOL
 70
     0
  9
$DIMLIM
 70
     0
  9
$DIMTIH
 70
     1
  9
$DIMTOH
 70
     1
  9
$DIMSE1
 70
     0
  9
$DIMSE2
 70
     0
  9
$DIMTAD
 70
     0
  9
$DIMZIN
 70
     0
  9
$DIMBLK
  1

  9
$DIMASO
 70
     1
  9
$DIMSHO
 70
     1
  9
$DIMPOST
  1

  9
$DIMAPOST
  1

  9
$DIMALT
 70
     0
  9
$DIMALTD
 70
     2
  9
$DIMALTF
 40
25.4
  9
$DIMLFAC
 40
1.0
  9
$DIMTOFL
 70
     0
  9
$DIMTVP
 40
0.0
  9
$DIMTIX
 70
     0
  9
$DIMSOXD
 70
     0
  9
$DIMSAH
 70
     0
  9
$DIMBLK1
  1

  9
$DIMBLK2
  1

  9
$DIMSTYLE
  2
Standard
  9
$DIMCLRD
 70
     0
  9
$DIMCLRE
 70
     0
  9
$DIMCLRT
 70
     0
  9
$DIMTFAC
 40
1.0
  9
$DIMGAP
 40
0.09
  9
$DIMJUST
 70
     0
  9
$DIMSD1
 70
     0
  9
$DIMSD2
 70
     0
  9
$DIMTOLJ
 70
     1
  9
$DIMTZIN
 70
     0
  9
$DIMALTZ
 70
     0
  9
$DIMALTTZ
 70
     0
  9
$DIMUPT
 70
     0
  9
$DIMDEC
 70
     4
  9
$DIMTDEC
 70
     4
  9
$DIMALTU
 70
     2
  9
$DIMALTTD
 70
     2
  9
$DIMTXSTY
  7
Standard
  9
$DIMAUNIT
 70
     0
  9
$DIMADEC
 70
     0
  9
$DIMALTRND
 40
0.0
  9
$DIMAZIN
 70
     0
  9
$DIMDSEP
 70
    46
  9
$DIMATFIT
 70
     3
  9
$DIMFRAC
 70
     0
  9
$DIMLDRBLK
  1

  9
$DIMLUNIT
 70
     2
  9
$DIMLWD
 70
    -2
  9
$DIMLWE
 70
    -2
  9
$DIMTMOVE
 70
     2
  9
$LUNITS
 70
     2
  9
$LUPREC
 70
     4
  9
$SKETCHINC
 40
0.1
  9
$FILLETRAD
 40
0.5
  9
$AUNITS
 70
     0
  9
$AUPREC
 70
     0
  9
$MENU
  1
.
  9
$ELEVATION
 40
0.0
  9
$PELEVATION
 40
0.0
  9
$THICKNESS
 40
0.0
  9
$LIMCHECK
 70
     0
  9
$CHAMFERA
 40
0.5
  9
$CHAMFERB
 40
0.5
  9
$CHAMFERC
 40
1.0
  9
$CHAMFERD
 40
0.0
  9
$SKPOLY
 70
     0
  9
$TDCREATE
 40
2457556.695904988
  9
$TDUCREATE
 40
2457556.862571655
  9
$TDUPDATE
 40
2457556.695905
  9
$TDUUPDATE
 40
2457556.862571666
  9
$TDINDWG
 40
0.0000000116
  9
$TDUSRTIMER
 40
0.0000000116
  9
$USRTIMER
 70
     1
  9
$ANGBASE
 50
0.0
  9
$ANGDIR
 70
     0
  9
$PDMODE
 70
     0
  9
$PDSIZE
 40
0.0
  9
$PLINEWID
 40
0.0
  9
$SPLFRAME
 70
     0
  9
$SPLINETYPE
 70
     6
  9
$SPLINESEGS
 70
     8
  9
$HANDSEED
  5
11C
  9
$SURFTAB1
 70
     6
  9
$SURFTAB2
 70
     6
  9
$SURFTYPE
 70
     6
  9
$SURFU
 70
     6
  9
$SURFV
 70
     6
  9
$UCSBASE
  2

  9
$UCSNAME
  2

  9
$UCSORG
 10
0.0
 20
0.0
 30
0.0
  9
$UCSXDIR
 10
1.0
 20
0.0
 30
0.0
  9
$UCSYDIR
 10
0.0
 20
1.0
 30
0.0
  9
$UCSORTHOREF
  2

  9
$UCSORTHOVIEW
 70
     0
  9
$UCSORGTOP
 10
0.0
 20
0.0
 30
0.0
  9
$UCSORGBOTTOM
 10
0.0
 20
0.0
 30
0.0
  9
$UCSORGLEFT
 10
0.0
 20
0.0
 30
0.0
  9
$UCSORGRIGHT
 10
0.0
 20
0.0
 30
0.0
  9
$UCSORGFRONT
 10
0.0
 20
0.0
 30
0.0
  9
$UCSORGBACK
 10
0.0
 20
0.0
 30
0.0
  9
$PUCSBASE
  2

  9
$PUCSNAME
  2

  9
$PUCSORG
 10
0.0
 20
0.0
 30
0.0
  9
$PUCSXDIR
 10
1.0
 20
0.0
 30
0.0
  9
$PUCSYDIR
 10
0.0
 20
1.0
 30
0.0
  9
$PUCSORTHOREF
  2

  9
$PUCSORTHOVIEW
 70
     0
  9
$PUCSORGTOP
 10
0.0
 20
0.0
 30
0.0
  9
$PUCSORGBOTTOM
 10
0.0
 20
0.0
 30
0.0
  9
$PUCSORGLEFT
 10
0.0
 20
0.0
 30
0.0
  9
$PUCSORGRIGHT
 10
0.0
 20
0.0
 30
0.0
  9
$PUCSORGFRONT
 10
0.0
 20
0.0
 30
0.0
  9
$PUCSORGBACK
 10
0.0
 20
0.0
 30
0.0
  9
$USERI1
 70
     0
  9
$USERI2
 70
     0
  9
$USERI3
 70
     0
  9
$USERI4
 70
     0
  9
$USERI5
 70
     0
  9
$USERR1
 40
0.0
  9
$USERR2
 40
0.0
  9
$USERR3
 40
0.0
  9
$USERR4
 40
0.0
  9
$USERR5
 40
0.0
  9
$WORLDVIEW
 70
     1
  9
$SHADEDGE
 70
     3
  9
$SHADEDIF
 70
    70
  9
$TILEMODE
 70
     1
  9
$MAXACTVP
 70
    64
  9
$PINSBASE
 10
0.0
 20
0.0
 30
0.0
  9
$PLIMCHECK
 70
     0
  9
$PEXTMIN
 10
1.000000000000000E+20
 20
1.000000000000000E+20
 30
1.000000000000000E+20
  9
$PEXTMAX
 10
-1.000000000000000E+20
 20
-1.000000000000000E+20
 30
-1.000000000000000E+20
  9
$PLIMMIN
 10
0.0
 20
0.0
  9
$PLIMMAX
 10
12.0
 20
9.0
  9
$UNITMODE
 70
     0
  9
$VISRETAIN
 70
     1
  9
$PLINEGEN
 70
     0
  9
$PSLTSCALE
 70
     1
  9
$TREEDEPTH
 70
  3020
  9
$CMLSTYLE
  2
Standard
  9
$CMLJUST
 70
     0
  9
$CMLSCALE
 40
1.0
  9
$PROXYGRAPHICS
 70
     1
  9
$MEASUREMENT
 70
     0
  9
$CELWEIGHT
370
    -1
  9
$ENDCAPS
280
     0
  9
$JOINSTYLE
280
     0
  9
$LWDISPLAY
290
     0
  9
$INSUNITS
 70
     1
  9
$HYPERLINKBASE
  1

  9
$STYLESHEET
  1

  9
$XEDIT
290
     1
  9
$CEPSNTYPE
380
     0
  9
$PSTYLEMODE
290
     1
  9
$FINGERPRINTGUID
  2
{AF4B5494-2A96-4DA0-A0F8-B3568556991A}
  9
$VERSIONGUID
  2
{FAEB1C32-E019-11D5-929B-00C0DF256EC4}
  9
$EXTNAMES
290
     1
  9
$PSVPSCALE
 40
0.0
  9
$OLESTARTUP
290
     0
  9
$SORTENTS
280
   127
  9
$INDEXCTL
280
     0
  9
$HIDETEXT
280
     1
  9
$XCLIPFRAME
290
     0
  9
$HALOGAP
280
     0
  9
$OBSCOLOR
 70
   257
  9
$OBSLTYPE
280
     0
  9
$INTERSECTIONDISPLAY
280
     0
  9
$INTERSECTIONCOLOR
 70
   257
  9
$DIMASSOC
280
     2
  9
$PROJECTNAME
  1

  0
ENDSEC
  0
SECTION
  2
CLASSES
  0
CLASS
  1
ACDBDICTIONARYWDFLT
  2
AcDbDictionaryWithDefault
  3
ObjectDBX Classes
 90
        0
 91
        4
280
     0
281
     0
  0
CLASS
  1
VISUALSTYLE
  2
AcDbVisualStyle
  3
ObjectDBX Classes
 90
     4095
 91
        4
280
     0
281
     0
  0
ENDSEC
  0
SECTION
  2
TABLES
  0
TABLE
  2
VPORT
  5
8
330
0
100
AcDbSymbolTable
 70
     1
  0
VPORT
  5
29
330
8
100
AcDbSymbolTableRecord
100
AcDbViewportTableRecord
  2
*Active
 70
     0
 10
0.0
 20
0.0
 11
1.0
 21
1.0
 12
26.44363481600001
 22
46.46307456755
 13
0.0
 23
0.0
 14
0.5
 24
0.5
 15
0.5
 25
0.5
 16
0.0
 26
0.0
 36
1.0
 17
0.0
 27
0.0
 37
0.0
 40
94.784672117802
 41
1.473075887745951
 42
50.0
 43
0.0
 44
0.0
 50
0.0
 51
0.0
 71
     0
 72
   100
 73
     1
 74
     3
 75
     0
 76
     0
 77
     0
 78
     0
281
     0
 65
     1
110
0.0
120
0.0
130
0.0
111
1.0
121
0.0
131
0.0
112
0.0
122
1.0
132
0.0
 79
     0
146
0.0
  0
ENDTAB
  0
TABLE
  2
LTYPE
  5
5
330
0
100
AcDbSymbolTable
 70
     1
  0
LTYPE
  5
14
330
5
100
AcDbSymbolTableRecord
100
AcDbLinetypeTableRecord
  2
ByBlock
 70
     0
  3

 72
    65
 73
     0
 40
0.0
  0
LTYPE
  5
15
330
5
100
AcDbSymbolTableRecord
100
AcDbLinetypeTableRecord
  2
ByLayer
 70
     0
  3

 72
    65
 73
     0
 40
0.0
  0
LTYPE
  5
16
330
5
100
AcDbSymbolTableRecord
100
AcDbLinetypeTableRecord
  2
Continuous
 70
     0
  3
Solid line
 72
    65
 73
     0
 40
0.0
  0
ENDTAB
  0
TABLE
  2
LAYER
  5
2
330
0
100
AcDbSymbolTable
 70
     2
  0
LAYER
  5
10
330
2
100
AcDbSymbolTableRecord
100
AcDbLayerTableRecord
  2
0
 70
     0
 62
     7
  6
Continuous
370
    -3
390
F
  0
LAYER
  5
3B
330
2
100
AcDbSymbolTableRecord
100
AcDbLayerTableRecord
  2
Default
 70
     0
 62
     7
  6
Continuous
370
    -3
390
F
  0
ENDTAB
  0
TABLE
  2
STYLE
  5
3
330
0
100
AcDbSymbolTable
 70
     1
  0
STYLE
  5
11
330
3
100
AcDbSymbolTableRecord
100
AcDbTextStyleTableRecord
  2
Standard
 70
     0
 40
0.0
 41
1.0
 50
0.0
 71
     0
 42
0.2
  3
txt
  4

  0
ENDTAB
  0
TABLE
  2
VIEW
  5
6
330
0
100
AcDbSymbolTable
 70
     0
  0
ENDTAB
  0
TABLE
  2
UCS
  5
7
330
0
100
AcDbSymbolTable
 70
     0
  0
ENDTAB
  0
TABLE
  2
APPID
  5
9
330
0
100
AcDbSymbolTable
 70
     1
  0
APPID
  5
12
330
9
100
AcDbSymbolTableRecord
100
AcDbRegAppTableRecord
  2
ACAD
 70
     0
  0
ENDTAB
  0
TABLE
  2
DIMSTYLE
  5
A
330
0
100
AcDbSymbolTable
 70
     1
100
AcDbDimStyleTable
  0
DIMSTYLE
105
27
330
A
100
AcDbSymbolTableRecord
100
AcDbDimStyleTableRecord
  2
Standard
 70
     0
340
11
  0
ENDTAB
  0
TABLE
  2
BLOCK_RECORD
  5
1
330
0
100
AcDbSymbolTable
 70
     1
  0
BLOCK_RECORD
  5
1F
330
1
100
AcDbSymbolTableRecord
100
AcDbBlockTableRecord
  2
*Model_Space
340
22
  0
BLOCK_RECORD
  5
1B
330
1
100
AcDbSymbolTableRecord
100
AcDbBlockTableRecord
  2
*Paper_Space
340
1E
  0
BLOCK_RECORD
  5
23
330
1
100
AcDbSymbolTableRecord
100
AcDbBlockTableRecord
  2
*Paper_Space0
340
26
  0
ENDTAB
  0
ENDSEC
  0
SECTION
  2
BLOCKS
  0
BLOCK
  5
20
330
1F
100
AcDbEntity
  8
0
100
AcDbBlockBegin
  2
*Model_Space
 70
     0
 10
0.0
 20
0.0
 30
0.0
  3
*Model_Space
  1

  0
ENDBLK
  5
21
330
1F
100
AcDbEntity
  8
0
100
AcDbBlockEnd
  0
BLOCK
  5
1C
330
1B
100
AcDbEntity
 67
     1
  8
0
100
AcDbBlockBegin
  2
*Paper_Space
 70
     0
 10
0.0
 20
0.0
 30
0.0
  3
*Paper_Space
  1

  0
ENDBLK
  5
1D
330
1B
100
AcDbEntity
 67
     1
  8
0
100
AcDbBlockEnd
  0
BLOCK
  5
24
330
23
100
AcDbEntity
  8
0
100
AcDbBlockBegin
  2
*Paper_Space0
 70
     0
 10
0.0
 20
0.0
 30
0.0
  3
*Paper_Space0
  1

  0
ENDBLK
  5
25
330
23
100
AcDbEntity
  8
0
100
AcDbBlockEnd
  0
ENDSEC
  0
SECTION
  2
ENTITIES
  0
SPLINE
  5
3C
330
1F
100
AcDbEntity
  8
Default
  6
Continuous
100
AcDbSpline
210
0.0
220
0.0
230
1.0
 70
    15
 71
     2
 72
    24
 73
    21
 74
     0
 42
0.0000000001
 43
0.0000000001
 40
34.71922850875536
 40
34.71922850875536
 40
34.71922850875536
 40
34.76735355735945
 40
34.76735355735945
 40
35.17989619835945
 40
35.17989619835945
 40
35.24272805142601
 40
35.24272805142601
 40
71.16272805142601
 40
71.16272805142601
 40
71.22555990448468
 40
71.22555990448468
 40
71.63810254548468
 40
71.63810254548468
 40
71.68622759409212
 40
71.68622759409212
 40
73.10545610275415
 40
73.10545610275415
 40
106.4054561027541
 40
106.4054561027541
 40
107.8246846115095
 40
107.8246846115095
 40
107.8246846115095
 10
94.86164732135428
 20
28.57313079178407
 30
0.0
 41
1.0
 10
94.88726963200001
 20
28.58300012625501
 30
0.0
 41
0.8244520100820747
 10
94.88726963200001
 20
28.61045748530001
 30
0.0
 41
1.0
 10
94.88726963200001
 20
28.8167288058
 30
0.0
 41
1.0
 10
94.88726963200001
 20
29.0230001263
 30
0.0
 41
1.0
 10
94.887269632
 20
29.06300012629476
 30
0.0
 41
0.7071067812328276
 10
94.84726963200524
 20
29.0630001263
 30
0.0
 41
1.0
 10
73.88726963199605
 20
29.0630001263
 30
0.0
 41
1.0
 10
52.92726963198687
 20
29.0630001263
 30
0.0
 41
1.0
 10
52.88726963199999
 20
29.06300012628687
 30
0.0
 41
0.7071067813025561
 10
52.887269632
 20
29.02300012629999
 30
0.0
 41
1.0
 10
52.887269632
 20
28.8167288058
 30
0.0
 41
1.0
 10
52.887269632
 20
28.6104574853
 30
0.0
 41
1.0
 10
52.887269632
 20
28.58300012625255
 30
0.0
 41
0.8244520100583688
 10
52.91289194264886
 20
28.57313079178287
 30
0.0
 41
1.0
 10
53.57508078735
 20
28.31806545905
 30
0.0
 41
1.0
 10
54.237269632
 20
28.0630001263
 30
0.0
 41
1.0
 10
73.887269632
 20
28.0630001263
 30
0.0
 41
1.0
 10
93.537269632
 20
28.0630001263
 30
0.0
 41
1.0
 10
94.19945847667714
 20
28.31806545904204
 30
0.0
 41
1.0
 10
94.86164732135428
 20
28.57313079178407
 30
0.0
 41
1.0
  0
SPLINE
  5
3D
330
1F
100
AcDbEntity
  8
Default
  6
Continuous
100
AcDbSpline
210
0.0
220
0.0
230
1.0
 70
     8
 71
     3
 72
    10
 73
     6
 74
     0
 42
0.0000000001
 43
0.0000000001
 40
0.0
 40
0.0
 40
0.0
 40
0.0
 40
1.0
 40
2.0
 40
3.0
 40
3.0
 40
3.0
 40
3.0
 10
73.1743698471
 20
3.7709199592
 30
0.0
 10
73.32986414899806
 20
3.729739484169855
 30
0.0
 10
73.64340522624939
 20
3.649562884846617
 30
0.0
 10
74.13113400964191
 20
3.64956288068873
 30
0.0
 10
74.44467510086066
 20
3.729739479694926
 30
0.0
 10
74.6001694169
 20
3.7709199592
 30
0.0
  0
LINE
  5
3E
330
1F
100
AcDbEntity
  8
Default
  6
Continuous
100
AcDbLine
 10
87.65546605845435
 20
0.3858115274166705
 30
0.0
 11
87.66746180841281
 21
0.164442163706003
 31
0.0
  0
ARC
  5
3F
330
1F
100
AcDbEntity
  8
Default
  6
Continuous
100
AcDbCircle
 10
87.51169040580001
 20
0.1559999999999988
 30
0.0
 40
0.156
100
AcDbArc
 50
270.0000000000992
 51
3.102158687200405
  0
LINE
  5
40
330
1F
100
AcDbEntity
  8
Default
  6
Continuous
100
AcDbLine
 10
87.51169040580027
 20
-0.0000000000000012
 30
0.0
 11
86.45150186709972
 21
-0.0000000000000012
 31
0.0
  0
ARC
  5
41
330
1F
100
AcDbEntity
  8
Default
  6
Continuous
100
AcDbCircle
 10
86.4515018671
 20
0.1559999999999988
 30
0.0
 40
0.156
100
AcDbArc
 50
179.0152221915007
 51
269.9999999999008
  0
LINE
  5
42
330
1F
100
AcDbEntity
  8
Default
  6
Continuous
100
AcDbLine
 10
86.29552490883371
 20
0.1586811359526681
 30
0.0
 11
86.29941824603812
 21
0.3852576203573329
 31
0.0
  0
ARC
  5
43
330
1F
100
AcDbEntity
  8
Default
  6
Continuous
100
AcDbCircle
 10
86.3144160336
 20
0.384999999999998
 30
0.0
 40
0.015
100
AcDbArc
 50
90.0
 51
179.0159143372027
  0
LINE
  5
44
330
1F
100
AcDbEntity
  8
Default
  6
Continuous
100
AcDbLine
 10
86.3144160336
 20
0.399999999999998
 30
0.0
 11
87.64048802709999
 21
0.399999999999998
 31
0.0
  0
ARC
  5
45
330
1F
100
AcDbEntity
  8
Default
  6
Continuous
100
AcDbCircle
 10
87.64048802709999
 20
0.3850000000000022
 30
0.0
 40
0.0149999999999958
100
AcDbArc
 50
3.101320583784885
 51
90.0
  0
SPLINE
  5
46
330
1F
100
AcDbEntity
  8
Default
  6
Continuous
100
AcDbSpline
210
0.0
220
0.0
230
1.0
 70
     8
 71
     3
 72
     8
 73
     4
 74
     0
 42
0.0000000001
 43
0.0000000001
 40
-1.0
 40
-1.0
 40
-1.0
 40
-1.0
 40
0.0
 40
0.0
 40
0.0
 40
0.0
 10
75.18226412290002
 20
6.176865936799999
 30
0.0
 10
75.18688612236957
 20
5.912071761567909
 30
0.0
 10
75.36107356837417
 20
5.751740418284776
 30
0.0
 10
75.63252292940001
 20
5.6920462812
 30
0.0
  0
POLYLINE
  5
47
330
1F
100
AcDbEntity
  8
Default
  6
Continuous
100
AcDb2dPolyline
 66
     1
 10
0.0
 20
0.0
 30
0.0
  0
VERTEX
  5
48
330
47
100
AcDbEntity
  8
Default
  6
Continuous
100
AcDbVertex
100
AcDb2dVertex
 10
75.63252292940001
 20
5.6920462812
 30
0.0
  0
VERTEX
  5
49
330
47
100
AcDbEntity
  8
Default
  6
Continuous
100
AcDbVertex
100
AcDb2dVertex
 10
86.94145870390003
 20
3.205110375899999
 30
0.0
  0
SEQEND
  5
4A
330
47
100
AcDbEntity
  8
Default
  6
Continuous
  0
SPLINE
  5
4B
330
1F
100
AcDbEntity
  8
Default
  6
Continuous
100
AcDbSpline
210
0.0
220
0.0
230
1.0
 70
     8
 71
     3
 72
    16
 73
    12
 74
     0
 42
0.0000000001
 43
0.0000000001
 40
0.0
 40
0.0
 40
0.0
 40
0.0
 40
1.0
 40
2.0
 40
3.0
 40
4.0
 40
5.0
 40
6.0
 40
7.0
 40
8.0
 40
9.0
 40
9.0
 40
9.0
 40
9.0
 10
86.94145870390003
 20
3.205110375899999
 30
0.0
 10
87.0100939868367
 20
3.188629715917989
 30
0.0
 10
87.14335062366536
 20
3.138588511145472
 30
0.0
 10
87.31483604773047
 20
3.010635693221118
 30
0.0
 10
87.44429109032788
 20
2.840905617040491
 30
0.0
 10
87.52813166530952
 20
2.644046378400779
 30
0.0
 10
87.5526508443794
 20
2.432753684719245
 30
0.0
 10
87.56029716582223
 20
2.221143687743516
 30
0.0
 10
87.57230565922686
 20
2.009608811351663
 30
0.0
 10
87.58299157069986
 20
1.798046321460344
 30
0.0
 10
87.59036287453995
 20
1.657008878150413
 30
0.0
 10
87.6531002749664
 20
0.4315216161991555
 30
0.0
  0
ARC
  5
4C
330
1F
100
AcDbEntity
  8
Default
  6
Continuous
100
AcDbCircle
 10
87.623138882
 20
0.4300001262999977
 30
0.0
 40
0.03
100
AcDbArc
 50
270.0
 51
2.907078807795922
  0
POLYLINE
  5
4D
330
1F
100
AcDbEntity
  8
Default
  6
Continuous
100
AcDb2dPolyline
 66
     1
 10
0.0
 20
0.0
 30
0.0
  0
VERTEX
  5
4E
330
4D
100
AcDbEntity
  8
Default
  6
Continuous
100
AcDbVertex
100
AcDb2dVertex
 10
87.623138882
 20
0.4000001262999977
 30
0.0
  0
VERTEX
  5
4F
330
4D
100
AcDbEntity
  8
Default
  6
Continuous
100
AcDbVertex
100
AcDb2dVertex
 10
86.32900222109069
 20
0.4000001262999977
 30
0.0
  0
SEQEND
  5
50
330
4D
100
AcDbEntity
  8
Default
  6
Continuous
  0
ARC
  5
51
330
1F
100
AcDbEntity
  8
Default
  6
Continuous
100
AcDbCircle
 10
86.32900222110001
 20
0.4300001262999977
 30
0.0
 40
0.03
100
AcDbArc
 50
181.2981321167959
 51
269.9999999821957
  0
POLYLINE
  5
52
330
1F
100
AcDbEntity
  8
Default
  6
Continuous
100
AcDb2dPolyline
 66
     1
 10
0.0
 20
0.0
 30
0.0
  0
VERTEX
  5
53
330
52
100
AcDbEntity
  8
Default
  6
Continuous
100
AcDbVertex
100
AcDb2dVertex
 10
86.29900992064758
 20
0.429320484062801
 30
0.0
  0
VERTEX
  5
54
330
52
100
AcDbEntity
  8
Default
  6
Continuous
100
AcDbVertex
100
AcDb2dVertex
 10
86.27522252630001
 20
1.567441594199998
 30
0.0
  0
SEQEND
  5
55
330
52
100
AcDbEntity
  8
Default
  6
Continuous
  0
SPLINE
  5
56
330
1F
100
AcDbEntity
  8
Default
  6
Continuous
100
AcDbSpline
210
0.0
220
0.0
230
1.0
 70
     8
 71
     3
 72
    10
 73
     6
 74
     0
 42
0.0000000001
 43
0.0000000001
 40
0.0
 40
0.0
 40
0.0
 40
0.0
 40
1.0
 40
2.0
 40
3.0
 40
3.0
 40
3.0
 40
3.0
 10
86.27522252630001
 20
1.567441594199998
 30
0.0
 10
86.272208870355
 20
1.641778620463333
 30
0.0
 10
86.2822068281265
 20
1.794749692282847
 30
0.0
 10
86.17151531658183
 20
2.002169965068725
 30
0.0
 10
86.03244962182173
 20
2.074268307047574
 30
0.0
 10
85.95833292855002
 20
2.086267078600001
 30
0.0
  0
POLYLINE
  5
57
330
1F
100
AcDbEntity
  8
Default
  6
Continuous
100
AcDb2dPolyline
 66
     1
 10
0.0
 20
0.0
 30
0.0
  0
VERTEX
  5
58
330
57
100
AcDbEntity
  8
Default
  6
Continuous
100
AcDbVertex
100
AcDb2dVertex
 10
85.95833292855002
 20
2.086267078600001
 30
0.0
  0
VERTEX
  5
59
330
57
100
AcDbEntity
  8
Default
  6
Continuous
100
AcDbVertex
100
AcDb2dVertex
 10
84.8186466569
 20
2.254628112500001
 30
0.0
  0
VERTEX
  5
5A
330
57
100
AcDbEntity
  8
Default
  6
Continuous
100
AcDbVertex
100
AcDb2dVertex
 10
83.61817737730001
 20
2.431965328099999
 30
0.0
  0
VERTEX
  5
5B
330
57
100
AcDbEntity
  8
Default
  6
Continuous
100
AcDbVertex
100
AcDb2dVertex
 10
82.4518221891
 20
2.6042579221
 30
0.0
  0
VERTEX
  5
5C
330
57
100
AcDbEntity
  8
Default
  6
Continuous
100
AcDbVertex
100
AcDb2dVertex
 10
81.31962574810001
 20
2.771497996400001
 30
0.0
  0
VERTEX
  5
5D
330
57
100
AcDbEntity
  8
Default
  6
Continuous
100
AcDbVertex
100
AcDb2dVertex
 10
80.2215429997
 20
2.933690308699997
 30
0.0
  0
VERTEX
  5
5E
330
57
100
AcDbEntity
  8
Default
  6
Continuous
100
AcDbVertex
100
AcDb2dVertex
 10
79.1574424419
 20
3.090851337
 30
0.0
  0
VERTEX
  5
5F
330
57
100
AcDbEntity
  8
Default
  6
Continuous
100
AcDbVertex
100
AcDb2dVertex
 10
78.12727893710002
 20
3.242983622800001
 30
0.0
  0
VERTEX
  5
60
330
57
100
AcDbEntity
  8
Default
  6
Continuous
100
AcDbVertex
100
AcDb2dVertex
 10
77.13108773110002
 20
3.390074444699998
 30
0.0
  0
SEQEND
  5
61
330
57
100
AcDbEntity
  8
Default
  6
Continuous
  0
LINE
  5
62
330
1F
100
AcDbEntity
  8
Default
  6
Continuous
100
AcDbLine
 10
77.13108773110002
 20
3.390074444699998
 30
0.0
 11
76.30103565230002
 21
3.512604110999998
 31
0.0
  0
ARC
  5
63
330
1F
100
AcDbEntity
  8
Default
  6
Continuous
100
AcDbCircle
 10
74.64790440564403
 20
-7.686194263725415
 30
0.0
 40
11.32015582739137
100
AcDbArc
 50
81.6028211090116
 51
88.06004202760151
  0
SPLINE
  5
64
330
1F
100
AcDbEntity
  8
Default
  6
Continuous
100
AcDbSpline
210
0.0
220
0.0
230
1.0
 70
     8
 71
     3
 72
    10
 73
     6
 74
     0
 42
0.0000000001
 43
0.0000000001
 40
0.0
 40
0.0
 40
0.0
 40
0.0
 40
1.0
 40
2.0
 40
3.0
 40
3.0
 40
3.0
 40
3.0
 10
75.03111641530002
 20
3.627473422399996
 30
0.0
 10
74.90445997850897
 20
3.660757228322793
 30
0.0
 10
74.6617099208903
 20
3.756194371693053
 30
0.0
 10
74.28204648830625
 20
3.868698365940064
 30
0.0
 10
74.01735296239602
 20
3.837980714499999
 30
0.0
 10
73.88726963205
 20
3.837980714499999
 30
0.0
  0
SPLINE
  5
65
330
1F
100
AcDbEntity
  8
Default
  6
Continuous
100
AcDbSpline
210
0.0
220
0.0
230
1.0
 70
     8
 71
     3
 72
    10
 73
     6
 74
     0
 42
0.0000000001
 43
0.0000000001
 40
-3.0
 40
-3.0
 40
-3.0
 40
-3.0
 40
-2.0
 40
-1.0
 40
0.0
 40
0.0
 40
0.0
 40
0.0
 10
73.88726963205
 20
3.837980714499999
 30
0.0
 10
73.757186301704
 20
3.837980714499999
 30
0.0
 10
73.49249277579376
 20
3.868698365940064
 30
0.0
 10
73.11282934320971
 20
3.756194371693053
 30
0.0
 10
72.87007928559105
 20
3.660757228322793
 30
0.0
 10
72.74342284880001
 20
3.627473422399996
 30
0.0
  0
ARC
  5
66
330
1F
100
AcDbEntity
  8
Default
  6
Continuous
100
AcDbCircle
 10
73.12663485845599
 20
-7.686194263725415
 30
0.0
 40
11.32015582739137
100
AcDbArc
 50
91.93995797239849
 51
98.3971788909884
  0
LINE
  5
67
330
1F
100
AcDbEntity
  8
Default
  6
Continuous
100
AcDbLine
 10
71.4735036118
 20
3.512604110999998
 30
0.0
 11
70.64345153299999
 21
3.390074444699998
 31
0.0
  0
POLYLINE
  5
68
330
1F
100
AcDbEntity
  8
Default
  6
Continuous
100
AcDb2dPolyline
 66
     1
 10
0.0
 20
0.0
 30
0.0
  0
VERTEX
  5
69
330
68
100
AcDbEntity
  8
Default
  6
Continuous
100
AcDbVertex
100
AcDb2dVertex
 10
70.64345153299999
 20
3.390074444699998
 30
0.0
  0
VERTEX
  5
6A
330
68
100
AcDbEntity
  8
Default
  6
Continuous
100
AcDbVertex
100
AcDb2dVertex
 10
69.647260327
 20
3.242983622800001
 30
0.0
  0
VERTEX
  5
6B
330
68
100
AcDbEntity
  8
Default
  6
Continuous
100
AcDbVertex
100
AcDb2dVertex
 10
68.61709682220001
 20
3.090851337
 30
0.0
  0
VERTEX
  5
6C
330
68
100
AcDbEntity
  8
Default
  6
Continuous
100
AcDbVertex
100
AcDb2dVertex
 10
67.55299626440001
 20
2.933690308699997
 30
0.0
  0
VERTEX
  5
6D
330
68
100
AcDbEntity
  8
Default
  6
Continuous
100
AcDbVertex
100
AcDb2dVertex
 10
66.454913516
 20
2.771497996400001
 30
0.0
  0
VERTEX
  5
6E
330
68
100
AcDbEntity
  8
Default
  6
Continuous
100
AcDbVertex
100
AcDb2dVertex
 10
65.32271707500001
 20
2.6042579221
 30
0.0
  0
VERTEX
  5
6F
330
68
100
AcDbEntity
  8
Default
  6
Continuous
100
AcDbVertex
100
AcDb2dVertex
 10
64.1563618868
 20
2.431965328099999
 30
0.0
  0
VERTEX
  5
70
330
68
100
AcDbEntity
  8
Default
  6
Continuous
100
AcDbVertex
100
AcDb2dVertex
 10
62.95589260720001
 20
2.254628112500001
 30
0.0
  0
VERTEX
  5
71
330
68
100
AcDbEntity
  8
Default
  6
Continuous
100
AcDbVertex
100
AcDb2dVertex
 10
61.81620633555
 20
2.086267078600001
 30
0.0
  0
SEQEND
  5
72
330
68
100
AcDbEntity
  8
Default
  6
Continuous
  0
SPLINE
  5
73
330
1F
100
AcDbEntity
  8
Default
  6
Continuous
100
AcDbSpline
210
0.0
220
0.0
230
1.0
 70
     8
 71
     3
 72
    10
 73
     6
 74
     0
 42
0.0000000001
 43
0.0000000001
 40
-3.0
 40
-3.0
 40
-3.0
 40
-3.0
 40
-2.0
 40
-1.0
 40
0.0
 40
0.0
 40
0.0
 40
0.0
 10
61.81620633555
 20
2.086267078600001
 30
0.0
 10
61.74208964227829
 20
2.074268307047574
 30
0.0
 10
61.60302394751817
 20
2.002169965068725
 30
0.0
 10
61.49233243597351
 20
1.794749692282847
 30
0.0
 10
61.50233039374501
 20
1.641778620463333
 30
0.0
 10
61.49931673779999
 20
1.567441594199998
 30
0.0
  0
POLYLINE
  5
74
330
1F
100
AcDbEntity
  8
Default
  6
Continuous
100
AcDb2dPolyline
 66
     1
 10
0.0
 20
0.0
 30
0.0
  0
VERTEX
  5
75
330
74
100
AcDbEntity
  8
Default
  6
Continuous
100
AcDbVertex
100
AcDb2dVertex
 10
61.49931673779999
 20
1.567441594199998
 30
0.0
  0
VERTEX
  5
76
330
74
100
AcDbEntity
  8
Default
  6
Continuous
100
AcDbVertex
100
AcDb2dVertex
 10
61.47552934345244
 20
0.429320484062801
 30
0.0
  0
SEQEND
  5
77
330
74
100
AcDbEntity
  8
Default
  6
Continuous
  0
ARC
  5
78
330
1F
100
AcDbEntity
  8
Default
  6
Continuous
100
AcDbCircle
 10
61.44553704299999
 20
0.4300001262999977
 30
0.0
 40
0.03
100
AcDbArc
 50
270.0000000178043
 51
358.7018678832046
  0
POLYLINE
  5
79
330
1F
100
AcDbEntity
  8
Default
  6
Continuous
100
AcDb2dPolyline
 66
     1
 10
0.0
 20
0.0
 30
0.0
  0
VERTEX
  5
7A
330
79
100
AcDbEntity
  8
Default
  6
Continuous
100
AcDbVertex
100
AcDb2dVertex
 10
61.44553704300932
 20
0.4000001262999977
 30
0.0
  0
VERTEX
  5
7B
330
79
100
AcDbEntity
  8
Default
  6
Continuous
100
AcDbVertex
100
AcDb2dVertex
 10
60.15140038210001
 20
0.4000001262999977
 30
0.0
  0
SEQEND
  5
7C
330
79
100
AcDbEntity
  8
Default
  6
Continuous
  0
ARC
  5
7D
330
1F
100
AcDbEntity
  8
Default
  6
Continuous
100
AcDbCircle
 10
60.1514003821
 20
0.4300001262999977
 30
0.0
 40
0.03
100
AcDbArc
 50
177.0929211922033
 51
270.0000000000136
  0
SPLINE
  5
7E
330
1F
100
AcDbEntity
  8
Default
  6
Continuous
100
AcDbSpline
210
0.0
220
0.0
230
1.0
 70
     8
 71
     3
 72
    16
 73
    12
 74
     0
 42
0.0000000001
 43
0.0000000001
 40
-9.0
 40
-9.0
 40
-9.0
 40
-9.0
 40
-8.0
 40
-7.0
 40
-6.0
 40
-5.0
 40
-4.0
 40
-3.0
 40
-2.0
 40
-1.0
 40
0.0
 40
0.0
 40
0.0
 40
0.0
 10
60.12143898913361
 20
0.4315216161991555
 30
0.0
 10
60.18417638956006
 20
1.657008878150413
 30
0.0
 10
60.19154769340015
 20
1.798046321460344
 30
0.0
 10
60.20223360487315
 20
2.009608811351663
 30
0.0
 10
60.21424209827778
 20
2.221143687743516
 30
0.0
 10
60.22188841972062
 20
2.432753684719245
 30
0.0
 10
60.2464075987905
 20
2.644046378400779
 30
0.0
 10
60.33024817377213
 20
2.840905617040491
 30
0.0
 10
60.45970321636954
 20
3.010635693221118
 30
0.0
 10
60.63118864043467
 20
3.138588511145472
 30
0.0
 10
60.76444527726331
 20
3.188629715917989
 30
0.0
 10
60.8330805602
 20
3.205110375899999
 30
0.0
  0
POLYLINE
  5
7F
330
1F
100
AcDbEntity
  8
Default
  6
Continuous
100
AcDb2dPolyline
 66
     1
 10
0.0
 20
0.0
 30
0.0
  0
VERTEX
  5
80
330
7F
100
AcDbEntity
  8
Default
  6
Continuous
100
AcDbVertex
100
AcDb2dVertex
 10
60.8330805602
 20
3.205110375899999
 30
0.0
  0
VERTEX
  5
81
330
7F
100
AcDbEntity
  8
Default
  6
Continuous
100
AcDbVertex
100
AcDb2dVertex
 10
72.1420163347
 20
5.6920462812
 30
0.0
  0
SEQEND
  5
82
330
7F
100
AcDbEntity
  8
Default
  6
Continuous
  0
SPLINE
  5
83
330
1F
100
AcDbEntity
  8
Default
  6
Continuous
100
AcDbSpline
210
0.0
220
0.0
230
1.0
 70
     8
 71
     3
 72
     8
 73
     4
 74
     0
 42
0.0000000001
 43
0.0000000001
 40
0.0
 40
0.0
 40
0.0
 40
0.0
 40
1.0
 40
1.0
 40
1.0
 40
1.0
 10
72.1420163347
 20
5.6920462812
 30
0.0
 10
72.41346569572585
 20
5.751740418284776
 30
0.0
 10
72.58765314173044
 20
5.912071761567909
 30
0.0
 10
72.59227514119999
 20
6.176865936799999
 30
0.0
  0
LINE
  5
84
330
1F
100
AcDbEntity
  8
Default
  6
Continuous
100
AcDbLine
 10
72.59227514119999
 20
6.176865936799999
 30
0.0
 11
72.59732092729999
 21
6.463000126299999
 31
0.0
  0
LINE
  5
85
330
1F
100
AcDbEntity
  8
Default
  6
Continuous
100
AcDbLine
 10
72.59732092729999
 20
6.463000126299999
 30
0.0
 11
75.17721833680001
 21
6.463000126299999
 31
0.0
  0
LINE
  5
86
330
1F
100
AcDbEntity
  8
Default
  6
Continuous
100
AcDbLine
 10
75.17721833680001
 20
6.463000126299999
 30
0.0
 11
75.18226412290002
 21
6.176865936799999
 31
0.0
  0
POLYLINE
  5
87
330
1F
100
AcDbEntity
  8
Default
  6
Continuous
100
AcDb2dPolyline
 66
     1
 10
0.0
 20
0.0
 30
0.0
  0
VERTEX
  5
88
330
87
100
AcDbEntity
  8
Default
  6
Continuous
100
AcDbVertex
100
AcDb2dVertex
 10
72.5923562898
 20
6.1815521883
 30
0.0
  0
VERTEX
  5
89
330
87
100
AcDbEntity
  8
Default
  6
Continuous
100
AcDbVertex
100
AcDb2dVertex
 10
72.59235649269999
 20
6.181601499899998
 30
0.0
  0
VERTEX
  5
8A
330
87
100
AcDbEntity
  8
Default
  6
Continuous
100
AcDbVertex
100
AcDb2dVertex
 10
72.5923494926
 20
6.181422978000001
 30
0.0
  0
SEQEND
  5
8B
330
87
100
AcDbEntity
  8
Default
  6
Continuous
  0
LINE
  5
8C
330
1F
100
AcDbEntity
  8
Default
  6
Continuous
100
AcDbLine
 10
60.11907320554565
 20
0.3858115274166705
 30
0.0
 11
60.10707745558719
 21
0.164442163706003
 31
0.0
  0
ARC
  5
8D
330
1F
100
AcDbEntity
  8
Default
  6
Continuous
100
AcDbCircle
 10
60.26284885819999
 20
0.1559999999999988
 30
0.0
 40
0.156
100
AcDbArc
 50
176.8978413127998
 51
269.9999999999008
  0
LINE
  5
8E
330
1F
100
AcDbEntity
  8
Default
  6
Continuous
100
AcDbLine
 10
60.26284885819972
 20
-0.0000000000000012
 30
0.0
 11
61.32303739690027
 21
-0.0000000000000012
 31
0.0
  0
ARC
  5
8F
330
1F
100
AcDbEntity
  8
Default
  6
Continuous
100
AcDbCircle
 10
61.3230373969
 20
0.1559999999999988
 30
0.0
 40
0.156
100
AcDbArc
 50
270.0000000000992
 51
0.9847778084993412
  0
LINE
  5
90
330
1F
100
AcDbEntity
  8
Default
  6
Continuous
100
AcDbLine
 10
61.47901435516629
 20
0.1586811359526681
 30
0.0
 11
61.47512101796188
 21
0.3852576203573329
 31
0.0
  0
ARC
  5
91
330
1F
100
AcDbEntity
  8
Default
  6
Continuous
100
AcDbCircle
 10
61.46012323039999
 20
0.384999999999998
 30
0.0
 40
0.015
100
AcDbArc
 50
0.9840856627968054
 51
90.0
  0
LINE
  5
92
330
1F
100
AcDbEntity
  8
Default
  6
Continuous
100
AcDbLine
 10
61.46012323039999
 20
0.399999999999998
 30
0.0
 11
60.1340512369
 21
0.399999999999998
 31
0.0
  0
ARC
  5
93
330
1F
100
AcDbEntity
  8
Default
  6
Continuous
100
AcDbCircle
 10
60.1340512369
 20
0.3850000000000022
 30
0.0
 40
0.0149999999999958
100
AcDbArc
 50
90.0
 51
176.8986794162151
  0
POLYLINE
  5
94
330
1F
100
AcDbEntity
  8
Default
100
AcDb2dPolyline
 66
     1
 10
0.0
 20
0.0
 30
0.0
  0
VERTEX
  5
95
330
94
100
AcDbEntity
  8
Default
100
AcDbVertex
100
AcDb2dVertex
 10
72.597269632
 20
6.503000126299998
 30
0.0
  0
VERTEX
  5
96
330
94
100
AcDbEntity
  8
Default
100
AcDbVertex
100
AcDb2dVertex
 10
75.17726963199999
 20
6.503000126299998
 30
0.0
  0
VERTEX
  5
97
330
94
100
AcDbEntity
  8
Default
100
AcDbVertex
100
AcDb2dVertex
 10
75.17726963199999
 20
27.8130001263
 30
0.0
  0
VERTEX
  5
98
330
94
100
AcDbEntity
  8
Default
100
AcDbVertex
100
AcDb2dVertex
 10
72.597269632
 20
27.8130001263
 30
0.0
  0
VERTEX
  5
99
330
94
100
AcDbEntity
  8
Default
100
AcDbVertex
100
AcDb2dVertex
 10
72.597269632
 20
6.503000126299998
 30
0.0
  0
SEQEND
  5
9A
330
94
100
AcDbEntity
  8
Default
  0
POLYLINE
  5
9B
330
1F
100
AcDbEntity
  8
Default
100
AcDb2dPolyline
 66
     1
 10
0.0
 20
0.0
 30
0.0
  0
VERTEX
  5
9C
330
9B
100
AcDbEntity
  8
Default
100
AcDbVertex
100
AcDb2dVertex
 10
67.887269632
 20
28.0630001263
 30
0.0
  0
VERTEX
  5
9D
330
9B
100
AcDbEntity
  8
Default
100
AcDbVertex
100
AcDb2dVertex
 10
79.887269632
 20
28.0630001263
 30
0.0
  0
SEQEND
  5
9E
330
9B
100
AcDbEntity
  8
Default
  0
LINE
  5
9F
330
1F
100
AcDbEntity
  8
Default
100
AcDbLine
 10
79.887269632
 20
28.0630001263
 30
0.0
 11
79.887269632
 21
27.8130001263
 31
0.0
  0
LINE
  5
A0
330
1F
100
AcDbEntity
  8
Default
100
AcDbLine
 10
79.887269632
 20
27.8130001263
 30
0.0
 11
67.887269632
 21
27.8130001263
 31
0.0
  0
LINE
  5
A1
330
1F
100
AcDbEntity
  8
Default
100
AcDbLine
 10
67.887269632
 20
27.8130001263
 30
0.0
 11
67.887269632
 21
28.0630001263
 31
0.0
  0
SPLINE
  5
A2
330
1F
100
AcDbEntity
  8
Default
  6
Continuous
100
AcDbSpline
210
0.0
220
0.0
230
1.0
 70
    15
 71
     2
 72
    20
 73
    17
 74
     0
 42
0.0000000001
 43
0.0000000001
 40
0.0
 40
0.0
 40
0.0
 40
2.748893571891069
 40
2.748893571891069
 40
35.24889357189107
 40
35.24889357189107
 40
37.99778714378213
 40
37.99778714378213
 40
94.49778714378213
 40
94.49778714378213
 40
97.24668071567321
 40
97.24668071567321
 40
129.7466807156732
 40
129.7466807156732
 40
132.4955742875643
 40
132.4955742875643
 40
188.9955742875643
 40
188.9955742875643
 40
188.9955742875643
 10
-40.25
 20
92.9261491351
 30
0.0
 41
1.0
 10
-42.0
 20
92.92614913509999
 30
0.0
 41
0.7071067811865476
 10
-42.0
 20
91.1761491351
 30
0.0
 41
1.0
 10
-42.0
 20
71.9261491351
 30
0.0
 41
1.0
 10
-42.0
 20
52.6761491351
 30
0.0
 41
1.0
 10
-42.0
 20
50.92614913509999
 30
0.0
 41
0.7071067811865476
 10
-40.25
 20
50.9261491351
 30
0.0
 41
1.0
 10
0.0
 20
50.9261491351
 30
0.0
 41
1.0
 10
40.25
 20
50.9261491351
 30
0.0
 41
1.0
 10
42.0
 20
50.92614913509999
 30
0.0
 41
0.7071067811865476
 10
42.0
 20
52.6761491351
 30
0.0
 41
1.0
 10
42.0
 20
71.9261491351
 30
0.0
 41
1.0
 10
42.0
 20
91.1761491351
 30
0.0
 41
1.0
 10
42.0
 20
92.92614913509999
 30
0.0
 41
0.7071067811865476
 10
40.25
 20
92.9261491351
 30
0.0
 41
1.0
 10
0.0
 20
92.9261491351
 30
0.0
 41
1.0
 10
-40.25
 20
92.9261491351
 30
0.0
 41
1.0
  0
SPLINE
  5
A3
330
1F
100
AcDbEntity
  8
Default
100
AcDbSpline
210
0.0
220
0.0
230
1.0
 70
    11
 71
     2
 72
    12
 73
     9
 74
     0
 42
0.0000000001
 43
0.0000000001
 40
0.0
 40
0.0
 40
0.0
 40
27.36
 40
27.36
 40
29.39
 40
29.39
 40
56.75
 40
56.75
 40
58.78
 40
58.78
 40
58.78
 10
-25.684
 20
3.6530001263
 30
0.0
 10
-0.0039999999999996
 20
3.6530001263
 30
0.0
 10
25.676
 20
3.6530001263
 30
0.0
 10
25.676
 20
4.668000126299999
 30
0.0
 10
25.676
 20
5.683000126299998
 30
0.0
 10
-0.0039999999999996
 20
5.683000126299998
 30
0.0
 10
-25.684
 20
5.683000126299998
 30
0.0
 10
-25.684
 20
4.668000126299999
 30
0.0
 10
-25.684
 20
3.6530001263
 30
0.0
  0
SPLINE
  5
A4
330
1F
100
AcDbEntity
  8
Default
  6
Continuous
100
AcDbSpline
210
0.0
220
0.0
230
1.0
 70
    15
 71
     2
 72
    24
 73
    21
 74
     0
 42
0.0000000001
 43
0.0000000001
 40
58.71922850875536
 40
58.71922850875536
 40
58.71922850875536
 40
58.76735355735944
 40
58.76735355735944
 40
59.17989619835944
 40
59.17989619835944
 40
59.24272805142601
 40
59.24272805142601
 40
119.162728051426
 40
119.162728051426
 40
119.2255599044847
 40
119.2255599044847
 40
119.6381025454847
 40
119.6381025454847
 40
119.6862275940921
 40
119.6862275940921
 40
121.1054561027541
 40
121.1054561027541
 40
178.4054561027541
 40
178.4054561027541
 40
179.8246846115095
 40
179.8246846115095
 40
179.8246846115095
 10
41.97437768935427
 20
28.57313079178407
 30
0.0
 41
1.0
 10
42.0
 20
28.58300012625501
 30
0.0
 41
0.8244520100820747
 10
42.0
 20
28.6104574853
 30
0.0
 41
1.0
 10
42.0
 20
28.8167288058
 30
0.0
 41
1.0
 10
42.0
 20
29.0230001263
 30
0.0
 41
1.0
 10
42.0
 20
29.06300012629476
 30
0.0
 41
0.7071067812328276
 10
41.96000000000524
 20
29.0630001263
 30
0.0
 41
1.0
 10
-0.0000000000039435
 20
29.0630001263
 30
0.0
 41
1.0
 10
-41.96000000001312
 20
29.0630001263
 30
0.0
 41
1.0
 10
-42.0
 20
29.06300012628687
 30
0.0
 41
0.7071067813025561
 10
-42.0
 20
29.0230001263
 30
0.0
 41
1.0
 10
-42.0
 20
28.8167288058
 30
0.0
 41
1.0
 10
-42.0
 20
28.6104574853
 30
0.0
 41
1.0
 10
-42.0
 20
28.58300012625255
 30
0.0
 41
0.8244520100583688
 10
-41.97437768935114
 20
28.57313079178287
 30
0.0
 41
1.0
 10
-41.31218884465
 20
28.31806545905
 30
0.0
 41
1.0
 10
-40.65
 20
28.0630001263
 30
0.0
 41
1.0
 10
0.0
 20
28.0630001263
 30
0.0
 41
1.0
 10
40.65
 20
28.0630001263
 30
0.0
 41
1.0
 10
41.31218884467714
 20
28.31806545904204
 30
0.0
 41
1.0
 10
41.97437768935427
 20
28.57313079178407
 30
0.0
 41
1.0
  0
POLYLINE
  5
A5
330
1F
100
AcDbEntity
  8
Default
100
AcDb2dPolyline
 66
     1
 10
0.0
 20
0.0
 30
0.0
  0
VERTEX
  5
A6
330
A5
100
AcDbEntity
  8
Default
100
AcDbVertex
100
AcDb2dVertex
 10
-32.55140029153806
 20
0.158757957756209
 30
0.0
  0
VERTEX
  5
A7
330
A5
100
AcDbEntity
  8
Default
100
AcDbVertex
100
AcDb2dVertex
 10
-32.55537705216695
 20
0.3852615279444365
 30
0.0
  0
SEQEND
  5
A8
330
A5
100
AcDbEntity
  8
Default
  0
ARC
  5
A9
330
1F
100
AcDbEntity
  8
Default
100
AcDbCircle
 10
-32.5703747743
 20
0.3850001262999996
 30
0.0
 40
0.015
100
AcDbArc
 50
0.9985312776991305
 51
89.99999999970146
  0
LINE
  5
AA
330
1F
100
AcDbEntity
  8
Default
100
AcDbLine
 10
-32.57037477429992
 20
0.4000001262999996
 30
0.0
 11
-33.43849908660003
 21
0.4000001262999996
 31
0.0
  0
ARC
  5
AB
330
1F
100
AcDbEntity
  8
Default
100
AcDbCircle
 10
-33.4384990866
 20
0.3850001262999996
 30
0.0
 40
0.015
100
AcDbArc
 50
90.00000000010857
 51
178.2301647377975
  0
POLYLINE
  5
AC
330
1F
100
AcDbEntity
  8
Default
100
AcDb2dPolyline
 66
     1
 10
0.0
 20
0.0
 30
0.0
  0
VERTEX
  5
AD
330
AC
100
AcDbEntity
  8
Default
100
AcDbVertex
100
AcDb2dVertex
 10
-33.45349193098191
 20
0.3854633944080975
 30
0.0
  0
VERTEX
  5
AE
330
AC
100
AcDbEntity
  8
Default
100
AcDbVertex
100
AcDb2dVertex
 10
-33.46046205272003
 20
0.1608598778439082
 30
0.0
  0
SEQEND
  5
AF
330
AC
100
AcDbEntity
  8
Default
  0
ARC
  5
B0
330
1F
100
AcDbEntity
  8
Default
100
AcDbCircle
 10
-33.3045377672
 20
0.1560001263000004
 30
0.0
 40
0.156
100
AcDbArc
 50
178.2148185313999
 51
269.9999999996007
  0
LINE
  5
B1
330
1F
100
AcDbEntity
  8
Default
100
AcDbLine
 10
-33.3045377672011
 20
0.0000001263000004
 30
0.0
 11
-32.70737591259728
 21
0.0000001263000004
 31
0.0
  0
ARC
  5
B2
330
1F
100
AcDbEntity
  8
Default
100
AcDbCircle
 10
-32.7073759126
 20
0.1560001262999978
 30
0.0
 40
0.1559999999999974
100
AcDbArc
 50
270.0000000009995
 51
1.012950863400808
  0
POLYLINE
  5
B3
330
1F
100
AcDbEntity
  8
Default
100
AcDb2dPolyline
 66
     1
 10
0.0
 20
0.0
 30
0.0
  0
VERTEX
  5
B4
330
B3
100
AcDbEntity
  8
Default
100
AcDbVertex
100
AcDb2dVertex
 10
-34.23999999999999
 20
28.0630001263
 30
0.0
  0
VERTEX
  5
B5
330
B3
100
AcDbEntity
  8
Default
100
AcDbVertex
100
AcDb2dVertex
 10
-22.24
 20
28.0630001263
 30
0.0
  0
SEQEND
  5
B6
330
B3
100
AcDbEntity
  8
Default
  0
LINE
  5
B7
330
1F
100
AcDbEntity
  8
Default
100
AcDbLine
 10
-22.24
 20
28.0630001263
 30
0.0
 11
-22.24
 21
27.8130001263
 31
0.0
  0
LINE
  5
B8
330
1F
100
AcDbEntity
  8
Default
100
AcDbLine
 10
-22.24
 20
27.8130001263
 30
0.0
 11
-34.23999999999999
 21
27.8130001263
 31
0.0
  0
LINE
  5
B9
330
1F
100
AcDbEntity
  8
Default
100
AcDbLine
 10
-34.23999999999999
 20
27.8130001263
 30
0.0
 11
-34.23999999999999
 21
28.0630001263
 31
0.0
  0
LINE
  5
BA
330
1F
100
AcDbEntity
  8
Default
  6
Continuous
100
AcDbLine
 10
-29.549858979
 20
5.325279977799998
 30
0.0
 11
-29.53
 21
6.463000126299999
 31
0.0
  0
LINE
  5
BB
330
1F
100
AcDbEntity
  8
Default
  6
Continuous
100
AcDbLine
 10
-29.53
 20
6.463000126299999
 30
0.0
 11
-26.95
 21
6.463000126299999
 31
0.0
  0
POLYLINE
  5
BC
330
1F
100
AcDbEntity
  8
Default
  6
Continuous
100
AcDb2dPolyline
 66
     1
 10
0.0
 20
0.0
 30
0.0
  0
VERTEX
  5
BD
330
BC
100
AcDbEntity
  8
Default
  6
Continuous
100
AcDbVertex
100
AcDb2dVertex
 10
-26.95
 20
6.463000126299999
 30
0.0
  0
VERTEX
  5
BE
330
BC
100
AcDbEntity
  8
Default
  6
Continuous
100
AcDbVertex
100
AcDb2dVertex
 10
-26.9477992233
 20
6.336917716199999
 30
0.0
  0
SEQEND
  5
BF
330
BC
100
AcDbEntity
  8
Default
  6
Continuous
  0
SPLINE
  5
C0
330
1F
100
AcDbEntity
  8
Default
  6
Continuous
100
AcDbSpline
210
0.0
220
0.0
230
1.0
 70
     8
 71
     3
 72
    11
 73
     7
 74
     0
 42
0.0000000001
 43
0.0000000001
 40
-4.0
 40
-4.0
 40
-4.0
 40
-4.0
 40
-3.0
 40
-2.0
 40
-1.0
 40
0.0
 40
0.0
 40
0.0
 40
0.0
 10
-26.9477992233
 20
6.336917716199999
 30
0.0
 10
-26.94445046379445
 20
6.248747055638123
 30
0.0
 10
-26.88823967697067
 20
6.079168007876549
 30
0.0
 10
-26.7313611898838
 20
5.863797950733538
 30
0.0
 10
-26.50799610607037
 20
5.714982483900124
 30
0.0
 10
-26.33169113089869
 20
5.682785223263375
 30
0.0
 10
-26.244
 20
5.683000126299998
 30
0.0
  0
LINE
  5
C1
330
1F
100
AcDbEntity
  8
Default
  6
Continuous
100
AcDbLine
 10
-26.244
 20
5.683000126299998
 30
0.0
 11
-25.7045559202
 21
5.683000126299998
 31
0.0
  0
POLYLINE
  5
C2
330
1F
100
AcDbEntity
  8
Default
  6
Continuous
100
AcDb2dPolyline
 66
     1
 10
0.0
 20
0.0
 30
0.0
  0
VERTEX
  5
C3
330
C2
100
AcDbEntity
  8
Default
  6
Continuous
100
AcDbVertex
100
AcDb2dVertex
 10
-25.7045559202
 20
5.683000126299998
 30
0.0
  0
VERTEX
  5
C4
330
C2
100
AcDbEntity
  8
Default
  6
Continuous
100
AcDbVertex
100
AcDb2dVertex
 10
-25.7111532245
 20
3.653000896199998
 30
0.0
  0
SEQEND
  5
C5
330
C2
100
AcDbEntity
  8
Default
  6
Continuous
  0
POLYLINE
  5
C6
330
1F
100
AcDbEntity
  8
Default
  6
Continuous
100
AcDb2dPolyline
 66
     1
 10
0.0
 20
0.0
 30
0.0
  0
VERTEX
  5
C7
330
C6
100
AcDbEntity
  8
Default
  6
Continuous
100
AcDbVertex
100
AcDb2dVertex
 10
-25.7111532245
 20
3.653000896199998
 30
0.0
  0
VERTEX
  5
C8
330
C6
100
AcDbEntity
  8
Default
  6
Continuous
100
AcDbVertex
100
AcDb2dVertex
 10
-27.0178027416
 20
3.6532809767
 30
0.0
  0
SEQEND
  5
C9
330
C6
100
AcDbEntity
  8
Default
  6
Continuous
  0
SPLINE
  5
CA
330
1F
100
AcDbEntity
  8
Default
  6
Continuous
100
AcDbSpline
210
0.0
220
0.0
230
1.0
 70
     8
 71
     3
 72
    14
 73
    10
 74
     0
 42
0.0000000001
 43
0.0000000001
 40
-7.0
 40
-7.0
 40
-7.0
 40
-7.0
 40
-6.0
 40
-5.0
 40
-4.0
 40
-3.0
 40
-2.0
 40
-1.0
 40
0.0
 40
0.0
 40
0.0
 40
0.0
 10
-27.0178027416
 20
3.6532809767
 30
0.0
 10
-27.09682603560317
 20
3.678096024264785
 30
0.0
 10
-27.23277384585482
 20
3.787319411469665
 30
0.0
 10
-27.48805756953386
 20
3.817791288463693
 30
0.0
 10
-27.73865795842935
 20
3.800401418616024
 30
0.0
 10
-27.98168290555083
 20
3.732226844436058
 30
0.0
 10
-28.2218981993969
 20
3.657435160708358
 30
0.0
 10
-28.47081470855544
 20
3.619672886365249
 30
0.0
 10
-28.63832061178799
 20
3.610321939473731
 30
0.0
 10
-28.721009442
 20
3.5960190801
 30
0.0
  0
SPLINE
  5
CB
330
1F
100
AcDbEntity
  8
Default
  6
Continuous
100
AcDbSpline
210
0.0
220
0.0
230
1.0
 70
     8
 71
     3
 72
    10
 73
     6
 74
     0
 42
0.0000000001
 43
0.0000000001
 40
-3.0
 40
-3.0
 40
-3.0
 40
-3.0
 40
-2.0
 40
-1.0
 40
0.0
 40
0.0
 40
0.0
 40
0.0
 10
-28.721009442
 20
3.5960190801
 30
0.0
 10
-29.15525667173578
 20
3.478456148372052
 30
0.0
 10
-29.98782556687775
 20
3.123767223464638
 30
0.0
 10
-31.2471949015292
 20
2.630151329617036
 30
0.0
 10
-32.08333759623751
 20
2.289961438296504
 30
0.0
 10
-32.5018787621
 20
2.1215494341
 30
0.0
  0
ARC
  5
CC
330
1F
100
AcDbEntity
  8
Default
  6
Continuous
100
AcDbCircle
 10
-30.94823582255322
 20
1.806781030997367
 30
0.0
 40
1.585208355767572
100
AcDbArc
 50
168.5468877890656
 51
179.1834604254156
  0
LINE
  5
CD
330
1F
100
AcDbEntity
  8
Default
  6
Continuous
100
AcDbLine
 10
-32.53328320340064
 20
1.829371552550932
 30
0.0
 11
-32.55479450332331
 21
0.4291401533885174
 31
0.0
  0
ARC
  5
CE
330
1F
100
AcDbEntity
  8
Default
  6
Continuous
100
AcDbCircle
 10
-32.5847821749
 20
0.4300001262999977
 30
0.0
 40
0.03
100
AcDbArc
 50
270.0000000195006
 51
358.3573477018006
  0
POLYLINE
  5
CF
330
1F
100
AcDbEntity
  8
Default
  6
Continuous
100
AcDb2dPolyline
 66
     1
 10
0.0
 20
0.0
 30
0.0
  0
VERTEX
  5
D0
330
CF
100
AcDbEntity
  8
Default
  6
Continuous
100
AcDbVertex
100
AcDb2dVertex
 10
-32.58478217488979
 20
0.4000001262999977
 30
0.0
  0
VERTEX
  5
D1
330
CF
100
AcDbEntity
  8
Default
  6
Continuous
100
AcDbVertex
100
AcDb2dVertex
 10
-33.42279080070021
 20
0.4000001262999977
 30
0.0
  0
SEQEND
  5
D2
330
CF
100
AcDbEntity
  8
Default
  6
Continuous
  0
ARC
  5
D3
330
1F
100
AcDbEntity
  8
Default
  6
Continuous
100
AcDbCircle
 10
-33.4227908007
 20
0.4300001262999977
 30
0.0
 40
0.03
100
AcDbArc
 50
179.5125952648
 51
269.9999999995929
  0
SPLINE
  5
D4
330
1F
100
AcDbEntity
  8
Default
  6
Continuous
100
AcDbSpline
210
0.0
220
0.0
230
1.0
 70
     8
 71
     3
 72
    16
 73
    12
 74
     0
 42
0.0000000001
 43
0.0000000001
 40
-9.0
 40
-9.0
 40
-9.0
 40
-9.0
 40
-7.999854886716872
 40
-6.999709704837437
 40
-5.999564522958003
 40
-4.999419341078569
 40
-3.999274159199135
 40
-2.999128977319701
 40
-1.998983795440267
 40
-0.9988386135608333
 40
0.0
 40
0.0
 40
0.0
 40
0.0
 10
-33.45278971521741
 20
0.4302553277445611
 30
0.0
 10
-33.45188881593648
 20
0.5354580085934145
 30
0.0
 10
-33.44994513799999
 20
0.7458618407498191
 30
0.0
 10
-33.44656444531809
 20
1.061464315837455
 30
0.0
 10
-33.44250380055727
 20
1.377054648902046
 30
0.0
 10
-33.43848649956844
 20
1.692660137599952
 30
0.0
 10
-33.43177735921624
 20
2.008174490210359
 30
0.0
 10
-33.4325907716923
 20
2.323990120134577
 30
0.0
 10
-33.40039811715977
 20
2.638576149569233
 30
0.0
 10
-33.31398720468108
 20
2.94381564559103
 30
0.0
 10
-33.19119803606806
 20
3.12191112220039
 30
0.0
 10
-33.0998163266
 20
3.176915455149999
 30
0.0
  0
SPLINE
  5
D5
330
1F
100
AcDbEntity
  8
Default
  6
Continuous
100
AcDbSpline
210
0.0
220
0.0
230
1.0
 70
     8
 71
     3
 72
     8
 73
     4
 74
     0
 42
0.0000000001
 43
0.0000000001
 40
-1.0
 40
-1.0
 40
-1.0
 40
-1.0
 40
0.0
 40
0.0
 40
0.0
 40
0.0
 10
-33.0998163266
 20
3.176915455149999
 30
0.0
 10
-31.72590567820134
 20
3.990678479190132
 30
0.0
 10
-30.36730731123849
 20
4.829937200662282
 30
0.0
 10
-29.0025791776
 20
5.6589555708
 30
0.0
  0
ARC
  5
D6
330
1F
100
AcDbEntity
  8
Default
  6
Continuous
100
AcDbCircle
 10
-28.87765352366996
 20
5.445127177084907
 30
0.0
 40
0.2476469280419678
100
AcDbArc
 50
88.86249581198587
 51
120.2948921039716
  0
ARC
  5
D7
330
1F
100
AcDbEntity
  8
Default
  6
Continuous
100
AcDbCircle
 10
-28.87310475319959
 20
5.389582827129929
 30
0.0
 40
0.3031426974168862
100
AcDbArc
 50
62.0839812699974
 51
89.93054238712895
  0
POLYLINE
  5
D8
330
1F
100
AcDbEntity
  8
Default
100
AcDb2dPolyline
 66
     1
 10
0.0
 20
0.0
 30
0.0
  0
VERTEX
  5
D9
330
D8
100
AcDbEntity
  8
Default
100
AcDbVertex
100
AcDb2dVertex
 10
-29.53
 20
27.8130001263
 30
0.0
  0
VERTEX
  5
DA
330
D8
100
AcDbEntity
  8
Default
100
AcDbVertex
100
AcDb2dVertex
 10
-26.95
 20
27.8130001263
 30
0.0
  0
SEQEND
  5
DB
330
D8
100
AcDbEntity
  8
Default
  0
LINE
  5
DC
330
1F
100
AcDbEntity
  8
Default
100
AcDbLine
 10
-26.95
 20
27.8130001263
 30
0.0
 11
-26.9500009788
 21
6.503000126299998
 31
0.0
  0
LINE
  5
DD
330
1F
100
AcDbEntity
  8
Default
100
AcDbLine
 10
-26.9500009788
 20
6.503000126299998
 30
0.0
 11
-29.5299990212
 21
6.503000126299998
 31
0.0
  0
LINE
  5
DE
330
1F
100
AcDbEntity
  8
Default
100
AcDbLine
 10
-29.5299990212
 20
6.503000126299998
 30
0.0
 11
-29.53
 21
27.8130001263
 31
0.0
  0
LINE
  5
DF
330
1F
100
AcDbEntity
  8
Default
  6
Continuous
100
AcDbLine
 10
-30.0994547723
 20
3.177126489799999
 30
0.0
 11
-30.1001778806
 21
3.1767044206
 31
0.0
  0
POLYLINE
  5
E0
330
1F
100
AcDbEntity
  8
Default
100
AcDb2dPolyline
 66
     1
 10
0.0
 20
0.0
 30
0.0
  0
VERTEX
  5
E1
330
E0
100
AcDbEntity
  8
Default
100
AcDbVertex
100
AcDb2dVertex
 10
32.55140029153806
 20
0.158757957756209
 30
0.0
  0
VERTEX
  5
E2
330
E0
100
AcDbEntity
  8
Default
100
AcDbVertex
100
AcDb2dVertex
 10
32.55537705216695
 20
0.3852615279444365
 30
0.0
  0
SEQEND
  5
E3
330
E0
100
AcDbEntity
  8
Default
  0
ARC
  5
E4
330
1F
100
AcDbEntity
  8
Default
100
AcDbCircle
 10
32.5703747743
 20
0.3850001262999996
 30
0.0
 40
0.015
100
AcDbArc
 50
90.00000000029856
 51
179.0014687223009
  0
LINE
  5
E5
330
1F
100
AcDbEntity
  8
Default
100
AcDbLine
 10
32.57037477429992
 20
0.4000001262999996
 30
0.0
 11
33.43849908660003
 21
0.4000001262999996
 31
0.0
  0
ARC
  5
E6
330
1F
100
AcDbEntity
  8
Default
100
AcDbCircle
 10
33.4384990866
 20
0.3850001262999996
 30
0.0
 40
0.015
100
AcDbArc
 50
1.769835262202465
 51
89.99999999989144
  0
POLYLINE
  5
E7
330
1F
100
AcDbEntity
  8
Default
100
AcDb2dPolyline
 66
     1
 10
0.0
 20
0.0
 30
0.0
  0
VERTEX
  5
E8
330
E7
100
AcDbEntity
  8
Default
100
AcDbVertex
100
AcDb2dVertex
 10
33.45349193098191
 20
0.3854633944080975
 30
0.0
  0
VERTEX
  5
E9
330
E7
100
AcDbEntity
  8
Default
100
AcDbVertex
100
AcDb2dVertex
 10
33.46046205272003
 20
0.1608598778439082
 30
0.0
  0
SEQEND
  5
EA
330
E7
100
AcDbEntity
  8
Default
  0
ARC
  5
EB
330
1F
100
AcDbEntity
  8
Default
100
AcDbCircle
 10
33.3045377672
 20
0.1560001263000004
 30
0.0
 40
0.156
100
AcDbArc
 50
270.0000000003993
 51
1.785181468600036
  0
LINE
  5
EC
330
1F
100
AcDbEntity
  8
Default
100
AcDbLine
 10
33.3045377672011
 20
0.0000001263000004
 30
0.0
 11
32.70737591259728
 21
0.0000001263000004
 31
0.0
  0
ARC
  5
ED
330
1F
100
AcDbEntity
  8
Default
100
AcDbCircle
 10
32.7073759126
 20
0.1560001262999978
 30
0.0
 40
0.1559999999999974
100
AcDbArc
 50
178.9870491365992
 51
269.9999999990005
  0
POLYLINE
  5
EE
330
1F
100
AcDbEntity
  8
Default
100
AcDb2dPolyline
 66
     1
 10
0.0
 20
0.0
 30
0.0
  0
VERTEX
  5
EF
330
EE
100
AcDbEntity
  8
Default
100
AcDbVertex
100
AcDb2dVertex
 10
34.23999999999999
 20
28.0630001263
 30
0.0
  0
VERTEX
  5
F0
330
EE
100
AcDbEntity
  8
Default
100
AcDbVertex
100
AcDb2dVertex
 10
22.24
 20
28.0630001263
 30
0.0
  0
SEQEND
  5
F1
330
EE
100
AcDbEntity
  8
Default
  0
LINE
  5
F2
330
1F
100
AcDbEntity
  8
Default
100
AcDbLine
 10
22.24
 20
28.0630001263
 30
0.0
 11
22.24
 21
27.8130001263
 31
0.0
  0
LINE
  5
F3
330
1F
100
AcDbEntity
  8
Default
100
AcDbLine
 10
22.24
 20
27.8130001263
 30
0.0
 11
34.23999999999999
 21
27.8130001263
 31
0.0
  0
LINE
  5
F4
330
1F
100
AcDbEntity
  8
Default
100
AcDbLine
 10
34.23999999999999
 20
27.8130001263
 30
0.0
 11
34.23999999999999
 21
28.0630001263
 31
0.0
  0
LINE
  5
F5
330
1F
100
AcDbEntity
  8
Default
  6
Continuous
100
AcDbLine
 10
29.549858979
 20
5.325279977799998
 30
0.0
 11
29.53
 21
6.463000126299999
 31
0.0
  0
LINE
  5
F6
330
1F
100
AcDbEntity
  8
Default
  6
Continuous
100
AcDbLine
 10
29.53
 20
6.463000126299999
 30
0.0
 11
26.95
 21
6.463000126299999
 31
0.0
  0
POLYLINE
  5
F7
330
1F
100
AcDbEntity
  8
Default
  6
Continuous
100
AcDb2dPolyline
 66
     1
 10
0.0
 20
0.0
 30
0.0
  0
VERTEX
  5
F8
330
F7
100
AcDbEntity
  8
Default
  6
Continuous
100
AcDbVertex
100
AcDb2dVertex
 10
26.95
 20
6.463000126299999
 30
0.0
  0
VERTEX
  5
F9
330
F7
100
AcDbEntity
  8
Default
  6
Continuous
100
AcDbVertex
100
AcDb2dVertex
 10
26.9477992233
 20
6.336917716199999
 30
0.0
  0
SEQEND
  5
FA
330
F7
100
AcDbEntity
  8
Default
  6
Continuous
  0
SPLINE
  5
FB
330
1F
100
AcDbEntity
  8
Default
  6
Continuous
100
AcDbSpline
210
0.0
220
0.0
230
1.0
 70
     8
 71
     3
 72
    11
 73
     7
 74
     0
 42
0.0000000001
 43
0.0000000001
 40
-4.0
 40
-4.0
 40
-4.0
 40
-4.0
 40
-3.0
 40
-2.0
 40
-1.0
 40
0.0
 40
0.0
 40
0.0
 40
0.0
 10
26.9477992233
 20
6.336917716199999
 30
0.0
 10
26.94445046379445
 20
6.248747055638123
 30
0.0
 10
26.88823967697067
 20
6.079168007876549
 30
0.0
 10
26.7313611898838
 20
5.863797950733538
 30
0.0
 10
26.50799610607037
 20
5.714982483900124
 30
0.0
 10
26.33169113089869
 20
5.682785223263375
 30
0.0
 10
26.244
 20
5.683000126299998
 30
0.0
  0
LINE
  5
FC
330
1F
100
AcDbEntity
  8
Default
  6
Continuous
100
AcDbLine
 10
26.244
 20
5.683000126299998
 30
0.0
 11
25.7045559202
 21
5.683000126299998
 31
0.0
  0
POLYLINE
  5
FD
330
1F
100
AcDbEntity
  8
Default
  6
Continuous
100
AcDb2dPolyline
 66
     1
 10
0.0
 20
0.0
 30
0.0
  0
VERTEX
  5
FE
330
FD
100
AcDbEntity
  8
Default
  6
Continuous
100
AcDbVertex
100
AcDb2dVertex
 10
25.7045559202
 20
5.683000126299998
 30
0.0
  0
VERTEX
  5
FF
330
FD
100
AcDbEntity
  8
Default
  6
Continuous
100
AcDbVertex
100
AcDb2dVertex
 10
25.7111532245
 20
3.653000896199998
 30
0.0
  0
SEQEND
  5
100
330
FD
100
AcDbEntity
  8
Default
  6
Continuous
  0
POLYLINE
  5
101
330
1F
100
AcDbEntity
  8
Default
  6
Continuous
100
AcDb2dPolyline
 66
     1
 10
0.0
 20
0.0
 30
0.0
  0
VERTEX
  5
102
330
101
100
AcDbEntity
  8
Default
  6
Continuous
100
AcDbVertex
100
AcDb2dVertex
 10
25.7111532245
 20
3.653000896199998
 30
0.0
  0
VERTEX
  5
103
330
101
100
AcDbEntity
  8
Default
  6
Continuous
100
AcDbVertex
100
AcDb2dVertex
 10
27.0178027416
 20
3.6532809767
 30
0.0
  0
SEQEND
  5
104
330
101
100
AcDbEntity
  8
Default
  6
Continuous
  0
SPLINE
  5
105
330
1F
100
AcDbEntity
  8
Default
  6
Continuous
100
AcDbSpline
210
0.0
220
0.0
230
1.0
 70
     8
 71
     3
 72
    14
 73
    10
 74
     0
 42
0.0000000001
 43
0.0000000001
 40
-7.0
 40
-7.0
 40
-7.0
 40
-7.0
 40
-6.0
 40
-5.0
 40
-4.0
 40
-3.0
 40
-2.0
 40
-1.0
 40
0.0
 40
0.0
 40
0.0
 40
0.0
 10
27.0178027416
 20
3.6532809767
 30
0.0
 10
27.09682603560317
 20
3.678096024264785
 30
0.0
 10
27.23277384585482
 20
3.787319411469665
 30
0.0
 10
27.48805756953386
 20
3.817791288463693
 30
0.0
 10
27.73865795842934
 20
3.800401418616024
 30
0.0
 10
27.98168290555083
 20
3.732226844436058
 30
0.0
 10
28.2218981993969
 20
3.657435160708358
 30
0.0
 10
28.47081470855544
 20
3.619672886365249
 30
0.0
 10
28.63832061178799
 20
3.610321939473731
 30
0.0
 10
28.721009442
 20
3.5960190801
 30
0.0
  0
SPLINE
  5
106
330
1F
100
AcDbEntity
  8
Default
  6
Continuous
100
AcDbSpline
210
0.0
220
0.0
230
1.0
 70
     8
 71
     3
 72
    10
 73
     6
 74
     0
 42
0.0000000001
 43
0.0000000001
 40
-3.0
 40
-3.0
 40
-3.0
 40
-3.0
 40
-2.0
 40
-1.0
 40
0.0
 40
0.0
 40
0.0
 40
0.0
 10
28.721009442
 20
3.5960190801
 30
0.0
 10
29.15525667173578
 20
3.478456148372052
 30
0.0
 10
29.98782556687775
 20
3.123767223464638
 30
0.0
 10
31.2471949015292
 20
2.630151329617036
 30
0.0
 10
32.08333759623751
 20
2.289961438296504
 30
0.0
 10
32.5018787621
 20
2.1215494341
 30
0.0
  0
ARC
  5
107
330
1F
100
AcDbEntity
  8
Default
  6
Continuous
100
AcDbCircle
 10
30.94823582255322
 20
1.806781030997367
 30
0.0
 40
1.585208355767572
100
AcDbArc
 50
0.8165395745844388
 51
11.45311221093447
  0
LINE
  5
108
330
1F
100
AcDbEntity
  8
Default
  6
Continuous
100
AcDbLine
 10
32.53328320340064
 20
1.829371552550932
 30
0.0
 11
32.55479450332331
 21
0.4291401533885174
 31
0.0
  0
ARC
  5
109
330
1F
100
AcDbEntity
  8
Default
  6
Continuous
100
AcDbCircle
 10
32.5847821749
 20
0.4300001262999977
 30
0.0
 40
0.03
100
AcDbArc
 50
181.6426522981994
 51
269.9999999804994
  0
POLYLINE
  5
10A
330
1F
100
AcDbEntity
  8
Default
  6
Continuous
100
AcDb2dPolyline
 66
     1
 10
0.0
 20
0.0
 30
0.0
  0
VERTEX
  5
10B
330
10A
100
AcDbEntity
  8
Default
  6
Continuous
100
AcDbVertex
100
AcDb2dVertex
 10
32.58478217488979
 20
0.4000001262999977
 30
0.0
  0
VERTEX
  5
10C
330
10A
100
AcDbEntity
  8
Default
  6
Continuous
100
AcDbVertex
100
AcDb2dVertex
 10
33.42279080070021
 20
0.4000001262999977
 30
0.0
  0
SEQEND
  5
10D
330
10A
100
AcDbEntity
  8
Default
  6
Continuous
  0
ARC
  5
10E
330
1F
100
AcDbEntity
  8
Default
  6
Continuous
100
AcDbCircle
 10
33.4227908007
 20
0.4300001262999977
 30
0.0
 40
0.03
100
AcDbArc
 50
270.0000000004071
 51
0.487404735200013
  0
SPLINE
  5
10F
330
1F
100
AcDbEntity
  8
Default
  6
Continuous
100
AcDbSpline
210
0.0
220
0.0
230
1.0
 70
     8
 71
     3
 72
    16
 73
    12
 74
     0
 42
0.0000000001
 43
0.0000000001
 40
-9.0
 40
-9.0
 40
-9.0
 40
-9.0
 40
-7.999854886716872
 40
-6.999709704837437
 40
-5.999564522958003
 40
-4.999419341078569
 40
-3.999274159199135
 40
-2.999128977319701
 40
-1.998983795440267
 40
-0.9988386135608333
 40
0.0
 40
0.0
 40
0.0
 40
0.0
 10
33.45278971521741
 20
0.4302553277445611
 30
0.0
 10
33.45188881593648
 20
0.5354580085934145
 30
0.0
 10
33.44994513799999
 20
0.7458618407498191
 30
0.0
 10
33.44656444531809
 20
1.061464315837455
 30
0.0
 10
33.44250380055727
 20
1.377054648902046
 30
0.0
 10
33.43848649956844
 20
1.692660137599952
 30
0.0
 10
33.43177735921624
 20
2.008174490210359
 30
0.0
 10
33.4325907716923
 20
2.323990120134577
 30
0.0
 10
33.40039811715977
 20
2.638576149569233
 30
0.0
 10
33.31398720468108
 20
2.94381564559103
 30
0.0
 10
33.19119803606806
 20
3.12191112220039
 30
0.0
 10
33.0998163266
 20
3.176915455149999
 30
0.0
  0
SPLINE
  5
110
330
1F
100
AcDbEntity
  8
Default
  6
Continuous
100
AcDbSpline
210
0.0
220
0.0
230
1.0
 70
     8
 71
     3
 72
     8
 73
     4
 74
     0
 42
0.0000000001
 43
0.0000000001
 40
-1.0
 40
-1.0
 40
-1.0
 40
-1.0
 40
0.0
 40
0.0
 40
0.0
 40
0.0
 10
33.0998163266
 20
3.176915455149999
 30
0.0
 10
31.72590567820134
 20
3.990678479190132
 30
0.0
 10
30.36730731123849
 20
4.829937200662282
 30
0.0
 10
29.0025791776
 20
5.6589555708
 30
0.0
  0
ARC
  5
111
330
1F
100
AcDbEntity
  8
Default
  6
Continuous
100
AcDbCircle
 10
28.87765352366996
 20
5.445127177084907
 30
0.0
 40
0.2476469280419678
100
AcDbArc
 50
59.7051078960284
 51
91.13750418801415
  0
ARC
  5
112
330
1F
100
AcDbEntity
  8
Default
  6
Continuous
100
AcDbCircle
 10
28.87310475319959
 20
5.389582827129929
 30
0.0
 40
0.3031426974168862
100
AcDbArc
 50
90.06945761287105
 51
117.9160187300026
  0
POLYLINE
  5
113
330
1F
100
AcDbEntity
  8
Default
100
AcDb2dPolyline
 66
     1
 10
0.0
 20
0.0
 30
0.0
  0
VERTEX
  5
114
330
113
100
AcDbEntity
  8
Default
100
AcDbVertex
100
AcDb2dVertex
 10
29.53
 20
27.8130001263
 30
0.0
  0
VERTEX
  5
115
330
113
100
AcDbEntity
  8
Default
100
AcDbVertex
100
AcDb2dVertex
 10
26.95
 20
27.8130001263
 30
0.0
  0
SEQEND
  5
116
330
113
100
AcDbEntity
  8
Default
  0
LINE
  5
117
330
1F
100
AcDbEntity
  8
Default
100
AcDbLine
 10
26.95
 20
27.8130001263
 30
0.0
 11
26.9500009788
 21
6.503000126299998
 31
0.0
  0
LINE
  5
118
330
1F
100
AcDbEntity
  8
Default
100
AcDbLine
 10
26.9500009788
 20
6.503000126299998
 30
0.0
 11
29.5299990212
 21
6.503000126299998
 31
0.0
  0
LINE
  5
119
330
1F
100
AcDbEntity
  8
Default
100
AcDbLine
 10
29.5299990212
 20
6.503000126299998
 30
0.0
 11
29.53
 21
27.8130001263
 31
0.0
  0
ENDSEC
  0
SECTION
  2
OBJECTS
  0
DICTIONARY
  5
C
330
0
100
AcDbDictionary
281
     1
  3
ACAD_GROUP
350
D
  3
ACAD_LAYOUT
350
1A
  3
ACAD_MLEADERSTYLE
350
11B
  3
ACAD_MLINESTYLE
350
17
  3
ACAD_PLOTSETTINGS
350
19
  3
ACAD_PLOTSTYLENAME
350
E
  3
ACAD_TABLESTYLE
350
11A
  3
ACAD_VISUALSTYLE
350
2A
  0
DICTIONARY
  5
D
102
{ACAD_REACTORS
330
C
102
}
330
C
100
AcDbDictionary
281
     1
  0
DICTIONARY
  5
1A
102
{ACAD_REACTORS
330
C
102
}
330
C
100
AcDbDictionary
281
     1
  3
Layout1
350
1E
  3
Layout2
350
26
  3
Model
350
22
  0
DICTIONARY
  5
11B
102
{ACAD_REACTORS
330
C
102
}
330
C
100
AcDbDictionary
281
     1
  0
DICTIONARY
  5
17
102
{ACAD_REACTORS
330
C
102
}
330
C
100
AcDbDictionary
281
     1
  3
Standard
350
18
  0
DICTIONARY
  5
19
102
{ACAD_REACTORS
330
C
102
}
330
C
100
AcDbDictionary
281
     1
  0
ACDBDICTIONARYWDFLT
  5
E
102
{ACAD_REACTORS
330
C
102
}
330
C
100
AcDbDictionary
281
     1
  3
Normal
350
F
100
AcDbDictionaryWithDefault
340
F
  0
DICTIONARY
  5
11A
102
{ACAD_REACTORS
330
C
102
}
330
C
100
AcDbDictionary
281
     1
  0
DICTIONARY
  5
2A
102
{ACAD_REACTORS
330
C
102
}
330
C
100
AcDbDictionary
281
     1
  3
2dWireframe
350
2F
  3
3D Hidden
350
31
  3
3dWireframe
350
30
  3
Basic
350
32
  3
Brighten
350
36
  3
ColorChange
350
3A
  3
Conceptual
350
34
  3
Dim
350
35
  3
Facepattern
350
39
  3
Flat
350
2B
  3
FlatWithEdges
350
2C
  3
Gouraud
350
2D
  3
GouraudWithEdges
350
2E
  3
Linepattern
350
38
  3
Realistic
350
33
  3
Thicken
350
37
  0
LAYOUT
  5
1E
102
{ACAD_REACTORS
330
1A
102
}
330
1A
100
AcDbPlotSettings
  1

  2
none_device
  4

  6

 40
0.0
 41
0.0
 42
0.0
 43
0.0
 44
0.0
 45
0.0
 46
0.0
 47
0.0
 48
0.0
 49
0.0
140
0.0
141
0.0
142
1.0
143
1.0
 70
   688
 72
     0
 73
     0
 74
     5
  7

 75
    16
 76
     0
 77
     2
 78
   300
147
1.0
148
0.0
149
0.0
100
AcDbLayout
  1
Layout1
 70
     1
 71
     1
 10
0.0
 20
0.0
 11
12.0
 21
9.0
 12
0.0
 22
0.0
 32
0.0
 14
1.000000000000000E+20
 24
1.000000000000000E+20
 34
1.000000000000000E+20
 15
-1.000000000000000E+20
 25
-1.000000000000000E+20
 35
-1.000000000000000E+20
146
0.0
 13
0.0
 23
0.0
 33
0.0
 16
1.0
 26
0.0
 36
0.0
 17
0.0
 27
1.0
 37
0.0
 76
     0
330
1B
  0
LAYOUT
  5
26
102
{ACAD_REACTORS
330
1A
102
}
330
1A
100
AcDbPlotSettings
  1

  2
none_device
  4

  6

 40
0.0
 41
0.0
 42
0.0
 43
0.0
 44
0.0
 45
0.0
 46
0.0
 47
0.0
 48
0.0
 49
0.0
140
0.0
141
0.0
142
1.0
143
1.0
 70
   688
 72
     0
 73
     0
 74
     5
  7

 75
    16
 76
     0
 77
     2
 78
   300
147
1.0
148
0.0
149
0.0
100
AcDbLayout
  1
Layout2
 70
     1
 71
     2
 10
0.0
 20
0.0
 11
0.0
 21
0.0
 12
0.0
 22
0.0
 32
0.0
 14
0.0
 24
0.0
 34
0.0
 15
0.0
 25
0.0
 35
0.0
146
0.0
 13
0.0
 23
0.0
 33
0.0
 16
1.0
 26
0.0
 36
0.0
 17
0.0
 27
1.0
 37
0.0
 76
     0
330
23
  0
LAYOUT
  5
22
102
{ACAD_REACTORS
330
1A
102
}
330
1A
100
AcDbPlotSettings
  1

  2
none_device
  4

  6

 40
0.0
 41
0.0
 42
0.0
 43
0.0
 44
0.0
 45
0.0
 46
0.0
 47
0.0
 48
0.0
 49
0.0
140
0.0
141
0.0
142
1.0
143
1.0
 70
  1712
 72
     0
 73
     0
 74
     0
  7

 75
     0
 76
     0
 77
     2
 78
   300
147
1.0
148
0.0
149
0.0
100
AcDbLayout
  1
Model
 70
     1
 71
     0
 10
0.0
 20
0.0
 11
12.0
 21
9.0
 12
0.0
 22
0.0
 32
0.0
 14
-42.0
 24
-0.0000000000000012
 34
0.0
 15
94.88726963200001
 25
92.9261491351
 35
0.0
146
0.0
 13
0.0
 23
0.0
 33
0.0
 16
1.0
 26
0.0
 36
0.0
 17
0.0
 27
1.0
 37
0.0
 76
     0
330
1F
331
29
  0
MLINESTYLE
  5
18
102
{ACAD_REACTORS
330
17
102
}
330
17
100
AcDbMlineStyle
  2
Standard
 70
     0
  3

 62
   256
 51
90.0
 52
90.0
 71
     2
 49
0.5
 62
   256
  6
BYLAYER
 49
-0.5
 62
   256
  6
BYLAYER
  0
ACDBPLACEHOLDER
  5
F
102
{ACAD_REACTORS
330
E
102
}
330
E
  0
VISUALSTYLE
  5
2F
102
{ACAD_REACTORS
330
2A
102
}
330
2A
100
AcDbVisualStyle
  2
2dWireframe
 70
     4
 71
     0
 72
     2
 73
     0
 90
        0
 40
-0.6
 41
-30.0
 62
     5
 63
     7
421
 16777215
 74
     1
 91
        4
 64
     7
 65
   257
 75
     1
175
     1
 42
1.0
 92
        0
 66
   257
 43
1.0
 76
     1
 77
     6
 78
     2
 67
     7
 79
     5
170
     0
171
     0
290
     0
174
     0
 93
        1
 44
0.0
173
     0
291
     0
 45
0.0
1001
ACAD
1000
AcDbSavedByObjectVersion
1070
     0
  0
VISUALSTYLE
  5
31
102
{ACAD_REACTORS
330
2A
102
}
330
2A
100
AcDbVisualStyle
  2
3D Hidden
 70
     6
 71
     1
 72
     2
 73
     2
 90
        0
 40
-0.6
 41
-30.0
 62
     5
 63
     7
421
 16777215
 74
     2
 91
        2
 64
     7
 65
   257
 75
     2
175
     1
 42
40.0
 92
        0
 66
   257
 43
1.0
 76
     1
 77
     6
 78
     2
 67
     7
 79
     3
170
     0
171
     0
290
     0
174
     0
 93
        1
 44
0.0
173
     0
291
     0
 45
0.0
1001
ACAD
1000
AcDbSavedByObjectVersion
1070
     0
  0
VISUALSTYLE
  5
30
102
{ACAD_REACTORS
330
2A
102
}
330
2A
100
AcDbVisualStyle
  2
3dWireframe
 70
     5
 71
     0
 72
     2
 73
     0
 90
        0
 40
-0.6
 41
-30.0
 62
     5
 63
     7
421
 16777215
 74
     1
 91
        4
 64
     7
 65
   257
 75
     1
175
     1
 42
1.0
 92
        0
 66
   257
 43
1.0
 76
     1
 77
     6
 78
     2
 67
     7
 79
     5
170
     0
171
     0
290
     0
174
     0
 93
        1
 44
0.0
173
     0
291
     0
 45
0.0
1001
ACAD
1000
AcDbSavedByObjectVersion
1070
     0
  0
VISUALSTYLE
  5
32
102
{ACAD_REACTORS
330
2A
102
}
330
2A
100
AcDbVisualStyle
  2
Basic
 70
     7
 71
     1
 72
     0
 73
     1
 90
        0
 40
-0.6
 41
-30.0
 62
     5
 63
     7
421
 16777215
 74
     0
 91
        4
 64
     7
 65
   257
 75
     1
175
     1
 42
1.0
 92
        8
 66
     7
 43
1.0
 76
     1
 77
     6
 78
     2
 67
     7
 79
     5
170
     0
171
     0
290
     0
174
     0
 93
        1
 44
0.0
173
     0
291
     1
 45
0.0
1001
ACAD
1000
AcDbSavedByObjectVersion
1070
     0
  0
VISUALSTYLE
  5
36
102
{ACAD_REACTORS
330
2A
102
}
330
2A
100
AcDbVisualStyle
  2
Brighten
 70
    12
 71
     2
 72
     2
 73
     0
 90
        0
 40
-0.6
 41
-30.0
 62
     5
 63
     7
421
 16777215
 74
     1
 91
        4
 64
     7
 65
   257
 75
     1
175
     1
 42
1.0
 92
        8
 66
     7
 43
1.0
 76
     1
 77
     6
 78
     2
 67
     7
 79
     5
170
     0
171
     0
290
     0
174
     0
 93
        1
 44
50.0
173
     0
291
     1
 45
0.0
1001
ACAD
1000
AcDbSavedByObjectVersion
1070
     0
  0
VISUALSTYLE
  5
3A
102
{ACAD_REACTORS
330
2A
102
}
330
2A
100
AcDbVisualStyle
  2
ColorChange
 70
    16
 71
     2
 72
     2
 73
     3
 90
        0
 40
-0.6
 41
-30.0
 62
     5
 63
     8
421
  8421504
 74
     1
 91
        4
 64
     7
 65
   257
 75
     1
175
     1
 42
1.0
 92
        8
 66
     8
424
  8421504
 43
1.0
 76
     1
 77
     6
 78
     2
 67
     7
 79
     5
170
     0
171
     0
290
     0
174
     0
 93
        1
 44
0.0
173
     0
291
     1
 45
0.0
1001
ACAD
1000
AcDbSavedByObjectVersion
1070
     0
  0
VISUALSTYLE
  5
34
102
{ACAD_REACTORS
330
2A
102
}
330
2A
100
AcDbVisualStyle
  2
Conceptual
 70
     9
 71
     3
 72
     2
 73
     0
 90
        0
 40
-0.6
 41
-30.0
 62
     5
 63
     7
421
 16777215
 74
     2
 91
        2
 64
     7
 65
   257
 75
     1
175
     1
 42
40.0
 92
        8
 66
     7
 43
1.0
 76
     1
 77
     6
 78
     2
 67
     7
 79
     3
170
     0
171
     0
290
     0
174
     0
 93
        1
 44
0.0
173
     0
291
     0
 45
0.0
1001
ACAD
1000
AcDbSavedByObjectVersion
1070
     0
  0
VISUALSTYLE
  5
35
102
{ACAD_REACTORS
330
2A
102
}
330
2A
100
AcDbVisualStyle
  2
Dim
 70
    11
 71
     2
 72
     2
 73
     0
 90
        0
 40
-0.6
 41
-30.0
 62
     5
 63
     7
421
 16777215
 74
     1
 91
        4
 64
     7
 65
   257
 75
     1
175
     1
 42
1.0
 92
        8
 66
     7
 43
1.0
 76
     1
 77
     6
 78
     2
 67
     7
 79
     5
170
     0
171
     0
290
     0
174
     0
 93
        1
 44
-50.0
173
     0
291
     1
 45
0.0
1001
ACAD
1000
AcDbSavedByObjectVersion
1070
     0
  0
VISUALSTYLE
  5
39
102
{ACAD_REACTORS
330
2A
102
}
330
2A
100
AcDbVisualStyle
  2
Facepattern
 70
    15
 71
     2
 72
     2
 73
     0
 90
        0
 40
-0.6
 41
-30.0
 62
     5
 63
     7
421
 16777215
 74
     1
 91
        4
 64
     7
 65
   257
 75
     1
175
     1
 42
1.0
 92
        8
 66
     7
 43
1.0
 76
     1
 77
     6
 78
     2
 67
     7
 79
     5
170
     0
171
     0
290
     0
174
     0
 93
        1
 44
0.0
173
     0
291
     1
 45
0.0
1001
ACAD
1000
AcDbSavedByObjectVersion
1070
     0
  0
VISUALSTYLE
  5
2B
102
{ACAD_REACTORS
330
2A
102
}
330
2A
100
AcDbVisualStyle
  2
Flat
 70
     0
 71
     2
 72
     1
 73
     1
 90
        2
 40
-0.6
 41
30.0
 62
     5
 63
     7
421
 16777215
 74
     0
 91
        4
 64
     7
 65
   257
 75
     1
175
     1
 42
1.0
 92
        8
 66
     7
 43
1.0
 76
     1
 77
     6
 78
     2
 67
     7
 79
     5
170
     0
171
     0
290
     0
174
     0
 93
       13
 44
0.0
173
     0
291
     1
 45
0.0
1001
ACAD
1000
AcDbSavedByObjectVersion
1070
     0
  0
VISUALSTYLE
  5
2C
102
{ACAD_REACTORS
330
2A
102
}
330
2A
100
AcDbVisualStyle
  2
FlatWithEdges
 70
     1
 71
     2
 72
     1
 73
     1
 90
        2
 40
-0.6
 41
30.0
 62
     5
 63
     7
421
 16777215
 74
     1
 91
        4
 64
     7
 65
   257
 75
     1
175
     1
 42
1.0
 92
        0
 66
   257
 43
1.0
 76
     1
 77
     6
 78
     2
 67
     7
 79
     5
170
     0
171
     0
290
     0
174
     0
 93
       13
 44
0.0
173
     0
291
     1
 45
0.0
1001
ACAD
1000
AcDbSavedByObjectVersion
1070
     0
  0
VISUALSTYLE
  5
2D
102
{ACAD_REACTORS
330
2A
102
}
330
2A
100
AcDbVisualStyle
  2
Gouraud
 70
     2
 71
     2
 72
     2
 73
     1
 90
        2
 40
-0.6
 41
30.0
 62
     5
 63
     7
421
 16777215
 74
     0
 91
        4
 64
     7
 65
   257
 75
     1
175
     1
 42
1.0
 92
        0
 66
     7
 43
1.0
 76
     1
 77
     6
 78
     2
 67
     7
 79
     5
170
     0
171
     0
290
     0
174
     0
 93
       13
 44
0.0
173
     0
291
     1
 45
0.0
1001
ACAD
1000
AcDbSavedByObjectVersion
1070
     0
  0
VISUALSTYLE
  5
2E
102
{ACAD_REACTORS
330
2A
102
}
330
2A
100
AcDbVisualStyle
  2
GouraudWithEdges
 70
     3
 71
     2
 72
     2
 73
     1
 90
        2
 40
-0.6
 41
30.0
 62
     5
 63
     7
421
 16777215
 74
     1
 91
        4
 64
     7
 65
   257
 75
     1
175
     1
 42
1.0
 92
        0
 66
   257
 43
1.0
 76
     1
 77
     6
 78
     2
 67
     7
 79
     5
170
     0
171
     0
290
     0
174
     0
 93
       13
 44
0.0
173
     0
291
     1
 45
0.0
1001
ACAD
1000
AcDbSavedByObjectVersion
1070
     0
  0
VISUALSTYLE
  5
38
102
{ACAD_REACTORS
330
2A
102
}
330
2A
100
AcDbVisualStyle
  2
Linepattern
 70
    14
 71
     2
 72
     2
 73
     0
 90
        0
 40
-0.6
 41
-30.0
 62
     5
 63
     7
421
 16777215
 74
     1
 91
        4
 64
     7
 65
   257
 75
     7
175
     7
 42
1.0
 92
        8
 66
     7
 43
1.0
 76
     1
 77
     6
 78
     2
 67
     7
 79
     5
170
     0
171
     0
290
     0
174
     0
 93
        1
 44
0.0
173
     0
291
     1
 45
0.0
1001
ACAD
1000
AcDbSavedByObjectVersion
1070
     0
  0
VISUALSTYLE
  5
33
102
{ACAD_REACTORS
330
2A
102
}
330
2A
100
AcDbVisualStyle
  2
Realistic
 70
     8
 71
     2
 72
     2
 73
     0
 90
        0
 40
-0.6
 41
-30.0
 62
     5
 63
     7
421
 16777215
 74
     1
 91
        0
 64
     7
 65
   257
 75
     1
175
     1
 42
1.0
 92
        8
 66
     8
424
  7895160
 43
1.0
 76
     1
 77
     6
 78
     2
 67
     7
 79
     5
170
     0
171
     0
290
     0
174
     0
 93
       13
 44
0.0
173
     0
291
     0
 45
0.0
1001
ACAD
1000
AcDbSavedByObjectVersion
1070
     0
  0
VISUALSTYLE
  5
37
102
{ACAD_REACTORS
330
2A
102
}
330
2A
100
AcDbVisualStyle
  2
Thicken
 70
    13
 71
     2
 72
     2
 73
     0
 90
        0
 40
-0.6
 41
-30.0
 62
     5
 63
     7
421
 16777215
 74
     1
 91
        4
 64
     7
 65
   257
 75
     1
175
     1
 42
1.0
 92
       12
 66
     7
 43
1.0
 76
     1
 77
     6
 78
     2
 67
     7
 79
     5
170
     0
171
     0
290
     0
174
     0
 93
        1
 44
0.0
173
     0
291
     1
 45
0.0
1001
ACAD
1000
AcDbSavedByObjectVersion
1070
     0
  0
ENDSEC
  0
EOF
