  0
SECTION
  2
HEADER
  9
$ACADVER
  1
AC1027
  9
$ACADMAINTVER
 70
   105
  9
$DWGCODEPAGE
  3
ANSI_1252
  9
$LASTSAVEDBY
  1
Sandra
  9
$REQUIREDVERSIONS
160
                 0
  9
$INSBASE
 10
0.0
 20
0.0
 30
0.0
  9
$EXTMIN
 10
-1597.591603695912
 20
-1597.591603695912
 30
410.4821166992187
  9
$EXTMAX
 10
1597.591603695912
 20
1597.591603695912
 30
679.8884514435696
  9
$LIMMIN
 10
0.0
 20
0.0
  9
$LIMMAX
 10
12.0
 20
9.0
  9
$ORTHOMODE
 70
     1
  9
$REGENMODE
 70
     1
  9
$FILLMODE
 70
     1
  9
$QTEXTMODE
 70
     0
  9
$MIRRTEXT
 70
     1
  9
$LTSCALE
 40
1.0
  9
$ATTMODE
 70
     1
  9
$TEXTSIZE
 40
0.2
  9
$TRACEWID
 40
0.05
  9
$TEXTSTYLE
  7
Standard
  9
$CLAYER
  8
Default
  9
$CELTYPE
  6
ByLayer
  9
$CECOLOR
 62
   256
  9
$CELTSCALE
 40
1.0
  9
$DISPSILH
 70
     0
  9
$DIMSCALE
 40
1.0
  9
$DIMASZ
 40
0.18
  9
$DIMEXO
 40
0.0625
  9
$DIMDLI
 40
0.38
  9
$DIMRND
 40
0.0
  9
$DIMDLE
 40
0.0
  9
$DIMEXE
 40
0.18
  9
$DIMTP
 40
0.0
  9
$DIMTM
 40
0.0
  9
$DIMTXT
 40
0.18
  9
$DIMCEN
 40
0.09
  9
$DIMTSZ
 40
0.0
  9
$DIMTOL
 70
     0
  9
$DIMLIM
 70
     0
  9
$DIMTIH
 70
     1
  9
$DIMTOH
 70
     1
  9
$DIMSE1
 70
     0
  9
$DIMSE2
 70
     0
  9
$DIMTAD
 70
     0
  9
$DIMZIN
 70
     0
  9
$DIMBLK
  1

  9
$DIMASO
 70
     1
  9
$DIMSHO
 70
     1
  9
$DIMPOST
  1

  9
$DIMAPOST
  1

  9
$DIMALT
 70
     0
  9
$DIMALTD
 70
     2
  9
$DIMALTF
 40
25.4
  9
$DIMLFAC
 40
1.0
  9
$DIMTOFL
 70
     0
  9
$DIMTVP
 40
0.0
  9
$DIMTIX
 70
     0
  9
$DIMSOXD
 70
     0
  9
$DIMSAH
 70
     0
  9
$DIMBLK1
  1

  9
$DIMBLK2
  1

  9
$DIMSTYLE
  2
Standard
  9
$DIMCLRD
 70
     0
  9
$DIMCLRE
 70
     0
  9
$DIMCLRT
 70
     0
  9
$DIMTFAC
 40
1.0
  9
$DIMGAP
 40
0.09
  9
$DIMJUST
 70
     0
  9
$DIMSD1
 70
     0
  9
$DIMSD2
 70
     0
  9
$DIMTOLJ
 70
     1
  9
$DIMTZIN
 70
     0
  9
$DIMALTZ
 70
     0
  9
$DIMALTTZ
 70
     0
  9
$DIMUPT
 70
     0
  9
$DIMDEC
 70
     4
  9
$DIMTDEC
 70
     4
  9
$DIMALTU
 70
     2
  9
$DIMALTTD
 70
     2
  9
$DIMTXSTY
  7
Standard
  9
$DIMAUNIT
 70
     0
  9
$DIMADEC
 70
     0
  9
$DIMALTRND
 40
0.0
  9
$DIMAZIN
 70
     0
  9
$DIMDSEP
 70
    46
  9
$DIMATFIT
 70
     3
  9
$DIMFRAC
 70
     0
  9
$DIMLDRBLK
  1

  9
$DIMLUNIT
 70
     2
  9
$DIMLWD
 70
    -2
  9
$DIMLWE
 70
    -2
  9
$DIMTMOVE
 70
     2
  9
$DIMFXL
 40
1.0
  9
$DIMFXLON
 70
     0
  9
$DIMJOGANG
 40
0.7853981633974483
  9
$DIMTFILL
 70
     0
  9
$DIMTFILLCLR
 70
     0
  9
$DIMARCSYM
 70
     0
  9
$DIMLTYPE
  6

  9
$DIMLTEX1
  6

  9
$DIMLTEX2
  6

  9
$DIMTXTDIRECTION
 70
     0
  9
$LUNITS
 70
     2
  9
$LUPREC
 70
     3
  9
$SKETCHINC
 40
0.1
  9
$FILLETRAD
 40
0.5
  9
$AUNITS
 70
     0
  9
$AUPREC
 70
     0
  9
$MENU
  1
.
  9
$ELEVATION
 40
0.0
  9
$PELEVATION
 40
0.0
  9
$THICKNESS
 40
0.0
  9
$LIMCHECK
 70
     0
  9
$CHAMFERA
 40
0.0
  9
$CHAMFERB
 40
0.0
  9
$CHAMFERC
 40
0.0
  9
$CHAMFERD
 40
0.0
  9
$SKPOLY
 70
     0
  9
$TDCREATE
 40
2456645.631200914
  9
$TDUCREATE
 40
2456645.797867581
  9
$TDUPDATE
 40
2457842.444551609
  9
$TDUUPDATE
 40
2457842.611218276
  9
$TDINDWG
 40
0.0138967245
  9
$TDUSRTIMER
 40
0.0138967245
  9
$USRTIMER
 70
     1
  9
$ANGBASE
 50
0.0
  9
$ANGDIR
 70
     0
  9
$PDMODE
 70
     0
  9
$PDSIZE
 40
0.0
  9
$PLINEWID
 40
0.0
  9
$SPLFRAME
 70
     0
  9
$SPLINETYPE
 70
     6
  9
$SPLINESEGS
 70
     8
  9
$HANDSEED
  5
8E8EC
  9
$SURFTAB1
 70
     6
  9
$SURFTAB2
 70
     6
  9
$SURFTYPE
 70
     6
  9
$SURFU
 70
     6
  9
$SURFV
 70
     6
  9
$UCSBASE
  2

  9
$UCSNAME
  2

  9
$UCSORG
 10
0.0
 20
0.0
 30
0.0
  9
$UCSXDIR
 10
1.0
 20
0.0
 30
0.0
  9
$UCSYDIR
 10
0.0
 20
1.0
 30
0.0
  9
$UCSORTHOREF
  2

  9
$UCSORTHOVIEW
 70
     0
  9
$UCSORGTOP
 10
0.0
 20
0.0
 30
0.0
  9
$UCSORGBOTTOM
 10
0.0
 20
0.0
 30
0.0
  9
$UCSORGLEFT
 10
0.0
 20
0.0
 30
0.0
  9
$UCSORGRIGHT
 10
0.0
 20
0.0
 30
0.0
  9
$UCSORGFRONT
 10
0.0
 20
0.0
 30
0.0
  9
$UCSORGBACK
 10
0.0
 20
0.0
 30
0.0
  9
$PUCSBASE
  2

  9
$PUCSNAME
  2

  9
$PUCSORG
 10
0.0
 20
0.0
 30
0.0
  9
$PUCSXDIR
 10
1.0
 20
0.0
 30
0.0
  9
$PUCSYDIR
 10
0.0
 20
1.0
 30
0.0
  9
$PUCSORTHOREF
  2

  9
$PUCSORTHOVIEW
 70
     0
  9
$PUCSORGTOP
 10
0.0
 20
0.0
 30
0.0
  9
$PUCSORGBOTTOM
 10
0.0
 20
0.0
 30
0.0
  9
$PUCSORGLEFT
 10
0.0
 20
0.0
 30
0.0
  9
$PUCSORGRIGHT
 10
0.0
 20
0.0
 30
0.0
  9
$PUCSORGFRONT
 10
0.0
 20
0.0
 30
0.0
  9
$PUCSORGBACK
 10
0.0
 20
0.0
 30
0.0
  9
$USERI1
 70
     0
  9
$USERI2
 70
     0
  9
$USERI3
 70
     0
  9
$USERI4
 70
     0
  9
$USERI5
 70
     0
  9
$USERR1
 40
0.0
  9
$USERR2
 40
0.0
  9
$USERR3
 40
0.0
  9
$USERR4
 40
0.0
  9
$USERR5
 40
0.0
  9
$WORLDVIEW
 70
     1
  9
$SHADEDGE
 70
     3
  9
$SHADEDIF
 70
    70
  9
$TILEMODE
 70
     1
  9
$MAXACTVP
 70
    64
  9
$PINSBASE
 10
0.0
 20
0.0
 30
0.0
  9
$PLIMCHECK
 70
     0
  9
$PEXTMIN
 10
1.000000000000000E+20
 20
1.000000000000000E+20
 30
1.000000000000000E+20
  9
$PEXTMAX
 10
-1.000000000000000E+20
 20
-1.000000000000000E+20
 30
-1.000000000000000E+20
  9
$PLIMMIN
 10
0.0
 20
0.0
  9
$PLIMMAX
 10
12.0
 20
9.0
  9
$UNITMODE
 70
     0
  9
$VISRETAIN
 70
     1
  9
$PLINEGEN
 70
     0
  9
$PSLTSCALE
 70
     1
  9
$TREEDEPTH
 70
  3020
  9
$CMLSTYLE
  2
Standard
  9
$CMLJUST
 70
     0
  9
$CMLSCALE
 40
1.0
  9
$PROXYGRAPHICS
 70
     1
  9
$MEASUREMENT
 70
     0
  9
$CELWEIGHT
370
    -1
  9
$ENDCAPS
280
     0
  9
$JOINSTYLE
280
     0
  9
$LWDISPLAY
290
     0
  9
$INSUNITS
 70
     4
  9
$HYPERLINKBASE
  1

  9
$STYLESHEET
  1

  9
$XEDIT
290
     1
  9
$CEPSNTYPE
380
     0
  9
$PSTYLEMODE
290
     1
  9
$FINGERPRINTGUID
  2
{FC8FAFDD-357F-438E-9EC2-F14C2B0D427C}
  9
$VERSIONGUID
  2
{BA651A61-D317-47B2-B256-7F9C1081B209}
  9
$EXTNAMES
290
     1
  9
$PSVPSCALE
 40
0.0
  9
$OLESTARTUP
290
     0
  9
$SORTENTS
280
   127
  9
$INDEXCTL
280
     0
  9
$HIDETEXT
280
     1
  9
$XCLIPFRAME
280
     0
  9
$HALOGAP
280
     0
  9
$OBSCOLOR
 70
   257
  9
$OBSLTYPE
280
     0
  9
$INTERSECTIONDISPLAY
280
     0
  9
$INTERSECTIONCOLOR
 70
   257
  9
$DIMASSOC
280
     2
  9
$PROJECTNAME
  1

  9
$CAMERADISPLAY
290
     0
  9
$LENSLENGTH
 40
50.0
  9
$CAMERAHEIGHT
 40
0.0
  9
$STEPSPERSEC
 40
2.0
  9
$STEPSIZE
 40
6.0
  9
$3DDWFPREC
 40
2.0
  9
$PSOLWIDTH
 40
0.25
  9
$PSOLHEIGHT
 40
4.0
  9
$LOFTANG1
 40
1.570796326794896
  9
$LOFTANG2
 40
1.570796326794896
  9
$LOFTMAG1
 40
0.0
  9
$LOFTMAG2
 40
0.0
  9
$LOFTPARAM
 70
     7
  9
$LOFTNORMALS
280
     1
  9
$LATITUDE
 40
37.795
  9
$LONGITUDE
 40
-122.394
  9
$NORTHDIRECTION
 40
0.0
  9
$TIMEZONE
 70
 -8000
  9
$LIGHTGLYPHDISPLAY
280
     1
  9
$TILEMODELIGHTSYNCH
280
     1
  9
$CMATERIAL
347
44
  9
$SOLIDHIST
280
     0
  9
$SHOWHIST
280
     1
  9
$DWFFRAME
280
     2
  9
$DGNFRAME
280
     0
  9
$REALWORLDSCALE
290
     1
  9
$INTERFERECOLOR
 62
     1
  9
$INTERFEREOBJVS
345
33
  9
$INTERFEREVPVS
346
30
  9
$CSHADOW
280
     0
  9
$SHADOWPLANELOCATION
 40
0.0
  0
ENDSEC
  0
SECTION
  2
CLASSES
  0
CLASS
  1
ACDBDICTIONARYWDFLT
  2
AcDbDictionaryWithDefault
  3
ObjectDBX Classes
 90
        0
 91
        1
280
     0
281
     0
  0
CLASS
  1
VISUALSTYLE
  2
AcDbVisualStyle
  3
ObjectDBX Classes
 90
     4095
 91
       26
280
     0
281
     0
  0
CLASS
  1
MATERIAL
  2
AcDbMaterial
  3
ObjectDBX Classes
 90
     1153
 91
        3
280
     0
281
     0
  0
CLASS
  1
SCALE
  2
AcDbScale
  3
ObjectDBX Classes
 90
     1153
 91
       33
280
     0
281
     0
  0
CLASS
  1
SUN
  2
AcDbSun
  3
SCENEOE
 90
     1153
 91
        1
280
     0
281
     0
  0
CLASS
  1
DICTIONARYVAR
  2
AcDbDictionaryVar
  3
ObjectDBX Classes
 90
        0
 91
        9
280
     0
281
     0
  0
CLASS
  1
TABLESTYLE
  2
AcDbTableStyle
  3
ObjectDBX Classes
 90
     4095
 91
        1
280
     0
281
     0
  0
CLASS
  1
MLEADERSTYLE
  2
AcDbMLeaderStyle
  3
ACDB_MLEADERSTYLE_CLASS
 90
     4095
 91
        1
280
     0
281
     0
  0
CLASS
  1
ACDBSECTIONVIEWSTYLE
  2
AcDbSectionViewStyle
  3
ObjectDBX Classes
 90
     1025
 91
        1
280
     0
281
     0
  0
CLASS
  1
ACDBDETAILVIEWSTYLE
  2
AcDbDetailViewStyle
  3
ObjectDBX Classes
 90
     1025
 91
        1
280
     0
281
     0
  0
CLASS
  1
SOLID_BACKGROUND
  2
AcDbSolidBackground
  3
SCENEOE
 90
     4095
 91
        0
280
     0
281
     0
  0
CLASS
  1
NPOCOLLECTION
  2
AcDbImpNonPersistentObjectsCollection
  3
ObjectDBX Classes
 90
     1153
 91
        0
280
     0
281
     0
  0
CLASS
  1
SORTENTSTABLE
  2
AcDbSortentsTable
  3
ObjectDBX Classes
 90
        0
 91
        1
280
     0
281
     0
  0
CLASS
  1
CELLSTYLEMAP
  2
AcDbCellStyleMap
  3
ObjectDBX Classes
 90
     1152
 91
        1
280
     0
281
     0
  0
ENDSEC
  0
SECTION
  2
TABLES
  0
TABLE
  2
VPORT
  5
8
102
{ACAD_XDICTIONARY
360
8E5FF
102
}
330
0
100
AcDbSymbolTable
 70
     1
  0
VPORT
  5
29
330
8
100
AcDbSymbolTableRecord
100
AcDbViewportTableRecord
  2
*Active
 70
     0
 10
0.0
 20
0.0
 11
1.0
 21
1.0
 12
-1519.95546549778
 22
1071.212982403652
 13
0.0
 23
0.0
 14
0.5
 24
0.5
 15
0.5
 25
0.5
 16
-0.0000000000052296
 26
0.0
 36
23549.13477679686
 17
1427.278841683776
 27
-660.6413507085122
 37
428.3468627929687
 40
3446.122905851647
 41
2.334549878345498
 42
50.0
 43
0.0
 44
0.0
 50
0.0
 51
0.0
 71
     0
 72
   100
 73
     1
 74
     3
 75
     0
 76
     0
 77
     0
 78
     0
281
     0
 65
     1
110
0.0
120
0.0
130
0.0
111
1.0
121
0.0
131
0.0
112
0.0
122
1.0
132
0.0
 79
     0
146
0.0
348
2F
 60
     3
 61
     5
292
     1
282
     1
141
0.0
142
0.0
 63
   250
421
  3355443
361
69
1001
ACAD_NAV_VCDISPLAY
1070
     3
  0
ENDTAB
  0
TABLE
  2
LTYPE
  5
5
330
0
100
AcDbSymbolTable
 70
     1
  0
LTYPE
  5
14
330
5
100
AcDbSymbolTableRecord
100
AcDbLinetypeTableRecord
  2
ByBlock
 70
     0
  3

 72
    65
 73
     0
 40
0.0
  0
LTYPE
  5
15
330
5
100
AcDbSymbolTableRecord
100
AcDbLinetypeTableRecord
  2
ByLayer
 70
     0
  3

 72
    65
 73
     0
 40
0.0
  0
LTYPE
  5
16
330
5
100
AcDbSymbolTableRecord
100
AcDbLinetypeTableRecord
  2
Continuous
 70
     0
  3
Solid line
 72
    65
 73
     0
 40
0.0
  0
ENDTAB
  0
TABLE
  2
LAYER
  5
2
102
{ACAD_XDICTIONARY
360
8E64F
102
}
330
0
100
AcDbSymbolTable
 70
     2
  0
LAYER
  5
10
102
{ACAD_XDICTIONARY
360
8E648
102
}
330
2
100
AcDbSymbolTableRecord
100
AcDbLayerTableRecord
  2
0
 70
     0
 62
     7
  6
Continuous
370
    -3
390
F
347
46
348
0
  0
LAYER
  5
6A
102
{ACAD_XDICTIONARY
360
8E64A
102
}
330
2
100
AcDbSymbolTableRecord
100
AcDbLayerTableRecord
  2
Default
 70
     0
 62
     7
  6
Continuous
370
    -3
390
F
347
46
348
0
  0
ENDTAB
  0
TABLE
  2
STYLE
  5
3
330
0
100
AcDbSymbolTable
 70
     1
  0
STYLE
  5
11
330
3
100
AcDbSymbolTableRecord
100
AcDbTextStyleTableRecord
  2
Standard
 70
     0
 40
0.0
 41
1.0
 50
0.0
 71
     0
 42
0.2
  3
txt
  4

  0
ENDTAB
  0
TABLE
  2
VIEW
  5
6
330
0
100
AcDbSymbolTable
 70
     0
  0
ENDTAB
  0
TABLE
  2
UCS
  5
7
330
0
100
AcDbSymbolTable
 70
     0
  0
ENDTAB
  0
TABLE
  2
APPID
  5
9
330
0
100
AcDbSymbolTable
 70
     3
  0
APPID
  5
12
330
9
100
AcDbSymbolTableRecord
100
AcDbRegAppTableRecord
  2
ACAD
 70
     0
  0
APPID
  5
8E655
330
9
100
AcDbSymbolTableRecord
100
AcDbRegAppTableRecord
  2
ACAD_NAV_VCDISPLAY
 70
     0
  0
APPID
  5
8E8BE
330
9
100
AcDbSymbolTableRecord
100
AcDbRegAppTableRecord
  2
ACAD_EXEMPT_FROM_CAD_STANDARDS
 70
     0
  0
ENDTAB
  0
TABLE
  2
DIMSTYLE
  5
A
330
0
100
AcDbSymbolTable
 70
     1
100
AcDbDimStyleTable
 71
     1
340
27
  0
DIMSTYLE
105
27
330
A
100
AcDbSymbolTableRecord
100
AcDbDimStyleTableRecord
  2
Standard
 70
     0
340
11
  0
ENDTAB
  0
TABLE
  2
BLOCK_RECORD
  5
1
330
0
100
AcDbSymbolTable
 70
     1
  0
BLOCK_RECORD
  5
1F
102
{ACAD_XDICTIONARY
360
8E7A5
102
}
330
1
100
AcDbSymbolTableRecord
100
AcDbBlockTableRecord
  2
*Model_Space
340
22
 70
     0
280
     1
281
     0
  0
BLOCK_RECORD
  5
1B
330
1
100
AcDbSymbolTableRecord
100
AcDbBlockTableRecord
  2
*Paper_Space
340
1E
 70
     0
280
     1
281
     0
  0
BLOCK_RECORD
  5
23
330
1
100
AcDbSymbolTableRecord
100
AcDbBlockTableRecord
  2
*Paper_Space0
340
26
 70
     0
280
     1
281
     0
  0
ENDTAB
  0
ENDSEC
  0
SECTION
  2
BLOCKS
  0
BLOCK
  5
20
330
1F
100
AcDbEntity
  8
0
100
AcDbBlockBegin
  2
*Model_Space
 70
     0
 10
0.0
 20
0.0
 30
0.0
  3
*Model_Space
  1

  0
ENDBLK
  5
21
330
1F
100
AcDbEntity
  8
0
100
AcDbBlockEnd
  0
BLOCK
  5
1C
330
1B
100
AcDbEntity
 67
     1
  8
0
100
AcDbBlockBegin
  2
*Paper_Space
 70
     0
 10
0.0
 20
0.0
 30
0.0
  3
*Paper_Space
  1

  0
ENDBLK
  5
1D
330
1B
100
AcDbEntity
 67
     1
  8
0
100
AcDbBlockEnd
  0
BLOCK
  5
24
330
23
100
AcDbEntity
 67
     1
  8
0
100
AcDbBlockBegin
  2
*Paper_Space0
 70
     0
 10
0.0
 20
0.0
 30
0.0
  3
*Paper_Space0
  1

  0
ENDBLK
  5
25
330
23
100
AcDbEntity
 67
     1
  8
0
100
AcDbBlockEnd
  0
ENDSEC
  0
SECTION
  2
ENTITIES
  0
SPLINE
  5
8E781
330
1F
100
AcDbEntity
  8
Default
100
AcDbSpline
210
0.0
220
0.0
230
1.0
 70
     8
 71
     3
 72
    24
 73
    20
 74
     0
 42
0.000000001
 43
0.0000000001
 40
-17.0
 40
-17.0
 40
-17.0
 40
-17.0
 40
-15.99999999439031
 40
-14.99999998878062
 40
-13.99999998317094
 40
-12.99999997756125
 40
-11.99999997195156
 40
-10.99999996634187
 40
-9.999999960732184
 40
-8.999999955122495
 40
-7.999999949512806
 40
-6.999999943903119
 40
-5.999999938293429
 40
-4.999999932683743
 40
-3.999999927074055
 40
-2.999999921464366
 40
-1.999999915854678
 40
-0.9999999102449903
 40
0.0
 40
0.0
 40
0.0
 40
0.0
 10
-617.0762535575691
 20
957.5585638186007
 30
410.4821166992187
 10
-630.2009774007747
 20
967.5136349542411
 30
410.4821166992187
 10
-654.6397497624734
 20
989.8348461023045
 30
410.4821166992187
 10
-684.2476105384812
 20
1029.679742585098
 30
410.4821166992187
 10
-706.0369735368994
 20
1074.265268112435
 30
410.4821166992187
 10
-719.9009235248909
 20
1121.845186352069
 30
410.4821166992187
 10
-726.8376761091886
 20
1170.934565409795
 30
410.4821166992187
 10
-726.604657043169
 20
1220.389858127558
 30
410.4821166992187
 10
-725.9992678897406
 20
1269.851065135132
 30
410.4821166992187
 10
-719.6632603514376
 20
1318.908539233271
 30
410.4821166992187
 10
-709.8607951937492
 20
1367.387800465959
 30
410.4821166992187
 10
-695.8234622580375
 20
1414.822565368843
 30
410.4821166992187
 10
-676.0983710200903
 20
1460.331981434311
 30
410.4821166992187
 10
-649.1598274798065
 20
1501.807812568903
 30
410.4821166992187
 10
-616.35029076713
 20
1539.435541422352
 30
410.4821166992187
 10
-573.3132030108822
 20
1564.747973220972
 30
410.4821166992187
 10
-525.1953400530233
 20
1577.29290041581
 30
410.4821166992187
 10
-476.2260766124213
 20
1584.048171821226
 30
410.4821166992187
 10
-443.2463398235568
 20
1585.215029333078
 30
410.4821166992187
 10
-426.7777662933253
 20
1585.21623807507
 30
410.4821166992187
  0
SPLINE
  5
8E782
330
1F
100
AcDbEntity
  8
Default
100
AcDbSpline
210
0.0
220
0.0
230
1.0
 70
     8
 71
     3
 72
    24
 73
    20
 74
     0
 42
0.000000001
 43
0.0000000001
 40
0.0
 40
0.0
 40
0.0
 40
0.0
 40
0.9999999102449903
 40
1.999999915854678
 40
2.999999921464366
 40
3.999999927074055
 40
4.999999932683743
 40
5.999999938293429
 40
6.999999943903119
 40
7.999999949512806
 40
8.999999955122495
 40
9.999999960732184
 40
10.99999996634187
 40
11.99999997195156
 40
12.99999997756125
 40
13.99999998317094
 40
14.99999998878062
 40
15.99999999439031
 40
17.0
 40
17.0
 40
17.0
 40
17.0
 10
-426.7777662933253
 20
1585.21623807507
 30
410.4821166992187
 10
-410.309192763094
 20
1585.215029333078
 30
410.4821166992187
 10
-377.3294559742294
 20
1584.048171821226
 30
410.4821166992187
 10
-328.3601925336275
 20
1577.29290041581
 30
410.4821166992187
 10
-280.2423295757685
 20
1564.747973220972
 30
410.4821166992187
 10
-237.2052418195208
 20
1539.435541422352
 30
410.4821166992187
 10
-204.3957051068442
 20
1501.807812568903
 30
410.4821166992187
 10
-177.4571615665604
 20
1460.331981434311
 30
410.4821166992187
 10
-157.7320703286132
 20
1414.822565368843
 30
410.4821166992187
 10
-143.6947373929015
 20
1367.387800465959
 30
410.4821166992187
 10
-133.8922722352131
 20
1318.908539233271
 30
410.4821166992187
 10
-127.5562646969101
 20
1269.851065135132
 30
410.4821166992187
 10
-126.9508755434817
 20
1220.389858127558
 30
410.4821166992187
 10
-126.7178564774622
 20
1170.934565409795
 30
410.4821166992187
 10
-133.6546090617598
 20
1121.845186352069
 30
410.4821166992187
 10
-147.5185590497513
 20
1074.265268112435
 30
410.4821166992187
 10
-169.3079220481695
 20
1029.679742585098
 30
410.4821166992187
 10
-198.9157828241773
 20
989.8348461023045
 30
410.4821166992187
 10
-223.354555185876
 20
967.5136349542411
 30
410.4821166992187
 10
-236.4851578486405
 20
957.5536409855569
 30
410.4821166992187
  0
SPLINE
  5
8E783
330
1F
100
AcDbEntity
  8
Default
100
AcDbSpline
210
0.0
220
0.0
230
1.0
 70
     8
 71
     3
 72
    12
 73
     8
 74
     0
 42
0.000000001
 43
0.0000000001
 40
0.0
 40
0.0
 40
0.0
 40
0.0
 40
1.932841302156171
 40
3.834618248229879
 40
8.022019597965389
 40
12.14534094516417
 40
15.98237434364643
 40
15.98237434364643
 40
15.98237434364643
 40
15.98237434364643
 10
-236.4851578486405
 20
957.5536409855569
 30
410.4821166992187
 10
-249.5685885368644
 20
947.6565373461742
 30
410.4821166992187
 10
-277.1403014124221
 20
930.4484668593076
 30
410.4821166992187
 10
-340.491076184283
 20
904.8422353226214
 30
410.4821166992187
 10
-427.0119628906249
 20
893.157470703125
 30
410.4821166992187
 10
-529.9837070920875
 20
907.2702048727274
 30
410.4821166992187
 10
-591.2261790978805
 20
937.8962200097809
 30
410.4821166992187
 10
-617.0762535575691
 20
957.5585638186007
 30
410.4821166992187
  0
SPLINE
  5
8E784
330
1F
100
AcDbEntity
  8
Default
100
AcDbSpline
210
0.0
220
0.0
230
1.0
 70
    12
 71
     2
 72
     6
 73
     3
 74
     0
 42
0.000000001
 43
0.0000000001
 40
0.0
 40
0.0
 40
0.0
 40
0.584707951152618
 40
0.584707951152618
 40
0.584707951152618
 10
-186.4149131668332
 20
1007.00893693149
 30
410.4821166992187
 41
1.0
 10
-181.8449441908196
 20
1012.864172572137
 30
410.4821166992187
 41
0.99964613597365
 10
-177.5928403937309
 20
1018.954165523531
 30
410.4821166992187
 41
1.0
  0
SPLINE
  5
8E785
330
1F
100
AcDbEntity
  8
Default
100
AcDbSpline
210
0.0
220
0.0
230
1.0
 70
     8
 71
     3
 72
    12
 73
     8
 74
     0
 42
0.000000001
 43
0.0000000001
 40
0.0
 40
0.0
 40
0.0
 40
0.0
 40
1.832654236483523
 40
3.669578742657731
 40
7.371880427553498
 40
11.11625269817009
 40
14.89017125028417
 40
14.89017125028417
 40
14.89017125028417
 40
14.89017125028417
 10
-671.252283443694
 20
1150.900656974472
 30
410.4821166992187
 10
-671.2533805361858
 20
1135.328640830534
 30
410.4821166992187
 10
-668.0637000776928
 20
1104.278458005232
 30
410.4821166992187
 10
-649.3800599027326
 20
1044.36961791792
 30
410.4821166992187
 10
-603.7441194680631
 20
978.4578489967648
 30
410.4821166992187
 10
-522.3841166894808
 20
925.9971708055321
 30
410.4821166992187
 10
-458.7303129582383
 20
913.7844683072408
 30
410.4821166992187
 10
-426.7777810627085
 20
913.7788745218825
 30
410.4821166992187
  0
SPLINE
  5
8E786
330
1F
100
AcDbEntity
  8
Default
100
AcDbSpline
210
0.0
220
0.0
230
1.0
 70
     8
 71
     3
 72
    12
 73
     8
 74
     0
 42
0.000000001
 43
0.0000000001
 40
0.0
 40
0.0
 40
0.0
 40
0.0
 40
1.889355098582429
 40
3.774519559296819
 40
7.516682166840942
 40
11.21816918271822
 40
14.89017237659326
 40
14.89017237659326
 40
14.89017237659326
 40
14.89017237659326
 10
-426.7777810627085
 20
913.7788745218825
 30
410.4821166992187
 10
-410.7825559259431
 20
913.7805958288968
 30
410.4821166992187
 10
-378.8230511865522
 20
916.8543368189608
 30
410.4821166992187
 10
-317.4803528542075
 20
934.8299253872481
 30
410.4821166992187
 10
-249.8373985417493
 20
978.4385241629435
 30
410.4821166992187
 10
-195.1764495419388
 20
1057.35181895995
 30
410.4821166992187
 10
-182.2947634658021
 20
1119.764583221318
 30
410.4821166992187
 10
-182.3030962149873
 20
1150.85840708585
 30
410.4821166992187
  0
SPLINE
  5
8E787
330
1F
100
AcDbEntity
  8
Default
100
AcDbSpline
210
0.0
220
0.0
230
1.0
 70
     8
 71
     3
 72
    12
 73
     8
 74
     0
 42
0.000000001
 43
0.0000000001
 40
-15.35241690788854
 40
-15.35241690788854
 40
-15.35241690788854
 40
-15.35241690788854
 40
-11.42846766997576
 40
-7.624449320975275
 40
-3.868777776849768
 40
-1.918305221211262
 40
0.0
 40
0.0
 40
0.0
 40
0.0
 10
-182.3030962149873
 20
1150.85840708585
 30
410.4821166992187
 10
-182.3025604389499
 20
1184.06593589664
 30
410.4821166992187
 10
-194.125411626178
 20
1249.64380916197
 30
410.4821166992187
 10
-247.5791971043459
 20
1333.202065134704
 30
410.4821166992187
 10
-315.648855981759
 20
1379.295606718483
 30
410.4821166992187
 10
-377.7754419016437
 20
1397.941366284211
 30
410.4821166992187
 10
-410.5376902644957
 20
1401.111547061771
 30
410.4821166992187
 10
-426.777767486983
 20
1401.098067641196
 30
410.4821166992187
  0
SPLINE
  5
8E788
330
1F
100
AcDbEntity
  8
Default
100
AcDbSpline
210
0.0
220
0.0
230
1.0
 70
     8
 71
     3
 72
    12
 73
     8
 74
     0
 42
0.000000001
 43
0.0000000001
 40
-15.34910739099933
 40
-15.34910739099933
 40
-15.34910739099933
 40
-15.34910739099933
 40
-11.58400586625319
 40
-7.773657509622682
 40
-3.936637318219009
 40
-1.971105179282631
 40
0.0
 40
0.0
 40
0.0
 40
0.0
 10
-426.777767486983
 20
1401.098067641196
 30
410.4821166992187
 10
-458.6400431298366
 20
1401.090353887857
 30
410.4821166992187
 10
-522.876435914246
 20
1389.023329321076
 30
410.4821166992187
 10
-605.0671396373095
 20
1334.361956452641
 30
410.4821166992187
 10
-650.0712569025463
 20
1264.538229919996
 30
410.4821166992187
 10
-668.2095216104653
 20
1200.980796411417
 30
410.4821166992187
 10
-671.2584772699901
 20
1167.63531297029
 30
410.4821166992187
 10
-671.252283443694
 20
1150.900656974472
 30
410.4821166992187
  0
SPLINE
  5
8E789
330
1F
100
AcDbEntity
  8
Default
100
AcDbSpline
210
0.0
220
0.0
230
1.0
 70
     8
 71
     3
 72
    24
 73
    20
 74
     0
 42
0.000000001
 43
0.0000000001
 40
-17.0
 40
-17.0
 40
-17.0
 40
-17.0
 40
-16.0
 40
-15.0
 40
-14.0
 40
-13.0
 40
-12.0
 40
-11.0
 40
-10.0
 40
-9.0
 40
-8.0
 40
-7.0
 40
-6.0
 40
-5.0
 40
-4.0
 40
-3.0
 40
-2.0
 40
-1.0
 40
0.0
 40
0.0
 40
0.0
 40
0.0
 10
-201.4753174234279
 20
989.1415831132087
 30
410.4821166992187
 10
-190.6823661303629
 20
1000.71956779577
 30
410.4821166992187
 10
-171.1826404238727
 20
1025.789069464054
 30
410.4821166992187
 10
-148.4243393629481
 20
1067.637990868219
 30
410.4821166992187
 10
-132.4077281942495
 20
1112.445620561241
 30
410.4821166992187
 10
-122.2715761020922
 20
1158.955181094699
 30
410.4821166992187
 10
-118.8891763970523
 20
1206.398978576192
 30
410.4821166992187
 10
-120.0559685098242
 20
1253.881078094825
 30
410.4821166992187
 10
-123.3562100118852
 20
1301.291198413015
 30
410.4821166992187
 10
-132.5785105928121
 20
1347.941719663445
 30
410.4821166992187
 10
-144.4331075381978
 20
1393.942724491557
 30
410.4821166992187
 10
-160.9968669270911
 20
1438.497753721436
 30
410.4821166992187
 10
-182.6068322360734
 20
1480.966389128833
 30
410.4821166992187
 10
-210.8677233285093
 20
1519.115891488637
 30
410.4821166992187
 10
-243.4704195904251
 20
1554.281182284635
 30
410.4821166992187
 10
-285.8740228856973
 20
1576.803048627988
 30
410.4821166992187
 10
-332.0924514006715
 20
1588.478960024853
 30
410.4821166992187
 10
-379.2894030652037
 20
1594.078302984302
 30
410.4821166992187
 10
-410.9535207317726
 20
1595.023967508202
 30
410.4821166992187
 10
-426.7777662933253
 20
1595.030480802978
 30
410.4821166992187
  0
SPLINE
  5
8E78A
330
1F
100
AcDbEntity
  8
Default
100
AcDbSpline
210
0.0
220
0.0
230
1.0
 70
     8
 71
     3
 72
    24
 73
    20
 74
     0
 42
0.000000001
 43
0.0000000001
 40
0.0
 40
0.0
 40
0.0
 40
0.0
 40
1.0
 40
2.0
 40
3.0
 40
4.0
 40
5.0
 40
6.0
 40
7.0
 40
8.0
 40
9.0
 40
10.0
 40
11.0
 40
12.0
 40
13.0
 40
14.0
 40
15.0
 40
16.0
 40
17.0
 40
17.0
 40
17.0
 40
17.0
 10
-426.7777662933253
 20
1595.030480802978
 30
410.4821166992187
 10
-442.6020118548781
 20
1595.023967508202
 30
410.4821166992187
 10
-474.266129521447
 20
1594.078302984302
 30
410.4821166992187
 10
-521.4630811859792
 20
1588.478960024853
 30
410.4821166992187
 10
-567.6815097009535
 20
1576.803048627988
 30
410.4821166992187
 10
-610.0851129962257
 20
1554.281182284635
 30
410.4821166992187
 10
-642.6878092581414
 20
1519.115891488637
 30
410.4821166992187
 10
-670.9487003505773
 20
1480.966389128833
 30
410.4821166992187
 10
-692.5586656595596
 20
1438.497753721436
 30
410.4821166992187
 10
-709.1224250484529
 20
1393.942724491557
 30
410.4821166992187
 10
-720.9770219938386
 20
1347.941719663445
 30
410.4821166992187
 10
-730.1993225747655
 20
1301.291198413015
 30
410.4821166992187
 10
-733.4995640768266
 20
1253.881078094825
 30
410.4821166992187
 10
-734.6663561895984
 20
1206.398978576192
 30
410.4821166992187
 10
-731.2839564845585
 20
1158.955181094699
 30
410.4821166992187
 10
-721.1478043924012
 20
1112.445620561241
 30
410.4821166992187
 10
-705.1311932237027
 20
1067.637990868219
 30
410.4821166992187
 10
-682.372892162778
 20
1025.789069464054
 30
410.4821166992187
 10
-662.8731664562878
 20
1000.71956779577
 30
410.4821166992187
 10
-652.0802151632229
 20
989.1415831132087
 30
410.4821166992187
  0
SPLINE
  5
8E78B
330
1F
100
AcDbEntity
  8
Default
100
AcDbSpline
210
0.0
220
0.0
230
1.0
 70
     8
 71
     3
 72
    11
 73
     7
 74
     0
 42
0.000000001
 43
0.0000000001
 40
-4.376489242092977
 40
-4.376489242092977
 40
-4.376489242092977
 40
-4.376489242092977
 40
-2.254729024945146
 40
-1.152264979760031
 40
-0.5805792687200016
 40
0.0
 40
0.0
 40
0.0
 40
0.0
 10
-316.7142775625834
 20
1584.369681939031
 30
410.4821166992187
 10
-334.0977037355251
 20
1588.906423648904
 30
410.4821166992187
 10
-360.9948186867623
 20
1593.915186543899
 30
410.4821166992187
 10
-393.0308111069985
 20
1596.671920212084
 30
410.4821166992187
 10
-412.1061082161473
 20
1597.463405365765
 30
410.4821166992187
 10
-421.8622306030178
 20
1597.59157307912
 30
410.4821166992187
 10
-426.7777662933253
 20
1597.591603695912
 30
410.4821166992187
  0
SPLINE
  5
8E78C
330
1F
100
AcDbEntity
  8
Default
100
AcDbSpline
210
0.0
220
0.0
230
1.0
 70
     8
 71
     3
 72
    11
 73
     7
 74
     0
 42
0.000000001
 43
0.0000000001
 40
0.0
 40
0.0
 40
0.0
 40
0.0
 40
0.5805792687200016
 40
1.152264979760031
 40
2.254729024945146
 40
4.376489242092977
 40
4.376489242092977
 40
4.376489242092977
 40
4.376489242092977
 10
-426.7777662933253
 20
1597.591603695912
 30
410.4821166992187
 10
-431.6933019836328
 20
1597.59157307912
 30
410.4821166992187
 10
-441.4494243705035
 20
1597.463405365765
 30
410.4821166992187
 10
-460.5247214796523
 20
1596.671920212084
 30
410.4821166992187
 10
-492.5607138998884
 20
1593.915186543899
 30
410.4821166992187
 10
-519.4578288511256
 20
1588.906423648904
 30
410.4821166992187
 10
-536.8412550240673
 20
1584.369681939031
 30
410.4821166992187
  0
SPLINE
  5
8E78D
330
1F
100
AcDbEntity
  8
Default
100
AcDbSpline
210
0.0
220
0.0
230
1.0
 70
     8
 71
     3
 72
    10
 73
     6
 74
     0
 42
0.000000001
 43
0.0000000001
 40
0.0
 40
0.0
 40
0.0
 40
0.0
 40
1.13000657183866
 40
2.287921106073678
 40
8.404575460652143
 40
8.404575460652143
 40
8.404575460652143
 40
8.404575460652143
 10
-142.6481673205185
 20
1149.045878495501
 30
410.4821166992187
 10
-144.2477774047806
 20
1139.614387326358
 30
410.4821166992187
 10
-148.3305187850028
 20
1120.656984108747
 30
410.4821166992187
 10
-158.9510578092367
 20
1085.139162650912
 30
410.4821166992187
 10
-177.2434275444771
 20
1044.234092440158
 30
410.4821166992187
 10
-217.3406018562532
 20
1001.879586991243
 30
410.4821166992187
  0
ARC
  5
8E78E
330
1F
100
AcDbEntity
  8
Default
100
AcDbCircle
 10
-374.9896730589735
 20
1151.12657314079
 30
410.4821166992187
 40
217.0895956184993
100
AcDbArc
 50
289.2352185728849
 51
316.5682306074215
  0
SPLINE
  5
8E78F
330
1F
100
AcDbEntity
  8
Default
100
AcDbSpline
210
0.0
220
0.0
230
1.0
 70
     8
 71
     3
 72
    10
 73
     6
 74
     0
 42
0.000000001
 43
0.0000000001
 40
0.0
 40
0.0
 40
0.0
 40
0.0
 40
1.13000657183866
 40
2.287921106073678
 40
8.404575460652143
 40
8.404575460652143
 40
8.404575460652143
 40
8.404575460652143
 10
-710.9073652661322
 20
1149.045878495501
 30
410.4821166992187
 10
-709.3077551818701
 20
1139.614387326358
 30
410.4821166992187
 10
-705.2250138016479
 20
1120.656984108747
 30
410.4821166992187
 10
-694.604474777414
 20
1085.139162650912
 30
410.4821166992187
 10
-676.3121050421736
 20
1044.234092440158
 30
410.4821166992187
 10
-636.2149307303975
 20
1001.879586991243
 30
410.4821166992187
  0
ARC
  5
8E790
330
1F
100
AcDbEntity
  8
Default
100
AcDbCircle
 10
-478.5658595276772
 20
1151.12657314079
 30
410.4821166992187
 40
217.0895956184993
100
AcDbArc
 50
223.4317693925785
 51
250.764781427115
  0
POLYLINE
  5
8E791
330
1F
100
AcDbEntity
  8
Default
100
AcDb2dPolyline
 66
     1
 10
0.0
 20
0.0
 30
410.4821166992187
  0
VERTEX
  5
8E792
330
8E791
100
AcDbEntity
  8
Default
100
AcDbVertex
100
AcDb2dVertex
 10
-194.0464449515902
 20
997.451360228305
 30
410.4821166992187
  0
VERTEX
  5
8E793
330
8E791
100
AcDbEntity
  8
Default
100
AcDbVertex
100
AcDb2dVertex
 10
-193.9292080733421
 20
997.2523315023277
 30
410.4821166992187
  0
SEQEND
  5
8E794
330
8E791
100
AcDbEntity
  8
Default
  0
SPLINE
  5
8E795
330
1F
100
AcDbEntity
  8
Default
100
AcDbSpline
210
0.0
220
0.0
230
1.0
 70
    12
 71
     2
 72
     8
 73
     5
 74
     0
 42
0.000000001
 43
0.0000000001
 40
0.0
 40
0.0
 40
0.0
 40
0.0657021758075414
 40
0.0657021758075414
 40
0.5513779496561005
 40
0.5513779496561005
 40
0.5513779496561005
 10
-193.9292080733421
 20
997.2523315023277
 30
410.4821166992187
 41
1.0
 10
-193.503885714586
 20
996.5300254299446
 30
410.4821166992187
 41
0.9938146782922427
 10
-193.24859371914
 20
995.7319857238728
 30
410.4821166992187
 41
1.0
 10
-190.9870272210623
 20
988.2627725919579
 30
410.4821166992187
 41
0.7132736251541142
 10
-198.4154748010164
 20
985.8707035321108
 30
410.4821166992187
 41
1.0
  0
SPLINE
  5
8E796
330
1F
100
AcDbEntity
  8
Default
100
AcDbSpline
210
0.0
220
0.0
230
1.0
 70
    12
 71
     2
 72
     6
 73
     3
 74
     0
 42
0.000000001
 43
0.0000000001
 40
0.0
 40
0.0
 40
0.0
 40
0.2409856468466241
 40
0.2409856468466241
 40
0.2409856468466241
 10
-198.4154748010164
 20
985.8707035321108
 30
410.4821166992187
 41
1.0
 10
-201.4850970022739
 20
984.806881672606
 30
410.4821166992187
 41
0.8709777826878488
 10
-204.3979309077786
 20
986.245525502551
 30
410.4821166992187
 41
0.8913391083513609
  0
POLYLINE
  5
8E797
330
1F
100
AcDbEntity
  8
Default
100
AcDb2dPolyline
 66
     1
 10
0.0
 20
0.0
 30
410.4821166992187
  0
VERTEX
  5
8E798
330
8E797
100
AcDbEntity
  8
Default
100
AcDbVertex
100
AcDb2dVertex
 10
-659.378453533348
 20
997.6731329266353
 30
410.4821166992187
  0
VERTEX
  5
8E799
330
8E797
100
AcDbEntity
  8
Default
100
AcDbVertex
100
AcDb2dVertex
 10
-659.5090876350605
 20
997.451360228305
 30
410.4821166992187
  0
SEQEND
  5
8E79A
330
8E797
100
AcDbEntity
  8
Default
  0
POLYLINE
  5
8E79B
330
1F
100
AcDbEntity
  8
Default
100
AcDb2dPolyline
 66
     1
 10
0.0
 20
0.0
 30
410.4821166992187
  0
VERTEX
  5
8E79C
330
8E79B
100
AcDbEntity
  8
Default
100
AcDbVertex
100
AcDb2dVertex
 10
-659.5090876350605
 20
997.451360228305
 30
410.4821166992187
  0
VERTEX
  5
8E79D
330
8E79B
100
AcDbEntity
  8
Default
100
AcDbVertex
100
AcDb2dVertex
 10
-659.6263245133086
 20
997.2523315023277
 30
410.4821166992187
  0
SEQEND
  5
8E79E
330
8E79B
100
AcDbEntity
  8
Default
  0
SPLINE
  5
8E79F
330
1F
100
AcDbEntity
  8
Default
100
AcDbSpline
210
0.0
220
0.0
230
1.0
 70
    12
 71
     2
 72
     8
 73
     5
 74
     0
 42
0.000000001
 43
0.0000000001
 40
0.0
 40
0.0
 40
0.0
 40
0.0657021758075414
 40
0.0657021758075414
 40
0.5513779496561005
 40
0.5513779496561005
 40
0.5513779496561005
 10
-659.6263245133086
 20
997.2523315023277
 30
410.4821166992187
 41
1.0
 10
-660.0516468720647
 20
996.5300254299446
 30
410.4821166992187
 41
0.9938146782922427
 10
-660.3069388675107
 20
995.7319857238728
 30
410.4821166992187
 41
1.0
 10
-662.5685053655879
 20
988.2627725919579
 30
410.4821166992187
 41
0.7132736251541142
 10
-655.1400577856343
 20
985.8707035321108
 30
410.4821166992187
 41
1.0
  0
SPLINE
  5
8E7A0
330
1F
100
AcDbEntity
  8
Default
100
AcDbSpline
210
-0.0000000000000028
220
0.0000000000000453
230
1.0
 70
    12
 71
     2
 72
     6
 73
     3
 74
     0
 42
0.000000001
 43
0.0000000001
 40
0.0
 40
0.0
 40
0.0
 40
0.2409855735434258
 40
0.2409855735434258
 40
0.2409855735434258
 10
-655.1400577856343
 20
985.8707035321108
 30
410.4821166992187
 41
1.0
 10
-652.0704366564136
 20
984.8068820441355
 30
410.4821166992188
 41
0.8709778219339256
 10
-649.1576034104487
 20
986.2455246473283
 30
410.4821166992187
 41
0.8913390959643272
  0
SPLINE
  5
8E7AA
330
1F
100
AcDbEntity
  8
Default
100
AcDbSpline
210
0.0
220
0.0
230
1.0
 70
     8
 71
     3
 72
    24
 73
    20
 74
     0
 42
0.000000001
 43
0.0000000001
 40
-17.0
 40
-17.0
 40
-17.0
 40
-17.0
 40
-15.99999999439031
 40
-14.99999998878062
 40
-13.99999998317094
 40
-12.99999997756125
 40
-11.99999997195156
 40
-10.99999996634187
 40
-9.999999960732184
 40
-8.999999955122495
 40
-7.999999949512806
 40
-6.999999943903119
 40
-5.999999938293429
 40
-4.999999932683743
 40
-3.999999927074055
 40
-2.999999921464366
 40
-1.999999915854678
 40
-0.9999999102449903
 40
0.0
 40
0.0
 40
0.0
 40
0.0
 10
617.0762535575691
 20
957.5585638186007
 30
410.4821166992187
 10
630.2009774007747
 20
967.5136349542411
 30
410.4821166992187
 10
654.6397497624734
 20
989.8348461023045
 30
410.4821166992187
 10
684.2476105384812
 20
1029.679742585098
 30
410.4821166992187
 10
706.0369735368994
 20
1074.265268112435
 30
410.4821166992187
 10
719.9009235248909
 20
1121.845186352069
 30
410.4821166992187
 10
726.8376761091886
 20
1170.934565409795
 30
410.4821166992187
 10
726.604657043169
 20
1220.389858127558
 30
410.4821166992187
 10
725.9992678897406
 20
1269.851065135132
 30
410.4821166992187
 10
719.6632603514376
 20
1318.908539233271
 30
410.4821166992187
 10
709.8607951937492
 20
1367.387800465959
 30
410.4821166992187
 10
695.8234622580375
 20
1414.822565368843
 30
410.4821166992187
 10
676.0983710200903
 20
1460.331981434311
 30
410.4821166992187
 10
649.1598274798065
 20
1501.807812568903
 30
410.4821166992187
 10
616.35029076713
 20
1539.435541422352
 30
410.4821166992187
 10
573.3132030108822
 20
1564.747973220972
 30
410.4821166992187
 10
525.1953400530233
 20
1577.29290041581
 30
410.4821166992187
 10
476.2260766124213
 20
1584.048171821226
 30
410.4821166992187
 10
443.2463398235568
 20
1585.215029333078
 30
410.4821166992187
 10
426.7777662933253
 20
1585.21623807507
 30
410.4821166992187
  0
SPLINE
  5
8E7AB
330
1F
100
AcDbEntity
  8
Default
100
AcDbSpline
210
0.0
220
0.0
230
1.0
 70
     8
 71
     3
 72
    24
 73
    20
 74
     0
 42
0.000000001
 43
0.0000000001
 40
0.0
 40
0.0
 40
0.0
 40
0.0
 40
0.9999999102449903
 40
1.999999915854678
 40
2.999999921464366
 40
3.999999927074055
 40
4.999999932683743
 40
5.999999938293429
 40
6.999999943903119
 40
7.999999949512806
 40
8.999999955122495
 40
9.999999960732184
 40
10.99999996634187
 40
11.99999997195156
 40
12.99999997756125
 40
13.99999998317094
 40
14.99999998878062
 40
15.99999999439031
 40
17.0
 40
17.0
 40
17.0
 40
17.0
 10
426.7777662933253
 20
1585.21623807507
 30
410.4821166992187
 10
410.309192763094
 20
1585.215029333078
 30
410.4821166992187
 10
377.3294559742294
 20
1584.048171821226
 30
410.4821166992187
 10
328.3601925336275
 20
1577.29290041581
 30
410.4821166992187
 10
280.2423295757685
 20
1564.747973220972
 30
410.4821166992187
 10
237.2052418195208
 20
1539.435541422352
 30
410.4821166992187
 10
204.3957051068442
 20
1501.807812568903
 30
410.4821166992187
 10
177.4571615665604
 20
1460.331981434311
 30
410.4821166992187
 10
157.7320703286132
 20
1414.822565368843
 30
410.4821166992187
 10
143.6947373929015
 20
1367.387800465959
 30
410.4821166992187
 10
133.8922722352131
 20
1318.908539233271
 30
410.4821166992187
 10
127.5562646969101
 20
1269.851065135132
 30
410.4821166992187
 10
126.9508755434817
 20
1220.389858127558
 30
410.4821166992187
 10
126.7178564774622
 20
1170.934565409795
 30
410.4821166992187
 10
133.6546090617598
 20
1121.845186352069
 30
410.4821166992187
 10
147.5185590497513
 20
1074.265268112435
 30
410.4821166992187
 10
169.3079220481695
 20
1029.679742585098
 30
410.4821166992187
 10
198.9157828241773
 20
989.8348461023045
 30
410.4821166992187
 10
223.354555185876
 20
967.5136349542411
 30
410.4821166992187
 10
236.4851578486405
 20
957.5536409855569
 30
410.4821166992187
  0
SPLINE
  5
8E7AC
330
1F
100
AcDbEntity
  8
Default
100
AcDbSpline
210
0.0
220
0.0
230
1.0
 70
     8
 71
     3
 72
    12
 73
     8
 74
     0
 42
0.000000001
 43
0.0000000001
 40
0.0
 40
0.0
 40
0.0
 40
0.0
 40
1.932841302156171
 40
3.834618248229879
 40
8.022019597965389
 40
12.14534094516417
 40
15.98237434364643
 40
15.98237434364643
 40
15.98237434364643
 40
15.98237434364643
 10
236.4851578486405
 20
957.5536409855569
 30
410.4821166992187
 10
249.5685885368644
 20
947.6565373461742
 30
410.4821166992187
 10
277.1403014124221
 20
930.4484668593076
 30
410.4821166992187
 10
340.491076184283
 20
904.8422353226214
 30
410.4821166992187
 10
427.0119628906249
 20
893.157470703125
 30
410.4821166992187
 10
529.9837070920875
 20
907.2702048727274
 30
410.4821166992187
 10
591.2261790978805
 20
937.8962200097809
 30
410.4821166992187
 10
617.0762535575691
 20
957.5585638186007
 30
410.4821166992187
  0
SPLINE
  5
8E7AD
330
1F
100
AcDbEntity
  8
Default
100
AcDbSpline
210
0.0
220
0.0
230
1.0
 70
    12
 71
     2
 72
     6
 73
     3
 74
     0
 42
0.000000001
 43
0.0000000001
 40
0.0
 40
0.0
 40
0.0
 40
0.584707951152618
 40
0.584707951152618
 40
0.584707951152618
 10
186.4149131668332
 20
1007.00893693149
 30
410.4821166992187
 41
1.0
 10
181.8449441908196
 20
1012.864172572137
 30
410.4821166992187
 41
0.99964613597365
 10
177.5928403937309
 20
1018.954165523531
 30
410.4821166992187
 41
1.0
  0
SPLINE
  5
8E7AE
330
1F
100
AcDbEntity
  8
Default
100
AcDbSpline
210
0.0
220
0.0
230
1.0
 70
     8
 71
     3
 72
    12
 73
     8
 74
     0
 42
0.000000001
 43
0.0000000001
 40
0.0
 40
0.0
 40
0.0
 40
0.0
 40
1.832654236483523
 40
3.669578742657731
 40
7.371880427553498
 40
11.11625269817009
 40
14.89017125028417
 40
14.89017125028417
 40
14.89017125028417
 40
14.89017125028417
 10
671.252283443694
 20
1150.900656974472
 30
410.4821166992187
 10
671.2533805361858
 20
1135.328640830534
 30
410.4821166992187
 10
668.0637000776928
 20
1104.278458005232
 30
410.4821166992187
 10
649.3800599027326
 20
1044.36961791792
 30
410.4821166992187
 10
603.7441194680631
 20
978.4578489967648
 30
410.4821166992187
 10
522.3841166894808
 20
925.9971708055321
 30
410.4821166992187
 10
458.7303129582383
 20
913.7844683072408
 30
410.4821166992187
 10
426.7777810627085
 20
913.7788745218825
 30
410.4821166992187
  0
SPLINE
  5
8E7AF
330
1F
100
AcDbEntity
  8
Default
100
AcDbSpline
210
0.0
220
0.0
230
1.0
 70
     8
 71
     3
 72
    12
 73
     8
 74
     0
 42
0.000000001
 43
0.0000000001
 40
0.0
 40
0.0
 40
0.0
 40
0.0
 40
1.889355098582429
 40
3.774519559296819
 40
7.516682166840942
 40
11.21816918271822
 40
14.89017237659326
 40
14.89017237659326
 40
14.89017237659326
 40
14.89017237659326
 10
426.7777810627085
 20
913.7788745218825
 30
410.4821166992187
 10
410.7825559259431
 20
913.7805958288968
 30
410.4821166992187
 10
378.8230511865522
 20
916.8543368189608
 30
410.4821166992187
 10
317.4803528542075
 20
934.8299253872481
 30
410.4821166992187
 10
249.8373985417493
 20
978.4385241629435
 30
410.4821166992187
 10
195.1764495419388
 20
1057.35181895995
 30
410.4821166992187
 10
182.2947634658021
 20
1119.764583221318
 30
410.4821166992187
 10
182.3030962149873
 20
1150.85840708585
 30
410.4821166992187
  0
SPLINE
  5
8E7B0
330
1F
100
AcDbEntity
  8
Default
100
AcDbSpline
210
0.0
220
0.0
230
1.0
 70
     8
 71
     3
 72
    12
 73
     8
 74
     0
 42
0.000000001
 43
0.0000000001
 40
-15.35241690788854
 40
-15.35241690788854
 40
-15.35241690788854
 40
-15.35241690788854
 40
-11.42846766997576
 40
-7.624449320975275
 40
-3.868777776849768
 40
-1.918305221211262
 40
0.0
 40
0.0
 40
0.0
 40
0.0
 10
182.3030962149873
 20
1150.85840708585
 30
410.4821166992187
 10
182.3025604389499
 20
1184.06593589664
 30
410.4821166992187
 10
194.125411626178
 20
1249.64380916197
 30
410.4821166992187
 10
247.5791971043459
 20
1333.202065134704
 30
410.4821166992187
 10
315.648855981759
 20
1379.295606718483
 30
410.4821166992187
 10
377.7754419016437
 20
1397.941366284211
 30
410.4821166992187
 10
410.5376902644957
 20
1401.111547061771
 30
410.4821166992187
 10
426.777767486983
 20
1401.098067641196
 30
410.4821166992187
  0
SPLINE
  5
8E7B1
330
1F
100
AcDbEntity
  8
Default
100
AcDbSpline
210
0.0
220
0.0
230
1.0
 70
     8
 71
     3
 72
    12
 73
     8
 74
     0
 42
0.000000001
 43
0.0000000001
 40
-15.34910739099933
 40
-15.34910739099933
 40
-15.34910739099933
 40
-15.34910739099933
 40
-11.58400586625319
 40
-7.773657509622682
 40
-3.936637318219009
 40
-1.971105179282631
 40
0.0
 40
0.0
 40
0.0
 40
0.0
 10
426.777767486983
 20
1401.098067641196
 30
410.4821166992187
 10
458.6400431298366
 20
1401.090353887857
 30
410.4821166992187
 10
522.876435914246
 20
1389.023329321076
 30
410.4821166992187
 10
605.0671396373095
 20
1334.361956452641
 30
410.4821166992187
 10
650.0712569025463
 20
1264.538229919996
 30
410.4821166992187
 10
668.2095216104653
 20
1200.980796411417
 30
410.4821166992187
 10
671.2584772699901
 20
1167.63531297029
 30
410.4821166992187
 10
671.252283443694
 20
1150.900656974472
 30
410.4821166992187
  0
SPLINE
  5
8E7B2
330
1F
100
AcDbEntity
  8
Default
100
AcDbSpline
210
0.0
220
0.0
230
1.0
 70
     8
 71
     3
 72
    24
 73
    20
 74
     0
 42
0.000000001
 43
0.0000000001
 40
-17.0
 40
-17.0
 40
-17.0
 40
-17.0
 40
-16.0
 40
-15.0
 40
-14.0
 40
-13.0
 40
-12.0
 40
-11.0
 40
-10.0
 40
-9.0
 40
-8.0
 40
-7.0
 40
-6.0
 40
-5.0
 40
-4.0
 40
-3.0
 40
-2.0
 40
-1.0
 40
0.0
 40
0.0
 40
0.0
 40
0.0
 10
201.4753174234279
 20
989.1415831132087
 30
410.4821166992187
 10
190.6823661303629
 20
1000.71956779577
 30
410.4821166992187
 10
171.1826404238727
 20
1025.789069464054
 30
410.4821166992187
 10
148.4243393629481
 20
1067.637990868219
 30
410.4821166992187
 10
132.4077281942495
 20
1112.445620561241
 30
410.4821166992187
 10
122.2715761020922
 20
1158.955181094699
 30
410.4821166992187
 10
118.8891763970523
 20
1206.398978576192
 30
410.4821166992187
 10
120.0559685098242
 20
1253.881078094825
 30
410.4821166992187
 10
123.3562100118852
 20
1301.291198413015
 30
410.4821166992187
 10
132.5785105928121
 20
1347.941719663445
 30
410.4821166992187
 10
144.4331075381978
 20
1393.942724491557
 30
410.4821166992187
 10
160.9968669270911
 20
1438.497753721436
 30
410.4821166992187
 10
182.6068322360734
 20
1480.966389128833
 30
410.4821166992187
 10
210.8677233285093
 20
1519.115891488637
 30
410.4821166992187
 10
243.4704195904251
 20
1554.281182284635
 30
410.4821166992187
 10
285.8740228856973
 20
1576.803048627988
 30
410.4821166992187
 10
332.0924514006715
 20
1588.478960024853
 30
410.4821166992187
 10
379.2894030652037
 20
1594.078302984302
 30
410.4821166992187
 10
410.9535207317726
 20
1595.023967508202
 30
410.4821166992187
 10
426.7777662933253
 20
1595.030480802978
 30
410.4821166992187
  0
SPLINE
  5
8E7B3
330
1F
100
AcDbEntity
  8
Default
100
AcDbSpline
210
0.0
220
0.0
230
1.0
 70
     8
 71
     3
 72
    24
 73
    20
 74
     0
 42
0.000000001
 43
0.0000000001
 40
0.0
 40
0.0
 40
0.0
 40
0.0
 40
1.0
 40
2.0
 40
3.0
 40
4.0
 40
5.0
 40
6.0
 40
7.0
 40
8.0
 40
9.0
 40
10.0
 40
11.0
 40
12.0
 40
13.0
 40
14.0
 40
15.0
 40
16.0
 40
17.0
 40
17.0
 40
17.0
 40
17.0
 10
426.7777662933253
 20
1595.030480802978
 30
410.4821166992187
 10
442.6020118548781
 20
1595.023967508202
 30
410.4821166992187
 10
474.266129521447
 20
1594.078302984302
 30
410.4821166992187
 10
521.4630811859792
 20
1588.478960024853
 30
410.4821166992187
 10
567.6815097009535
 20
1576.803048627988
 30
410.4821166992187
 10
610.0851129962257
 20
1554.281182284635
 30
410.4821166992187
 10
642.6878092581414
 20
1519.115891488637
 30
410.4821166992187
 10
670.9487003505773
 20
1480.966389128833
 30
410.4821166992187
 10
692.5586656595596
 20
1438.497753721436
 30
410.4821166992187
 10
709.1224250484529
 20
1393.942724491557
 30
410.4821166992187
 10
720.9770219938386
 20
1347.941719663445
 30
410.4821166992187
 10
730.1993225747655
 20
1301.291198413015
 30
410.4821166992187
 10
733.4995640768266
 20
1253.881078094825
 30
410.4821166992187
 10
734.6663561895984
 20
1206.398978576192
 30
410.4821166992187
 10
731.2839564845585
 20
1158.955181094699
 30
410.4821166992187
 10
721.1478043924012
 20
1112.445620561241
 30
410.4821166992187
 10
705.1311932237027
 20
1067.637990868219
 30
410.4821166992187
 10
682.372892162778
 20
1025.789069464054
 30
410.4821166992187
 10
662.8731664562878
 20
1000.71956779577
 30
410.4821166992187
 10
652.0802151632229
 20
989.1415831132087
 30
410.4821166992187
  0
SPLINE
  5
8E7B4
330
1F
100
AcDbEntity
  8
Default
100
AcDbSpline
210
0.0
220
0.0
230
1.0
 70
     8
 71
     3
 72
    11
 73
     7
 74
     0
 42
0.000000001
 43
0.0000000001
 40
-4.376489242092977
 40
-4.376489242092977
 40
-4.376489242092977
 40
-4.376489242092977
 40
-2.254729024945146
 40
-1.152264979760031
 40
-0.5805792687200016
 40
0.0
 40
0.0
 40
0.0
 40
0.0
 10
316.7142775625834
 20
1584.369681939031
 30
410.4821166992187
 10
334.0977037355251
 20
1588.906423648904
 30
410.4821166992187
 10
360.9948186867623
 20
1593.915186543899
 30
410.4821166992187
 10
393.0308111069985
 20
1596.671920212084
 30
410.4821166992187
 10
412.1061082161473
 20
1597.463405365765
 30
410.4821166992187
 10
421.8622306030178
 20
1597.59157307912
 30
410.4821166992187
 10
426.7777662933253
 20
1597.591603695912
 30
410.4821166992187
  0
SPLINE
  5
8E7B5
330
1F
100
AcDbEntity
  8
Default
100
AcDbSpline
210
0.0
220
0.0
230
1.0
 70
     8
 71
     3
 72
    11
 73
     7
 74
     0
 42
0.000000001
 43
0.0000000001
 40
0.0
 40
0.0
 40
0.0
 40
0.0
 40
0.5805792687200016
 40
1.152264979760031
 40
2.254729024945146
 40
4.376489242092977
 40
4.376489242092977
 40
4.376489242092977
 40
4.376489242092977
 10
426.7777662933253
 20
1597.591603695912
 30
410.4821166992187
 10
431.6933019836328
 20
1597.59157307912
 30
410.4821166992187
 10
441.4494243705035
 20
1597.463405365765
 30
410.4821166992187
 10
460.5247214796523
 20
1596.671920212084
 30
410.4821166992187
 10
492.5607138998884
 20
1593.915186543899
 30
410.4821166992187
 10
519.4578288511256
 20
1588.906423648904
 30
410.4821166992187
 10
536.8412550240673
 20
1584.369681939031
 30
410.4821166992187
  0
SPLINE
  5
8E7B6
330
1F
100
AcDbEntity
  8
Default
100
AcDbSpline
210
0.0
220
0.0
230
1.0
 70
     8
 71
     3
 72
    10
 73
     6
 74
     0
 42
0.000000001
 43
0.0000000001
 40
0.0
 40
0.0
 40
0.0
 40
0.0
 40
1.13000657183866
 40
2.287921106073678
 40
8.404575460652143
 40
8.404575460652143
 40
8.404575460652143
 40
8.404575460652143
 10
142.6481673205185
 20
1149.045878495501
 30
410.4821166992187
 10
144.2477774047806
 20
1139.614387326358
 30
410.4821166992187
 10
148.3305187850028
 20
1120.656984108747
 30
410.4821166992187
 10
158.9510578092367
 20
1085.139162650912
 30
410.4821166992187
 10
177.2434275444771
 20
1044.234092440158
 30
410.4821166992187
 10
217.3406018562532
 20
1001.879586991243
 30
410.4821166992187
  0
ARC
  5
8E7B7
330
1F
100
AcDbEntity
  8
Default
100
AcDbCircle
 10
374.9896730589735
 20
1151.12657314079
 30
410.4821166992187
 40
217.0895956184993
100
AcDbArc
 50
223.4317693925785
 51
250.764781427115
  0
SPLINE
  5
8E7B8
330
1F
100
AcDbEntity
  8
Default
100
AcDbSpline
210
0.0
220
0.0
230
1.0
 70
     8
 71
     3
 72
    10
 73
     6
 74
     0
 42
0.000000001
 43
0.0000000001
 40
0.0
 40
0.0
 40
0.0
 40
0.0
 40
1.13000657183866
 40
2.287921106073678
 40
8.404575460652143
 40
8.404575460652143
 40
8.404575460652143
 40
8.404575460652143
 10
710.9073652661322
 20
1149.045878495501
 30
410.4821166992187
 10
709.3077551818701
 20
1139.614387326358
 30
410.4821166992187
 10
705.2250138016479
 20
1120.656984108747
 30
410.4821166992187
 10
694.604474777414
 20
1085.139162650912
 30
410.4821166992187
 10
676.3121050421736
 20
1044.234092440158
 30
410.4821166992187
 10
636.2149307303975
 20
1001.879586991243
 30
410.4821166992187
  0
ARC
  5
8E7B9
330
1F
100
AcDbEntity
  8
Default
100
AcDbCircle
 10
478.5658595276772
 20
1151.12657314079
 30
410.4821166992187
 40
217.0895956184993
100
AcDbArc
 50
289.2352185728849
 51
316.5682306074215
  0
POLYLINE
  5
8E7BA
330
1F
100
AcDbEntity
  8
Default
100
AcDb2dPolyline
 66
     1
 10
0.0
 20
0.0
 30
410.4821166992187
  0
VERTEX
  5
8E7BB
330
8E7BA
100
AcDbEntity
  8
Default
100
AcDbVertex
100
AcDb2dVertex
 10
194.0464449515902
 20
997.451360228305
 30
410.4821166992187
  0
VERTEX
  5
8E7BC
330
8E7BA
100
AcDbEntity
  8
Default
100
AcDbVertex
100
AcDb2dVertex
 10
193.9292080733421
 20
997.2523315023277
 30
410.4821166992187
  0
SEQEND
  5
8E7BD
330
8E7BA
100
AcDbEntity
  8
Default
  0
SPLINE
  5
8E7BE
330
1F
100
AcDbEntity
  8
Default
100
AcDbSpline
210
0.0
220
0.0
230
1.0
 70
    12
 71
     2
 72
     8
 73
     5
 74
     0
 42
0.000000001
 43
0.0000000001
 40
0.0
 40
0.0
 40
0.0
 40
0.0657021758075414
 40
0.0657021758075414
 40
0.5513779496561005
 40
0.5513779496561005
 40
0.5513779496561005
 10
193.9292080733421
 20
997.2523315023277
 30
410.4821166992187
 41
1.0
 10
193.503885714586
 20
996.5300254299446
 30
410.4821166992187
 41
0.9938146782922427
 10
193.24859371914
 20
995.7319857238728
 30
410.4821166992187
 41
1.0
 10
190.9870272210623
 20
988.2627725919579
 30
410.4821166992187
 41
0.7132736251541142
 10
198.4154748010164
 20
985.8707035321108
 30
410.4821166992187
 41
1.0
  0
SPLINE
  5
8E7BF
330
1F
100
AcDbEntity
  8
Default
100
AcDbSpline
210
0.0
220
0.0
230
1.0
 70
    12
 71
     2
 72
     6
 73
     3
 74
     0
 42
0.000000001
 43
0.0000000001
 40
0.0
 40
0.0
 40
0.0
 40
0.2409856468466241
 40
0.2409856468466241
 40
0.2409856468466241
 10
198.4154748010164
 20
985.8707035321108
 30
410.4821166992187
 41
1.0
 10
201.4850970022739
 20
984.806881672606
 30
410.4821166992187
 41
0.8709777826878488
 10
204.3979309077786
 20
986.245525502551
 30
410.4821166992187
 41
0.8913391083513609
  0
POLYLINE
  5
8E7C0
330
1F
100
AcDbEntity
  8
Default
100
AcDb2dPolyline
 66
     1
 10
0.0
 20
0.0
 30
410.4821166992187
  0
VERTEX
  5
8E7C1
330
8E7C0
100
AcDbEntity
  8
Default
100
AcDbVertex
100
AcDb2dVertex
 10
659.378453533348
 20
997.6731329266353
 30
410.4821166992187
  0
VERTEX
  5
8E7C2
330
8E7C0
100
AcDbEntity
  8
Default
100
AcDbVertex
100
AcDb2dVertex
 10
659.5090876350605
 20
997.451360228305
 30
410.4821166992187
  0
SEQEND
  5
8E7C3
330
8E7C0
100
AcDbEntity
  8
Default
  0
POLYLINE
  5
8E7C4
330
1F
100
AcDbEntity
  8
Default
100
AcDb2dPolyline
 66
     1
 10
0.0
 20
0.0
 30
410.4821166992187
  0
VERTEX
  5
8E7C5
330
8E7C4
100
AcDbEntity
  8
Default
100
AcDbVertex
100
AcDb2dVertex
 10
659.5090876350605
 20
997.451360228305
 30
410.4821166992187
  0
VERTEX
  5
8E7C6
330
8E7C4
100
AcDbEntity
  8
Default
100
AcDbVertex
100
AcDb2dVertex
 10
659.6263245133086
 20
997.2523315023277
 30
410.4821166992187
  0
SEQEND
  5
8E7C7
330
8E7C4
100
AcDbEntity
  8
Default
  0
SPLINE
  5
8E7C8
330
1F
100
AcDbEntity
  8
Default
100
AcDbSpline
210
0.0
220
0.0
230
1.0
 70
    12
 71
     2
 72
     8
 73
     5
 74
     0
 42
0.000000001
 43
0.0000000001
 40
0.0
 40
0.0
 40
0.0
 40
0.0657021758075414
 40
0.0657021758075414
 40
0.5513779496561005
 40
0.5513779496561005
 40
0.5513779496561005
 10
659.6263245133086
 20
997.2523315023277
 30
410.4821166992187
 41
1.0
 10
660.0516468720647
 20
996.5300254299446
 30
410.4821166992187
 41
0.9938146782922427
 10
660.3069388675107
 20
995.7319857238728
 30
410.4821166992187
 41
1.0
 10
662.5685053655879
 20
988.2627725919579
 30
410.4821166992187
 41
0.7132736251541142
 10
655.1400577856343
 20
985.8707035321108
 30
410.4821166992187
 41
1.0
  0
SPLINE
  5
8E7C9
330
1F
100
AcDbEntity
  8
Default
100
AcDbSpline
210
0.0000000000000028
220
0.0000000000000453
230
1.0
 70
    12
 71
     2
 72
     6
 73
     3
 74
     0
 42
0.000000001
 43
0.0000000001
 40
0.0
 40
0.0
 40
0.0
 40
0.2409855735434258
 40
0.2409855735434258
 40
0.2409855735434258
 10
655.1400577856343
 20
985.8707035321108
 30
410.4821166992187
 41
1.0
 10
652.0704366564136
 20
984.8068820441355
 30
410.4821166992188
 41
0.8709778219339256
 10
649.1576034104487
 20
986.2455246473283
 30
410.4821166992187
 41
0.8913390959643272
  0
SPLINE
  5
8E7CA
330
1F
100
AcDbEntity
  8
Default
100
AcDbSpline
210
0.0
220
0.0
230
1.0
 70
     8
 71
     3
 72
    24
 73
    20
 74
     0
 42
0.000000001
 43
0.0000000001
 40
-17.0
 40
-17.0
 40
-17.0
 40
-17.0
 40
-15.99999999439031
 40
-14.99999998878062
 40
-13.99999998317094
 40
-12.99999997756125
 40
-11.99999997195156
 40
-10.99999996634187
 40
-9.999999960732184
 40
-8.999999955122495
 40
-7.999999949512806
 40
-6.999999943903119
 40
-5.999999938293429
 40
-4.999999932683743
 40
-3.999999927074055
 40
-2.999999921464366
 40
-1.999999915854678
 40
-0.9999999102449903
 40
0.0
 40
0.0
 40
0.0
 40
0.0
 10
-617.0762535575691
 20
-957.5585638186007
 30
410.4821166992187
 10
-630.2009774007747
 20
-967.5136349542411
 30
410.4821166992187
 10
-654.6397497624734
 20
-989.8348461023045
 30
410.4821166992187
 10
-684.2476105384812
 20
-1029.679742585098
 30
410.4821166992187
 10
-706.0369735368994
 20
-1074.265268112435
 30
410.4821166992187
 10
-719.9009235248909
 20
-1121.845186352069
 30
410.4821166992187
 10
-726.8376761091886
 20
-1170.934565409795
 30
410.4821166992187
 10
-726.604657043169
 20
-1220.389858127558
 30
410.4821166992187
 10
-725.9992678897406
 20
-1269.851065135132
 30
410.4821166992187
 10
-719.6632603514376
 20
-1318.908539233271
 30
410.4821166992187
 10
-709.8607951937492
 20
-1367.387800465959
 30
410.4821166992187
 10
-695.8234622580375
 20
-1414.822565368843
 30
410.4821166992187
 10
-676.0983710200903
 20
-1460.331981434311
 30
410.4821166992187
 10
-649.1598274798065
 20
-1501.807812568903
 30
410.4821166992187
 10
-616.35029076713
 20
-1539.435541422352
 30
410.4821166992187
 10
-573.3132030108822
 20
-1564.747973220972
 30
410.4821166992187
 10
-525.1953400530233
 20
-1577.29290041581
 30
410.4821166992187
 10
-476.2260766124213
 20
-1584.048171821226
 30
410.4821166992187
 10
-443.2463398235568
 20
-1585.215029333078
 30
410.4821166992187
 10
-426.7777662933253
 20
-1585.21623807507
 30
410.4821166992187
  0
SPLINE
  5
8E7CB
330
1F
100
AcDbEntity
  8
Default
100
AcDbSpline
210
0.0
220
0.0
230
1.0
 70
     8
 71
     3
 72
    24
 73
    20
 74
     0
 42
0.000000001
 43
0.0000000001
 40
0.0
 40
0.0
 40
0.0
 40
0.0
 40
0.9999999102449903
 40
1.999999915854678
 40
2.999999921464366
 40
3.999999927074055
 40
4.999999932683743
 40
5.999999938293429
 40
6.999999943903119
 40
7.999999949512806
 40
8.999999955122495
 40
9.999999960732184
 40
10.99999996634187
 40
11.99999997195156
 40
12.99999997756125
 40
13.99999998317094
 40
14.99999998878062
 40
15.99999999439031
 40
17.0
 40
17.0
 40
17.0
 40
17.0
 10
-426.7777662933253
 20
-1585.21623807507
 30
410.4821166992187
 10
-410.309192763094
 20
-1585.215029333078
 30
410.4821166992187
 10
-377.3294559742294
 20
-1584.048171821226
 30
410.4821166992187
 10
-328.3601925336275
 20
-1577.29290041581
 30
410.4821166992187
 10
-280.2423295757685
 20
-1564.747973220972
 30
410.4821166992187
 10
-237.2052418195208
 20
-1539.435541422352
 30
410.4821166992187
 10
-204.3957051068442
 20
-1501.807812568903
 30
410.4821166992187
 10
-177.4571615665604
 20
-1460.331981434311
 30
410.4821166992187
 10
-157.7320703286132
 20
-1414.822565368843
 30
410.4821166992187
 10
-143.6947373929015
 20
-1367.387800465959
 30
410.4821166992187
 10
-133.8922722352131
 20
-1318.908539233271
 30
410.4821166992187
 10
-127.5562646969101
 20
-1269.851065135132
 30
410.4821166992187
 10
-126.9508755434817
 20
-1220.389858127558
 30
410.4821166992187
 10
-126.7178564774622
 20
-1170.934565409795
 30
410.4821166992187
 10
-133.6546090617598
 20
-1121.845186352069
 30
410.4821166992187
 10
-147.5185590497513
 20
-1074.265268112435
 30
410.4821166992187
 10
-169.3079220481695
 20
-1029.679742585098
 30
410.4821166992187
 10
-198.9157828241773
 20
-989.8348461023045
 30
410.4821166992187
 10
-223.354555185876
 20
-967.5136349542411
 30
410.4821166992187
 10
-236.4851578486405
 20
-957.5536409855569
 30
410.4821166992187
  0
SPLINE
  5
8E7CC
330
1F
100
AcDbEntity
  8
Default
100
AcDbSpline
210
0.0
220
0.0
230
1.0
 70
     8
 71
     3
 72
    12
 73
     8
 74
     0
 42
0.000000001
 43
0.0000000001
 40
0.0
 40
0.0
 40
0.0
 40
0.0
 40
1.932841302156171
 40
3.834618248229879
 40
8.022019597965389
 40
12.14534094516417
 40
15.98237434364643
 40
15.98237434364643
 40
15.98237434364643
 40
15.98237434364643
 10
-236.4851578486405
 20
-957.5536409855569
 30
410.4821166992187
 10
-249.5685885368644
 20
-947.6565373461742
 30
410.4821166992187
 10
-277.1403014124221
 20
-930.4484668593076
 30
410.4821166992187
 10
-340.491076184283
 20
-904.8422353226214
 30
410.4821166992187
 10
-427.0119628906249
 20
-893.157470703125
 30
410.4821166992187
 10
-529.9837070920875
 20
-907.2702048727274
 30
410.4821166992187
 10
-591.2261790978805
 20
-937.8962200097809
 30
410.4821166992187
 10
-617.0762535575691
 20
-957.5585638186007
 30
410.4821166992187
  0
SPLINE
  5
8E7CD
330
1F
100
AcDbEntity
  8
Default
100
AcDbSpline
210
0.0
220
0.0
230
1.0
 70
    12
 71
     2
 72
     6
 73
     3
 74
     0
 42
0.000000001
 43
0.0000000001
 40
0.0
 40
0.0
 40
0.0
 40
0.584707951152618
 40
0.584707951152618
 40
0.584707951152618
 10
-186.4149131668332
 20
-1007.00893693149
 30
410.4821166992187
 41
1.0
 10
-181.8449441908196
 20
-1012.864172572137
 30
410.4821166992187
 41
0.99964613597365
 10
-177.5928403937309
 20
-1018.954165523531
 30
410.4821166992187
 41
1.0
  0
SPLINE
  5
8E7CE
330
1F
100
AcDbEntity
  8
Default
100
AcDbSpline
210
0.0
220
0.0
230
1.0
 70
     8
 71
     3
 72
    12
 73
     8
 74
     0
 42
0.000000001
 43
0.0000000001
 40
0.0
 40
0.0
 40
0.0
 40
0.0
 40
1.832654236483523
 40
3.669578742657731
 40
7.371880427553498
 40
11.11625269817009
 40
14.89017125028417
 40
14.89017125028417
 40
14.89017125028417
 40
14.89017125028417
 10
-671.252283443694
 20
-1150.900656974472
 30
410.4821166992187
 10
-671.2533805361858
 20
-1135.328640830534
 30
410.4821166992187
 10
-668.0637000776928
 20
-1104.278458005232
 30
410.4821166992187
 10
-649.3800599027326
 20
-1044.36961791792
 30
410.4821166992187
 10
-603.7441194680631
 20
-978.4578489967648
 30
410.4821166992187
 10
-522.3841166894808
 20
-925.9971708055321
 30
410.4821166992187
 10
-458.7303129582383
 20
-913.7844683072408
 30
410.4821166992187
 10
-426.7777810627085
 20
-913.7788745218825
 30
410.4821166992187
  0
SPLINE
  5
8E7CF
330
1F
100
AcDbEntity
  8
Default
100
AcDbSpline
210
0.0
220
0.0
230
1.0
 70
     8
 71
     3
 72
    12
 73
     8
 74
     0
 42
0.000000001
 43
0.0000000001
 40
0.0
 40
0.0
 40
0.0
 40
0.0
 40
1.889355098582429
 40
3.774519559296819
 40
7.516682166840942
 40
11.21816918271822
 40
14.89017237659326
 40
14.89017237659326
 40
14.89017237659326
 40
14.89017237659326
 10
-426.7777810627085
 20
-913.7788745218825
 30
410.4821166992187
 10
-410.7825559259431
 20
-913.7805958288968
 30
410.4821166992187
 10
-378.8230511865522
 20
-916.8543368189608
 30
410.4821166992187
 10
-317.4803528542075
 20
-934.8299253872481
 30
410.4821166992187
 10
-249.8373985417493
 20
-978.4385241629435
 30
410.4821166992187
 10
-195.1764495419388
 20
-1057.35181895995
 30
410.4821166992187
 10
-182.2947634658021
 20
-1119.764583221318
 30
410.4821166992187
 10
-182.3030962149873
 20
-1150.85840708585
 30
410.4821166992187
  0
SPLINE
  5
8E7D0
330
1F
100
AcDbEntity
  8
Default
100
AcDbSpline
210
0.0
220
0.0
230
1.0
 70
     8
 71
     3
 72
    12
 73
     8
 74
     0
 42
0.000000001
 43
0.0000000001
 40
-15.35241690788854
 40
-15.35241690788854
 40
-15.35241690788854
 40
-15.35241690788854
 40
-11.42846766997576
 40
-7.624449320975275
 40
-3.868777776849768
 40
-1.918305221211262
 40
0.0
 40
0.0
 40
0.0
 40
0.0
 10
-182.3030962149873
 20
-1150.85840708585
 30
410.4821166992187
 10
-182.3025604389499
 20
-1184.06593589664
 30
410.4821166992187
 10
-194.125411626178
 20
-1249.64380916197
 30
410.4821166992187
 10
-247.5791971043459
 20
-1333.202065134704
 30
410.4821166992187
 10
-315.648855981759
 20
-1379.295606718483
 30
410.4821166992187
 10
-377.7754419016437
 20
-1397.941366284211
 30
410.4821166992187
 10
-410.5376902644957
 20
-1401.111547061771
 30
410.4821166992187
 10
-426.777767486983
 20
-1401.098067641196
 30
410.4821166992187
  0
SPLINE
  5
8E7D1
330
1F
100
AcDbEntity
  8
Default
100
AcDbSpline
210
0.0
220
0.0
230
1.0
 70
     8
 71
     3
 72
    12
 73
     8
 74
     0
 42
0.000000001
 43
0.0000000001
 40
-15.34910739099933
 40
-15.34910739099933
 40
-15.34910739099933
 40
-15.34910739099933
 40
-11.58400586625319
 40
-7.773657509622682
 40
-3.936637318219009
 40
-1.971105179282631
 40
0.0
 40
0.0
 40
0.0
 40
0.0
 10
-426.777767486983
 20
-1401.098067641196
 30
410.4821166992187
 10
-458.6400431298366
 20
-1401.090353887857
 30
410.4821166992187
 10
-522.876435914246
 20
-1389.023329321076
 30
410.4821166992187
 10
-605.0671396373095
 20
-1334.361956452641
 30
410.4821166992187
 10
-650.0712569025463
 20
-1264.538229919996
 30
410.4821166992187
 10
-668.2095216104653
 20
-1200.980796411417
 30
410.4821166992187
 10
-671.2584772699901
 20
-1167.63531297029
 30
410.4821166992187
 10
-671.252283443694
 20
-1150.900656974472
 30
410.4821166992187
  0
SPLINE
  5
8E7D2
330
1F
100
AcDbEntity
  8
Default
100
AcDbSpline
210
0.0
220
0.0
230
1.0
 70
     8
 71
     3
 72
    24
 73
    20
 74
     0
 42
0.000000001
 43
0.0000000001
 40
-17.0
 40
-17.0
 40
-17.0
 40
-17.0
 40
-16.0
 40
-15.0
 40
-14.0
 40
-13.0
 40
-12.0
 40
-11.0
 40
-10.0
 40
-9.0
 40
-8.0
 40
-7.0
 40
-6.0
 40
-5.0
 40
-4.0
 40
-3.0
 40
-2.0
 40
-1.0
 40
0.0
 40
0.0
 40
0.0
 40
0.0
 10
-201.4753174234279
 20
-989.1415831132087
 30
410.4821166992187
 10
-190.6823661303629
 20
-1000.71956779577
 30
410.4821166992187
 10
-171.1826404238727
 20
-1025.789069464054
 30
410.4821166992187
 10
-148.4243393629481
 20
-1067.637990868219
 30
410.4821166992187
 10
-132.4077281942495
 20
-1112.445620561241
 30
410.4821166992187
 10
-122.2715761020922
 20
-1158.955181094699
 30
410.4821166992187
 10
-118.8891763970523
 20
-1206.398978576192
 30
410.4821166992187
 10
-120.0559685098242
 20
-1253.881078094825
 30
410.4821166992187
 10
-123.3562100118852
 20
-1301.291198413015
 30
410.4821166992187
 10
-132.5785105928121
 20
-1347.941719663445
 30
410.4821166992187
 10
-144.4331075381978
 20
-1393.942724491557
 30
410.4821166992187
 10
-160.9968669270911
 20
-1438.497753721436
 30
410.4821166992187
 10
-182.6068322360734
 20
-1480.966389128833
 30
410.4821166992187
 10
-210.8677233285093
 20
-1519.115891488637
 30
410.4821166992187
 10
-243.4704195904251
 20
-1554.281182284635
 30
410.4821166992187
 10
-285.8740228856973
 20
-1576.803048627988
 30
410.4821166992187
 10
-332.0924514006715
 20
-1588.478960024853
 30
410.4821166992187
 10
-379.2894030652037
 20
-1594.078302984302
 30
410.4821166992187
 10
-410.9535207317726
 20
-1595.023967508202
 30
410.4821166992187
 10
-426.7777662933253
 20
-1595.030480802978
 30
410.4821166992187
  0
SPLINE
  5
8E7D3
330
1F
100
AcDbEntity
  8
Default
100
AcDbSpline
210
0.0
220
0.0
230
1.0
 70
     8
 71
     3
 72
    24
 73
    20
 74
     0
 42
0.000000001
 43
0.0000000001
 40
0.0
 40
0.0
 40
0.0
 40
0.0
 40
1.0
 40
2.0
 40
3.0
 40
4.0
 40
5.0
 40
6.0
 40
7.0
 40
8.0
 40
9.0
 40
10.0
 40
11.0
 40
12.0
 40
13.0
 40
14.0
 40
15.0
 40
16.0
 40
17.0
 40
17.0
 40
17.0
 40
17.0
 10
-426.7777662933253
 20
-1595.030480802978
 30
410.4821166992187
 10
-442.6020118548781
 20
-1595.023967508202
 30
410.4821166992187
 10
-474.266129521447
 20
-1594.078302984302
 30
410.4821166992187
 10
-521.4630811859792
 20
-1588.478960024853
 30
410.4821166992187
 10
-567.6815097009535
 20
-1576.803048627988
 30
410.4821166992187
 10
-610.0851129962257
 20
-1554.281182284635
 30
410.4821166992187
 10
-642.6878092581414
 20
-1519.115891488637
 30
410.4821166992187
 10
-670.9487003505773
 20
-1480.966389128833
 30
410.4821166992187
 10
-692.5586656595596
 20
-1438.497753721436
 30
410.4821166992187
 10
-709.1224250484529
 20
-1393.942724491557
 30
410.4821166992187
 10
-720.9770219938386
 20
-1347.941719663445
 30
410.4821166992187
 10
-730.1993225747655
 20
-1301.291198413015
 30
410.4821166992187
 10
-733.4995640768266
 20
-1253.881078094825
 30
410.4821166992187
 10
-734.6663561895984
 20
-1206.398978576192
 30
410.4821166992187
 10
-731.2839564845585
 20
-1158.955181094699
 30
410.4821166992187
 10
-721.1478043924012
 20
-1112.445620561241
 30
410.4821166992187
 10
-705.1311932237027
 20
-1067.637990868219
 30
410.4821166992187
 10
-682.372892162778
 20
-1025.789069464054
 30
410.4821166992187
 10
-662.8731664562878
 20
-1000.71956779577
 30
410.4821166992187
 10
-652.0802151632229
 20
-989.1415831132087
 30
410.4821166992187
  0
SPLINE
  5
8E7D4
330
1F
100
AcDbEntity
  8
Default
100
AcDbSpline
210
0.0
220
0.0
230
1.0
 70
     8
 71
     3
 72
    11
 73
     7
 74
     0
 42
0.000000001
 43
0.0000000001
 40
-4.376489242092977
 40
-4.376489242092977
 40
-4.376489242092977
 40
-4.376489242092977
 40
-2.254729024945146
 40
-1.152264979760031
 40
-0.5805792687200016
 40
0.0
 40
0.0
 40
0.0
 40
0.0
 10
-316.7142775625834
 20
-1584.369681939031
 30
410.4821166992187
 10
-334.0977037355251
 20
-1588.906423648904
 30
410.4821166992187
 10
-360.9948186867623
 20
-1593.915186543899
 30
410.4821166992187
 10
-393.0308111069985
 20
-1596.671920212084
 30
410.4821166992187
 10
-412.1061082161473
 20
-1597.463405365765
 30
410.4821166992187
 10
-421.8622306030178
 20
-1597.59157307912
 30
410.4821166992187
 10
-426.7777662933253
 20
-1597.591603695912
 30
410.4821166992187
  0
SPLINE
  5
8E7D5
330
1F
100
AcDbEntity
  8
Default
100
AcDbSpline
210
0.0
220
0.0
230
1.0
 70
     8
 71
     3
 72
    11
 73
     7
 74
     0
 42
0.000000001
 43
0.0000000001
 40
0.0
 40
0.0
 40
0.0
 40
0.0
 40
0.5805792687200016
 40
1.152264979760031
 40
2.254729024945146
 40
4.376489242092977
 40
4.376489242092977
 40
4.376489242092977
 40
4.376489242092977
 10
-426.7777662933253
 20
-1597.591603695912
 30
410.4821166992187
 10
-431.6933019836328
 20
-1597.59157307912
 30
410.4821166992187
 10
-441.4494243705035
 20
-1597.463405365765
 30
410.4821166992187
 10
-460.5247214796523
 20
-1596.671920212084
 30
410.4821166992187
 10
-492.5607138998884
 20
-1593.915186543899
 30
410.4821166992187
 10
-519.4578288511256
 20
-1588.906423648904
 30
410.4821166992187
 10
-536.8412550240673
 20
-1584.369681939031
 30
410.4821166992187
  0
SPLINE
  5
8E7D6
330
1F
100
AcDbEntity
  8
Default
100
AcDbSpline
210
0.0
220
0.0
230
1.0
 70
     8
 71
     3
 72
    10
 73
     6
 74
     0
 42
0.000000001
 43
0.0000000001
 40
0.0
 40
0.0
 40
0.0
 40
0.0
 40
1.13000657183866
 40
2.287921106073678
 40
8.404575460652143
 40
8.404575460652143
 40
8.404575460652143
 40
8.404575460652143
 10
-142.6481673205185
 20
-1149.045878495501
 30
410.4821166992187
 10
-144.2477774047806
 20
-1139.614387326358
 30
410.4821166992187
 10
-148.3305187850028
 20
-1120.656984108747
 30
410.4821166992187
 10
-158.9510578092367
 20
-1085.139162650912
 30
410.4821166992187
 10
-177.2434275444771
 20
-1044.234092440158
 30
410.4821166992187
 10
-217.3406018562532
 20
-1001.879586991243
 30
410.4821166992187
  0
ARC
  5
8E7D7
330
1F
100
AcDbEntity
  8
Default
100
AcDbCircle
 10
-374.9896730589735
 20
-1151.12657314079
 30
410.4821166992187
 40
217.0895956184993
100
AcDbArc
 50
43.43176939257847
 51
70.76478142711504
  0
SPLINE
  5
8E7D8
330
1F
100
AcDbEntity
  8
Default
100
AcDbSpline
210
0.0
220
0.0
230
1.0
 70
     8
 71
     3
 72
    10
 73
     6
 74
     0
 42
0.000000001
 43
0.0000000001
 40
0.0
 40
0.0
 40
0.0
 40
0.0
 40
1.13000657183866
 40
2.287921106073678
 40
8.404575460652143
 40
8.404575460652143
 40
8.404575460652143
 40
8.404575460652143
 10
-710.9073652661322
 20
-1149.045878495501
 30
410.4821166992187
 10
-709.3077551818701
 20
-1139.614387326358
 30
410.4821166992187
 10
-705.2250138016479
 20
-1120.656984108747
 30
410.4821166992187
 10
-694.604474777414
 20
-1085.139162650912
 30
410.4821166992187
 10
-676.3121050421736
 20
-1044.234092440158
 30
410.4821166992187
 10
-636.2149307303975
 20
-1001.879586991243
 30
410.4821166992187
  0
ARC
  5
8E7D9
330
1F
100
AcDbEntity
  8
Default
100
AcDbCircle
 10
-478.5658595276772
 20
-1151.12657314079
 30
410.4821166992187
 40
217.0895956184993
100
AcDbArc
 50
109.235218572885
 51
136.5682306074216
  0
POLYLINE
  5
8E7DA
330
1F
100
AcDbEntity
  8
Default
100
AcDb2dPolyline
 66
     1
 10
0.0
 20
0.0
 30
410.4821166992187
  0
VERTEX
  5
8E7DB
330
8E7DA
100
AcDbEntity
  8
Default
100
AcDbVertex
100
AcDb2dVertex
 10
-194.0464449515902
 20
-997.451360228305
 30
410.4821166992187
  0
VERTEX
  5
8E7DC
330
8E7DA
100
AcDbEntity
  8
Default
100
AcDbVertex
100
AcDb2dVertex
 10
-193.9292080733421
 20
-997.2523315023277
 30
410.4821166992187
  0
SEQEND
  5
8E7DD
330
8E7DA
100
AcDbEntity
  8
Default
  0
SPLINE
  5
8E7DE
330
1F
100
AcDbEntity
  8
Default
100
AcDbSpline
210
0.0
220
0.0
230
1.0
 70
    12
 71
     2
 72
     8
 73
     5
 74
     0
 42
0.000000001
 43
0.0000000001
 40
0.0
 40
0.0
 40
0.0
 40
0.0657021758075414
 40
0.0657021758075414
 40
0.5513779496561005
 40
0.5513779496561005
 40
0.5513779496561005
 10
-193.9292080733421
 20
-997.2523315023277
 30
410.4821166992187
 41
1.0
 10
-193.503885714586
 20
-996.5300254299446
 30
410.4821166992187
 41
0.9938146782922427
 10
-193.24859371914
 20
-995.7319857238728
 30
410.4821166992187
 41
1.0
 10
-190.9870272210623
 20
-988.2627725919579
 30
410.4821166992187
 41
0.7132736251541142
 10
-198.4154748010164
 20
-985.8707035321108
 30
410.4821166992187
 41
1.0
  0
SPLINE
  5
8E7DF
330
1F
100
AcDbEntity
  8
Default
100
AcDbSpline
210
0.0
220
0.0
230
1.0
 70
    12
 71
     2
 72
     6
 73
     3
 74
     0
 42
0.000000001
 43
0.0000000001
 40
0.0
 40
0.0
 40
0.0
 40
0.2409856468466241
 40
0.2409856468466241
 40
0.2409856468466241
 10
-198.4154748010164
 20
-985.8707035321108
 30
410.4821166992187
 41
1.0
 10
-201.4850970022739
 20
-984.806881672606
 30
410.4821166992187
 41
0.8709777826878488
 10
-204.3979309077786
 20
-986.245525502551
 30
410.4821166992187
 41
0.8913391083513609
  0
POLYLINE
  5
8E7E0
330
1F
100
AcDbEntity
  8
Default
100
AcDb2dPolyline
 66
     1
 10
0.0
 20
0.0
 30
410.4821166992187
  0
VERTEX
  5
8E7E1
330
8E7E0
100
AcDbEntity
  8
Default
100
AcDbVertex
100
AcDb2dVertex
 10
-659.378453533348
 20
-997.6731329266353
 30
410.4821166992187
  0
VERTEX
  5
8E7E2
330
8E7E0
100
AcDbEntity
  8
Default
100
AcDbVertex
100
AcDb2dVertex
 10
-659.5090876350605
 20
-997.451360228305
 30
410.4821166992187
  0
SEQEND
  5
8E7E3
330
8E7E0
100
AcDbEntity
  8
Default
  0
POLYLINE
  5
8E7E4
330
1F
100
AcDbEntity
  8
Default
100
AcDb2dPolyline
 66
     1
 10
0.0
 20
0.0
 30
410.4821166992187
  0
VERTEX
  5
8E7E5
330
8E7E4
100
AcDbEntity
  8
Default
100
AcDbVertex
100
AcDb2dVertex
 10
-659.5090876350605
 20
-997.451360228305
 30
410.4821166992187
  0
VERTEX
  5
8E7E6
330
8E7E4
100
AcDbEntity
  8
Default
100
AcDbVertex
100
AcDb2dVertex
 10
-659.6263245133086
 20
-997.2523315023277
 30
410.4821166992187
  0
SEQEND
  5
8E7E7
330
8E7E4
100
AcDbEntity
  8
Default
  0
SPLINE
  5
8E7E8
330
1F
100
AcDbEntity
  8
Default
100
AcDbSpline
210
0.0
220
0.0
230
1.0
 70
    12
 71
     2
 72
     8
 73
     5
 74
     0
 42
0.000000001
 43
0.0000000001
 40
0.0
 40
0.0
 40
0.0
 40
0.0657021758075414
 40
0.0657021758075414
 40
0.5513779496561005
 40
0.5513779496561005
 40
0.5513779496561005
 10
-659.6263245133086
 20
-997.2523315023277
 30
410.4821166992187
 41
1.0
 10
-660.0516468720647
 20
-996.5300254299446
 30
410.4821166992187
 41
0.9938146782922427
 10
-660.3069388675107
 20
-995.7319857238728
 30
410.4821166992187
 41
1.0
 10
-662.5685053655879
 20
-988.2627725919579
 30
410.4821166992187
 41
0.7132736251541142
 10
-655.1400577856343
 20
-985.8707035321108
 30
410.4821166992187
 41
1.0
  0
SPLINE
  5
8E7E9
330
1F
100
AcDbEntity
  8
Default
100
AcDbSpline
210
-0.0000000000000028
220
-0.0000000000000453
230
1.0
 70
    12
 71
     2
 72
     6
 73
     3
 74
     0
 42
0.000000001
 43
0.0000000001
 40
0.0
 40
0.0
 40
0.0
 40
0.2409855735434258
 40
0.2409855735434258
 40
0.2409855735434258
 10
-655.1400577856343
 20
-985.8707035321108
 30
410.4821166992187
 41
1.0
 10
-652.0704366564136
 20
-984.8068820441355
 30
410.4821166992188
 41
0.8709778219339256
 10
-649.1576034104487
 20
-986.2455246473283
 30
410.4821166992187
 41
0.8913390959643272
  0
SPLINE
  5
8E7EA
330
1F
100
AcDbEntity
  8
Default
100
AcDbSpline
210
0.0
220
0.0
230
1.0
 70
     8
 71
     3
 72
    24
 73
    20
 74
     0
 42
0.000000001
 43
0.0000000001
 40
-17.0
 40
-17.0
 40
-17.0
 40
-17.0
 40
-15.99999999439031
 40
-14.99999998878062
 40
-13.99999998317094
 40
-12.99999997756125
 40
-11.99999997195156
 40
-10.99999996634187
 40
-9.999999960732184
 40
-8.999999955122495
 40
-7.999999949512806
 40
-6.999999943903119
 40
-5.999999938293429
 40
-4.999999932683743
 40
-3.999999927074055
 40
-2.999999921464366
 40
-1.999999915854678
 40
-0.9999999102449903
 40
0.0
 40
0.0
 40
0.0
 40
0.0
 10
617.0762535575691
 20
-957.5585638186007
 30
410.4821166992187
 10
630.2009774007747
 20
-967.5136349542411
 30
410.4821166992187
 10
654.6397497624734
 20
-989.8348461023045
 30
410.4821166992187
 10
684.2476105384812
 20
-1029.679742585098
 30
410.4821166992187
 10
706.0369735368994
 20
-1074.265268112435
 30
410.4821166992187
 10
719.9009235248909
 20
-1121.845186352069
 30
410.4821166992187
 10
726.8376761091886
 20
-1170.934565409795
 30
410.4821166992187
 10
726.604657043169
 20
-1220.389858127558
 30
410.4821166992187
 10
725.9992678897406
 20
-1269.851065135132
 30
410.4821166992187
 10
719.6632603514376
 20
-1318.908539233271
 30
410.4821166992187
 10
709.8607951937492
 20
-1367.387800465959
 30
410.4821166992187
 10
695.8234622580375
 20
-1414.822565368843
 30
410.4821166992187
 10
676.0983710200903
 20
-1460.331981434311
 30
410.4821166992187
 10
649.1598274798065
 20
-1501.807812568903
 30
410.4821166992187
 10
616.35029076713
 20
-1539.435541422352
 30
410.4821166992187
 10
573.3132030108822
 20
-1564.747973220972
 30
410.4821166992187
 10
525.1953400530233
 20
-1577.29290041581
 30
410.4821166992187
 10
476.2260766124213
 20
-1584.048171821226
 30
410.4821166992187
 10
443.2463398235568
 20
-1585.215029333078
 30
410.4821166992187
 10
426.7777662933253
 20
-1585.21623807507
 30
410.4821166992187
  0
SPLINE
  5
8E7EB
330
1F
100
AcDbEntity
  8
Default
100
AcDbSpline
210
0.0
220
0.0
230
1.0
 70
     8
 71
     3
 72
    24
 73
    20
 74
     0
 42
0.000000001
 43
0.0000000001
 40
0.0
 40
0.0
 40
0.0
 40
0.0
 40
0.9999999102449903
 40
1.999999915854678
 40
2.999999921464366
 40
3.999999927074055
 40
4.999999932683743
 40
5.999999938293429
 40
6.999999943903119
 40
7.999999949512806
 40
8.999999955122495
 40
9.999999960732184
 40
10.99999996634187
 40
11.99999997195156
 40
12.99999997756125
 40
13.99999998317094
 40
14.99999998878062
 40
15.99999999439031
 40
17.0
 40
17.0
 40
17.0
 40
17.0
 10
426.7777662933253
 20
-1585.21623807507
 30
410.4821166992187
 10
410.309192763094
 20
-1585.215029333078
 30
410.4821166992187
 10
377.3294559742294
 20
-1584.048171821226
 30
410.4821166992187
 10
328.3601925336275
 20
-1577.29290041581
 30
410.4821166992187
 10
280.2423295757685
 20
-1564.747973220972
 30
410.4821166992187
 10
237.2052418195208
 20
-1539.435541422352
 30
410.4821166992187
 10
204.3957051068442
 20
-1501.807812568903
 30
410.4821166992187
 10
177.4571615665604
 20
-1460.331981434311
 30
410.4821166992187
 10
157.7320703286132
 20
-1414.822565368843
 30
410.4821166992187
 10
143.6947373929015
 20
-1367.387800465959
 30
410.4821166992187
 10
133.8922722352131
 20
-1318.908539233271
 30
410.4821166992187
 10
127.5562646969101
 20
-1269.851065135132
 30
410.4821166992187
 10
126.9508755434817
 20
-1220.389858127558
 30
410.4821166992187
 10
126.7178564774622
 20
-1170.934565409795
 30
410.4821166992187
 10
133.6546090617598
 20
-1121.845186352069
 30
410.4821166992187
 10
147.5185590497513
 20
-1074.265268112435
 30
410.4821166992187
 10
169.3079220481695
 20
-1029.679742585098
 30
410.4821166992187
 10
198.9157828241773
 20
-989.8348461023045
 30
410.4821166992187
 10
223.354555185876
 20
-967.5136349542411
 30
410.4821166992187
 10
236.4851578486405
 20
-957.5536409855569
 30
410.4821166992187
  0
SPLINE
  5
8E7EC
330
1F
100
AcDbEntity
  8
Default
100
AcDbSpline
210
0.0
220
0.0
230
1.0
 70
     8
 71
     3
 72
    12
 73
     8
 74
     0
 42
0.000000001
 43
0.0000000001
 40
0.0
 40
0.0
 40
0.0
 40
0.0
 40
1.932841302156171
 40
3.834618248229879
 40
8.022019597965389
 40
12.14534094516417
 40
15.98237434364643
 40
15.98237434364643
 40
15.98237434364643
 40
15.98237434364643
 10
236.4851578486405
 20
-957.5536409855569
 30
410.4821166992187
 10
249.5685885368644
 20
-947.6565373461742
 30
410.4821166992187
 10
277.1403014124221
 20
-930.4484668593076
 30
410.4821166992187
 10
340.491076184283
 20
-904.8422353226214
 30
410.4821166992187
 10
427.0119628906249
 20
-893.157470703125
 30
410.4821166992187
 10
529.9837070920875
 20
-907.2702048727274
 30
410.4821166992187
 10
591.2261790978805
 20
-937.8962200097809
 30
410.4821166992187
 10
617.0762535575691
 20
-957.5585638186007
 30
410.4821166992187
  0
SPLINE
  5
8E7ED
330
1F
100
AcDbEntity
  8
Default
100
AcDbSpline
210
0.0
220
0.0
230
1.0
 70
    12
 71
     2
 72
     6
 73
     3
 74
     0
 42
0.000000001
 43
0.0000000001
 40
0.0
 40
0.0
 40
0.0
 40
0.584707951152618
 40
0.584707951152618
 40
0.584707951152618
 10
186.4149131668332
 20
-1007.00893693149
 30
410.4821166992187
 41
1.0
 10
181.8449441908196
 20
-1012.864172572137
 30
410.4821166992187
 41
0.99964613597365
 10
177.5928403937309
 20
-1018.954165523531
 30
410.4821166992187
 41
1.0
  0
SPLINE
  5
8E7EE
330
1F
100
AcDbEntity
  8
Default
100
AcDbSpline
210
0.0
220
0.0
230
1.0
 70
     8
 71
     3
 72
    12
 73
     8
 74
     0
 42
0.000000001
 43
0.0000000001
 40
0.0
 40
0.0
 40
0.0
 40
0.0
 40
1.832654236483523
 40
3.669578742657731
 40
7.371880427553498
 40
11.11625269817009
 40
14.89017125028417
 40
14.89017125028417
 40
14.89017125028417
 40
14.89017125028417
 10
671.252283443694
 20
-1150.900656974472
 30
410.4821166992187
 10
671.2533805361858
 20
-1135.328640830534
 30
410.4821166992187
 10
668.0637000776928
 20
-1104.278458005232
 30
410.4821166992187
 10
649.3800599027326
 20
-1044.36961791792
 30
410.4821166992187
 10
603.7441194680631
 20
-978.4578489967648
 30
410.4821166992187
 10
522.3841166894808
 20
-925.9971708055321
 30
410.4821166992187
 10
458.7303129582383
 20
-913.7844683072408
 30
410.4821166992187
 10
426.7777810627085
 20
-913.7788745218825
 30
410.4821166992187
  0
SPLINE
  5
8E7EF
330
1F
100
AcDbEntity
  8
Default
100
AcDbSpline
210
0.0
220
0.0
230
1.0
 70
     8
 71
     3
 72
    12
 73
     8
 74
     0
 42
0.000000001
 43
0.0000000001
 40
0.0
 40
0.0
 40
0.0
 40
0.0
 40
1.889355098582429
 40
3.774519559296819
 40
7.516682166840942
 40
11.21816918271822
 40
14.89017237659326
 40
14.89017237659326
 40
14.89017237659326
 40
14.89017237659326
 10
426.7777810627085
 20
-913.7788745218825
 30
410.4821166992187
 10
410.7825559259431
 20
-913.7805958288968
 30
410.4821166992187
 10
378.8230511865522
 20
-916.8543368189608
 30
410.4821166992187
 10
317.4803528542075
 20
-934.8299253872481
 30
410.4821166992187
 10
249.8373985417493
 20
-978.4385241629435
 30
410.4821166992187
 10
195.1764495419388
 20
-1057.35181895995
 30
410.4821166992187
 10
182.2947634658021
 20
-1119.764583221318
 30
410.4821166992187
 10
182.3030962149873
 20
-1150.85840708585
 30
410.4821166992187
  0
SPLINE
  5
8E7F0
330
1F
100
AcDbEntity
  8
Default
100
AcDbSpline
210
0.0
220
0.0
230
1.0
 70
     8
 71
     3
 72
    12
 73
     8
 74
     0
 42
0.000000001
 43
0.0000000001
 40
-15.35241690788854
 40
-15.35241690788854
 40
-15.35241690788854
 40
-15.35241690788854
 40
-11.42846766997576
 40
-7.624449320975275
 40
-3.868777776849768
 40
-1.918305221211262
 40
0.0
 40
0.0
 40
0.0
 40
0.0
 10
182.3030962149873
 20
-1150.85840708585
 30
410.4821166992187
 10
182.3025604389499
 20
-1184.06593589664
 30
410.4821166992187
 10
194.125411626178
 20
-1249.64380916197
 30
410.4821166992187
 10
247.5791971043459
 20
-1333.202065134704
 30
410.4821166992187
 10
315.648855981759
 20
-1379.295606718483
 30
410.4821166992187
 10
377.7754419016437
 20
-1397.941366284211
 30
410.4821166992187
 10
410.5376902644957
 20
-1401.111547061771
 30
410.4821166992187
 10
426.777767486983
 20
-1401.098067641196
 30
410.4821166992187
  0
SPLINE
  5
8E7F1
330
1F
100
AcDbEntity
  8
Default
100
AcDbSpline
210
0.0
220
0.0
230
1.0
 70
     8
 71
     3
 72
    12
 73
     8
 74
     0
 42
0.000000001
 43
0.0000000001
 40
-15.34910739099933
 40
-15.34910739099933
 40
-15.34910739099933
 40
-15.34910739099933
 40
-11.58400586625319
 40
-7.773657509622682
 40
-3.936637318219009
 40
-1.971105179282631
 40
0.0
 40
0.0
 40
0.0
 40
0.0
 10
426.777767486983
 20
-1401.098067641196
 30
410.4821166992187
 10
458.6400431298366
 20
-1401.090353887857
 30
410.4821166992187
 10
522.876435914246
 20
-1389.023329321076
 30
410.4821166992187
 10
605.0671396373095
 20
-1334.361956452641
 30
410.4821166992187
 10
650.0712569025463
 20
-1264.538229919996
 30
410.4821166992187
 10
668.2095216104653
 20
-1200.980796411417
 30
410.4821166992187
 10
671.2584772699901
 20
-1167.63531297029
 30
410.4821166992187
 10
671.252283443694
 20
-1150.900656974472
 30
410.4821166992187
  0
SPLINE
  5
8E7F2
330
1F
100
AcDbEntity
  8
Default
100
AcDbSpline
210
0.0
220
0.0
230
1.0
 70
     8
 71
     3
 72
    24
 73
    20
 74
     0
 42
0.000000001
 43
0.0000000001
 40
-17.0
 40
-17.0
 40
-17.0
 40
-17.0
 40
-16.0
 40
-15.0
 40
-14.0
 40
-13.0
 40
-12.0
 40
-11.0
 40
-10.0
 40
-9.0
 40
-8.0
 40
-7.0
 40
-6.0
 40
-5.0
 40
-4.0
 40
-3.0
 40
-2.0
 40
-1.0
 40
0.0
 40
0.0
 40
0.0
 40
0.0
 10
201.4753174234279
 20
-989.1415831132087
 30
410.4821166992187
 10
190.6823661303629
 20
-1000.71956779577
 30
410.4821166992187
 10
171.1826404238727
 20
-1025.789069464054
 30
410.4821166992187
 10
148.4243393629481
 20
-1067.637990868219
 30
410.4821166992187
 10
132.4077281942495
 20
-1112.445620561241
 30
410.4821166992187
 10
122.2715761020922
 20
-1158.955181094699
 30
410.4821166992187
 10
118.8891763970523
 20
-1206.398978576192
 30
410.4821166992187
 10
120.0559685098242
 20
-1253.881078094825
 30
410.4821166992187
 10
123.3562100118852
 20
-1301.291198413015
 30
410.4821166992187
 10
132.5785105928121
 20
-1347.941719663445
 30
410.4821166992187
 10
144.4331075381978
 20
-1393.942724491557
 30
410.4821166992187
 10
160.9968669270911
 20
-1438.497753721436
 30
410.4821166992187
 10
182.6068322360734
 20
-1480.966389128833
 30
410.4821166992187
 10
210.8677233285093
 20
-1519.115891488637
 30
410.4821166992187
 10
243.4704195904251
 20
-1554.281182284635
 30
410.4821166992187
 10
285.8740228856973
 20
-1576.803048627988
 30
410.4821166992187
 10
332.0924514006715
 20
-1588.478960024853
 30
410.4821166992187
 10
379.2894030652037
 20
-1594.078302984302
 30
410.4821166992187
 10
410.9535207317726
 20
-1595.023967508202
 30
410.4821166992187
 10
426.7777662933253
 20
-1595.030480802978
 30
410.4821166992187
  0
SPLINE
  5
8E7F3
330
1F
100
AcDbEntity
  8
Default
100
AcDbSpline
210
0.0
220
0.0
230
1.0
 70
     8
 71
     3
 72
    24
 73
    20
 74
     0
 42
0.000000001
 43
0.0000000001
 40
0.0
 40
0.0
 40
0.0
 40
0.0
 40
1.0
 40
2.0
 40
3.0
 40
4.0
 40
5.0
 40
6.0
 40
7.0
 40
8.0
 40
9.0
 40
10.0
 40
11.0
 40
12.0
 40
13.0
 40
14.0
 40
15.0
 40
16.0
 40
17.0
 40
17.0
 40
17.0
 40
17.0
 10
426.7777662933253
 20
-1595.030480802978
 30
410.4821166992187
 10
442.6020118548781
 20
-1595.023967508202
 30
410.4821166992187
 10
474.266129521447
 20
-1594.078302984302
 30
410.4821166992187
 10
521.4630811859792
 20
-1588.478960024853
 30
410.4821166992187
 10
567.6815097009535
 20
-1576.803048627988
 30
410.4821166992187
 10
610.0851129962257
 20
-1554.281182284635
 30
410.4821166992187
 10
642.6878092581414
 20
-1519.115891488637
 30
410.4821166992187
 10
670.9487003505773
 20
-1480.966389128833
 30
410.4821166992187
 10
692.5586656595596
 20
-1438.497753721436
 30
410.4821166992187
 10
709.1224250484529
 20
-1393.942724491557
 30
410.4821166992187
 10
720.9770219938386
 20
-1347.941719663445
 30
410.4821166992187
 10
730.1993225747655
 20
-1301.291198413015
 30
410.4821166992187
 10
733.4995640768266
 20
-1253.881078094825
 30
410.4821166992187
 10
734.6663561895984
 20
-1206.398978576192
 30
410.4821166992187
 10
731.2839564845585
 20
-1158.955181094699
 30
410.4821166992187
 10
721.1478043924012
 20
-1112.445620561241
 30
410.4821166992187
 10
705.1311932237027
 20
-1067.637990868219
 30
410.4821166992187
 10
682.372892162778
 20
-1025.789069464054
 30
410.4821166992187
 10
662.8731664562878
 20
-1000.71956779577
 30
410.4821166992187
 10
652.0802151632229
 20
-989.1415831132087
 30
410.4821166992187
  0
SPLINE
  5
8E7F4
330
1F
100
AcDbEntity
  8
Default
100
AcDbSpline
210
0.0
220
0.0
230
1.0
 70
     8
 71
     3
 72
    11
 73
     7
 74
     0
 42
0.000000001
 43
0.0000000001
 40
-4.376489242092977
 40
-4.376489242092977
 40
-4.376489242092977
 40
-4.376489242092977
 40
-2.254729024945146
 40
-1.152264979760031
 40
-0.5805792687200016
 40
0.0
 40
0.0
 40
0.0
 40
0.0
 10
316.7142775625834
 20
-1584.369681939031
 30
410.4821166992187
 10
334.0977037355251
 20
-1588.906423648904
 30
410.4821166992187
 10
360.9948186867623
 20
-1593.915186543899
 30
410.4821166992187
 10
393.0308111069985
 20
-1596.671920212084
 30
410.4821166992187
 10
412.1061082161473
 20
-1597.463405365765
 30
410.4821166992187
 10
421.8622306030178
 20
-1597.59157307912
 30
410.4821166992187
 10
426.7777662933253
 20
-1597.591603695912
 30
410.4821166992187
  0
SPLINE
  5
8E7F5
330
1F
100
AcDbEntity
  8
Default
100
AcDbSpline
210
0.0
220
0.0
230
1.0
 70
     8
 71
     3
 72
    11
 73
     7
 74
     0
 42
0.000000001
 43
0.0000000001
 40
0.0
 40
0.0
 40
0.0
 40
0.0
 40
0.5805792687200016
 40
1.152264979760031
 40
2.254729024945146
 40
4.376489242092977
 40
4.376489242092977
 40
4.376489242092977
 40
4.376489242092977
 10
426.7777662933253
 20
-1597.591603695912
 30
410.4821166992187
 10
431.6933019836328
 20
-1597.59157307912
 30
410.4821166992187
 10
441.4494243705035
 20
-1597.463405365765
 30
410.4821166992187
 10
460.5247214796523
 20
-1596.671920212084
 30
410.4821166992187
 10
492.5607138998884
 20
-1593.915186543899
 30
410.4821166992187
 10
519.4578288511256
 20
-1588.906423648904
 30
410.4821166992187
 10
536.8412550240673
 20
-1584.369681939031
 30
410.4821166992187
  0
SPLINE
  5
8E7F6
330
1F
100
AcDbEntity
  8
Default
100
AcDbSpline
210
0.0
220
0.0
230
1.0
 70
     8
 71
     3
 72
    10
 73
     6
 74
     0
 42
0.000000001
 43
0.0000000001
 40
0.0
 40
0.0
 40
0.0
 40
0.0
 40
1.13000657183866
 40
2.287921106073678
 40
8.404575460652143
 40
8.404575460652143
 40
8.404575460652143
 40
8.404575460652143
 10
142.6481673205185
 20
-1149.045878495501
 30
410.4821166992187
 10
144.2477774047806
 20
-1139.614387326358
 30
410.4821166992187
 10
148.3305187850028
 20
-1120.656984108747
 30
410.4821166992187
 10
158.9510578092367
 20
-1085.139162650912
 30
410.4821166992187
 10
177.2434275444771
 20
-1044.234092440158
 30
410.4821166992187
 10
217.3406018562532
 20
-1001.879586991243
 30
410.4821166992187
  0
ARC
  5
8E7F7
330
1F
100
AcDbEntity
  8
Default
100
AcDbCircle
 10
374.9896730589735
 20
-1151.12657314079
 30
410.4821166992187
 40
217.0895956184993
100
AcDbArc
 50
109.235218572885
 51
136.5682306074216
  0
SPLINE
  5
8E7F8
330
1F
100
AcDbEntity
  8
Default
100
AcDbSpline
210
0.0
220
0.0
230
1.0
 70
     8
 71
     3
 72
    10
 73
     6
 74
     0
 42
0.000000001
 43
0.0000000001
 40
0.0
 40
0.0
 40
0.0
 40
0.0
 40
1.13000657183866
 40
2.287921106073678
 40
8.404575460652143
 40
8.404575460652143
 40
8.404575460652143
 40
8.404575460652143
 10
710.9073652661322
 20
-1149.045878495501
 30
410.4821166992187
 10
709.3077551818701
 20
-1139.614387326358
 30
410.4821166992187
 10
705.2250138016479
 20
-1120.656984108747
 30
410.4821166992187
 10
694.604474777414
 20
-1085.139162650912
 30
410.4821166992187
 10
676.3121050421736
 20
-1044.234092440158
 30
410.4821166992187
 10
636.2149307303975
 20
-1001.879586991243
 30
410.4821166992187
  0
ARC
  5
8E7F9
330
1F
100
AcDbEntity
  8
Default
100
AcDbCircle
 10
478.5658595276772
 20
-1151.12657314079
 30
410.4821166992187
 40
217.0895956184993
100
AcDbArc
 50
43.43176939257847
 51
70.76478142711504
  0
POLYLINE
  5
8E7FA
330
1F
100
AcDbEntity
  8
Default
100
AcDb2dPolyline
 66
     1
 10
0.0
 20
0.0
 30
410.4821166992187
  0
VERTEX
  5
8E7FB
330
8E7FA
100
AcDbEntity
  8
Default
100
AcDbVertex
100
AcDb2dVertex
 10
194.0464449515902
 20
-997.451360228305
 30
410.4821166992187
  0
VERTEX
  5
8E7FC
330
8E7FA
100
AcDbEntity
  8
Default
100
AcDbVertex
100
AcDb2dVertex
 10
193.9292080733421
 20
-997.2523315023277
 30
410.4821166992187
  0
SEQEND
  5
8E7FD
330
8E7FA
100
AcDbEntity
  8
Default
  0
SPLINE
  5
8E7FE
330
1F
100
AcDbEntity
  8
Default
100
AcDbSpline
210
0.0
220
0.0
230
1.0
 70
    12
 71
     2
 72
     8
 73
     5
 74
     0
 42
0.000000001
 43
0.0000000001
 40
0.0
 40
0.0
 40
0.0
 40
0.0657021758075414
 40
0.0657021758075414
 40
0.5513779496561005
 40
0.5513779496561005
 40
0.5513779496561005
 10
193.9292080733421
 20
-997.2523315023277
 30
410.4821166992187
 41
1.0
 10
193.503885714586
 20
-996.5300254299446
 30
410.4821166992187
 41
0.9938146782922427
 10
193.24859371914
 20
-995.7319857238728
 30
410.4821166992187
 41
1.0
 10
190.9870272210623
 20
-988.2627725919579
 30
410.4821166992187
 41
0.7132736251541142
 10
198.4154748010164
 20
-985.8707035321108
 30
410.4821166992187
 41
1.0
  0
SPLINE
  5
8E7FF
330
1F
100
AcDbEntity
  8
Default
100
AcDbSpline
210
0.0
220
0.0
230
1.0
 70
    12
 71
     2
 72
     6
 73
     3
 74
     0
 42
0.000000001
 43
0.0000000001
 40
0.0
 40
0.0
 40
0.0
 40
0.2409856468466241
 40
0.2409856468466241
 40
0.2409856468466241
 10
198.4154748010164
 20
-985.8707035321108
 30
410.4821166992187
 41
1.0
 10
201.4850970022739
 20
-984.806881672606
 30
410.4821166992187
 41
0.8709777826878488
 10
204.3979309077786
 20
-986.245525502551
 30
410.4821166992187
 41
0.8913391083513609
  0
POLYLINE
  5
8E800
330
1F
100
AcDbEntity
  8
Default
100
AcDb2dPolyline
 66
     1
 10
0.0
 20
0.0
 30
410.4821166992187
  0
VERTEX
  5
8E801
330
8E800
100
AcDbEntity
  8
Default
100
AcDbVertex
100
AcDb2dVertex
 10
659.378453533348
 20
-997.6731329266353
 30
410.4821166992187
  0
VERTEX
  5
8E802
330
8E800
100
AcDbEntity
  8
Default
100
AcDbVertex
100
AcDb2dVertex
 10
659.5090876350605
 20
-997.451360228305
 30
410.4821166992187
  0
SEQEND
  5
8E803
330
8E800
100
AcDbEntity
  8
Default
  0
POLYLINE
  5
8E804
330
1F
100
AcDbEntity
  8
Default
100
AcDb2dPolyline
 66
     1
 10
0.0
 20
0.0
 30
410.4821166992187
  0
VERTEX
  5
8E805
330
8E804
100
AcDbEntity
  8
Default
100
AcDbVertex
100
AcDb2dVertex
 10
659.5090876350605
 20
-997.451360228305
 30
410.4821166992187
  0
VERTEX
  5
8E806
330
8E804
100
AcDbEntity
  8
Default
100
AcDbVertex
100
AcDb2dVertex
 10
659.6263245133086
 20
-997.2523315023277
 30
410.4821166992187
  0
SEQEND
  5
8E807
330
8E804
100
AcDbEntity
  8
Default
  0
SPLINE
  5
8E808
330
1F
100
AcDbEntity
  8
Default
100
AcDbSpline
210
0.0
220
0.0
230
1.0
 70
    12
 71
     2
 72
     8
 73
     5
 74
     0
 42
0.000000001
 43
0.0000000001
 40
0.0
 40
0.0
 40
0.0
 40
0.0657021758075414
 40
0.0657021758075414
 40
0.5513779496561005
 40
0.5513779496561005
 40
0.5513779496561005
 10
659.6263245133086
 20
-997.2523315023277
 30
410.4821166992187
 41
1.0
 10
660.0516468720647
 20
-996.5300254299446
 30
410.4821166992187
 41
0.9938146782922427
 10
660.3069388675107
 20
-995.7319857238728
 30
410.4821166992187
 41
1.0
 10
662.5685053655879
 20
-988.2627725919579
 30
410.4821166992187
 41
0.7132736251541142
 10
655.1400577856343
 20
-985.8707035321108
 30
410.4821166992187
 41
1.0
  0
SPLINE
  5
8E809
330
1F
100
AcDbEntity
  8
Default
100
AcDbSpline
210
0.0000000000000028
220
-0.0000000000000453
230
1.0
 70
    12
 71
     2
 72
     6
 73
     3
 74
     0
 42
0.000000001
 43
0.0000000001
 40
0.0
 40
0.0
 40
0.0
 40
0.2409855735434258
 40
0.2409855735434258
 40
0.2409855735434258
 10
655.1400577856343
 20
-985.8707035321108
 30
410.4821166992187
 41
1.0
 10
652.0704366564136
 20
-984.8068820441355
 30
410.4821166992188
 41
0.8709778219339256
 10
649.1576034104487
 20
-986.2455246473283
 30
410.4821166992187
 41
0.8913390959643272
  0
SPLINE
  5
8E80A
330
1F
100
AcDbEntity
  8
Default
100
AcDbSpline
210
0.0
220
0.0
230
1.0
 70
     8
 71
     3
 72
    24
 73
    20
 74
     0
 42
0.000000001
 43
0.0000000001
 40
-17.0
 40
-17.0
 40
-17.0
 40
-17.0
 40
-15.99999999439031
 40
-14.99999998878062
 40
-13.99999998317094
 40
-12.99999997756125
 40
-11.99999997195156
 40
-10.99999996634187
 40
-9.999999960732184
 40
-8.999999955122495
 40
-7.999999949512806
 40
-6.999999943903119
 40
-5.999999938293429
 40
-4.999999932683743
 40
-3.999999927074055
 40
-2.999999921464366
 40
-1.999999915854678
 40
-0.9999999102449903
 40
0.0
 40
0.0
 40
0.0
 40
0.0
 10
957.5585638186007
 20
-617.0762535575692
 30
410.4821166992187
 10
967.5136349542409
 20
-630.2009774007749
 30
410.4821166992187
 10
989.8348461023044
 20
-654.6397497624736
 30
410.4821166992187
 10
1029.679742585098
 20
-684.2476105384815
 30
410.4821166992187
 10
1074.265268112435
 20
-706.0369735368997
 30
410.4821166992187
 10
1121.845186352068
 20
-719.9009235248911
 30
410.4821166992187
 10
1170.934565409794
 20
-726.8376761091888
 30
410.4821166992187
 10
1220.389858127557
 20
-726.6046570431692
 30
410.4821166992187
 10
1269.851065135132
 20
-725.9992678897408
 30
410.4821166992187
 10
1318.90853923327
 20
-719.6632603514379
 30
410.4821166992187
 10
1367.387800465959
 20
-709.8607951937496
 30
410.4821166992187
 10
1414.822565368843
 20
-695.8234622580379
 30
410.4821166992187
 10
1460.331981434311
 20
-676.0983710200906
 30
410.4821166992187
 10
1501.807812568903
 20
-649.1598274798069
 30
410.4821166992187
 10
1539.435541422352
 20
-616.3502907671303
 30
410.4821166992187
 10
1564.747973220971
 20
-573.3132030108825
 30
410.4821166992187
 10
1577.29290041581
 20
-525.1953400530236
 30
410.4821166992187
 10
1584.048171821226
 20
-476.2260766124216
 30
410.4821166992187
 10
1585.215029333078
 20
-443.2463398235571
 30
410.4821166992187
 10
1585.21623807507
 20
-426.7777662933257
 30
410.4821166992187
  0
SPLINE
  5
8E80B
330
1F
100
AcDbEntity
  8
Default
100
AcDbSpline
210
0.0
220
0.0
230
1.0
 70
     8
 71
     3
 72
    24
 73
    20
 74
     0
 42
0.000000001
 43
0.0000000001
 40
0.0
 40
0.0
 40
0.0
 40
0.0
 40
0.9999999102449903
 40
1.999999915854678
 40
2.999999921464366
 40
3.999999927074055
 40
4.999999932683743
 40
5.999999938293429
 40
6.999999943903119
 40
7.999999949512806
 40
8.999999955122495
 40
9.999999960732184
 40
10.99999996634187
 40
11.99999997195156
 40
12.99999997756125
 40
13.99999998317094
 40
14.99999998878062
 40
15.99999999439031
 40
17.0
 40
17.0
 40
17.0
 40
17.0
 10
1585.21623807507
 20
-426.7777662933257
 30
410.4821166992187
 10
1585.215029333078
 20
-410.3091927630942
 30
410.4821166992187
 10
1584.048171821226
 20
-377.3294559742297
 30
410.4821166992187
 10
1577.29290041581
 20
-328.3601925336278
 30
410.4821166992187
 10
1564.747973220972
 20
-280.2423295757689
 30
410.4821166992187
 10
1539.435541422352
 20
-237.2052418195211
 30
410.4821166992187
 10
1501.807812568903
 20
-204.3957051068445
 30
410.4821166992187
 10
1460.331981434311
 20
-177.4571615665607
 30
410.4821166992187
 10
1414.822565368843
 20
-157.7320703286135
 30
410.4821166992187
 10
1367.387800465959
 20
-143.6947373929018
 30
410.4821166992187
 10
1318.908539233271
 20
-133.8922722352134
 30
410.4821166992187
 10
1269.851065135132
 20
-127.5562646969104
 30
410.4821166992187
 10
1220.389858127558
 20
-126.950875543482
 30
410.4821166992187
 10
1170.934565409795
 20
-126.7178564774624
 30
410.4821166992187
 10
1121.845186352069
 20
-133.6546090617601
 30
410.4821166992187
 10
1074.265268112435
 20
-147.5185590497515
 30
410.4821166992187
 10
1029.679742585098
 20
-169.3079220481697
 30
410.4821166992187
 10
989.8348461023045
 20
-198.9157828241775
 30
410.4821166992187
 10
967.5136349542411
 20
-223.3545551858763
 30
410.4821166992187
 10
957.5536409855569
 20
-236.4851578486407
 30
410.4821166992187
  0
SPLINE
  5
8E80C
330
1F
100
AcDbEntity
  8
Default
100
AcDbSpline
210
0.0
220
0.0
230
1.0
 70
     8
 71
     3
 72
    12
 73
     8
 74
     0
 42
0.000000001
 43
0.0000000001
 40
0.0
 40
0.0
 40
0.0
 40
0.0
 40
1.932841302156171
 40
3.834618248229879
 40
8.022019597965389
 40
12.14534094516417
 40
15.98237434364643
 40
15.98237434364643
 40
15.98237434364643
 40
15.98237434364643
 10
957.5536409855569
 20
-236.4851578486407
 30
410.4821166992187
 10
947.6565373461742
 20
-249.5685885368645
 30
410.4821166992187
 10
930.4484668593076
 20
-277.1403014124223
 30
410.4821166992187
 10
904.8422353226213
 20
-340.4910761842832
 30
410.4821166992187
 10
893.1574707031249
 20
-427.0119628906251
 30
410.4821166992187
 10
907.2702048727272
 20
-529.9837070920878
 30
410.4821166992187
 10
937.8962200097809
 20
-591.2261790978807
 30
410.4821166992187
 10
957.5585638186007
 20
-617.0762535575692
 30
410.4821166992187
  0
SPLINE
  5
8E80D
330
1F
100
AcDbEntity
  8
Default
100
AcDbSpline
210
0.0
220
0.0
230
1.0
 70
    12
 71
     2
 72
     6
 73
     3
 74
     0
 42
0.000000001
 43
0.0000000001
 40
0.0
 40
0.0
 40
0.0
 40
0.584707951152618
 40
0.584707951152618
 40
0.584707951152618
 10
1007.00893693149
 20
-186.4149131668334
 30
410.4821166992187
 41
1.0
 10
1012.864172572137
 20
-181.8449441908199
 30
410.4821166992187
 41
0.99964613597365
 10
1018.954165523531
 20
-177.5928403937312
 30
410.4821166992187
 41
1.0
  0
SPLINE
  5
8E80E
330
1F
100
AcDbEntity
  8
Default
100
AcDbSpline
210
0.0
220
0.0
230
1.0
 70
     8
 71
     3
 72
    12
 73
     8
 74
     0
 42
0.000000001
 43
0.0000000001
 40
0.0
 40
0.0
 40
0.0
 40
0.0
 40
1.832654236483523
 40
3.669578742657731
 40
7.371880427553498
 40
11.11625269817009
 40
14.89017125028417
 40
14.89017125028417
 40
14.89017125028417
 40
14.89017125028417
 10
1150.900656974472
 20
-671.2522834436943
 30
410.4821166992187
 10
1135.328640830533
 20
-671.2533805361861
 30
410.4821166992187
 10
1104.278458005232
 20
-668.063700077693
 30
410.4821166992187
 10
1044.36961791792
 20
-649.3800599027329
 30
410.4821166992187
 10
978.4578489967646
 20
-603.7441194680634
 30
410.4821166992187
 10
925.9971708055319
 20
-522.3841166894811
 30
410.4821166992187
 10
913.7844683072406
 20
-458.7303129582385
 30
410.4821166992187
 10
913.7788745218824
 20
-426.7777810627087
 30
410.4821166992187
  0
SPLINE
  5
8E80F
330
1F
100
AcDbEntity
  8
Default
100
AcDbSpline
210
0.0
220
0.0
230
1.0
 70
     8
 71
     3
 72
    12
 73
     8
 74
     0
 42
0.000000001
 43
0.0000000001
 40
0.0
 40
0.0
 40
0.0
 40
0.0
 40
1.889355098582429
 40
3.774519559296819
 40
7.516682166840942
 40
11.21816918271822
 40
14.89017237659326
 40
14.89017237659326
 40
14.89017237659326
 40
14.89017237659326
 10
913.7788745218824
 20
-426.7777810627087
 30
410.4821166992187
 10
913.7805958288966
 20
-410.7825559259433
 30
410.4821166992187
 10
916.8543368189606
 20
-378.8230511865525
 30
410.4821166992187
 10
934.8299253872479
 20
-317.4803528542077
 30
410.4821166992187
 10
978.4385241629435
 20
-249.8373985417495
 30
410.4821166992187
 10
1057.35181895995
 20
-195.176449541939
 30
410.4821166992187
 10
1119.764583221318
 20
-182.2947634658024
 30
410.4821166992187
 10
1150.85840708585
 20
-182.3030962149876
 30
410.4821166992187
  0
SPLINE
  5
8E810
330
1F
100
AcDbEntity
  8
Default
100
AcDbSpline
210
0.0
220
0.0
230
1.0
 70
     8
 71
     3
 72
    12
 73
     8
 74
     0
 42
0.000000001
 43
0.0000000001
 40
-15.35241690788854
 40
-15.35241690788854
 40
-15.35241690788854
 40
-15.35241690788854
 40
-11.42846766997576
 40
-7.624449320975275
 40
-3.868777776849768
 40
-1.918305221211262
 40
0.0
 40
0.0
 40
0.0
 40
0.0
 10
1150.85840708585
 20
-182.3030962149876
 30
410.4821166992187
 10
1184.06593589664
 20
-182.3025604389502
 30
410.4821166992187
 10
1249.64380916197
 20
-194.1254116261783
 30
410.4821166992187
 10
1333.202065134704
 20
-247.5791971043462
 30
410.4821166992187
 10
1379.295606718483
 20
-315.6488559817593
 30
410.4821166992187
 10
1397.941366284211
 20
-377.775441901644
 30
410.4821166992187
 10
1401.111547061771
 20
-410.537690264496
 30
410.4821166992187
 10
1401.098067641196
 20
-426.7777674869833
 30
410.4821166992187
  0
SPLINE
  5
8E811
330
1F
100
AcDbEntity
  8
Default
100
AcDbSpline
210
0.0
220
0.0
230
1.0
 70
     8
 71
     3
 72
    12
 73
     8
 74
     0
 42
0.000000001
 43
0.0000000001
 40
-15.34910739099933
 40
-15.34910739099933
 40
-15.34910739099933
 40
-15.34910739099933
 40
-11.58400586625319
 40
-7.773657509622682
 40
-3.936637318219009
 40
-1.971105179282631
 40
0.0
 40
0.0
 40
0.0
 40
0.0
 10
1401.098067641196
 20
-426.7777674869833
 30
410.4821166992187
 10
1401.090353887857
 20
-458.6400431298368
 30
410.4821166992187
 10
1389.023329321076
 20
-522.8764359142464
 30
410.4821166992187
 10
1334.361956452641
 20
-605.0671396373099
 30
410.4821166992187
 10
1264.538229919996
 20
-650.0712569025465
 30
410.4821166992187
 10
1200.980796411417
 20
-668.2095216104656
 30
410.4821166992187
 10
1167.635312970289
 20
-671.2584772699904
 30
410.4821166992187
 10
1150.900656974472
 20
-671.2522834436943
 30
410.4821166992187
  0
SPLINE
  5
8E812
330
1F
100
AcDbEntity
  8
Default
100
AcDbSpline
210
0.0
220
0.0
230
1.0
 70
     8
 71
     3
 72
    24
 73
    20
 74
     0
 42
0.000000001
 43
0.0000000001
 40
-17.0
 40
-17.0
 40
-17.0
 40
-17.0
 40
-16.0
 40
-15.0
 40
-14.0
 40
-13.0
 40
-12.0
 40
-11.0
 40
-10.0
 40
-9.0
 40
-8.0
 40
-7.0
 40
-6.0
 40
-5.0
 40
-4.0
 40
-3.0
 40
-2.0
 40
-1.0
 40
0.0
 40
0.0
 40
0.0
 40
0.0
 10
989.1415831132087
 20
-201.4753174234281
 30
410.4821166992187
 10
1000.71956779577
 20
-190.6823661303631
 30
410.4821166992187
 10
1025.789069464054
 20
-171.1826404238729
 30
410.4821166992187
 10
1067.637990868219
 20
-148.4243393629483
 30
410.4821166992187
 10
1112.445620561241
 20
-132.4077281942498
 30
410.4821166992187
 10
1158.955181094699
 20
-122.2715761020925
 30
410.4821166992187
 10
1206.398978576192
 20
-118.8891763970526
 30
410.4821166992187
 10
1253.881078094825
 20
-120.0559685098244
 30
410.4821166992187
 10
1301.291198413015
 20
-123.3562100118855
 30
410.4821166992187
 10
1347.941719663445
 20
-132.5785105928124
 30
410.4821166992187
 10
1393.942724491557
 20
-144.4331075381982
 30
410.4821166992187
 10
1438.497753721436
 20
-160.9968669270914
 30
410.4821166992187
 10
1480.966389128833
 20
-182.6068322360737
 30
410.4821166992187
 10
1519.115891488637
 20
-210.8677233285097
 30
410.4821166992187
 10
1554.281182284635
 20
-243.4704195904254
 30
410.4821166992187
 10
1576.803048627988
 20
-285.8740228856976
 30
410.4821166992187
 10
1588.478960024853
 20
-332.0924514006719
 30
410.4821166992187
 10
1594.078302984302
 20
-379.289403065204
 30
410.4821166992187
 10
1595.023967508202
 20
-410.953520731773
 30
410.4821166992187
 10
1595.030480802978
 20
-426.7777662933257
 30
410.4821166992187
  0
SPLINE
  5
8E813
330
1F
100
AcDbEntity
  8
Default
100
AcDbSpline
210
0.0
220
0.0
230
1.0
 70
     8
 71
     3
 72
    24
 73
    20
 74
     0
 42
0.000000001
 43
0.0000000001
 40
0.0
 40
0.0
 40
0.0
 40
0.0
 40
1.0
 40
2.0
 40
3.0
 40
4.0
 40
5.0
 40
6.0
 40
7.0
 40
8.0
 40
9.0
 40
10.0
 40
11.0
 40
12.0
 40
13.0
 40
14.0
 40
15.0
 40
16.0
 40
17.0
 40
17.0
 40
17.0
 40
17.0
 10
1595.030480802978
 20
-426.7777662933257
 30
410.4821166992187
 10
1595.023967508202
 20
-442.6020118548784
 30
410.4821166992187
 10
1594.078302984302
 20
-474.2661295214474
 30
410.4821166992187
 10
1588.478960024853
 20
-521.4630811859795
 30
410.4821166992187
 10
1576.803048627988
 20
-567.6815097009538
 30
410.4821166992187
 10
1554.281182284635
 20
-610.085112996226
 30
410.4821166992187
 10
1519.115891488637
 20
-642.6878092581418
 30
410.4821166992187
 10
1480.966389128833
 20
-670.9487003505777
 30
410.4821166992187
 10
1438.497753721435
 20
-692.55866565956
 30
410.4821166992187
 10
1393.942724491557
 20
-709.1224250484532
 30
410.4821166992187
 10
1347.941719663444
 20
-720.9770219938389
 30
410.4821166992187
 10
1301.291198413014
 20
-730.1993225747659
 30
410.4821166992187
 10
1253.881078094825
 20
-733.4995640768267
 30
410.4821166992187
 10
1206.398978576191
 20
-734.6663561895987
 30
410.4821166992187
 10
1158.955181094699
 20
-731.2839564845587
 30
410.4821166992187
 10
1112.445620561241
 20
-721.1478043924014
 30
410.4821166992187
 10
1067.637990868218
 20
-705.1311932237029
 30
410.4821166992187
 10
1025.789069464053
 20
-682.3728921627782
 30
410.4821166992187
 10
1000.719567795769
 20
-662.8731664562881
 30
410.4821166992187
 10
989.1415831132086
 20
-652.080215163223
 30
410.4821166992187
  0
SPLINE
  5
8E814
330
1F
100
AcDbEntity
  8
Default
100
AcDbSpline
210
0.0
220
0.0
230
1.0
 70
     8
 71
     3
 72
    11
 73
     7
 74
     0
 42
0.000000001
 43
0.0000000001
 40
-4.376489242092977
 40
-4.376489242092977
 40
-4.376489242092977
 40
-4.376489242092977
 40
-2.254729024945146
 40
-1.152264979760031
 40
-0.5805792687200016
 40
0.0
 40
0.0
 40
0.0
 40
0.0
 10
1584.369681939031
 20
-316.7142775625838
 30
410.4821166992187
 10
1588.906423648904
 20
-334.0977037355254
 30
410.4821166992187
 10
1593.915186543899
 20
-360.9948186867626
 30
410.4821166992187
 10
1596.671920212084
 20
-393.0308111069988
 30
410.4821166992187
 10
1597.463405365765
 20
-412.1061082161475
 30
410.4821166992187
 10
1597.59157307912
 20
-421.8622306030182
 30
410.4821166992187
 10
1597.591603695912
 20
-426.7777662933257
 30
410.4821166992187
  0
SPLINE
  5
8E815
330
1F
100
AcDbEntity
  8
Default
100
AcDbSpline
210
0.0
220
0.0
230
1.0
 70
     8
 71
     3
 72
    11
 73
     7
 74
     0
 42
0.000000001
 43
0.0000000001
 40
0.0
 40
0.0
 40
0.0
 40
0.0
 40
0.5805792687200016
 40
1.152264979760031
 40
2.254729024945146
 40
4.376489242092977
 40
4.376489242092977
 40
4.376489242092977
 40
4.376489242092977
 10
1597.591603695912
 20
-426.7777662933257
 30
410.4821166992187
 10
1597.59157307912
 20
-431.6933019836332
 30
410.4821166992187
 10
1597.463405365765
 20
-441.4494243705038
 30
410.4821166992187
 10
1596.671920212084
 20
-460.5247214796526
 30
410.4821166992187
 10
1593.915186543899
 20
-492.5607138998888
 30
410.4821166992187
 10
1588.906423648904
 20
-519.457828851126
 30
410.4821166992187
 10
1584.36968193903
 20
-536.8412550240676
 30
410.4821166992187
  0
SPLINE
  5
8E816
330
1F
100
AcDbEntity
  8
Default
100
AcDbSpline
210
0.0
220
0.0
230
1.0
 70
     8
 71
     3
 72
    10
 73
     6
 74
     0
 42
0.000000001
 43
0.0000000001
 40
0.0
 40
0.0
 40
0.0
 40
0.0
 40
1.13000657183866
 40
2.287921106073678
 40
8.404575460652143
 40
8.404575460652143
 40
8.404575460652143
 40
8.404575460652143
 10
1149.045878495501
 20
-142.6481673205187
 30
410.4821166992187
 10
1139.614387326358
 20
-144.2477774047809
 30
410.4821166992187
 10
1120.656984108747
 20
-148.3305187850031
 30
410.4821166992187
 10
1085.139162650912
 20
-158.951057809237
 30
410.4821166992187
 10
1044.234092440158
 20
-177.2434275444773
 30
410.4821166992187
 10
1001.879586991243
 20
-217.3406018562535
 30
410.4821166992187
  0
ARC
  5
8E817
330
1F
100
AcDbEntity
  8
Default
100
AcDbCircle
 10
1151.12657314079
 20
-374.9896730589737
 30
410.4821166992187
 40
217.0895956184993
100
AcDbArc
 50
133.4317693925784
 51
160.764781427115
  0
SPLINE
  5
8E818
330
1F
100
AcDbEntity
  8
Default
100
AcDbSpline
210
0.0
220
0.0
230
1.0
 70
     8
 71
     3
 72
    10
 73
     6
 74
     0
 42
0.000000001
 43
0.0000000001
 40
0.0
 40
0.0
 40
0.0
 40
0.0
 40
1.13000657183866
 40
2.287921106073678
 40
8.404575460652143
 40
8.404575460652143
 40
8.404575460652143
 40
8.404575460652143
 10
1149.045878495501
 20
-710.9073652661325
 30
410.4821166992187
 10
1139.614387326357
 20
-709.3077551818703
 30
410.4821166992187
 10
1120.656984108746
 20
-705.2250138016481
 30
410.4821166992187
 10
1085.139162650911
 20
-694.6044747774142
 30
410.4821166992187
 10
1044.234092440158
 20
-676.3121050421739
 30
410.4821166992187
 10
1001.879586991243
 20
-636.2149307303978
 30
410.4821166992187
  0
ARC
  5
8E819
330
1F
100
AcDbEntity
  8
Default
100
AcDbCircle
 10
1151.12657314079
 20
-478.5658595276775
 30
410.4821166992187
 40
217.0895956184993
100
AcDbArc
 50
199.2352185728849
 51
226.5682306074216
  0
POLYLINE
  5
8E81A
330
1F
100
AcDbEntity
  8
Default
100
AcDb2dPolyline
 66
     1
 10
0.0
 20
0.0
 30
410.4821166992187
  0
VERTEX
  5
8E81B
330
8E81A
100
AcDbEntity
  8
Default
100
AcDbVertex
100
AcDb2dVertex
 10
997.451360228305
 20
-194.0464449515905
 30
410.4821166992187
  0
VERTEX
  5
8E81C
330
8E81A
100
AcDbEntity
  8
Default
100
AcDbVertex
100
AcDb2dVertex
 10
997.2523315023277
 20
-193.9292080733423
 30
410.4821166992187
  0
SEQEND
  5
8E81D
330
8E81A
100
AcDbEntity
  8
Default
  0
SPLINE
  5
8E81E
330
1F
100
AcDbEntity
  8
Default
100
AcDbSpline
210
0.0
220
0.0
230
1.0
 70
    12
 71
     2
 72
     8
 73
     5
 74
     0
 42
0.000000001
 43
0.0000000001
 40
0.0
 40
0.0
 40
0.0
 40
0.0657021758075414
 40
0.0657021758075414
 40
0.5513779496561005
 40
0.5513779496561005
 40
0.5513779496561005
 10
997.2523315023277
 20
-193.9292080733423
 30
410.4821166992187
 41
1.0
 10
996.5300254299446
 20
-193.5038857145862
 30
410.4821166992187
 41
0.9938146782922427
 10
995.7319857238728
 20
-193.2485937191402
 30
410.4821166992187
 41
1.0
 10
988.2627725919579
 20
-190.9870272210625
 30
410.4821166992187
 41
0.7132736251541142
 10
985.8707035321108
 20
-198.4154748010166
 30
410.4821166992187
 41
1.0
  0
SPLINE
  5
8E81F
330
1F
100
AcDbEntity
  8
Default
100
AcDbSpline
210
0.0
220
0.0
230
1.0
 70
    12
 71
     2
 72
     6
 73
     3
 74
     0
 42
0.000000001
 43
0.0000000001
 40
0.0
 40
0.0
 40
0.0
 40
0.2409856468466241
 40
0.2409856468466241
 40
0.2409856468466241
 10
985.8707035321108
 20
-198.4154748010166
 30
410.4821166992187
 41
1.0
 10
984.806881672606
 20
-201.4850970022742
 30
410.4821166992187
 41
0.8709777826878488
 10
986.245525502551
 20
-204.3979309077788
 30
410.4821166992187
 41
0.8913391083513609
  0
POLYLINE
  5
8E820
330
1F
100
AcDbEntity
  8
Default
100
AcDb2dPolyline
 66
     1
 10
0.0
 20
0.0
 30
410.4821166992187
  0
VERTEX
  5
8E821
330
8E820
100
AcDbEntity
  8
Default
100
AcDbVertex
100
AcDb2dVertex
 10
997.6731329266353
 20
-659.3784535333481
 30
410.4821166992187
  0
VERTEX
  5
8E822
330
8E820
100
AcDbEntity
  8
Default
100
AcDbVertex
100
AcDb2dVertex
 10
997.451360228305
 20
-659.5090876350607
 30
410.4821166992187
  0
SEQEND
  5
8E823
330
8E820
100
AcDbEntity
  8
Default
  0
POLYLINE
  5
8E824
330
1F
100
AcDbEntity
  8
Default
100
AcDb2dPolyline
 66
     1
 10
0.0
 20
0.0
 30
410.4821166992187
  0
VERTEX
  5
8E825
330
8E824
100
AcDbEntity
  8
Default
100
AcDbVertex
100
AcDb2dVertex
 10
997.451360228305
 20
-659.5090876350607
 30
410.4821166992187
  0
VERTEX
  5
8E826
330
8E824
100
AcDbEntity
  8
Default
100
AcDbVertex
100
AcDb2dVertex
 10
997.2523315023275
 20
-659.6263245133088
 30
410.4821166992187
  0
SEQEND
  5
8E827
330
8E824
100
AcDbEntity
  8
Default
  0
SPLINE
  5
8E828
330
1F
100
AcDbEntity
  8
Default
100
AcDbSpline
210
0.0
220
0.0
230
1.0
 70
    12
 71
     2
 72
     8
 73
     5
 74
     0
 42
0.000000001
 43
0.0000000001
 40
0.0
 40
0.0
 40
0.0
 40
0.0657021758075414
 40
0.0657021758075414
 40
0.5513779496561005
 40
0.5513779496561005
 40
0.5513779496561005
 10
997.2523315023275
 20
-659.6263245133088
 30
410.4821166992187
 41
1.0
 10
996.5300254299444
 20
-660.051646872065
 30
410.4821166992187
 41
0.9938146782922427
 10
995.7319857238728
 20
-660.306938867511
 30
410.4821166992187
 41
1.0
 10
988.2627725919578
 20
-662.5685053655882
 30
410.4821166992187
 41
0.7132736251541142
 10
985.8707035321106
 20
-655.1400577856345
 30
410.4821166992187
 41
1.0
  0
SPLINE
  5
8E829
330
1F
100
AcDbEntity
  8
Default
100
AcDbSpline
210
0.0000000000000453
220
-0.0000000000000028
230
1.0
 70
    12
 71
     2
 72
     6
 73
     3
 74
     0
 42
0.000000001
 43
0.0000000001
 40
0.0
 40
0.0
 40
0.0
 40
0.2409855735434258
 40
0.2409855735434258
 40
0.2409855735434258
 10
985.8707035321106
 20
-655.1400577856345
 30
410.4821166992187
 41
1.0
 10
984.8068820441353
 20
-652.0704366564139
 30
410.4821166992188
 41
0.8709778219339256
 10
986.2455246473281
 20
-649.1576034104489
 30
410.4821166992187
 41
0.8913390959643272
  0
SPLINE
  5
8E82A
330
1F
100
AcDbEntity
  8
Default
100
AcDbSpline
210
0.0
220
0.0
230
1.0
 70
     8
 71
     3
 72
    24
 73
    20
 74
     0
 42
0.000000001
 43
0.0000000001
 40
-17.0
 40
-17.0
 40
-17.0
 40
-17.0
 40
-15.99999999439031
 40
-14.99999998878062
 40
-13.99999998317094
 40
-12.99999997756125
 40
-11.99999997195156
 40
-10.99999996634187
 40
-9.999999960732184
 40
-8.999999955122495
 40
-7.999999949512806
 40
-6.999999943903119
 40
-5.999999938293429
 40
-4.999999932683743
 40
-3.999999927074055
 40
-2.999999921464366
 40
-1.999999915854678
 40
-0.9999999102449903
 40
0.0
 40
0.0
 40
0.0
 40
0.0
 10
957.5585638186009
 20
617.0762535575688
 30
410.4821166992187
 10
967.5136349542411
 20
630.2009774007744
 30
410.4821166992187
 10
989.8348461023045
 20
654.6397497624732
 30
410.4821166992187
 10
1029.679742585099
 20
684.247610538481
 30
410.4821166992187
 10
1074.265268112435
 20
706.0369735368992
 30
410.4821166992187
 10
1121.845186352069
 20
719.9009235248906
 30
410.4821166992187
 10
1170.934565409795
 20
726.8376761091883
 30
410.4821166992187
 10
1220.389858127558
 20
726.6046570431687
 30
410.4821166992187
 10
1269.851065135132
 20
725.9992678897404
 30
410.4821166992187
 10
1318.908539233271
 20
719.6632603514373
 30
410.4821166992187
 10
1367.387800465959
 20
709.8607951937489
 30
410.4821166992187
 10
1414.822565368843
 20
695.8234622580372
 30
410.4821166992187
 10
1460.331981434312
 20
676.09837102009
 30
410.4821166992187
 10
1501.807812568903
 20
649.1598274798063
 30
410.4821166992187
 10
1539.435541422353
 20
616.3502907671296
 30
410.4821166992187
 10
1564.747973220972
 20
573.3132030108818
 30
410.4821166992187
 10
1577.29290041581
 20
525.1953400530229
 30
410.4821166992187
 10
1584.048171821226
 20
476.226076612421
 30
410.4821166992187
 10
1585.215029333078
 20
443.2463398235564
 30
410.4821166992187
 10
1585.21623807507
 20
426.777766293325
 30
410.4821166992187
  0
SPLINE
  5
8E82B
330
1F
100
AcDbEntity
  8
Default
100
AcDbSpline
210
0.0
220
0.0
230
1.0
 70
     8
 71
     3
 72
    24
 73
    20
 74
     0
 42
0.000000001
 43
0.0000000001
 40
0.0
 40
0.0
 40
0.0
 40
0.0
 40
0.9999999102449903
 40
1.999999915854678
 40
2.999999921464366
 40
3.999999927074055
 40
4.999999932683743
 40
5.999999938293429
 40
6.999999943903119
 40
7.999999949512806
 40
8.999999955122495
 40
9.999999960732184
 40
10.99999996634187
 40
11.99999997195156
 40
12.99999997756125
 40
13.99999998317094
 40
14.99999998878062
 40
15.99999999439031
 40
17.0
 40
17.0
 40
17.0
 40
17.0
 10
1585.21623807507
 20
426.777766293325
 30
410.4821166992187
 10
1585.215029333078
 20
410.3091927630936
 30
410.4821166992187
 10
1584.048171821226
 20
377.3294559742291
 30
410.4821166992187
 10
1577.29290041581
 20
328.3601925336271
 30
410.4821166992187
 10
1564.747973220972
 20
280.2423295757682
 30
410.4821166992187
 10
1539.435541422352
 20
237.2052418195204
 30
410.4821166992187
 10
1501.807812568903
 20
204.3957051068438
 30
410.4821166992187
 10
1460.331981434311
 20
177.4571615665601
 30
410.4821166992187
 10
1414.822565368843
 20
157.7320703286128
 30
410.4821166992187
 10
1367.387800465959
 20
143.6947373929012
 30
410.4821166992187
 10
1318.908539233271
 20
133.8922722352128
 30
410.4821166992187
 10
1269.851065135132
 20
127.5562646969098
 30
410.4821166992187
 10
1220.389858127558
 20
126.9508755434815
 30
410.4821166992187
 10
1170.934565409795
 20
126.7178564774619
 30
410.4821166992187
 10
1121.845186352069
 20
133.6546090617596
 30
410.4821166992187
 10
1074.265268112435
 20
147.518559049751
 30
410.4821166992187
 10
1029.679742585098
 20
169.3079220481693
 30
410.4821166992187
 10
989.8348461023045
 20
198.9157828241771
 30
410.4821166992187
 10
967.5136349542411
 20
223.3545551858758
 30
410.4821166992187
 10
957.5536409855569
 20
236.4851578486403
 30
410.4821166992187
  0
SPLINE
  5
8E82C
330
1F
100
AcDbEntity
  8
Default
100
AcDbSpline
210
0.0
220
0.0
230
1.0
 70
     8
 71
     3
 72
    12
 73
     8
 74
     0
 42
0.000000001
 43
0.0000000001
 40
0.0
 40
0.0
 40
0.0
 40
0.0
 40
1.932841302156171
 40
3.834618248229879
 40
8.022019597965389
 40
12.14534094516417
 40
15.98237434364643
 40
15.98237434364643
 40
15.98237434364643
 40
15.98237434364643
 10
957.5536409855569
 20
236.4851578486403
 30
410.4821166992187
 10
947.6565373461742
 20
249.5685885368641
 30
410.4821166992187
 10
930.4484668593078
 20
277.1403014124219
 30
410.4821166992187
 10
904.8422353226216
 20
340.4910761842828
 30
410.4821166992187
 10
893.157470703125
 20
427.0119628906248
 30
410.4821166992187
 10
907.2702048727276
 20
529.9837070920873
 30
410.4821166992187
 10
937.8962200097811
 20
591.2261790978802
 30
410.4821166992187
 10
957.5585638186009
 20
617.0762535575688
 30
410.4821166992187
  0
SPLINE
  5
8E82D
330
1F
100
AcDbEntity
  8
Default
100
AcDbSpline
210
0.0
220
0.0
230
1.0
 70
    12
 71
     2
 72
     6
 73
     3
 74
     0
 42
0.000000001
 43
0.0000000001
 40
0.0
 40
0.0
 40
0.0
 40
0.584707951152618
 40
0.584707951152618
 40
0.584707951152618
 10
1007.00893693149
 20
186.414913166833
 30
410.4821166992187
 41
1.0
 10
1012.864172572137
 20
181.8449441908194
 30
410.4821166992187
 41
0.99964613597365
 10
1018.954165523531
 20
177.5928403937307
 30
410.4821166992187
 41
1.0
  0
SPLINE
  5
8E82E
330
1F
100
AcDbEntity
  8
Default
100
AcDbSpline
210
0.0
220
0.0
230
1.0
 70
     8
 71
     3
 72
    12
 73
     8
 74
     0
 42
0.000000001
 43
0.0000000001
 40
0.0
 40
0.0
 40
0.0
 40
0.0
 40
1.832654236483523
 40
3.669578742657731
 40
7.371880427553498
 40
11.11625269817009
 40
14.89017125028417
 40
14.89017125028417
 40
14.89017125028417
 40
14.89017125028417
 10
1150.900656974472
 20
671.2522834436938
 30
410.4821166992187
 10
1135.328640830534
 20
671.2533805361856
 30
410.4821166992187
 10
1104.278458005233
 20
668.0637000776926
 30
410.4821166992187
 10
1044.36961791792
 20
649.3800599027324
 30
410.4821166992187
 10
978.457848996765
 20
603.744119468063
 30
410.4821166992187
 10
925.9971708055321
 20
522.3841166894806
 30
410.4821166992187
 10
913.7844683072408
 20
458.730312958238
 30
410.4821166992187
 10
913.7788745218825
 20
426.7777810627083
 30
410.4821166992187
  0
SPLINE
  5
8E82F
330
1F
100
AcDbEntity
  8
Default
100
AcDbSpline
210
0.0
220
0.0
230
1.0
 70
     8
 71
     3
 72
    12
 73
     8
 74
     0
 42
0.000000001
 43
0.0000000001
 40
0.0
 40
0.0
 40
0.0
 40
0.0
 40
1.889355098582429
 40
3.774519559296819
 40
7.516682166840942
 40
11.21816918271822
 40
14.89017237659326
 40
14.89017237659326
 40
14.89017237659326
 40
14.89017237659326
 10
913.7788745218825
 20
426.7777810627083
 30
410.4821166992187
 10
913.780595828897
 20
410.7825559259429
 30
410.4821166992187
 10
916.8543368189608
 20
378.823051186552
 30
410.4821166992187
 10
934.8299253872481
 20
317.4803528542073
 30
410.4821166992187
 10
978.4385241629435
 20
249.8373985417491
 30
410.4821166992187
 10
1057.35181895995
 20
195.1764495419386
 30
410.4821166992187
 10
1119.764583221318
 20
182.2947634658019
 30
410.4821166992187
 10
1150.85840708585
 20
182.3030962149871
 30
410.4821166992187
  0
SPLINE
  5
8E830
330
1F
100
AcDbEntity
  8
Default
100
AcDbSpline
210
0.0
220
0.0
230
1.0
 70
     8
 71
     3
 72
    12
 73
     8
 74
     0
 42
0.000000001
 43
0.0000000001
 40
-15.35241690788854
 40
-15.35241690788854
 40
-15.35241690788854
 40
-15.35241690788854
 40
-11.42846766997576
 40
-7.624449320975275
 40
-3.868777776849768
 40
-1.918305221211262
 40
0.0
 40
0.0
 40
0.0
 40
0.0
 10
1150.85840708585
 20
182.3030962149871
 30
410.4821166992187
 10
1184.06593589664
 20
182.3025604389497
 30
410.4821166992187
 10
1249.64380916197
 20
194.1254116261777
 30
410.4821166992187
 10
1333.202065134704
 20
247.5791971043456
 30
410.4821166992187
 10
1379.295606718483
 20
315.6488559817587
 30
410.4821166992187
 10
1397.941366284211
 20
377.7754419016434
 30
410.4821166992187
 10
1401.111547061771
 20
410.5376902644954
 30
410.4821166992187
 10
1401.098067641196
 20
426.7777674869828
 30
410.4821166992187
  0
SPLINE
  5
8E831
330
1F
100
AcDbEntity
  8
Default
100
AcDbSpline
210
0.0
220
0.0
230
1.0
 70
     8
 71
     3
 72
    12
 73
     8
 74
     0
 42
0.000000001
 43
0.0000000001
 40
-15.34910739099933
 40
-15.34910739099933
 40
-15.34910739099933
 40
-15.34910739099933
 40
-11.58400586625319
 40
-7.773657509622682
 40
-3.936637318219009
 40
-1.971105179282631
 40
0.0
 40
0.0
 40
0.0
 40
0.0
 10
1401.098067641196
 20
426.7777674869828
 30
410.4821166992187
 10
1401.090353887857
 20
458.6400431298363
 30
410.4821166992187
 10
1389.023329321076
 20
522.8764359142457
 30
410.4821166992187
 10
1334.361956452642
 20
605.0671396373092
 30
410.4821166992187
 10
1264.538229919996
 20
650.0712569025461
 30
410.4821166992187
 10
1200.980796411417
 20
668.209521610465
 30
410.4821166992187
 10
1167.63531297029
 20
671.2584772699899
 30
410.4821166992187
 10
1150.900656974472
 20
671.2522834436938
 30
410.4821166992187
  0
SPLINE
  5
8E832
330
1F
100
AcDbEntity
  8
Default
100
AcDbSpline
210
0.0
220
0.0
230
1.0
 70
     8
 71
     3
 72
    24
 73
    20
 74
     0
 42
0.000000001
 43
0.0000000001
 40
-17.0
 40
-17.0
 40
-17.0
 40
-17.0
 40
-16.0
 40
-15.0
 40
-14.0
 40
-13.0
 40
-12.0
 40
-11.0
 40
-10.0
 40
-9.0
 40
-8.0
 40
-7.0
 40
-6.0
 40
-5.0
 40
-4.0
 40
-3.0
 40
-2.0
 40
-1.0
 40
0.0
 40
0.0
 40
0.0
 40
0.0
 10
989.1415831132087
 20
201.4753174234277
 30
410.4821166992187
 10
1000.71956779577
 20
190.6823661303626
 30
410.4821166992187
 10
1025.789069464054
 20
171.1826404238725
 30
410.4821166992187
 10
1067.637990868219
 20
148.4243393629478
 30
410.4821166992187
 10
1112.445620561241
 20
132.4077281942493
 30
410.4821166992187
 10
1158.955181094699
 20
122.271576102092
 30
410.4821166992187
 10
1206.398978576192
 20
118.889176397052
 30
410.4821166992187
 10
1253.881078094825
 20
120.0559685098239
 30
410.4821166992187
 10
1301.291198413015
 20
123.3562100118849
 30
410.4821166992187
 10
1347.941719663445
 20
132.5785105928118
 30
410.4821166992187
 10
1393.942724491557
 20
144.4331075381975
 30
410.4821166992187
 10
1438.497753721436
 20
160.9968669270908
 30
410.4821166992187
 10
1480.966389128833
 20
182.606832236073
 30
410.4821166992187
 10
1519.115891488637
 20
210.867723328509
 30
410.4821166992187
 10
1554.281182284635
 20
243.4704195904247
 30
410.4821166992187
 10
1576.803048627988
 20
285.8740228856969
 30
410.4821166992187
 10
1588.478960024853
 20
332.0924514006712
 30
410.4821166992187
 10
1594.078302984302
 20
379.2894030652034
 30
410.4821166992187
 10
1595.023967508202
 20
410.9535207317723
 30
410.4821166992187
 10
1595.030480802978
 20
426.777766293325
 30
410.4821166992187
  0
SPLINE
  5
8E833
330
1F
100
AcDbEntity
  8
Default
100
AcDbSpline
210
0.0
220
0.0
230
1.0
 70
     8
 71
     3
 72
    24
 73
    20
 74
     0
 42
0.000000001
 43
0.0000000001
 40
0.0
 40
0.0
 40
0.0
 40
0.0
 40
1.0
 40
2.0
 40
3.0
 40
4.0
 40
5.0
 40
6.0
 40
7.0
 40
8.0
 40
9.0
 40
10.0
 40
11.0
 40
12.0
 40
13.0
 40
14.0
 40
15.0
 40
16.0
 40
17.0
 40
17.0
 40
17.0
 40
17.0
 10
1595.030480802978
 20
426.777766293325
 30
410.4821166992187
 10
1595.023967508202
 20
442.6020118548778
 30
410.4821166992187
 10
1594.078302984302
 20
474.2661295214467
 30
410.4821166992187
 10
1588.478960024853
 20
521.4630811859789
 30
410.4821166992187
 10
1576.803048627988
 20
567.6815097009531
 30
410.4821166992187
 10
1554.281182284635
 20
610.0851129962253
 30
410.4821166992187
 10
1519.115891488638
 20
642.6878092581411
 30
410.4821166992187
 10
1480.966389128834
 20
670.948700350577
 30
410.4821166992187
 10
1438.497753721436
 20
692.5586656595593
 30
410.4821166992187
 10
1393.942724491557
 20
709.1224250484525
 30
410.4821166992187
 10
1347.941719663445
 20
720.9770219938383
 30
410.4821166992187
 10
1301.291198413015
 20
730.1993225747652
 30
410.4821166992187
 10
1253.881078094826
 20
733.4995640768263
 30
410.4821166992187
 10
1206.398978576192
 20
734.6663561895982
 30
410.4821166992187
 10
1158.955181094699
 20
731.2839564845583
 30
410.4821166992187
 10
1112.445620561242
 20
721.1478043924009
 30
410.4821166992187
 10
1067.637990868219
 20
705.1311932237024
 30
410.4821166992187
 10
1025.789069464054
 20
682.3728921627778
 30
410.4821166992187
 10
1000.71956779577
 20
662.8731664562876
 30
410.4821166992187
 10
989.1415831132089
 20
652.0802151632226
 30
410.4821166992187
  0
SPLINE
  5
8E834
330
1F
100
AcDbEntity
  8
Default
100
AcDbSpline
210
0.0
220
0.0
230
1.0
 70
     8
 71
     3
 72
    11
 73
     7
 74
     0
 42
0.000000001
 43
0.0000000001
 40
-4.376489242092977
 40
-4.376489242092977
 40
-4.376489242092977
 40
-4.376489242092977
 40
-2.254729024945146
 40
-1.152264979760031
 40
-0.5805792687200016
 40
0.0
 40
0.0
 40
0.0
 40
0.0
 10
1584.369681939031
 20
316.7142775625831
 30
410.4821166992187
 10
1588.906423648904
 20
334.0977037355248
 30
410.4821166992187
 10
1593.915186543899
 20
360.994818686762
 30
410.4821166992187
 10
1596.671920212084
 20
393.0308111069982
 30
410.4821166992187
 10
1597.463405365765
 20
412.1061082161469
 30
410.4821166992187
 10
1597.59157307912
 20
421.8622306030175
 30
410.4821166992187
 10
1597.591603695912
 20
426.777766293325
 30
410.4821166992187
  0
SPLINE
  5
8E835
330
1F
100
AcDbEntity
  8
Default
100
AcDbSpline
210
0.0
220
0.0
230
1.0
 70
     8
 71
     3
 72
    11
 73
     7
 74
     0
 42
0.000000001
 43
0.0000000001
 40
0.0
 40
0.0
 40
0.0
 40
0.0
 40
0.5805792687200016
 40
1.152264979760031
 40
2.254729024945146
 40
4.376489242092977
 40
4.376489242092977
 40
4.376489242092977
 40
4.376489242092977
 10
1597.591603695912
 20
426.777766293325
 30
410.4821166992187
 10
1597.59157307912
 20
431.6933019836325
 30
410.4821166992187
 10
1597.463405365765
 20
441.4494243705031
 30
410.4821166992187
 10
1596.671920212084
 20
460.5247214796519
 30
410.4821166992187
 10
1593.915186543899
 20
492.5607138998881
 30
410.4821166992187
 10
1588.906423648904
 20
519.4578288511253
 30
410.4821166992187
 10
1584.369681939031
 20
536.841255024067
 30
410.4821166992187
  0
SPLINE
  5
8E836
330
1F
100
AcDbEntity
  8
Default
100
AcDbSpline
210
0.0
220
0.0
230
1.0
 70
     8
 71
     3
 72
    10
 73
     6
 74
     0
 42
0.000000001
 43
0.0000000001
 40
0.0
 40
0.0
 40
0.0
 40
0.0
 40
1.13000657183866
 40
2.287921106073678
 40
8.404575460652143
 40
8.404575460652143
 40
8.404575460652143
 40
8.404575460652143
 10
1149.045878495501
 20
142.6481673205182
 30
410.4821166992187
 10
1139.614387326358
 20
144.2477774047804
 30
410.4821166992187
 10
1120.656984108747
 20
148.3305187850025
 30
410.4821166992187
 10
1085.139162650912
 20
158.9510578092365
 30
410.4821166992187
 10
1044.234092440158
 20
177.2434275444768
 30
410.4821166992187
 10
1001.879586991243
 20
217.340601856253
 30
410.4821166992187
  0
ARC
  5
8E837
330
1F
100
AcDbEntity
  8
Default
100
AcDbCircle
 10
1151.12657314079
 20
374.9896730589733
 30
410.4821166992187
 40
217.0895956184993
100
AcDbArc
 50
199.2352185728849
 51
226.5682306074216
  0
SPLINE
  5
8E838
330
1F
100
AcDbEntity
  8
Default
100
AcDbSpline
210
0.0
220
0.0
230
1.0
 70
     8
 71
     3
 72
    10
 73
     6
 74
     0
 42
0.000000001
 43
0.0000000001
 40
0.0
 40
0.0
 40
0.0
 40
0.0
 40
1.13000657183866
 40
2.287921106073678
 40
8.404575460652143
 40
8.404575460652143
 40
8.404575460652143
 40
8.404575460652143
 10
1149.045878495501
 20
710.907365266132
 30
410.4821166992187
 10
1139.614387326358
 20
709.3077551818699
 30
410.4821166992187
 10
1120.656984108747
 20
705.2250138016477
 30
410.4821166992187
 10
1085.139162650912
 20
694.6044747774138
 30
410.4821166992187
 10
1044.234092440158
 20
676.3121050421735
 30
410.4821166992187
 10
1001.879586991243
 20
636.2149307303972
 30
410.4821166992187
  0
ARC
  5
8E839
330
1F
100
AcDbEntity
  8
Default
100
AcDbCircle
 10
1151.12657314079
 20
478.565859527677
 30
410.4821166992187
 40
217.0895956184993
100
AcDbArc
 50
133.4317693925784
 51
160.764781427115
  0
POLYLINE
  5
8E83A
330
1F
100
AcDbEntity
  8
Default
100
AcDb2dPolyline
 66
     1
 10
0.0
 20
0.0
 30
410.4821166992187
  0
VERTEX
  5
8E83B
330
8E83A
100
AcDbEntity
  8
Default
100
AcDbVertex
100
AcDb2dVertex
 10
997.451360228305
 20
194.04644495159
 30
410.4821166992187
  0
VERTEX
  5
8E83C
330
8E83A
100
AcDbEntity
  8
Default
100
AcDbVertex
100
AcDb2dVertex
 10
997.2523315023277
 20
193.9292080733419
 30
410.4821166992187
  0
SEQEND
  5
8E83D
330
8E83A
100
AcDbEntity
  8
Default
  0
SPLINE
  5
8E83E
330
1F
100
AcDbEntity
  8
Default
100
AcDbSpline
210
0.0
220
0.0
230
1.0
 70
    12
 71
     2
 72
     8
 73
     5
 74
     0
 42
0.000000001
 43
0.0000000001
 40
0.0
 40
0.0
 40
0.0
 40
0.0657021758075414
 40
0.0657021758075414
 40
0.5513779496561005
 40
0.5513779496561005
 40
0.5513779496561005
 10
997.2523315023277
 20
193.9292080733419
 30
410.4821166992187
 41
1.0
 10
996.5300254299446
 20
193.5038857145857
 30
410.4821166992187
 41
0.9938146782922427
 10
995.7319857238728
 20
193.2485937191397
 30
410.4821166992187
 41
1.0
 10
988.2627725919579
 20
190.9870272210621
 30
410.4821166992187
 41
0.7132736251541142
 10
985.8707035321108
 20
198.4154748010162
 30
410.4821166992187
 41
1.0
  0
SPLINE
  5
8E83F
330
1F
100
AcDbEntity
  8
Default
100
AcDbSpline
210
0.0
220
0.0
230
1.0
 70
    12
 71
     2
 72
     6
 73
     3
 74
     0
 42
0.000000001
 43
0.0000000001
 40
0.0
 40
0.0
 40
0.0
 40
0.2409856468466241
 40
0.2409856468466241
 40
0.2409856468466241
 10
985.8707035321108
 20
198.4154748010162
 30
410.4821166992187
 41
1.0
 10
984.806881672606
 20
201.4850970022737
 30
410.4821166992187
 41
0.8709777826878488
 10
986.245525502551
 20
204.3979309077784
 30
410.4821166992187
 41
0.8913391083513609
  0
POLYLINE
  5
8E840
330
1F
100
AcDbEntity
  8
Default
100
AcDb2dPolyline
 66
     1
 10
0.0
 20
0.0
 30
410.4821166992187
  0
VERTEX
  5
8E841
330
8E840
100
AcDbEntity
  8
Default
100
AcDbVertex
100
AcDb2dVertex
 10
997.6731329266355
 20
659.3784535333477
 30
410.4821166992187
  0
VERTEX
  5
8E842
330
8E840
100
AcDbEntity
  8
Default
100
AcDbVertex
100
AcDb2dVertex
 10
997.4513602283051
 20
659.5090876350602
 30
410.4821166992187
  0
SEQEND
  5
8E843
330
8E840
100
AcDbEntity
  8
Default
  0
POLYLINE
  5
8E844
330
1F
100
AcDbEntity
  8
Default
100
AcDb2dPolyline
 66
     1
 10
0.0
 20
0.0
 30
410.4821166992187
  0
VERTEX
  5
8E845
330
8E844
100
AcDbEntity
  8
Default
100
AcDbVertex
100
AcDb2dVertex
 10
997.4513602283051
 20
659.5090876350602
 30
410.4821166992187
  0
VERTEX
  5
8E846
330
8E844
100
AcDbEntity
  8
Default
100
AcDbVertex
100
AcDb2dVertex
 10
997.2523315023279
 20
659.6263245133084
 30
410.4821166992187
  0
SEQEND
  5
8E847
330
8E844
100
AcDbEntity
  8
Default
  0
SPLINE
  5
8E848
330
1F
100
AcDbEntity
  8
Default
100
AcDbSpline
210
0.0
220
0.0
230
1.0
 70
    12
 71
     2
 72
     8
 73
     5
 74
     0
 42
0.000000001
 43
0.0000000001
 40
0.0
 40
0.0
 40
0.0
 40
0.0657021758075414
 40
0.0657021758075414
 40
0.5513779496561005
 40
0.5513779496561005
 40
0.5513779496561005
 10
997.2523315023279
 20
659.6263245133084
 30
410.4821166992187
 41
1.0
 10
996.5300254299446
 20
660.0516468720646
 30
410.4821166992187
 41
0.9938146782922427
 10
995.7319857238729
 20
660.3069388675105
 30
410.4821166992187
 41
1.0
 10
988.2627725919579
 20
662.5685053655877
 30
410.4821166992187
 41
0.7132736251541142
 10
985.870703532111
 20
655.1400577856341
 30
410.4821166992187
 41
1.0
  0
SPLINE
  5
8E849
330
1F
100
AcDbEntity
  8
Default
100
AcDbSpline
210
0.0000000000000453
220
0.0000000000000028
230
1.0
 70
    12
 71
     2
 72
     6
 73
     3
 74
     0
 42
0.000000001
 43
0.0000000001
 40
0.0
 40
0.0
 40
0.0
 40
0.2409855735434258
 40
0.2409855735434258
 40
0.2409855735434258
 10
985.870703532111
 20
655.1400577856341
 30
410.4821166992187
 41
1.0
 10
984.8068820441357
 20
652.0704366564133
 30
410.4821166992188
 41
0.8709778219339256
 10
986.2455246473283
 20
649.1576034104485
 30
410.4821166992187
 41
0.8913390959643272
  0
SPLINE
  5
8E84A
330
1F
100
AcDbEntity
  8
Default
100
AcDbSpline
210
0.0
220
0.0
230
1.0
 70
     8
 71
     3
 72
    24
 73
    20
 74
     0
 42
0.000000001
 43
0.0000000001
 40
-17.0
 40
-17.0
 40
-17.0
 40
-17.0
 40
-15.99999999439031
 40
-14.99999998878062
 40
-13.99999998317094
 40
-12.99999997756125
 40
-11.99999997195156
 40
-10.99999996634187
 40
-9.999999960732184
 40
-8.999999955122495
 40
-7.999999949512806
 40
-6.999999943903119
 40
-5.999999938293429
 40
-4.999999932683743
 40
-3.999999927074055
 40
-2.999999921464366
 40
-1.999999915854678
 40
-0.9999999102449903
 40
0.0
 40
0.0
 40
0.0
 40
0.0
 10
-957.5585638186009
 20
-617.0762535575688
 30
410.4821166992187
 10
-967.5136349542411
 20
-630.2009774007744
 30
410.4821166992187
 10
-989.8348461023045
 20
-654.6397497624732
 30
410.4821166992187
 10
-1029.679742585099
 20
-684.247610538481
 30
410.4821166992187
 10
-1074.265268112435
 20
-706.0369735368992
 30
410.4821166992187
 10
-1121.845186352069
 20
-719.9009235248906
 30
410.4821166992187
 10
-1170.934565409795
 20
-726.8376761091883
 30
410.4821166992187
 10
-1220.389858127558
 20
-726.6046570431687
 30
410.4821166992187
 10
-1269.851065135132
 20
-725.9992678897404
 30
410.4821166992187
 10
-1318.908539233271
 20
-719.6632603514373
 30
410.4821166992187
 10
-1367.387800465959
 20
-709.8607951937489
 30
410.4821166992187
 10
-1414.822565368843
 20
-695.8234622580372
 30
410.4821166992187
 10
-1460.331981434312
 20
-676.09837102009
 30
410.4821166992187
 10
-1501.807812568903
 20
-649.1598274798063
 30
410.4821166992187
 10
-1539.435541422353
 20
-616.3502907671296
 30
410.4821166992187
 10
-1564.747973220972
 20
-573.3132030108818
 30
410.4821166992187
 10
-1577.29290041581
 20
-525.1953400530229
 30
410.4821166992187
 10
-1584.048171821226
 20
-476.226076612421
 30
410.4821166992187
 10
-1585.215029333078
 20
-443.2463398235564
 30
410.4821166992187
 10
-1585.21623807507
 20
-426.777766293325
 30
410.4821166992187
  0
SPLINE
  5
8E84B
330
1F
100
AcDbEntity
  8
Default
100
AcDbSpline
210
0.0
220
0.0
230
1.0
 70
     8
 71
     3
 72
    24
 73
    20
 74
     0
 42
0.000000001
 43
0.0000000001
 40
0.0
 40
0.0
 40
0.0
 40
0.0
 40
0.9999999102449903
 40
1.999999915854678
 40
2.999999921464366
 40
3.999999927074055
 40
4.999999932683743
 40
5.999999938293429
 40
6.999999943903119
 40
7.999999949512806
 40
8.999999955122495
 40
9.999999960732184
 40
10.99999996634187
 40
11.99999997195156
 40
12.99999997756125
 40
13.99999998317094
 40
14.99999998878062
 40
15.99999999439031
 40
17.0
 40
17.0
 40
17.0
 40
17.0
 10
-1585.21623807507
 20
-426.777766293325
 30
410.4821166992187
 10
-1585.215029333078
 20
-410.3091927630936
 30
410.4821166992187
 10
-1584.048171821226
 20
-377.3294559742291
 30
410.4821166992187
 10
-1577.29290041581
 20
-328.3601925336271
 30
410.4821166992187
 10
-1564.747973220972
 20
-280.2423295757682
 30
410.4821166992187
 10
-1539.435541422352
 20
-237.2052418195204
 30
410.4821166992187
 10
-1501.807812568903
 20
-204.3957051068438
 30
410.4821166992187
 10
-1460.331981434311
 20
-177.4571615665601
 30
410.4821166992187
 10
-1414.822565368843
 20
-157.7320703286128
 30
410.4821166992187
 10
-1367.387800465959
 20
-143.6947373929012
 30
410.4821166992187
 10
-1318.908539233271
 20
-133.8922722352128
 30
410.4821166992187
 10
-1269.851065135132
 20
-127.5562646969098
 30
410.4821166992187
 10
-1220.389858127558
 20
-126.9508755434815
 30
410.4821166992187
 10
-1170.934565409795
 20
-126.7178564774619
 30
410.4821166992187
 10
-1121.845186352069
 20
-133.6546090617596
 30
410.4821166992187
 10
-1074.265268112435
 20
-147.518559049751
 30
410.4821166992187
 10
-1029.679742585098
 20
-169.3079220481693
 30
410.4821166992187
 10
-989.8348461023045
 20
-198.9157828241771
 30
410.4821166992187
 10
-967.5136349542411
 20
-223.3545551858758
 30
410.4821166992187
 10
-957.5536409855569
 20
-236.4851578486403
 30
410.4821166992187
  0
SPLINE
  5
8E84C
330
1F
100
AcDbEntity
  8
Default
100
AcDbSpline
210
0.0
220
0.0
230
1.0
 70
     8
 71
     3
 72
    12
 73
     8
 74
     0
 42
0.000000001
 43
0.0000000001
 40
0.0
 40
0.0
 40
0.0
 40
0.0
 40
1.932841302156171
 40
3.834618248229879
 40
8.022019597965389
 40
12.14534094516417
 40
15.98237434364643
 40
15.98237434364643
 40
15.98237434364643
 40
15.98237434364643
 10
-957.5536409855569
 20
-236.4851578486403
 30
410.4821166992187
 10
-947.6565373461742
 20
-249.5685885368641
 30
410.4821166992187
 10
-930.4484668593078
 20
-277.1403014124219
 30
410.4821166992187
 10
-904.8422353226216
 20
-340.4910761842828
 30
410.4821166992187
 10
-893.157470703125
 20
-427.0119628906248
 30
410.4821166992187
 10
-907.2702048727276
 20
-529.9837070920873
 30
410.4821166992187
 10
-937.8962200097811
 20
-591.2261790978802
 30
410.4821166992187
 10
-957.5585638186009
 20
-617.0762535575688
 30
410.4821166992187
  0
SPLINE
  5
8E84D
330
1F
100
AcDbEntity
  8
Default
100
AcDbSpline
210
0.0
220
0.0
230
1.0
 70
    12
 71
     2
 72
     6
 73
     3
 74
     0
 42
0.000000001
 43
0.0000000001
 40
0.0
 40
0.0
 40
0.0
 40
0.584707951152618
 40
0.584707951152618
 40
0.584707951152618
 10
-1007.00893693149
 20
-186.414913166833
 30
410.4821166992187
 41
1.0
 10
-1012.864172572137
 20
-181.8449441908194
 30
410.4821166992187
 41
0.99964613597365
 10
-1018.954165523531
 20
-177.5928403937307
 30
410.4821166992187
 41
1.0
  0
SPLINE
  5
8E84E
330
1F
100
AcDbEntity
  8
Default
100
AcDbSpline
210
0.0
220
0.0
230
1.0
 70
     8
 71
     3
 72
    12
 73
     8
 74
     0
 42
0.000000001
 43
0.0000000001
 40
0.0
 40
0.0
 40
0.0
 40
0.0
 40
1.832654236483523
 40
3.669578742657731
 40
7.371880427553498
 40
11.11625269817009
 40
14.89017125028417
 40
14.89017125028417
 40
14.89017125028417
 40
14.89017125028417
 10
-1150.900656974472
 20
-671.2522834436938
 30
410.4821166992187
 10
-1135.328640830534
 20
-671.2533805361856
 30
410.4821166992187
 10
-1104.278458005233
 20
-668.0637000776926
 30
410.4821166992187
 10
-1044.36961791792
 20
-649.3800599027324
 30
410.4821166992187
 10
-978.457848996765
 20
-603.744119468063
 30
410.4821166992187
 10
-925.9971708055321
 20
-522.3841166894806
 30
410.4821166992187
 10
-913.7844683072408
 20
-458.730312958238
 30
410.4821166992187
 10
-913.7788745218825
 20
-426.7777810627083
 30
410.4821166992187
  0
SPLINE
  5
8E84F
330
1F
100
AcDbEntity
  8
Default
100
AcDbSpline
210
0.0
220
0.0
230
1.0
 70
     8
 71
     3
 72
    12
 73
     8
 74
     0
 42
0.000000001
 43
0.0000000001
 40
0.0
 40
0.0
 40
0.0
 40
0.0
 40
1.889355098582429
 40
3.774519559296819
 40
7.516682166840942
 40
11.21816918271822
 40
14.89017237659326
 40
14.89017237659326
 40
14.89017237659326
 40
14.89017237659326
 10
-913.7788745218825
 20
-426.7777810627083
 30
410.4821166992187
 10
-913.780595828897
 20
-410.7825559259429
 30
410.4821166992187
 10
-916.8543368189608
 20
-378.823051186552
 30
410.4821166992187
 10
-934.8299253872481
 20
-317.4803528542073
 30
410.4821166992187
 10
-978.4385241629435
 20
-249.8373985417491
 30
410.4821166992187
 10
-1057.35181895995
 20
-195.1764495419386
 30
410.4821166992187
 10
-1119.764583221318
 20
-182.2947634658019
 30
410.4821166992187
 10
-1150.85840708585
 20
-182.3030962149871
 30
410.4821166992187
  0
SPLINE
  5
8E850
330
1F
100
AcDbEntity
  8
Default
100
AcDbSpline
210
0.0
220
0.0
230
1.0
 70
     8
 71
     3
 72
    12
 73
     8
 74
     0
 42
0.000000001
 43
0.0000000001
 40
-15.35241690788854
 40
-15.35241690788854
 40
-15.35241690788854
 40
-15.35241690788854
 40
-11.42846766997576
 40
-7.624449320975275
 40
-3.868777776849768
 40
-1.918305221211262
 40
0.0
 40
0.0
 40
0.0
 40
0.0
 10
-1150.85840708585
 20
-182.3030962149871
 30
410.4821166992187
 10
-1184.06593589664
 20
-182.3025604389497
 30
410.4821166992187
 10
-1249.64380916197
 20
-194.1254116261777
 30
410.4821166992187
 10
-1333.202065134704
 20
-247.5791971043456
 30
410.4821166992187
 10
-1379.295606718483
 20
-315.6488559817587
 30
410.4821166992187
 10
-1397.941366284211
 20
-377.7754419016434
 30
410.4821166992187
 10
-1401.111547061771
 20
-410.5376902644954
 30
410.4821166992187
 10
-1401.098067641196
 20
-426.7777674869828
 30
410.4821166992187
  0
SPLINE
  5
8E851
330
1F
100
AcDbEntity
  8
Default
100
AcDbSpline
210
0.0
220
0.0
230
1.0
 70
     8
 71
     3
 72
    12
 73
     8
 74
     0
 42
0.000000001
 43
0.0000000001
 40
-15.34910739099933
 40
-15.34910739099933
 40
-15.34910739099933
 40
-15.34910739099933
 40
-11.58400586625319
 40
-7.773657509622682
 40
-3.936637318219009
 40
-1.971105179282631
 40
0.0
 40
0.0
 40
0.0
 40
0.0
 10
-1401.098067641196
 20
-426.7777674869828
 30
410.4821166992187
 10
-1401.090353887857
 20
-458.6400431298363
 30
410.4821166992187
 10
-1389.023329321076
 20
-522.8764359142457
 30
410.4821166992187
 10
-1334.361956452642
 20
-605.0671396373092
 30
410.4821166992187
 10
-1264.538229919996
 20
-650.0712569025461
 30
410.4821166992187
 10
-1200.980796411417
 20
-668.209521610465
 30
410.4821166992187
 10
-1167.63531297029
 20
-671.2584772699899
 30
410.4821166992187
 10
-1150.900656974472
 20
-671.2522834436938
 30
410.4821166992187
  0
SPLINE
  5
8E852
330
1F
100
AcDbEntity
  8
Default
100
AcDbSpline
210
0.0
220
0.0
230
1.0
 70
     8
 71
     3
 72
    24
 73
    20
 74
     0
 42
0.000000001
 43
0.0000000001
 40
-17.0
 40
-17.0
 40
-17.0
 40
-17.0
 40
-16.0
 40
-15.0
 40
-14.0
 40
-13.0
 40
-12.0
 40
-11.0
 40
-10.0
 40
-9.0
 40
-8.0
 40
-7.0
 40
-6.0
 40
-5.0
 40
-4.0
 40
-3.0
 40
-2.0
 40
-1.0
 40
0.0
 40
0.0
 40
0.0
 40
0.0
 10
-989.1415831132087
 20
-201.4753174234277
 30
410.4821166992187
 10
-1000.71956779577
 20
-190.6823661303626
 30
410.4821166992187
 10
-1025.789069464054
 20
-171.1826404238725
 30
410.4821166992187
 10
-1067.637990868219
 20
-148.4243393629478
 30
410.4821166992187
 10
-1112.445620561241
 20
-132.4077281942493
 30
410.4821166992187
 10
-1158.955181094699
 20
-122.271576102092
 30
410.4821166992187
 10
-1206.398978576192
 20
-118.889176397052
 30
410.4821166992187
 10
-1253.881078094825
 20
-120.0559685098239
 30
410.4821166992187
 10
-1301.291198413015
 20
-123.3562100118849
 30
410.4821166992187
 10
-1347.941719663445
 20
-132.5785105928118
 30
410.4821166992187
 10
-1393.942724491557
 20
-144.4331075381975
 30
410.4821166992187
 10
-1438.497753721436
 20
-160.9968669270908
 30
410.4821166992187
 10
-1480.966389128833
 20
-182.606832236073
 30
410.4821166992187
 10
-1519.115891488637
 20
-210.867723328509
 30
410.4821166992187
 10
-1554.281182284635
 20
-243.4704195904247
 30
410.4821166992187
 10
-1576.803048627988
 20
-285.8740228856969
 30
410.4821166992187
 10
-1588.478960024853
 20
-332.0924514006712
 30
410.4821166992187
 10
-1594.078302984302
 20
-379.2894030652034
 30
410.4821166992187
 10
-1595.023967508202
 20
-410.9535207317723
 30
410.4821166992187
 10
-1595.030480802978
 20
-426.777766293325
 30
410.4821166992187
  0
SPLINE
  5
8E853
330
1F
100
AcDbEntity
  8
Default
100
AcDbSpline
210
0.0
220
0.0
230
1.0
 70
     8
 71
     3
 72
    24
 73
    20
 74
     0
 42
0.000000001
 43
0.0000000001
 40
0.0
 40
0.0
 40
0.0
 40
0.0
 40
1.0
 40
2.0
 40
3.0
 40
4.0
 40
5.0
 40
6.0
 40
7.0
 40
8.0
 40
9.0
 40
10.0
 40
11.0
 40
12.0
 40
13.0
 40
14.0
 40
15.0
 40
16.0
 40
17.0
 40
17.0
 40
17.0
 40
17.0
 10
-1595.030480802978
 20
-426.777766293325
 30
410.4821166992187
 10
-1595.023967508202
 20
-442.6020118548778
 30
410.4821166992187
 10
-1594.078302984302
 20
-474.2661295214467
 30
410.4821166992187
 10
-1588.478960024853
 20
-521.4630811859789
 30
410.4821166992187
 10
-1576.803048627988
 20
-567.6815097009531
 30
410.4821166992187
 10
-1554.281182284635
 20
-610.0851129962253
 30
410.4821166992187
 10
-1519.115891488638
 20
-642.6878092581411
 30
410.4821166992187
 10
-1480.966389128834
 20
-670.948700350577
 30
410.4821166992187
 10
-1438.497753721436
 20
-692.5586656595593
 30
410.4821166992187
 10
-1393.942724491557
 20
-709.1224250484525
 30
410.4821166992187
 10
-1347.941719663445
 20
-720.9770219938383
 30
410.4821166992187
 10
-1301.291198413015
 20
-730.1993225747652
 30
410.4821166992187
 10
-1253.881078094826
 20
-733.4995640768263
 30
410.4821166992187
 10
-1206.398978576192
 20
-734.6663561895982
 30
410.4821166992187
 10
-1158.955181094699
 20
-731.2839564845583
 30
410.4821166992187
 10
-1112.445620561242
 20
-721.1478043924009
 30
410.4821166992187
 10
-1067.637990868219
 20
-705.1311932237024
 30
410.4821166992187
 10
-1025.789069464054
 20
-682.3728921627778
 30
410.4821166992187
 10
-1000.71956779577
 20
-662.8731664562876
 30
410.4821166992187
 10
-989.1415831132089
 20
-652.0802151632226
 30
410.4821166992187
  0
SPLINE
  5
8E854
330
1F
100
AcDbEntity
  8
Default
100
AcDbSpline
210
0.0
220
0.0
230
1.0
 70
     8
 71
     3
 72
    11
 73
     7
 74
     0
 42
0.000000001
 43
0.0000000001
 40
-4.376489242092977
 40
-4.376489242092977
 40
-4.376489242092977
 40
-4.376489242092977
 40
-2.254729024945146
 40
-1.152264979760031
 40
-0.5805792687200016
 40
0.0
 40
0.0
 40
0.0
 40
0.0
 10
-1584.369681939031
 20
-316.7142775625831
 30
410.4821166992187
 10
-1588.906423648904
 20
-334.0977037355248
 30
410.4821166992187
 10
-1593.915186543899
 20
-360.994818686762
 30
410.4821166992187
 10
-1596.671920212084
 20
-393.0308111069982
 30
410.4821166992187
 10
-1597.463405365765
 20
-412.1061082161469
 30
410.4821166992187
 10
-1597.59157307912
 20
-421.8622306030175
 30
410.4821166992187
 10
-1597.591603695912
 20
-426.777766293325
 30
410.4821166992187
  0
SPLINE
  5
8E855
330
1F
100
AcDbEntity
  8
Default
100
AcDbSpline
210
0.0
220
0.0
230
1.0
 70
     8
 71
     3
 72
    11
 73
     7
 74
     0
 42
0.000000001
 43
0.0000000001
 40
0.0
 40
0.0
 40
0.0
 40
0.0
 40
0.5805792687200016
 40
1.152264979760031
 40
2.254729024945146
 40
4.376489242092977
 40
4.376489242092977
 40
4.376489242092977
 40
4.376489242092977
 10
-1597.591603695912
 20
-426.777766293325
 30
410.4821166992187
 10
-1597.59157307912
 20
-431.6933019836325
 30
410.4821166992187
 10
-1597.463405365765
 20
-441.4494243705031
 30
410.4821166992187
 10
-1596.671920212084
 20
-460.5247214796519
 30
410.4821166992187
 10
-1593.915186543899
 20
-492.5607138998881
 30
410.4821166992187
 10
-1588.906423648904
 20
-519.4578288511253
 30
410.4821166992187
 10
-1584.369681939031
 20
-536.841255024067
 30
410.4821166992187
  0
SPLINE
  5
8E856
330
1F
100
AcDbEntity
  8
Default
100
AcDbSpline
210
0.0
220
0.0
230
1.0
 70
     8
 71
     3
 72
    10
 73
     6
 74
     0
 42
0.000000001
 43
0.0000000001
 40
0.0
 40
0.0
 40
0.0
 40
0.0
 40
1.13000657183866
 40
2.287921106073678
 40
8.404575460652143
 40
8.404575460652143
 40
8.404575460652143
 40
8.404575460652143
 10
-1149.045878495501
 20
-142.6481673205182
 30
410.4821166992187
 10
-1139.614387326358
 20
-144.2477774047804
 30
410.4821166992187
 10
-1120.656984108747
 20
-148.3305187850025
 30
410.4821166992187
 10
-1085.139162650912
 20
-158.9510578092365
 30
410.4821166992187
 10
-1044.234092440158
 20
-177.2434275444768
 30
410.4821166992187
 10
-1001.879586991243
 20
-217.340601856253
 30
410.4821166992187
  0
ARC
  5
8E857
330
1F
100
AcDbEntity
  8
Default
100
AcDbCircle
 10
-1151.12657314079
 20
-374.9896730589733
 30
410.4821166992187
 40
217.0895956184993
100
AcDbArc
 50
19.23521857288494
 51
46.56823060742152
  0
SPLINE
  5
8E858
330
1F
100
AcDbEntity
  8
Default
100
AcDbSpline
210
0.0
220
0.0
230
1.0
 70
     8
 71
     3
 72
    10
 73
     6
 74
     0
 42
0.000000001
 43
0.0000000001
 40
0.0
 40
0.0
 40
0.0
 40
0.0
 40
1.13000657183866
 40
2.287921106073678
 40
8.404575460652143
 40
8.404575460652143
 40
8.404575460652143
 40
8.404575460652143
 10
-1149.045878495501
 20
-710.907365266132
 30
410.4821166992187
 10
-1139.614387326358
 20
-709.3077551818699
 30
410.4821166992187
 10
-1120.656984108747
 20
-705.2250138016477
 30
410.4821166992187
 10
-1085.139162650912
 20
-694.6044747774138
 30
410.4821166992187
 10
-1044.234092440158
 20
-676.3121050421735
 30
410.4821166992187
 10
-1001.879586991243
 20
-636.2149307303972
 30
410.4821166992187
  0
ARC
  5
8E859
330
1F
100
AcDbEntity
  8
Default
100
AcDbCircle
 10
-1151.12657314079
 20
-478.565859527677
 30
410.4821166992187
 40
217.0895956184993
100
AcDbArc
 50
313.4317693925784
 51
340.7647814271151
  0
POLYLINE
  5
8E85A
330
1F
100
AcDbEntity
  8
Default
100
AcDb2dPolyline
 66
     1
 10
0.0
 20
0.0
 30
410.4821166992187
  0
VERTEX
  5
8E85B
330
8E85A
100
AcDbEntity
  8
Default
100
AcDbVertex
100
AcDb2dVertex
 10
-997.451360228305
 20
-194.04644495159
 30
410.4821166992187
  0
VERTEX
  5
8E85C
330
8E85A
100
AcDbEntity
  8
Default
100
AcDbVertex
100
AcDb2dVertex
 10
-997.2523315023277
 20
-193.9292080733419
 30
410.4821166992187
  0
SEQEND
  5
8E85D
330
8E85A
100
AcDbEntity
  8
Default
  0
SPLINE
  5
8E85E
330
1F
100
AcDbEntity
  8
Default
100
AcDbSpline
210
0.0
220
0.0
230
1.0
 70
    12
 71
     2
 72
     8
 73
     5
 74
     0
 42
0.000000001
 43
0.0000000001
 40
0.0
 40
0.0
 40
0.0
 40
0.0657021758075414
 40
0.0657021758075414
 40
0.5513779496561005
 40
0.5513779496561005
 40
0.5513779496561005
 10
-997.2523315023277
 20
-193.9292080733419
 30
410.4821166992187
 41
1.0
 10
-996.5300254299446
 20
-193.5038857145857
 30
410.4821166992187
 41
0.9938146782922427
 10
-995.7319857238728
 20
-193.2485937191397
 30
410.4821166992187
 41
1.0
 10
-988.2627725919579
 20
-190.9870272210621
 30
410.4821166992187
 41
0.7132736251541142
 10
-985.8707035321108
 20
-198.4154748010162
 30
410.4821166992187
 41
1.0
  0
SPLINE
  5
8E85F
330
1F
100
AcDbEntity
  8
Default
100
AcDbSpline
210
0.0
220
0.0
230
1.0
 70
    12
 71
     2
 72
     6
 73
     3
 74
     0
 42
0.000000001
 43
0.0000000001
 40
0.0
 40
0.0
 40
0.0
 40
0.2409856468466241
 40
0.2409856468466241
 40
0.2409856468466241
 10
-985.8707035321108
 20
-198.4154748010162
 30
410.4821166992187
 41
1.0
 10
-984.806881672606
 20
-201.4850970022737
 30
410.4821166992187
 41
0.8709777826878488
 10
-986.245525502551
 20
-204.3979309077784
 30
410.4821166992187
 41
0.8913391083513609
  0
POLYLINE
  5
8E860
330
1F
100
AcDbEntity
  8
Default
100
AcDb2dPolyline
 66
     1
 10
0.0
 20
0.0
 30
410.4821166992187
  0
VERTEX
  5
8E861
330
8E860
100
AcDbEntity
  8
Default
100
AcDbVertex
100
AcDb2dVertex
 10
-997.6731329266355
 20
-659.3784535333477
 30
410.4821166992187
  0
VERTEX
  5
8E862
330
8E860
100
AcDbEntity
  8
Default
100
AcDbVertex
100
AcDb2dVertex
 10
-997.4513602283051
 20
-659.5090876350602
 30
410.4821166992187
  0
SEQEND
  5
8E863
330
8E860
100
AcDbEntity
  8
Default
  0
POLYLINE
  5
8E864
330
1F
100
AcDbEntity
  8
Default
100
AcDb2dPolyline
 66
     1
 10
0.0
 20
0.0
 30
410.4821166992187
  0
VERTEX
  5
8E865
330
8E864
100
AcDbEntity
  8
Default
100
AcDbVertex
100
AcDb2dVertex
 10
-997.4513602283051
 20
-659.5090876350602
 30
410.4821166992187
  0
VERTEX
  5
8E866
330
8E864
100
AcDbEntity
  8
Default
100
AcDbVertex
100
AcDb2dVertex
 10
-997.2523315023279
 20
-659.6263245133084
 30
410.4821166992187
  0
SEQEND
  5
8E867
330
8E864
100
AcDbEntity
  8
Default
  0
SPLINE
  5
8E868
330
1F
100
AcDbEntity
  8
Default
100
AcDbSpline
210
0.0
220
0.0
230
1.0
 70
    12
 71
     2
 72
     8
 73
     5
 74
     0
 42
0.000000001
 43
0.0000000001
 40
0.0
 40
0.0
 40
0.0
 40
0.0657021758075414
 40
0.0657021758075414
 40
0.5513779496561005
 40
0.5513779496561005
 40
0.5513779496561005
 10
-997.2523315023279
 20
-659.6263245133084
 30
410.4821166992187
 41
1.0
 10
-996.5300254299446
 20
-660.0516468720646
 30
410.4821166992187
 41
0.9938146782922427
 10
-995.7319857238729
 20
-660.3069388675105
 30
410.4821166992187
 41
1.0
 10
-988.2627725919579
 20
-662.5685053655877
 30
410.4821166992187
 41
0.7132736251541142
 10
-985.870703532111
 20
-655.1400577856341
 30
410.4821166992187
 41
1.0
  0
SPLINE
  5
8E869
330
1F
100
AcDbEntity
  8
Default
100
AcDbSpline
210
-0.0000000000000453
220
-0.0000000000000028
230
1.0
 70
    12
 71
     2
 72
     6
 73
     3
 74
     0
 42
0.000000001
 43
0.0000000001
 40
0.0
 40
0.0
 40
0.0
 40
0.2409855735434258
 40
0.2409855735434258
 40
0.2409855735434258
 10
-985.870703532111
 20
-655.1400577856341
 30
410.4821166992187
 41
1.0
 10
-984.8068820441357
 20
-652.0704366564133
 30
410.4821166992188
 41
0.8709778219339256
 10
-986.2455246473283
 20
-649.1576034104485
 30
410.4821166992187
 41
0.8913390959643272
  0
SPLINE
  5
8E86A
330
1F
100
AcDbEntity
  8
Default
100
AcDbSpline
210
0.0
220
0.0
230
1.0
 70
     8
 71
     3
 72
    24
 73
    20
 74
     0
 42
0.000000001
 43
0.0000000001
 40
-17.0
 40
-17.0
 40
-17.0
 40
-17.0
 40
-15.99999999439031
 40
-14.99999998878062
 40
-13.99999998317094
 40
-12.99999997756125
 40
-11.99999997195156
 40
-10.99999996634187
 40
-9.999999960732184
 40
-8.999999955122495
 40
-7.999999949512806
 40
-6.999999943903119
 40
-5.999999938293429
 40
-4.999999932683743
 40
-3.999999927074055
 40
-2.999999921464366
 40
-1.999999915854678
 40
-0.9999999102449903
 40
0.0
 40
0.0
 40
0.0
 40
0.0
 10
-957.5585638186007
 20
617.0762535575692
 30
410.4821166992187
 10
-967.5136349542409
 20
630.2009774007749
 30
410.4821166992187
 10
-989.8348461023044
 20
654.6397497624736
 30
410.4821166992187
 10
-1029.679742585098
 20
684.2476105384815
 30
410.4821166992187
 10
-1074.265268112435
 20
706.0369735368997
 30
410.4821166992187
 10
-1121.845186352068
 20
719.9009235248911
 30
410.4821166992187
 10
-1170.934565409794
 20
726.8376761091888
 30
410.4821166992187
 10
-1220.389858127557
 20
726.6046570431692
 30
410.4821166992187
 10
-1269.851065135132
 20
725.9992678897408
 30
410.4821166992187
 10
-1318.90853923327
 20
719.6632603514379
 30
410.4821166992187
 10
-1367.387800465959
 20
709.8607951937496
 30
410.4821166992187
 10
-1414.822565368843
 20
695.8234622580379
 30
410.4821166992187
 10
-1460.331981434311
 20
676.0983710200906
 30
410.4821166992187
 10
-1501.807812568903
 20
649.1598274798069
 30
410.4821166992187
 10
-1539.435541422352
 20
616.3502907671303
 30
410.4821166992187
 10
-1564.747973220971
 20
573.3132030108825
 30
410.4821166992187
 10
-1577.29290041581
 20
525.1953400530236
 30
410.4821166992187
 10
-1584.048171821226
 20
476.2260766124216
 30
410.4821166992187
 10
-1585.215029333078
 20
443.2463398235571
 30
410.4821166992187
 10
-1585.21623807507
 20
426.7777662933257
 30
410.4821166992187
  0
SPLINE
  5
8E86B
330
1F
100
AcDbEntity
  8
Default
100
AcDbSpline
210
0.0
220
0.0
230
1.0
 70
     8
 71
     3
 72
    24
 73
    20
 74
     0
 42
0.000000001
 43
0.0000000001
 40
0.0
 40
0.0
 40
0.0
 40
0.0
 40
0.9999999102449903
 40
1.999999915854678
 40
2.999999921464366
 40
3.999999927074055
 40
4.999999932683743
 40
5.999999938293429
 40
6.999999943903119
 40
7.999999949512806
 40
8.999999955122495
 40
9.999999960732184
 40
10.99999996634187
 40
11.99999997195156
 40
12.99999997756125
 40
13.99999998317094
 40
14.99999998878062
 40
15.99999999439031
 40
17.0
 40
17.0
 40
17.0
 40
17.0
 10
-1585.21623807507
 20
426.7777662933257
 30
410.4821166992187
 10
-1585.215029333078
 20
410.3091927630942
 30
410.4821166992187
 10
-1584.048171821226
 20
377.3294559742297
 30
410.4821166992187
 10
-1577.29290041581
 20
328.3601925336278
 30
410.4821166992187
 10
-1564.747973220972
 20
280.2423295757689
 30
410.4821166992187
 10
-1539.435541422352
 20
237.2052418195211
 30
410.4821166992187
 10
-1501.807812568903
 20
204.3957051068445
 30
410.4821166992187
 10
-1460.331981434311
 20
177.4571615665607
 30
410.4821166992187
 10
-1414.822565368843
 20
157.7320703286135
 30
410.4821166992187
 10
-1367.387800465959
 20
143.6947373929018
 30
410.4821166992187
 10
-1318.908539233271
 20
133.8922722352134
 30
410.4821166992187
 10
-1269.851065135132
 20
127.5562646969104
 30
410.4821166992187
 10
-1220.389858127558
 20
126.950875543482
 30
410.4821166992187
 10
-1170.934565409795
 20
126.7178564774624
 30
410.4821166992187
 10
-1121.845186352069
 20
133.6546090617601
 30
410.4821166992187
 10
-1074.265268112435
 20
147.5185590497515
 30
410.4821166992187
 10
-1029.679742585098
 20
169.3079220481697
 30
410.4821166992187
 10
-989.8348461023045
 20
198.9157828241775
 30
410.4821166992187
 10
-967.5136349542411
 20
223.3545551858763
 30
410.4821166992187
 10
-957.5536409855569
 20
236.4851578486407
 30
410.4821166992187
  0
SPLINE
  5
8E86C
330
1F
100
AcDbEntity
  8
Default
100
AcDbSpline
210
0.0
220
0.0
230
1.0
 70
     8
 71
     3
 72
    12
 73
     8
 74
     0
 42
0.000000001
 43
0.0000000001
 40
0.0
 40
0.0
 40
0.0
 40
0.0
 40
1.932841302156171
 40
3.834618248229879
 40
8.022019597965389
 40
12.14534094516417
 40
15.98237434364643
 40
15.98237434364643
 40
15.98237434364643
 40
15.98237434364643
 10
-957.5536409855569
 20
236.4851578486407
 30
410.4821166992187
 10
-947.6565373461742
 20
249.5685885368645
 30
410.4821166992187
 10
-930.4484668593076
 20
277.1403014124223
 30
410.4821166992187
 10
-904.8422353226213
 20
340.4910761842832
 30
410.4821166992187
 10
-893.1574707031249
 20
427.0119628906251
 30
410.4821166992187
 10
-907.2702048727272
 20
529.9837070920878
 30
410.4821166992187
 10
-937.8962200097809
 20
591.2261790978807
 30
410.4821166992187
 10
-957.5585638186007
 20
617.0762535575692
 30
410.4821166992187
  0
SPLINE
  5
8E86D
330
1F
100
AcDbEntity
  8
Default
100
AcDbSpline
210
0.0
220
0.0
230
1.0
 70
    12
 71
     2
 72
     6
 73
     3
 74
     0
 42
0.000000001
 43
0.0000000001
 40
0.0
 40
0.0
 40
0.0
 40
0.584707951152618
 40
0.584707951152618
 40
0.584707951152618
 10
-1007.00893693149
 20
186.4149131668334
 30
410.4821166992187
 41
1.0
 10
-1012.864172572137
 20
181.8449441908199
 30
410.4821166992187
 41
0.99964613597365
 10
-1018.954165523531
 20
177.5928403937312
 30
410.4821166992187
 41
1.0
  0
SPLINE
  5
8E86E
330
1F
100
AcDbEntity
  8
Default
100
AcDbSpline
210
0.0
220
0.0
230
1.0
 70
     8
 71
     3
 72
    12
 73
     8
 74
     0
 42
0.000000001
 43
0.0000000001
 40
0.0
 40
0.0
 40
0.0
 40
0.0
 40
1.832654236483523
 40
3.669578742657731
 40
7.371880427553498
 40
11.11625269817009
 40
14.89017125028417
 40
14.89017125028417
 40
14.89017125028417
 40
14.89017125028417
 10
-1150.900656974472
 20
671.2522834436943
 30
410.4821166992187
 10
-1135.328640830533
 20
671.2533805361861
 30
410.4821166992187
 10
-1104.278458005232
 20
668.063700077693
 30
410.4821166992187
 10
-1044.36961791792
 20
649.3800599027329
 30
410.4821166992187
 10
-978.4578489967646
 20
603.7441194680634
 30
410.4821166992187
 10
-925.9971708055319
 20
522.3841166894811
 30
410.4821166992187
 10
-913.7844683072406
 20
458.7303129582385
 30
410.4821166992187
 10
-913.7788745218824
 20
426.7777810627087
 30
410.4821166992187
  0
SPLINE
  5
8E86F
330
1F
100
AcDbEntity
  8
Default
100
AcDbSpline
210
0.0
220
0.0
230
1.0
 70
     8
 71
     3
 72
    12
 73
     8
 74
     0
 42
0.000000001
 43
0.0000000001
 40
0.0
 40
0.0
 40
0.0
 40
0.0
 40
1.889355098582429
 40
3.774519559296819
 40
7.516682166840942
 40
11.21816918271822
 40
14.89017237659326
 40
14.89017237659326
 40
14.89017237659326
 40
14.89017237659326
 10
-913.7788745218824
 20
426.7777810627087
 30
410.4821166992187
 10
-913.7805958288966
 20
410.7825559259433
 30
410.4821166992187
 10
-916.8543368189606
 20
378.8230511865525
 30
410.4821166992187
 10
-934.8299253872479
 20
317.4803528542077
 30
410.4821166992187
 10
-978.4385241629435
 20
249.8373985417495
 30
410.4821166992187
 10
-1057.35181895995
 20
195.176449541939
 30
410.4821166992187
 10
-1119.764583221318
 20
182.2947634658024
 30
410.4821166992187
 10
-1150.85840708585
 20
182.3030962149876
 30
410.4821166992187
  0
SPLINE
  5
8E870
330
1F
100
AcDbEntity
  8
Default
100
AcDbSpline
210
0.0
220
0.0
230
1.0
 70
     8
 71
     3
 72
    12
 73
     8
 74
     0
 42
0.000000001
 43
0.0000000001
 40
-15.35241690788854
 40
-15.35241690788854
 40
-15.35241690788854
 40
-15.35241690788854
 40
-11.42846766997576
 40
-7.624449320975275
 40
-3.868777776849768
 40
-1.918305221211262
 40
0.0
 40
0.0
 40
0.0
 40
0.0
 10
-1150.85840708585
 20
182.3030962149876
 30
410.4821166992187
 10
-1184.06593589664
 20
182.3025604389502
 30
410.4821166992187
 10
-1249.64380916197
 20
194.1254116261783
 30
410.4821166992187
 10
-1333.202065134704
 20
247.5791971043462
 30
410.4821166992187
 10
-1379.295606718483
 20
315.6488559817593
 30
410.4821166992187
 10
-1397.941366284211
 20
377.775441901644
 30
410.4821166992187
 10
-1401.111547061771
 20
410.537690264496
 30
410.4821166992187
 10
-1401.098067641196
 20
426.7777674869833
 30
410.4821166992187
  0
SPLINE
  5
8E871
330
1F
100
AcDbEntity
  8
Default
100
AcDbSpline
210
0.0
220
0.0
230
1.0
 70
     8
 71
     3
 72
    12
 73
     8
 74
     0
 42
0.000000001
 43
0.0000000001
 40
-15.34910739099933
 40
-15.34910739099933
 40
-15.34910739099933
 40
-15.34910739099933
 40
-11.58400586625319
 40
-7.773657509622682
 40
-3.936637318219009
 40
-1.971105179282631
 40
0.0
 40
0.0
 40
0.0
 40
0.0
 10
-1401.098067641196
 20
426.7777674869833
 30
410.4821166992187
 10
-1401.090353887857
 20
458.6400431298368
 30
410.4821166992187
 10
-1389.023329321076
 20
522.8764359142464
 30
410.4821166992187
 10
-1334.361956452641
 20
605.0671396373099
 30
410.4821166992187
 10
-1264.538229919996
 20
650.0712569025465
 30
410.4821166992187
 10
-1200.980796411417
 20
668.2095216104656
 30
410.4821166992187
 10
-1167.635312970289
 20
671.2584772699904
 30
410.4821166992187
 10
-1150.900656974472
 20
671.2522834436943
 30
410.4821166992187
  0
SPLINE
  5
8E872
330
1F
100
AcDbEntity
  8
Default
100
AcDbSpline
210
0.0
220
0.0
230
1.0
 70
     8
 71
     3
 72
    24
 73
    20
 74
     0
 42
0.000000001
 43
0.0000000001
 40
-17.0
 40
-17.0
 40
-17.0
 40
-17.0
 40
-16.0
 40
-15.0
 40
-14.0
 40
-13.0
 40
-12.0
 40
-11.0
 40
-10.0
 40
-9.0
 40
-8.0
 40
-7.0
 40
-6.0
 40
-5.0
 40
-4.0
 40
-3.0
 40
-2.0
 40
-1.0
 40
0.0
 40
0.0
 40
0.0
 40
0.0
 10
-989.1415831132087
 20
201.4753174234281
 30
410.4821166992187
 10
-1000.71956779577
 20
190.6823661303631
 30
410.4821166992187
 10
-1025.789069464054
 20
171.1826404238729
 30
410.4821166992187
 10
-1067.637990868219
 20
148.4243393629483
 30
410.4821166992187
 10
-1112.445620561241
 20
132.4077281942498
 30
410.4821166992187
 10
-1158.955181094699
 20
122.2715761020925
 30
410.4821166992187
 10
-1206.398978576192
 20
118.8891763970526
 30
410.4821166992187
 10
-1253.881078094825
 20
120.0559685098244
 30
410.4821166992187
 10
-1301.291198413015
 20
123.3562100118855
 30
410.4821166992187
 10
-1347.941719663445
 20
132.5785105928124
 30
410.4821166992187
 10
-1393.942724491557
 20
144.4331075381982
 30
410.4821166992187
 10
-1438.497753721436
 20
160.9968669270914
 30
410.4821166992187
 10
-1480.966389128833
 20
182.6068322360737
 30
410.4821166992187
 10
-1519.115891488637
 20
210.8677233285097
 30
410.4821166992187
 10
-1554.281182284635
 20
243.4704195904254
 30
410.4821166992187
 10
-1576.803048627988
 20
285.8740228856976
 30
410.4821166992187
 10
-1588.478960024853
 20
332.0924514006719
 30
410.4821166992187
 10
-1594.078302984302
 20
379.289403065204
 30
410.4821166992187
 10
-1595.023967508202
 20
410.953520731773
 30
410.4821166992187
 10
-1595.030480802978
 20
426.7777662933257
 30
410.4821166992187
  0
SPLINE
  5
8E873
330
1F
100
AcDbEntity
  8
Default
100
AcDbSpline
210
0.0
220
0.0
230
1.0
 70
     8
 71
     3
 72
    24
 73
    20
 74
     0
 42
0.000000001
 43
0.0000000001
 40
0.0
 40
0.0
 40
0.0
 40
0.0
 40
1.0
 40
2.0
 40
3.0
 40
4.0
 40
5.0
 40
6.0
 40
7.0
 40
8.0
 40
9.0
 40
10.0
 40
11.0
 40
12.0
 40
13.0
 40
14.0
 40
15.0
 40
16.0
 40
17.0
 40
17.0
 40
17.0
 40
17.0
 10
-1595.030480802978
 20
426.7777662933257
 30
410.4821166992187
 10
-1595.023967508202
 20
442.6020118548784
 30
410.4821166992187
 10
-1594.078302984302
 20
474.2661295214474
 30
410.4821166992187
 10
-1588.478960024853
 20
521.4630811859795
 30
410.4821166992187
 10
-1576.803048627988
 20
567.6815097009538
 30
410.4821166992187
 10
-1554.281182284635
 20
610.085112996226
 30
410.4821166992187
 10
-1519.115891488637
 20
642.6878092581418
 30
410.4821166992187
 10
-1480.966389128833
 20
670.9487003505777
 30
410.4821166992187
 10
-1438.497753721435
 20
692.55866565956
 30
410.4821166992187
 10
-1393.942724491557
 20
709.1224250484532
 30
410.4821166992187
 10
-1347.941719663444
 20
720.9770219938389
 30
410.4821166992187
 10
-1301.291198413014
 20
730.1993225747659
 30
410.4821166992187
 10
-1253.881078094825
 20
733.4995640768267
 30
410.4821166992187
 10
-1206.398978576191
 20
734.6663561895987
 30
410.4821166992187
 10
-1158.955181094699
 20
731.2839564845587
 30
410.4821166992187
 10
-1112.445620561241
 20
721.1478043924014
 30
410.4821166992187
 10
-1067.637990868218
 20
705.1311932237029
 30
410.4821166992187
 10
-1025.789069464053
 20
682.3728921627782
 30
410.4821166992187
 10
-1000.719567795769
 20
662.8731664562881
 30
410.4821166992187
 10
-989.1415831132086
 20
652.080215163223
 30
410.4821166992187
  0
SPLINE
  5
8E874
330
1F
100
AcDbEntity
  8
Default
100
AcDbSpline
210
0.0
220
0.0
230
1.0
 70
     8
 71
     3
 72
    11
 73
     7
 74
     0
 42
0.000000001
 43
0.0000000001
 40
-4.376489242092977
 40
-4.376489242092977
 40
-4.376489242092977
 40
-4.376489242092977
 40
-2.254729024945146
 40
-1.152264979760031
 40
-0.5805792687200016
 40
0.0
 40
0.0
 40
0.0
 40
0.0
 10
-1584.369681939031
 20
316.7142775625838
 30
410.4821166992187
 10
-1588.906423648904
 20
334.0977037355254
 30
410.4821166992187
 10
-1593.915186543899
 20
360.9948186867626
 30
410.4821166992187
 10
-1596.671920212084
 20
393.0308111069988
 30
410.4821166992187
 10
-1597.463405365765
 20
412.1061082161475
 30
410.4821166992187
 10
-1597.59157307912
 20
421.8622306030182
 30
410.4821166992187
 10
-1597.591603695912
 20
426.7777662933257
 30
410.4821166992187
  0
SPLINE
  5
8E875
330
1F
100
AcDbEntity
  8
Default
100
AcDbSpline
210
0.0
220
0.0
230
1.0
 70
     8
 71
     3
 72
    11
 73
     7
 74
     0
 42
0.000000001
 43
0.0000000001
 40
0.0
 40
0.0
 40
0.0
 40
0.0
 40
0.5805792687200016
 40
1.152264979760031
 40
2.254729024945146
 40
4.376489242092977
 40
4.376489242092977
 40
4.376489242092977
 40
4.376489242092977
 10
-1597.591603695912
 20
426.7777662933257
 30
410.4821166992187
 10
-1597.59157307912
 20
431.6933019836332
 30
410.4821166992187
 10
-1597.463405365765
 20
441.4494243705038
 30
410.4821166992187
 10
-1596.671920212084
 20
460.5247214796526
 30
410.4821166992187
 10
-1593.915186543899
 20
492.5607138998888
 30
410.4821166992187
 10
-1588.906423648904
 20
519.457828851126
 30
410.4821166992187
 10
-1584.36968193903
 20
536.8412550240676
 30
410.4821166992187
  0
SPLINE
  5
8E876
330
1F
100
AcDbEntity
  8
Default
100
AcDbSpline
210
0.0
220
0.0
230
1.0
 70
     8
 71
     3
 72
    10
 73
     6
 74
     0
 42
0.000000001
 43
0.0000000001
 40
0.0
 40
0.0
 40
0.0
 40
0.0
 40
1.13000657183866
 40
2.287921106073678
 40
8.404575460652143
 40
8.404575460652143
 40
8.404575460652143
 40
8.404575460652143
 10
-1149.045878495501
 20
142.6481673205187
 30
410.4821166992187
 10
-1139.614387326358
 20
144.2477774047809
 30
410.4821166992187
 10
-1120.656984108747
 20
148.3305187850031
 30
410.4821166992187
 10
-1085.139162650912
 20
158.951057809237
 30
410.4821166992187
 10
-1044.234092440158
 20
177.2434275444773
 30
410.4821166992187
 10
-1001.879586991243
 20
217.3406018562535
 30
410.4821166992187
  0
ARC
  5
8E877
330
1F
100
AcDbEntity
  8
Default
100
AcDbCircle
 10
-1151.12657314079
 20
374.9896730589737
 30
410.4821166992187
 40
217.0895956184993
100
AcDbArc
 50
313.4317693925784
 51
340.7647814271151
  0
SPLINE
  5
8E878
330
1F
100
AcDbEntity
  8
Default
100
AcDbSpline
210
0.0
220
0.0
230
1.0
 70
     8
 71
     3
 72
    10
 73
     6
 74
     0
 42
0.000000001
 43
0.0000000001
 40
0.0
 40
0.0
 40
0.0
 40
0.0
 40
1.13000657183866
 40
2.287921106073678
 40
8.404575460652143
 40
8.404575460652143
 40
8.404575460652143
 40
8.404575460652143
 10
-1149.045878495501
 20
710.9073652661325
 30
410.4821166992187
 10
-1139.614387326357
 20
709.3077551818703
 30
410.4821166992187
 10
-1120.656984108746
 20
705.2250138016481
 30
410.4821166992187
 10
-1085.139162650911
 20
694.6044747774142
 30
410.4821166992187
 10
-1044.234092440158
 20
676.3121050421739
 30
410.4821166992187
 10
-1001.879586991243
 20
636.2149307303978
 30
410.4821166992187
  0
ARC
  5
8E879
330
1F
100
AcDbEntity
  8
Default
100
AcDbCircle
 10
-1151.12657314079
 20
478.5658595276775
 30
410.4821166992187
 40
217.0895956184993
100
AcDbArc
 50
19.23521857288494
 51
46.56823060742152
  0
POLYLINE
  5
8E87A
330
1F
100
AcDbEntity
  8
Default
100
AcDb2dPolyline
 66
     1
 10
0.0
 20
0.0
 30
410.4821166992187
  0
VERTEX
  5
8E87B
330
8E87A
100
AcDbEntity
  8
Default
100
AcDbVertex
100
AcDb2dVertex
 10
-997.451360228305
 20
194.0464449515905
 30
410.4821166992187
  0
VERTEX
  5
8E87C
330
8E87A
100
AcDbEntity
  8
Default
100
AcDbVertex
100
AcDb2dVertex
 10
-997.2523315023277
 20
193.9292080733423
 30
410.4821166992187
  0
SEQEND
  5
8E87D
330
8E87A
100
AcDbEntity
  8
Default
  0
SPLINE
  5
8E87E
330
1F
100
AcDbEntity
  8
Default
100
AcDbSpline
210
0.0
220
0.0
230
1.0
 70
    12
 71
     2
 72
     8
 73
     5
 74
     0
 42
0.000000001
 43
0.0000000001
 40
0.0
 40
0.0
 40
0.0
 40
0.0657021758075414
 40
0.0657021758075414
 40
0.5513779496561005
 40
0.5513779496561005
 40
0.5513779496561005
 10
-997.2523315023277
 20
193.9292080733423
 30
410.4821166992187
 41
1.0
 10
-996.5300254299446
 20
193.5038857145862
 30
410.4821166992187
 41
0.9938146782922427
 10
-995.7319857238728
 20
193.2485937191402
 30
410.4821166992187
 41
1.0
 10
-988.2627725919579
 20
190.9870272210625
 30
410.4821166992187
 41
0.7132736251541142
 10
-985.8707035321108
 20
198.4154748010166
 30
410.4821166992187
 41
1.0
  0
SPLINE
  5
8E87F
330
1F
100
AcDbEntity
  8
Default
100
AcDbSpline
210
0.0
220
0.0
230
1.0
 70
    12
 71
     2
 72
     6
 73
     3
 74
     0
 42
0.000000001
 43
0.0000000001
 40
0.0
 40
0.0
 40
0.0
 40
0.2409856468466241
 40
0.2409856468466241
 40
0.2409856468466241
 10
-985.8707035321108
 20
198.4154748010166
 30
410.4821166992187
 41
1.0
 10
-984.806881672606
 20
201.4850970022742
 30
410.4821166992187
 41
0.8709777826878488
 10
-986.245525502551
 20
204.3979309077788
 30
410.4821166992187
 41
0.8913391083513609
  0
POLYLINE
  5
8E880
330
1F
100
AcDbEntity
  8
Default
100
AcDb2dPolyline
 66
     1
 10
0.0
 20
0.0
 30
410.4821166992187
  0
VERTEX
  5
8E881
330
8E880
100
AcDbEntity
  8
Default
100
AcDbVertex
100
AcDb2dVertex
 10
-997.6731329266353
 20
659.3784535333481
 30
410.4821166992187
  0
VERTEX
  5
8E882
330
8E880
100
AcDbEntity
  8
Default
100
AcDbVertex
100
AcDb2dVertex
 10
-997.451360228305
 20
659.5090876350607
 30
410.4821166992187
  0
SEQEND
  5
8E883
330
8E880
100
AcDbEntity
  8
Default
  0
POLYLINE
  5
8E884
330
1F
100
AcDbEntity
  8
Default
100
AcDb2dPolyline
 66
     1
 10
0.0
 20
0.0
 30
410.4821166992187
  0
VERTEX
  5
8E885
330
8E884
100
AcDbEntity
  8
Default
100
AcDbVertex
100
AcDb2dVertex
 10
-997.451360228305
 20
659.5090876350607
 30
410.4821166992187
  0
VERTEX
  5
8E886
330
8E884
100
AcDbEntity
  8
Default
100
AcDbVertex
100
AcDb2dVertex
 10
-997.2523315023275
 20
659.6263245133088
 30
410.4821166992187
  0
SEQEND
  5
8E887
330
8E884
100
AcDbEntity
  8
Default
  0
SPLINE
  5
8E888
330
1F
100
AcDbEntity
  8
Default
100
AcDbSpline
210
0.0
220
0.0
230
1.0
 70
    12
 71
     2
 72
     8
 73
     5
 74
     0
 42
0.000000001
 43
0.0000000001
 40
0.0
 40
0.0
 40
0.0
 40
0.0657021758075414
 40
0.0657021758075414
 40
0.5513779496561005
 40
0.5513779496561005
 40
0.5513779496561005
 10
-997.2523315023275
 20
659.6263245133088
 30
410.4821166992187
 41
1.0
 10
-996.5300254299444
 20
660.051646872065
 30
410.4821166992187
 41
0.9938146782922427
 10
-995.7319857238728
 20
660.306938867511
 30
410.4821166992187
 41
1.0
 10
-988.2627725919578
 20
662.5685053655882
 30
410.4821166992187
 41
0.7132736251541142
 10
-985.8707035321106
 20
655.1400577856345
 30
410.4821166992187
 41
1.0
  0
SPLINE
  5
8E889
330
1F
100
AcDbEntity
  8
Default
100
AcDbSpline
210
-0.0000000000000453
220
0.0000000000000028
230
1.0
 70
    12
 71
     2
 72
     6
 73
     3
 74
     0
 42
0.000000001
 43
0.0000000001
 40
0.0
 40
0.0
 40
0.0
 40
0.2409855735434258
 40
0.2409855735434258
 40
0.2409855735434258
 10
-985.8707035321106
 20
655.1400577856345
 30
410.4821166992187
 41
1.0
 10
-984.8068820441353
 20
652.0704366564139
 30
410.4821166992188
 41
0.8709778219339256
 10
-986.2455246473281
 20
649.1576034104489
 30
410.4821166992187
 41
0.8913390959643272
  0
SPLINE
  5
8E8AC
330
1F
100
AcDbEntity
  8
Default
100
AcDbSpline
210
0.0
220
0.0
230
1.0
 70
    24
 71
     2
 72
     6
 73
     3
 74
     0
 42
0.000000001
 43
0.0000000001
 40
0.0
 40
0.0
 40
0.0
 40
45.0
 40
45.0
 40
45.0
 10
609.5000000000039
 20
571.8061843832053
 30
679.8884514435696
 10
609.5000000000039
 20
0.3999343832053734
 30
679.8884514435696
 10
609.5000000000039
 20
-571.0063156167945
 30
679.8884514435696
  0
SPLINE
  5
8E8AD
330
1F
100
AcDbEntity
  8
Default
100
AcDbSpline
210
0.0
220
0.0
230
1.0
 70
    24
 71
     2
 72
     6
 73
     3
 74
     0
 42
0.000000001
 43
0.0000000001
 40
0.0
 40
0.0
 40
0.0
 40
45.0
 40
45.0
 40
45.0
 10
571.4062500000054
 20
-609.1000656167968
 30
679.8884514435696
 10
0.0000000000054561
 20
-609.1000656167968
 30
679.8884514435696
 10
-571.4062500000017
 20
-609.1000656167968
 30
679.8884514435696
  0
SPLINE
  5
8E8AE
330
1F
100
AcDbEntity
  8
Default
100
AcDbSpline
210
0.0
220
0.0
230
1.0
 70
    24
 71
     2
 72
     6
 73
     3
 74
     0
 42
0.000000001
 43
0.0000000001
 40
0.0
 40
0.0
 40
0.0
 40
45.0
 40
45.0
 40
45.0
 10
-609.5000000000003
 20
-571.0063156167945
 30
679.8884514435696
 10
-609.5000000000003
 20
0.3999343832053734
 30
679.8884514435696
 10
-609.5000000000003
 20
571.8061843832053
 30
679.8884514435696
  0
SPLINE
  5
8E8AF
330
1F
100
AcDbEntity
  8
Default
100
AcDbSpline
210
0.0
220
0.0
230
1.0
 70
    24
 71
     2
 72
     6
 73
     3
 74
     0
 42
0.000000001
 43
0.0000000001
 40
0.0
 40
0.0
 40
0.0
 40
45.0
 40
45.0
 40
45.0
 10
-571.4062500000017
 20
609.8999343832039
 30
679.8884514435696
 10
0.0000000000054561
 20
609.8999343832039
 30
679.8884514435696
 10
571.4062500000054
 20
609.8999343832039
 30
679.8884514435696
  0
SPLINE
  5
8E8B0
330
1F
100
AcDbEntity
  8
Default
100
AcDbSpline
210
0.0
220
0.0
230
1.0
 70
    12
 71
     2
 72
     6
 73
     3
 74
     0
 42
0.000000001
 43
0.0000000001
 40
0.0
 40
0.0
 40
0.0
 40
2.35619449019235
 40
2.35619449019235
 40
2.35619449019235
 10
-609.5000000000003
 20
571.8061843832053
 30
679.8884514435696
 41
1.0
 10
-609.5000000000005
 20
609.8999343832039
 30
679.8884514435696
 41
0.7071067811865451
 10
-571.4062500000017
 20
609.8999343832039
 30
679.8884514435696
 41
1.0
  0
SPLINE
  5
8E8B1
330
1F
100
AcDbEntity
  8
Default
100
AcDbSpline
210
0.0
220
0.0
230
1.0
 70
    12
 71
     2
 72
     6
 73
     3
 74
     0
 42
0.000000001
 43
0.0000000001
 40
0.0
 40
0.0
 40
0.0
 40
2.35619449019235
 40
2.35619449019235
 40
2.35619449019235
 10
571.4062500000054
 20
609.8999343832039
 30
679.8884514435696
 41
1.0
 10
609.5000000000039
 20
609.8999343832075
 30
679.8884514435696
 41
0.7071067811865371
 10
609.5000000000039
 20
571.8061843832053
 30
679.8884514435696
 41
1.0
  0
SPLINE
  5
8E8B2
330
1F
100
AcDbEntity
  8
Default
100
AcDbSpline
210
0.0
220
0.0
230
1.0
 70
    12
 71
     2
 72
     6
 73
     3
 74
     0
 42
0.000000001
 43
0.0000000001
 40
0.0
 40
0.0
 40
0.0
 40
2.356194490192339
 40
2.356194490192339
 40
2.356194490192339
 10
609.5000000000039
 20
-571.0063156167945
 30
679.8884514435696
 41
1.0
 10
609.5000000000039
 20
-609.1000656167931
 30
679.8884514435696
 41
0.707106781186551
 10
571.4062500000054
 20
-609.1000656167968
 30
679.8884514435696
 41
1.0
  0
SPLINE
  5
8E8B3
330
1F
100
AcDbEntity
  8
Default
100
AcDbSpline
210
0.0
220
0.0
230
1.0
 70
    12
 71
     2
 72
     6
 73
     3
 74
     0
 42
0.000000001
 43
0.0000000001
 40
0.0
 40
0.0
 40
0.0
 40
2.35619449019235
 40
2.35619449019235
 40
2.35619449019235
 10
-571.4062500000017
 20
-609.1000656167968
 30
679.8884514435696
 41
1.0
 10
-609.5000000000005
 20
-609.1000656167968
 30
679.8884514435696
 41
0.707106781186546
 10
-609.5000000000003
 20
-571.0063156167945
 30
679.8884514435696
 41
1.0
  0
ENDSEC
  0
SECTION
  2
OBJECTS
  0
DICTIONARY
  5
C
330
0
100
AcDbDictionary
281
     1
  3
ACAD_BACKGROUND
350
8E662
  3
ACAD_CIP_PREVIOUS_PRODUCT_INFO
350
8E647
  3
ACAD_COLOR
350
8E63F
  3
ACAD_DETAILVIEWSTYLE
350
8E63C
  3
ACAD_GROUP
350
D
  3
ACAD_LAYOUT
350
1A
  3
ACAD_MATERIAL
350
43
  3
ACAD_MLEADERSTYLE
350
8E63B
  3
ACAD_MLINESTYLE
350
17
  3
ACAD_PLOTSETTINGS
350
19
  3
ACAD_PLOTSTYLENAME
350
E
  3
ACAD_SCALELIST
350
47
  3
ACAD_SECTIONVIEWSTYLE
350
8E63D
  3
ACAD_TABLESTYLE
350
8E63A
  3
ACAD_VISUALSTYLE
350
2A
  3
ACDB_RECOMPOSE_DATA
350
8E8EB
  3
AcDbVariableDictionary
350
8E601
  0
DICTIONARY
  5
8E5FF
330
8
100
AcDbDictionary
280
     1
281
     1
  0
SUN
  5
69
330
29
100
AcDbSun
 90
        1
290
     0
 63
     7
421
 16777215
 40
1.0
291
     1
 91
  2455826
 92
 54000000
292
     0
 70
     0
 71
   256
280
     1
  0
DICTIONARY
  5
8E64F
330
2
100
AcDbDictionary
280
     1
281
     1
  3
ACAD_LAYERSTATES
360
8E650
  0
DICTIONARY
  5
8E648
330
10
100
AcDbDictionary
280
     1
281
     1
  3
ADSK_XREC_LAYER_RECONCILED
360
8E649
  0
DICTIONARY
  5
8E64A
330
6A
100
AcDbDictionary
280
     1
281
     1
  3
ADSK_XREC_LAYER_RECONCILED
360
8E64B
  0
DICTIONARY
  5
8E7A5
330
1F
100
AcDbDictionary
280
     1
281
     1
  3
ACAD_SORTENTS
360
8E7A6
  0
DICTIONARY
  5
8E662
102
{ACAD_REACTORS
330
C
102
}
330
C
100
AcDbDictionary
281
     1
  0
XRECORD
  5
8E647
102
{ACAD_REACTORS
330
C
102
}
330
C
100
AcDbXrecord
280
     1
300
ACD
300
2016
300
ACD_F_S
  0
DICTIONARY
  5
8E63F
102
{ACAD_REACTORS
330
C
102
}
330
C
100
AcDbDictionary
281
     1
  0
DICTIONARY
  5
8E63C
102
{ACAD_REACTORS
330
C
102
}
330
C
100
AcDbDictionary
281
     1
  3
Imperial24
350
8E643
  0
DICTIONARY
  5
D
102
{ACAD_REACTORS
330
C
102
}
330
C
100
AcDbDictionary
281
     1
  0
DICTIONARY
  5
1A
102
{ACAD_REACTORS
330
C
102
}
330
C
100
AcDbDictionary
281
     1
  3
Layout1
350
1E
  3
Layout2
350
26
  3
Model
350
22
  0
DICTIONARY
  5
43
102
{ACAD_REACTORS
330
C
102
}
330
C
100
AcDbDictionary
281
     1
  3
ByBlock
350
45
  3
ByLayer
350
44
  3
Global
350
46
  0
DICTIONARY
  5
8E63B
102
{ACAD_REACTORS
330
C
102
}
330
C
100
AcDbDictionary
281
     1
  3
Standard
350
8E641
  0
DICTIONARY
  5
17
102
{ACAD_REACTORS
330
C
102
}
330
C
100
AcDbDictionary
281
     1
  3
Standard
350
18
  0
DICTIONARY
  5
19
102
{ACAD_REACTORS
330
C
102
}
330
C
100
AcDbDictionary
281
     1
  0
ACDBDICTIONARYWDFLT
  5
E
102
{ACAD_REACTORS
330
C
102
}
330
C
100
AcDbDictionary
281
     1
  3
Normal
350
F
100
AcDbDictionaryWithDefault
340
F
  0
DICTIONARY
  5
47
102
{ACAD_REACTORS
330
C
102
}
330
C
100
AcDbDictionary
281
     1
  3
A0
350
48
  3
A1
350
49
  3
A2
350
4A
  3
A3
350
4B
  3
A4
350
4C
  3
A5
350
4D
  3
A6
350
4E
  3
A7
350
4F
  3
A8
350
50
  3
A9
350
51
  3
B0
350
52
  3
B1
350
53
  3
B2
350
54
  3
B3
350
55
  3
B4
350
56
  3
B5
350
57
  3
B6
350
58
  3
B7
350
59
  3
B8
350
5A
  3
B9
350
5B
  3
C0
350
5C
  3
C1
350
5D
  3
C2
350
5E
  3
C3
350
5F
  3
C4
350
60
  3
C5
350
61
  3
C6
350
62
  3
C7
350
63
  3
C8
350
64
  3
C9
350
65
  3
D0
350
66
  3
D1
350
67
  3
D2
350
68
  0
DICTIONARY
  5
8E63D
102
{ACAD_REACTORS
330
C
102
}
330
C
100
AcDbDictionary
281
     1
  3
Imperial24
350
8E642
  0
DICTIONARY
  5
8E63A
102
{ACAD_REACTORS
330
C
102
}
330
C
100
AcDbDictionary
281
     1
  3
Standard
350
8E640
  0
DICTIONARY
  5
2A
102
{ACAD_REACTORS
330
C
102
}
330
C
100
AcDbDictionary
281
     1
  3
2dWireframe
350
2F
  3
3D Hidden
350
8E681
  3
3dWireframe
350
8E682
  3
Basic
350
32
  3
Brighten
350
36
  3
ColorChange
350
3A
  3
Conceptual
350
34
  3
Dim
350
35
  3
EdgeColorOff
350
3D
  3
Facepattern
350
39
  3
Flat
350
2B
  3
FlatWithEdges
350
2C
  3
Gouraud
350
2D
  3
GouraudWithEdges
350
2E
  3
Hidden
350
31
  3
JitterOff
350
3B
  3
Linepattern
350
38
  3
OverhangOff
350
3C
  3
Realistic
350
33
  3
Shaded
350
42
  3
Shaded with edges
350
41
  3
Shades of Gray
350
3E
  3
Sketchy
350
3F
  3
Thicken
350
37
  3
Wireframe
350
30
  3
X-Ray
350
40
  0
XRECORD
  5
8E8EB
102
{ACAD_REACTORS
330
C
102
}
330
C
100
AcDbXrecord
280
     1
 90
        1
330
8E640
330
8E642
330
8E643
  0
DICTIONARY
  5
8E601
102
{ACAD_REACTORS
330
C
102
}
330
C
100
AcDbDictionary
281
     1
  3
CANNOSCALE
350
8E602
  3
CMLEADERSTYLE
350
8E672
  3
CTABLESTYLE
350
8E671
  3
CVIEWDETAILSTYLE
350
8E673
  3
CVIEWSECTIONSTYLE
350
8E674
  3
LAYEREVAL
350
8E676
  3
LAYERNOTIFY
350
8E677
  3
LIGHTINGUNITS
350
8E675
  3
MSLTSCALE
350
8E603
  0
DICTIONARY
  5
8E650
102
{ACAD_REACTORS
330
8E64F
102
}
330
8E64F
100
AcDbDictionary
281
     1
  0
XRECORD
  5
8E649
102
{ACAD_REACTORS
330
8E648
102
}
330
8E648
100
AcDbXrecord
280
     1
290
     1
  0
XRECORD
  5
8E64B
102
{ACAD_REACTORS
330
8E64A
102
}
330
8E64A
100
AcDbXrecord
280
     1
290
     1
  0
SORTENTSTABLE
  5
8E7A6
102
{ACAD_REACTORS
330
8E7A5
102
}
330
8E7A5
100
AcDbSortentsTable
330
1F
331
8E7A0
  5
8E7A0
331
8E790
  5
8E790
331
8E78C
  5
8E78C
331
8E788
  5
8E788
331
8E784
  5
8E784
331
8E79F
  5
8E79F
331
8E79B
  5
8E79B
331
8E797
  5
8E797
331
8E78F
  5
8E78F
331
8E78B
  5
8E78B
331
8E787
  5
8E787
331
8E783
  5
8E783
331
8E796
  5
8E796
331
8E78E
  5
8E78E
331
8E78A
  5
8E78A
331
8E786
  5
8E786
331
8E782
  5
8E782
331
8E795
  5
8E795
331
8E791
  5
8E791
331
8E78D
  5
8E78D
331
8E789
  5
8E789
331
8E785
  5
8E785
331
8E781
  5
8E781
  0
ACDBDETAILVIEWSTYLE
  5
8E643
102
{ACAD_XDICTIONARY
360
8E66E
102
}
102
{ACAD_REACTORS
330
8E63C
102
}
330
8E63C
100
AcDbModelDocViewStyle
 70
     0
  3
Imperial24
290
     0
100
AcDbDetailViewStyle
 70
     0
 71
     0
 90
        3
 71
     1
340
11
 62
   256
 40
0.24
340
0
 62
   256
 40
0.24
300

 40
0.36
280
     3
 71
     2
340
16
 90
       25
 62
   256
 71
     3
340
11
 62
   256
 40
0.24
 90
        1
 40
0.75
 90
        1
300
%<\AcVar ViewType \f "%tc1">% %<\AcVar ViewDetailId>%\PSCALE %<\AcVar ViewScale \f "%sn">%
 71
     4
340
16
 90
       25
 62
   256
340
16
 90
       25
 62
   256
280
     0
  0
LAYOUT
  5
1E
102
{ACAD_REACTORS
330
1A
102
}
330
1A
100
AcDbPlotSettings
  1

  2
none_device
  4

  6

 40
0.0
 41
0.0
 42
0.0
 43
0.0
 44
0.0
 45
0.0
 46
0.0
 47
0.0
 48
0.0
 49
0.0
140
0.0
141
0.0
142
1.0
143
1.0
 70
   688
 72
     0
 73
     0
 74
     5
  7

 75
    16
147
1.0
 76
     0
 77
     2
 78
   300
148
0.0
149
0.0
100
AcDbLayout
  1
Layout1
 70
     1
 71
     1
 10
0.0
 20
0.0
 11
12.0
 21
9.0
 12
0.0
 22
0.0
 32
0.0
 14
1.000000000000000E+20
 24
1.000000000000000E+20
 34
1.000000000000000E+20
 15
-1.000000000000000E+20
 25
-1.000000000000000E+20
 35
-1.000000000000000E+20
146
0.0
 13
0.0
 23
0.0
 33
0.0
 16
1.0
 26
0.0
 36
0.0
 17
0.0
 27
1.0
 37
0.0
 76
     0
330
1B
  0
LAYOUT
  5
26
102
{ACAD_REACTORS
330
1A
102
}
330
1A
100
AcDbPlotSettings
  1

  2
none_device
  4

  6

 40
0.0
 41
0.0
 42
0.0
 43
0.0
 44
0.0
 45
0.0
 46
0.0
 47
0.0
 48
0.0
 49
0.0
140
0.0
141
0.0
142
1.0
143
1.0
 70
   688
 72
     0
 73
     0
 74
     5
  7

 75
    16
147
1.0
 76
     0
 77
     2
 78
   300
148
0.0
149
0.0
100
AcDbLayout
  1
Layout2
 70
     1
 71
     2
 10
0.0
 20
0.0
 11
0.0
 21
0.0
 12
0.0
 22
0.0
 32
0.0
 14
0.0
 24
0.0
 34
0.0
 15
0.0
 25
0.0
 35
0.0
146
0.0
 13
0.0
 23
0.0
 33
0.0
 16
1.0
 26
0.0
 36
0.0
 17
0.0
 27
1.0
 37
0.0
 76
     0
330
23
  0
LAYOUT
  5
22
102
{ACAD_REACTORS
330
1A
102
}
330
1A
100
AcDbPlotSettings
  1

  2
none_device
  4
Letter_(8.50_x_11.00_Inches)
  6

 40
6.349999999999999
 41
6.349999999999999
 42
6.350005079999999
 43
6.350005079999999
 44
215.9
 45
279.4
 46
0.0
 47
0.0
 48
0.0
 49
0.0
140
0.0
141
0.0
142
1.0
143
1.0
 70
  1712
 72
     0
 73
     0
 74
     0
  7

 75
     0
147
1.0
 76
     0
 77
     2
 78
   300
148
0.0
149
0.0
100
AcDbLayout
  1
Model
 70
     1
 71
     0
 10
0.0
 20
0.0
 11
12.0
 21
9.0
 12
0.0
 22
0.0
 32
0.0
 14
-1499.4951171875
 24
-1499.49365234375
 34
-0.000000000000036
 15
1499.4951171875
 25
1499.49365234375
 35
856.6937255859375
146
0.0
 13
0.0
 23
0.0
 33
0.0
 16
1.0
 26
0.0
 36
0.0
 17
0.0
 27
1.0
 37
0.0
 76
     0
330
1F
331
29
  0
MATERIAL
  5
45
102
{ACAD_REACTORS
330
43
102
}
330
43
100
AcDbMaterial
  1
ByBlock
 73
     1
 78
     1
172
     1
176
     1
270
     1
274
     1
  0
MATERIAL
  5
44
102
{ACAD_REACTORS
330
43
102
}
330
43
100
AcDbMaterial
  1
ByLayer
 73
     1
 78
     1
172
     1
176
     1
270
     1
274
     1
  0
MATERIAL
  5
46
102
{ACAD_REACTORS
330
43
102
}
330
43
100
AcDbMaterial
  1
Global
 73
     1
 78
     1
172
     1
176
     1
270
     1
274
     1
  0
MLEADERSTYLE
  5
8E641
102
{ACAD_REACTORS
330
8E63B
102
}
330
8E63B
100
AcDbMLeaderStyle
179
     2
170
     2
171
     1
172
     0
 90
        2
 40
0.0
 41
0.0
173
     1
 91
-1056964608
340
14
 92
       -2
290
     1
 42
0.09
291
     1
 43
0.36
  3
Standard
 44
0.18
300

342
11
174
     1
178
     6
175
     1
176
     0
 93
-1056964608
 45
0.18
292
     0
297
     0
 46
0.18
 94
-1056964608
 47
1.0
 49
1.0
140
1.0
293
     1
141
0.0
294
     1
177
     0
142
1.0
295
     1
296
     0
143
0.125
271
     0
272
     9
273
     9
298
     1
  0
MLINESTYLE
  5
18
102
{ACAD_REACTORS
330
17
102
}
330
17
100
AcDbMlineStyle
  2
STANDARD
 70
     0
  3

 62
   256
 51
90.0
 52
90.0
 71
     2
 49
0.5
 62
   256
  6
BYLAYER
 49
-0.5
 62
   256
  6
BYLAYER
  0
ACDBPLACEHOLDER
  5
F
102
{ACAD_REACTORS
330
E
102
}
330
E
  0
SCALE
  5
48
102
{ACAD_REACTORS
330
47
102
}
330
47
100
AcDbScale
 70
     0
300
1:1
140
1.0
141
1.0
290
     1
  0
SCALE
  5
49
102
{ACAD_REACTORS
330
47
102
}
330
47
100
AcDbScale
 70
     0
300
1:2
140
1.0
141
2.0
290
     0
  0
SCALE
  5
4A
102
{ACAD_REACTORS
330
47
102
}
330
47
100
AcDbScale
 70
     0
300
1:4
140
1.0
141
4.0
290
     0
  0
SCALE
  5
4B
102
{ACAD_REACTORS
330
47
102
}
330
47
100
AcDbScale
 70
     0
300
1:5
140
1.0
141
5.0
290
     0
  0
SCALE
  5
4C
102
{ACAD_REACTORS
330
47
102
}
330
47
100
AcDbScale
 70
     0
300
1:8
140
1.0
141
8.0
290
     0
  0
SCALE
  5
4D
102
{ACAD_REACTORS
330
47
102
}
330
47
100
AcDbScale
 70
     0
300
1:10
140
1.0
141
10.0
290
     0
  0
SCALE
  5
4E
102
{ACAD_REACTORS
330
47
102
}
330
47
100
AcDbScale
 70
     0
300
1:16
140
1.0
141
16.0
290
     0
  0
SCALE
  5
4F
102
{ACAD_REACTORS
330
47
102
}
330
47
100
AcDbScale
 70
     0
300
1:20
140
1.0
141
20.0
290
     0
  0
SCALE
  5
50
102
{ACAD_REACTORS
330
47
102
}
330
47
100
AcDbScale
 70
     0
300
1:30
140
1.0
141
30.0
290
     0
  0
SCALE
  5
51
102
{ACAD_REACTORS
330
47
102
}
330
47
100
AcDbScale
 70
     0
300
1:40
140
1.0
141
40.0
290
     0
  0
SCALE
  5
52
102
{ACAD_REACTORS
330
47
102
}
330
47
100
AcDbScale
 70
     0
300
1:50
140
1.0
141
50.0
290
     0
  0
SCALE
  5
53
102
{ACAD_REACTORS
330
47
102
}
330
47
100
AcDbScale
 70
     0
300
1:100
140
1.0
141
100.0
290
     0
  0
SCALE
  5
54
102
{ACAD_REACTORS
330
47
102
}
330
47
100
AcDbScale
 70
     0
300
2:1
140
2.0
141
1.0
290
     0
  0
SCALE
  5
55
102
{ACAD_REACTORS
330
47
102
}
330
47
100
AcDbScale
 70
     0
300
4:1
140
4.0
141
1.0
290
     0
  0
SCALE
  5
56
102
{ACAD_REACTORS
330
47
102
}
330
47
100
AcDbScale
 70
     0
300
8:1
140
8.0
141
1.0
290
     0
  0
SCALE
  5
57
102
{ACAD_REACTORS
330
47
102
}
330
47
100
AcDbScale
 70
     0
300
10:1
140
10.0
141
1.0
290
     0
  0
SCALE
  5
58
102
{ACAD_REACTORS
330
47
102
}
330
47
100
AcDbScale
 70
     0
300
100:1
140
100.0
141
1.0
290
     0
  0
SCALE
  5
59
102
{ACAD_REACTORS
330
47
102
}
330
47
100
AcDbScale
 70
     0
300
1/128" = 1'-0"
140
0.0078125
141
12.0
290
     0
  0
SCALE
  5
5A
102
{ACAD_REACTORS
330
47
102
}
330
47
100
AcDbScale
 70
     0
300
1/64" = 1'-0"
140
0.015625
141
12.0
290
     0
  0
SCALE
  5
5B
102
{ACAD_REACTORS
330
47
102
}
330
47
100
AcDbScale
 70
     0
300
1/32" = 1'-0"
140
0.03125
141
12.0
290
     0
  0
SCALE
  5
5C
102
{ACAD_REACTORS
330
47
102
}
330
47
100
AcDbScale
 70
     0
300
1/16" = 1'-0"
140
0.0625
141
12.0
290
     0
  0
SCALE
  5
5D
102
{ACAD_REACTORS
330
47
102
}
330
47
100
AcDbScale
 70
     0
300
3/32" = 1'-0"
140
0.09375
141
12.0
290
     0
  0
SCALE
  5
5E
102
{ACAD_REACTORS
330
47
102
}
330
47
100
AcDbScale
 70
     0
300
1/8" = 1'-0"
140
0.125
141
12.0
290
     0
  0
SCALE
  5
5F
102
{ACAD_REACTORS
330
47
102
}
330
47
100
AcDbScale
 70
     0
300
3/16" = 1'-0"
140
0.1875
141
12.0
290
     0
  0
SCALE
  5
60
102
{ACAD_REACTORS
330
47
102
}
330
47
100
AcDbScale
 70
     0
300
1/4" = 1'-0"
140
0.25
141
12.0
290
     0
  0
SCALE
  5
61
102
{ACAD_REACTORS
330
47
102
}
330
47
100
AcDbScale
 70
     0
300
3/8" = 1'-0"
140
0.375
141
12.0
290
     0
  0
SCALE
  5
62
102
{ACAD_REACTORS
330
47
102
}
330
47
100
AcDbScale
 70
     0
300
1/2" = 1'-0"
140
0.5
141
12.0
290
     0
  0
SCALE
  5
63
102
{ACAD_REACTORS
330
47
102
}
330
47
100
AcDbScale
 70
     0
300
3/4" = 1'-0"
140
0.75
141
12.0
290
     0
  0
SCALE
  5
64
102
{ACAD_REACTORS
330
47
102
}
330
47
100
AcDbScale
 70
     0
300
1" = 1'-0"
140
1.0
141
12.0
290
     0
  0
SCALE
  5
65
102
{ACAD_REACTORS
330
47
102
}
330
47
100
AcDbScale
 70
     0
300
1-1/2" = 1'-0"
140
1.5
141
12.0
290
     0
  0
SCALE
  5
66
102
{ACAD_REACTORS
330
47
102
}
330
47
100
AcDbScale
 70
     0
300
3" = 1'-0"
140
3.0
141
12.0
290
     0
  0
SCALE
  5
67
102
{ACAD_REACTORS
330
47
102
}
330
47
100
AcDbScale
 70
     0
300
6" = 1'-0"
140
6.0
141
12.0
290
     0
  0
SCALE
  5
68
102
{ACAD_REACTORS
330
47
102
}
330
47
100
AcDbScale
 70
     0
300
1'-0" = 1'-0"
140
12.0
141
12.0
290
     0
  0
ACDBSECTIONVIEWSTYLE
  5
8E642
102
{ACAD_XDICTIONARY
360
8E66C
102
}
102
{ACAD_REACTORS
330
8E63D
102
}
330
8E63D
100
AcDbModelDocViewStyle
 70
     0
  3
Imperial24
290
     0
100
AcDbSectionViewStyle
 70
     0
 71
     0
 90
       78
 71
     1
340
11
 62
   256
 40
0.24
340
0
340
0
 62
   256
 40
0.24
300
I, O, Q, S, X, Z
 40
0.48
 90
        3
 40
0.18
 90
        1
 71
     2
340
16
 90
       25
 62
   256
340
16
 90
       50
 62
   256
 40
0.24
 40
0.0
 40
0.24
 71
     3
340
11
 62
   256
 40
0.24
 90
        1
 40
0.75
 90
        1
300
%<\AcVar ViewType \f "%tc1">% %<\AcVar ViewSectionStartId>%-%<\AcVar ViewSectionEndId>%\PSCALE %<\AcVar ViewScale \f "%sn">%
 71
     4
 62
   256
 62
   257
300
ANSI31
 40
1.0
 90
        0
290
     0
290
     0
 90
        6
 40
0.0
 40
1.570796326794896
 40
0.2617993877991494
 40
1.308996938995747
 40
-0.2617993877991494
 40
1.832595714594046
  0
TABLESTYLE
  5
8E640
102
{ACAD_XDICTIONARY
360
8E8E7
102
}
102
{ACAD_REACTORS
330
8E63A
102
}
330
8E63A
100
AcDbTableStyle
280
     0
  3
Standard
 70
     0
 71
     0
 40
0.06
 41
0.06
280
     0
281
     0
  7
Standard
140
0.18
170
     2
 62
     0
 63
     7
283
     0
 90
      512
 91
        0
  1

274
    -2
284
     1
 64
     0
275
    -2
285
     1
 65
     0
276
    -2
286
     1
 66
     0
277
    -2
287
     1
 67
     0
278
    -2
288
     1
 68
     0
279
    -2
289
     1
 69
     0
  7
Standard
140
0.25
170
     5
 62
     0
 63
     7
283
     0
 90
      512
 91
        0
  1

274
    -2
284
     1
 64
     0
275
    -2
285
     1
 65
     0
276
    -2
286
     1
 66
     0
277
    -2
287
     1
 67
     0
278
    -2
288
     1
 68
     0
279
    -2
289
     1
 69
     0
  7
Standard
140
0.18
170
     5
 62
     0
 63
     7
283
     0
 90
      512
 91
        0
  1

274
    -2
284
     1
 64
     0
275
    -2
285
     1
 65
     0
276
    -2
286
     1
 66
     0
277
    -2
287
     1
 67
     0
278
    -2
288
     1
 68
     0
279
    -2
289
     1
 69
     0
  0
VISUALSTYLE
  5
2F
102
{ACAD_REACTORS
330
2A
102
}
330
2A
100
AcDbVisualStyle
  2
2dWireframe
 70
     4
177
     3
291
     0
 70
    58
 90
        0
176
     1
 90
        2
176
     1
 90
        0
176
     1
 90
        0
176
     1
 40
0.6
176
     1
 40
30.0
176
     1
 62
     7
420
 16777215
176
     1
 90
        1
176
     1
 90
        4
176
     1
 62
     7
176
     1
 62
   257
176
     1
 90
        1
176
     1
 90
        1
176
     1
 40
1.0
176
     1
 90
        0
176
     1
 62
   257
176
     1
 40
1.0
176
     1
 90
        1
176
     1
 90
        6
176
     1
 90
        2
176
     1
 62
     7
176
     1
 90
        5
176
     1
 90
        0
176
     1
 90
        0
176
     1
290
     0
176
     1
 90
        1
176
     1
 40
0.0
176
     1
 90
        0
176
     1
290
     1
176
     1
290
     1
176
     1
290
     0
176
     1
290
     0
176
     1
290
     0
176
     1
290
     0
176
     1
290
     0
176
     1
290
     0
176
     1
290
     0
176
     1
 90
       50
176
     1
 40
0.0
176
     1
 40
1.0
176
     1
 90
        0
176
     1
 62
    18
420
        0
176
     1
 90
       50
176
     1
 90
        3
176
     1
 62
     5
420
      255
176
     1
290
     0
176
     1
 90
       50
176
     1
 90
       50
176
     1
 90
       50
176
     1
290
     0
176
     1
 90
       50
176
     1
 62
   256
176
     0
 40
1.0
176
     0
 90
        2
176
     1
  1
strokes_ogs.tif
176
     1
290
     0
176
     1
 40
1.0
176
     1
 40
1.0
176
     1
  0
VISUALSTYLE
  5
8E681
102
{ACAD_REACTORS
330
2A
102
}
330
2A
100
AcDbVisualStyle
  2

 70
     6
177
     3
291
     0
 70
    58
 90
        1
176
     1
 90
        2
176
     1
 90
        2
176
     1
 90
        0
176
     1
 40
0.6
176
     1
 40
30.0
176
     1
 62
     7
420
 16777215
176
     1
 90
        2
176
     1
 90
        2
176
     1
 62
     7
176
     1
 62
   257
176
     1
 90
        2
176
     1
 90
        1
176
     1
 40
40.0
176
     1
 90
        0
176
     1
 62
   257
176
     1
 40
1.0
176
     1
 90
        1
176
     1
 90
        6
176
     1
 90
        2
176
     1
 62
     7
176
     1
 90
        3
176
     1
 90
        0
176
     1
 90
        0
176
     1
290
     0
176
     1
 90
        1
176
     1
 40
0.0
176
     1
 90
        0
176
     1
290
     0
176
     1
290
     1
176
     1
290
     1
176
     1
290
     0
176
     1
290
     0
176
     1
290
     0
176
     1
290
     0
176
     1
290
     0
176
     1
290
     0
176
     1
 90
       50
176
     1
 40
0.0
176
     1
 40
1.0
176
     1
 90
        0
176
     1
 62
    18
420
        0
176
     1
 90
       50
176
     1
 90
        3
176
     1
 62
     5
420
      255
176
     1
290
     0
176
     1
 90
       50
176
     1
 90
       50
176
     1
 90
       50
176
     1
290
     0
176
     1
 90
       50
176
     1
 62
   256
176
     0
 40
1.0
176
     0
 90
        2
176
     1
  1
strokes_ogs.tif
176
     1
290
     0
176
     1
 40
1.0
176
     1
 40
1.0
176
     1
  0
VISUALSTYLE
  5
8E682
102
{ACAD_REACTORS
330
2A
102
}
330
2A
100
AcDbVisualStyle
  2

 70
     5
177
     3
291
     0
 70
    58
 90
        0
176
     1
 90
        2
176
     1
 90
        0
176
     1
 90
        0
176
     1
 40
0.6
176
     1
 40
30.0
176
     1
 62
     7
420
 16777215
176
     1
 90
        1
176
     1
 90
        4
176
     1
 62
     7
176
     1
 62
   257
176
     1
 90
        1
176
     1
 90
        1
176
     1
 40
1.0
176
     1
 90
        0
176
     1
 62
   257
176
     1
 40
1.0
176
     1
 90
        1
176
     1
 90
        6
176
     1
 90
        2
176
     1
 62
     7
176
     1
 90
        5
176
     1
 90
        0
176
     1
 90
        0
176
     1
290
     0
176
     1
 90
        1
176
     1
 40
0.0
176
     1
 90
        0
176
     1
290
     0
176
     1
290
     1
176
     1
290
     1
176
     1
290
     0
176
     1
290
     0
176
     1
290
     0
176
     1
290
     0
176
     1
290
     0
176
     1
290
     0
176
     1
 90
       50
176
     1
 40
0.0
176
     1
 40
1.0
176
     1
 90
        0
176
     1
 62
    18
420
        0
176
     1
 90
       50
176
     1
 90
        3
176
     1
 62
     5
420
      255
176
     1
290
     0
176
     1
 90
       50
176
     1
 90
       50
176
     1
 90
       50
176
     1
290
     0
176
     1
 90
       50
176
     1
 62
   256
176
     0
 40
1.0
176
     0
 90
        2
176
     1
  1
strokes_ogs.tif
176
     1
290
     0
176
     1
 40
1.0
176
     1
 40
1.0
176
     1
  0
VISUALSTYLE
  5
32
102
{ACAD_REACTORS
330
2A
102
}
330
2A
100
AcDbVisualStyle
  2
Basic
 70
     7
177
     3
291
     1
 70
    58
 90
        1
176
     1
 90
        0
176
     1
 90
        1
176
     1
 90
        0
176
     1
 40
0.6
176
     1
 40
30.0
176
     1
 62
     7
420
 16777215
176
     1
 90
        0
176
     1
 90
        4
176
     1
 62
     7
176
     1
 62
   257
176
     1
 90
        1
176
     1
 90
        1
176
     1
 40
1.0
176
     1
 90
        8
176
     1
 62
     7
176
     1
 40
1.0
176
     1
 90
        1
176
     1
 90
        6
176
     1
 90
        2
176
     1
 62
     7
176
     1
 90
        5
176
     1
 90
        0
176
     1
 90
        0
176
     1
290
     0
176
     1
 90
        1
176
     1
 40
0.0
176
     1
 90
        0
176
     1
290
     0
176
     1
290
     1
176
     1
290
     1
176
     1
290
     0
176
     1
290
     0
176
     1
290
     0
176
     1
290
     0
176
     1
290
     0
176
     1
290
     0
176
     1
 90
       50
176
     1
 40
0.0
176
     1
 40
1.0
176
     1
 90
        0
176
     1
 62
    18
420
        0
176
     1
 90
       50
176
     1
 90
        3
176
     1
 62
     5
420
      255
176
     1
290
     0
176
     1
 90
       50
176
     1
 90
       50
176
     1
 90
       50
176
     1
290
     0
176
     1
 90
       50
176
     1
 62
   256
176
     0
 40
1.0
176
     0
 90
        2
176
     1
  1
strokes_ogs.tif
176
     1
290
     0
176
     1
 40
1.0
176
     1
 40
1.0
176
     1
  0
VISUALSTYLE
  5
36
102
{ACAD_REACTORS
330
2A
102
}
330
2A
100
AcDbVisualStyle
  2
Brighten
 70
    12
177
     3
291
     1
 70
    58
 90
        2
176
     1
 90
        2
176
     1
 90
        0
176
     1
 90
        0
176
     1
 40
0.6
176
     1
 40
30.0
176
     1
 62
     7
420
 16777215
176
     1
 90
        1
176
     1
 90
        4
176
     1
 62
     7
176
     1
 62
   257
176
     1
 90
        1
176
     1
 90
        1
176
     1
 40
1.0
176
     1
 90
        8
176
     1
 62
     7
176
     1
 40
1.0
176
     1
 90
        1
176
     1
 90
        6
176
     1
 90
        2
176
     1
 62
     7
176
     1
 90
        5
176
     1
 90
        0
176
     1
 90
        0
176
     1
290
     0
176
     1
 90
        1
176
     1
 40
50.0
176
     1
 90
        0
176
     1
290
     0
176
     1
290
     1
176
     1
290
     1
176
     1
290
     0
176
     1
290
     0
176
     1
290
     0
176
     1
290
     0
176
     1
290
     0
176
     1
290
     0
176
     1
 90
       50
176
     1
 40
0.0
176
     1
 40
1.0
176
     1
 90
        0
176
     1
 62
    18
420
        0
176
     1
 90
       50
176
     1
 90
        3
176
     1
 62
     5
420
      255
176
     1
290
     0
176
     1
 90
       50
176
     1
 90
       50
176
     1
 90
       50
176
     1
290
     0
176
     1
 90
       50
176
     1
 62
   256
176
     0
 40
1.0
176
     0
 90
        2
176
     1
  1
strokes_ogs.tif
176
     1
290
     0
176
     1
 40
1.0
176
     1
 40
1.0
176
     1
  0
VISUALSTYLE
  5
3A
102
{ACAD_REACTORS
330
2A
102
}
330
2A
100
AcDbVisualStyle
  2
ColorChange
 70
    16
177
     3
291
     1
 70
    58
 90
        2
176
     1
 90
        2
176
     1
 90
        3
176
     1
 90
        0
176
     1
 40
0.6
176
     1
 40
30.0
176
     1
 62
     8
420
  8421504
176
     1
 90
        1
176
     1
 90
        4
176
     1
 62
     7
176
     1
 62
   257
176
     1
 90
        1
176
     1
 90
        1
176
     1
 40
1.0
176
     1
 90
        8
176
     1
 62
     8
420
  8421504
176
     1
 40
1.0
176
     1
 90
        1
176
     1
 90
        6
176
     1
 90
        2
176
     1
 62
     7
176
     1
 90
        5
176
     1
 90
        0
176
     1
 90
        0
176
     1
290
     0
176
     1
 90
        1
176
     1
 40
0.0
176
     1
 90
        0
176
     1
290
     0
176
     1
290
     1
176
     1
290
     1
176
     1
290
     0
176
     1
290
     0
176
     1
290
     0
176
     1
290
     0
176
     1
290
     0
176
     1
290
     0
176
     1
 90
       50
176
     1
 40
0.0
176
     1
 40
1.0
176
     1
 90
        0
176
     1
 62
    18
420
        0
176
     1
 90
       50
176
     1
 90
        3
176
     1
 62
     5
420
      255
176
     1
290
     0
176
     1
 90
       50
176
     1
 90
       50
176
     1
 90
       50
176
     1
290
     0
176
     1
 90
       50
176
     1
 62
   256
176
     0
 40
1.0
176
     0
 90
        2
176
     1
  1
strokes_ogs.tif
176
     1
290
     0
176
     1
 40
1.0
176
     1
 40
1.0
176
     1
  0
VISUALSTYLE
  5
34
102
{ACAD_REACTORS
330
2A
102
}
330
2A
100
AcDbVisualStyle
  2
Conceptual
 70
     9
177
     3
291
     0
 70
    58
 90
        3
176
     1
 90
        2
176
     1
 90
        0
176
     1
 90
        0
176
     1
 40
0.6
176
     1
 40
30.0
176
     1
 62
     7
420
 16777215
176
     1
 90
        2
176
     1
 90
        2
176
     1
 62
     7
176
     1
 62
   257
176
     1
 90
        1
176
     1
 90
        1
176
     1
 40
179.0
176
     1
 90
        8
176
     1
 62
     7
176
     1
 40
1.0
176
     1
 90
        1
176
     1
 90
        6
176
     1
 90
        2
176
     1
 62
     7
176
     1
 90
        3
176
     1
 90
        0
176
     1
 90
        0
176
     1
290
     0
176
     1
 90
        1
176
     1
 40
0.0
176
     1
 90
        0
176
     1
290
     0
176
     1
290
     1
176
     1
290
     1
176
     1
290
     0
176
     1
290
     0
176
     1
290
     0
176
     1
290
     0
176
     1
290
     0
176
     1
290
     0
176
     1
 90
       50
176
     1
 40
0.0
176
     1
 40
1.0
176
     1
 90
        0
176
     1
 62
    18
420
        0
176
     1
 90
       50
176
     1
 90
        3
176
     1
 62
     5
420
      255
176
     1
290
     0
176
     1
 90
       50
176
     1
 90
       50
176
     1
 90
       50
176
     1
290
     0
176
     1
 90
       50
176
     1
 62
   256
176
     0
 40
1.0
176
     0
 90
        2
176
     1
  1
strokes_ogs.tif
176
     1
290
     0
176
     1
 40
1.0
176
     1
 40
1.0
176
     1
  0
VISUALSTYLE
  5
35
102
{ACAD_REACTORS
330
2A
102
}
330
2A
100
AcDbVisualStyle
  2
Dim
 70
    11
177
     3
291
     1
 70
    58
 90
        2
176
     1
 90
        2
176
     1
 90
        0
176
     1
 90
        0
176
     1
 40
0.6
176
     1
 40
30.0
176
     1
 62
     7
420
 16777215
176
     1
 90
        1
176
     1
 90
        4
176
     1
 62
     7
176
     1
 62
   257
176
     1
 90
        1
176
     1
 90
        1
176
     1
 40
1.0
176
     1
 90
        8
176
     1
 62
     7
176
     1
 40
1.0
176
     1
 90
        1
176
     1
 90
        6
176
     1
 90
        2
176
     1
 62
     7
176
     1
 90
        5
176
     1
 90
        0
176
     1
 90
        0
176
     1
290
     0
176
     1
 90
        1
176
     1
 40
-50.0
176
     1
 90
        0
176
     1
290
     0
176
     1
290
     1
176
     1
290
     1
176
     1
290
     0
176
     1
290
     0
176
     1
290
     0
176
     1
290
     0
176
     1
290
     0
176
     1
290
     0
176
     1
 90
       50
176
     1
 40
0.0
176
     1
 40
1.0
176
     1
 90
        0
176
     1
 62
    18
420
        0
176
     1
 90
       50
176
     1
 90
        3
176
     1
 62
     5
420
      255
176
     1
290
     0
176
     1
 90
       50
176
     1
 90
       50
176
     1
 90
       50
176
     1
290
     0
176
     1
 90
       50
176
     1
 62
   256
176
     0
 40
1.0
176
     0
 90
        2
176
     1
  1
strokes_ogs.tif
176
     1
290
     0
176
     1
 40
1.0
176
     1
 40
1.0
176
     1
  0
VISUALSTYLE
  5
3D
102
{ACAD_REACTORS
330
2A
102
}
330
2A
100
AcDbVisualStyle
  2
EdgeColorOff
 70
    22
177
     3
291
     1
 70
    58
 90
        2
176
     0
 90
        2
176
     0
 90
        0
176
     0
 90
        0
176
     0
 40
0.6
176
     0
 40
30.0
176
     0
 62
     7
420
 16777215
176
     0
 90
        1
176
     0
 90
        4
176
     0
 62
     7
176
     0
 62
   257
176
     0
 90
        1
176
     0
 90
        1
176
     0
 40
1.0
176
     0
 90
        8
176
     2
 62
     7
176
     0
 40
1.0
176
     0
 90
        1
176
     0
 90
        6
176
     0
 90
        2
176
     0
 62
     7
176
     0
 90
        5
176
     0
 90
        0
176
     0
 90
        0
176
     0
290
     0
176
     0
 90
        1
176
     0
 40
0.0
176
     0
 90
        0
176
     0
290
     0
176
     0
290
     1
176
     0
290
     1
176
     0
290
     0
176
     0
290
     0
176
     0
290
     0
176
     0
290
     0
176
     0
290
     0
176
     0
290
     0
176
     0
 90
       50
176
     0
 40
0.0
176
     0
 40
1.0
176
     0
 90
        0
176
     0
 62
    18
420
        0
176
     0
 90
       50
176
     0
 90
        3
176
     0
 62
     5
420
      255
176
     0
290
     0
176
     0
 90
       50
176
     0
 90
       50
176
     0
 90
       50
176
     0
290
     0
176
     0
 90
       50
176
     0
 62
   256
176
     0
 40
1.0
176
     0
 90
        2
176
     0
  1
strokes_ogs.tif
176
     0
290
     0
176
     0
 40
1.0
176
     0
 40
1.0
176
     0
  0
VISUALSTYLE
  5
39
102
{ACAD_REACTORS
330
2A
102
}
330
2A
100
AcDbVisualStyle
  2
Facepattern
 70
    15
177
     3
291
     1
 70
    58
 90
        2
176
     1
 90
        2
176
     1
 90
        0
176
     1
 90
        0
176
     1
 40
0.6
176
     1
 40
30.0
176
     1
 62
     7
420
 16777215
176
     1
 90
        1
176
     1
 90
        4
176
     1
 62
     7
176
     1
 62
   257
176
     1
 90
        1
176
     1
 90
        1
176
     1
 40
1.0
176
     1
 90
        8
176
     1
 62
     7
176
     1
 40
1.0
176
     1
 90
        1
176
     1
 90
        6
176
     1
 90
        2
176
     1
 62
     7
176
     1
 90
        5
176
     1
 90
        0
176
     1
 90
        0
176
     1
290
     0
176
     1
 90
        1
176
     1
 40
0.0
176
     1
 90
        0
176
     1
290
     0
176
     1
290
     1
176
     1
290
     1
176
     1
290
     0
176
     1
290
     0
176
     1
290
     0
176
     1
290
     0
176
     1
290
     0
176
     1
290
     0
176
     1
 90
       50
176
     1
 40
0.0
176
     1
 40
1.0
176
     1
 90
        0
176
     1
 62
    18
420
        0
176
     1
 90
       50
176
     1
 90
        3
176
     1
 62
     5
420
      255
176
     1
290
     0
176
     1
 90
       50
176
     1
 90
       50
176
     1
 90
       50
176
     1
290
     0
176
     1
 90
       50
176
     1
 62
   256
176
     0
 40
1.0
176
     0
 90
        2
176
     1
  1
strokes_ogs.tif
176
     1
290
     0
176
     1
 40
1.0
176
     1
 40
1.0
176
     1
  0
VISUALSTYLE
  5
2B
102
{ACAD_REACTORS
330
2A
102
}
330
2A
100
AcDbVisualStyle
  2
Flat
 70
     0
177
     3
291
     1
 70
    58
 90
        2
176
     1
 90
        1
176
     1
 90
        1
176
     1
 90
        2
176
     1
 40
0.6
176
     1
 40
30.0
176
     1
 62
     7
420
 16777215
176
     1
 90
        0
176
     1
 90
        0
176
     1
 62
     7
176
     1
 62
   257
176
     1
 90
        1
176
     1
 90
        1
176
     1
 40
1.0
176
     1
 90
        8
176
     1
 62
     7
176
     1
 40
1.0
176
     1
 90
        1
176
     1
 90
        6
176
     1
 90
        2
176
     1
 62
     7
176
     1
 90
        5
176
     1
 90
        0
176
     1
 90
        0
176
     1
290
     0
176
     1
 90
       13
176
     1
 40
0.0
176
     1
 90
        0
176
     1
290
     0
176
     1
290
     1
176
     1
290
     1
176
     1
290
     0
176
     1
290
     0
176
     1
290
     0
176
     1
290
     0
176
     1
290
     0
176
     1
290
     0
176
     1
 90
       50
176
     1
 40
0.0
176
     1
 40
1.0
176
     1
 90
        0
176
     1
 62
    18
420
        0
176
     1
 90
       50
176
     1
 90
        3
176
     1
 62
     5
420
      255
176
     1
290
     0
176
     1
 90
       50
176
     1
 90
       50
176
     1
 90
       50
176
     1
290
     0
176
     1
 90
       50
176
     1
 62
   256
176
     0
 40
1.0
176
     0
 90
        2
176
     1
  1
strokes_ogs.tif
176
     1
290
     0
176
     1
 40
1.0
176
     1
 40
1.0
176
     1
  0
VISUALSTYLE
  5
2C
102
{ACAD_REACTORS
330
2A
102
}
330
2A
100
AcDbVisualStyle
  2
FlatWithEdges
 70
     1
177
     3
291
     1
 70
    58
 90
        2
176
     1
 90
        1
176
     1
 90
        1
176
     1
 90
        2
176
     1
 40
0.6
176
     1
 40
30.0
176
     1
 62
     7
420
 16777215
176
     1
 90
        1
176
     1
 90
        0
176
     1
 62
     7
176
     1
 62
   257
176
     1
 90
        1
176
     1
 90
        1
176
     1
 40
1.0
176
     1
 90
        0
176
     1
 62
   257
176
     1
 40
1.0
176
     1
 90
        1
176
     1
 90
        6
176
     1
 90
        2
176
     1
 62
     7
176
     1
 90
        5
176
     1
 90
        0
176
     1
 90
        0
176
     1
290
     0
176
     1
 90
       13
176
     1
 40
0.0
176
     1
 90
        0
176
     1
290
     0
176
     1
290
     1
176
     1
290
     1
176
     1
290
     0
176
     1
290
     0
176
     1
290
     0
176
     1
290
     0
176
     1
290
     0
176
     1
290
     0
176
     1
 90
       50
176
     1
 40
0.0
176
     1
 40
1.0
176
     1
 90
        0
176
     1
 62
    18
420
        0
176
     1
 90
       50
176
     1
 90
        3
176
     1
 62
     5
420
      255
176
     1
290
     0
176
     1
 90
       50
176
     1
 90
       50
176
     1
 90
       50
176
     1
290
     0
176
     1
 90
       50
176
     1
 62
   256
176
     0
 40
1.0
176
     0
 90
        2
176
     1
  1
strokes_ogs.tif
176
     1
290
     0
176
     1
 40
1.0
176
     1
 40
1.0
176
     1
  0
VISUALSTYLE
  5
2D
102
{ACAD_REACTORS
330
2A
102
}
330
2A
100
AcDbVisualStyle
  2
Gouraud
 70
     2
177
     3
291
     1
 70
    58
 90
        2
176
     1
 90
        2
176
     1
 90
        1
176
     1
 90
        2
176
     1
 40
0.6
176
     1
 40
30.0
176
     1
 62
     7
420
 16777215
176
     1
 90
        0
176
     1
 90
        0
176
     1
 62
     7
176
     1
 62
   257
176
     1
 90
        1
176
     1
 90
        1
176
     1
 40
1.0
176
     1
 90
        0
176
     1
 62
     7
176
     1
 40
1.0
176
     1
 90
        1
176
     1
 90
        6
176
     1
 90
        2
176
     1
 62
     7
176
     1
 90
        5
176
     1
 90
        0
176
     1
 90
        0
176
     1
290
     0
176
     1
 90
       13
176
     1
 40
0.0
176
     1
 90
        0
176
     1
290
     0
176
     1
290
     1
176
     1
290
     1
176
     1
290
     0
176
     1
290
     0
176
     1
290
     0
176
     1
290
     0
176
     1
290
     0
176
     1
290
     0
176
     1
 90
       50
176
     1
 40
0.0
176
     1
 40
1.0
176
     1
 90
        0
176
     1
 62
    18
420
        0
176
     1
 90
       50
176
     1
 90
        3
176
     1
 62
     5
420
      255
176
     1
290
     0
176
     1
 90
       50
176
     1
 90
       50
176
     1
 90
       50
176
     1
290
     0
176
     1
 90
       50
176
     1
 62
   256
176
     0
 40
1.0
176
     0
 90
        2
176
     1
  1
strokes_ogs.tif
176
     1
290
     0
176
     1
 40
1.0
176
     1
 40
1.0
176
     1
  0
VISUALSTYLE
  5
2E
102
{ACAD_REACTORS
330
2A
102
}
330
2A
100
AcDbVisualStyle
  2
GouraudWithEdges
 70
     3
177
     3
291
     1
 70
    58
 90
        2
176
     1
 90
        2
176
     1
 90
        1
176
     1
 90
        2
176
     1
 40
0.6
176
     1
 40
30.0
176
     1
 62
     7
420
 16777215
176
     1
 90
        1
176
     1
 90
        0
176
     1
 62
     7
176
     1
 62
   257
176
     1
 90
        1
176
     1
 90
        1
176
     1
 40
1.0
176
     1
 90
        0
176
     1
 62
   257
176
     1
 40
1.0
176
     1
 90
        1
176
     1
 90
        6
176
     1
 90
        2
176
     1
 62
     7
176
     1
 90
        5
176
     1
 90
        0
176
     1
 90
        0
176
     1
290
     0
176
     1
 90
       13
176
     1
 40
0.0
176
     1
 90
        0
176
     1
290
     0
176
     1
290
     1
176
     1
290
     1
176
     1
290
     0
176
     1
290
     0
176
     1
290
     0
176
     1
290
     0
176
     1
290
     0
176
     1
290
     0
176
     1
 90
       50
176
     1
 40
0.0
176
     1
 40
1.0
176
     1
 90
        0
176
     1
 62
    18
420
        0
176
     1
 90
       50
176
     1
 90
        3
176
     1
 62
     5
420
      255
176
     1
290
     0
176
     1
 90
       50
176
     1
 90
       50
176
     1
 90
       50
176
     1
290
     0
176
     1
 90
       50
176
     1
 62
   256
176
     0
 40
1.0
176
     0
 90
        2
176
     1
  1
strokes_ogs.tif
176
     1
290
     0
176
     1
 40
1.0
176
     1
 40
1.0
176
     1
  0
VISUALSTYLE
  5
31
102
{ACAD_REACTORS
330
2A
102
}
330
2A
100
AcDbVisualStyle
  2
Hidden
 70
     6
177
     3
291
     0
 70
    58
 90
        1
176
     1
 90
        2
176
     1
 90
        2
176
     1
 90
        0
176
     1
 40
0.6
176
     1
 40
30.0
176
     1
 62
     7
420
 16777215
176
     1
 90
        2
176
     1
 90
        2
176
     1
 62
     7
176
     1
 62
   257
176
     1
 90
        2
176
     1
 90
        1
176
     1
 40
40.0
176
     1
 90
        0
176
     1
 62
   257
176
     1
 40
1.0
176
     1
 90
        1
176
     1
 90
        6
176
     1
 90
        2
176
     1
 62
     7
176
     1
 90
        3
176
     1
 90
        0
176
     1
 90
        0
176
     1
290
     0
176
     1
 90
        1
176
     1
 40
0.0
176
     1
 90
        0
176
     1
290
     0
176
     1
290
     1
176
     1
290
     1
176
     1
290
     0
176
     1
290
     0
176
     1
290
     0
176
     1
290
     0
176
     1
290
     0
176
     1
290
     0
176
     1
 90
       50
176
     1
 40
0.0
176
     1
 40
1.0
176
     1
 90
        0
176
     1
 62
    18
420
        0
176
     1
 90
       50
176
     1
 90
        3
176
     1
 62
     5
420
      255
176
     1
290
     0
176
     1
 90
       50
176
     1
 90
       50
176
     1
 90
       50
176
     1
290
     0
176
     1
 90
       50
176
     1
 62
   256
176
     0
 40
1.0
176
     0
 90
        2
176
     1
  1
strokes_ogs.tif
176
     1
290
     0
176
     1
 40
1.0
176
     1
 40
1.0
176
     1
  0
VISUALSTYLE
  5
3B
102
{ACAD_REACTORS
330
2A
102
}
330
2A
100
AcDbVisualStyle
  2
JitterOff
 70
    20
177
     3
291
     1
 70
    58
 90
        2
176
     0
 90
        2
176
     0
 90
        0
176
     0
 90
        0
176
     0
 40
0.6
176
     0
 40
30.0
176
     0
 62
     7
420
 16777215
176
     0
 90
        1
176
     0
 90
        4
176
     0
 62
     7
176
     0
 62
   257
176
     0
 90
        1
176
     0
 90
        1
176
     0
 40
1.0
176
     0
 90
       10
176
     2
 62
     7
176
     0
 40
1.0
176
     0
 90
        1
176
     0
 90
        6
176
     0
 90
        2
176
     0
 62
     7
176
     0
 90
        5
176
     0
 90
        0
176
     0
 90
        0
176
     0
290
     0
176
     0
 90
        1
176
     0
 40
0.0
176
     0
 90
        0
176
     0
290
     0
176
     0
290
     1
176
     0
290
     1
176
     0
290
     0
176
     0
290
     0
176
     0
290
     0
176
     0
290
     0
176
     0
290
     0
176
     0
290
     0
176
     0
 90
       50
176
     0
 40
0.0
176
     0
 40
1.0
176
     0
 90
        0
176
     0
 62
    18
420
        0
176
     0
 90
       50
176
     0
 90
        3
176
     0
 62
     5
420
      255
176
     0
290
     0
176
     0
 90
       50
176
     0
 90
       50
176
     0
 90
       50
176
     0
290
     0
176
     0
 90
       50
176
     0
 62
   256
176
     0
 40
1.0
176
     0
 90
        2
176
     0
  1
strokes_ogs.tif
176
     0
290
     0
176
     0
 40
1.0
176
     0
 40
1.0
176
     0
  0
VISUALSTYLE
  5
38
102
{ACAD_REACTORS
330
2A
102
}
330
2A
100
AcDbVisualStyle
  2
Linepattern
 70
    14
177
     3
291
     1
 70
    58
 90
        2
176
     1
 90
        2
176
     1
 90
        0
176
     1
 90
        0
176
     1
 40
0.6
176
     1
 40
30.0
176
     1
 62
     7
420
 16777215
176
     1
 90
        1
176
     1
 90
        4
176
     1
 62
     7
176
     1
 62
   257
176
     1
 90
        7
176
     1
 90
        7
176
     1
 40
1.0
176
     1
 90
        8
176
     1
 62
     7
176
     1
 40
1.0
176
     1
 90
        1
176
     1
 90
        6
176
     1
 90
        2
176
     1
 62
     7
176
     1
 90
        5
176
     1
 90
        0
176
     1
 90
        0
176
     1
290
     0
176
     1
 90
        1
176
     1
 40
0.0
176
     1
 90
        0
176
     1
290
     0
176
     1
290
     1
176
     1
290
     1
176
     1
290
     0
176
     1
290
     0
176
     1
290
     0
176
     1
290
     0
176
     1
290
     0
176
     1
290
     0
176
     1
 90
       50
176
     1
 40
0.0
176
     1
 40
1.0
176
     1
 90
        0
176
     1
 62
    18
420
        0
176
     1
 90
       50
176
     1
 90
        3
176
     1
 62
     5
420
      255
176
     1
290
     0
176
     1
 90
       50
176
     1
 90
       50
176
     1
 90
       50
176
     1
290
     0
176
     1
 90
       50
176
     1
 62
   256
176
     0
 40
1.0
176
     0
 90
        2
176
     1
  1
strokes_ogs.tif
176
     1
290
     0
176
     1
 40
1.0
176
     1
 40
1.0
176
     1
  0
VISUALSTYLE
  5
3C
102
{ACAD_REACTORS
330
2A
102
}
330
2A
100
AcDbVisualStyle
  2
OverhangOff
 70
    21
177
     3
291
     1
 70
    58
 90
        2
176
     0
 90
        2
176
     0
 90
        0
176
     0
 90
        0
176
     0
 40
0.6
176
     0
 40
30.0
176
     0
 62
     7
420
 16777215
176
     0
 90
        1
176
     0
 90
        4
176
     0
 62
     7
176
     0
 62
   257
176
     0
 90
        1
176
     0
 90
        1
176
     0
 40
1.0
176
     0
 90
        9
176
     2
 62
     7
176
     0
 40
1.0
176
     0
 90
        1
176
     0
 90
        6
176
     0
 90
        2
176
     0
 62
     7
176
     0
 90
        5
176
     0
 90
        0
176
     0
 90
        0
176
     0
290
     0
176
     0
 90
        1
176
     0
 40
0.0
176
     0
 90
        0
176
     0
290
     0
176
     0
290
     1
176
     0
290
     1
176
     0
290
     0
176
     0
290
     0
176
     0
290
     0
176
     0
290
     0
176
     0
290
     0
176
     0
290
     0
176
     0
 90
       50
176
     0
 40
0.0
176
     0
 40
1.0
176
     0
 90
        0
176
     0
 62
    18
420
        0
176
     0
 90
       50
176
     0
 90
        3
176
     0
 62
     5
420
      255
176
     0
290
     0
176
     0
 90
       50
176
     0
 90
       50
176
     0
 90
       50
176
     0
290
     0
176
     0
 90
       50
176
     0
 62
   256
176
     0
 40
1.0
176
     0
 90
        2
176
     0
  1
strokes_ogs.tif
176
     0
290
     0
176
     0
 40
1.0
176
     0
 40
1.0
176
     0
  0
VISUALSTYLE
  5
33
102
{ACAD_REACTORS
330
2A
102
}
330
2A
100
AcDbVisualStyle
  2
Realistic
 70
     8
177
     3
291
     0
 70
    58
 90
        2
176
     1
 90
        3
176
     1
 90
        0
176
     1
 90
        2
176
     1
 40
0.6
176
     1
 40
30.0
176
     1
 62
     7
420
 16777215
176
     1
 90
        0
176
     1
 90
        0
176
     1
 62
     7
176
     1
 62
   257
176
     1
 90
        1
176
     1
 90
        1
176
     1
 40
1.0
176
     1
 90
        8
176
     1
 62
   257
176
     1
 40
1.0
176
     1
 90
        1
176
     1
 90
        6
176
     1
 90
        2
176
     1
 62
     7
176
     1
 90
        3
176
     1
 90
        0
176
     1
 90
        0
176
     1
290
     0
176
     1
 90
       13
176
     1
 40
0.0
176
     1
 90
        0
176
     1
290
     0
176
     1
290
     1
176
     1
290
     1
176
     1
290
     0
176
     1
290
     0
176
     1
290
     0
176
     1
290
     0
176
     1
290
     0
176
     1
290
     0
176
     1
 90
       50
176
     1
 40
0.0
176
     1
 40
1.0
176
     1
 90
        0
176
     1
 62
    18
420
        0
176
     1
 90
       50
176
     1
 90
        3
176
     1
 62
     5
420
      255
176
     1
290
     0
176
     1
 90
       50
176
     1
 90
       50
176
     1
 90
       50
176
     1
290
     0
176
     1
 90
       50
176
     1
 62
   256
176
     0
 40
1.0
176
     0
 90
        2
176
     1
  1
strokes_ogs.tif
176
     1
290
     0
176
     1
 40
1.0
176
     1
 40
1.0
176
     1
  0
VISUALSTYLE
  5
42
102
{ACAD_REACTORS
330
2A
102
}
330
2A
100
AcDbVisualStyle
  2
Shaded
 70
    27
177
     3
291
     0
 70
    58
 90
        2
176
     1
 90
        2
176
     1
 90
        1
176
     1
 90
        2
176
     1
 40
0.6
176
     1
 40
30.0
176
     1
 62
     7
420
 16777215
176
     1
 90
        0
176
     1
 90
        4
176
     1
 62
     7
176
     1
 62
   257
176
     1
 90
        1
176
     1
 90
        1
176
     1
 40
1.0
176
     1
 90
        8
176
     1
 62
   257
176
     1
 40
1.0
176
     1
 90
        1
176
     1
 90
        6
176
     1
 90
        2
176
     1
 62
     8
420
  7895160
176
     1
 90
        3
176
     1
 90
        0
176
     1
 90
        0
176
     1
290
     0
176
     1
 90
        5
176
     1
 40
0.0
176
     1
 90
        0
176
     1
290
     0
176
     1
290
     1
176
     1
290
     1
176
     1
290
     0
176
     1
290
     0
176
     1
290
     0
176
     1
290
     0
176
     1
290
     0
176
     1
290
     0
176
     1
 90
       50
176
     1
 40
0.0
176
     1
 40
1.0
176
     1
 90
        0
176
     1
 62
    18
420
        0
176
     1
 90
       50
176
     1
 90
        3
176
     1
 62
     5
420
      255
176
     1
290
     0
176
     1
 90
       50
176
     1
 90
       50
176
     1
 90
       50
176
     1
290
     0
176
     1
 90
       50
176
     1
 62
   256
176
     0
 40
1.0
176
     0
 90
        2
176
     1
  1
strokes_ogs.tif
176
     1
290
     0
176
     1
 40
1.0
176
     1
 40
1.0
176
     1
  0
VISUALSTYLE
  5
41
102
{ACAD_REACTORS
330
2A
102
}
330
2A
100
AcDbVisualStyle
  2
Shaded with edges
 70
    26
177
     3
291
     0
 70
    58
 90
        2
176
     1
 90
        2
176
     1
 90
        1
176
     1
 90
        2
176
     1
 40
0.6
176
     1
 40
30.0
176
     1
 62
     7
420
 16777215
176
     1
 90
        1
176
     1
 90
       10
176
     1
 62
     7
176
     1
 62
   257
176
     1
 90
        2
176
     1
 90
        1
176
     1
 40
1.0
176
     1
 90
        8
176
     1
 62
   257
176
     1
 40
1.0
176
     1
 90
        1
176
     1
 90
        6
176
     1
 90
        2
176
     1
 62
     7
176
     1
 90
        3
176
     1
 90
        0
176
     1
 90
        0
176
     1
290
     0
176
     1
 90
        5
176
     1
 40
0.0
176
     1
 90
        0
176
     1
290
     0
176
     1
290
     1
176
     1
290
     1
176
     1
290
     0
176
     1
290
     0
176
     1
290
     0
176
     1
290
     0
176
     1
290
     0
176
     1
290
     0
176
     1
 90
       50
176
     1
 40
0.0
176
     1
 40
1.0
176
     1
 90
        0
176
     1
 62
    18
420
        0
176
     1
 90
       50
176
     1
 90
        3
176
     1
 62
     5
420
      255
176
     1
290
     0
176
     1
 90
       50
176
     1
 90
       50
176
     1
 90
       50
176
     1
290
     0
176
     1
 90
       50
176
     1
 62
   256
176
     0
 40
1.0
176
     0
 90
        2
176
     1
  1
strokes_ogs.tif
176
     1
290
     0
176
     1
 40
1.0
176
     1
 40
1.0
176
     1
  0
VISUALSTYLE
  5
3E
102
{ACAD_REACTORS
330
2A
102
}
330
2A
100
AcDbVisualStyle
  2
Shades of Gray
 70
    23
177
     3
291
     0
 70
    58
 90
        2
176
     1
 90
        2
176
     1
 90
        3
176
     1
 90
        0
176
     1
 40
0.6
176
     1
 40
30.0
176
     1
 62
     7
420
 16777215
176
     1
 90
        2
176
     1
 90
        2
176
     1
 62
     7
176
     1
 62
     7
176
     1
 90
        1
176
     1
 90
        1
176
     1
 40
40.0
176
     1
 90
        8
176
     1
 62
     7
176
     1
 40
1.0
176
     1
 90
        1
176
     1
 90
        6
176
     1
 90
        2
176
     1
 62
     7
176
     1
 90
        3
176
     1
 90
        0
176
     1
 90
        0
176
     1
290
     0
176
     1
 90
        1
176
     1
 40
0.0
176
     1
 90
        0
176
     1
290
     0
176
     1
290
     1
176
     1
290
     1
176
     1
290
     0
176
     1
290
     0
176
     1
290
     0
176
     1
290
     0
176
     1
290
     0
176
     1
290
     0
176
     1
 90
       50
176
     1
 40
0.0
176
     1
 40
1.0
176
     1
 90
        0
176
     1
 62
    18
420
        0
176
     1
 90
       50
176
     1
 90
        3
176
     1
 62
     5
420
      255
176
     1
290
     0
176
     1
 90
       50
176
     1
 90
       50
176
     1
 90
       50
176
     1
290
     0
176
     1
 90
       50
176
     1
 62
   256
176
     0
 40
1.0
176
     0
 90
        2
176
     1
  1
strokes_ogs.tif
176
     1
290
     0
176
     1
 40
1.0
176
     1
 40
1.0
176
     1
  0
VISUALSTYLE
  5
3F
102
{ACAD_REACTORS
330
2A
102
}
330
2A
100
AcDbVisualStyle
  2
Sketchy
 70
    24
177
     3
291
     0
 70
    58
 90
        1
176
     1
 90
        2
176
     1
 90
        2
176
     1
 90
        0
176
     1
 40
0.6
176
     1
 40
30.0
176
     1
 62
     7
420
 16777215
176
     1
 90
        2
176
     1
 90
        2
176
     1
 62
     7
176
     1
 62
     7
176
     1
 90
        1
176
     1
 90
        1
176
     1
 40
40.0
176
     1
 90
       11
176
     1
 62
     7
176
     1
 40
1.0
176
     1
 90
        1
176
     1
 90
        6
176
     1
 90
        2
176
     1
 62
     7
176
     1
 90
        6
176
     1
 90
        0
176
     1
 90
        0
176
     1
290
     0
176
     1
 90
        1
176
     1
 40
0.0
176
     1
 90
        0
176
     1
290
     0
176
     1
290
     1
176
     1
290
     1
176
     1
290
     0
176
     1
290
     0
176
     1
290
     0
176
     1
290
     0
176
     1
290
     0
176
     1
290
     0
176
     1
 90
       50
176
     1
 40
0.0
176
     1
 40
1.0
176
     1
 90
        0
176
     1
 62
    18
420
        0
176
     1
 90
       50
176
     1
 90
        3
176
     1
 62
     5
420
      255
176
     1
290
     0
176
     1
 90
       50
176
     1
 90
       50
176
     1
 90
       50
176
     1
290
     0
176
     1
 90
       50
176
     1
 62
   256
176
     0
 40
1.0
176
     0
 90
        2
176
     1
  1
strokes_ogs.tif
176
     1
290
     0
176
     1
 40
1.0
176
     1
 40
1.0
176
     1
  0
VISUALSTYLE
  5
37
102
{ACAD_REACTORS
330
2A
102
}
330
2A
100
AcDbVisualStyle
  2
Thicken
 70
    13
177
     3
291
     1
 70
    58
 90
        2
176
     1
 90
        2
176
     1
 90
        0
176
     1
 90
        0
176
     1
 40
0.6
176
     1
 40
30.0
176
     1
 62
     7
420
 16777215
176
     1
 90
        1
176
     1
 90
        4
176
     1
 62
     7
176
     1
 62
   257
176
     1
 90
        1
176
     1
 90
        1
176
     1
 40
1.0
176
     1
 90
       12
176
     1
 62
     7
176
     1
 40
1.0
176
     1
 90
        1
176
     1
 90
        6
176
     1
 90
        2
176
     1
 62
     7
176
     1
 90
        5
176
     1
 90
        0
176
     1
 90
        0
176
     1
290
     0
176
     1
 90
        1
176
     1
 40
0.0
176
     1
 90
        0
176
     1
290
     0
176
     1
290
     1
176
     1
290
     1
176
     1
290
     0
176
     1
290
     0
176
     1
290
     0
176
     1
290
     0
176
     1
290
     0
176
     1
290
     0
176
     1
 90
       50
176
     1
 40
0.0
176
     1
 40
1.0
176
     1
 90
        0
176
     1
 62
    18
420
        0
176
     1
 90
       50
176
     1
 90
        3
176
     1
 62
     5
420
      255
176
     1
290
     0
176
     1
 90
       50
176
     1
 90
       50
176
     1
 90
       50
176
     1
290
     0
176
     1
 90
       50
176
     1
 62
   256
176
     0
 40
1.0
176
     0
 90
        2
176
     1
  1
strokes_ogs.tif
176
     1
290
     0
176
     1
 40
1.0
176
     1
 40
1.0
176
     1
  0
VISUALSTYLE
  5
30
102
{ACAD_REACTORS
330
2A
102
}
330
2A
100
AcDbVisualStyle
  2
Wireframe
 70
     5
177
     3
291
     0
 70
    58
 90
        0
176
     1
 90
        2
176
     1
 90
        0
176
     1
 90
        0
176
     1
 40
0.6
176
     1
 40
30.0
176
     1
 62
     7
420
 16777215
176
     1
 90
        1
176
     1
 90
        4
176
     1
 62
     7
176
     1
 62
   257
176
     1
 90
        1
176
     1
 90
        1
176
     1
 40
1.0
176
     1
 90
        0
176
     1
 62
   257
176
     1
 40
1.0
176
     1
 90
        1
176
     1
 90
        6
176
     1
 90
        2
176
     1
 62
     7
176
     1
 90
        3
176
     1
 90
        0
176
     1
 90
        0
176
     1
290
     0
176
     1
 90
        1
176
     1
 40
0.0
176
     1
 90
        0
176
     1
290
     0
176
     1
290
     1
176
     1
290
     1
176
     1
290
     0
176
     1
290
     0
176
     1
290
     0
176
     1
290
     0
176
     1
290
     0
176
     1
290
     0
176
     1
 90
       50
176
     1
 40
0.0
176
     1
 40
1.0
176
     1
 90
        0
176
     1
 62
    18
420
        0
176
     1
 90
       50
176
     1
 90
        3
176
     1
 62
     5
420
      255
176
     1
290
     0
176
     1
 90
       50
176
     1
 90
       50
176
     1
 90
       50
176
     1
290
     0
176
     1
 90
       50
176
     1
 62
   256
176
     0
 40
1.0
176
     0
 90
        2
176
     1
  1
strokes_ogs.tif
176
     1
290
     0
176
     1
 40
1.0
176
     1
 40
1.0
176
     1
  0
VISUALSTYLE
  5
40
102
{ACAD_REACTORS
330
2A
102
}
330
2A
100
AcDbVisualStyle
  2
X-Ray
 70
    25
177
     3
291
     0
 70
    58
 90
        2
176
     1
 90
        2
176
     1
 90
        1
176
     1
 90
        1
176
     1
 40
0.5
176
     1
 40
30.0
176
     1
 62
     7
420
 16777215
176
     1
 90
        1
176
     1
 90
        0
176
     1
 62
     7
176
     1
 62
   257
176
     1
 90
        1
176
     1
 90
        1
176
     1
 40
1.0
176
     1
 90
        8
176
     1
 62
     7
176
     1
 40
1.0
176
     1
 90
        1
176
     1
 90
        6
176
     1
 90
        2
176
     1
 62
     7
176
     1
 90
        3
176
     1
 90
        0
176
     1
 90
        0
176
     1
290
     0
176
     1
 90
       13
176
     1
 40
0.0
176
     1
 90
        0
176
     1
290
     0
176
     1
290
     1
176
     1
290
     1
176
     1
290
     0
176
     1
290
     0
176
     1
290
     0
176
     1
290
     0
176
     1
290
     0
176
     1
290
     0
176
     1
 90
       50
176
     1
 40
0.0
176
     1
 40
1.0
176
     1
 90
        0
176
     1
 62
    18
420
        0
176
     1
 90
       50
176
     1
 90
        3
176
     1
 62
     5
420
      255
176
     1
290
     0
176
     1
 90
       50
176
     1
 90
       50
176
     1
 90
       50
176
     1
290
     0
176
     1
 90
       50
176
     1
 62
   256
176
     0
 40
1.0
176
     0
 90
        2
176
     1
  1
strokes_ogs.tif
176
     1
290
     0
176
     1
 40
1.0
176
     1
 40
1.0
176
     1
  0
DICTIONARYVAR
  5
8E602
102
{ACAD_REACTORS
330
8E601
102
}
330
8E601
100
DictionaryVariables
280
     0
  1
1:1
  0
DICTIONARYVAR
  5
8E672
102
{ACAD_REACTORS
330
8E601
102
}
330
8E601
100
DictionaryVariables
280
     0
  1
STANDARD
  0
DICTIONARYVAR
  5
8E671
102
{ACAD_REACTORS
330
8E601
102
}
330
8E601
100
DictionaryVariables
280
     0
  1
STANDARD
  0
DICTIONARYVAR
  5
8E673
102
{ACAD_REACTORS
330
8E601
102
}
330
8E601
100
DictionaryVariables
280
     0
  1
Imperial24
  0
DICTIONARYVAR
  5
8E674
102
{ACAD_REACTORS
330
8E601
102
}
330
8E601
100
DictionaryVariables
280
     0
  1
Imperial24
  0
DICTIONARYVAR
  5
8E676
102
{ACAD_REACTORS
330
8E601
102
}
330
8E601
100
DictionaryVariables
280
     0
  1
1
  0
DICTIONARYVAR
  5
8E677
102
{ACAD_REACTORS
330
8E601
102
}
330
8E601
100
DictionaryVariables
280
     0
  1
15
  0
DICTIONARYVAR
  5
8E675
102
{ACAD_REACTORS
330
8E601
102
}
330
8E601
100
DictionaryVariables
280
     0
  1
0
  0
DICTIONARYVAR
  5
8E603
102
{ACAD_REACTORS
330
8E601
102
}
330
8E601
100
DictionaryVariables
280
     0
  1
1
  0
DICTIONARY
  5
8E66E
330
8E643
100
AcDbDictionary
280
     1
281
     1
  3
ACAD_XREC_ROUNDTRIP
360
8E8EA
  0
DICTIONARY
  5
8E66C
330
8E642
100
AcDbDictionary
280
     1
281
     1
  3
ACAD_XREC_ROUNDTRIP
360
8E8E9
  0
DICTIONARY
  5
8E8E7
330
8E640
100
AcDbDictionary
280
     1
281
     1
  3
ACAD_ROUNDTRIP_2008_TABLESTYLE_CELLSTYLEMAP
360
8E8E8
  0
XRECORD
  5
8E8EA
102
{ACAD_REACTORS
330
8E66E
102
}
330
8E66E
100
AcDbXrecord
280
     1
102
DISPLAYNAME
  1
Imperial24
102
FLAGS
 90
        0
  0
XRECORD
  5
8E8E9
102
{ACAD_REACTORS
330
8E66C
102
}
330
8E66C
100
AcDbXrecord
280
     1
102
DISPLAYNAME
  1
Imperial24
102
FLAGS
 90
        0
  0
CELLSTYLEMAP
  5
8E8E8
102
{ACAD_REACTORS
330
8E8E7
102
}
330
8E8E7
100
AcDbCellStyleMap
 90
        3
300
CELLSTYLE
  1
TABLEFORMAT_BEGIN
 90
        5
170
     1
 91
        0
 92
    32768
 62
   257
 93
        1
300
CONTENTFORMAT
  1
CONTENTFORMAT_BEGIN
 90
        0
 91
        0
 92
      512
 93
        0
300

 40
0.0
140
1.0
 94
        5
 62
     0
340
11
144
0.25
309
CONTENTFORMAT_END
171
     0
 94
        0
309
TABLEFORMAT_END
  1
CELLSTYLE_BEGIN
 90
        1
 91
        1
300
_TITLE
309
CELLSTYLE_END
300
CELLSTYLE
  1
TABLEFORMAT_BEGIN
 90
        5
170
     1
 91
        0
 92
        0
 62
   257
 93
        1
300
CONTENTFORMAT
  1
CONTENTFORMAT_BEGIN
 90
        0
 91
        0
 92
      512
 93
        0
300

 40
0.0
140
1.0
 94
        5
 62
     0
340
11
144
0.18
309
CONTENTFORMAT_END
171
     0
 94
        0
309
TABLEFORMAT_END
  1
CELLSTYLE_BEGIN
 90
        2
 91
        1
300
_HEADER
309
CELLSTYLE_END
300
CELLSTYLE
  1
TABLEFORMAT_BEGIN
 90
        5
170
     1
 91
        0
 92
        0
 62
   257
 93
        1
300
CONTENTFORMAT
  1
CONTENTFORMAT_BEGIN
 90
        0
 91
        0
 92
      512
 93
        0
300

 40
0.0
140
1.0
 94
        2
 62
     0
340
11
144
0.18
309
CONTENTFORMAT_END
171
     0
 94
        0
309
TABLEFORMAT_END
  1
CELLSTYLE_BEGIN
 90
        3
 91
        2
300
_DATA
309
CELLSTYLE_END
  0
ENDSEC
  0
SECTION
  2
ACDSDATA
 70
     2
 71
     8
  0
ACDSSCHEMA
 90
        0
  1
AcDb_Thumbnail_Schema
  2
AcDbDs::ID
280
    10
 91
        8
  2
Thumbnail_Data
280
    15
 91
        0
101
ACDSRECORD
 95
        0
 90
        1
  2
AcDbDs::TreatedAsObjectData
280
     1
291
     1
101
ACDSRECORD
 95
        0
 90
        2
  2
AcDbDs::Legacy
280
     1
291
     1
101
ACDSRECORD
  1
AcDbDs::ID
 90
        3
  2
AcDs:Indexable
280
     1
291
     1
101
ACDSRECORD
  1
AcDbDs::ID
 90
        4
  2
AcDbDs::HandleAttribute
280
     7
282
     1
  0
ACDSSCHEMA
 90
        1
  1
AcDbDs::TreatedAsObjectDataSchema
  2
AcDbDs::TreatedAsObjectData
280
     1
 91
        0
  0
ACDSSCHEMA
 90
        2
  1
AcDbDs::LegacySchema
  2
AcDbDs::Legacy
280
     1
 91
        0
  0
ACDSSCHEMA
 90
        3
  1
AcDbDs::IndexedPropertySchema
  2
AcDs:Indexable
280
     1
 91
        0
  0
ACDSSCHEMA
 90
        4
  1
AcDbDs::HandleAttributeSchema
  2
AcDbDs::HandleAttribute
280
     7
 91
        1
284
     1
  0
ACDSRECORD
 90
        0
  2
AcDbDs::ID
280
    10
320
22
  2
Thumbnail_Data
280
    15
 94
     1676
310
89504E470D0A1A0A0000000D4948445200000100000000670803000000D82A6C0200000300504C5445000000000000C8C8C80000000000000000000000000000000000000000000000000000330000660000990000CC0000FF0033000033330033660033990033CC0033FF0066000066330066660066990066CC0066FF0099
310
000099330099660099990099CC0099FF00CC0000CC3300CC6600CC9900CCCC00CCFF00FF0000FF3300FF6600FF9900FFCC00FFFF3300003300333300663300993300CC3300FF3333003333333333663333993333CC3333FF3366003366333366663366993366CC3366FF3399003399333399663399993399CC3399FF33CC00
310
33CC3333CC6633CC9933CCCC33CCFF33FF0033FF3333FF6633FF9933FFCC33FFFF6600006600336600666600996600CC6600FF6633006633336633666633996633CC6633FF6666006666336666666666996666CC6666FF6699006699336699666699996699CC6699FF66CC0066CC3366CC6666CC9966CCCC66CCFF66FF0066
310
FF3366FF6666FF9966FFCC66FFFF9900009900339900669900999900CC9900FF9933009933339933669933999933CC9933FF9966009966339966669966999966CC9966FF9999009999339999669999999999CC9999FF99CC0099CC3399CC6699CC9999CCCC99CCFF99FF0099FF3399FF6699FF9999FFCC99FFFFCC0000CC00
310
33CC0066CC0099CC00CCCC00FFCC3300CC3333CC3366CC3399CC33CCCC33FFCC6600CC6633CC6666CC6699CC66CCCC66FFCC9900CC9933CC9966CC9999CC99CCCC99FFCCCC00CCCC33CCCC66CCCC99CCCCCCCCCCFFCCFF00CCFF33CCFF66CCFF99CCFFCCCCFFFFFF0000FF0033FF0066FF0099FF00CCFF00FFFF3300FF3333
310
FF3366FF3399FF33CCFF33FFFF6600FF6633FF6666FF6699FF66CCFF66FFFF9900FF9933FF9966FF9999FF99CCFF99FFFFCC00FFCC33FFCC66FFCC99FFCCCCFFCCFFFFFF00FFFF33FFFF66FFFF99FFFFCCFFFFFF0000000D0D0D1A1A1A2828283535354343435050505D5D5D6B6B6B787878868686939393A1A1A1AEAEAEBB
310
BBBBC9C9C9D6D6D6E4E4E4F1F1F1FFFFFF00000000000000000000000000000000000000000000000000000000000008F1915C0000023F4944415478DAED9CC992C3200C44F9FFFFEDFBD4CC64619114DBA15CA8695D92B8130A3DC7461286526432994C2693C96432D92D86A79D9298DC1FDEBD0E586FE900D81E7F9038FD
310
EF3E0512D305E0F208245EFFAB0381C4770154377A1C90D8003C1CFC7F6900E0258113C0AF5FF5585779F927B5A83801A0F7126FA9D8121980EE92F000145002283E80B20700788171200900772084CF922241C65CD800800D01C02F019056455AB79A4F81C44A6008FE108C178443E1E0642091FD07BCD267201132382DC9
310
643259CA9BFD7AADDD99F54CE974DD480A044077DE269DFE2408868E7E4B6038FB4801C099F5C241737E9D8180D1C96E32E07823C33F1EEB0380D1470C53608701C004806400EACACF6900251B00CBCF6900125C03B3011401C806E0867B40D14D50C3E0A681508E48300E85CF02307E8D24C980990C9D07302443EB67C451
310
3A7C0940AE74B829610CE5800B0082D6564760F4F70A808425B1C39E7DF935011000011000011080A5C3808B0B41E0B5862CEED77D9F11093AE9F1DAEE6F9A0BC4536357D2E16C5363810B970A229A1A1B8EA79B1ADBBE28AAA931CD0C09C046003435A651C008E627C7019A1ACB1009D909DCE987C4DAD43245B1A05B05FF
310
FD839205EDE2FA44F580994F8AE6A90754358C49251CCC6DEE4606F3FA0B2DA691C9641CB6F96E728FB0063096C70612D5F92F4E4883696B4CD64F14EA10F7AD6CB07A1CEE82F97EFF005202BBEF20A14D54042018135C897108B40A073B00B09E00FD283103D86F373977D7C44022BB07F65B6AC296EE03F0036C5FF0E41A
310
A9608A0000000049454E44AE426082000049454E44AE426082CD9FCC42402283587B82BF0E6AA29688F3C11ED08174FD80C0312F2F04AA9E58C01BB3827003105E0023A9DB2B20898E0F476ABB1D01E08916D8E419787913BCE2E8E179D5695DB62964EE8B3E00609EA15CB723683705DBB3C15300CD7EC0B0E7B82A00F71A
310
0E3CF39607D0E9DFCECE3FFA93A8D91E5D7B05CCCF3778CED45A58690004BE31027200CF6E6B2058FADB0D7B00003980C1BEC06FCA5E083B00B79CF57C6750167F0EF4AECE258E6300643F00B22F00A346F2D43EC65222065036C13B1130AB7A5800B439B0AA736C57204DC5547F122B00979877543D9CFF4B007691E8AAA5
310
3EB5EABF00226BC1D0318F2F6C0000000049454E44AE426082
  0
ENDSEC
  0
EOF
