  0
SECTION
  2
HEADER
  9
$ACADVER
  1
AC1018
  9
$ACADMAINTVER
 70
     0
  9
$DWGCODEPAGE
  3
ANSI_1252
  9
$INSBASE
 10
0.0
 20
0.0
 30
0.0
  9
$EXTMIN
 10
-13.859787592287
 20
-0.0015478654500001
 30
-0.0000000000000501
  9
$EXTMAX
 10
51.09570463783835
 20
69.19758274983208
 30
0.0000000000000796
  9
$LIMMIN
 10
0.0
 20
0.0
  9
$LIMMAX
 10
12.0
 20
9.0
  9
$ORTHOMODE
 70
     0
  9
$REGENMODE
 70
     1
  9
$FILLMODE
 70
     1
  9
$QTEXTMODE
 70
     0
  9
$MIRRTEXT
 70
     1
  9
$LTSCALE
 40
0.0393700787401575
  9
$ATTMODE
 70
     1
  9
$TEXTSIZE
 40
0.2
  9
$TRACEWID
 40
0.05
  9
$TEXTSTYLE
  7
Standard
  9
$CLAYER
  8
Default
  9
$CELTYPE
  6
ByLayer
  9
$CECOLOR
 62
   256
  9
$CELTSCALE
 40
1.0
  9
$DISPSILH
 70
     0
  9
$DIMSCALE
 40
1.0
  9
$DIMASZ
 40
0.18
  9
$DIMEXO
 40
0.0625
  9
$DIMDLI
 40
0.38
  9
$DIMRND
 40
0.0
  9
$DIMDLE
 40
0.0
  9
$DIMEXE
 40
0.18
  9
$DIMTP
 40
0.0
  9
$DIMTM
 40
0.0
  9
$DIMTXT
 40
0.18
  9
$DIMCEN
 40
0.09
  9
$DIMTSZ
 40
0.0
  9
$DIMTOL
 70
     0
  9
$DIMLIM
 70
     0
  9
$DIMTIH
 70
     1
  9
$DIMTOH
 70
     1
  9
$DIMSE1
 70
     0
  9
$DIMSE2
 70
     0
  9
$DIMTAD
 70
     0
  9
$DIMZIN
 70
     0
  9
$DIMBLK
  1

  9
$DIMASO
 70
     1
  9
$DIMSHO
 70
     1
  9
$DIMPOST
  1

  9
$DIMAPOST
  1

  9
$DIMALT
 70
     0
  9
$DIMALTD
 70
     2
  9
$DIMALTF
 40
25.4
  9
$DIMLFAC
 40
1.0
  9
$DIMTOFL
 70
     0
  9
$DIMTVP
 40
0.0
  9
$DIMTIX
 70
     0
  9
$DIMSOXD
 70
     0
  9
$DIMSAH
 70
     0
  9
$DIMBLK1
  1

  9
$DIMBLK2
  1

  9
$DIMSTYLE
  2
Standard
  9
$DIMCLRD
 70
     0
  9
$DIMCLRE
 70
     0
  9
$DIMCLRT
 70
     0
  9
$DIMTFAC
 40
1.0
  9
$DIMGAP
 40
0.09
  9
$DIMJUST
 70
     0
  9
$DIMSD1
 70
     0
  9
$DIMSD2
 70
     0
  9
$DIMTOLJ
 70
     1
  9
$DIMTZIN
 70
     0
  9
$DIMALTZ
 70
     0
  9
$DIMALTTZ
 70
     0
  9
$DIMUPT
 70
     0
  9
$DIMDEC
 70
     4
  9
$DIMTDEC
 70
     4
  9
$DIMALTU
 70
     2
  9
$DIMALTTD
 70
     2
  9
$DIMTXSTY
  7
Standard
  9
$DIMAUNIT
 70
     0
  9
$DIMADEC
 70
     0
  9
$DIMALTRND
 40
0.0
  9
$DIMAZIN
 70
     0
  9
$DIMDSEP
 70
    46
  9
$DIMATFIT
 70
     3
  9
$DIMFRAC
 70
     0
  9
$DIMLDRBLK
  1

  9
$DIMLUNIT
 70
     2
  9
$DIMLWD
 70
    -2
  9
$DIMLWE
 70
    -2
  9
$DIMTMOVE
 70
     2
  9
$LUNITS
 70
     2
  9
$LUPREC
 70
     3
  9
$SKETCHINC
 40
0.1
  9
$FILLETRAD
 40
0.5
  9
$AUNITS
 70
     0
  9
$AUPREC
 70
     0
  9
$MENU
  1
.
  9
$ELEVATION
 40
0.0
  9
$PELEVATION
 40
0.0
  9
$THICKNESS
 40
0.0
  9
$LIMCHECK
 70
     0
  9
$CHAMFERA
 40
0.5
  9
$CHAMFERB
 40
0.5
  9
$CHAMFERC
 40
1.0
  9
$CHAMFERD
 40
0.0
  9
$SKPOLY
 70
     0
  9
$TDCREATE
 40
2456426.535147546
  9
$TDUCREATE
 40
2456426.701814213
  9
$TDUPDATE
 40
2456426.535147558
  9
$TDUUPDATE
 40
2456426.701814224
  9
$TDINDWG
 40
0.0000000116
  9
$TDUSRTIMER
 40
0.0000000116
  9
$USRTIMER
 70
     1
  9
$ANGBASE
 50
0.0
  9
$ANGDIR
 70
     0
  9
$PDMODE
 70
     0
  9
$PDSIZE
 40
0.0
  9
$PLINEWID
 40
0.0
  9
$SPLFRAME
 70
     0
  9
$SPLINETYPE
 70
     6
  9
$SPLINESEGS
 70
     8
  9
$HANDSEED
  5
A9
  9
$SURFTAB1
 70
     6
  9
$SURFTAB2
 70
     6
  9
$SURFTYPE
 70
     6
  9
$SURFU
 70
     6
  9
$SURFV
 70
     6
  9
$UCSBASE
  2

  9
$UCSNAME
  2

  9
$UCSORG
 10
0.0
 20
0.0
 30
0.0
  9
$UCSXDIR
 10
1.0
 20
0.0
 30
0.0
  9
$UCSYDIR
 10
0.0
 20
1.0
 30
0.0
  9
$UCSORTHOREF
  2

  9
$UCSORTHOVIEW
 70
     0
  9
$UCSORGTOP
 10
0.0
 20
0.0
 30
0.0
  9
$UCSORGBOTTOM
 10
0.0
 20
0.0
 30
0.0
  9
$UCSORGLEFT
 10
0.0
 20
0.0
 30
0.0
  9
$UCSORGRIGHT
 10
0.0
 20
0.0
 30
0.0
  9
$UCSORGFRONT
 10
0.0
 20
0.0
 30
0.0
  9
$UCSORGBACK
 10
0.0
 20
0.0
 30
0.0
  9
$PUCSBASE
  2

  9
$PUCSNAME
  2

  9
$PUCSORG
 10
0.0
 20
0.0
 30
0.0
  9
$PUCSXDIR
 10
1.0
 20
0.0
 30
0.0
  9
$PUCSYDIR
 10
0.0
 20
1.0
 30
0.0
  9
$PUCSORTHOREF
  2

  9
$PUCSORTHOVIEW
 70
     0
  9
$PUCSORGTOP
 10
0.0
 20
0.0
 30
0.0
  9
$PUCSORGBOTTOM
 10
0.0
 20
0.0
 30
0.0
  9
$PUCSORGLEFT
 10
0.0
 20
0.0
 30
0.0
  9
$PUCSORGRIGHT
 10
0.0
 20
0.0
 30
0.0
  9
$PUCSORGFRONT
 10
0.0
 20
0.0
 30
0.0
  9
$PUCSORGBACK
 10
0.0
 20
0.0
 30
0.0
  9
$USERI1
 70
     0
  9
$USERI2
 70
     0
  9
$USERI3
 70
     0
  9
$USERI4
 70
     0
  9
$USERI5
 70
     0
  9
$USERR1
 40
0.0
  9
$USERR2
 40
0.0
  9
$USERR3
 40
0.0
  9
$USERR4
 40
0.0
  9
$USERR5
 40
0.0
  9
$WORLDVIEW
 70
     1
  9
$SHADEDGE
 70
     3
  9
$SHADEDIF
 70
    70
  9
$TILEMODE
 70
     1
  9
$MAXACTVP
 70
    64
  9
$PINSBASE
 10
0.0
 20
0.0
 30
0.0
  9
$PLIMCHECK
 70
     0
  9
$PEXTMIN
 10
1.000000000000000E+20
 20
1.000000000000000E+20
 30
1.000000000000000E+20
  9
$PEXTMAX
 10
-1.000000000000000E+20
 20
-1.000000000000000E+20
 30
-1.000000000000000E+20
  9
$PLIMMIN
 10
0.0
 20
0.0
  9
$PLIMMAX
 10
12.0
 20
9.0
  9
$UNITMODE
 70
     0
  9
$VISRETAIN
 70
     1
  9
$PLINEGEN
 70
     0
  9
$PSLTSCALE
 70
     1
  9
$TREEDEPTH
 70
  3020
  9
$CMLSTYLE
  2
Standard
  9
$CMLJUST
 70
     0
  9
$CMLSCALE
 40
1.0
  9
$PROXYGRAPHICS
 70
     1
  9
$MEASUREMENT
 70
     0
  9
$CELWEIGHT
370
    -1
  9
$ENDCAPS
280
     0
  9
$JOINSTYLE
280
     0
  9
$LWDISPLAY
290
     0
  9
$INSUNITS
 70
     1
  9
$HYPERLINKBASE
  1

  9
$STYLESHEET
  1

  9
$XEDIT
290
     1
  9
$CEPSNTYPE
380
     0
  9
$PSTYLEMODE
290
     1
  9
$FINGERPRINTGUID
  2
{7525DC19-B40E-4D1C-B3CB-D2ED8D786EED}
  9
$VERSIONGUID
  2
{FAEB1C32-E019-11D5-929B-00C0DF256EC4}
  9
$EXTNAMES
290
     1
  9
$PSVPSCALE
 40
0.0
  9
$OLESTARTUP
290
     0
  9
$SORTENTS
280
   127
  9
$INDEXCTL
280
     0
  9
$HIDETEXT
280
     1
  9
$XCLIPFRAME
290
     0
  9
$HALOGAP
280
     0
  9
$OBSCOLOR
 70
   257
  9
$OBSLTYPE
280
     0
  9
$INTERSECTIONDISPLAY
280
     0
  9
$INTERSECTIONCOLOR
 70
   257
  9
$DIMASSOC
280
     2
  9
$PROJECTNAME
  1

  0
ENDSEC
  0
SECTION
  2
CLASSES
  0
CLASS
  1
ACDBDICTIONARYWDFLT
  2
AcDbDictionaryWithDefault
  3
ObjectDBX Classes
 90
        0
 91
        4
280
     0
281
     0
  0
CLASS
  1
VISUALSTYLE
  2
AcDbVisualStyle
  3
ObjectDBX Classes
 90
     4095
 91
        4
280
     0
281
     0
  0
ENDSEC
  0
SECTION
  2
TABLES
  0
TABLE
  2
VPORT
  5
8
330
0
100
AcDbSymbolTable
 70
     1
  0
VPORT
  5
29
330
8
100
AcDbSymbolTableRecord
100
AcDbViewportTableRecord
  2
*Active
 70
     0
 10
0.0
 20
0.0
 11
1.0
 21
1.0
 12
18.61795852277567
 22
34.59801744219104
 13
0.0
 23
0.0
 14
0.5
 24
0.5
 15
0.5
 25
0.5
 16
0.0
 26
0.0
 36
1.0
 17
0.0
 27
0.0
 37
0.0
 40
70.58311322758773
 41
0.9386749754306947
 42
50.0
 43
0.0
 44
0.0
 50
0.0
 51
0.0
 71
     0
 72
   100
 73
     1
 74
     3
 75
     0
 76
     0
 77
     0
 78
     0
281
     0
 65
     1
110
0.0
120
0.0
130
0.0
111
1.0
121
0.0
131
0.0
112
0.0
122
1.0
132
0.0
 79
     0
146
0.0
  0
ENDTAB
  0
TABLE
  2
LTYPE
  5
5
330
0
100
AcDbSymbolTable
 70
     1
  0
LTYPE
  5
14
330
5
100
AcDbSymbolTableRecord
100
AcDbLinetypeTableRecord
  2
ByBlock
 70
     0
  3

 72
    65
 73
     0
 40
0.0
  0
LTYPE
  5
15
330
5
100
AcDbSymbolTableRecord
100
AcDbLinetypeTableRecord
  2
ByLayer
 70
     0
  3

 72
    65
 73
     0
 40
0.0
  0
LTYPE
  5
16
330
5
100
AcDbSymbolTableRecord
100
AcDbLinetypeTableRecord
  2
Continuous
 70
     0
  3
Solid line
 72
    65
 73
     0
 40
0.0
  0
ENDTAB
  0
TABLE
  2
LAYER
  5
2
330
0
100
AcDbSymbolTable
 70
     2
  0
LAYER
  5
10
330
2
100
AcDbSymbolTableRecord
100
AcDbLayerTableRecord
  2
0
 70
     0
 62
     7
  6
Continuous
370
    -3
390
F
  0
LAYER
  5
3B
330
2
100
AcDbSymbolTableRecord
100
AcDbLayerTableRecord
  2
Default
 70
     0
 62
     7
  6
Continuous
370
    -3
390
F
  0
ENDTAB
  0
TABLE
  2
STYLE
  5
3
330
0
100
AcDbSymbolTable
 70
     1
  0
STYLE
  5
11
330
3
100
AcDbSymbolTableRecord
100
AcDbTextStyleTableRecord
  2
Standard
 70
     0
 40
0.0
 41
1.0
 50
0.0
 71
     0
 42
0.2
  3
txt
  4

  0
ENDTAB
  0
TABLE
  2
VIEW
  5
6
330
0
100
AcDbSymbolTable
 70
     0
  0
ENDTAB
  0
TABLE
  2
UCS
  5
7
330
0
100
AcDbSymbolTable
 70
     0
  0
ENDTAB
  0
TABLE
  2
APPID
  5
9
330
0
100
AcDbSymbolTable
 70
     1
  0
APPID
  5
12
330
9
100
AcDbSymbolTableRecord
100
AcDbRegAppTableRecord
  2
ACAD
 70
     0
  0
ENDTAB
  0
TABLE
  2
DIMSTYLE
  5
A
330
0
100
AcDbSymbolTable
 70
     1
100
AcDbDimStyleTable
  0
DIMSTYLE
105
27
330
A
100
AcDbSymbolTableRecord
100
AcDbDimStyleTableRecord
  2
Standard
 70
     0
340
11
  0
ENDTAB
  0
TABLE
  2
BLOCK_RECORD
  5
1
330
0
100
AcDbSymbolTable
 70
     1
  0
BLOCK_RECORD
  5
1F
330
1
100
AcDbSymbolTableRecord
100
AcDbBlockTableRecord
  2
*Model_Space
340
22
  0
BLOCK_RECORD
  5
1B
330
1
100
AcDbSymbolTableRecord
100
AcDbBlockTableRecord
  2
*Paper_Space
340
1E
  0
BLOCK_RECORD
  5
23
330
1
100
AcDbSymbolTableRecord
100
AcDbBlockTableRecord
  2
*Paper_Space0
340
26
  0
ENDTAB
  0
ENDSEC
  0
SECTION
  2
BLOCKS
  0
BLOCK
  5
20
330
1F
100
AcDbEntity
  8
0
100
AcDbBlockBegin
  2
*Model_Space
 70
     0
 10
0.0
 20
0.0
 30
0.0
  3
*Model_Space
  1

  0
ENDBLK
  5
21
330
1F
100
AcDbEntity
  8
0
100
AcDbBlockEnd
  0
BLOCK
  5
1C
330
1B
100
AcDbEntity
 67
     1
  8
0
100
AcDbBlockBegin
  2
*Paper_Space
 70
     0
 10
0.0
 20
0.0
 30
0.0
  3
*Paper_Space
  1

  0
ENDBLK
  5
1D
330
1B
100
AcDbEntity
 67
     1
  8
0
100
AcDbBlockEnd
  0
BLOCK
  5
24
330
23
100
AcDbEntity
  8
0
100
AcDbBlockBegin
  2
*Paper_Space0
 70
     0
 10
0.0
 20
0.0
 30
0.0
  3
*Paper_Space0
  1

  0
ENDBLK
  5
25
330
23
100
AcDbEntity
  8
0
100
AcDbBlockEnd
  0
ENDSEC
  0
SECTION
  2
ENTITIES
  0
LINE
  5
3C
330
1F
100
AcDbEntity
  8
Default
100
AcDbLine
 10
11.44073835838
 20
11.5
 30
-0.0000000000000442
 11
11.44073835838
 21
6.0
 31
-0.0000000000000442
  0
LINE
  5
3D
330
1F
100
AcDbEntity
  8
Default
100
AcDbLine
 10
13.73478759228
 20
6.0
 30
-0.0000000000000442
 11
13.73478759228
 21
0.0
 31
-0.0000000000000442
  0
LINE
  5
3E
330
1F
100
AcDbEntity
  8
Default
100
AcDbLine
 10
13.73478759228
 20
0.0
 30
-0.0000000000000442
 11
12.35984164493277
 21
-0.0015478654466676
 31
-0.0000000000000442
  0
LINE
  5
3F
330
1F
100
AcDbEntity
  8
Default
100
AcDbLine
 10
12.35984164493
 20
-0.0015478654500001
 30
-0.0000000000000442
 11
12.10978759227759
 21
5.249999999996199
 31
-0.0000000000000442
  0
LINE
  5
40
330
1F
100
AcDbEntity
  8
Default
100
AcDbLine
 10
-11.440738358386
 20
11.5
 30
-0.0000000000000442
 11
-11.440738358386
 21
6.0
 31
-0.0000000000000442
  0
LINE
  5
41
330
1F
100
AcDbEntity
  8
Default
100
AcDbLine
 10
-13.734787592287
 20
0.0
 30
-0.0000000000000442
 11
-12.35984164493977
 21
-0.0015478654466676
 31
-0.0000000000000442
  0
LINE
  5
42
330
1F
100
AcDbEntity
  8
Default
100
AcDbLine
 10
-13.734787592287
 20
6.0
 30
-0.0000000000000442
 11
-13.734787592287
 21
0.0
 31
-0.0000000000000442
  0
LINE
  5
43
330
1F
100
AcDbEntity
  8
Default
100
AcDbLine
 10
-12.359841644939
 20
-0.0015478654500001
 30
-0.0000000000000442
 11
-12.10978759228659
 21
5.249999999996199
 31
-0.0000000000000442
  0
LINE
  5
44
330
1F
100
AcDbEntity
  8
Default
100
AcDbLine
 10
-12.732901227062
 20
28.56197942715
 30
-0.0000000000000442
 11
-10.376721574288
 21
28.56197942715
 31
-0.0000000000000442
  0
LINE
  5
45
330
1F
100
AcDbEntity
  8
Default
100
AcDbLine
 10
-11.440738358386
 20
11.5
 30
-0.0000000000000442
 11
11.440738358384
 21
11.5
 31
-0.0000000000000442
  0
LINE
  5
46
330
1F
100
AcDbEntity
  8
Default
100
AcDbLine
 10
-13.859787592287
 20
6.0
 30
-0.0000000000000442
 11
13.859787592283
 21
6.0
 31
-0.0000000000000442
  0
LINE
  5
47
330
1F
100
AcDbEntity
  8
Default
100
AcDbLine
 10
-12.109787592287
 20
5.25
 30
-0.0000000000000442
 11
12.109787592283
 21
5.25
 31
-0.0000000000000442
  0
LINE
  5
48
330
1F
100
AcDbEntity
  8
Default
100
AcDbLine
 10
9.37672166989
 20
31.0
 30
-0.0000000000000442
 11
-9.37672166989
 21
31.0
 31
-0.0000000000000442
  0
ARC
  5
49
330
1F
100
AcDbEntity
  8
Default
100
AcDbCircle
 10
9.37672166989
 20
30.0
 30
-0.0000000000000442
 40
1.0
100
AcDbArc
 50
0.0
 51
90.0
  0
ARC
  5
4A
330
1F
100
AcDbEntity
  8
Default
100
AcDbCircle
 10
-9.376721478681
 20
30.0
 30
-0.0000000000000442
 40
1.0
100
AcDbArc
 50
90.0
 51
180.0
  0
ARC
  5
4B
330
1F
100
AcDbEntity
  8
Default
100
AcDbCircle
 10
0.0
 20
-112.38491443707
 30
-0.0000000000000442
 40
129.384914437
100
AcDbArc
 50
84.96127369568492
 51
95.03872630431492
  0
ARC
  5
4C
330
1F
100
AcDbEntity
  8
Default
100
AcDbCircle
 10
49.47070463783835
 20
24.0
 30
-0.0000000000000501
 40
0.5
100
AcDbArc
 50
0.0
 51
90.0
  0
ARC
  5
4D
330
1F
100
AcDbEntity
  8
Default
100
AcDbCircle
 10
39.04820964927835
 20
154.99158812993
 30
-0.0000000000000501
 40
143.4877700805
100
AcDbArc
 50
274.3656600250171
 51
274.7662398893647
  0
LINE
  5
4E
330
1F
100
AcDbEntity
  8
Default
100
AcDbLine
 10
24.06794884220835
 20
7.375969970440003
 30
-0.0000000000000501
 11
23.71205577750891
 21
6.000000000005898
 31
-0.0000000000000501
  0
LINE
  5
4F
330
1F
100
AcDbEntity
  8
Default
100
AcDbLine
 10
23.84527937037836
 20
6.0
 30
-0.0000000000000501
 11
22.2933655503498
 21
0.0000000000000711
 31
-0.0000000000000501
  0
LINE
  5
50
330
1F
100
AcDbEntity
  8
Default
100
AcDbLine
 10
23.72642944995836
 20
0.0
 30
-0.0000000000000501
 11
25.35438396879125
 21
5.250000000000462
 31
-0.0000000000000501
  0
LINE
  5
51
330
1F
100
AcDbEntity
  8
Default
100
AcDbLine
 10
49.84570463783835
 20
6.0
 30
-0.0000000000000501
 11
49.84570463783835
 21
0.0
 31
-0.0000000000000501
  0
ARC
  5
52
330
1F
100
AcDbEntity
  8
Default
100
AcDbCircle
 10
21.53672212511836
 20
28.31197946026
 30
-0.0000000000000501
 40
0.25
100
AcDbArc
 50
18.08231320610675
 51
104.9999999999978
  0
ARC
  5
53
330
1F
100
AcDbEntity
  8
Default
100
AcDbCircle
 10
20.17021551193835
 20
27.9458251168
 30
-0.0000000000000501
 40
0.25
100
AcDbArc
 50
104.9999999999978
 51
194.9999999999986
  0
ARC
  5
54
330
1F
100
AcDbEntity
  8
Default
100
AcDbCircle
 10
74.24802599836835
 20
38.97652228278
 30
-0.0000000000000501
 40
53.09973750452
100
AcDbArc
 50
190.0024375752364
 51
195.7322569192754
  0
ARC
  5
55
330
1F
100
AcDbEntity
  8
Default
100
AcDbCircle
 10
23.40707814784835
 20
25.0
 30
-0.0000000000000501
 40
0.5
100
AcDbArc
 50
198.0823132061072
 51
269.9999999999984
  0
ARC
  5
56
330
1F
100
AcDbEntity
  8
Default
100
AcDbCircle
 10
14.75610495512835
 20
9.918073146940003
 30
-0.0000000000000501
 40
9.652601987933
100
AcDbArc
 50
344.7305109498946
 51
17.18953005778461
  0
LINE
  5
57
330
1F
100
AcDbEntity
  8
Default
100
AcDbLine
 10
49.47070463783835
 20
24.5
 30
-0.0000000000000501
 11
23.40707814784835
 21
24.5
 31
-0.0000000000000501
  0
LINE
  5
58
330
1F
100
AcDbEntity
  8
Default
100
AcDbLine
 10
49.97070463783835
 20
6.0
 30
-0.0000000000000501
 11
23.71205577750837
 21
6.0
 31
-0.0000000000000501
  0
LINE
  5
59
330
1F
100
AcDbEntity
  8
Default
100
AcDbLine
 10
48.22070463783835
 20
5.25
 30
-0.0000000000000501
 11
25.35438396879836
 21
5.25
 31
-0.0000000000000501
  0
LINE
  5
5A
330
1F
100
AcDbEntity
  8
Default
100
AcDbLine
 10
49.97070463783835
 20
24.0
 30
-0.0000000000000501
 11
49.97070463783835
 21
6.0
 31
-0.0000000000000501
  0
LINE
  5
5B
330
1F
100
AcDbEntity
  8
Default
100
AcDbLine
 10
19.92873405536835
 20
27.88112035553
 30
-0.0000000000000501
 11
23.98066093639866
 21
12.75912336696909
 31
-0.0000000000000501
  0
ARC
  5
5C
330
1F
100
AcDbEntity
  8
Default
100
AcDbCircle
 10
29.04036281537836
 20
15.33811249987
 30
-0.0000000000000501
 40
16.0625
100
AcDbArc
 50
101.8679895578061
 51
116.173327057796
  0
ARC
  5
5D
330
1F
100
AcDbEntity
  8
Default
100
AcDbCircle
 10
39.04820964927835
 20
-126.49158812997
 30
-0.0000000000000501
 40
143.4877700805
100
AcDbArc
 50
85.23376011063571
 51
85.63433997498427
  0
ARC
  5
5E
330
1F
100
AcDbEntity
  8
Default
100
AcDbCircle
 10
30.78320463783835
 20
14.25
 30
-0.0000000000000501
 40
20.3125
100
AcDbArc
 50
353.6403397602664
 51
6.359660239726413
  0
ARC
  5
5F
330
1F
100
AcDbEntity
  8
Default
100
AcDbCircle
 10
-24.68756351728165
 20
6.930373563110003
 30
-0.0000000000000501
 40
55.89939413694
100
AcDbArc
 50
18.31904308643818
 51
25.56994870663522
  0
LINE
  5
60
330
1F
100
AcDbEntity
  8
Default
100
AcDbLine
 10
48.47075869048835
 20
-0.0015478654500001
 30
-0.0000000000000501
 11
48.22070463783595
 21
5.249999999996199
 31
-0.0000000000000501
  0
LINE
  5
61
330
1F
100
AcDbEntity
  8
Default
100
AcDbLine
 10
49.84570463783835
 20
0.0
 30
-0.0000000000000501
 11
48.47075869049112
 21
-0.0015478654466747
 31
-0.0000000000000501
  0
LINE
  5
62
330
1F
100
AcDbEntity
  8
Default
100
AcDbLine
 10
22.93177235289836
 20
24.84480850126
 30
-0.0000000000000501
 11
21.77437502259622
 21
28.38957520962596
 31
-0.0000000000000501
  0
LINE
  5
63
330
1F
100
AcDbEntity
  8
Default
100
AcDbLine
 10
21.47201736383836
 20
28.55346091683
 30
-0.0000000000000501
 11
20.10551075066039
 21
28.18730657337722
 31
-0.0000000000000501
  0
LINE
  5
64
330
1F
100
AcDbEntity
  8
Default
100
AcDbLine
 10
27.86597350859836
 20
24.5
 30
-0.0000000000000501
 11
25.73698966501715
 21
31.05726107984983
 31
-0.0000000000000501
  0
LINE
  5
65
330
1F
100
AcDbEntity
  8
Default
100
AcDbLine
 10
23.66110990214835
 20
24.5
 30
-0.0000000000000501
 11
21.9553851499829
 21
29.75362489904888
 31
-0.0000000000000501
  0
LINE
  5
66
330
1F
100
AcDbEntity
  8
Default
100
AcDbLine
 10
23.79583460763835
 20
5.808836951740005
 30
-0.0000000000000501
 11
22.29336555035522
 21
-0.0000000000005684
 31
-0.0000000000000501
  0
LINE
  5
67
330
1F
100
AcDbEntity
  8
Default
100
AcDbLine
 10
23.72642944995836
 20
0.0
 30
-0.0000000000000501
 11
22.29336555034936
 21
0.0
 31
-0.0000000000000501
  0
ARC
  5
68
330
1F
100
AcDbEntity
  8
Default
100
AcDbCircle
 10
8.823745583560001
 20
14.25
 30
-0.0000000000000442
 40
20.3125
100
AcDbArc
 50
173.6403397602737
 51
181.7316523791804
  0
ARC
  5
69
330
1F
100
AcDbEntity
  8
Default
100
AcDbCircle
 10
-8.823745583568
 20
14.25
 30
-0.0000000000000442
 40
20.3125
100
AcDbArc
 50
358.2683476208197
 51
6.359660239726301
  0
LINE
  5
6A
330
1F
100
AcDbEntity
  8
Default
100
AcDbLine
 10
12.732901227062
 20
28.56197942715
 30
-0.0000000000000442
 11
10.376721574288
 21
28.56197942715
 31
-0.0000000000000442
  0
LINE
  5
6B
330
1F
100
AcDbEntity
  8
Default
100
AcDbLine
 10
-13.859787592287
 20
6.0
 30
-0.0000000000000442
 11
-13.859787592287
 21
24.5
 31
-0.0000000000000442
  0
LINE
  5
6C
330
1F
100
AcDbEntity
  8
Default
100
AcDbLine
 10
-11.89470836177875
 20
24.5
 30
-0.0000000000000442
 11
-11.4407383583859
 21
11.49999999999586
 31
-0.0000000000000442
  0
LINE
  5
6D
330
1F
100
AcDbEntity
  8
Default
100
AcDbLine
 10
11.89470836177875
 20
24.5
 30
-0.0000000000000442
 11
11.4407383583859
 21
11.49999999999586
 31
-0.0000000000000442
  0
LINE
  5
6E
330
1F
100
AcDbEntity
  8
Default
100
AcDbLine
 10
13.85978759228
 20
6.0
 30
-0.0000000000000442
 11
13.85978759228
 21
24.5
 31
-0.0000000000000442
  0
POLYLINE
  5
6F
330
1F
100
AcDbEntity
  8
Default
100
AcDb2dPolyline
 66
     1
 10
0.0
 20
0.0
 30
-0.0000000000000232
  0
VERTEX
  5
70
330
6F
100
AcDbEntity
  8
Default
100
AcDbVertex
100
AcDb2dVertex
 10
13.85978759227999
 20
24.5
 30
-0.0000000000000232
  0
VERTEX
  5
71
330
6F
100
AcDbEntity
  8
Default
100
AcDbVertex
100
AcDb2dVertex
 10
11.89470836177875
 20
24.5
 30
-0.0000000000000232
  0
SEQEND
  5
72
330
6F
100
AcDbEntity
  8
Default
  0
POLYLINE
  5
73
330
1F
100
AcDbEntity
  8
Default
100
AcDb2dPolyline
 66
     1
 10
0.0
 20
0.0
 30
-0.0000000000000038
  0
VERTEX
  5
74
330
73
100
AcDbEntity
  8
Default
100
AcDbVertex
100
AcDb2dVertex
 10
-11.89470836177875
 20
24.5
 30
-0.0000000000000038
  0
VERTEX
  5
75
330
73
100
AcDbEntity
  8
Default
100
AcDbVertex
100
AcDb2dVertex
 10
-13.859787592287
 20
24.5
 30
-0.0000000000000038
  0
SEQEND
  5
76
330
73
100
AcDbEntity
  8
Default
  0
LINE
  5
77
330
1F
100
AcDbEntity
  8
Default
100
AcDbLine
 10
12.77921565908761
 20
24.5
 30
-0.0000000000000442
 11
12.73290122706123
 21
28.56197942714841
 31
-0.0000000000000442
  0
LINE
  5
78
330
1F
100
AcDbEntity
  8
Default
100
AcDbLine
 10
-12.77921565908761
 20
24.5
 30
-0.0000000000000442
 11
-12.73290122706123
 21
28.56197942714841
 31
-0.0000000000000442
  0
SPLINE
  5
79
330
1F
100
AcDbEntity
  8
Default
100
AcDbSpline
210
0.0
220
0.0
230
1.0
 70
    12
 71
     2
 72
     8
 73
     5
 74
     0
 42
0.0000000001
 43
0.0000000001
 40
0.0
 40
0.0
 40
0.0
 40
12.00000005675
 40
12.00000005675
 40
13.5707963835449
 40
13.5707963835449
 40
13.5707963835449
 10
-10.376721478681
 20
30.0
 30
-0.0000000000000442
 41
1.0
 10
-10.376721526484
 20
24.0
 30
-0.0000000000000442
 41
1.0
 10
-10.376721574287
 20
17.65978005436675
 30
-0.0000000000000132
 41
1.0
 10
-10.376721574287
 20
16.65978005436675
 30
-0.0000000000000132
 41
0.7071067811865476
 10
-9.376721574287
 20
16.65978005436675
 30
-0.0000000000000132
 41
1.0
  0
SPLINE
  5
7A
330
1F
100
AcDbEntity
  8
Default
100
AcDbSpline
210
0.0
220
0.0
230
1.0
 70
    12
 71
     2
 72
     8
 73
     5
 74
     0
 42
0.0000000001
 43
0.0000000001
 40
0.0
 40
0.0
 40
0.0
 40
12.00000005675
 40
12.00000005675
 40
13.5707963835449
 40
13.5707963835449
 40
13.5707963835449
 10
10.37672166989
 20
30.0
 30
-0.0000000000000442
 41
1.0
 10
10.376721622085
 20
24.0
 30
-0.0000000000000442
 41
1.0
 10
10.37672157428
 20
17.65978005436675
 30
-0.0000000000000132
 41
1.0
 10
10.37672157428
 20
16.65978005436675
 30
-0.0000000000000132
 41
0.7071067811865476
 10
9.376721574279998
 20
16.65978005436675
 30
-0.0000000000000132
 41
1.0
  0
POLYLINE
  5
7B
330
1F
100
AcDbEntity
  8
Default
100
AcDb2dPolyline
 66
     1
 10
0.0
 20
0.0
 30
-0.0000000000000218
  0
VERTEX
  5
7C
330
7B
100
AcDbEntity
  8
Default
100
AcDbVertex
100
AcDb2dVertex
 10
11.89470836177875
 20
24.5
 30
-0.0000000000000218
  0
VERTEX
  5
7D
330
7B
100
AcDbEntity
  8
Default
100
AcDbVertex
100
AcDb2dVertex
 10
10.37672162662385
 20
24.5
 30
-0.0000000000000218
  0
SEQEND
  5
7E
330
7B
100
AcDbEntity
  8
Default
  0
POLYLINE
  5
7F
330
1F
100
AcDbEntity
  8
Default
100
AcDb2dPolyline
 66
     1
 10
0.0
 20
0.0
 30
-0.0000000000000038
  0
VERTEX
  5
80
330
7F
100
AcDbEntity
  8
Default
100
AcDbVertex
100
AcDb2dVertex
 10
-11.89470836177875
 20
24.5
 30
-0.0000000000000038
  0
VERTEX
  5
81
330
7F
100
AcDbEntity
  8
Default
100
AcDbVertex
100
AcDb2dVertex
 10
-10.37672152194534
 20
24.5
 30
-0.0000000000000038
  0
SEQEND
  5
82
330
7F
100
AcDbEntity
  8
Default
  0
SPLINE
  5
83
330
1F
100
AcDbEntity
  8
Default
100
AcDbSpline
210
0.0
220
0.0
230
1.0
 70
    24
 71
     3
 72
     8
 73
     4
 74
     0
 42
0.0000000001
 43
0.0000000001
 40
0.0
 40
0.0
 40
0.0
 40
0.0
 40
1.0
 40
1.0
 40
1.0
 40
1.0
 10
10.4075138033205
 20
65.14626899086208
 30
-0.0000000000000147
 10
11.2296395170335
 20
65.14626899086208
 30
-0.0000000000000147
 10
12.0517652307335
 20
65.14626899086208
 30
-0.0000000000000147
 10
12.8738909444435
 20
65.14626899086208
 30
-0.0000000000000147
  0
SPLINE
  5
84
330
1F
100
AcDbEntity
  8
Default
100
AcDbSpline
210
0.0
220
0.0
230
1.0
 70
     8
 71
     3
 72
    10
 73
     6
 74
     0
 42
0.0000000001
 43
0.0000000001
 40
0.0
 40
0.0
 40
0.0
 40
0.0
 40
0.3333333333334
 40
0.6666666666667
 40
1.0
 40
1.0
 40
1.0
 40
1.0
 10
10.3767215742845
 20
61.2531906936121
 30
-0.0000000000000036
 10
10.3831514569955
 20
61.22941949306208
 30
-0.0000000000000036
 10
10.3942585932295
 20
61.18138215952207
 30
-0.0000000000000036
 10
10.4055509142925
 20
61.10831261238208
 30
-0.0000000000000036
 10
10.4094631952075
 20
61.0591633708021
 30
-0.0000000000000138
 10
10.4105091994415
 20
61.03456013438209
 30
-0.0000000000000147
  0
SPLINE
  5
85
330
1F
100
AcDbEntity
  8
Default
100
AcDbSpline
210
0.0
220
0.0
230
1.0
 70
     8
 71
     3
 72
    16
 73
    12
 74
     0
 42
0.0000000001
 43
0.0000000001
 40
0.0
 40
0.0
 40
0.0
 40
0.0
 40
0.1578679541107
 40
0.311411023911
 40
0.456477516639
 40
0.5892706987484
 40
0.7065567950055
 40
0.8059450739079
 40
0.88636757656
 40
0.9491099287516
 40
1.0
 40
1.0
 40
1.0
 40
1.0
 10
9.3767215742845
 20
63.71434019710209
 30
-0.0000000000000147
 10
9.4346257027675
 20
63.71434019710209
 30
-0.0000000000000147
 10
9.548872704612501
 20
63.7112803065521
 30
-0.0000000000000147
 10
9.715830035423501
 20
63.6975945301421
 30
-0.0000000000000147
 10
9.8725875156555
 20
63.67526964278208
 30
-0.0000000000000147
 10
10.0144740494995
 20
63.64502373373209
 30
-0.0000000000000147
 10
10.1373199158285
 20
63.60780434882209
 30
-0.0000000000000147
 10
10.2378031459025
 20
63.56478701785208
 30
-0.0000000000000147
 10
10.3133478485345
 20
63.51689599026209
 30
-0.0000000000000147
 10
10.3633076275025
 20
63.4644440801721
 30
-0.0000000000000147
 10
10.3767216819085
 20
63.42262253008208
 30
-0.0000000000000147
 10
10.3767215742835
 20
63.40395664415207
 30
-0.0000000000000147
  0
SPLINE
  5
86
330
1F
100
AcDbEntity
  8
Default
100
AcDbSpline
210
0.0
220
0.0
230
1.0
 70
     8
 71
     3
 72
    16
 73
    12
 74
     0
 42
0.0000000001
 43
0.0000000001
 40
0.0
 40
0.0
 40
0.0
 40
0.0
 40
0.1578678692717
 40
0.311410862681
 40
0.4564772985592
 40
0.5892704528137
 40
0.7065565568992
 40
0.805944881461
 40
0.886367461386
 40
0.9491098980071
 40
1.0
 40
1.0
 40
1.0
 40
1.0
 10
9.3767217093515
 20
67.49594471214208
 30
-0.0000000000000147
 10
9.434625774097501
 20
67.49594470971208
 30
-0.0000000000000147
 10
9.5488726522525
 20
67.49288482100208
 30
-0.0000000000000147
 10
9.7158298096895
 20
67.47919906674208
 30
-0.0000000000000147
 10
9.8725871455045
 20
67.45687421915208
 30
-0.0000000000000147
 10
10.0144735780185
 20
67.42662836473208
 30
-0.0000000000000147
 10
10.1373193978325
 20
67.38940904499209
 30
-0.0000000000000147
 10
10.2378026416675
 20
67.34639178696209
 30
-0.0000000000000147
 10
10.3133474217935
 20
67.2985008358621
 30
-0.0000000000000147
 10
10.3633073307715
 20
67.24604903127208
 30
-0.0000000000000147
 10
10.3767215860785
 20
67.20422754048208
 30
-0.0000000000000147
 10
10.3767215742845
 20
67.18556165378207
 30
-0.0000000000000147
  0
SPLINE
  5
87
330
1F
100
AcDbEntity
  8
Default
100
AcDbSpline
210
0.0
220
0.0
230
1.0
 70
    24
 71
     3
 72
     8
 73
     4
 74
     0
 42
0.0000000001
 43
0.0000000001
 40
0.0
 40
0.0
 40
0.0
 40
0.0
 40
1.0
 40
1.0
 40
1.0
 40
1.0
 10
-13.8568614046535
 20
39.03455460977322
 30
-0.0000000000000219
 10
-13.0514870558935
 20
39.00837851042464
 30
-0.0000000000000195
 10
-12.2461127071435
 20
38.9822024110854
 30
-0.0000000000000171
 10
-11.4407383583835
 20
38.95602631173682
 30
-0.0000000000000147
  0
SPLINE
  5
88
330
1F
100
AcDbEntity
  8
Default
100
AcDbSpline
210
0.0
220
0.0
230
1.0
 70
     8
 71
     3
 72
    11
 73
     7
 74
     0
 42
0.0000000001
 43
0.0000000001
 40
0.0
 40
0.0
 40
0.0
 40
0.0
 40
0.25
 40
0.5
 40
0.75
 40
1.0
 40
1.0
 40
1.0
 40
1.0
 10
-10.4392254635755
 20
38.02209362393209
 30
-0.0000000000000147
 10
-10.5727565688595
 20
38.02209362393209
 30
-0.0000000000000147
 10
-10.8429006238085
 20
38.07339448554344
 30
-0.0000000000000147
 10
-11.1809182084035
 20
38.29215916572458
 30
-0.0000000000000147
 10
-11.4005892909935
 20
38.61685228470343
 30
-0.0000000000000147
 10
-11.4439948667435
 20
38.8711000244131
 30
-0.0000000000000147
 10
-11.4383229283735
 20
38.99569653416467
 30
-0.0000000000000147
  0
SPLINE
  5
89
330
1F
100
AcDbEntity
  8
Default
100
AcDbSpline
210
0.0
220
0.0
230
1.0
 70
    24
 71
     3
 72
     8
 73
     4
 74
     0
 42
0.0000000001
 43
0.0000000001
 40
0.0
 40
0.0
 40
0.0
 40
0.0
 40
1.0
 40
1.0
 40
1.0
 40
1.0
 10
-12.7329012270635
 20
69.19758274983208
 30
-0.0000000000000147
 10
-13.1075546195935
 20
59.14324003648224
 30
-0.0000000000000147
 10
-13.4822080121235
 20
49.08889732312305
 30
-0.0000000000000147
 10
-13.8568614046535
 20
39.03455460977322
 30
-0.0000000000000147
  0
SPLINE
  5
8A
330
1F
100
AcDbEntity
  8
Default
100
AcDbSpline
210
0.0
220
0.0
230
1.0
 70
    24
 71
     3
 72
     8
 73
     4
 74
     0
 42
0.0000000001
 43
0.0000000001
 40
0.0
 40
0.0
 40
0.0
 40
0.0
 40
1.0
 40
1.0
 40
1.0
 40
1.0
 10
-11.8590413305335
 20
38.96962190262408
 30
-0.0000000000000147
 10
-11.3649347451135
 20
47.97138435151894
 30
-0.0000000000000147
 10
-10.8708281597015
 20
56.97314680041381
 30
-0.0000000000000147
 10
-10.3767215742845
 20
65.97490924930867
 30
-0.0000000000000147
  0
SPLINE
  5
8B
330
1F
100
AcDbEntity
  8
Default
100
AcDbSpline
210
0.0
220
0.0
230
1.0
 70
     8
 71
     3
 72
    16
 73
    12
 74
     0
 42
0.0000000001
 43
0.0000000001
 40
0.0
 40
0.0
 40
0.0
 40
0.0
 40
0.1578679541107
 40
0.311411023911
 40
0.456477516639
 40
0.5892706987484
 40
0.7065567950055
 40
0.8059450739079
 40
0.88636757656
 40
0.9491099287516
 40
1.0
 40
1.0
 40
1.0
 40
1.0
 10
-9.3767215742865
 20
58.81670901772209
 30
-0.0000000000000147
 10
-9.4346257027695
 20
58.81670901772209
 30
-0.0000000000000147
 10
-9.548872704614501
 20
58.81976890827208
 30
-0.0000000000000147
 10
-9.715830035425501
 20
58.83345468469209
 30
-0.0000000000000147
 10
-9.8725875156565
 20
58.8557795720521
 30
-0.0000000000000147
 10
-10.0144740495015
 20
58.88602548109209
 30
-0.0000000000000147
 10
-10.1373199158305
 20
58.9232448660121
 30
-0.0000000000000147
 10
-10.2378031459045
 20
58.9662621969821
 30
-0.0000000000000147
 10
-10.3133478485365
 20
59.0141532245721
 30
-0.0000000000000147
 10
-10.3633076275035
 20
59.06660513466208
 30
-0.0000000000000147
 10
-10.3767216819105
 20
59.1084266847421
 30
-0.0000000000000147
 10
-10.3767215742845
 20
59.12709257067208
 30
-0.0000000000000147
  0
SPLINE
  5
8C
330
1F
100
AcDbEntity
  8
Default
100
AcDbSpline
210
0.0
220
0.0
230
1.0
 70
     8
 71
     3
 72
    10
 73
     6
 74
     0
 42
0.0000000001
 43
0.0000000001
 40
0.0
 40
0.0
 40
0.0
 40
0.0
 40
0.3333333333334
 40
0.6666666666667
 40
1.0
 40
1.0
 40
1.0
 40
1.0
 10
-10.3767215742845
 20
61.2531906936121
 30
-0.0000000000000036
 10
-10.3831514569955
 20
61.22941949306208
 30
-0.0000000000000036
 10
-10.3942585932295
 20
61.18138215952207
 30
-0.0000000000000036
 10
-10.4055509142925
 20
61.10831261238208
 30
-0.0000000000000036
 10
-10.4094631952075
 20
61.0591633708021
 30
-0.0000000000000138
 10
-10.4105091994415
 20
61.03456013438209
 30
-0.0000000000000147
  0
SPLINE
  5
8D
330
1F
100
AcDbEntity
  8
Default
100
AcDbSpline
210
0.0
220
0.0
230
1.0
 70
    24
 71
     3
 72
     8
 73
     4
 74
     0
 42
0.0000000001
 43
0.0000000001
 40
0.0
 40
0.0
 40
0.0
 40
0.0
 40
1.0
 40
1.0
 40
1.0
 40
1.0
 10
-10.3767215742845
 20
59.12709147743207
 30
0.0000000000000796
 10
-10.3767215742845
 20
61.81324819519209
 30
0.0000000000000493
 10
-10.3767215742845
 20
64.49940491296208
 30
0.0000000000000191
 10
-10.3767215742845
 20
67.18556163072209
 30
-0.0000000000000036
  0
SPLINE
  5
8E
330
1F
100
AcDbEntity
  8
Default
100
AcDbSpline
210
0.0
220
0.0
230
1.0
 70
    24
 71
     3
 72
     8
 73
     4
 74
     0
 42
0.0000000001
 43
0.0000000001
 40
0.0
 40
0.0
 40
0.0
 40
0.0
 40
1.0
 40
1.0
 40
1.0
 40
1.0
 10
-10.3767215742845
 20
65.74693417247208
 30
-0.0000000000000147
 10
-10.3767215742845
 20
64.44089919130208
 30
-0.0000000000000147
 10
-10.3767215742845
 20
63.13486421013208
 30
-0.0000000000000147
 10
-10.3767215742845
 20
61.82882922896208
 30
-0.0000000000000147
  0
SPLINE
  5
8F
330
1F
100
AcDbEntity
  8
Default
100
AcDbSpline
210
0.0
220
0.0
230
1.0
 70
    24
 71
     3
 72
     8
 73
     4
 74
     0
 42
0.0000000001
 43
0.0000000001
 40
0.0
 40
0.0
 40
0.0
 40
0.0
 40
1.0
 40
1.0
 40
1.0
 40
1.0
 10
-11.4407383583835
 20
38.95602631173682
 30
-0.0000000000000147
 10
-11.0860660970135
 20
46.74257186393278
 30
-0.0000000000000147
 10
-10.7313938356505
 20
54.52911741612873
 30
-0.0000000000000147
 10
-10.3767215742845
 20
62.31566296831535
 30
-0.0000000000000147
  0
SPLINE
  5
90
330
1F
100
AcDbEntity
  8
Default
100
AcDbSpline
210
0.0
220
0.0
230
1.0
 70
    24
 71
     3
 72
     8
 73
     4
 74
     0
 42
0.0000000001
 43
0.0000000001
 40
0.0
 40
0.0
 40
0.0
 40
0.0
 40
1.0
 40
1.0
 40
1.0
 40
1.0
 10
-10.4075138033205
 20
65.14626899086208
 30
-0.0000000000000147
 10
-11.2296395170335
 20
65.14626899086208
 30
-0.0000000000000147
 10
-12.0517652307335
 20
65.14626899086208
 30
-0.0000000000000147
 10
-12.8738909444435
 20
65.14626899086208
 30
-0.0000000000000147
  0
SPLINE
  5
91
330
1F
100
AcDbEntity
  8
Default
100
AcDbSpline
210
0.0
220
0.0
230
1.0
 70
     8
 71
     3
 72
    16
 73
    12
 74
     0
 42
0.0000000001
 43
0.0000000001
 40
0.0
 40
0.0
 40
0.0
 40
0.0
 40
0.1578679541107
 40
0.311411023911
 40
0.456477516639
 40
0.5892706987484
 40
0.7065567950055
 40
0.8059450739079
 40
0.88636757656
 40
0.9491099287516
 40
1.0
 40
1.0
 40
1.0
 40
1.0
 10
-9.3767215742845
 20
63.71434019710209
 30
-0.0000000000000147
 10
-9.4346257027675
 20
63.71434019710209
 30
-0.0000000000000147
 10
-9.548872704612501
 20
63.7112803065521
 30
-0.0000000000000147
 10
-9.715830035423501
 20
63.6975945301421
 30
-0.0000000000000147
 10
-9.8725875156555
 20
63.67526964278208
 30
-0.0000000000000147
 10
-10.0144740494995
 20
63.64502373373209
 30
-0.0000000000000147
 10
-10.1373199158285
 20
63.60780434882209
 30
-0.0000000000000147
 10
-10.2378031459025
 20
63.56478701785208
 30
-0.0000000000000147
 10
-10.3133478485345
 20
63.51689599026209
 30
-0.0000000000000147
 10
-10.3633076275025
 20
63.4644440801721
 30
-0.0000000000000147
 10
-10.3767216819085
 20
63.42262253008208
 30
-0.0000000000000147
 10
-10.3767215742835
 20
63.40395664415207
 30
-0.0000000000000147
  0
SPLINE
  5
92
330
1F
100
AcDbEntity
  8
Default
100
AcDbSpline
210
0.0
220
0.0
230
1.0
 70
     8
 71
     3
 72
    16
 73
    12
 74
     0
 42
0.0000000001
 43
0.0000000001
 40
0.0
 40
0.0
 40
0.0
 40
0.0
 40
0.1578678692717
 40
0.311410862681
 40
0.4564772985592
 40
0.5892704528137
 40
0.7065565568992
 40
0.805944881461
 40
0.886367461386
 40
0.9491098980071
 40
1.0
 40
1.0
 40
1.0
 40
1.0
 10
-9.3767217093515
 20
67.49594471214208
 30
-0.0000000000000147
 10
-9.434625774097501
 20
67.49594470971208
 30
-0.0000000000000147
 10
-9.5488726522525
 20
67.49288482100208
 30
-0.0000000000000147
 10
-9.7158298096895
 20
67.47919906674208
 30
-0.0000000000000147
 10
-9.8725871455045
 20
67.45687421915208
 30
-0.0000000000000147
 10
-10.0144735780185
 20
67.42662836473208
 30
-0.0000000000000147
 10
-10.1373193978325
 20
67.38940904499209
 30
-0.0000000000000147
 10
-10.2378026416675
 20
67.34639178696209
 30
-0.0000000000000147
 10
-10.3133474217935
 20
67.2985008358621
 30
-0.0000000000000147
 10
-10.3633073307715
 20
67.24604903127208
 30
-0.0000000000000147
 10
-10.3767215860785
 20
67.20422754048208
 30
-0.0000000000000147
 10
-10.3767215742845
 20
67.18556165378207
 30
-0.0000000000000147
  0
SPLINE
  5
93
330
1F
100
AcDbEntity
  8
Default
100
AcDbSpline
210
0.0
220
0.0
230
1.0
 70
    24
 71
     3
 72
     8
 73
     4
 74
     0
 42
0.0000000001
 43
0.0000000001
 40
0.0
 40
0.0
 40
0.0
 40
0.0
 40
1.0
 40
1.0
 40
1.0
 40
1.0
 10
13.8568614046535
 20
39.03455460977322
 30
-0.0000000000000219
 10
13.0514870558935
 20
39.00837851042464
 30
-0.0000000000000195
 10
12.2461127071435
 20
38.9822024110854
 30
-0.0000000000000171
 10
11.4407383583835
 20
38.95602631173682
 30
-0.0000000000000147
  0
SPLINE
  5
94
330
1F
100
AcDbEntity
  8
Default
100
AcDbSpline
210
0.0
220
0.0
230
1.0
 70
     8
 71
     3
 72
    11
 73
     7
 74
     0
 42
0.0000000001
 43
0.0000000001
 40
0.0
 40
0.0
 40
0.0
 40
0.0
 40
0.25
 40
0.5
 40
0.75
 40
1.0
 40
1.0
 40
1.0
 40
1.0
 10
10.4392254635755
 20
38.02209362393209
 30
-0.0000000000000147
 10
10.5727565688595
 20
38.02209362393209
 30
-0.0000000000000147
 10
10.8429006238085
 20
38.07339448554344
 30
-0.0000000000000147
 10
11.1809182084035
 20
38.29215916572458
 30
-0.0000000000000147
 10
11.4005892909935
 20
38.61685228470343
 30
-0.0000000000000147
 10
11.4439948667435
 20
38.8711000244131
 30
-0.0000000000000147
 10
11.4383229283735
 20
38.99569653416467
 30
-0.0000000000000147
  0
SPLINE
  5
95
330
1F
100
AcDbEntity
  8
Default
100
AcDbSpline
210
0.0
220
0.0
230
1.0
 70
    24
 71
     3
 72
     8
 73
     4
 74
     0
 42
0.0000000001
 43
0.0000000001
 40
0.0
 40
0.0
 40
0.0
 40
0.0
 40
1.0
 40
1.0
 40
1.0
 40
1.0
 10
12.7329012270635
 20
69.19758274983208
 30
-0.0000000000000147
 10
13.1075546195935
 20
59.14324003648224
 30
-0.0000000000000147
 10
13.4822080121235
 20
49.08889732312305
 30
-0.0000000000000147
 10
13.8568614046535
 20
39.03455460977322
 30
-0.0000000000000147
  0
SPLINE
  5
96
330
1F
100
AcDbEntity
  8
Default
100
AcDbSpline
210
0.0
220
0.0
230
1.0
 70
    24
 71
     3
 72
     8
 73
     4
 74
     0
 42
0.0000000001
 43
0.0000000001
 40
0.0
 40
0.0
 40
0.0
 40
0.0
 40
1.0
 40
1.0
 40
1.0
 40
1.0
 10
11.8590413305335
 20
38.96962190262408
 30
-0.0000000000000147
 10
11.3649347451135
 20
47.97138435151894
 30
-0.0000000000000147
 10
10.8708281597015
 20
56.97314680041381
 30
-0.0000000000000147
 10
10.3767215742845
 20
65.97490924930867
 30
-0.0000000000000147
  0
SPLINE
  5
97
330
1F
100
AcDbEntity
  8
Default
100
AcDbSpline
210
0.0
220
0.0
230
1.0
 70
    24
 71
     3
 72
     8
 73
     4
 74
     0
 42
0.0000000001
 43
0.0000000001
 40
0.0
 40
0.0
 40
0.0
 40
0.0
 40
1.0
 40
1.0
 40
1.0
 40
1.0
 10
11.4407383583835
 20
38.95602631173682
 30
-0.0000000000000147
 10
11.0860660970135
 20
46.74257186393278
 30
-0.0000000000000147
 10
10.7313938356505
 20
54.52911741612873
 30
-0.0000000000000147
 10
10.3767215742845
 20
62.31566296831535
 30
-0.0000000000000147
  0
SPLINE
  5
98
330
1F
100
AcDbEntity
  8
Default
100
AcDbSpline
210
0.0
220
0.0
230
1.0
 70
    24
 71
     3
 72
     8
 73
     4
 74
     0
 42
0.0000000001
 43
0.0000000001
 40
0.0
 40
0.0
 40
0.0
 40
0.0
 40
1.0
 40
1.0
 40
1.0
 40
1.0
 10
10.3767215742845
 20
65.74693417247208
 30
-0.0000000000000147
 10
10.3767215742845
 20
64.44089919130208
 30
-0.0000000000000147
 10
10.3767215742845
 20
63.13486421013208
 30
-0.0000000000000147
 10
10.3767215742845
 20
61.82882922896208
 30
-0.0000000000000147
  0
SPLINE
  5
99
330
1F
100
AcDbEntity
  8
Default
100
AcDbSpline
210
0.0
220
0.0
230
1.0
 70
    24
 71
     3
 72
     8
 73
     4
 74
     0
 42
0.0000000001
 43
0.0000000001
 40
0.0
 40
0.0
 40
0.0
 40
0.0
 40
1.0
 40
1.0
 40
1.0
 40
1.0
 10
0.0
 20
67.64578089793208
 30
-0.0000000000000147
 10
-4.2623018210355
 20
67.64578089793208
 30
-0.0000000000000147
 10
-8.5246036420705
 20
67.64578089793208
 30
-0.0000000000000147
 10
-12.7869054631035
 20
67.64578089793208
 30
-0.0000000000000147
  0
SPLINE
  5
9A
330
1F
100
AcDbEntity
  8
Default
100
AcDbSpline
210
0.0
220
0.0
230
1.0
 70
    24
 71
     3
 72
     8
 73
     4
 74
     0
 42
0.0000000001
 43
0.0000000001
 40
-1.0
 40
-1.0
 40
-1.0
 40
-1.0
 40
0.0
 40
0.0
 40
0.0
 40
0.0
 10
12.7869054631035
 20
67.64578089793208
 30
-0.0000000000000147
 10
8.5246036420705
 20
67.64578089793208
 30
-0.0000000000000147
 10
4.2623018210355
 20
67.64578089793208
 30
-0.0000000000000147
 10
0.0
 20
67.64578089793208
 30
-0.0000000000000147
  0
SPLINE
  5
9B
330
1F
100
AcDbEntity
  8
Default
100
AcDbSpline
210
0.0
220
0.0
230
1.0
 70
    24
 71
     3
 72
     8
 73
     4
 74
     0
 42
0.0000000001
 43
0.0000000001
 40
0.0
 40
0.0
 40
0.0
 40
0.0
 40
1.0
 40
1.0
 40
1.0
 40
1.0
 10
0.0
 20
38.02209362393209
 30
-0.0000000000000147
 10
-3.4797418211915
 20
38.02209362393209
 30
-0.0000000000000147
 10
-6.959483642383501
 20
38.02209362393209
 30
-0.0000000000000147
 10
-10.4392254635755
 20
38.02209362393209
 30
-0.0000000000000147
  0
SPLINE
  5
9C
330
1F
100
AcDbEntity
  8
Default
100
AcDbSpline
210
0.0
220
0.0
230
1.0
 70
    24
 71
     3
 72
     8
 73
     4
 74
     0
 42
0.0000000001
 43
0.0000000001
 40
-1.0
 40
-1.0
 40
-1.0
 40
-1.0
 40
0.0
 40
0.0
 40
0.0
 40
0.0
 10
10.4392254635755
 20
38.02209362393209
 30
-0.0000000000000147
 10
6.959483642383501
 20
38.02209362393209
 30
-0.0000000000000147
 10
3.4797418211915
 20
38.02209362393209
 30
-0.0000000000000147
 10
0.0
 20
38.02209362393209
 30
-0.0000000000000147
  0
SPLINE
  5
9D
330
1F
100
AcDbEntity
  8
Default
100
AcDbSpline
210
0.0
220
0.0
230
1.0
 70
    24
 71
     3
 72
     8
 73
     4
 74
     0
 42
0.0000000001
 43
0.0000000001
 40
0.0
 40
0.0
 40
0.0
 40
0.0
 40
1.0
 40
1.0
 40
1.0
 40
1.0
 10
0.0
 20
58.81670901772209
 30
-0.0000000000000147
 10
-3.1255738580955
 20
58.81670901772209
 30
-0.0000000000000147
 10
-6.2511477161905
 20
58.81670901772209
 30
-0.0000000000000147
 10
-9.3767215742865
 20
58.81670901772209
 30
-0.0000000000000147
  0
SPLINE
  5
9E
330
1F
100
AcDbEntity
  8
Default
100
AcDbSpline
210
0.0
220
0.0
230
1.0
 70
    24
 71
     3
 72
     8
 73
     4
 74
     0
 42
0.0000000001
 43
0.0000000001
 40
-1.0
 40
-1.0
 40
-1.0
 40
-1.0
 40
0.0
 40
0.0
 40
0.0
 40
0.0
 10
9.3767215742865
 20
58.81670901772209
 30
-0.0000000000000147
 10
6.2511477161905
 20
58.81670901772209
 30
-0.0000000000000147
 10
3.1255738580955
 20
58.81670901772209
 30
-0.0000000000000147
 10
0.0
 20
58.81670901772209
 30
-0.0000000000000147
  0
SPLINE
  5
9F
330
1F
100
AcDbEntity
  8
Default
100
AcDbSpline
210
0.0
220
0.0
230
1.0
 70
    24
 71
     3
 72
     8
 73
     4
 74
     0
 42
0.0000000001
 43
0.0000000001
 40
0.0
 40
0.0
 40
0.0
 40
0.0
 40
1.0
 40
1.0
 40
1.0
 40
1.0
 10
0.0
 20
67.49594471214208
 30
-0.0000000000000147
 10
-3.1255739060615
 20
67.49594471214208
 30
-0.0000000000000147
 10
-6.2511478121235
 20
67.49594471214208
 30
-0.0000000000000147
 10
-9.3767217181855
 20
67.49594471214208
 30
-0.0000000000000147
  0
SPLINE
  5
A0
330
1F
100
AcDbEntity
  8
Default
100
AcDbSpline
210
0.0
220
0.0
230
1.0
 70
    24
 71
     3
 72
     8
 73
     4
 74
     0
 42
0.0000000001
 43
0.0000000001
 40
-1.0
 40
-1.0
 40
-1.0
 40
-1.0
 40
0.0
 40
0.0
 40
0.0
 40
0.0
 10
9.3767217181855
 20
67.49594471214208
 30
-0.0000000000000147
 10
6.2511478121235
 20
67.49594471214208
 30
-0.0000000000000147
 10
3.1255739060615
 20
67.49594471214208
 30
-0.0000000000000147
 10
0.0
 20
67.49594471214208
 30
-0.0000000000000147
  0
SPLINE
  5
A1
330
1F
100
AcDbEntity
  8
Default
100
AcDbSpline
210
0.0
220
0.0
230
1.0
 70
    24
 71
     3
 72
     8
 73
     4
 74
     0
 42
0.0000000001
 43
0.0000000001
 40
0.0
 40
0.0
 40
0.0
 40
0.0
 40
1.0
 40
1.0
 40
1.0
 40
1.0
 10
0.0
 20
63.71434019710209
 30
-0.0000000000000147
 10
-3.1255739031715
 20
63.71434019710209
 30
-0.0000000000000147
 10
-6.251147806342501
 20
63.71434019710209
 30
-0.0000000000000147
 10
-9.3767217095145
 20
63.71434019710209
 30
-0.0000000000000147
  0
SPLINE
  5
A2
330
1F
100
AcDbEntity
  8
Default
100
AcDbSpline
210
0.0
220
0.0
230
1.0
 70
    24
 71
     3
 72
     8
 73
     4
 74
     0
 42
0.0000000001
 43
0.0000000001
 40
-1.0
 40
-1.0
 40
-1.0
 40
-1.0
 40
0.0
 40
0.0
 40
0.0
 40
0.0
 10
9.3767217095145
 20
63.71434019710209
 30
-0.0000000000000147
 10
6.251147806342501
 20
63.71434019710209
 30
-0.0000000000000147
 10
3.1255739031715
 20
63.71434019710209
 30
-0.0000000000000147
 10
0.0
 20
63.71434019710209
 30
-0.0000000000000147
  0
SPLINE
  5
A3
330
1F
100
AcDbEntity
  8
Default
100
AcDbSpline
210
0.0
220
0.0
230
1.0
 70
    24
 71
     3
 72
     8
 73
     4
 74
     0
 42
0.0000000001
 43
0.0000000001
 40
0.0
 40
0.0
 40
0.0
 40
0.0
 40
1.0
 40
1.0
 40
1.0
 40
1.0
 10
0.0
 20
69.19758274983208
 30
-0.0000000000000147
 10
-4.2443004090195
 20
69.19758274983208
 30
-0.0000000000000147
 10
-8.4886008180395
 20
69.19758274983208
 30
-0.0000000000000147
 10
-12.7329012270635
 20
69.19758274983208
 30
-0.0000000000000147
  0
SPLINE
  5
A4
330
1F
100
AcDbEntity
  8
Default
100
AcDbSpline
210
0.0
220
0.0
230
1.0
 70
    24
 71
     3
 72
     8
 73
     4
 74
     0
 42
0.0000000001
 43
0.0000000001
 40
-1.0
 40
-1.0
 40
-1.0
 40
-1.0
 40
0.0
 40
0.0
 40
0.0
 40
0.0
 10
12.7329012270635
 20
69.19758274983208
 30
-0.0000000000000147
 10
8.4886008180395
 20
69.19758274983208
 30
-0.0000000000000147
 10
4.2443004090195
 20
69.19758274983208
 30
-0.0000000000000147
 10
0.0
 20
69.19758274983208
 30
-0.0000000000000147
  0
SPLINE
  5
A5
330
1F
100
AcDbEntity
  8
Default
100
AcDbSpline
210
0.0
220
0.0
230
1.0
 70
     8
 71
     3
 72
    16
 73
    12
 74
     0
 42
0.0000000001
 43
0.0000000001
 40
0.0
 40
0.0
 40
0.0
 40
0.0
 40
0.1578679541107
 40
0.311411023911
 40
0.456477516639
 40
0.5892706987484
 40
0.7065567950055
 40
0.8059450739079
 40
0.88636757656
 40
0.9491099287516
 40
1.0
 40
1.0
 40
1.0
 40
1.0
 10
9.3767215742865
 20
58.81670901772209
 30
-0.0000000000000147
 10
9.4346257027695
 20
58.81670901772209
 30
-0.0000000000000147
 10
9.548872704614501
 20
58.81976890827208
 30
-0.0000000000000147
 10
9.715830035425501
 20
58.83345468469209
 30
-0.0000000000000147
 10
9.8725875156565
 20
58.8557795720521
 30
-0.0000000000000147
 10
10.0144740495015
 20
58.88602548109209
 30
-0.0000000000000147
 10
10.1373199158305
 20
58.9232448660121
 30
-0.0000000000000147
 10
10.2378031459045
 20
58.9662621969821
 30
-0.0000000000000147
 10
10.3133478485365
 20
59.0141532245721
 30
-0.0000000000000147
 10
10.3633076275035
 20
59.06660513466208
 30
-0.0000000000000147
 10
10.3767216819105
 20
59.1084266847421
 30
-0.0000000000000147
 10
10.3767215742845
 20
59.12709257067208
 30
-0.0000000000000147
  0
SPLINE
  5
A6
330
1F
100
AcDbEntity
  8
Default
100
AcDbSpline
210
0.0
220
0.0
230
1.0
 70
    24
 71
     3
 72
     8
 73
     4
 74
     0
 42
0.0000000001
 43
0.0000000001
 40
0.0
 40
0.0
 40
0.0
 40
0.0
 40
1.0
 40
1.0
 40
1.0
 40
1.0
 10
10.3767215742845
 20
59.12709147743207
 30
0.0000000000000796
 10
10.3767215742845
 20
61.81324819519209
 30
0.0000000000000493
 10
10.3767215742845
 20
64.49940491296208
 30
0.0000000000000191
 10
10.3767215742845
 20
67.18556163072209
 30
-0.0000000000000036
  0
ENDSEC
  0
SECTION
  2
OBJECTS
  0
DICTIONARY
  5
C
330
0
100
AcDbDictionary
281
     1
  3
ACAD_GROUP
350
D
  3
ACAD_LAYOUT
350
1A
  3
ACAD_MLEADERSTYLE
350
A8
  3
ACAD_MLINESTYLE
350
17
  3
ACAD_PLOTSETTINGS
350
19
  3
ACAD_PLOTSTYLENAME
350
E
  3
ACAD_TABLESTYLE
350
A7
  3
ACAD_VISUALSTYLE
350
2A
  0
DICTIONARY
  5
D
102
{ACAD_REACTORS
330
C
102
}
330
C
100
AcDbDictionary
281
     1
  0
DICTIONARY
  5
1A
102
{ACAD_REACTORS
330
C
102
}
330
C
100
AcDbDictionary
281
     1
  3
Layout1
350
1E
  3
Layout2
350
26
  3
Model
350
22
  0
DICTIONARY
  5
A8
102
{ACAD_REACTORS
330
C
102
}
330
C
100
AcDbDictionary
281
     1
  0
DICTIONARY
  5
17
102
{ACAD_REACTORS
330
C
102
}
330
C
100
AcDbDictionary
281
     1
  3
Standard
350
18
  0
DICTIONARY
  5
19
102
{ACAD_REACTORS
330
C
102
}
330
C
100
AcDbDictionary
281
     1
  0
ACDBDICTIONARYWDFLT
  5
E
102
{ACAD_REACTORS
330
C
102
}
330
C
100
AcDbDictionary
281
     1
  3
Normal
350
F
100
AcDbDictionaryWithDefault
340
F
  0
DICTIONARY
  5
A7
102
{ACAD_REACTORS
330
C
102
}
330
C
100
AcDbDictionary
281
     1
  0
DICTIONARY
  5
2A
102
{ACAD_REACTORS
330
C
102
}
330
C
100
AcDbDictionary
281
     1
  3
2dWireframe
350
2F
  3
3D Hidden
350
31
  3
3dWireframe
350
30
  3
Basic
350
32
  3
Brighten
350
36
  3
ColorChange
350
3A
  3
Conceptual
350
34
  3
Dim
350
35
  3
Facepattern
350
39
  3
Flat
350
2B
  3
FlatWithEdges
350
2C
  3
Gouraud
350
2D
  3
GouraudWithEdges
350
2E
  3
Linepattern
350
38
  3
Realistic
350
33
  3
Thicken
350
37
  0
LAYOUT
  5
1E
102
{ACAD_REACTORS
330
1A
102
}
330
1A
100
AcDbPlotSettings
  1

  2
none_device
  4

  6

 40
0.0
 41
0.0
 42
0.0
 43
0.0
 44
0.0
 45
0.0
 46
0.0
 47
0.0
 48
0.0
 49
0.0
140
0.0
141
0.0
142
1.0
143
1.0
 70
   688
 72
     0
 73
     0
 74
     5
  7

 75
    16
 76
     0
 77
     2
 78
   300
147
1.0
148
0.0
149
0.0
100
AcDbLayout
  1
Layout1
 70
     1
 71
     1
 10
0.0
 20
0.0
 11
12.0
 21
9.0
 12
0.0
 22
0.0
 32
0.0
 14
1.000000000000000E+20
 24
1.000000000000000E+20
 34
1.000000000000000E+20
 15
-1.000000000000000E+20
 25
-1.000000000000000E+20
 35
-1.000000000000000E+20
146
0.0
 13
0.0
 23
0.0
 33
0.0
 16
1.0
 26
0.0
 36
0.0
 17
0.0
 27
1.0
 37
0.0
 76
     0
330
1B
  0
LAYOUT
  5
26
102
{ACAD_REACTORS
330
1A
102
}
330
1A
100
AcDbPlotSettings
  1

  2
none_device
  4

  6

 40
0.0
 41
0.0
 42
0.0
 43
0.0
 44
0.0
 45
0.0
 46
0.0
 47
0.0
 48
0.0
 49
0.0
140
0.0
141
0.0
142
1.0
143
1.0
 70
   688
 72
     0
 73
     0
 74
     5
  7

 75
    16
 76
     0
 77
     2
 78
   300
147
1.0
148
0.0
149
0.0
100
AcDbLayout
  1
Layout2
 70
     1
 71
     2
 10
0.0
 20
0.0
 11
0.0
 21
0.0
 12
0.0
 22
0.0
 32
0.0
 14
0.0
 24
0.0
 34
0.0
 15
0.0
 25
0.0
 35
0.0
146
0.0
 13
0.0
 23
0.0
 33
0.0
 16
1.0
 26
0.0
 36
0.0
 17
0.0
 27
1.0
 37
0.0
 76
     0
330
23
  0
LAYOUT
  5
22
102
{ACAD_REACTORS
330
1A
102
}
330
1A
100
AcDbPlotSettings
  1

  2
none_device
  4

  6

 40
0.0
 41
0.0
 42
0.0
 43
0.0
 44
0.0
 45
0.0
 46
0.0
 47
0.0
 48
0.0
 49
0.0
140
0.0
141
0.0
142
1.0
143
1.0
 70
  1712
 72
     0
 73
     0
 74
     0
  7

 75
     0
 76
     0
 77
     2
 78
   300
147
1.0
148
0.0
149
0.0
100
AcDbLayout
  1
Model
 70
     1
 71
     0
 10
0.0
 20
0.0
 11
12.0
 21
9.0
 12
0.0
 22
0.0
 32
0.0
 14
-13.859787592287
 24
-0.0015478654500001
 34
-0.0000000000000501
 15
51.09570463783835
 25
69.19758274983208
 35
0.0000000000000796
146
0.0
 13
0.0
 23
0.0
 33
0.0
 16
1.0
 26
0.0
 36
0.0
 17
0.0
 27
1.0
 37
0.0
 76
     0
330
1F
331
29
  0
MLINESTYLE
  5
18
102
{ACAD_REACTORS
330
17
102
}
330
17
100
AcDbMlineStyle
  2
Standard
 70
     0
  3

 62
   256
 51
90.0
 52
90.0
 71
     2
 49
0.5
 62
   256
  6
BYLAYER
 49
-0.5
 62
   256
  6
BYLAYER
  0
ACDBPLACEHOLDER
  5
F
102
{ACAD_REACTORS
330
E
102
}
330
E
  0
VISUALSTYLE
  5
2F
102
{ACAD_REACTORS
330
2A
102
}
330
2A
100
AcDbVisualStyle
  2
2dWireframe
 70
     4
 71
     0
 72
     2
 73
     0
 90
        0
 40
-0.6
 41
-30.0
 62
     5
 63
     7
421
 16777215
 74
     1
 91
        4
 64
     7
 65
   257
 75
     1
175
     1
 42
1.0
 92
        0
 66
   257
 43
1.0
 76
     1
 77
     6
 78
     2
 67
     7
 79
     5
170
     0
171
     0
290
     0
174
     0
 93
        1
 44
0.0
173
     0
291
     0
 45
0.0
1001
ACAD
1000
AcDbSavedByObjectVersion
1070
     0
  0
VISUALSTYLE
  5
31
102
{ACAD_REACTORS
330
2A
102
}
330
2A
100
AcDbVisualStyle
  2
3D Hidden
 70
     6
 71
     1
 72
     2
 73
     2
 90
        0
 40
-0.6
 41
-30.0
 62
     5
 63
     7
421
 16777215
 74
     2
 91
        2
 64
     7
 65
   257
 75
     2
175
     1
 42
40.0
 92
        0
 66
   257
 43
1.0
 76
     1
 77
     6
 78
     2
 67
     7
 79
     3
170
     0
171
     0
290
     0
174
     0
 93
        1
 44
0.0
173
     0
291
     0
 45
0.0
1001
ACAD
1000
AcDbSavedByObjectVersion
1070
     0
  0
VISUALSTYLE
  5
30
102
{ACAD_REACTORS
330
2A
102
}
330
2A
100
AcDbVisualStyle
  2
3dWireframe
 70
     5
 71
     0
 72
     2
 73
     0
 90
        0
 40
-0.6
 41
-30.0
 62
     5
 63
     7
421
 16777215
 74
     1
 91
        4
 64
     7
 65
   257
 75
     1
175
     1
 42
1.0
 92
        0
 66
   257
 43
1.0
 76
     1
 77
     6
 78
     2
 67
     7
 79
     5
170
     0
171
     0
290
     0
174
     0
 93
        1
 44
0.0
173
     0
291
     0
 45
0.0
1001
ACAD
1000
AcDbSavedByObjectVersion
1070
     0
  0
VISUALSTYLE
  5
32
102
{ACAD_REACTORS
330
2A
102
}
330
2A
100
AcDbVisualStyle
  2
Basic
 70
     7
 71
     1
 72
     0
 73
     1
 90
        0
 40
-0.6
 41
-30.0
 62
     5
 63
     7
421
 16777215
 74
     0
 91
        4
 64
     7
 65
   257
 75
     1
175
     1
 42
1.0
 92
        8
 66
     7
 43
1.0
 76
     1
 77
     6
 78
     2
 67
     7
 79
     5
170
     0
171
     0
290
     0
174
     0
 93
        1
 44
0.0
173
     0
291
     1
 45
0.0
1001
ACAD
1000
AcDbSavedByObjectVersion
1070
     0
  0
VISUALSTYLE
  5
36
102
{ACAD_REACTORS
330
2A
102
}
330
2A
100
AcDbVisualStyle
  2
Brighten
 70
    12
 71
     2
 72
     2
 73
     0
 90
        0
 40
-0.6
 41
-30.0
 62
     5
 63
     7
421
 16777215
 74
     1
 91
        4
 64
     7
 65
   257
 75
     1
175
     1
 42
1.0
 92
        8
 66
     7
 43
1.0
 76
     1
 77
     6
 78
     2
 67
     7
 79
     5
170
     0
171
     0
290
     0
174
     0
 93
        1
 44
50.0
173
     0
291
     1
 45
0.0
1001
ACAD
1000
AcDbSavedByObjectVersion
1070
     0
  0
VISUALSTYLE
  5
3A
102
{ACAD_REACTORS
330
2A
102
}
330
2A
100
AcDbVisualStyle
  2
ColorChange
 70
    16
 71
     2
 72
     2
 73
     3
 90
        0
 40
-0.6
 41
-30.0
 62
     5
 63
     8
421
  8421504
 74
     1
 91
        4
 64
     7
 65
   257
 75
     1
175
     1
 42
1.0
 92
        8
 66
     8
424
  8421504
 43
1.0
 76
     1
 77
     6
 78
     2
 67
     7
 79
     5
170
     0
171
     0
290
     0
174
     0
 93
        1
 44
0.0
173
     0
291
     1
 45
0.0
1001
ACAD
1000
AcDbSavedByObjectVersion
1070
     0
  0
VISUALSTYLE
  5
34
102
{ACAD_REACTORS
330
2A
102
}
330
2A
100
AcDbVisualStyle
  2
Conceptual
 70
     9
 71
     3
 72
     2
 73
     0
 90
        0
 40
-0.6
 41
-30.0
 62
     5
 63
     7
421
 16777215
 74
     2
 91
        2
 64
     7
 65
   257
 75
     1
175
     1
 42
40.0
 92
        8
 66
     7
 43
1.0
 76
     1
 77
     6
 78
     2
 67
     7
 79
     3
170
     0
171
     0
290
     0
174
     0
 93
        1
 44
0.0
173
     0
291
     0
 45
0.0
1001
ACAD
1000
AcDbSavedByObjectVersion
1070
     0
  0
VISUALSTYLE
  5
35
102
{ACAD_REACTORS
330
2A
102
}
330
2A
100
AcDbVisualStyle
  2
Dim
 70
    11
 71
     2
 72
     2
 73
     0
 90
        0
 40
-0.6
 41
-30.0
 62
     5
 63
     7
421
 16777215
 74
     1
 91
        4
 64
     7
 65
   257
 75
     1
175
     1
 42
1.0
 92
        8
 66
     7
 43
1.0
 76
     1
 77
     6
 78
     2
 67
     7
 79
     5
170
     0
171
     0
290
     0
174
     0
 93
        1
 44
-50.0
173
     0
291
     1
 45
0.0
1001
ACAD
1000
AcDbSavedByObjectVersion
1070
     0
  0
VISUALSTYLE
  5
39
102
{ACAD_REACTORS
330
2A
102
}
330
2A
100
AcDbVisualStyle
  2
Facepattern
 70
    15
 71
     2
 72
     2
 73
     0
 90
        0
 40
-0.6
 41
-30.0
 62
     5
 63
     7
421
 16777215
 74
     1
 91
        4
 64
     7
 65
   257
 75
     1
175
     1
 42
1.0
 92
        8
 66
     7
 43
1.0
 76
     1
 77
     6
 78
     2
 67
     7
 79
     5
170
     0
171
     0
290
     0
174
     0
 93
        1
 44
0.0
173
     0
291
     1
 45
0.0
1001
ACAD
1000
AcDbSavedByObjectVersion
1070
     0
  0
VISUALSTYLE
  5
2B
102
{ACAD_REACTORS
330
2A
102
}
330
2A
100
AcDbVisualStyle
  2
Flat
 70
     0
 71
     2
 72
     1
 73
     1
 90
        2
 40
-0.6
 41
30.0
 62
     5
 63
     7
421
 16777215
 74
     0
 91
        4
 64
     7
 65
   257
 75
     1
175
     1
 42
1.0
 92
        8
 66
     7
 43
1.0
 76
     1
 77
     6
 78
     2
 67
     7
 79
     5
170
     0
171
     0
290
     0
174
     0
 93
       13
 44
0.0
173
     0
291
     1
 45
0.0
1001
ACAD
1000
AcDbSavedByObjectVersion
1070
     0
  0
VISUALSTYLE
  5
2C
102
{ACAD_REACTORS
330
2A
102
}
330
2A
100
AcDbVisualStyle
  2
FlatWithEdges
 70
     1
 71
     2
 72
     1
 73
     1
 90
        2
 40
-0.6
 41
30.0
 62
     5
 63
     7
421
 16777215
 74
     1
 91
        4
 64
     7
 65
   257
 75
     1
175
     1
 42
1.0
 92
        0
 66
   257
 43
1.0
 76
     1
 77
     6
 78
     2
 67
     7
 79
     5
170
     0
171
     0
290
     0
174
     0
 93
       13
 44
0.0
173
     0
291
     1
 45
0.0
1001
ACAD
1000
AcDbSavedByObjectVersion
1070
     0
  0
VISUALSTYLE
  5
2D
102
{ACAD_REACTORS
330
2A
102
}
330
2A
100
AcDbVisualStyle
  2
Gouraud
 70
     2
 71
     2
 72
     2
 73
     1
 90
        2
 40
-0.6
 41
30.0
 62
     5
 63
     7
421
 16777215
 74
     0
 91
        4
 64
     7
 65
   257
 75
     1
175
     1
 42
1.0
 92
        0
 66
     7
 43
1.0
 76
     1
 77
     6
 78
     2
 67
     7
 79
     5
170
     0
171
     0
290
     0
174
     0
 93
       13
 44
0.0
173
     0
291
     1
 45
0.0
1001
ACAD
1000
AcDbSavedByObjectVersion
1070
     0
  0
VISUALSTYLE
  5
2E
102
{ACAD_REACTORS
330
2A
102
}
330
2A
100
AcDbVisualStyle
  2
GouraudWithEdges
 70
     3
 71
     2
 72
     2
 73
     1
 90
        2
 40
-0.6
 41
30.0
 62
     5
 63
     7
421
 16777215
 74
     1
 91
        4
 64
     7
 65
   257
 75
     1
175
     1
 42
1.0
 92
        0
 66
   257
 43
1.0
 76
     1
 77
     6
 78
     2
 67
     7
 79
     5
170
     0
171
     0
290
     0
174
     0
 93
       13
 44
0.0
173
     0
291
     1
 45
0.0
1001
ACAD
1000
AcDbSavedByObjectVersion
1070
     0
  0
VISUALSTYLE
  5
38
102
{ACAD_REACTORS
330
2A
102
}
330
2A
100
AcDbVisualStyle
  2
Linepattern
 70
    14
 71
     2
 72
     2
 73
     0
 90
        0
 40
-0.6
 41
-30.0
 62
     5
 63
     7
421
 16777215
 74
     1
 91
        4
 64
     7
 65
   257
 75
     7
175
     7
 42
1.0
 92
        8
 66
     7
 43
1.0
 76
     1
 77
     6
 78
     2
 67
     7
 79
     5
170
     0
171
     0
290
     0
174
     0
 93
        1
 44
0.0
173
     0
291
     1
 45
0.0
1001
ACAD
1000
AcDbSavedByObjectVersion
1070
     0
  0
VISUALSTYLE
  5
33
102
{ACAD_REACTORS
330
2A
102
}
330
2A
100
AcDbVisualStyle
  2
Realistic
 70
     8
 71
     2
 72
     2
 73
     0
 90
        0
 40
-0.6
 41
-30.0
 62
     5
 63
     7
421
 16777215
 74
     1
 91
        0
 64
     7
 65
   257
 75
     1
175
     1
 42
1.0
 92
        8
 66
     8
424
  7895160
 43
1.0
 76
     1
 77
     6
 78
     2
 67
     7
 79
     5
170
     0
171
     0
290
     0
174
     0
 93
       13
 44
0.0
173
     0
291
     0
 45
0.0
1001
ACAD
1000
AcDbSavedByObjectVersion
1070
     0
  0
VISUALSTYLE
  5
37
102
{ACAD_REACTORS
330
2A
102
}
330
2A
100
AcDbVisualStyle
  2
Thicken
 70
    13
 71
     2
 72
     2
 73
     0
 90
        0
 40
-0.6
 41
-30.0
 62
     5
 63
     7
421
 16777215
 74
     1
 91
        4
 64
     7
 65
   257
 75
     1
175
     1
 42
1.0
 92
       12
 66
     7
 43
1.0
 76
     1
 77
     6
 78
     2
 67
     7
 79
     5
170
     0
171
     0
290
     0
174
     0
 93
        1
 44
0.0
173
     0
291
     1
 45
0.0
1001
ACAD
1000
AcDbSavedByObjectVersion
1070
     0
  0
ENDSEC
  0
EOF
