  0
SECTION
  2
HEADER
  9
$ACADVER
  1
AC1018
  9
$ACADMAINTVER
 70
     0
  9
$DWGCODEPAGE
  3
ANSI_1252
  9
$INSBASE
 10
0.0
 20
0.0
 30
0.0
  9
$EXTMIN
 10
-37.0
 20
-0.0015478654500001
 30
-0.0000000000001563
  9
$EXTMAX
 10
79.3582084420873
 20
69.19758274983208
 30
0.0000000000000991
  9
$LIMMIN
 10
0.0
 20
0.0
  9
$LIMMAX
 10
12.0
 20
9.0
  9
$ORTHOMODE
 70
     0
  9
$REGENMODE
 70
     1
  9
$FILLMODE
 70
     1
  9
$QTEXTMODE
 70
     0
  9
$MIRRTEXT
 70
     1
  9
$LTSCALE
 40
0.0393700787401575
  9
$ATTMODE
 70
     1
  9
$TEXTSIZE
 40
0.2
  9
$TRACEWID
 40
0.05
  9
$TEXTSTYLE
  7
Standard
  9
$CLAYER
  8
Default
  9
$CELTYPE
  6
ByLayer
  9
$CECOLOR
 62
   256
  9
$CELTSCALE
 40
1.0
  9
$DISPSILH
 70
     0
  9
$DIMSCALE
 40
1.0
  9
$DIMASZ
 40
0.18
  9
$DIMEXO
 40
0.0625
  9
$DIMDLI
 40
0.38
  9
$DIMRND
 40
0.0
  9
$DIMDLE
 40
0.0
  9
$DIMEXE
 40
0.18
  9
$DIMTP
 40
0.0
  9
$DIMTM
 40
0.0
  9
$DIMTXT
 40
0.18
  9
$DIMCEN
 40
0.09
  9
$DIMTSZ
 40
0.0
  9
$DIMTOL
 70
     0
  9
$DIMLIM
 70
     0
  9
$DIMTIH
 70
     1
  9
$DIMTOH
 70
     1
  9
$DIMSE1
 70
     0
  9
$DIMSE2
 70
     0
  9
$DIMTAD
 70
     0
  9
$DIMZIN
 70
     0
  9
$DIMBLK
  1

  9
$DIMASO
 70
     1
  9
$DIMSHO
 70
     1
  9
$DIMPOST
  1

  9
$DIMAPOST
  1

  9
$DIMALT
 70
     0
  9
$DIMALTD
 70
     2
  9
$DIMALTF
 40
25.4
  9
$DIMLFAC
 40
1.0
  9
$DIMTOFL
 70
     0
  9
$DIMTVP
 40
0.0
  9
$DIMTIX
 70
     0
  9
$DIMSOXD
 70
     0
  9
$DIMSAH
 70
     0
  9
$DIMBLK1
  1

  9
$DIMBLK2
  1

  9
$DIMSTYLE
  2
Standard
  9
$DIMCLRD
 70
     0
  9
$DIMCLRE
 70
     0
  9
$DIMCLRT
 70
     0
  9
$DIMTFAC
 40
1.0
  9
$DIMGAP
 40
0.09
  9
$DIMJUST
 70
     0
  9
$DIMSD1
 70
     0
  9
$DIMSD2
 70
     0
  9
$DIMTOLJ
 70
     1
  9
$DIMTZIN
 70
     0
  9
$DIMALTZ
 70
     0
  9
$DIMALTTZ
 70
     0
  9
$DIMUPT
 70
     0
  9
$DIMDEC
 70
     4
  9
$DIMTDEC
 70
     4
  9
$DIMALTU
 70
     2
  9
$DIMALTTD
 70
     2
  9
$DIMTXSTY
  7
Standard
  9
$DIMAUNIT
 70
     0
  9
$DIMADEC
 70
     0
  9
$DIMALTRND
 40
0.0
  9
$DIMAZIN
 70
     0
  9
$DIMDSEP
 70
    46
  9
$DIMATFIT
 70
     3
  9
$DIMFRAC
 70
     0
  9
$DIMLDRBLK
  1

  9
$DIMLUNIT
 70
     2
  9
$DIMLWD
 70
    -2
  9
$DIMLWE
 70
    -2
  9
$DIMTMOVE
 70
     2
  9
$LUNITS
 70
     2
  9
$LUPREC
 70
     3
  9
$SKETCHINC
 40
0.1
  9
$FILLETRAD
 40
0.5
  9
$AUNITS
 70
     0
  9
$AUPREC
 70
     0
  9
$MENU
  1
.
  9
$ELEVATION
 40
0.0
  9
$PELEVATION
 40
0.0
  9
$THICKNESS
 40
0.0
  9
$LIMCHECK
 70
     0
  9
$CHAMFERA
 40
0.5
  9
$CHAMFERB
 40
0.5
  9
$CHAMFERC
 40
1.0
  9
$CHAMFERD
 40
0.0
  9
$SKPOLY
 70
     0
  9
$TDCREATE
 40
2456512.507229271
  9
$TDUCREATE
 40
2456512.673895937
  9
$TDUPDATE
 40
2456512.507229283
  9
$TDUUPDATE
 40
2456512.673895949
  9
$TDINDWG
 40
0.0000000116
  9
$TDUSRTIMER
 40
0.0000000116
  9
$USRTIMER
 70
     1
  9
$ANGBASE
 50
0.0
  9
$ANGDIR
 70
     0
  9
$PDMODE
 70
     0
  9
$PDSIZE
 40
0.0
  9
$PLINEWID
 40
0.0
  9
$SPLFRAME
 70
     0
  9
$SPLINETYPE
 70
     6
  9
$SPLINESEGS
 70
     8
  9
$HANDSEED
  5
AC
  9
$SURFTAB1
 70
     6
  9
$SURFTAB2
 70
     6
  9
$SURFTYPE
 70
     6
  9
$SURFU
 70
     6
  9
$SURFV
 70
     6
  9
$UCSBASE
  2

  9
$UCSNAME
  2

  9
$UCSORG
 10
0.0
 20
0.0
 30
0.0
  9
$UCSXDIR
 10
1.0
 20
0.0
 30
0.0
  9
$UCSYDIR
 10
0.0
 20
1.0
 30
0.0
  9
$UCSORTHOREF
  2

  9
$UCSORTHOVIEW
 70
     0
  9
$UCSORGTOP
 10
0.0
 20
0.0
 30
0.0
  9
$UCSORGBOTTOM
 10
0.0
 20
0.0
 30
0.0
  9
$UCSORGLEFT
 10
0.0
 20
0.0
 30
0.0
  9
$UCSORGRIGHT
 10
0.0
 20
0.0
 30
0.0
  9
$UCSORGFRONT
 10
0.0
 20
0.0
 30
0.0
  9
$UCSORGBACK
 10
0.0
 20
0.0
 30
0.0
  9
$PUCSBASE
  2

  9
$PUCSNAME
  2

  9
$PUCSORG
 10
0.0
 20
0.0
 30
0.0
  9
$PUCSXDIR
 10
1.0
 20
0.0
 30
0.0
  9
$PUCSYDIR
 10
0.0
 20
1.0
 30
0.0
  9
$PUCSORTHOREF
  2

  9
$PUCSORTHOVIEW
 70
     0
  9
$PUCSORGTOP
 10
0.0
 20
0.0
 30
0.0
  9
$PUCSORGBOTTOM
 10
0.0
 20
0.0
 30
0.0
  9
$PUCSORGLEFT
 10
0.0
 20
0.0
 30
0.0
  9
$PUCSORGRIGHT
 10
0.0
 20
0.0
 30
0.0
  9
$PUCSORGFRONT
 10
0.0
 20
0.0
 30
0.0
  9
$PUCSORGBACK
 10
0.0
 20
0.0
 30
0.0
  9
$USERI1
 70
     0
  9
$USERI2
 70
     0
  9
$USERI3
 70
     0
  9
$USERI4
 70
     0
  9
$USERI5
 70
     0
  9
$USERR1
 40
0.0
  9
$USERR2
 40
0.0
  9
$USERR3
 40
0.0
  9
$USERR4
 40
0.0
  9
$USERR5
 40
0.0
  9
$WORLDVIEW
 70
     1
  9
$SHADEDGE
 70
     3
  9
$SHADEDIF
 70
    70
  9
$TILEMODE
 70
     1
  9
$MAXACTVP
 70
    64
  9
$PINSBASE
 10
0.0
 20
0.0
 30
0.0
  9
$PLIMCHECK
 70
     0
  9
$PEXTMIN
 10
1.000000000000000E+20
 20
1.000000000000000E+20
 30
1.000000000000000E+20
  9
$PEXTMAX
 10
-1.000000000000000E+20
 20
-1.000000000000000E+20
 30
-1.000000000000000E+20
  9
$PLIMMIN
 10
0.0
 20
0.0
  9
$PLIMMAX
 10
12.0
 20
9.0
  9
$UNITMODE
 70
     0
  9
$VISRETAIN
 70
     1
  9
$PLINEGEN
 70
     0
  9
$PSLTSCALE
 70
     1
  9
$TREEDEPTH
 70
  3020
  9
$CMLSTYLE
  2
Standard
  9
$CMLJUST
 70
     0
  9
$CMLSCALE
 40
1.0
  9
$PROXYGRAPHICS
 70
     1
  9
$MEASUREMENT
 70
     0
  9
$CELWEIGHT
370
    -1
  9
$ENDCAPS
280
     0
  9
$JOINSTYLE
280
     0
  9
$LWDISPLAY
290
     0
  9
$INSUNITS
 70
     1
  9
$HYPERLINKBASE
  1

  9
$STYLESHEET
  1

  9
$XEDIT
290
     1
  9
$CEPSNTYPE
380
     0
  9
$PSTYLEMODE
290
     1
  9
$FINGERPRINTGUID
  2
{6EED7B32-A7DC-411A-A5AB-17FAE9E27051}
  9
$VERSIONGUID
  2
{FAEB1C32-E019-11D5-929B-00C0DF256EC4}
  9
$EXTNAMES
290
     1
  9
$PSVPSCALE
 40
0.0
  9
$OLESTARTUP
290
     0
  9
$SORTENTS
280
   127
  9
$INDEXCTL
280
     0
  9
$HIDETEXT
280
     1
  9
$XCLIPFRAME
290
     0
  9
$HALOGAP
280
     0
  9
$OBSCOLOR
 70
   257
  9
$OBSLTYPE
280
     0
  9
$INTERSECTIONDISPLAY
280
     0
  9
$INTERSECTIONCOLOR
 70
   257
  9
$DIMASSOC
280
     2
  9
$PROJECTNAME
  1

  0
ENDSEC
  0
SECTION
  2
CLASSES
  0
CLASS
  1
ACDBDICTIONARYWDFLT
  2
AcDbDictionaryWithDefault
  3
ObjectDBX Classes
 90
        0
 91
        4
280
     0
281
     0
  0
CLASS
  1
VISUALSTYLE
  2
AcDbVisualStyle
  3
ObjectDBX Classes
 90
     4095
 91
        4
280
     0
281
     0
  0
ENDSEC
  0
SECTION
  2
TABLES
  0
TABLE
  2
VPORT
  5
8
330
0
100
AcDbSymbolTable
 70
     1
  0
VPORT
  5
29
330
8
100
AcDbSymbolTableRecord
100
AcDbViewportTableRecord
  2
*Active
 70
     0
 10
0.0
 20
0.0
 11
1.0
 21
1.0
 12
21.17910422104365
 22
34.59801744219104
 13
0.0
 23
0.0
 14
0.5
 24
0.5
 15
0.5
 25
0.5
 16
0.0
 26
0.0
 36
1.0
 17
0.0
 27
0.0
 37
0.0
 40
70.58311322758773
 41
1.681498125879496
 42
50.0
 43
0.0
 44
0.0
 50
0.0
 51
0.0
 71
     0
 72
   100
 73
     1
 74
     3
 75
     0
 76
     0
 77
     0
 78
     0
281
     0
 65
     1
110
0.0
120
0.0
130
0.0
111
1.0
121
0.0
131
0.0
112
0.0
122
1.0
132
0.0
 79
     0
146
0.0
  0
ENDTAB
  0
TABLE
  2
LTYPE
  5
5
330
0
100
AcDbSymbolTable
 70
     1
  0
LTYPE
  5
14
330
5
100
AcDbSymbolTableRecord
100
AcDbLinetypeTableRecord
  2
ByBlock
 70
     0
  3

 72
    65
 73
     0
 40
0.0
  0
LTYPE
  5
15
330
5
100
AcDbSymbolTableRecord
100
AcDbLinetypeTableRecord
  2
ByLayer
 70
     0
  3

 72
    65
 73
     0
 40
0.0
  0
LTYPE
  5
16
330
5
100
AcDbSymbolTableRecord
100
AcDbLinetypeTableRecord
  2
Continuous
 70
     0
  3
Solid line
 72
    65
 73
     0
 40
0.0
  0
ENDTAB
  0
TABLE
  2
LAYER
  5
2
330
0
100
AcDbSymbolTable
 70
     2
  0
LAYER
  5
10
330
2
100
AcDbSymbolTableRecord
100
AcDbLayerTableRecord
  2
0
 70
     0
 62
     7
  6
Continuous
370
    -3
390
F
  0
LAYER
  5
3B
330
2
100
AcDbSymbolTableRecord
100
AcDbLayerTableRecord
  2
Default
 70
     0
 62
     7
  6
Continuous
370
    -3
390
F
  0
ENDTAB
  0
TABLE
  2
STYLE
  5
3
330
0
100
AcDbSymbolTable
 70
     1
  0
STYLE
  5
11
330
3
100
AcDbSymbolTableRecord
100
AcDbTextStyleTableRecord
  2
Standard
 70
     0
 40
0.0
 41
1.0
 50
0.0
 71
     0
 42
0.2
  3
txt
  4

  0
ENDTAB
  0
TABLE
  2
VIEW
  5
6
330
0
100
AcDbSymbolTable
 70
     0
  0
ENDTAB
  0
TABLE
  2
UCS
  5
7
330
0
100
AcDbSymbolTable
 70
     0
  0
ENDTAB
  0
TABLE
  2
APPID
  5
9
330
0
100
AcDbSymbolTable
 70
     1
  0
APPID
  5
12
330
9
100
AcDbSymbolTableRecord
100
AcDbRegAppTableRecord
  2
ACAD
 70
     0
  0
ENDTAB
  0
TABLE
  2
DIMSTYLE
  5
A
330
0
100
AcDbSymbolTable
 70
     1
100
AcDbDimStyleTable
  0
DIMSTYLE
105
27
330
A
100
AcDbSymbolTableRecord
100
AcDbDimStyleTableRecord
  2
Standard
 70
     0
340
11
  0
ENDTAB
  0
TABLE
  2
BLOCK_RECORD
  5
1
330
0
100
AcDbSymbolTable
 70
     1
  0
BLOCK_RECORD
  5
1F
330
1
100
AcDbSymbolTableRecord
100
AcDbBlockTableRecord
  2
*Model_Space
340
22
  0
BLOCK_RECORD
  5
1B
330
1
100
AcDbSymbolTableRecord
100
AcDbBlockTableRecord
  2
*Paper_Space
340
1E
  0
BLOCK_RECORD
  5
23
330
1
100
AcDbSymbolTableRecord
100
AcDbBlockTableRecord
  2
*Paper_Space0
340
26
  0
ENDTAB
  0
ENDSEC
  0
SECTION
  2
BLOCKS
  0
BLOCK
  5
20
330
1F
100
AcDbEntity
  8
0
100
AcDbBlockBegin
  2
*Model_Space
 70
     0
 10
0.0
 20
0.0
 30
0.0
  3
*Model_Space
  1

  0
ENDBLK
  5
21
330
1F
100
AcDbEntity
  8
0
100
AcDbBlockEnd
  0
BLOCK
  5
1C
330
1B
100
AcDbEntity
 67
     1
  8
0
100
AcDbBlockBegin
  2
*Paper_Space
 70
     0
 10
0.0
 20
0.0
 30
0.0
  3
*Paper_Space
  1

  0
ENDBLK
  5
1D
330
1B
100
AcDbEntity
 67
     1
  8
0
100
AcDbBlockEnd
  0
BLOCK
  5
24
330
23
100
AcDbEntity
  8
0
100
AcDbBlockBegin
  2
*Paper_Space0
 70
     0
 10
0.0
 20
0.0
 30
0.0
  3
*Paper_Space0
  1

  0
ENDBLK
  5
25
330
23
100
AcDbEntity
  8
0
100
AcDbBlockEnd
  0
ENDSEC
  0
SECTION
  2
ENTITIES
  0
ARC
  5
3C
330
1F
100
AcDbEntity
  8
Default
100
AcDbCircle
 10
102.5105298026173
 20
38.97652228278
 30
-0.0000000000000501
 40
53.09973750452
100
AcDbArc
 50
190.0024375752364
 51
195.7322569192754
  0
LINE
  5
3D
330
1F
100
AcDbEntity
  8
Default
100
AcDbLine
 10
76.4832084420873
 20
5.25
 30
-0.0000000000000501
 11
53.61688777304731
 21
5.25
 31
-0.0000000000000501
  0
ARC
  5
3E
330
1F
100
AcDbEntity
  8
Default
100
AcDbCircle
 10
51.6695819520973
 20
25.0
 30
-0.0000000000000501
 40
0.5
100
AcDbArc
 50
198.0823132061067
 51
269.9999999999976
  0
LINE
  5
3F
330
1F
100
AcDbEntity
  8
Default
100
AcDbLine
 10
78.2332084420873
 20
24.0
 30
-0.0000000000000501
 11
78.2332084420873
 21
6.0
 31
-0.0000000000000501
  0
LINE
  5
40
330
1F
100
AcDbEntity
  8
Default
100
AcDbLine
 10
78.2332084420873
 20
6.0
 30
-0.0000000000000501
 11
51.97455958175732
 21
6.0
 31
-0.0000000000000501
  0
LINE
  5
41
330
1F
100
AcDbEntity
  8
Default
100
AcDbLine
 10
56.12847731284731
 20
24.5
 30
-0.0000000000000501
 11
53.9994934692661
 21
31.05726107984983
 31
-0.0000000000000501
  0
LINE
  5
42
330
1F
100
AcDbEntity
  8
Default
100
AcDbLine
 10
51.19427615714731
 20
24.84480850126
 30
-0.0000000000000501
 11
50.03687882684517
 21
28.38957520962596
 31
-0.0000000000000501
  0
LINE
  5
43
330
1F
100
AcDbEntity
  8
Default
100
AcDbLine
 10
51.9236137063973
 20
24.5
 30
-0.0000000000000501
 11
50.21788895423185
 21
29.75362489904888
 31
-0.0000000000000501
  0
LINE
  5
44
330
1F
100
AcDbEntity
  8
Default
100
AcDbLine
 10
49.73452116808731
 20
28.55346091683
 30
-0.0000000000000501
 11
48.36801455490934
 21
28.18730657337722
 31
-0.0000000000000501
  0
ARC
  5
45
330
1F
100
AcDbEntity
  8
Default
100
AcDbCircle
 10
57.30286661962731
 20
15.33811249987
 30
-0.0000000000000501
 40
16.0625
100
AcDbArc
 50
101.8679895578061
 51
116.173327057796
  0
ARC
  5
46
330
1F
100
AcDbEntity
  8
Default
100
AcDbCircle
 10
77.7332084420873
 20
24.0
 30
-0.0000000000000501
 40
0.5
100
AcDbArc
 50
0.0
 51
90.0
  0
ARC
  5
47
330
1F
100
AcDbEntity
  8
Default
100
AcDbCircle
 10
59.0457084420873
 20
14.25
 30
-0.0000000000000501
 40
20.3125
100
AcDbArc
 50
353.6403397602663
 51
6.359660239726371
  0
ARC
  5
48
330
1F
100
AcDbEntity
  8
Default
100
AcDbCircle
 10
67.3107134535273
 20
-126.49158812997
 30
-0.0000000000000501
 40
143.4877700805
100
AcDbArc
 50
85.23376011063571
 51
85.63433997498427
  0
LINE
  5
49
330
1F
100
AcDbEntity
  8
Default
100
AcDbLine
 10
48.1912378596173
 20
27.88112035553
 30
-0.0000000000000501
 11
52.24316474064761
 21
12.75912336696909
 31
-0.0000000000000501
  0
ARC
  5
4A
330
1F
100
AcDbEntity
  8
Default
100
AcDbCircle
 10
48.4327193161873
 20
27.9458251168
 30
-0.0000000000000501
 40
0.25
100
AcDbArc
 50
104.9999999999978
 51
194.9999999999988
  0
ARC
  5
4B
330
1F
100
AcDbEntity
  8
Default
100
AcDbCircle
 10
49.79922592936731
 20
28.31197946026
 30
-0.0000000000000501
 40
0.25
100
AcDbArc
 50
18.082313206107
 51
104.9999999999978
  0
LINE
  5
4C
330
1F
100
AcDbEntity
  8
Default
100
AcDbLine
 10
52.10778317462731
 20
6.0
 30
-0.0000000000000501
 11
50.55586935459876
 21
0.0000000000000711
 31
-0.0000000000000501
  0
LINE
  5
4D
330
1F
100
AcDbEntity
  8
Default
100
AcDbLine
 10
52.3304526464573
 20
7.375969970440003
 30
-0.0000000000000501
 11
51.97455958175786
 21
6.000000000005898
 31
-0.0000000000000501
  0
ARC
  5
4E
330
1F
100
AcDbEntity
  8
Default
100
AcDbCircle
 10
67.3107134535273
 20
154.99158812993
 30
-0.0000000000000501
 40
143.4877700805
100
AcDbArc
 50
274.3656600250171
 51
274.7662398893647
  0
LINE
  5
4F
330
1F
100
AcDbEntity
  8
Default
100
AcDbLine
 10
78.1082084420873
 20
0.0
 30
-0.0000000000000501
 11
76.73326249474006
 21
-0.0015478654466747
 31
-0.0000000000000501
  0
LINE
  5
50
330
1F
100
AcDbEntity
  8
Default
100
AcDbLine
 10
76.7332624947373
 20
-0.0015478654500001
 30
-0.0000000000000501
 11
76.4832084420849
 21
5.249999999996199
 31
-0.0000000000000501
  0
ARC
  5
51
330
1F
100
AcDbEntity
  8
Default
100
AcDbCircle
 10
3.574940286967305
 20
6.930373563110003
 30
-0.0000000000000501
 40
55.89939413694
100
AcDbArc
 50
18.31904308643827
 51
25.56994870663531
  0
LINE
  5
52
330
1F
100
AcDbEntity
  8
Default
100
AcDbLine
 10
51.98893325420731
 20
0.0
 30
-0.0000000000000501
 11
50.55586935459831
 21
0.0
 31
-0.0000000000000501
  0
LINE
  5
53
330
1F
100
AcDbEntity
  8
Default
100
AcDbLine
 10
52.05833841188731
 20
5.808836951740005
 30
-0.0000000000000501
 11
50.55586935460417
 21
-0.0000000000005684
 31
-0.0000000000000501
  0
LINE
  5
54
330
1F
100
AcDbEntity
  8
Default
100
AcDbLine
 10
77.7332084420873
 20
24.5
 30
-0.0000000000000501
 11
51.6695819520973
 21
24.5
 31
-0.0000000000000501
  0
ARC
  5
55
330
1F
100
AcDbEntity
  8
Default
100
AcDbCircle
 10
43.0186087593773
 20
9.918073146940003
 30
-0.0000000000000501
 40
9.652601987933
100
AcDbArc
 50
344.7305109498946
 51
17.18953005778456
  0
LINE
  5
56
330
1F
100
AcDbEntity
  8
Default
100
AcDbLine
 10
78.1082084420873
 20
6.0
 30
-0.0000000000000501
 11
78.1082084420873
 21
0.0
 31
-0.0000000000000501
  0
LINE
  5
57
330
1F
100
AcDbEntity
  8
Default
100
AcDbLine
 10
51.98893325420731
 20
0.0
 30
-0.0000000000000501
 11
53.6168877730402
 21
5.250000000000462
 31
-0.0000000000000501
  0
LINE
  5
58
330
1F
100
AcDbEntity
  8
Default
100
AcDbLine
 10
-0.9999998649326259
 20
67.49594471214208
 30
-0.0000000000000147
 11
-32.519860304698
 21
67.49594471214208
 31
-0.0000000000000147
  0
LINE
  5
59
330
1F
100
AcDbEntity
  8
Default
100
AcDbLine
 10
32.519860304698
 20
67.49594471214208
 30
-0.0000000000000147
 11
0.9999998649331416
 21
67.49594471214208
 31
-0.0000000000000147
  0
LINE
  5
5A
330
1F
100
AcDbEntity
  8
Default
100
AcDbLine
 10
32.519860169631
 20
63.71434019710209
 30
-0.0000000000000147
 11
1.000000000001284
 21
63.71434019710209
 31
-0.0000000000000147
  0
LINE
  5
5B
330
1F
100
AcDbEntity
  8
Default
100
AcDbLine
 10
-0.9999999999996234
 20
63.71434019710209
 30
-0.0000000000000147
 11
-32.519860169631
 21
63.71434019710209
 31
-0.0000000000000147
  0
LINE
  5
5C
330
1F
100
AcDbEntity
  8
Default
100
AcDbLine
 10
32.519860169633
 20
58.81670901772209
 30
-0.0000000000000147
 11
0.9999999999995253
 21
58.81670901772209
 31
-0.0000000000000147
  0
LINE
  5
5D
330
1F
100
AcDbEntity
  8
Default
100
AcDbLine
 10
-0.9999999999963823
 20
58.81670901772209
 30
-0.0000000000000147
 11
-32.519860169633
 21
58.81670901772209
 31
-0.0000000000000147
  0
SPLINE
  5
5E
330
1F
100
AcDbEntity
  8
Default
100
AcDbSpline
210
0.0
220
0.0
230
1.0
 70
     8
 71
     3
 72
    16
 73
    12
 74
     0
 42
0.0000000001
 43
0.0000000001
 40
0.0
 40
0.0
 40
0.0
 40
0.0
 40
0.1578679541107
 40
0.311411023911
 40
0.456477516639
 40
0.5892706987484
 40
0.7065567950055
 40
0.8059450739079
 40
0.88636757656
 40
0.9491099287516
 40
1.0
 40
1.0
 40
1.0
 40
1.0
 10
-0.9999999999963822
 20
58.81670901772178
 30
-0.0000000000001043
 10
-0.9420958715133796
 20
58.81670901772181
 30
-0.0000000000001043
 10
-0.8278488696683792
 20
58.81976890827183
 30
-0.0000000000001043
 10
-0.6608915388573888
 20
58.83345468469189
 30
-0.0000000000001043
 10
-0.5041340586263949
 20
58.85577957205195
 30
-0.0000000000001043
 10
-0.3622475247814009
 20
58.88602548109198
 30
-0.0000000000001043
 10
-0.2394016584524108
 20
58.92324486601203
 30
-0.0000000000001043
 10
-0.1389184283784261
 20
58.96626219698206
 30
-0.0000000000001043
 10
-0.0633737257464393
 20
59.01415322457208
 30
-0.0000000000001043
 10
-0.0134139467794546
 20
59.06660513466208
 30
-0.0000000000001043
 10
0.0000001076275263
 20
59.1084266847421
 30
-0.0000000000001043
 10
0.0000000000015272
 20
59.12709257067208
 30
-0.0000000000001043
  0
SPLINE
  5
5F
330
1F
100
AcDbEntity
  8
Default
100
AcDbSpline
210
0.0
220
0.0
230
1.0
 70
     8
 71
     3
 72
    16
 73
    12
 74
     0
 42
0.0000000001
 43
0.0000000001
 40
0.0
 40
0.0
 40
0.0
 40
0.0
 40
0.1578678692717
 40
0.311410862681
 40
0.4564772985592
 40
0.5892704528137
 40
0.7065565568992
 40
0.805944881461
 40
0.886367461386
 40
0.9491098980071
 40
1.0
 40
1.0
 40
1.0
 40
1.0
 10
0.9999998649331409
 20
67.49594471214238
 30
-0.0000000000000138
 10
0.9420958001871432
 20
67.49594470971236
 30
-0.0000000000000138
 10
0.8278489220321433
 20
67.49288482100233
 30
-0.0000000000000138
 10
0.6608917645951435
 20
67.47919906674228
 30
-0.0000000000000138
 10
0.504134428780156
 20
67.45687421915224
 30
-0.0000000000000138
 10
0.3622479962661659
 20
67.4266283647322
 30
-0.0000000000000138
 10
0.239402176452174
 20
67.38940904499216
 30
-0.0000000000000138
 10
0.1389189326171863
 20
67.34639178696213
 30
-0.0000000000000138
 10
0.0633741524911989
 20
67.29850083586211
 30
-0.0000000000000138
 10
0.0134142435132185
 20
67.24604903127208
 30
-0.0000000000000138
 10
-0.0000000117937738
 20
67.20422754048208
 30
-0.0000000000000138
 10
0.0000000000002323
 20
67.18556165378207
 30
-0.0000000000000138
  0
SPLINE
  5
60
330
1F
100
AcDbEntity
  8
Default
100
AcDbSpline
210
0.0
220
0.0
230
1.0
 70
     8
 71
     3
 72
    16
 73
    12
 74
     0
 42
0.0000000001
 43
0.0000000001
 40
0.0
 40
0.0
 40
0.0
 40
0.0
 40
0.1578679541107
 40
0.311411023911
 40
0.456477516639
 40
0.5892706987484
 40
0.7065567950055
 40
0.8059450739079
 40
0.88636757656
 40
0.9491099287516
 40
1.0
 40
1.0
 40
1.0
 40
1.0
 10
1.000000000001283
 20
63.71434019710239
 30
-0.0000000000000138
 10
0.9420958715182873
 20
63.71434019710237
 30
-0.0000000000000138
 10
0.8278488696732871
 20
63.71128030655235
 30
-0.0000000000000138
 10
0.6608915388622895
 20
63.6975945301423
 30
-0.0000000000000138
 10
0.5041340586303009
 20
63.67526964278223
 30
-0.0000000000000138
 10
0.3622475247863086
 20
63.6450237337322
 30
-0.0000000000000138
 10
0.2394016584573186
 20
63.60780434882216
 30
-0.0000000000000138
 10
0.1389184283833268
 20
63.56478701785213
 30
-0.0000000000000138
 10
0.0633737257513471
 20
63.51689599026211
 30
-0.0000000000000138
 10
0.0134139467833605
 20
63.46444408017211
 30
-0.0000000000000138
 10
-0.0000001076226256
 20
63.42262253008208
 30
-0.0000000000000138
 10
0.0000000000023787
 20
63.40395664415207
 30
-0.0000000000000138
  0
SPLINE
  5
61
330
1F
100
AcDbEntity
  8
Default
100
AcDbSpline
210
0.0
220
0.0
230
1.0
 70
     8
 71
     3
 72
    16
 73
    12
 74
     0
 42
0.0000000001
 43
0.0000000001
 40
0.0
 40
0.0
 40
0.0
 40
0.0
 40
0.1578679541107
 40
0.311411023911
 40
0.456477516639
 40
0.5892706987484
 40
0.7065567950055
 40
0.8059450739079
 40
0.88636757656
 40
0.9491099287516
 40
1.0
 40
1.0
 40
1.0
 40
1.0
 10
0.9999999999995239
 20
58.81670901772209
 30
-0.0000000000001043
 10
0.9420958715165213
 20
58.81670901772209
 30
-0.0000000000001043
 10
0.82784886967152
 20
58.81976890827208
 30
-0.0000000000001043
 10
0.6608915388605254
 20
58.83345468469209
 30
-0.0000000000001043
 10
0.5041340586295249
 20
58.8557795720521
 30
-0.0000000000001043
 10
0.3622475247845216
 20
58.88602548109209
 30
-0.0000000000001043
 10
0.2394016584555203
 20
58.9232448660121
 30
-0.0000000000001043
 10
0.1389184283815226
 20
58.9662621969821
 30
-0.0000000000001043
 10
0.0633737257495213
 20
59.0141532245721
 30
-0.0000000000001043
 10
0.0134139467825207
 20
59.06660513466208
 30
-0.0000000000001043
 10
-0.0000001076244729
 20
59.1084266847421
 30
-0.0000000000001043
 10
0.0000000000015206
 20
59.12709257067208
 30
-0.0000000000001043
  0
SPLINE
  5
62
330
1F
100
AcDbEntity
  8
Default
100
AcDbSpline
210
0.0
220
0.0
230
1.0
 70
     8
 71
     3
 72
    16
 73
    12
 74
     0
 42
0.0000000001
 43
0.0000000001
 40
0.0
 40
0.0
 40
0.0
 40
0.0
 40
0.1578678692717
 40
0.311410862681
 40
0.4564772985592
 40
0.5892704528137
 40
0.7065565568992
 40
0.805944881461
 40
0.886367461386
 40
0.9491098980071
 40
1.0
 40
1.0
 40
1.0
 40
1.0
 10
-0.9999998649326258
 20
67.49594471214208
 30
-0.0000000000000138
 10
-0.9420958001866282
 20
67.49594470971208
 30
-0.0000000000000138
 10
-0.8278489220316274
 20
67.49288482100208
 30
-0.0000000000000138
 10
-0.6608917645946235
 20
67.47919906674208
 30
-0.0000000000000138
 10
-0.5041344287796292
 20
67.45687421915208
 30
-0.0000000000000138
 10
-0.36224799626563
 20
67.42662836473208
 30
-0.0000000000000138
 10
-0.2394021764516268
 20
67.38940904499209
 30
-0.0000000000000138
 10
-0.138918932616626
 20
67.34639178696209
 30
-0.0000000000000138
 10
-0.0633741524906242
 20
67.2985008358621
 30
-0.0000000000000138
 10
-0.0134142435126279
 20
67.24604903127208
 30
-0.0000000000000138
 10
0.000000011794377
 20
67.20422754048208
 30
-0.0000000000000138
 10
0.0000000000003766
 20
67.18556165378207
 30
-0.0000000000000138
  0
SPLINE
  5
63
330
1F
100
AcDbEntity
  8
Default
100
AcDbSpline
210
0.0
220
0.0
230
1.0
 70
     8
 71
     3
 72
    16
 73
    12
 74
     0
 42
0.0000000001
 43
0.0000000001
 40
0.0
 40
0.0
 40
0.0
 40
0.0
 40
0.1578679541107
 40
0.311411023911
 40
0.456477516639
 40
0.5892706987484
 40
0.7065567950055
 40
0.8059450739079
 40
0.88636757656
 40
0.9491099287516
 40
1.0
 40
1.0
 40
1.0
 40
1.0
 10
-0.9999999999996234
 20
63.71434019710209
 30
-0.0000000000000138
 10
-0.9420958715166279
 20
63.71434019710209
 30
-0.0000000000000138
 10
-0.8278488696716266
 20
63.7112803065521
 30
-0.0000000000000138
 10
-0.6608915388606249
 20
63.6975945301421
 30
-0.0000000000000138
 10
-0.5041340586286296
 20
63.67526964278208
 30
-0.0000000000000138
 10
-0.3622475247846282
 20
63.64502373373209
 30
-0.0000000000000138
 10
-0.2394016584556269
 20
63.60780434882209
 30
-0.0000000000000138
 10
-0.138918428381622
 20
63.56478701785208
 30
-0.0000000000000138
 10
-0.0633737257496279
 20
63.51689599026209
 30
-0.0000000000000138
 10
-0.0134139467816254
 20
63.4644440801721
 30
-0.0000000000000138
 10
0.0000001076243734
 20
63.42262253008208
 30
-0.0000000000000138
 10
-0.0000000000006253
 20
63.40395664415207
 30
-0.0000000000000138
  0
ARC
  5
64
330
1F
100
AcDbEntity
  8
Default
100
AcDbCircle
 10
1.000000000004566
 20
39.02209362393209
 30
-0.0000000000000147
 40
1.0
100
AcDbArc
 50
179.9999999999992
 51
270.0
  0
LINE
  5
65
330
1F
100
AcDbEntity
  8
Default
100
AcDbLine
 10
33.58236405893113
 20
38.02209362393209
 30
-0.0000000000000147
 11
1.000000000004566
 21
38.02209362393209
 31
-0.0000000000000147
  0
LINE
  5
66
330
1F
100
AcDbEntity
  8
Default
100
AcDbLine
 10
0.0000000000045662
 20
39.02209362393211
 30
-0.0000000000000147
 11
0.0
 21
69.19758274983208
 31
-0.0000000000000147
  0
ARC
  5
67
330
1F
100
AcDbEntity
  8
Default
100
AcDbCircle
 10
-0.9999999999954338
 20
39.02209362393209
 30
-0.0000000000000147
 40
1.0
100
AcDbArc
 50
270.0
 51
0.0000000000008142
  0
LINE
  5
68
330
1F
100
AcDbEntity
  8
Default
100
AcDbLine
 10
-33.582364058922
 20
38.02209362393209
 30
-0.0000000000000147
 11
-0.9999999999954339
 21
38.02209362393209
 31
-0.0000000000000147
  0
SPLINE
  5
69
330
1F
100
AcDbEntity
  8
Default
100
AcDbSpline
210
0.0
220
0.0
230
1.0
 70
    12
 71
     2
 72
     6
 73
     3
 74
     0
 42
0.0000000001
 43
0.0000000001
 40
0.0
 40
0.0
 40
0.0
 40
22.75683051336797
 40
22.75683051336797
 40
22.75683051336797
 10
0.1157236636492485
 20
16.49999999989533
 30
0.0000000000000449
 41
1.0
 10
17.30984524389943
 20
17.50193971489857
 30
-0.0000000000000453
 41
0.9961355618452459
 10
34.50396682414511
 20
16.49999999993006
 30
0.0000000000000426
 41
1.0
  0
SPLINE
  5
6A
330
1F
100
AcDbEntity
  8
Default
100
AcDbSpline
210
0.0
220
0.0
230
1.0
 70
    12
 71
     2
 72
     6
 73
     3
 74
     0
 42
0.0000000001
 43
0.0000000001
 40
0.0
 40
0.0
 40
0.0
 40
22.75683051336797
 40
22.75683051336797
 40
22.75683051336797
 10
-0.1157236636492485
 20
16.49999999989533
 30
0.0000000000000449
 41
1.0
 10
-17.30984524389943
 20
17.50193971489857
 30
-0.0000000000000453
 41
0.9961355618452459
 10
-34.50396682414511
 20
16.49999999993006
 30
0.0000000000000426
 41
1.0
  0
SPLINE
  5
6B
330
1F
100
AcDbEntity
  8
Default
100
AcDbSpline
210
0.0
220
0.0
230
1.0
 70
    12
 71
     2
 72
     6
 73
     3
 74
     0
 42
0.0000000001
 43
0.0000000001
 40
0.0
 40
0.0
 40
0.0
 40
2.868532184539232
 40
2.868532184539232
 40
2.868532184539232
 10
0.0000000000021174
 20
13.63618804692707
 30
-0.0000000000001563
 41
1.0
 10
-0.0434134500202072
 20
15.07218645231145
 30
-0.0000000000001563
 41
0.9975081479017255
 10
0.1157236636541559
 20
16.49999999999921
 30
-0.0000000000001563
 41
1.0
  0
SPLINE
  5
6C
330
1F
100
AcDbEntity
  8
Default
100
AcDbSpline
210
0.0
220
0.0
230
1.0
 70
    12
 71
     2
 72
     6
 73
     3
 74
     0
 42
0.0000000001
 43
0.0000000001
 40
0.0
 40
0.0
 40
0.0
 40
2.868532184539232
 40
2.868532184539232
 40
2.868532184539232
 10
0.0000000000021174
 20
13.63618804692707
 30
-0.0000000000001563
 41
1.0
 10
0.043413450024676
 20
15.07218645231144
 30
-0.0000000000001563
 41
0.9975081479017255
 10
-0.1157236636494545
 20
16.49999999999923
 30
-0.0000000000001563
 41
1.0
  0
SPLINE
  5
6D
330
1F
100
AcDbEntity
  8
Default
100
AcDbSpline
210
0.0
220
0.0
230
1.0
 70
    24
 71
     2
 72
     6
 73
     3
 74
     0
 42
0.0000000001
 43
0.0000000001
 40
9.66508593103191
 40
9.66508593103191
 40
9.66508593103191
 40
18.75344333978
 40
18.75344333978
 40
18.75344333978
 10
-0.9999999999964154
 20
31.0
 30
0.0000000000000448
 10
-16.75846703879971
 20
31.0
 30
0.0000000000000437
 10
-32.516934077603
 20
31.0
 30
0.0000000000000426
  0
SPLINE
  5
6E
330
1F
100
AcDbEntity
  8
Default
100
AcDbSpline
210
0.0
220
0.0
230
1.0
 70
    24
 71
     2
 72
     6
 73
     3
 74
     0
 42
0.0000000001
 43
0.0000000001
 40
0.0
 40
0.0
 40
0.0
 40
9.088357408748088
 40
9.088357408748088
 40
9.088357408748088
 10
32.51693407761
 20
31.0
 30
0.0000000000000472
 10
16.75846703880671
 20
31.0
 30
0.0000000000000461
 10
1.000000000003421
 20
31.0
 30
0.000000000000045
  0
POLYLINE
  5
6F
330
1F
100
AcDbEntity
  8
Default
100
AcDb2dPolyline
 66
     1
 10
0.0
 20
0.0
 30
0.0000000000000449
  0
VERTEX
  5
70
330
6F
100
AcDbEntity
  8
Default
100
AcDbVertex
100
AcDb2dVertex
 10
0.0000000000014992
 20
6.0
 30
0.0000000000000449
  0
VERTEX
  5
71
330
6F
100
AcDbEntity
  8
Default
100
AcDbVertex
100
AcDb2dVertex
 10
0.0000000000034228
 20
30.0
 30
0.0000000000000449
  0
SEQEND
  5
72
330
6F
100
AcDbEntity
  8
Default
  0
SPLINE
  5
73
330
1F
100
AcDbEntity
  8
Default
100
AcDbSpline
210
0.0
220
0.0
230
1.0
 70
    12
 71
     2
 72
     6
 73
     3
 74
     0
 42
0.0000000001
 43
0.0000000001
 40
0.0
 40
0.0
 40
0.0
 40
1.570796326794897
 40
1.570796326794897
 40
1.570796326794897
 10
-0.9999999999964151
 20
31.00000000000016
 30
0.0000000000000216
 41
1.0
 10
0.0000000000035864
 20
31.0
 30
0.0000000000000216
 41
0.7071067811865476
 10
0.0000000000034232
 20
30.0
 30
0.0000000000000216
 41
1.0
  0
SPLINE
  5
74
330
1F
100
AcDbEntity
  8
Default
100
AcDbSpline
210
0.0
220
0.0
230
1.0
 70
    12
 71
     2
 72
     6
 73
     3
 74
     0
 42
0.0000000001
 43
0.0000000001
 40
0.0
 40
0.0
 40
0.0
 40
1.570796326794897
 40
1.570796326794897
 40
1.570796326794897
 10
1.000000000003423
 20
31.0
 30
0.0000000000000216
 41
1.0
 10
0.0000000000034215
 20
31.0
 30
0.0000000000000216
 41
0.7071067811865476
 10
0.0000000000034232
 20
30.0
 30
0.0000000000000216
 41
1.0
  0
LINE
  5
75
330
1F
100
AcDbEntity
  8
Default
100
AcDbLine
 10
0.0
 20
67.64578089793208
 30
-0.0000000000000147
 11
-35.93386437095824
 21
67.64578089793208
 31
-0.0000000000000147
  0
LINE
  5
76
330
1F
100
AcDbEntity
  8
Default
100
AcDbLine
 10
35.93386437095824
 20
67.64578089793208
 30
-0.0000000000000147
 11
0.0
 21
67.64578089793208
 31
-0.0000000000000147
  0
LINE
  5
77
330
1F
100
AcDbEntity
  8
Default
100
AcDbLine
 10
35.87603982241
 20
69.19758274983208
 30
-0.0000000000000147
 11
0.0
 21
69.19758274983208
 31
-0.0000000000000147
  0
LINE
  5
78
330
1F
100
AcDbEntity
  8
Default
100
AcDbLine
 10
0.0
 20
69.19758274983208
 30
-0.0000000000000147
 11
-35.87603982241
 21
69.19758274983208
 31
-0.0000000000000147
  0
SPLINE
  5
79
330
1F
100
AcDbEntity
  8
Default
100
AcDbSpline
210
0.0
220
0.0
230
1.0
 70
     8
 71
     3
 72
    16
 73
    12
 74
     0
 42
0.0000000001
 43
0.0000000001
 40
0.0
 40
0.0
 40
0.0
 40
0.0
 40
0.1578678692717
 40
0.311410862681
 40
0.4564772985592
 40
0.5892704528137
 40
0.7065565568992
 40
0.805944881461
 40
0.886367461386
 40
0.9491098980071
 40
1.0
 40
1.0
 40
1.0
 40
1.0
 10
32.519860304698
 20
67.49594471214208
 30
0.0000000000000048
 10
32.577764369444
 20
67.49594470971208
 30
0.0000000000000048
 10
32.692011247599
 20
67.49288482100208
 30
0.0000000000000048
 10
32.858968405036
 20
67.47919906674208
 30
0.0000000000000048
 10
33.015725740851
 20
67.45687421915208
 30
0.0000000000000048
 10
33.157612173365
 20
67.42662836473208
 30
0.0000000000000048
 10
33.280457993179
 20
67.38940904499209
 30
0.0000000000000048
 10
33.380941237014
 20
67.34639178696209
 30
0.0000000000000048
 10
33.45648601714
 20
67.2985008358621
 30
0.0000000000000048
 10
33.506445926118
 20
67.24604903127208
 30
0.0000000000000048
 10
33.519860181425
 20
67.20422754048208
 30
0.0000000000000048
 10
33.519860169631
 20
67.18556165378207
 30
0.0000000000000048
  0
SPLINE
  5
7A
330
1F
100
AcDbEntity
  8
Default
100
AcDbSpline
210
0.0
220
0.0
230
1.0
 70
     8
 71
     3
 72
    16
 73
    12
 74
     0
 42
0.0000000001
 43
0.0000000001
 40
0.0
 40
0.0
 40
0.0
 40
0.0
 40
0.1578679541107
 40
0.311411023911
 40
0.456477516639
 40
0.5892706987484
 40
0.7065567950055
 40
0.8059450739079
 40
0.88636757656
 40
0.9491099287516
 40
1.0
 40
1.0
 40
1.0
 40
1.0
 10
32.519860169631
 20
63.71434019710209
 30
0.0000000000000048
 10
32.577764298114
 20
63.71434019710209
 30
0.0000000000000048
 10
32.692011299959
 20
63.7112803065521
 30
0.0000000000000048
 10
32.85896863077
 20
63.6975945301421
 30
0.0000000000000048
 10
33.015726111002
 20
63.67526964278208
 30
0.0000000000000048
 10
33.157612644846
 20
63.64502373373209
 30
0.0000000000000048
 10
33.280458511175
 20
63.60780434882209
 30
0.0000000000000048
 10
33.380941741249
 20
63.56478701785208
 30
0.0000000000000048
 10
33.456486443881
 20
63.51689599026209
 30
0.0000000000000048
 10
33.506446222849
 20
63.4644440801721
 30
0.0000000000000048
 10
33.519860277255
 20
63.42262253008208
 30
0.0000000000000048
 10
33.51986016963
 20
63.40395664415207
 30
0.0000000000000048
  0
SPLINE
  5
7B
330
1F
100
AcDbEntity
  8
Default
100
AcDbSpline
210
0.0
220
0.0
230
1.0
 70
    24
 71
     3
 72
     8
 73
     4
 74
     0
 42
0.0000000001
 43
0.0000000001
 40
0.0
 40
0.0
 40
0.0
 40
0.0
 40
1.0
 40
1.0
 40
1.0
 40
1.0
 10
33.550652398667
 20
65.14626899086208
 30
0.0000000000000048
 10
34.37277811238
 20
65.14626899086208
 30
0.0000000000000048
 10
35.19490382608
 20
65.14626899086208
 30
0.0000000000000048
 10
36.01702953979
 20
65.14626899086208
 30
0.0000000000000048
  0
SPLINE
  5
7C
330
1F
100
AcDbEntity
  8
Default
100
AcDbSpline
210
0.0
220
0.0
230
1.0
 70
    24
 71
     3
 72
     8
 73
     4
 74
     0
 42
0.0000000001
 43
0.0000000001
 40
0.0
 40
0.0
 40
0.0
 40
0.0
 40
1.0
 40
1.0
 40
1.0
 40
1.0
 10
34.58387695373
 20
38.95602631173682
 30
0.0000000000000048
 10
34.22920469236
 20
46.74257186393278
 30
0.0000000000000048
 10
33.874532430997
 20
54.52911741612873
 30
0.0000000000000048
 10
33.519860169631
 20
62.31566296831535
 30
0.0000000000000048
  0
SPLINE
  5
7D
330
1F
100
AcDbEntity
  8
Default
100
AcDbSpline
210
0.0
220
0.0
230
1.0
 70
    24
 71
     3
 72
     8
 73
     4
 74
     0
 42
0.0000000001
 43
0.0000000001
 40
0.0
 40
0.0
 40
0.0
 40
0.0
 40
1.0
 40
1.0
 40
1.0
 40
1.0
 10
33.519860169631
 20
59.12709147743207
 30
0.0000000000000991
 10
33.519860169631
 20
61.81324819519209
 30
0.0000000000000688
 10
33.519860169631
 20
64.49940491296208
 30
0.0000000000000386
 10
33.519860169631
 20
67.18556163072209
 30
0.0000000000000159
  0
SPLINE
  5
7E
330
1F
100
AcDbEntity
  8
Default
100
AcDbSpline
210
0.0
220
0.0
230
1.0
 70
     8
 71
     3
 72
    16
 73
    12
 74
     0
 42
0.0000000001
 43
0.0000000001
 40
0.0
 40
0.0
 40
0.0
 40
0.0
 40
0.1578679541107
 40
0.311411023911
 40
0.456477516639
 40
0.5892706987484
 40
0.7065567950055
 40
0.8059450739079
 40
0.88636757656
 40
0.9491099287516
 40
1.0
 40
1.0
 40
1.0
 40
1.0
 10
32.519860169633
 20
58.81670901772209
 30
0.0000000000000048
 10
32.577764298116
 20
58.81670901772209
 30
0.0000000000000048
 10
32.692011299961
 20
58.81976890827208
 30
0.0000000000000048
 10
32.858968630772
 20
58.83345468469209
 30
0.0000000000000048
 10
33.015726111003
 20
58.8557795720521
 30
0.0000000000000048
 10
33.157612644848
 20
58.88602548109209
 30
0.0000000000000048
 10
33.280458511177
 20
58.9232448660121
 30
0.0000000000000048
 10
33.380941741251
 20
58.9662621969821
 30
0.0000000000000048
 10
33.456486443883
 20
59.0141532245721
 30
0.0000000000000048
 10
33.50644622285
 20
59.06660513466208
 30
0.0000000000000048
 10
33.519860277257
 20
59.1084266847421
 30
0.0000000000000048
 10
33.519860169631
 20
59.12709257067208
 30
0.0000000000000048
  0
SPLINE
  5
7F
330
1F
100
AcDbEntity
  8
Default
100
AcDbSpline
210
0.0
220
0.0
230
1.0
 70
    24
 71
     3
 72
     8
 73
     4
 74
     0
 42
0.0000000001
 43
0.0000000001
 40
0.0
 40
0.0
 40
0.0
 40
0.0
 40
1.0
 40
1.0
 40
1.0
 40
1.0
 10
35.00217992588
 20
38.96962190262408
 30
0.0000000000000048
 10
34.50807334046
 20
47.97138435151894
 30
0.0000000000000048
 10
34.013966755048
 20
56.97314680041381
 30
0.0000000000000048
 10
33.519860169631
 20
65.97490924930867
 30
0.0000000000000048
  0
SPLINE
  5
80
330
1F
100
AcDbEntity
  8
Default
100
AcDbSpline
210
0.0
220
0.0
230
1.0
 70
    24
 71
     3
 72
     8
 73
     4
 74
     0
 42
0.0000000001
 43
0.0000000001
 40
0.0
 40
0.0
 40
0.0
 40
0.0
 40
1.0
 40
1.0
 40
1.0
 40
1.0
 10
35.87603982241
 20
69.19758274983208
 30
0.0000000000000048
 10
36.25069321494
 20
59.14324003648224
 30
0.0000000000000048
 10
36.62534660747
 20
49.08889732312305
 30
0.0000000000000048
 10
37.0
 20
39.03455460977322
 30
0.0000000000000048
  0
SPLINE
  5
81
330
1F
100
AcDbEntity
  8
Default
100
AcDbSpline
210
0.0
220
0.0
230
1.0
 70
     8
 71
     3
 72
    11
 73
     7
 74
     0
 42
0.0000000001
 43
0.0000000001
 40
0.0
 40
0.0
 40
0.0
 40
0.0
 40
0.25
 40
0.5
 40
0.75
 40
1.0
 40
1.0
 40
1.0
 40
1.0
 10
33.582364058922
 20
38.02209362393209
 30
0.0000000000000048
 10
33.715895164206
 20
38.02209362393209
 30
0.0000000000000048
 10
33.986039219155
 20
38.07339448554344
 30
0.0000000000000048
 10
34.32405680375
 20
38.29215916572458
 30
0.0000000000000048
 10
34.54372788634
 20
38.61685228470343
 30
0.0000000000000048
 10
34.58713346209
 20
38.8711000244131
 30
0.0000000000000048
 10
34.58146152372
 20
38.99569653416467
 30
0.0000000000000048
  0
SPLINE
  5
82
330
1F
100
AcDbEntity
  8
Default
100
AcDbSpline
210
0.0
220
0.0
230
1.0
 70
    24
 71
     3
 72
     8
 73
     4
 74
     0
 42
0.0000000001
 43
0.0000000001
 40
0.0
 40
0.0
 40
0.0
 40
0.0
 40
1.0
 40
1.0
 40
1.0
 40
1.0
 10
37.0
 20
39.03455460977322
 30
-0.0000000000000024
 10
36.19462565124
 20
39.00837851042464
 30
0.0
 10
35.38925130249
 20
38.9822024110854
 30
0.0000000000000024
 10
34.58387695373
 20
38.95602631173682
 30
0.0000000000000048
  0
SPLINE
  5
83
330
1F
100
AcDbEntity
  8
Default
100
AcDbSpline
210
0.0
220
0.0
230
1.0
 70
     8
 71
     3
 72
    16
 73
    12
 74
     0
 42
0.0000000001
 43
0.0000000001
 40
0.0
 40
0.0
 40
0.0
 40
0.0
 40
0.1578678692717
 40
0.311410862681
 40
0.4564772985592
 40
0.5892704528137
 40
0.7065565568992
 40
0.805944881461
 40
0.886367461386
 40
0.9491098980071
 40
1.0
 40
1.0
 40
1.0
 40
1.0
 10
-32.519860304698
 20
67.49594471214208
 30
0.0000000000000048
 10
-32.577764369444
 20
67.49594470971208
 30
0.0000000000000048
 10
-32.692011247599
 20
67.49288482100208
 30
0.0000000000000048
 10
-32.858968405036
 20
67.47919906674208
 30
0.0000000000000048
 10
-33.015725740851
 20
67.45687421915208
 30
0.0000000000000048
 10
-33.157612173365
 20
67.42662836473208
 30
0.0000000000000048
 10
-33.280457993179
 20
67.38940904499209
 30
0.0000000000000048
 10
-33.380941237014
 20
67.34639178696209
 30
0.0000000000000048
 10
-33.45648601714
 20
67.2985008358621
 30
0.0000000000000048
 10
-33.506445926118
 20
67.24604903127208
 30
0.0000000000000048
 10
-33.519860181425
 20
67.20422754048208
 30
0.0000000000000048
 10
-33.519860169631
 20
67.18556165378207
 30
0.0000000000000048
  0
SPLINE
  5
84
330
1F
100
AcDbEntity
  8
Default
100
AcDbSpline
210
0.0
220
0.0
230
1.0
 70
     8
 71
     3
 72
    16
 73
    12
 74
     0
 42
0.0000000001
 43
0.0000000001
 40
0.0
 40
0.0
 40
0.0
 40
0.0
 40
0.1578679541107
 40
0.311411023911
 40
0.456477516639
 40
0.5892706987484
 40
0.7065567950055
 40
0.8059450739079
 40
0.88636757656
 40
0.9491099287516
 40
1.0
 40
1.0
 40
1.0
 40
1.0
 10
-32.519860169631
 20
63.71434019710209
 30
0.0000000000000048
 10
-32.577764298114
 20
63.71434019710209
 30
0.0000000000000048
 10
-32.692011299959
 20
63.7112803065521
 30
0.0000000000000048
 10
-32.85896863077
 20
63.6975945301421
 30
0.0000000000000048
 10
-33.015726111002
 20
63.67526964278208
 30
0.0000000000000048
 10
-33.157612644846
 20
63.64502373373209
 30
0.0000000000000048
 10
-33.280458511175
 20
63.60780434882209
 30
0.0000000000000048
 10
-33.380941741249
 20
63.56478701785208
 30
0.0000000000000048
 10
-33.456486443881
 20
63.51689599026209
 30
0.0000000000000048
 10
-33.506446222849
 20
63.4644440801721
 30
0.0000000000000048
 10
-33.519860277255
 20
63.42262253008208
 30
0.0000000000000048
 10
-33.51986016963
 20
63.40395664415207
 30
0.0000000000000048
  0
SPLINE
  5
85
330
1F
100
AcDbEntity
  8
Default
100
AcDbSpline
210
0.0
220
0.0
230
1.0
 70
    24
 71
     3
 72
     8
 73
     4
 74
     0
 42
0.0000000001
 43
0.0000000001
 40
0.0
 40
0.0
 40
0.0
 40
0.0
 40
1.0
 40
1.0
 40
1.0
 40
1.0
 10
-33.550652398667
 20
65.14626899086208
 30
0.0000000000000048
 10
-34.37277811238
 20
65.14626899086208
 30
0.0000000000000048
 10
-35.19490382608
 20
65.14626899086208
 30
0.0000000000000048
 10
-36.01702953979
 20
65.14626899086208
 30
0.0000000000000048
  0
SPLINE
  5
86
330
1F
100
AcDbEntity
  8
Default
100
AcDbSpline
210
0.0
220
0.0
230
1.0
 70
    24
 71
     3
 72
     8
 73
     4
 74
     0
 42
0.0000000001
 43
0.0000000001
 40
0.0
 40
0.0
 40
0.0
 40
0.0
 40
1.0
 40
1.0
 40
1.0
 40
1.0
 10
-34.58387695373
 20
38.95602631173682
 30
0.0000000000000048
 10
-34.22920469236
 20
46.74257186393278
 30
0.0000000000000048
 10
-33.874532430997
 20
54.52911741612873
 30
0.0000000000000048
 10
-33.519860169631
 20
62.31566296831535
 30
0.0000000000000048
  0
SPLINE
  5
87
330
1F
100
AcDbEntity
  8
Default
100
AcDbSpline
210
0.0
220
0.0
230
1.0
 70
    24
 71
     3
 72
     8
 73
     4
 74
     0
 42
0.0000000001
 43
0.0000000001
 40
0.0
 40
0.0
 40
0.0
 40
0.0
 40
1.0
 40
1.0
 40
1.0
 40
1.0
 10
-33.519860169631
 20
59.12709147743207
 30
0.0000000000000991
 10
-33.519860169631
 20
61.81324819519209
 30
0.0000000000000688
 10
-33.519860169631
 20
64.49940491296208
 30
0.0000000000000386
 10
-33.519860169631
 20
67.18556163072209
 30
0.0000000000000159
  0
SPLINE
  5
88
330
1F
100
AcDbEntity
  8
Default
100
AcDbSpline
210
0.0
220
0.0
230
1.0
 70
     8
 71
     3
 72
    16
 73
    12
 74
     0
 42
0.0000000001
 43
0.0000000001
 40
0.0
 40
0.0
 40
0.0
 40
0.0
 40
0.1578679541107
 40
0.311411023911
 40
0.456477516639
 40
0.5892706987484
 40
0.7065567950055
 40
0.8059450739079
 40
0.88636757656
 40
0.9491099287516
 40
1.0
 40
1.0
 40
1.0
 40
1.0
 10
-32.519860169633
 20
58.81670901772209
 30
0.0000000000000048
 10
-32.577764298116
 20
58.81670901772209
 30
0.0000000000000048
 10
-32.692011299961
 20
58.81976890827208
 30
0.0000000000000048
 10
-32.858968630772
 20
58.83345468469209
 30
0.0000000000000048
 10
-33.015726111003
 20
58.8557795720521
 30
0.0000000000000048
 10
-33.157612644848
 20
58.88602548109209
 30
0.0000000000000048
 10
-33.280458511177
 20
58.9232448660121
 30
0.0000000000000048
 10
-33.380941741251
 20
58.9662621969821
 30
0.0000000000000048
 10
-33.456486443883
 20
59.0141532245721
 30
0.0000000000000048
 10
-33.50644622285
 20
59.06660513466208
 30
0.0000000000000048
 10
-33.519860277257
 20
59.1084266847421
 30
0.0000000000000048
 10
-33.519860169631
 20
59.12709257067208
 30
0.0000000000000048
  0
SPLINE
  5
89
330
1F
100
AcDbEntity
  8
Default
100
AcDbSpline
210
0.0
220
0.0
230
1.0
 70
    24
 71
     3
 72
     8
 73
     4
 74
     0
 42
0.0000000001
 43
0.0000000001
 40
0.0
 40
0.0
 40
0.0
 40
0.0
 40
1.0
 40
1.0
 40
1.0
 40
1.0
 10
-35.00217992588
 20
38.96962190262408
 30
0.0000000000000048
 10
-34.50807334046
 20
47.97138435151894
 30
0.0000000000000048
 10
-34.013966755048
 20
56.97314680041381
 30
0.0000000000000048
 10
-33.519860169631
 20
65.97490924930867
 30
0.0000000000000048
  0
SPLINE
  5
8A
330
1F
100
AcDbEntity
  8
Default
100
AcDbSpline
210
0.0
220
0.0
230
1.0
 70
    24
 71
     3
 72
     8
 73
     4
 74
     0
 42
0.0000000001
 43
0.0000000001
 40
0.0
 40
0.0
 40
0.0
 40
0.0
 40
1.0
 40
1.0
 40
1.0
 40
1.0
 10
-35.87603982241
 20
69.19758274983208
 30
0.0000000000000048
 10
-36.25069321494
 20
59.14324003648224
 30
0.0000000000000048
 10
-36.62534660747
 20
49.08889732312305
 30
0.0000000000000048
 10
-37.0
 20
39.03455460977322
 30
0.0000000000000048
  0
SPLINE
  5
8B
330
1F
100
AcDbEntity
  8
Default
100
AcDbSpline
210
0.0
220
0.0
230
1.0
 70
     8
 71
     3
 72
    11
 73
     7
 74
     0
 42
0.0000000001
 43
0.0000000001
 40
0.0
 40
0.0
 40
0.0
 40
0.0
 40
0.25
 40
0.5
 40
0.75
 40
1.0
 40
1.0
 40
1.0
 40
1.0
 10
-33.582364058922
 20
38.02209362393209
 30
0.0000000000000048
 10
-33.715895164206
 20
38.02209362393209
 30
0.0000000000000048
 10
-33.986039219155
 20
38.07339448554344
 30
0.0000000000000048
 10
-34.32405680375
 20
38.29215916572458
 30
0.0000000000000048
 10
-34.54372788634
 20
38.61685228470343
 30
0.0000000000000048
 10
-34.58713346209
 20
38.8711000244131
 30
0.0000000000000048
 10
-34.58146152372
 20
38.99569653416467
 30
0.0000000000000048
  0
SPLINE
  5
8C
330
1F
100
AcDbEntity
  8
Default
100
AcDbSpline
210
0.0
220
0.0
230
1.0
 70
    24
 71
     3
 72
     8
 73
     4
 74
     0
 42
0.0000000001
 43
0.0000000001
 40
0.0
 40
0.0
 40
0.0
 40
0.0
 40
1.0
 40
1.0
 40
1.0
 40
1.0
 10
-37.0
 20
39.03455460977322
 30
-0.0000000000000024
 10
-36.19462565124
 20
39.00837851042464
 30
0.0
 10
-35.38925130249
 20
38.9822024110854
 30
0.0000000000000024
 10
-34.58387695373
 20
38.95602631173682
 30
0.0000000000000048
  0
SPLINE
  5
8D
330
1F
100
AcDbEntity
  8
Default
100
AcDbSpline
210
0.0
220
0.0
230
1.0
 70
    24
 71
     2
 72
     6
 73
     3
 74
     0
 42
0.0000000001
 43
0.0000000001
 40
0.0
 40
0.0
 40
0.0
 40
24.21957518457
 40
24.21957518457
 40
24.21957518457
 10
-35.25
 20
5.25
 30
0.0000000000000426
 10
0.0000000000014992
 20
5.25
 30
0.0000000000000449
 10
35.250000000003
 20
5.25
 30
0.0000000000000472
  0
SPLINE
  5
8E
330
1F
100
AcDbEntity
  8
Default
100
AcDbSpline
210
0.0
220
0.0
230
1.0
 70
    24
 71
     2
 72
     6
 73
     3
 74
     0
 42
0.0000000001
 43
0.0000000001
 40
0.0
 40
0.0
 40
0.0
 40
27.71957518457
 40
27.71957518457
 40
27.71957518457
 10
-37.0
 20
6.0
 30
0.0000000000000426
 10
0.0000000000014992
 20
6.0
 30
0.0000000000000449
 10
37.000000000003
 20
6.0
 30
0.0000000000000472
  0
SPLINE
  5
8F
330
1F
100
AcDbEntity
  8
Default
100
AcDbSpline
210
0.0
220
0.0
230
1.0
 70
    24
 71
     2
 72
     6
 73
     3
 74
     0
 42
0.0000000001
 43
0.0000000001
 40
0.0
 40
0.0
 40
0.0
 40
22.88147671677
 40
22.88147671677
 40
22.88147671677
 10
-34.580950766099
 20
11.5
 30
0.0000000000000426
 10
0.0000000000024976
 20
11.5
 30
0.0000000000000449
 10
34.580950766104
 20
11.5
 30
0.0000000000000472
  0
SPLINE
  5
90
330
1F
100
AcDbEntity
  8
Default
100
AcDbSpline
210
0.0
220
0.0
230
1.0
 70
    24
 71
     2
 72
     6
 73
     3
 74
     0
 42
0.0000000001
 43
0.0000000001
 40
0.0
 40
0.0
 40
0.0
 40
1.0
 40
1.0
 40
1.0
 10
35.03492076949875
 20
24.5
 30
0.0000000000000696
 10
34.2759274019213
 20
24.5
 30
0.0000000000000696
 10
33.51693403434385
 20
24.5
 30
0.0000000000000696
  0
SPLINE
  5
91
330
1F
100
AcDbEntity
  8
Default
100
AcDbSpline
210
0.0
220
0.0
230
1.0
 70
    12
 71
     2
 72
     8
 73
     5
 74
     0
 42
0.0000000001
 43
0.0000000001
 40
0.0
 40
0.0
 40
0.0
 40
12.00000005675
 40
12.00000005675
 40
13.5707963835449
 40
13.5707963835449
 40
13.5707963835449
 10
33.51693407761
 20
30.0
 30
0.0000000000000472
 41
1.0
 10
33.516934029805
 20
24.0
 30
0.0000000000000472
 41
1.0
 10
33.516933982
 20
17.65978005436675
 30
0.0000000000000782
 41
1.0
 10
33.516933982
 20
16.65978005436675
 30
0.0000000000000782
 41
0.7071067811865476
 10
32.516933982
 20
16.65978005436675
 30
0.0000000000000782
 41
1.0
  0
SPLINE
  5
92
330
1F
100
AcDbEntity
  8
Default
100
AcDbSpline
210
0.0
220
0.0
230
1.0
 70
    24
 71
     2
 72
     6
 73
     3
 74
     0
 42
0.0000000001
 43
0.0000000001
 40
0.0
 40
0.0
 40
0.0
 40
4.062243455677031
 40
4.062243455677031
 40
4.062243455677031
 10
35.91942806680761
 20
24.5
 30
0.0000000000000472
 10
35.89627085079442
 20
26.53098971357421
 30
0.0000000000000472
 10
35.87311363478123
 20
28.56197942714841
 30
0.0000000000000472
  0
SPLINE
  5
93
330
1F
100
AcDbEntity
  8
Default
100
AcDbSpline
210
0.0
220
0.0
230
1.0
 70
    24
 71
     2
 72
     6
 73
     3
 74
     0
 42
0.0000000001
 43
0.0000000001
 40
0.0
 40
0.0
 40
0.0
 40
1.0
 40
1.0
 40
1.0
 10
36.99999999999999
 20
24.5
 30
0.0000000000000682
 10
36.01746038474937
 20
24.5
 30
0.0000000000000682
 10
35.03492076949875
 20
24.5
 30
0.0000000000000682
  0
SPLINE
  5
94
330
1F
100
AcDbEntity
  8
Default
100
AcDbSpline
210
0.0
220
0.0
230
1.0
 70
    24
 71
     2
 72
     6
 73
     3
 74
     0
 42
0.0000000001
 43
0.0000000001
 40
0.0
 40
0.0
 40
0.0
 40
18.5
 40
18.5
 40
18.5
 10
37.0
 20
6.0
 30
0.0000000000000472
 10
37.0
 20
15.25
 30
0.0000000000000472
 10
37.0
 20
24.5
 30
0.0000000000000472
  0
SPLINE
  5
95
330
1F
100
AcDbEntity
  8
Default
100
AcDbSpline
210
0.0
220
0.0
230
1.0
 70
    24
 71
     2
 72
     6
 73
     3
 74
     0
 42
0.0000000001
 43
0.0000000001
 40
0.0
 40
0.0
 40
0.0
 40
13.00792407588883
 40
13.00792407588883
 40
13.00792407588883
 10
35.03492076949875
 20
24.5
 30
0.0000000000000472
 10
34.80793576780233
 20
17.99999999999793
 30
0.0000000000000472
 10
34.5809507661059
 20
11.49999999999586
 30
0.0000000000000472
  0
SPLINE
  5
96
330
1F
100
AcDbEntity
  8
Default
100
AcDbSpline
210
0.0
220
0.0
230
1.0
 70
    24
 71
     2
 72
     6
 73
     3
 74
     0
 42
0.0000000001
 43
0.0000000001
 40
0.0
 40
0.0
 40
0.0
 40
2.356179652773999
 40
2.356179652773999
 40
2.356179652773999
 10
35.873113634782
 20
28.56197942715
 30
0.0000000000000472
 10
34.695023808395
 20
28.56197942715
 30
0.0000000000000472
 10
33.516933982008
 20
28.56197942715
 30
0.0000000000000472
  0
SPLINE
  5
97
330
1F
100
AcDbEntity
  8
Default
100
AcDbSpline
210
0.0
220
0.0
230
1.0
 70
    12
 71
     2
 72
     6
 73
     3
 74
     0
 42
0.0000000001
 43
0.0000000001
 40
0.0
 40
0.0
 40
0.0
 40
2.868532184539232
 40
2.868532184539232
 40
2.868532184539232
 10
34.61969048780366
 20
13.63618804692707
 30
0.0000000000000472
 41
1.0
 10
34.66310393782621
 20
15.07218645231144
 30
0.0000000000000472
 41
0.9975081479017255
 10
34.50396682415209
 20
16.49999999999923
 30
0.0000000000000472
 41
1.0
  0
SPLINE
  5
98
330
1F
100
AcDbEntity
  8
Default
100
AcDbSpline
210
0.0
220
0.0
230
1.0
 70
    12
 71
     2
 72
     6
 73
     3
 74
     0
 42
0.0000000001
 43
0.0000000001
 40
0.0
 40
0.0
 40
0.0
 40
1.570796326794897
 40
1.570796326794897
 40
1.570796326794897
 10
33.51693407761
 20
30.0
 30
0.0000000000000472
 41
1.0
 10
33.51693407761
 20
31.0
 30
0.0000000000000472
 41
0.7071067811865476
 10
32.51693407761
 20
31.0
 30
0.0000000000000472
 41
1.0
  0
SPLINE
  5
99
330
1F
100
AcDbEntity
  8
Default
100
AcDbSpline
210
0.0
220
0.0
230
1.0
 70
    24
 71
     2
 72
     6
 73
     3
 74
     0
 42
0.0000000001
 43
0.0000000001
 40
0.0
 40
0.0
 40
0.0
 40
5.257497694941997
 40
5.257497694941997
 40
5.257497694941997
 10
35.50005405265
 20
-0.0015478654500001
 30
0.0000000000000472
 10
35.37502702632379
 20
2.624226067273099
 30
0.0000000000000472
 10
35.24999999999759
 20
5.249999999996199
 30
0.0000000000000472
  0
SPLINE
  5
9A
330
1F
100
AcDbEntity
  8
Default
100
AcDbSpline
210
0.0
220
0.0
230
1.0
 70
    24
 71
     2
 72
     6
 73
     3
 74
     0
 42
0.0000000001
 43
0.0000000001
 40
0.0
 40
0.0
 40
0.0
 40
1.374946818613001
 40
1.374946818613001
 40
1.374946818613001
 10
36.875
 20
0.0
 30
0.0000000000000472
 10
36.18752702632639
 20
-0.0007739327233338
 30
0.0000000000000472
 10
35.50005405265277
 20
-0.0015478654466676
 30
0.0000000000000472
  0
SPLINE
  5
9B
330
1F
100
AcDbEntity
  8
Default
100
AcDbSpline
210
0.0
220
0.0
230
1.0
 70
    24
 71
     2
 72
     6
 73
     3
 74
     0
 42
0.0000000001
 43
0.0000000001
 40
0.0
 40
0.0
 40
0.0
 40
6.0
 40
6.0
 40
6.0
 10
36.875
 20
6.0
 30
0.0000000000000472
 10
36.875
 20
3.0
 30
0.0000000000000472
 10
36.875
 20
0.0
 30
0.0000000000000472
  0
SPLINE
  5
9C
330
1F
100
AcDbEntity
  8
Default
100
AcDbSpline
210
0.0
220
0.0
230
1.0
 70
    24
 71
     2
 72
     6
 73
     3
 74
     0
 42
0.0000000001
 43
0.0000000001
 40
0.0
 40
0.0
 40
0.0
 40
5.5
 40
5.5
 40
5.5
 10
34.5809507661
 20
11.5
 30
0.0000000000000472
 10
34.5809507661
 20
8.75
 30
0.0000000000000472
 10
34.5809507661
 20
6.0
 30
0.0000000000000472
  0
SPLINE
  5
9D
330
1F
100
AcDbEntity
  8
Default
100
AcDbSpline
210
0.0
220
0.0
230
1.0
 70
    24
 71
     2
 72
     6
 73
     3
 74
     0
 42
0.0000000001
 43
0.0000000001
 40
0.0
 40
0.0
 40
0.0
 40
1.0
 40
1.0
 40
1.0
 10
-35.03492076949175
 20
24.5
 30
0.000000000000083
 10
-34.27592734957504
 20
24.5
 30
0.000000000000083
 10
-33.51693392965834
 20
24.5
 30
0.000000000000083
  0
SPLINE
  5
9E
330
1F
100
AcDbEntity
  8
Default
100
AcDbSpline
210
0.0
220
0.0
230
1.0
 70
    12
 71
     2
 72
     8
 73
     5
 74
     0
 42
0.0000000001
 43
0.0000000001
 40
0.0
 40
0.0
 40
0.0
 40
12.00000005675
 40
12.00000005675
 40
13.5707963835449
 40
13.5707963835449
 40
13.5707963835449
 10
-33.516933886394
 20
30.0
 30
0.0000000000000426
 41
1.0
 10
-33.516933934197
 20
24.0
 30
0.0000000000000426
 41
1.0
 10
-33.516933982
 20
17.65978005436675
 30
0.0000000000000736
 41
1.0
 10
-33.516933982
 20
16.65978005436675
 30
0.0000000000000736
 41
0.7071067811865476
 10
-32.516933982
 20
16.65978005436675
 30
0.0000000000000736
 41
1.0
  0
SPLINE
  5
9F
330
1F
100
AcDbEntity
  8
Default
100
AcDbSpline
210
0.0
220
0.0
230
1.0
 70
    24
 71
     2
 72
     6
 73
     3
 74
     0
 42
0.0000000001
 43
0.0000000001
 40
0.0
 40
0.0
 40
0.0
 40
4.062243455677031
 40
4.062243455677031
 40
4.062243455677031
 10
-35.91942806680061
 20
24.5
 30
0.0000000000000426
 10
-35.89627085078742
 20
26.53098971357421
 30
0.0000000000000426
 10
-35.87311363477423
 20
28.56197942714841
 30
0.0000000000000426
  0
SPLINE
  5
A0
330
1F
100
AcDbEntity
  8
Default
100
AcDbSpline
210
0.0
220
0.0
230
1.0
 70
    24
 71
     2
 72
     6
 73
     3
 74
     0
 42
0.0000000001
 43
0.0000000001
 40
0.0
 40
0.0
 40
0.0
 40
1.0
 40
1.0
 40
1.0
 10
-35.03492076949175
 20
24.5
 30
0.000000000000083
 10
-36.01746038474587
 20
24.5
 30
0.000000000000083
 10
-37.0
 20
24.5
 30
0.000000000000083
  0
SPLINE
  5
A1
330
1F
100
AcDbEntity
  8
Default
100
AcDbSpline
210
0.0
220
0.0
230
1.0
 70
    24
 71
     2
 72
     6
 73
     3
 74
     0
 42
0.0000000001
 43
0.0000000001
 40
0.0
 40
0.0
 40
0.0
 40
13.00792407588883
 40
13.00792407588883
 40
13.00792407588883
 10
-35.03492076949175
 20
24.5
 30
0.0000000000000426
 10
-34.80793576779533
 20
17.99999999999793
 30
0.0000000000000426
 10
-34.5809507660989
 20
11.49999999999586
 30
0.0000000000000426
  0
SPLINE
  5
A2
330
1F
100
AcDbEntity
  8
Default
100
AcDbSpline
210
0.0
220
0.0
230
1.0
 70
    24
 71
     2
 72
     6
 73
     3
 74
     0
 42
0.0000000001
 43
0.0000000001
 40
0.0
 40
0.0
 40
0.0
 40
18.5
 40
18.5
 40
18.5
 10
-37.0
 20
6.0
 30
0.0000000000000426
 10
-37.0
 20
15.25
 30
0.0000000000000426
 10
-37.0
 20
24.5
 30
0.0000000000000426
  0
SPLINE
  5
A3
330
1F
100
AcDbEntity
  8
Default
100
AcDbSpline
210
0.0
220
0.0
230
1.0
 70
    12
 71
     2
 72
     6
 73
     3
 74
     0
 42
0.0000000001
 43
0.0000000001
 40
0.0
 40
0.0
 40
0.0
 40
2.868532184539272
 40
2.868532184539272
 40
2.868532184539272
 10
-34.50396682415308
 20
16.49999999999924
 30
0.0000000000000426
 41
1.0
 10
-34.66310393782721
 20
15.07218645231144
 30
0.0000000000000426
 41
0.9975081479017254
 10
-34.61969048780466
 20
13.63618804692705
 30
0.0000000000000426
 41
1.0
  0
SPLINE
  5
A4
330
1F
100
AcDbEntity
  8
Default
100
AcDbSpline
210
0.0
220
0.0
230
1.0
 70
    12
 71
     2
 72
     6
 73
     3
 74
     0
 42
0.0000000001
 43
0.0000000001
 40
0.0
 40
0.0
 40
0.0
 40
1.570796326794897
 40
1.570796326794897
 40
1.570796326794897
 10
-32.516933886394
 20
31.0
 30
0.0000000000000426
 41
1.0
 10
-33.516933886394
 20
31.0
 30
0.0000000000000426
 41
0.7071067811865476
 10
-33.516933886394
 20
30.0
 30
0.0000000000000426
 41
1.0
  0
SPLINE
  5
A5
330
1F
100
AcDbEntity
  8
Default
100
AcDbSpline
210
0.0
220
0.0
230
1.0
 70
    24
 71
     2
 72
     6
 73
     3
 74
     0
 42
0.0000000001
 43
0.0000000001
 40
0.0
 40
0.0
 40
0.0
 40
2.356179652773999
 40
2.356179652773999
 40
2.356179652773999
 10
-35.873113634775
 20
28.56197942715
 30
0.0000000000000426
 10
-34.695023808388
 20
28.56197942715
 30
0.0000000000000426
 10
-33.516933982001
 20
28.56197942715
 30
0.0000000000000426
  0
SPLINE
  5
A6
330
1F
100
AcDbEntity
  8
Default
100
AcDbSpline
210
0.0
220
0.0
230
1.0
 70
    24
 71
     2
 72
     6
 73
     3
 74
     0
 42
0.0000000001
 43
0.0000000001
 40
0.0
 40
0.0
 40
0.0
 40
5.257497694941997
 40
5.257497694941997
 40
5.257497694941997
 10
-35.500054052652
 20
-0.0015478654500001
 30
0.0000000000000426
 10
-35.3750270263258
 20
2.624226067273099
 30
0.0000000000000426
 10
-35.24999999999959
 20
5.249999999996199
 30
0.0000000000000426
  0
SPLINE
  5
A7
330
1F
100
AcDbEntity
  8
Default
100
AcDbSpline
210
0.0
220
0.0
230
1.0
 70
    24
 71
     2
 72
     6
 73
     3
 74
     0
 42
0.0000000001
 43
0.0000000001
 40
0.0
 40
0.0
 40
0.0
 40
6.0
 40
6.0
 40
6.0
 10
-36.875
 20
6.0
 30
0.0000000000000426
 10
-36.875
 20
3.0
 30
0.0000000000000426
 10
-36.875
 20
0.0
 30
0.0000000000000426
  0
SPLINE
  5
A8
330
1F
100
AcDbEntity
  8
Default
100
AcDbSpline
210
0.0
220
0.0
230
1.0
 70
    24
 71
     2
 72
     6
 73
     3
 74
     0
 42
0.0000000001
 43
0.0000000001
 40
0.0
 40
0.0
 40
0.0
 40
1.374946818613001
 40
1.374946818613001
 40
1.374946818613001
 10
-36.875
 20
0.0
 30
0.0000000000000426
 10
-36.18752702632639
 20
-0.0007739327233338
 30
0.0000000000000426
 10
-35.50005405265277
 20
-0.0015478654466676
 30
0.0000000000000426
  0
SPLINE
  5
A9
330
1F
100
AcDbEntity
  8
Default
100
AcDbSpline
210
0.0
220
0.0
230
1.0
 70
    24
 71
     2
 72
     6
 73
     3
 74
     0
 42
0.0000000001
 43
0.0000000001
 40
0.0
 40
0.0
 40
0.0
 40
5.5
 40
5.5
 40
5.5
 10
-34.580950766099
 20
11.5
 30
0.0000000000000426
 10
-34.580950766099
 20
8.75
 30
0.0000000000000426
 10
-34.580950766099
 20
6.0
 30
0.0000000000000426
  0
ENDSEC
  0
SECTION
  2
OBJECTS
  0
DICTIONARY
  5
C
330
0
100
AcDbDictionary
281
     1
  3
ACAD_GROUP
350
D
  3
ACAD_LAYOUT
350
1A
  3
ACAD_MLEADERSTYLE
350
AB
  3
ACAD_MLINESTYLE
350
17
  3
ACAD_PLOTSETTINGS
350
19
  3
ACAD_PLOTSTYLENAME
350
E
  3
ACAD_TABLESTYLE
350
AA
  3
ACAD_VISUALSTYLE
350
2A
  0
DICTIONARY
  5
D
102
{ACAD_REACTORS
330
C
102
}
330
C
100
AcDbDictionary
281
     1
  0
DICTIONARY
  5
1A
102
{ACAD_REACTORS
330
C
102
}
330
C
100
AcDbDictionary
281
     1
  3
Layout1
350
1E
  3
Layout2
350
26
  3
Model
350
22
  0
DICTIONARY
  5
AB
102
{ACAD_REACTORS
330
C
102
}
330
C
100
AcDbDictionary
281
     1
  0
DICTIONARY
  5
17
102
{ACAD_REACTORS
330
C
102
}
330
C
100
AcDbDictionary
281
     1
  3
Standard
350
18
  0
DICTIONARY
  5
19
102
{ACAD_REACTORS
330
C
102
}
330
C
100
AcDbDictionary
281
     1
  0
ACDBDICTIONARYWDFLT
  5
E
102
{ACAD_REACTORS
330
C
102
}
330
C
100
AcDbDictionary
281
     1
  3
Normal
350
F
100
AcDbDictionaryWithDefault
340
F
  0
DICTIONARY
  5
AA
102
{ACAD_REACTORS
330
C
102
}
330
C
100
AcDbDictionary
281
     1
  0
DICTIONARY
  5
2A
102
{ACAD_REACTORS
330
C
102
}
330
C
100
AcDbDictionary
281
     1
  3
2dWireframe
350
2F
  3
3D Hidden
350
31
  3
3dWireframe
350
30
  3
Basic
350
32
  3
Brighten
350
36
  3
ColorChange
350
3A
  3
Conceptual
350
34
  3
Dim
350
35
  3
Facepattern
350
39
  3
Flat
350
2B
  3
FlatWithEdges
350
2C
  3
Gouraud
350
2D
  3
GouraudWithEdges
350
2E
  3
Linepattern
350
38
  3
Realistic
350
33
  3
Thicken
350
37
  0
LAYOUT
  5
1E
102
{ACAD_REACTORS
330
1A
102
}
330
1A
100
AcDbPlotSettings
  1

  2
none_device
  4

  6

 40
0.0
 41
0.0
 42
0.0
 43
0.0
 44
0.0
 45
0.0
 46
0.0
 47
0.0
 48
0.0
 49
0.0
140
0.0
141
0.0
142
1.0
143
1.0
 70
   688
 72
     0
 73
     0
 74
     5
  7

 75
    16
 76
     0
 77
     2
 78
   300
147
1.0
148
0.0
149
0.0
100
AcDbLayout
  1
Layout1
 70
     1
 71
     1
 10
0.0
 20
0.0
 11
12.0
 21
9.0
 12
0.0
 22
0.0
 32
0.0
 14
1.000000000000000E+20
 24
1.000000000000000E+20
 34
1.000000000000000E+20
 15
-1.000000000000000E+20
 25
-1.000000000000000E+20
 35
-1.000000000000000E+20
146
0.0
 13
0.0
 23
0.0
 33
0.0
 16
1.0
 26
0.0
 36
0.0
 17
0.0
 27
1.0
 37
0.0
 76
     0
330
1B
  0
LAYOUT
  5
26
102
{ACAD_REACTORS
330
1A
102
}
330
1A
100
AcDbPlotSettings
  1

  2
none_device
  4

  6

 40
0.0
 41
0.0
 42
0.0
 43
0.0
 44
0.0
 45
0.0
 46
0.0
 47
0.0
 48
0.0
 49
0.0
140
0.0
141
0.0
142
1.0
143
1.0
 70
   688
 72
     0
 73
     0
 74
     5
  7

 75
    16
 76
     0
 77
     2
 78
   300
147
1.0
148
0.0
149
0.0
100
AcDbLayout
  1
Layout2
 70
     1
 71
     2
 10
0.0
 20
0.0
 11
0.0
 21
0.0
 12
0.0
 22
0.0
 32
0.0
 14
0.0
 24
0.0
 34
0.0
 15
0.0
 25
0.0
 35
0.0
146
0.0
 13
0.0
 23
0.0
 33
0.0
 16
1.0
 26
0.0
 36
0.0
 17
0.0
 27
1.0
 37
0.0
 76
     0
330
23
  0
LAYOUT
  5
22
102
{ACAD_REACTORS
330
1A
102
}
330
1A
100
AcDbPlotSettings
  1

  2
none_device
  4

  6

 40
0.0
 41
0.0
 42
0.0
 43
0.0
 44
0.0
 45
0.0
 46
0.0
 47
0.0
 48
0.0
 49
0.0
140
0.0
141
0.0
142
1.0
143
1.0
 70
  1712
 72
     0
 73
     0
 74
     0
  7

 75
     0
 76
     0
 77
     2
 78
   300
147
1.0
148
0.0
149
0.0
100
AcDbLayout
  1
Model
 70
     1
 71
     0
 10
0.0
 20
0.0
 11
12.0
 21
9.0
 12
0.0
 22
0.0
 32
0.0
 14
-37.0
 24
-0.0015478654500001
 34
-0.0000000000001563
 15
79.3582084420873
 25
69.19758274983208
 35
0.0000000000000991
146
0.0
 13
0.0
 23
0.0
 33
0.0
 16
1.0
 26
0.0
 36
0.0
 17
0.0
 27
1.0
 37
0.0
 76
     0
330
1F
331
29
  0
MLINESTYLE
  5
18
102
{ACAD_REACTORS
330
17
102
}
330
17
100
AcDbMlineStyle
  2
Standard
 70
     0
  3

 62
   256
 51
90.0
 52
90.0
 71
     2
 49
0.5
 62
   256
  6
BYLAYER
 49
-0.5
 62
   256
  6
BYLAYER
  0
ACDBPLACEHOLDER
  5
F
102
{ACAD_REACTORS
330
E
102
}
330
E
  0
VISUALSTYLE
  5
2F
102
{ACAD_REACTORS
330
2A
102
}
330
2A
100
AcDbVisualStyle
  2
2dWireframe
 70
     4
 71
     0
 72
     2
 73
     0
 90
        0
 40
-0.6
 41
-30.0
 62
     5
 63
     7
421
 16777215
 74
     1
 91
        4
 64
     7
 65
   257
 75
     1
175
     1
 42
1.0
 92
        0
 66
   257
 43
1.0
 76
     1
 77
     6
 78
     2
 67
     7
 79
     5
170
     0
171
     0
290
     0
174
     0
 93
        1
 44
0.0
173
     0
291
     0
 45
0.0
1001
ACAD
1000
AcDbSavedByObjectVersion
1070
     0
  0
VISUALSTYLE
  5
31
102
{ACAD_REACTORS
330
2A
102
}
330
2A
100
AcDbVisualStyle
  2
3D Hidden
 70
     6
 71
     1
 72
     2
 73
     2
 90
        0
 40
-0.6
 41
-30.0
 62
     5
 63
     7
421
 16777215
 74
     2
 91
        2
 64
     7
 65
   257
 75
     2
175
     1
 42
40.0
 92
        0
 66
   257
 43
1.0
 76
     1
 77
     6
 78
     2
 67
     7
 79
     3
170
     0
171
     0
290
     0
174
     0
 93
        1
 44
0.0
173
     0
291
     0
 45
0.0
1001
ACAD
1000
AcDbSavedByObjectVersion
1070
     0
  0
VISUALSTYLE
  5
30
102
{ACAD_REACTORS
330
2A
102
}
330
2A
100
AcDbVisualStyle
  2
3dWireframe
 70
     5
 71
     0
 72
     2
 73
     0
 90
        0
 40
-0.6
 41
-30.0
 62
     5
 63
     7
421
 16777215
 74
     1
 91
        4
 64
     7
 65
   257
 75
     1
175
     1
 42
1.0
 92
        0
 66
   257
 43
1.0
 76
     1
 77
     6
 78
     2
 67
     7
 79
     5
170
     0
171
     0
290
     0
174
     0
 93
        1
 44
0.0
173
     0
291
     0
 45
0.0
1001
ACAD
1000
AcDbSavedByObjectVersion
1070
     0
  0
VISUALSTYLE
  5
32
102
{ACAD_REACTORS
330
2A
102
}
330
2A
100
AcDbVisualStyle
  2
Basic
 70
     7
 71
     1
 72
     0
 73
     1
 90
        0
 40
-0.6
 41
-30.0
 62
     5
 63
     7
421
 16777215
 74
     0
 91
        4
 64
     7
 65
   257
 75
     1
175
     1
 42
1.0
 92
        8
 66
     7
 43
1.0
 76
     1
 77
     6
 78
     2
 67
     7
 79
     5
170
     0
171
     0
290
     0
174
     0
 93
        1
 44
0.0
173
     0
291
     1
 45
0.0
1001
ACAD
1000
AcDbSavedByObjectVersion
1070
     0
  0
VISUALSTYLE
  5
36
102
{ACAD_REACTORS
330
2A
102
}
330
2A
100
AcDbVisualStyle
  2
Brighten
 70
    12
 71
     2
 72
     2
 73
     0
 90
        0
 40
-0.6
 41
-30.0
 62
     5
 63
     7
421
 16777215
 74
     1
 91
        4
 64
     7
 65
   257
 75
     1
175
     1
 42
1.0
 92
        8
 66
     7
 43
1.0
 76
     1
 77
     6
 78
     2
 67
     7
 79
     5
170
     0
171
     0
290
     0
174
     0
 93
        1
 44
50.0
173
     0
291
     1
 45
0.0
1001
ACAD
1000
AcDbSavedByObjectVersion
1070
     0
  0
VISUALSTYLE
  5
3A
102
{ACAD_REACTORS
330
2A
102
}
330
2A
100
AcDbVisualStyle
  2
ColorChange
 70
    16
 71
     2
 72
     2
 73
     3
 90
        0
 40
-0.6
 41
-30.0
 62
     5
 63
     8
421
  8421504
 74
     1
 91
        4
 64
     7
 65
   257
 75
     1
175
     1
 42
1.0
 92
        8
 66
     8
424
  8421504
 43
1.0
 76
     1
 77
     6
 78
     2
 67
     7
 79
     5
170
     0
171
     0
290
     0
174
     0
 93
        1
 44
0.0
173
     0
291
     1
 45
0.0
1001
ACAD
1000
AcDbSavedByObjectVersion
1070
     0
  0
VISUALSTYLE
  5
34
102
{ACAD_REACTORS
330
2A
102
}
330
2A
100
AcDbVisualStyle
  2
Conceptual
 70
     9
 71
     3
 72
     2
 73
     0
 90
        0
 40
-0.6
 41
-30.0
 62
     5
 63
     7
421
 16777215
 74
     2
 91
        2
 64
     7
 65
   257
 75
     1
175
     1
 42
40.0
 92
        8
 66
     7
 43
1.0
 76
     1
 77
     6
 78
     2
 67
     7
 79
     3
170
     0
171
     0
290
     0
174
     0
 93
        1
 44
0.0
173
     0
291
     0
 45
0.0
1001
ACAD
1000
AcDbSavedByObjectVersion
1070
     0
  0
VISUALSTYLE
  5
35
102
{ACAD_REACTORS
330
2A
102
}
330
2A
100
AcDbVisualStyle
  2
Dim
 70
    11
 71
     2
 72
     2
 73
     0
 90
        0
 40
-0.6
 41
-30.0
 62
     5
 63
     7
421
 16777215
 74
     1
 91
        4
 64
     7
 65
   257
 75
     1
175
     1
 42
1.0
 92
        8
 66
     7
 43
1.0
 76
     1
 77
     6
 78
     2
 67
     7
 79
     5
170
     0
171
     0
290
     0
174
     0
 93
        1
 44
-50.0
173
     0
291
     1
 45
0.0
1001
ACAD
1000
AcDbSavedByObjectVersion
1070
     0
  0
VISUALSTYLE
  5
39
102
{ACAD_REACTORS
330
2A
102
}
330
2A
100
AcDbVisualStyle
  2
Facepattern
 70
    15
 71
     2
 72
     2
 73
     0
 90
        0
 40
-0.6
 41
-30.0
 62
     5
 63
     7
421
 16777215
 74
     1
 91
        4
 64
     7
 65
   257
 75
     1
175
     1
 42
1.0
 92
        8
 66
     7
 43
1.0
 76
     1
 77
     6
 78
     2
 67
     7
 79
     5
170
     0
171
     0
290
     0
174
     0
 93
        1
 44
0.0
173
     0
291
     1
 45
0.0
1001
ACAD
1000
AcDbSavedByObjectVersion
1070
     0
  0
VISUALSTYLE
  5
2B
102
{ACAD_REACTORS
330
2A
102
}
330
2A
100
AcDbVisualStyle
  2
Flat
 70
     0
 71
     2
 72
     1
 73
     1
 90
        2
 40
-0.6
 41
30.0
 62
     5
 63
     7
421
 16777215
 74
     0
 91
        4
 64
     7
 65
   257
 75
     1
175
     1
 42
1.0
 92
        8
 66
     7
 43
1.0
 76
     1
 77
     6
 78
     2
 67
     7
 79
     5
170
     0
171
     0
290
     0
174
     0
 93
       13
 44
0.0
173
     0
291
     1
 45
0.0
1001
ACAD
1000
AcDbSavedByObjectVersion
1070
     0
  0
VISUALSTYLE
  5
2C
102
{ACAD_REACTORS
330
2A
102
}
330
2A
100
AcDbVisualStyle
  2
FlatWithEdges
 70
     1
 71
     2
 72
     1
 73
     1
 90
        2
 40
-0.6
 41
30.0
 62
     5
 63
     7
421
 16777215
 74
     1
 91
        4
 64
     7
 65
   257
 75
     1
175
     1
 42
1.0
 92
        0
 66
   257
 43
1.0
 76
     1
 77
     6
 78
     2
 67
     7
 79
     5
170
     0
171
     0
290
     0
174
     0
 93
       13
 44
0.0
173
     0
291
     1
 45
0.0
1001
ACAD
1000
AcDbSavedByObjectVersion
1070
     0
  0
VISUALSTYLE
  5
2D
102
{ACAD_REACTORS
330
2A
102
}
330
2A
100
AcDbVisualStyle
  2
Gouraud
 70
     2
 71
     2
 72
     2
 73
     1
 90
        2
 40
-0.6
 41
30.0
 62
     5
 63
     7
421
 16777215
 74
     0
 91
        4
 64
     7
 65
   257
 75
     1
175
     1
 42
1.0
 92
        0
 66
     7
 43
1.0
 76
     1
 77
     6
 78
     2
 67
     7
 79
     5
170
     0
171
     0
290
     0
174
     0
 93
       13
 44
0.0
173
     0
291
     1
 45
0.0
1001
ACAD
1000
AcDbSavedByObjectVersion
1070
     0
  0
VISUALSTYLE
  5
2E
102
{ACAD_REACTORS
330
2A
102
}
330
2A
100
AcDbVisualStyle
  2
GouraudWithEdges
 70
     3
 71
     2
 72
     2
 73
     1
 90
        2
 40
-0.6
 41
30.0
 62
     5
 63
     7
421
 16777215
 74
     1
 91
        4
 64
     7
 65
   257
 75
     1
175
     1
 42
1.0
 92
        0
 66
   257
 43
1.0
 76
     1
 77
     6
 78
     2
 67
     7
 79
     5
170
     0
171
     0
290
     0
174
     0
 93
       13
 44
0.0
173
     0
291
     1
 45
0.0
1001
ACAD
1000
AcDbSavedByObjectVersion
1070
     0
  0
VISUALSTYLE
  5
38
102
{ACAD_REACTORS
330
2A
102
}
330
2A
100
AcDbVisualStyle
  2
Linepattern
 70
    14
 71
     2
 72
     2
 73
     0
 90
        0
 40
-0.6
 41
-30.0
 62
     5
 63
     7
421
 16777215
 74
     1
 91
        4
 64
     7
 65
   257
 75
     7
175
     7
 42
1.0
 92
        8
 66
     7
 43
1.0
 76
     1
 77
     6
 78
     2
 67
     7
 79
     5
170
     0
171
     0
290
     0
174
     0
 93
        1
 44
0.0
173
     0
291
     1
 45
0.0
1001
ACAD
1000
AcDbSavedByObjectVersion
1070
     0
  0
VISUALSTYLE
  5
33
102
{ACAD_REACTORS
330
2A
102
}
330
2A
100
AcDbVisualStyle
  2
Realistic
 70
     8
 71
     2
 72
     2
 73
     0
 90
        0
 40
-0.6
 41
-30.0
 62
     5
 63
     7
421
 16777215
 74
     1
 91
        0
 64
     7
 65
   257
 75
     1
175
     1
 42
1.0
 92
        8
 66
     8
424
  7895160
 43
1.0
 76
     1
 77
     6
 78
     2
 67
     7
 79
     5
170
     0
171
     0
290
     0
174
     0
 93
       13
 44
0.0
173
     0
291
     0
 45
0.0
1001
ACAD
1000
AcDbSavedByObjectVersion
1070
     0
  0
VISUALSTYLE
  5
37
102
{ACAD_REACTORS
330
2A
102
}
330
2A
100
AcDbVisualStyle
  2
Thicken
 70
    13
 71
     2
 72
     2
 73
     0
 90
        0
 40
-0.6
 41
-30.0
 62
     5
 63
     7
421
 16777215
 74
     1
 91
        4
 64
     7
 65
   257
 75
     1
175
     1
 42
1.0
 92
       12
 66
     7
 43
1.0
 76
     1
 77
     6
 78
     2
 67
     7
 79
     5
170
     0
171
     0
290
     0
174
     0
 93
        1
 44
0.0
173
     0
291
     1
 45
0.0
1001
ACAD
1000
AcDbSavedByObjectVersion
1070
     0
  0
ENDSEC
  0
EOF
