  0
SECTION
  2
HEADER
  9
$ACADVER
  1
AC1018
  9
$ACADMAINTVER
 70
     0
  9
$DWGCODEPAGE
  3
ANSI_1252
  9
$INSBASE
 10
0.0
 20
0.0
 30
0.0
  9
$EXTMIN
 10
-43.125
 20
0.0000000000000018
 30
0.0
  9
$EXTMAX
 10
86.7215917965187
 20
71.54526066566588
 30
0.0
  9
$LIMMIN
 10
0.0
 20
0.0
  9
$LIMMAX
 10
12.0
 20
9.0
  9
$ORTHOMODE
 70
     0
  9
$REGENMODE
 70
     1
  9
$FILLMODE
 70
     1
  9
$QTEXTMODE
 70
     0
  9
$MIRRTEXT
 70
     1
  9
$LTSCALE
 40
0.0393700787401575
  9
$ATTMODE
 70
     1
  9
$TEXTSIZE
 40
0.2
  9
$TRACEWID
 40
0.05
  9
$TEXTSTYLE
  7
Standard
  9
$CLAYER
  8
Default
  9
$CELTYPE
  6
ByLayer
  9
$CECOLOR
 62
   256
  9
$CELTSCALE
 40
1.0
  9
$DISPSILH
 70
     0
  9
$DIMSCALE
 40
1.0
  9
$DIMASZ
 40
0.18
  9
$DIMEXO
 40
0.0625
  9
$DIMDLI
 40
0.38
  9
$DIMRND
 40
0.0
  9
$DIMDLE
 40
0.0
  9
$DIMEXE
 40
0.18
  9
$DIMTP
 40
0.0
  9
$DIMTM
 40
0.0
  9
$DIMTXT
 40
0.18
  9
$DIMCEN
 40
0.09
  9
$DIMTSZ
 40
0.0
  9
$DIMTOL
 70
     0
  9
$DIMLIM
 70
     0
  9
$DIMTIH
 70
     1
  9
$DIMTOH
 70
     1
  9
$DIMSE1
 70
     0
  9
$DIMSE2
 70
     0
  9
$DIMTAD
 70
     0
  9
$DIMZIN
 70
     0
  9
$DIMBLK
  1

  9
$DIMASO
 70
     1
  9
$DIMSHO
 70
     1
  9
$DIMPOST
  1

  9
$DIMAPOST
  1

  9
$DIMALT
 70
     0
  9
$DIMALTD
 70
     2
  9
$DIMALTF
 40
25.4
  9
$DIMLFAC
 40
1.0
  9
$DIMTOFL
 70
     0
  9
$DIMTVP
 40
0.0
  9
$DIMTIX
 70
     0
  9
$DIMSOXD
 70
     0
  9
$DIMSAH
 70
     0
  9
$DIMBLK1
  1

  9
$DIMBLK2
  1

  9
$DIMSTYLE
  2
Standard
  9
$DIMCLRD
 70
     0
  9
$DIMCLRE
 70
     0
  9
$DIMCLRT
 70
     0
  9
$DIMTFAC
 40
1.0
  9
$DIMGAP
 40
0.09
  9
$DIMJUST
 70
     0
  9
$DIMSD1
 70
     0
  9
$DIMSD2
 70
     0
  9
$DIMTOLJ
 70
     1
  9
$DIMTZIN
 70
     0
  9
$DIMALTZ
 70
     0
  9
$DIMALTTZ
 70
     0
  9
$DIMUPT
 70
     0
  9
$DIMDEC
 70
     4
  9
$DIMTDEC
 70
     4
  9
$DIMALTU
 70
     2
  9
$DIMALTTD
 70
     2
  9
$DIMTXSTY
  7
Standard
  9
$DIMAUNIT
 70
     0
  9
$DIMADEC
 70
     0
  9
$DIMALTRND
 40
0.0
  9
$DIMAZIN
 70
     0
  9
$DIMDSEP
 70
    46
  9
$DIMATFIT
 70
     3
  9
$DIMFRAC
 70
     0
  9
$DIMLDRBLK
  1

  9
$DIMLUNIT
 70
     2
  9
$DIMLWD
 70
    -2
  9
$DIMLWE
 70
    -2
  9
$DIMTMOVE
 70
     2
  9
$LUNITS
 70
     2
  9
$LUPREC
 70
     3
  9
$SKETCHINC
 40
0.1
  9
$FILLETRAD
 40
0.5
  9
$AUNITS
 70
     0
  9
$AUPREC
 70
     0
  9
$MENU
  1
.
  9
$ELEVATION
 40
0.0
  9
$PELEVATION
 40
0.0
  9
$THICKNESS
 40
0.0
  9
$LIMCHECK
 70
     0
  9
$CHAMFERA
 40
0.5
  9
$CHAMFERB
 40
0.5
  9
$CHAMFERC
 40
1.0
  9
$CHAMFERD
 40
0.0
  9
$SKPOLY
 70
     0
  9
$TDCREATE
 40
2456426.532281875
  9
$TDUCREATE
 40
2456426.698948542
  9
$TDUPDATE
 40
2456426.532281887
  9
$TDUUPDATE
 40
2456426.698948553
  9
$TDINDWG
 40
0.0000000116
  9
$TDUSRTIMER
 40
0.0000000116
  9
$USRTIMER
 70
     1
  9
$ANGBASE
 50
0.0
  9
$ANGDIR
 70
     0
  9
$PDMODE
 70
     0
  9
$PDSIZE
 40
0.0
  9
$PLINEWID
 40
0.0
  9
$SPLFRAME
 70
     0
  9
$SPLINETYPE
 70
     6
  9
$SPLINESEGS
 70
     8
  9
$HANDSEED
  5
198
  9
$SURFTAB1
 70
     6
  9
$SURFTAB2
 70
     6
  9
$SURFTYPE
 70
     6
  9
$SURFU
 70
     6
  9
$SURFV
 70
     6
  9
$UCSBASE
  2

  9
$UCSNAME
  2

  9
$UCSORG
 10
0.0
 20
0.0
 30
0.0
  9
$UCSXDIR
 10
1.0
 20
0.0
 30
0.0
  9
$UCSYDIR
 10
0.0
 20
1.0
 30
0.0
  9
$UCSORTHOREF
  2

  9
$UCSORTHOVIEW
 70
     0
  9
$UCSORGTOP
 10
0.0
 20
0.0
 30
0.0
  9
$UCSORGBOTTOM
 10
0.0
 20
0.0
 30
0.0
  9
$UCSORGLEFT
 10
0.0
 20
0.0
 30
0.0
  9
$UCSORGRIGHT
 10
0.0
 20
0.0
 30
0.0
  9
$UCSORGFRONT
 10
0.0
 20
0.0
 30
0.0
  9
$UCSORGBACK
 10
0.0
 20
0.0
 30
0.0
  9
$PUCSBASE
  2

  9
$PUCSNAME
  2

  9
$PUCSORG
 10
0.0
 20
0.0
 30
0.0
  9
$PUCSXDIR
 10
1.0
 20
0.0
 30
0.0
  9
$PUCSYDIR
 10
0.0
 20
1.0
 30
0.0
  9
$PUCSORTHOREF
  2

  9
$PUCSORTHOVIEW
 70
     0
  9
$PUCSORGTOP
 10
0.0
 20
0.0
 30
0.0
  9
$PUCSORGBOTTOM
 10
0.0
 20
0.0
 30
0.0
  9
$PUCSORGLEFT
 10
0.0
 20
0.0
 30
0.0
  9
$PUCSORGRIGHT
 10
0.0
 20
0.0
 30
0.0
  9
$PUCSORGFRONT
 10
0.0
 20
0.0
 30
0.0
  9
$PUCSORGBACK
 10
0.0
 20
0.0
 30
0.0
  9
$USERI1
 70
     0
  9
$USERI2
 70
     0
  9
$USERI3
 70
     0
  9
$USERI4
 70
     0
  9
$USERI5
 70
     0
  9
$USERR1
 40
0.0
  9
$USERR2
 40
0.0
  9
$USERR3
 40
0.0
  9
$USERR4
 40
0.0
  9
$USERR5
 40
0.0
  9
$WORLDVIEW
 70
     1
  9
$SHADEDGE
 70
     3
  9
$SHADEDIF
 70
    70
  9
$TILEMODE
 70
     1
  9
$MAXACTVP
 70
    64
  9
$PINSBASE
 10
0.0
 20
0.0
 30
0.0
  9
$PLIMCHECK
 70
     0
  9
$PEXTMIN
 10
1.000000000000000E+20
 20
1.000000000000000E+20
 30
1.000000000000000E+20
  9
$PEXTMAX
 10
-1.000000000000000E+20
 20
-1.000000000000000E+20
 30
-1.000000000000000E+20
  9
$PLIMMIN
 10
0.0
 20
0.0
  9
$PLIMMAX
 10
12.0
 20
9.0
  9
$UNITMODE
 70
     0
  9
$VISRETAIN
 70
     1
  9
$PLINEGEN
 70
     0
  9
$PSLTSCALE
 70
     1
  9
$TREEDEPTH
 70
  3020
  9
$CMLSTYLE
  2
Standard
  9
$CMLJUST
 70
     0
  9
$CMLSCALE
 40
1.0
  9
$PROXYGRAPHICS
 70
     1
  9
$MEASUREMENT
 70
     0
  9
$CELWEIGHT
370
    -1
  9
$ENDCAPS
280
     0
  9
$JOINSTYLE
280
     0
  9
$LWDISPLAY
290
     0
  9
$INSUNITS
 70
     1
  9
$HYPERLINKBASE
  1

  9
$STYLESHEET
  1

  9
$XEDIT
290
     1
  9
$CEPSNTYPE
380
     0
  9
$PSTYLEMODE
290
     1
  9
$FINGERPRINTGUID
  2
{13F03D32-AE38-4734-91D5-A2A95009F43F}
  9
$VERSIONGUID
  2
{FAEB1C32-E019-11D5-929B-00C0DF256EC4}
  9
$EXTNAMES
290
     1
  9
$PSVPSCALE
 40
0.0
  9
$OLESTARTUP
290
     0
  9
$SORTENTS
280
   127
  9
$INDEXCTL
280
     0
  9
$HIDETEXT
280
     1
  9
$XCLIPFRAME
290
     0
  9
$HALOGAP
280
     0
  9
$OBSCOLOR
 70
   257
  9
$OBSLTYPE
280
     0
  9
$INTERSECTIONDISPLAY
280
     0
  9
$INTERSECTIONCOLOR
 70
   257
  9
$DIMASSOC
280
     2
  9
$PROJECTNAME
  1

  0
ENDSEC
  0
SECTION
  2
CLASSES
  0
CLASS
  1
ACDBDICTIONARYWDFLT
  2
AcDbDictionaryWithDefault
  3
ObjectDBX Classes
 90
        0
 91
        4
280
     0
281
     0
  0
CLASS
  1
VISUALSTYLE
  2
AcDbVisualStyle
  3
ObjectDBX Classes
 90
     4095
 91
        4
280
     0
281
     0
  0
ENDSEC
  0
SECTION
  2
TABLES
  0
TABLE
  2
VPORT
  5
8
330
0
100
AcDbSymbolTable
 70
     1
  0
VPORT
  5
29
330
8
100
AcDbSymbolTableRecord
100
AcDbViewportTableRecord
  2
*Active
 70
     0
 10
0.0
 20
0.0
 11
1.0
 21
1.0
 12
21.79829589825934
 22
35.77263033283294
 13
0.0
 23
0.0
 14
0.5
 24
0.5
 15
0.5
 25
0.5
 16
0.0
 26
0.0
 36
1.0
 17
0.0
 27
0.0
 37
0.0
 40
72.9761658789792
 41
1.814887395592805
 42
50.0
 43
0.0
 44
0.0
 50
0.0
 51
0.0
 71
     0
 72
   100
 73
     1
 74
     3
 75
     0
 76
     0
 77
     0
 78
     0
281
     0
 65
     1
110
0.0
120
0.0
130
0.0
111
1.0
121
0.0
131
0.0
112
0.0
122
1.0
132
0.0
 79
     0
146
0.0
  0
ENDTAB
  0
TABLE
  2
LTYPE
  5
5
330
0
100
AcDbSymbolTable
 70
     1
  0
LTYPE
  5
14
330
5
100
AcDbSymbolTableRecord
100
AcDbLinetypeTableRecord
  2
ByBlock
 70
     0
  3

 72
    65
 73
     0
 40
0.0
  0
LTYPE
  5
15
330
5
100
AcDbSymbolTableRecord
100
AcDbLinetypeTableRecord
  2
ByLayer
 70
     0
  3

 72
    65
 73
     0
 40
0.0
  0
LTYPE
  5
16
330
5
100
AcDbSymbolTableRecord
100
AcDbLinetypeTableRecord
  2
Continuous
 70
     0
  3
Solid line
 72
    65
 73
     0
 40
0.0
  0
ENDTAB
  0
TABLE
  2
LAYER
  5
2
330
0
100
AcDbSymbolTable
 70
     2
  0
LAYER
  5
10
330
2
100
AcDbSymbolTableRecord
100
AcDbLayerTableRecord
  2
0
 70
     0
 62
     7
  6
Continuous
370
    -3
390
F
  0
LAYER
  5
3B
330
2
100
AcDbSymbolTableRecord
100
AcDbLayerTableRecord
  2
Default
 70
     0
 62
     7
  6
Continuous
370
    -3
390
F
  0
ENDTAB
  0
TABLE
  2
STYLE
  5
3
330
0
100
AcDbSymbolTable
 70
     1
  0
STYLE
  5
11
330
3
100
AcDbSymbolTableRecord
100
AcDbTextStyleTableRecord
  2
Standard
 70
     0
 40
0.0
 41
1.0
 50
0.0
 71
     0
 42
0.2
  3
txt
  4

  0
ENDTAB
  0
TABLE
  2
VIEW
  5
6
330
0
100
AcDbSymbolTable
 70
     0
  0
ENDTAB
  0
TABLE
  2
UCS
  5
7
330
0
100
AcDbSymbolTable
 70
     0
  0
ENDTAB
  0
TABLE
  2
APPID
  5
9
330
0
100
AcDbSymbolTable
 70
     1
  0
APPID
  5
12
330
9
100
AcDbSymbolTableRecord
100
AcDbRegAppTableRecord
  2
ACAD
 70
     0
  0
ENDTAB
  0
TABLE
  2
DIMSTYLE
  5
A
330
0
100
AcDbSymbolTable
 70
     1
100
AcDbDimStyleTable
  0
DIMSTYLE
105
27
330
A
100
AcDbSymbolTableRecord
100
AcDbDimStyleTableRecord
  2
Standard
 70
     0
340
11
  0
ENDTAB
  0
TABLE
  2
BLOCK_RECORD
  5
1
330
0
100
AcDbSymbolTable
 70
     1
  0
BLOCK_RECORD
  5
1F
330
1
100
AcDbSymbolTableRecord
100
AcDbBlockTableRecord
  2
*Model_Space
340
22
  0
BLOCK_RECORD
  5
1B
330
1
100
AcDbSymbolTableRecord
100
AcDbBlockTableRecord
  2
*Paper_Space
340
1E
  0
BLOCK_RECORD
  5
23
330
1
100
AcDbSymbolTableRecord
100
AcDbBlockTableRecord
  2
*Paper_Space0
340
26
  0
ENDTAB
  0
ENDSEC
  0
SECTION
  2
BLOCKS
  0
BLOCK
  5
20
330
1F
100
AcDbEntity
  8
0
100
AcDbBlockBegin
  2
*Model_Space
 70
     0
 10
0.0
 20
0.0
 30
0.0
  3
*Model_Space
  1

  0
ENDBLK
  5
21
330
1F
100
AcDbEntity
  8
0
100
AcDbBlockEnd
  0
BLOCK
  5
1C
330
1B
100
AcDbEntity
 67
     1
  8
0
100
AcDbBlockBegin
  2
*Paper_Space
 70
     0
 10
0.0
 20
0.0
 30
0.0
  3
*Paper_Space
  1

  0
ENDBLK
  5
1D
330
1B
100
AcDbEntity
 67
     1
  8
0
100
AcDbBlockEnd
  0
BLOCK
  5
24
330
23
100
AcDbEntity
  8
0
100
AcDbBlockBegin
  2
*Paper_Space0
 70
     0
 10
0.0
 20
0.0
 30
0.0
  3
*Paper_Space0
  1

  0
ENDBLK
  5
25
330
23
100
AcDbEntity
  8
0
100
AcDbBlockEnd
  0
ENDSEC
  0
SECTION
  2
ENTITIES
  0
POLYLINE
  5
3C
330
1F
100
AcDbEntity
  8
Default
100
AcDb2dPolyline
 66
     1
 10
0.0
 20
0.0
 30
0.0
  0
VERTEX
  5
3D
330
3C
100
AcDbEntity
  8
Default
100
AcDbVertex
100
AcDb2dVertex
 10
85.21421388419377
 20
26.75000000000026
 30
0.0
  0
VERTEX
  5
3E
330
3C
100
AcDbEntity
  8
Default
100
AcDbVertex
100
AcDb2dVertex
 10
85.21421388419402
 20
6.249999999999939
 30
0.0
  0
SEQEND
  5
3F
330
3C
100
AcDbEntity
  8
Default
  0
ARC
  5
40
330
1F
100
AcDbEntity
  8
Default
100
AcDbCircle
 10
84.96421388419402
 20
6.249999999999934
 30
0.0
 40
0.25
100
AcDbArc
 50
270.0
 51
0.0000000000010178
  0
SPLINE
  5
41
330
1F
100
AcDbEntity
  8
Default
100
AcDbSpline
210
0.0
220
0.0
230
1.0
 70
    24
 71
     2
 72
     6
 73
     3
 74
     0
 42
0.0000000001
 43
0.0000000001
 40
-31.0039370078739
 40
-31.0039370078739
 40
-31.0039370078739
 40
-0.2460629921260996
 40
-0.2460629921260996
 40
-0.2460629921260996
 10
84.96421388419402
 20
5.999999999999934
 30
0.0
 10
69.33921388419414
 20
5.999999999999934
 30
0.0
 10
53.71421388419425
 20
5.999999999999934
 30
0.0
  0
ARC
  5
42
330
1F
100
AcDbEntity
  8
Default
100
AcDbCircle
 10
53.71421388419414
 20
6.249999999999934
 30
0.0
 40
0.25
100
AcDbArc
 50
180.0
 51
270.000000000026
  0
POLYLINE
  5
43
330
1F
100
AcDbEntity
  8
Default
100
AcDb2dPolyline
 66
     1
 10
0.0
 20
0.0
 30
0.0
  0
VERTEX
  5
44
330
43
100
AcDbEntity
  8
Default
100
AcDbVertex
100
AcDb2dVertex
 10
53.46421388419414
 20
6.249999999999934
 30
0.0
  0
VERTEX
  5
45
330
43
100
AcDbEntity
  8
Default
100
AcDbVertex
100
AcDb2dVertex
 10
53.46421388419414
 20
26.74999999999994
 30
0.0
  0
SEQEND
  5
46
330
43
100
AcDbEntity
  8
Default
  0
ARC
  5
47
330
1F
100
AcDbEntity
  8
Default
100
AcDbCircle
 10
53.71421388419414
 20
26.74999999999994
 30
0.0
 40
0.25
100
AcDbArc
 50
90.00000000009283
 51
180.0
  0
POLYLINE
  5
48
330
1F
100
AcDbEntity
  8
Default
100
AcDb2dPolyline
 66
     1
 10
0.0
 20
0.0
 30
0.0
  0
VERTEX
  5
49
330
48
100
AcDbEntity
  8
Default
100
AcDbVertex
100
AcDb2dVertex
 10
53.71421388419374
 20
26.99999999999994
 30
0.0
  0
VERTEX
  5
4A
330
48
100
AcDbEntity
  8
Default
100
AcDbVertex
100
AcDb2dVertex
 10
84.96421388419377
 20
26.99999999999993
 30
0.0
  0
SEQEND
  5
4B
330
48
100
AcDbEntity
  8
Default
  0
ARC
  5
4C
330
1F
100
AcDbEntity
  8
Default
100
AcDbCircle
 10
84.96421388419377
 20
26.74999999999993
 30
0.0
 40
0.25
100
AcDbArc
 50
0.0000000000749084
 51
90.0
  0
SPLINE
  5
4D
330
1F
100
AcDbEntity
  8
Default
100
AcDbSpline
210
0.0
220
0.0
230
1.0
 70
    24
 71
     2
 72
     6
 73
     3
 74
     0
 42
0.0000000001
 43
0.0000000001
 40
0.0
 40
0.0
 40
0.0
 40
5.873565461719542
 40
5.873565461719542
 40
5.873565461719542
 10
54.65171613630484
 20
5.999913995361313
 30
0.0
 10
54.72892523187609
 20
3.063804540761613
 30
0.0
 10
54.80613432744734
 20
0.1276950861619137
 30
0.0
  0
SPLINE
  5
4E
330
1F
100
AcDbEntity
  8
Default
100
AcDbSpline
210
0.0
220
0.0
230
1.0
 70
    24
 71
     2
 72
     6
 73
     3
 74
     0
 42
0.0000000001
 43
0.0000000001
 40
0.0
 40
0.0
 40
0.0
 40
0.1796460136907325
 40
0.1796460136907325
 40
0.1796460136907325
 10
54.80613432744734
 20
0.1276950861619137
 30
0.0
 10
54.86998187052833
 20
0.0638475430809737
 30
0.0
 10
54.93382941360933
 20
0.0000000000000338
 30
0.0
  0
POLYLINE
  5
4F
330
1F
100
AcDbEntity
  8
Default
100
AcDb2dPolyline
 66
     1
 10
0.0
 20
0.0
 30
0.0
  0
VERTEX
  5
50
330
4F
100
AcDbEntity
  8
Default
100
AcDbVertex
100
AcDb2dVertex
 10
54.93382941360933
 20
0.0000000000000338
 30
0.0
  0
VERTEX
  5
51
330
4F
100
AcDbEntity
  8
Default
100
AcDbVertex
100
AcDb2dVertex
 10
55.99459835477894
 20
0.0000000000000338
 30
0.0
  0
SEQEND
  5
52
330
4F
100
AcDbEntity
  8
Default
  0
SPLINE
  5
53
330
1F
100
AcDbEntity
  8
Default
100
AcDbSpline
210
0.0
220
0.0
230
1.0
 70
    24
 71
     2
 72
     6
 73
     3
 74
     0
 42
0.0000000001
 43
0.0000000001
 40
0.0
 40
0.0
 40
0.0
 40
0.1796460136907313
 40
0.1796460136907313
 40
0.1796460136907313
 10
55.99459835477894
 20
0.0000000000000338
 30
0.0
 10
56.05844589785994
 20
0.0638475430809733
 30
0.0
 10
56.12229344094094
 20
0.1276950861619128
 30
0.0
  0
SPLINE
  5
54
330
1F
100
AcDbEntity
  8
Default
100
AcDbSpline
210
0.0
220
0.0
230
1.0
 70
    24
 71
     2
 72
     6
 73
     3
 74
     0
 42
0.0000000001
 43
0.0000000001
 40
0.0
 40
0.0
 40
0.0
 40
5.873565461719542
 40
5.873565461719542
 40
5.873565461719542
 10
56.12229344094094
 20
0.1276950861619128
 30
0.0
 10
56.19950253651218
 20
3.063804540761613
 30
0.0
 10
56.27671163208343
 20
5.999913995361313
 30
0.0
  0
POLYLINE
  5
55
330
1F
100
AcDbEntity
  8
Default
100
AcDb2dPolyline
 66
     1
 10
0.0
 20
0.0
 30
0.0
  0
VERTEX
  5
56
330
55
100
AcDbEntity
  8
Default
100
AcDbVertex
100
AcDb2dVertex
 10
85.21421388419388
 20
17.24969786773991
 30
0.0
  0
VERTEX
  5
57
330
55
100
AcDbEntity
  8
Default
100
AcDbVertex
100
AcDb2dVertex
 10
86.47159179651872
 20
17.24969786773991
 30
0.0
  0
SEQEND
  5
58
330
55
100
AcDbEntity
  8
Default
  0
ARC
  5
59
330
1F
100
AcDbEntity
  8
Default
100
AcDbCircle
 10
86.4715917965187
 20
16.99969786773991
 30
0.0
 40
0.25
100
AcDbArc
 50
359.9999999999919
 51
89.99999999999022
  0
POLYLINE
  5
5A
330
1F
100
AcDbEntity
  8
Default
100
AcDb2dPolyline
 66
     1
 10
0.0
 20
0.0
 30
0.0
  0
VERTEX
  5
5B
330
5A
100
AcDbEntity
  8
Default
100
AcDbVertex
100
AcDb2dVertex
 10
86.7215917965187
 20
16.99969786773988
 30
0.0
  0
VERTEX
  5
5C
330
5A
100
AcDbEntity
  8
Default
100
AcDbVertex
100
AcDb2dVertex
 10
86.72159179651868
 20
12.49969786773993
 30
0.0
  0
SEQEND
  5
5D
330
5A
100
AcDbEntity
  8
Default
  0
ARC
  5
5E
330
1F
100
AcDbEntity
  8
Default
100
AcDbCircle
 10
86.47159179651868
 20
12.49969786773991
 30
0.0
 40
0.25
100
AcDbArc
 50
270.0000000000032
 51
0.0000000000040711
  0
POLYLINE
  5
5F
330
1F
100
AcDbEntity
  8
Default
100
AcDb2dPolyline
 66
     1
 10
0.0
 20
0.0
 30
0.0
  0
VERTEX
  5
60
330
5F
100
AcDbEntity
  8
Default
100
AcDbVertex
100
AcDb2dVertex
 10
86.47159179651871
 20
12.24969786773991
 30
0.0
  0
VERTEX
  5
61
330
5F
100
AcDbEntity
  8
Default
100
AcDbVertex
100
AcDb2dVertex
 10
85.21421388419395
 20
12.24969786773991
 30
0.0
  0
SEQEND
  5
62
330
5F
100
AcDbEntity
  8
Default
  0
SPLINE
  5
63
330
1F
100
AcDbEntity
  8
Default
100
AcDbSpline
210
0.0
220
0.0
230
1.0
 70
    24
 71
     2
 72
     6
 73
     3
 74
     0
 42
0.0000000001
 43
0.0000000001
 40
0.0
 40
0.0
 40
0.0
 40
5.873565461719542
 40
5.873565461719542
 40
5.873565461719542
 10
82.40171613630481
 20
5.999913995361313
 30
0.0
 10
82.47892523187608
 20
3.063804540761613
 30
0.0
 10
82.55613432744732
 20
0.1276950861619128
 30
0.0
  0
SPLINE
  5
64
330
1F
100
AcDbEntity
  8
Default
100
AcDbSpline
210
0.0
220
0.0
230
1.0
 70
    24
 71
     2
 72
     6
 73
     3
 74
     0
 42
0.0000000001
 43
0.0000000001
 40
0.0
 40
0.0
 40
0.0
 40
0.1796460136907514
 40
0.1796460136907514
 40
0.1796460136907514
 10
82.55613432744732
 20
0.1276950861619128
 30
0.0
 10
82.61998187052833
 20
0.0638475430809733
 30
0.0
 10
82.68382941360933
 20
0.0000000000000338
 30
0.0
  0
POLYLINE
  5
65
330
1F
100
AcDbEntity
  8
Default
100
AcDb2dPolyline
 66
     1
 10
0.0
 20
0.0
 30
0.0
  0
VERTEX
  5
66
330
65
100
AcDbEntity
  8
Default
100
AcDbVertex
100
AcDb2dVertex
 10
82.68382941360933
 20
0.0000000000000338
 30
0.0
  0
VERTEX
  5
67
330
65
100
AcDbEntity
  8
Default
100
AcDbVertex
100
AcDb2dVertex
 10
83.74459835477894
 20
0.0000000000000338
 30
0.0
  0
SEQEND
  5
68
330
65
100
AcDbEntity
  8
Default
  0
SPLINE
  5
69
330
1F
100
AcDbEntity
  8
Default
100
AcDbSpline
210
0.0
220
0.0
230
1.0
 70
    24
 71
     2
 72
     6
 73
     3
 74
     0
 42
0.0000000001
 43
0.0000000001
 40
0.0
 40
0.0
 40
0.0
 40
0.1796460136907517
 40
0.1796460136907517
 40
0.1796460136907517
 10
83.74459835477894
 20
0.0000000000000338
 30
0.0
 10
83.80844589785994
 20
0.0638475430809734
 30
0.0
 10
83.87229344094095
 20
0.1276950861619131
 30
0.0
  0
SPLINE
  5
6A
330
1F
100
AcDbEntity
  8
Default
100
AcDbSpline
210
0.0
220
0.0
230
1.0
 70
    24
 71
     2
 72
     6
 73
     3
 74
     0
 42
0.0000000001
 43
0.0000000001
 40
0.0
 40
0.0
 40
0.0
 40
5.873565461719542
 40
5.873565461719542
 40
5.873565461719542
 10
83.87229344094095
 20
0.1276950861619131
 30
0.0
 10
83.9495025365122
 20
3.063804540761613
 30
0.0
 10
84.02671163208346
 20
5.999913995361313
 30
0.0
  0
ARC
  5
6B
330
1F
100
AcDbEntity
  8
Default
100
AcDbCircle
 10
83.64739282499967
 20
1.005642049211256
 30
0.0
 40
16.48773632935109
100
AcDbArc
 50
80.13711760002428
 51
84.54698325906621
  0
POLYLINE
  5
6C
330
1F
100
AcDbEntity
  8
Default
100
AcDb2dPolyline
 66
     1
 10
0.0
 20
0.0
 30
0.0
  0
VERTEX
  5
6D
330
6C
100
AcDbEntity
  8
Default
100
AcDbVertex
100
AcDb2dVertex
 10
56.46421388419414
 20
26.99999999999994
 30
0.0
  0
VERTEX
  5
6E
330
6C
100
AcDbEntity
  8
Default
100
AcDbVertex
100
AcDb2dVertex
 10
56.22623539189033
 20
27.71124274140459
 30
0.0
  0
SEQEND
  5
6F
330
6C
100
AcDbEntity
  8
Default
  0
ARC
  5
70
330
1F
100
AcDbEntity
  8
Default
100
AcDbCircle
 10
56.46331630569188
 20
27.79056890550586
 30
0.0
 40
0.25
100
AcDbArc
 50
108.5000000000023
 51
198.5000000000005
  0
LINE
  5
71
330
1F
100
AcDbEntity
  8
Default
100
AcDbLine
 10
56.38399014159059
 20
28.02764981930741
 30
0.0
 11
59.7031229348123
 21
29.13821611672523
 31
0.0
  0
ARC
  5
72
330
1F
100
AcDbEntity
  8
Default
100
AcDbCircle
 10
59.78244909891356
 20
28.90113520292368
 30
0.0
 40
0.25
100
AcDbArc
 50
18.50000000000046
 51
108.4999999999987
  0
SPLINE
  5
73
330
1F
100
AcDbEntity
  8
Default
100
AcDbSpline
210
0.0
220
0.0
230
1.0
 70
    24
 71
     2
 72
     6
 73
     3
 74
     0
 42
0.0000000001
 43
0.0000000001
 40
0.2499999999999996
 40
0.2499999999999996
 40
0.2499999999999996
 40
2.338381278008292
 40
2.338381278008292
 40
2.338381278008292
 10
60.01953001271511
 20
28.98046136702495
 30
0.0
 10
60.35085656464573
 20
27.99023068351244
 30
0.0
 10
60.68218311657635
 20
26.99999999999994
 30
0.0
  0
ARC
  5
74
330
1F
100
AcDbEntity
  8
Default
100
AcDbCircle
 10
44.77114014705926
 20
20.52300234617832
 30
0.0
 40
17.43680035397367
100
AcDbArc
 50
21.80541777151703
 51
29.01476764733451
  0
LINE
  5
75
330
1F
100
AcDbEntity
  8
Default
100
AcDbLine
 10
5.874999999999481
 20
23.11507961738243
 30
0.0
 11
0.0
 21
23.11507961738243
 31
0.0
  0
LINE
  5
76
330
1F
100
AcDbEntity
  8
Default
100
AcDbLine
 10
-5.874999999999481
 20
23.11507961738243
 30
0.0
 11
-0.0000000000000005
 21
23.11507961738243
 31
0.0
  0
SPLINE
  5
77
330
1F
100
AcDbEntity
  8
Default
100
AcDbSpline
210
0.0
220
0.0
230
1.0
 70
    12
 71
     2
 72
     6
 73
     3
 74
     0
 42
0.0000000001
 43
0.0000000001
 40
0.0
 40
0.0
 40
0.0
 40
6.144859544716798
 40
6.144859544716798
 40
6.144859544716798
 10
12.95833333333298
 20
17.24969786773992
 30
0.0
 41
1.0
 10
16.19791666666637
 20
17.67914909240733
 30
0.0
 41
0.9903105865711456
 10
19.43749999999977
 20
17.24969786773991
 30
0.0
 41
1.0
  0
SPLINE
  5
78
330
1F
100
AcDbEntity
  8
Default
100
AcDbSpline
210
0.0
220
0.0
230
1.0
 70
    12
 71
     2
 72
     6
 73
     3
 74
     0
 42
0.0000000001
 43
0.0000000001
 40
0.0
 40
0.0
 40
0.0
 40
6.144859544716798
 40
6.144859544716798
 40
6.144859544716798
 10
12.95833333333298
 20
17.24969786773992
 30
0.0
 41
1.0
 10
9.718749999999588
 20
17.67914909240733
 30
0.0
 41
0.9903105865711456
 10
6.479166666666195
 20
17.24969786773991
 30
0.0
 41
1.0
  0
SPLINE
  5
79
330
1F
100
AcDbEntity
  8
Default
100
AcDbSpline
210
0.0
220
0.0
230
1.0
 70
    12
 71
     2
 72
     6
 73
     3
 74
     0
 42
0.0000000001
 43
0.0000000001
 40
0.0
 40
0.0
 40
0.0
 40
6.144859544716798
 40
6.144859544716798
 40
6.144859544716798
 10
0.24999999999946
 20
17.2496978677399
 30
0.0
 41
1.0
 10
3.364583333332833
 20
17.67914909240731
 30
0.0
 41
0.9903105865711456
 10
6.479166666666195
 20
17.24969786773991
 30
0.0
 41
1.0
  0
LINE
  5
7A
330
1F
100
AcDbEntity
  8
Default
100
AcDbLine
 10
18.93749999999963
 20
23.11507961738243
 30
0.0
 11
6.979166666666192
 21
23.11507961738243
 31
0.0
  0
POLYLINE
  5
7B
330
1F
100
AcDbEntity
  8
Default
100
AcDb2dPolyline
 66
     1
 10
0.0
 20
0.0
 30
0.0
  0
VERTEX
  5
7C
330
7B
100
AcDbEntity
  8
Default
100
AcDbVertex
100
AcDb2dVertex
 10
12.95833333333274
 20
29.1511352029237
 30
0.0
  0
VERTEX
  5
7D
330
7B
100
AcDbEntity
  8
Default
100
AcDbVertex
100
AcDb2dVertex
 10
12.95833333333298
 20
17.24969786773991
 30
0.0
  0
SEQEND
  5
7E
330
7B
100
AcDbEntity
  8
Default
  0
LINE
  5
7F
330
1F
100
AcDbEntity
  8
Default
100
AcDbLine
 10
6.479166666666195
 20
22.61507961738243
 30
0.0
 11
6.479166666666195
 21
17.24969786773991
 31
0.0
  0
LINE
  5
80
330
1F
100
AcDbEntity
  8
Default
100
AcDbLine
 10
6.479166666666195
 20
29.1511352029237
 30
0.0
 11
6.479166666666195
 21
23.61507961738243
 31
0.0
  0
CIRCLE
  5
81
330
1F
100
AcDbEntity
  8
Default
100
AcDbCircle
 10
6.479166666666195
 20
23.11507961738243
 30
0.0
 40
0.5
  0
SPLINE
  5
82
330
1F
100
AcDbEntity
  8
Default
100
AcDbSpline
210
0.0
220
0.0
230
1.0
 70
    12
 71
     2
 72
     6
 73
     3
 74
     0
 42
0.0000000001
 43
0.0000000001
 40
0.0
 40
0.0
 40
0.0
 40
6.144859544716798
 40
6.144859544716798
 40
6.144859544716798
 10
25.91666666666655
 20
17.24969786773992
 30
0.0
 41
1.0
 10
22.67708333333315
 20
17.67914909240733
 30
0.0
 41
0.9903105865711456
 10
19.43749999999977
 20
17.24969786773991
 30
0.0
 41
1.0
  0
SPLINE
  5
83
330
1F
100
AcDbEntity
  8
Default
100
AcDbSpline
210
0.0
220
0.0
230
1.0
 70
    12
 71
     2
 72
     6
 73
     3
 74
     0
 42
0.0000000001
 43
0.0000000001
 40
0.0
 40
0.0
 40
0.0
 40
6.144859544716798
 40
6.144859544716798
 40
6.144859544716798
 10
25.91666666666655
 20
17.24969786773992
 30
0.0
 41
1.0
 10
29.15624999999994
 20
17.67914909240733
 30
0.0
 41
0.9903105865711456
 10
32.39583333333334
 20
17.24969786773991
 30
0.0
 41
1.0
  0
SPLINE
  5
84
330
1F
100
AcDbEntity
  8
Default
100
AcDbSpline
210
0.0
220
0.0
230
1.0
 70
    12
 71
     2
 72
     6
 73
     3
 74
     0
 42
0.0000000001
 43
0.0000000001
 40
0.0
 40
0.0
 40
0.0
 40
6.144859544716798
 40
6.144859544716798
 40
6.144859544716798
 10
38.62500000000007
 20
17.2496978677399
 30
0.0
 41
1.0
 10
35.51041666666669
 20
17.67914909240731
 30
0.0
 41
0.9903105865711456
 10
32.39583333333334
 20
17.24969786773991
 30
0.0
 41
1.0
  0
LINE
  5
85
330
1F
100
AcDbEntity
  8
Default
100
AcDbLine
 10
19.9374999999999
 20
23.11507961738243
 30
0.0
 11
31.89583333333334
 21
23.11507961738243
 31
0.0
  0
POLYLINE
  5
86
330
1F
100
AcDbEntity
  8
Default
100
AcDb2dPolyline
 66
     1
 10
0.0
 20
0.0
 30
0.0
  0
VERTEX
  5
87
330
86
100
AcDbEntity
  8
Default
100
AcDbVertex
100
AcDb2dVertex
 10
25.91666666666679
 20
29.1511352029237
 30
0.0
  0
VERTEX
  5
88
330
86
100
AcDbEntity
  8
Default
100
AcDbVertex
100
AcDb2dVertex
 10
25.91666666666655
 20
17.24969786773991
 30
0.0
  0
SEQEND
  5
89
330
86
100
AcDbEntity
  8
Default
  0
LINE
  5
8A
330
1F
100
AcDbEntity
  8
Default
100
AcDbLine
 10
19.4375
 20
22.61507961738244
 30
0.0
 11
19.43750000000083
 21
17.24969786773892
 31
0.0
  0
LINE
  5
8B
330
1F
100
AcDbEntity
  8
Default
100
AcDbLine
 10
19.43749999999898
 20
29.15113520292272
 30
0.0
 11
19.43749999999984
 21
23.61507961738244
 31
0.0
  0
CIRCLE
  5
8C
330
1F
100
AcDbEntity
  8
Default
100
AcDbCircle
 10
19.4374999999999
 20
23.11507961738244
 30
0.0
 40
0.5
  0
LINE
  5
8D
330
1F
100
AcDbEntity
  8
Default
100
AcDbLine
 10
32.39583333333334
 20
22.61507961738243
 30
0.0
 11
32.39583333333334
 21
17.24969786773991
 31
0.0
  0
LINE
  5
8E
330
1F
100
AcDbEntity
  8
Default
100
AcDbLine
 10
32.39583333333334
 20
29.1511352029237
 30
0.0
 11
32.39583333333334
 21
23.61507961738243
 31
0.0
  0
CIRCLE
  5
8F
330
1F
100
AcDbEntity
  8
Default
100
AcDbCircle
 10
32.39583333333334
 20
23.11507961738243
 30
0.0
 40
0.5
  0
LINE
  5
90
330
1F
100
AcDbEntity
  8
Default
100
AcDbLine
 10
0.0
 20
16.99969786773991
 30
0.0
 11
0.0
 21
28.1511352029237
 31
0.0
  0
ARC
  5
91
330
1F
100
AcDbEntity
  8
Default
100
AcDbCircle
 10
1.000000000000234
 20
28.15113520292347
 30
0.0
 40
1.000000000000234
100
AcDbArc
 50
90.0
 51
179.9999999999866
  0
LINE
  5
92
330
1F
100
AcDbEntity
  8
Default
100
AcDbLine
 10
1.000000000000234
 20
29.15113520292371
 30
0.0
 11
37.87500000000024
 21
29.1511352029237
 31
0.0
  0
ARC
  5
93
330
1F
100
AcDbEntity
  8
Default
100
AcDbCircle
 10
37.875
 20
28.1511352029237
 30
0.0
 40
1.0
100
AcDbArc
 50
0.0
 51
89.99999999998616
  0
LINE
  5
94
330
1F
100
AcDbEntity
  8
Default
100
AcDbLine
 10
38.875
 20
28.1511352029237
 30
0.0
 11
38.875
 21
26.74999999999995
 31
0.0
  0
SPLINE
  5
95
330
1F
100
AcDbEntity
  8
Default
100
AcDbSpline
210
0.0
220
0.0
230
1.0
 70
    15
 71
     2
 72
    20
 73
    17
 74
     0
 42
0.0000000001
 43
0.0000000001
 40
98.63059341541005
 40
98.63059341541005
 40
98.63059341541005
 40
123.63059341541
 40
123.63059341541
 40
124.0232924971088
 40
124.0232924971088
 40
128.5232924971088
 40
128.5232924971088
 40
128.9159915788075
 40
128.9159915788075
 40
153.9159915788075
 40
153.9159915788075
 40
154.3086906605062
 40
154.3086906605062
 40
158.8086906605062
 40
158.8086906605062
 40
159.201389742205
 40
159.201389742205
 40
159.201389742205
 10
0.25
 20
17.24969786773991
 30
0.0
 41
1.0
 10
26.125
 20
17.24969786773991
 30
0.0
 41
1.0
 10
38.625
 20
17.24969786773991
 30
0.0
 41
1.0
 10
38.875
 20
17.24969786773991
 30
0.0
 41
0.7071067811865476
 10
38.875
 20
16.99969786773991
 30
0.0
 41
1.0
 10
38.875
 20
14.74969786773991
 30
0.0
 41
1.0
 10
38.875
 20
12.49969786773991
 30
0.0
 41
1.0
 10
38.875
 20
12.24969786773991
 30
0.0
 41
0.7071067811865476
 10
38.625
 20
12.24969786773991
 30
0.0
 41
1.0
 10
26.125
 20
12.24969786773991
 30
0.0
 41
1.0
 10
0.25
 20
12.24969786773991
 30
0.0
 41
1.0
 10
0.0
 20
12.24969786773991
 30
0.0
 41
0.70710678118655
 10
0.0
 20
12.49969786773991
 30
0.0
 41
1.0
 10
0.0
 20
14.74969786773991
 30
0.0
 41
1.0
 10
0.0
 20
16.99969786773991
 30
0.0
 41
1.0
 10
-0.0000000000000018
 20
17.24969786773991
 30
0.0
 41
0.7071067811865476
 10
0.25
 20
17.24969786773991
 30
0.0
 41
1.0
  0
POLYLINE
  5
96
330
1F
100
AcDbEntity
  8
Default
100
AcDb2dPolyline
 66
     1
 10
0.0
 20
0.0
 30
0.0
  0
VERTEX
  5
97
330
96
100
AcDbEntity
  8
Default
100
AcDbVertex
100
AcDb2dVertex
 10
33.00000000000005
 20
23.11507961738243
 30
0.0
  0
VERTEX
  5
98
330
96
100
AcDbEntity
  8
Default
100
AcDbVertex
100
AcDb2dVertex
 10
38.625
 20
23.11507961738243
 30
0.0
  0
SEQEND
  5
99
330
96
100
AcDbEntity
  8
Default
  0
SPLINE
  5
9A
330
1F
100
AcDbEntity
  8
Default
100
AcDbSpline
210
0.0
220
0.0
230
1.0
 70
    12
 71
     2
 72
     6
 73
     3
 74
     0
 42
0.0000000001
 43
0.0000000001
 40
0.0
 40
0.0
 40
0.0
 40
6.144859544716798
 40
6.144859544716798
 40
6.144859544716798
 10
-12.95833333333298
 20
17.24969786773992
 30
0.0
 41
1.0
 10
-16.19791666666637
 20
17.67914909240733
 30
0.0
 41
0.9903105865711456
 10
-19.43749999999977
 20
17.24969786773991
 30
0.0
 41
1.0
  0
SPLINE
  5
9B
330
1F
100
AcDbEntity
  8
Default
100
AcDbSpline
210
0.0
220
0.0
230
1.0
 70
    12
 71
     2
 72
     6
 73
     3
 74
     0
 42
0.0000000001
 43
0.0000000001
 40
0.0
 40
0.0
 40
0.0
 40
6.144859544716798
 40
6.144859544716798
 40
6.144859544716798
 10
-12.95833333333298
 20
17.24969786773992
 30
0.0
 41
1.0
 10
-9.718749999999588
 20
17.67914909240733
 30
0.0
 41
0.9903105865711456
 10
-6.479166666666195
 20
17.24969786773991
 30
0.0
 41
1.0
  0
SPLINE
  5
9C
330
1F
100
AcDbEntity
  8
Default
100
AcDbSpline
210
0.0
220
0.0
230
1.0
 70
    12
 71
     2
 72
     6
 73
     3
 74
     0
 42
0.0000000001
 43
0.0000000001
 40
0.0
 40
0.0
 40
0.0
 40
6.144859544716798
 40
6.144859544716798
 40
6.144859544716798
 10
-0.24999999999946
 20
17.2496978677399
 30
0.0
 41
1.0
 10
-3.364583333332833
 20
17.67914909240731
 30
0.0
 41
0.9903105865711456
 10
-6.479166666666195
 20
17.24969786773991
 30
0.0
 41
1.0
  0
LINE
  5
9D
330
1F
100
AcDbEntity
  8
Default
100
AcDbLine
 10
-18.93749999999963
 20
23.11507961738243
 30
0.0
 11
-6.979166666666192
 21
23.11507961738243
 31
0.0
  0
POLYLINE
  5
9E
330
1F
100
AcDbEntity
  8
Default
100
AcDb2dPolyline
 66
     1
 10
0.0
 20
0.0
 30
0.0
  0
VERTEX
  5
9F
330
9E
100
AcDbEntity
  8
Default
100
AcDbVertex
100
AcDb2dVertex
 10
-12.95833333333274
 20
29.1511352029237
 30
0.0
  0
VERTEX
  5
A0
330
9E
100
AcDbEntity
  8
Default
100
AcDbVertex
100
AcDb2dVertex
 10
-12.95833333333298
 20
17.24969786773991
 30
0.0
  0
SEQEND
  5
A1
330
9E
100
AcDbEntity
  8
Default
  0
LINE
  5
A2
330
1F
100
AcDbEntity
  8
Default
100
AcDbLine
 10
-6.479166666666195
 20
22.61507961738243
 30
0.0
 11
-6.479166666666195
 21
17.24969786773991
 31
0.0
  0
LINE
  5
A3
330
1F
100
AcDbEntity
  8
Default
100
AcDbLine
 10
-6.479166666666195
 20
29.1511352029237
 30
0.0
 11
-6.479166666666195
 21
23.61507961738243
 31
0.0
  0
CIRCLE
  5
A4
330
1F
100
AcDbEntity
  8
Default
100
AcDbCircle
 10
-6.479166666666195
 20
23.11507961738243
 30
0.0
 40
0.5
  0
SPLINE
  5
A5
330
1F
100
AcDbEntity
  8
Default
100
AcDbSpline
210
0.0
220
0.0
230
1.0
 70
    12
 71
     2
 72
     6
 73
     3
 74
     0
 42
0.0000000001
 43
0.0000000001
 40
0.0
 40
0.0
 40
0.0
 40
6.144859544716798
 40
6.144859544716798
 40
6.144859544716798
 10
-25.91666666666655
 20
17.24969786773992
 30
0.0
 41
1.0
 10
-29.15624999999994
 20
17.67914909240733
 30
0.0
 41
0.9903105865711456
 10
-32.39583333333334
 20
17.24969786773991
 30
0.0
 41
1.0
  0
LINE
  5
A6
330
1F
100
AcDbEntity
  8
Default
100
AcDbLine
 10
-32.39583333333334
 20
22.61507961738243
 30
0.0
 11
-32.39583333333334
 21
17.24969786773991
 31
0.0
  0
LINE
  5
A7
330
1F
100
AcDbEntity
  8
Default
100
AcDbLine
 10
-32.39583333333334
 20
29.1511352029237
 30
0.0
 11
-32.39583333333334
 21
23.61507961738243
 31
0.0
  0
CIRCLE
  5
A8
330
1F
100
AcDbEntity
  8
Default
100
AcDbCircle
 10
-32.39583333333334
 20
23.11507961738243
 30
0.0
 40
0.5
  0
POLYLINE
  5
A9
330
1F
100
AcDbEntity
  8
Default
100
AcDb2dPolyline
 66
     1
 10
0.0
 20
0.0
 30
0.0
  0
VERTEX
  5
AA
330
A9
100
AcDbEntity
  8
Default
100
AcDbVertex
100
AcDb2dVertex
 10
-25.91666666666679
 20
29.1511352029237
 30
0.0
  0
VERTEX
  5
AB
330
A9
100
AcDbEntity
  8
Default
100
AcDbVertex
100
AcDb2dVertex
 10
-25.91666666666655
 20
17.24969786773991
 30
0.0
  0
SEQEND
  5
AC
330
A9
100
AcDbEntity
  8
Default
  0
SPLINE
  5
AD
330
1F
100
AcDbEntity
  8
Default
100
AcDbSpline
210
0.0
220
0.0
230
1.0
 70
    12
 71
     2
 72
     6
 73
     3
 74
     0
 42
0.0000000001
 43
0.0000000001
 40
0.0
 40
0.0
 40
0.0
 40
6.144859544716798
 40
6.144859544716798
 40
6.144859544716798
 10
-38.62500000000007
 20
17.2496978677399
 30
0.0
 41
1.0
 10
-35.51041666666669
 20
17.67914909240731
 30
0.0
 41
0.9903105865711456
 10
-32.39583333333334
 20
17.24969786773991
 30
0.0
 41
1.0
  0
POLYLINE
  5
AE
330
1F
100
AcDbEntity
  8
Default
100
AcDb2dPolyline
 66
     1
 10
0.0
 20
0.0
 30
0.0
  0
VERTEX
  5
AF
330
AE
100
AcDbEntity
  8
Default
100
AcDbVertex
100
AcDb2dVertex
 10
-33.00000000000005
 20
23.11507961738243
 30
0.0
  0
VERTEX
  5
B0
330
AE
100
AcDbEntity
  8
Default
100
AcDbVertex
100
AcDb2dVertex
 10
-38.625
 20
23.11507961738243
 30
0.0
  0
SEQEND
  5
B1
330
AE
100
AcDbEntity
  8
Default
  0
LINE
  5
B2
330
1F
100
AcDbEntity
  8
Default
100
AcDbLine
 10
-19.9374999999999
 20
23.11507961738243
 30
0.0
 11
-31.89583333333334
 21
23.11507961738243
 31
0.0
  0
SPLINE
  5
B3
330
1F
100
AcDbEntity
  8
Default
100
AcDbSpline
210
0.0
220
0.0
230
1.0
 70
    12
 71
     2
 72
     6
 73
     3
 74
     0
 42
0.0000000001
 43
0.0000000001
 40
0.0
 40
0.0
 40
0.0
 40
6.144859544716798
 40
6.144859544716798
 40
6.144859544716798
 10
-25.91666666666655
 20
17.24969786773992
 30
0.0
 41
1.0
 10
-22.67708333333315
 20
17.67914909240733
 30
0.0
 41
0.9903105865711456
 10
-19.43749999999977
 20
17.24969786773991
 30
0.0
 41
1.0
  0
LINE
  5
B4
330
1F
100
AcDbEntity
  8
Default
100
AcDbLine
 10
-19.4375
 20
22.61507961738244
 30
0.0
 11
-19.43750000000083
 21
17.24969786773892
 31
0.0
  0
LINE
  5
B5
330
1F
100
AcDbEntity
  8
Default
100
AcDbLine
 10
-19.43749999999898
 20
29.15113520292272
 30
0.0
 11
-19.43749999999984
 21
23.61507961738244
 31
0.0
  0
CIRCLE
  5
B6
330
1F
100
AcDbEntity
  8
Default
100
AcDbCircle
 10
-19.4374999999999
 20
23.11507961738244
 30
0.0
 40
0.5
  0
LINE
  5
B7
330
1F
100
AcDbEntity
  8
Default
100
AcDbLine
 10
0.0
 20
16.99969786773991
 30
0.0
 11
0.0
 21
28.1511352029237
 31
0.0
  0
ARC
  5
B8
330
1F
100
AcDbEntity
  8
Default
100
AcDbCircle
 10
-1.000000000000234
 20
28.15113520292347
 30
0.0
 40
1.000000000000234
100
AcDbArc
 50
0.0000000000134347
 51
90.0
  0
LINE
  5
B9
330
1F
100
AcDbEntity
  8
Default
100
AcDbLine
 10
-1.000000000000234
 20
29.15113520292371
 30
0.0
 11
-37.87500000000024
 21
29.1511352029237
 31
0.0
  0
ARC
  5
BA
330
1F
100
AcDbEntity
  8
Default
100
AcDbCircle
 10
-37.875
 20
28.1511352029237
 30
0.0
 40
1.0
100
AcDbArc
 50
90.00000000001384
 51
180.0
  0
LINE
  5
BB
330
1F
100
AcDbEntity
  8
Default
100
AcDbLine
 10
-38.875
 20
28.1511352029237
 30
0.0
 11
-38.875
 21
26.74999999999995
 31
0.0
  0
SPLINE
  5
BC
330
1F
100
AcDbEntity
  8
Default
100
AcDbSpline
210
0.0
220
0.0
230
1.0
 70
    15
 71
     2
 72
    20
 73
    17
 74
     0
 42
0.0000000001
 43
0.0000000001
 40
98.63059341541005
 40
98.63059341541005
 40
98.63059341541005
 40
123.63059341541
 40
123.63059341541
 40
124.0232924971088
 40
124.0232924971088
 40
128.5232924971088
 40
128.5232924971088
 40
128.9159915788075
 40
128.9159915788075
 40
153.9159915788075
 40
153.9159915788075
 40
154.3086906605062
 40
154.3086906605062
 40
158.8086906605062
 40
158.8086906605062
 40
159.201389742205
 40
159.201389742205
 40
159.201389742205
 10
-0.25
 20
17.24969786773991
 30
0.0
 41
1.0
 10
-26.125
 20
17.24969786773991
 30
0.0
 41
1.0
 10
-38.625
 20
17.24969786773991
 30
0.0
 41
1.0
 10
-38.875
 20
17.24969786773991
 30
0.0
 41
0.7071067811865476
 10
-38.875
 20
16.99969786773991
 30
0.0
 41
1.0
 10
-38.875
 20
14.74969786773991
 30
0.0
 41
1.0
 10
-38.875
 20
12.49969786773991
 30
0.0
 41
1.0
 10
-38.875
 20
12.24969786773991
 30
0.0
 41
0.7071067811865476
 10
-38.625
 20
12.24969786773991
 30
0.0
 41
1.0
 10
-26.125
 20
12.24969786773991
 30
0.0
 41
1.0
 10
-0.25
 20
12.24969786773991
 30
0.0
 41
1.0
 10
0.0
 20
12.24969786773991
 30
0.0
 41
0.70710678118655
 10
0.0
 20
12.49969786773991
 30
0.0
 41
1.0
 10
0.0
 20
14.74969786773991
 30
0.0
 41
1.0
 10
0.0
 20
16.99969786773991
 30
0.0
 41
1.0
 10
0.0000000000000018
 20
17.24969786773991
 30
0.0
 41
0.7071067811865476
 10
-0.25
 20
17.24969786773991
 30
0.0
 41
1.0
  0
SPLINE
  5
BD
330
1F
100
AcDbEntity
  8
Default
100
AcDbSpline
210
0.0
220
0.0
230
1.0
 70
    12
 71
     2
 72
    26
 73
    23
 74
     0
 42
0.0000000001
 43
0.0000000001
 40
-3996.498240537621
 40
-3996.498240537621
 40
-3996.498240537621
 40
-3996.248240537621
 40
-3996.248240537621
 40
-3992.498240537621
 40
-3992.498240537621
 40
-3992.105541455922
 40
-3992.105541455922
 40
-3989.105541455922
 40
-3989.105541455922
 40
-3971.605541455922
 40
-3971.605541455922
 40
-3971.212842374223
 40
-3971.212842374223
 40
-3937.712842374223
 40
-3937.712842374223
 40
-3937.320143292525
 40
-3937.320143292525
 40
-3916.820143292525
 40
-3916.820143292525
 40
-3916.427444210826
 40
-3916.427444210826
 40
-3912.427444210826
 40
-3912.427444210826
 40
-3912.427444210826
 10
-38.875
 20
26.99999999999993
 30
0.0
 41
1.0
 10
-39.0
 20
26.99999999999993
 30
0.0
 41
1.0
 10
-39.125
 20
26.99999999999993
 30
0.0
 41
1.0
 10
-40.99999999999998
 20
26.99999999999993
 30
0.0
 41
1.0
 10
-42.87499999999996
 20
26.99999999999993
 30
0.0
 41
1.0
 10
-43.125
 20
26.99999999999997
 30
0.0
 41
0.7071067811864973
 10
-43.125
 20
26.74999999999994
 30
0.0
 41
1.0
 10
-43.125
 20
25.24999999999994
 30
0.0
 41
1.0
 10
-43.125
 20
23.74999999999994
 30
0.0
 41
1.0
 10
-43.125
 20
14.99999999999995
 30
0.0
 41
1.0
 10
-43.125
 20
6.249999999999956
 30
0.0
 41
1.0
 10
-43.12500000000002
 20
5.999999999999934
 30
0.0
 41
0.7071067811865162
 10
-42.875
 20
5.999999999999934
 30
0.0
 41
1.0
 10
-26.125
 20
5.999999999999934
 30
0.0
 41
1.0
 10
42.875
 20
5.999999999999934
 30
0.0
 41
1.0
 10
43.12500000000002
 20
5.999999999999934
 30
0.0
 41
0.7071067811865162
 10
43.125
 20
6.249999999999956
 30
0.0
 41
1.0
 10
43.125
 20
16.49999999999994
 30
0.0
 41
1.0
 10
43.125
 20
26.74999999999993
 30
0.0
 41
1.0
 10
43.125
 20
26.99999999999993
 30
0.0
 41
0.7071067811865476
 10
42.875
 20
26.99999999999993
 30
0.0
 41
1.0
 10
40.875
 20
26.99999999999993
 30
0.0
 41
1.0
 10
38.875
 20
26.99999999999993
 30
0.0
 41
1.0
  0
ARC
  5
BE
330
1F
100
AcDbEntity
  8
Default
100
AcDbCircle
 10
39.125
 20
26.74999999999993
 30
0.0
 40
0.25
100
AcDbArc
 50
90.0
 51
179.9999999999951
  0
LINE
  5
BF
330
1F
100
AcDbEntity
  8
Default
100
AcDbLine
 10
38.875
 20
26.74999999999995
 30
0.0
 11
38.875
 21
5.999999999999934
 31
0.0
  0
SPLINE
  5
C0
330
1F
100
AcDbEntity
  8
Default
100
AcDbSpline
210
0.0
220
0.0
230
1.0
 70
    24
 71
     2
 72
     6
 73
     3
 74
     0
 42
0.0000000001
 43
0.0000000001
 40
0.0
 40
0.0
 40
0.0
 40
5.873565461719494
 40
5.873565461719494
 40
5.873565461719494
 10
41.9374977478893
 20
5.999913995361314
 30
0.0
 10
41.86062173815209
 20
3.064137626595648
 30
0.0
 10
41.78374572841489
 20
0.1283612578299831
 30
0.0
  0
SPLINE
  5
C1
330
1F
100
AcDbEntity
  8
Default
100
AcDbSpline
210
0.0
220
0.0
230
1.0
 70
    24
 71
     2
 72
     6
 73
     3
 74
     0
 42
0.0000000001
 43
0.0000000001
 40
0.0
 40
0.0
 40
0.0
 40
0.1815302317064782
 40
0.1815302317064782
 40
0.1815302317064782
 10
41.78374572841489
 20
0.1283612578299831
 30
0.0
 10
41.71956509949986
 20
0.0641806289149924
 30
0.0
 10
41.65538447058483
 20
0.0000000000000018
 30
0.0
  0
SPLINE
  5
C2
330
1F
100
AcDbEntity
  8
Default
100
AcDbSpline
210
0.0
220
0.0
230
1.0
 70
    24
 71
     2
 72
     6
 73
     3
 74
     0
 42
0.0000000001
 43
0.0000000001
 40
-1.06076894116967
 40
-1.06076894116967
 40
-1.06076894116967
 40
0.0
 40
0.0
 40
0.0
 10
41.65538447058483
 20
0.0000000000000018
 30
0.0
 10
41.125
 20
0.0000000000000018
 30
0.0
 10
40.59461552941517
 20
0.0000000000000018
 30
0.0
  0
SPLINE
  5
C3
330
1F
100
AcDbEntity
  8
Default
100
AcDbSpline
210
0.0
220
0.0
230
1.0
 70
    24
 71
     2
 72
     6
 73
     3
 74
     0
 42
0.0000000001
 43
0.0000000001
 40
0.0
 40
0.0
 40
0.0
 40
0.1796460136907489
 40
0.1796460136907489
 40
0.1796460136907489
 10
40.59461552941517
 20
0.0000000000000018
 30
0.0
 10
40.53076798633418
 20
0.0638475430809533
 30
0.0
 10
40.46692044325319
 20
0.1276950861619048
 30
0.0
  0
SPLINE
  5
C4
330
1F
100
AcDbEntity
  8
Default
100
AcDbSpline
210
0.0
220
0.0
230
1.0
 70
    24
 71
     2
 72
     6
 73
     3
 74
     0
 42
0.0000000001
 43
0.0000000001
 40
0.0
 40
0.0
 40
0.0
 40
5.873651495839859
 40
5.873651495839859
 40
5.873651495839859
 10
40.46692044325319
 20
0.1276950861619048
 30
0.0
 10
40.38971022162659
 20
3.06384754308092
 30
0.0
 10
40.31249999999998
 20
5.999999999999934
 30
0.0
  0
SPLINE
  5
C5
330
1F
100
AcDbEntity
  8
Default
100
AcDbSpline
210
0.0
220
0.0
230
1.0
 70
    24
 71
     2
 72
     6
 73
     3
 74
     0
 42
0.0000000001
 43
0.0000000001
 40
0.0
 40
0.0
 40
0.0
 40
0.0128515528768993
 40
0.0128515528768993
 40
0.0128515528768993
 10
-20.125
 20
11.49984893386993
 30
0.0
 10
-20.125
 20
11.49342315743148
 30
0.0
 10
-20.125
 20
11.48699738099304
 30
0.0
  0
ARC
  5
C6
330
1F
100
AcDbEntity
  8
Default
100
AcDbCircle
 10
-39.125
 20
26.74999999999993
 30
0.0
 40
0.25
100
AcDbArc
 50
0.0000000000048853
 51
90.0
  0
LINE
  5
C7
330
1F
100
AcDbEntity
  8
Default
100
AcDbLine
 10
-38.875
 20
26.74999999999995
 30
0.0
 11
-38.875
 21
5.999999999999934
 31
0.0
  0
SPLINE
  5
C8
330
1F
100
AcDbEntity
  8
Default
100
AcDbSpline
210
0.0
220
0.0
230
1.0
 70
    24
 71
     2
 72
     6
 73
     3
 74
     0
 42
0.0000000001
 43
0.0000000001
 40
0.0
 40
0.0
 40
0.0
 40
5.873565461719494
 40
5.873565461719494
 40
5.873565461719494
 10
-41.9374977478893
 20
5.999913995361314
 30
0.0
 10
-41.86062173815209
 20
3.064137626595648
 30
0.0
 10
-41.78374572841489
 20
0.1283612578299831
 30
0.0
  0
SPLINE
  5
C9
330
1F
100
AcDbEntity
  8
Default
100
AcDbSpline
210
0.0
220
0.0
230
1.0
 70
    24
 71
     2
 72
     6
 73
     3
 74
     0
 42
0.0000000001
 43
0.0000000001
 40
0.0
 40
0.0
 40
0.0
 40
0.1815302317064782
 40
0.1815302317064782
 40
0.1815302317064782
 10
-41.78374572841489
 20
0.1283612578299831
 30
0.0
 10
-41.71956509949986
 20
0.0641806289149924
 30
0.0
 10
-41.65538447058483
 20
0.0000000000000018
 30
0.0
  0
SPLINE
  5
CA
330
1F
100
AcDbEntity
  8
Default
100
AcDbSpline
210
0.0
220
0.0
230
1.0
 70
    24
 71
     2
 72
     6
 73
     3
 74
     0
 42
0.0000000001
 43
0.0000000001
 40
-1.06076894116967
 40
-1.06076894116967
 40
-1.06076894116967
 40
0.0
 40
0.0
 40
0.0
 10
-41.65538447058483
 20
0.0000000000000018
 30
0.0
 10
-41.125
 20
0.0000000000000018
 30
0.0
 10
-40.59461552941517
 20
0.0000000000000018
 30
0.0
  0
SPLINE
  5
CB
330
1F
100
AcDbEntity
  8
Default
100
AcDbSpline
210
0.0
220
0.0
230
1.0
 70
    24
 71
     2
 72
     6
 73
     3
 74
     0
 42
0.0000000001
 43
0.0000000001
 40
0.0
 40
0.0
 40
0.0
 40
0.1796460136907489
 40
0.1796460136907489
 40
0.1796460136907489
 10
-40.59461552941517
 20
0.0000000000000018
 30
0.0
 10
-40.53076798633418
 20
0.0638475430809533
 30
0.0
 10
-40.46692044325319
 20
0.1276950861619048
 30
0.0
  0
SPLINE
  5
CC
330
1F
100
AcDbEntity
  8
Default
100
AcDbSpline
210
0.0
220
0.0
230
1.0
 70
    24
 71
     2
 72
     6
 73
     3
 74
     0
 42
0.0000000001
 43
0.0000000001
 40
0.0
 40
0.0
 40
0.0
 40
5.873651495839859
 40
5.873651495839859
 40
5.873651495839859
 10
-40.46692044325319
 20
0.1276950861619048
 30
0.0
 10
-40.38971022162659
 20
3.06384754308092
 30
0.0
 10
-40.31249999999998
 20
5.999999999999934
 30
0.0
  0
ARC
  5
CD
330
1F
100
AcDbEntity
  8
Default
100
AcDbCircle
 10
2.989583333333191
 20
110.2833197142738
 30
0.0
 40
47.49467250249946
100
AcDbArc
 50
266.3910936974344
 51
273.608906302566
  0
ARC
  5
CE
330
1F
100
AcDbEntity
  8
Default
100
AcDbCircle
 10
9.968749999999849
 20
110.2833197142739
 30
0.0
 40
47.49467250249946
100
AcDbArc
 50
266.3910936974341
 51
273.6089063025659
  0
ARC
  5
CF
330
1F
100
AcDbEntity
  8
Default
100
AcDbCircle
 10
22.92708333333317
 20
110.2833197142739
 30
0.0
 40
47.49467250249946
100
AcDbArc
 50
266.3910936974343
 51
273.608906302566
  0
ARC
  5
D0
330
1F
100
AcDbEntity
  8
Default
100
AcDbCircle
 10
15.94791666666652
 20
110.2833197142739
 30
0.0
 40
47.49467250249946
100
AcDbArc
 50
266.3910936974344
 51
273.608906302566
  0
ARC
  5
D1
330
1F
100
AcDbEntity
  8
Default
100
AcDbCircle
 10
28.90624999999985
 20
110.2833197142739
 30
0.0
 40
47.49467250249946
100
AcDbArc
 50
266.3910936974345
 51
273.6089063025661
  0
ARC
  5
D2
330
1F
100
AcDbEntity
  8
Default
100
AcDbCircle
 10
35.88541666666651
 20
110.2833197142739
 30
0.0
 40
47.49467250249946
100
AcDbArc
 50
266.391093697434
 51
273.6089063025657
  0
POLYLINE
  5
D3
330
1F
100
AcDbEntity
  8
Default
100
AcDb2dPolyline
 66
     1
 10
0.0
 20
0.0
 30
0.0
  0
VERTEX
  5
D4
330
D3
100
AcDbEntity
  8
Default
100
AcDbVertex
100
AcDb2dVertex
 10
12.95833333333328
 20
61.06488597609835
 30
0.0
  0
VERTEX
  5
D5
330
D3
100
AcDbEntity
  8
Default
100
AcDbVertex
100
AcDb2dVertex
 10
12.95833333333328
 20
65.02190949182366
 30
0.0
  0
SEQEND
  5
D6
330
D3
100
AcDbEntity
  8
Default
  0
POLYLINE
  5
D7
330
1F
100
AcDbEntity
  8
Default
100
AcDb2dPolyline
 66
     1
 10
0.0
 20
0.0
 30
0.0
  0
VERTEX
  5
D8
330
D7
100
AcDbEntity
  8
Default
100
AcDbVertex
100
AcDb2dVertex
 10
25.91666666666661
 20
61.06488597609835
 30
0.0
  0
VERTEX
  5
D9
330
D7
100
AcDbEntity
  8
Default
100
AcDbVertex
100
AcDb2dVertex
 10
25.91666666666661
 20
65.02190949182369
 30
0.0
  0
SEQEND
  5
DA
330
D7
100
AcDbEntity
  8
Default
  0
POLYLINE
  5
DB
330
1F
100
AcDbEntity
  8
Default
100
AcDb2dPolyline
 66
     1
 10
0.0
 20
0.0
 30
0.0
  0
VERTEX
  5
DC
330
DB
100
AcDbEntity
  8
Default
100
AcDbVertex
100
AcDb2dVertex
 10
6.479166666666621
 20
63.10491179069772
 30
0.0
  0
VERTEX
  5
DD
330
DB
100
AcDbEntity
  8
Default
100
AcDbVertex
100
AcDb2dVertex
 10
6.479166666666616
 20
65.02190949182368
 30
0.0
  0
SEQEND
  5
DE
330
DB
100
AcDbEntity
  8
Default
  0
POLYLINE
  5
DF
330
1F
100
AcDbEntity
  8
Default
100
AcDb2dPolyline
 66
     1
 10
0.0
 20
0.0
 30
0.0
  0
VERTEX
  5
E0
330
DF
100
AcDbEntity
  8
Default
100
AcDbVertex
100
AcDb2dVertex
 10
6.479166666666625
 20
61.06488597609835
 30
0.0
  0
VERTEX
  5
E1
330
DF
100
AcDbEntity
  8
Default
100
AcDbVertex
100
AcDb2dVertex
 10
6.479166666666622
 20
62.66075068902881
 30
0.0
  0
SEQEND
  5
E2
330
DF
100
AcDbEntity
  8
Default
  0
SPLINE
  5
E3
330
1F
100
AcDbEntity
  8
Default
100
AcDbSpline
210
0.0
220
0.0
230
1.0
 70
    15
 71
     2
 72
    12
 73
     9
 74
     0
 42
0.0000000001
 43
0.0000000001
 40
0.0
 40
0.0
 40
0.0
 40
0.7853981633974483
 40
0.7853981633974483
 40
1.570796326794897
 40
1.570796326794897
 40
2.356194490192345
 40
2.356194490192345
 40
3.141592653589793
 40
3.141592653589793
 40
3.141592653589793
 10
5.979166666666621
 20
62.88283123986326
 30
0.0
 41
1.0
 10
5.979166666666615
 20
63.10491179069773
 30
0.0
 41
0.7071067811865476
 10
6.479166666666621
 20
63.10491179069772
 30
0.0
 41
1.0
 10
6.979166666666619
 20
63.10491179069773
 30
0.0
 41
0.7071067811865476
 10
6.979166666666621
 20
62.88283123986326
 30
0.0
 41
1.0
 10
6.97916666666662
 20
62.66075068902881
 30
0.0
 41
0.7071067811865476
 10
6.479166666666622
 20
62.66075068902881
 30
0.0
 41
1.0
 10
5.979166666666617
 20
62.66075068902881
 30
0.0
 41
0.7071067811865476
 10
5.979166666666621
 20
62.88283123986326
 30
0.0
 41
1.0
  0
POLYLINE
  5
E4
330
1F
100
AcDbEntity
  8
Default
100
AcDb2dPolyline
 66
     1
 10
0.0
 20
0.0
 30
0.0
  0
VERTEX
  5
E5
330
E4
100
AcDbEntity
  8
Default
100
AcDbVertex
100
AcDb2dVertex
 10
19.43749999999995
 20
63.10491179069771
 30
0.0
  0
VERTEX
  5
E6
330
E4
100
AcDbEntity
  8
Default
100
AcDbVertex
100
AcDb2dVertex
 10
19.43749999999994
 20
65.02190949182368
 30
0.0
  0
SEQEND
  5
E7
330
E4
100
AcDbEntity
  8
Default
  0
POLYLINE
  5
E8
330
1F
100
AcDbEntity
  8
Default
100
AcDb2dPolyline
 66
     1
 10
0.0
 20
0.0
 30
0.0
  0
VERTEX
  5
E9
330
E8
100
AcDbEntity
  8
Default
100
AcDbVertex
100
AcDb2dVertex
 10
19.43749999999995
 20
61.06488597609834
 30
0.0
  0
VERTEX
  5
EA
330
E8
100
AcDbEntity
  8
Default
100
AcDbVertex
100
AcDb2dVertex
 10
19.43749999999995
 20
62.6607506890288
 30
0.0
  0
SEQEND
  5
EB
330
E8
100
AcDbEntity
  8
Default
  0
SPLINE
  5
EC
330
1F
100
AcDbEntity
  8
Default
100
AcDbSpline
210
0.0
220
0.0
230
1.0
 70
    15
 71
     2
 72
    12
 73
     9
 74
     0
 42
0.0000000001
 43
0.0000000001
 40
0.0
 40
0.0
 40
0.0
 40
0.7853981633974483
 40
0.7853981633974483
 40
1.570796326794897
 40
1.570796326794897
 40
2.356194490192345
 40
2.356194490192345
 40
3.141592653589793
 40
3.141592653589793
 40
3.141592653589793
 10
18.93749999999995
 20
62.88283123986325
 30
0.0
 41
1.0
 10
18.93749999999994
 20
63.10491179069771
 30
0.0
 41
0.7071067811865476
 10
19.43749999999995
 20
63.10491179069771
 30
0.0
 41
1.0
 10
19.93749999999994
 20
63.10491179069771
 30
0.0
 41
0.7071067811865476
 10
19.93749999999995
 20
62.88283123986326
 30
0.0
 41
1.0
 10
19.93749999999994
 20
62.6607506890288
 30
0.0
 41
0.7071067811865476
 10
19.43749999999995
 20
62.6607506890288
 30
0.0
 41
1.0
 10
18.93749999999994
 20
62.6607506890288
 30
0.0
 41
0.7071067811865476
 10
18.93749999999995
 20
62.88283123986325
 30
0.0
 41
1.0
  0
POLYLINE
  5
ED
330
1F
100
AcDbEntity
  8
Default
100
AcDb2dPolyline
 66
     1
 10
0.0
 20
0.0
 30
0.0
  0
VERTEX
  5
EE
330
ED
100
AcDbEntity
  8
Default
100
AcDbVertex
100
AcDb2dVertex
 10
32.39583333333328
 20
63.10491179069774
 30
0.0
  0
VERTEX
  5
EF
330
ED
100
AcDbEntity
  8
Default
100
AcDbVertex
100
AcDb2dVertex
 10
32.39583333333327
 20
65.0219094918237
 30
0.0
  0
SEQEND
  5
F0
330
ED
100
AcDbEntity
  8
Default
  0
POLYLINE
  5
F1
330
1F
100
AcDbEntity
  8
Default
100
AcDb2dPolyline
 66
     1
 10
0.0
 20
0.0
 30
0.0
  0
VERTEX
  5
F2
330
F1
100
AcDbEntity
  8
Default
100
AcDbVertex
100
AcDb2dVertex
 10
32.39583333333328
 20
61.06488597609837
 30
0.0
  0
VERTEX
  5
F3
330
F1
100
AcDbEntity
  8
Default
100
AcDbVertex
100
AcDb2dVertex
 10
32.39583333333328
 20
62.66075068902883
 30
0.0
  0
SEQEND
  5
F4
330
F1
100
AcDbEntity
  8
Default
  0
SPLINE
  5
F5
330
1F
100
AcDbEntity
  8
Default
100
AcDbSpline
210
0.0
220
0.0
230
1.0
 70
    15
 71
     2
 72
    12
 73
     9
 74
     0
 42
0.0000000001
 43
0.0000000001
 40
0.0
 40
0.0
 40
0.0
 40
0.7853981633974483
 40
0.7853981633974483
 40
1.570796326794897
 40
1.570796326794897
 40
2.356194490192345
 40
2.356194490192345
 40
3.141592653589793
 40
3.141592653589793
 40
3.141592653589793
 10
31.89583333333328
 20
62.88283123986329
 30
0.0
 41
1.0
 10
31.89583333333327
 20
63.10491179069776
 30
0.0
 41
0.7071067811865476
 10
32.39583333333328
 20
63.10491179069774
 30
0.0
 41
1.0
 10
32.89583333333327
 20
63.10491179069776
 30
0.0
 41
0.7071067811865476
 10
32.89583333333328
 20
62.88283123986329
 30
0.0
 41
1.0
 10
32.89583333333328
 20
62.66075068902884
 30
0.0
 41
0.7071067811865476
 10
32.39583333333328
 20
62.66075068902883
 30
0.0
 41
1.0
 10
31.89583333333328
 20
62.66075068902884
 30
0.0
 41
0.7071067811865476
 10
31.89583333333328
 20
62.88283123986329
 30
0.0
 41
1.0
  0
LINE
  5
F6
330
1F
100
AcDbEntity
  8
Default
100
AcDbLine
 10
19.43749999999999
 20
43.48319925160956
 30
0.0
 11
19.43749999999999
 21
38.28930367677997
 31
0.0
  0
LINE
  5
F7
330
1F
100
AcDbEntity
  8
Default
100
AcDbLine
 10
19.43749999999997
 20
54.87099040126873
 30
0.0
 11
19.43749999999998
 21
44.48319925160956
 31
0.0
  0
LINE
  5
F8
330
1F
100
AcDbEntity
  8
Default
100
AcDbLine
 10
19.43749999999996
 20
61.06488597609835
 30
0.0
 11
19.43749999999997
 21
55.87099040126873
 31
0.0
  0
LINE
  5
F9
330
1F
100
AcDbEntity
  8
Default
100
AcDbLine
 10
6.47916666666666
 20
43.48319925160951
 30
0.0
 11
6.479166666666671
 21
38.28930367677992
 31
0.0
  0
LINE
  5
FA
330
1F
100
AcDbEntity
  8
Default
100
AcDbLine
 10
6.479166666666637
 20
54.87099040126868
 30
0.0
 11
6.479166666666658
 21
44.48319925160951
 31
0.0
  0
LINE
  5
FB
330
1F
100
AcDbEntity
  8
Default
100
AcDbLine
 10
6.479166666666624
 20
61.06488597609835
 30
0.0
 11
6.479166666666635
 21
55.87099040126869
 31
0.0
  0
LINE
  5
FC
330
1F
100
AcDbEntity
  8
Default
100
AcDbLine
 10
5.979166666666637
 20
55.37099040126872
 30
0.0
 11
-0.000000000000033
 21
55.37099040126871
 31
0.0
  0
LINE
  5
FD
330
1F
100
AcDbEntity
  8
Default
100
AcDbLine
 10
18.93749999999995
 20
55.37099040126874
 30
0.0
 11
6.979166666666637
 21
55.37099040126872
 31
0.0
  0
LINE
  5
FE
330
1F
100
AcDbEntity
  8
Default
100
AcDbLine
 10
31.89583333333329
 20
55.37099040126877
 30
0.0
 11
19.93749999999995
 21
55.37099040126875
 31
0.0
  0
LINE
  5
FF
330
1F
100
AcDbEntity
  8
Default
100
AcDbLine
 10
38.87499999999996
 20
55.37099040126878
 30
0.0
 11
32.89583333333329
 21
55.37099040126878
 31
0.0
  0
LINE
  5
100
330
1F
100
AcDbEntity
  8
Default
100
AcDbLine
 10
5.97916666666666
 20
43.98319925160954
 30
0.0
 11
-0.0000000000000096
 21
43.98319925160953
 31
0.0
  0
LINE
  5
101
330
1F
100
AcDbEntity
  8
Default
100
AcDbLine
 10
18.93749999999998
 20
43.98319925160956
 30
0.0
 11
6.97916666666666
 21
43.98319925160954
 31
0.0
  0
LINE
  5
102
330
1F
100
AcDbEntity
  8
Default
100
AcDbLine
 10
31.89583333333332
 20
43.98319925160959
 30
0.0
 11
19.93749999999998
 21
43.98319925160957
 31
0.0
  0
LINE
  5
103
330
1F
100
AcDbEntity
  8
Default
100
AcDbLine
 10
38.87499999999998
 20
43.98319925160961
 30
0.0
 11
32.89583333333331
 21
43.9831992516096
 31
0.0
  0
CIRCLE
  5
104
330
1F
100
AcDbEntity
  8
Default
100
AcDbCircle
 10
6.47916666666666
 20
43.98319925160951
 30
0.0
 40
0.5
  0
CIRCLE
  5
105
330
1F
100
AcDbEntity
  8
Default
100
AcDbCircle
 10
6.479166666666637
 20
55.37099040126868
 30
0.0
 40
0.5
  0
CIRCLE
  5
106
330
1F
100
AcDbEntity
  8
Default
100
AcDbCircle
 10
19.43749999999998
 20
43.98319925160956
 30
0.0
 40
0.5
  0
CIRCLE
  5
107
330
1F
100
AcDbEntity
  8
Default
100
AcDbCircle
 10
19.43749999999995
 20
55.37099040126873
 30
0.0
 40
0.5
  0
POLYLINE
  5
108
330
1F
100
AcDbEntity
  8
Default
100
AcDb2dPolyline
 66
     1
 10
0.0
 20
0.0
 30
0.0
  0
VERTEX
  5
109
330
108
100
AcDbEntity
  8
Default
100
AcDbVertex
100
AcDb2dVertex
 10
32.39583333333329
 20
55.87099040126878
 30
0.0
  0
VERTEX
  5
10A
330
108
100
AcDbEntity
  8
Default
100
AcDbVertex
100
AcDb2dVertex
 10
32.39583333333328
 20
61.06488597609837
 30
0.0
  0
SEQEND
  5
10B
330
108
100
AcDbEntity
  8
Default
  0
POLYLINE
  5
10C
330
1F
100
AcDbEntity
  8
Default
100
AcDb2dPolyline
 66
     1
 10
0.0
 20
0.0
 30
0.0
  0
VERTEX
  5
10D
330
10C
100
AcDbEntity
  8
Default
100
AcDbVertex
100
AcDb2dVertex
 10
32.39583333333331
 20
49.67709482643918
 30
0.0
  0
VERTEX
  5
10E
330
10C
100
AcDbEntity
  8
Default
100
AcDbVertex
100
AcDb2dVertex
 10
32.39583333333329
 20
54.87099040126878
 30
0.0
  0
SEQEND
  5
10F
330
10C
100
AcDbEntity
  8
Default
  0
POLYLINE
  5
110
330
1F
100
AcDbEntity
  8
Default
100
AcDb2dPolyline
 66
     1
 10
0.0
 20
0.0
 30
0.0
  0
VERTEX
  5
111
330
110
100
AcDbEntity
  8
Default
100
AcDbVertex
100
AcDb2dVertex
 10
32.39583333333331
 20
44.4831992516096
 30
0.0
  0
VERTEX
  5
112
330
110
100
AcDbEntity
  8
Default
100
AcDbVertex
100
AcDb2dVertex
 10
32.39583333333331
 20
49.67709482643918
 30
0.0
  0
SEQEND
  5
113
330
110
100
AcDbEntity
  8
Default
  0
POLYLINE
  5
114
330
1F
100
AcDbEntity
  8
Default
100
AcDb2dPolyline
 66
     1
 10
0.0
 20
0.0
 30
0.0
  0
VERTEX
  5
115
330
114
100
AcDbEntity
  8
Default
100
AcDbVertex
100
AcDb2dVertex
 10
32.39583333333333
 20
38.28930367678001
 30
0.0
  0
VERTEX
  5
116
330
114
100
AcDbEntity
  8
Default
100
AcDbVertex
100
AcDb2dVertex
 10
32.39583333333332
 20
43.4831992516096
 30
0.0
  0
SEQEND
  5
117
330
114
100
AcDbEntity
  8
Default
  0
CIRCLE
  5
118
330
1F
100
AcDbEntity
  8
Default
100
AcDbCircle
 10
32.39583333333331
 20
43.9831992516096
 30
0.0
 40
0.5
  0
CIRCLE
  5
119
330
1F
100
AcDbEntity
  8
Default
100
AcDbCircle
 10
32.39583333333329
 20
55.37099040126878
 30
0.0
 40
0.5
  0
LINE
  5
11A
330
1F
100
AcDbEntity
  8
Default
100
AcDbLine
 10
12.95833333333328
 20
61.06488597609835
 30
0.0
 11
12.95833333333333
 21
38.28930367677994
 31
0.0
  0
LINE
  5
11B
330
1F
100
AcDbEntity
  8
Default
100
AcDbLine
 10
25.91666666666661
 20
61.06488597609835
 30
0.0
 11
25.91666666666666
 21
38.28930367677999
 31
0.0
  0
LINE
  5
11C
330
1F
100
AcDbEntity
  8
Default
100
AcDbLine
 10
38.87499999999997
 20
49.67709482643919
 30
0.0
 11
-0.0000000000000253
 21
49.67709482643912
 31
0.0
  0
POLYLINE
  5
11D
330
1F
100
AcDbEntity
  8
Default
100
AcDb2dPolyline
 66
     1
 10
0.0
 20
0.0
 30
0.0
  0
VERTEX
  5
11E
330
11D
100
AcDbEntity
  8
Default
100
AcDbVertex
100
AcDb2dVertex
 10
38.87499999999999
 20
40.69308051756487
 30
0.0
  0
VERTEX
  5
11F
330
11D
100
AcDbEntity
  8
Default
100
AcDbVertex
100
AcDb2dVertex
 10
38.87499999999999
 20
39.28930367678012
 30
0.0
  0
SEQEND
  5
120
330
11D
100
AcDbEntity
  8
Default
  0
ARC
  5
121
330
1F
100
AcDbEntity
  8
Default
100
AcDbCircle
 10
37.87499999999999
 20
39.28930367678004
 30
0.0
 40
1.0
100
AcDbArc
 50
270.0000000000085
 51
0.0000000000048853
  0
LINE
  5
122
330
1F
100
AcDbEntity
  8
Default
100
AcDbLine
 10
37.87500000000014
 20
38.28930367678004
 30
0.0
 11
0.9999999999998468
 21
38.28930367677989
 31
0.0
  0
LINE
  5
123
330
1F
100
AcDbEntity
  8
Default
100
AcDbLine
 10
-0.000000000000064
 20
68.25359747692758
 30
0.0
 11
-0.0000000000000044
 21
39.28930367678004
 31
0.0
  0
ARC
  5
124
330
1F
100
AcDbEntity
  8
Default
100
AcDbCircle
 10
0.9999999999999956
 20
39.28930367677996
 30
0.0
 40
1.0
100
AcDbArc
 50
179.9999999999951
 51
269.9999999999916
  0
LINE
  5
125
330
1F
100
AcDbEntity
  8
Default
100
AcDbLine
 10
38.87499999999994
 20
61.06488597609837
 30
0.0
 11
-0.0000000000000487
 21
61.0648859760983
 31
0.0
  0
LINE
  5
126
330
1F
100
AcDbEntity
  8
Default
100
AcDbLine
 10
38.07496525070615
 20
65.02190949182372
 30
0.0
 11
0.8000347492937325
 21
65.02190949182364
 31
0.0
  0
POLYLINE
  5
127
330
1F
100
AcDbEntity
  8
Default
100
AcDb2dPolyline
 66
     1
 10
0.0
 20
0.0
 30
0.0
  0
VERTEX
  5
128
330
127
100
AcDbEntity
  8
Default
100
AcDbVertex
100
AcDb2dVertex
 10
38.07496525070614
 20
68.79615824416814
 30
0.0
  0
VERTEX
  5
129
330
127
100
AcDbEntity
  8
Default
100
AcDbVertex
100
AcDb2dVertex
 10
0.8000347492937212
 20
68.79615824416805
 30
0.0
  0
SEQEND
  5
12A
330
127
100
AcDbEntity
  8
Default
  0
SPLINE
  5
12B
330
1F
100
AcDbEntity
  8
Default
100
AcDbSpline
210
0.0
220
0.0
230
1.0
 70
     8
 71
     3
 72
     8
 73
     4
 74
     0
 42
0.0000000001
 43
0.0000000001
 40
0.0
 40
0.0
 40
0.0
 40
0.0
 40
1.0
 40
1.0
 40
1.0
 40
1.0
 10
-0.000000000000064
 20
68.25359747692758
 30
0.0
 10
-0.0000000000000646
 20
68.5288594502946
 30
0.0
 10
0.2341365216728721
 20
68.79615824416805
 30
0.0
 10
0.8000347492937212
 20
68.79615824416805
 30
0.0
  0
SPLINE
  5
12C
330
1F
100
AcDbEntity
  8
Default
100
AcDbSpline
210
0.0
220
0.0
230
1.0
 70
     8
 71
     3
 72
     8
 73
     4
 74
     0
 42
0.0000000001
 43
0.0000000001
 40
0.0
 40
0.0
 40
0.0
 40
0.0
 40
1.0
 40
1.0
 40
1.0
 40
1.0
 10
-0.0000000000000562
 20
64.47934872458316
 30
0.0
 10
-0.0000000000000568
 20
64.75461069795018
 30
0.0
 10
0.2341365216728798
 20
65.02190949182364
 30
0.0
 10
0.800034749293729
 20
65.02190949182364
 30
0.0
  0
LINE
  5
12D
330
1F
100
AcDbEntity
  8
Default
100
AcDbLine
 10
38.87499999999993
 20
68.25359747692767
 30
0.0
 11
38.87499999999999
 21
40.04526066566613
 31
0.0
  0
ARC
  5
12E
330
1F
100
AcDbEntity
  8
Default
100
AcDbCircle
 10
39.12499999999999
 20
40.04526066566613
 30
0.0
 40
0.25
100
AcDbArc
 50
180.0
 51
269.9999999999691
  0
SPLINE
  5
12F
330
1F
100
AcDbEntity
  8
Default
100
AcDbSpline
210
0.0
220
0.0
230
1.0
 70
     8
 71
     3
 72
     8
 73
     4
 74
     0
 42
0.0000000001
 43
0.0000000001
 40
0.0
 40
0.0
 40
0.0
 40
0.0
 40
1.0
 40
1.0
 40
1.0
 40
1.0
 10
38.87499999999993
 20
68.25359747692767
 30
0.0
 10
38.87499999999993
 20
68.52885945029469
 30
0.0
 10
38.64086347832699
 20
68.79615824416814
 30
0.0
 10
38.07496525070614
 20
68.79615824416814
 30
0.0
  0
SPLINE
  5
130
330
1F
100
AcDbEntity
  8
Default
100
AcDbSpline
210
0.0
220
0.0
230
1.0
 70
     8
 71
     3
 72
     8
 73
     4
 74
     0
 42
0.0000000001
 43
0.0000000001
 40
0.0
 40
0.0
 40
0.0
 40
0.0
 40
1.0
 40
1.0
 40
1.0
 40
1.0
 10
38.87499999999994
 20
64.47934872458325
 30
0.0
 10
38.87499999999994
 20
64.75461069795027
 30
0.0
 10
38.640863478327
 20
65.02190949182372
 30
0.0
 10
38.07496525070615
 20
65.02190949182372
 30
0.0
  0
ARC
  5
131
330
1F
100
AcDbEntity
  8
Default
100
AcDbCircle
 10
-2.989583333333346
 20
110.2833197142738
 30
0.0
 40
47.49467250249946
100
AcDbArc
 50
266.391093697434
 51
273.6089063025657
  0
ARC
  5
132
330
1F
100
AcDbEntity
  8
Default
100
AcDbCircle
 10
-9.968750000000004
 20
110.2833197142738
 30
0.0
 40
47.49467250249946
100
AcDbArc
 50
266.3910936974343
 51
273.608906302566
  0
ARC
  5
133
330
1F
100
AcDbEntity
  8
Default
100
AcDbCircle
 10
-22.92708333333333
 20
110.2833197142738
 30
0.0
 40
47.49467250249946
100
AcDbArc
 50
266.3910936974343
 51
273.608906302566
  0
ARC
  5
134
330
1F
100
AcDbEntity
  8
Default
100
AcDbCircle
 10
-15.94791666666667
 20
110.2833197142738
 30
0.0
 40
47.49467250249946
100
AcDbArc
 50
266.391093697434
 51
273.6089063025657
  0
ARC
  5
135
330
1F
100
AcDbEntity
  8
Default
100
AcDbCircle
 10
-28.90625000000001
 20
110.2833197142738
 30
0.0
 40
47.49467250249946
100
AcDbArc
 50
266.391093697434
 51
273.6089063025657
  0
ARC
  5
136
330
1F
100
AcDbEntity
  8
Default
100
AcDbCircle
 10
-35.88541666666666
 20
110.2833197142738
 30
0.0
 40
47.49467250249946
100
AcDbArc
 50
266.3910936974341
 51
273.6089063025659
  0
POLYLINE
  5
137
330
1F
100
AcDbEntity
  8
Default
100
AcDb2dPolyline
 66
     1
 10
0.0
 20
0.0
 30
0.0
  0
VERTEX
  5
138
330
137
100
AcDbEntity
  8
Default
100
AcDbVertex
100
AcDb2dVertex
 10
-12.95833333333334
 20
61.06488597609832
 30
0.0
  0
VERTEX
  5
139
330
137
100
AcDbEntity
  8
Default
100
AcDbVertex
100
AcDb2dVertex
 10
-12.95833333333334
 20
65.02190949182364
 30
0.0
  0
SEQEND
  5
13A
330
137
100
AcDbEntity
  8
Default
  0
POLYLINE
  5
13B
330
1F
100
AcDbEntity
  8
Default
100
AcDb2dPolyline
 66
     1
 10
0.0
 20
0.0
 30
0.0
  0
VERTEX
  5
13C
330
13B
100
AcDbEntity
  8
Default
100
AcDbVertex
100
AcDb2dVertex
 10
-25.91666666666667
 20
61.0648859760983
 30
0.0
  0
VERTEX
  5
13D
330
13B
100
AcDbEntity
  8
Default
100
AcDbVertex
100
AcDb2dVertex
 10
-25.91666666666667
 20
65.02190949182364
 30
0.0
  0
SEQEND
  5
13E
330
13B
100
AcDbEntity
  8
Default
  0
POLYLINE
  5
13F
330
1F
100
AcDbEntity
  8
Default
100
AcDb2dPolyline
 66
     1
 10
0.0
 20
0.0
 30
0.0
  0
VERTEX
  5
140
330
13F
100
AcDbEntity
  8
Default
100
AcDbVertex
100
AcDb2dVertex
 10
-6.479166666666679
 20
63.10491179069771
 30
0.0
  0
VERTEX
  5
141
330
13F
100
AcDbEntity
  8
Default
100
AcDbVertex
100
AcDb2dVertex
 10
-6.479166666666679
 20
65.02190949182366
 30
0.0
  0
SEQEND
  5
142
330
13F
100
AcDbEntity
  8
Default
  0
POLYLINE
  5
143
330
1F
100
AcDbEntity
  8
Default
100
AcDb2dPolyline
 66
     1
 10
0.0
 20
0.0
 30
0.0
  0
VERTEX
  5
144
330
143
100
AcDbEntity
  8
Default
100
AcDbVertex
100
AcDb2dVertex
 10
-6.479166666666679
 20
61.06488597609833
 30
0.0
  0
VERTEX
  5
145
330
143
100
AcDbEntity
  8
Default
100
AcDbVertex
100
AcDb2dVertex
 10
-6.479166666666679
 20
62.6607506890288
 30
0.0
  0
SEQEND
  5
146
330
143
100
AcDbEntity
  8
Default
  0
SPLINE
  5
147
330
1F
100
AcDbEntity
  8
Default
100
AcDbSpline
210
0.0
220
0.0
230
1.0
 70
    15
 71
     2
 72
    12
 73
     9
 74
     0
 42
0.0000000001
 43
0.0000000001
 40
0.0
 40
0.0
 40
0.0
 40
0.7853981633974483
 40
0.7853981633974483
 40
1.570796326794897
 40
1.570796326794897
 40
2.356194490192345
 40
2.356194490192345
 40
3.141592653589793
 40
3.141592653589793
 40
3.141592653589793
 10
-5.979166666666679
 20
62.88283123986325
 30
0.0
 41
1.0
 10
-5.979166666666673
 20
63.10491179069771
 30
0.0
 41
0.7071067811865476
 10
-6.479166666666679
 20
63.10491179069771
 30
0.0
 41
1.0
 10
-6.979166666666677
 20
63.10491179069771
 30
0.0
 41
0.7071067811865476
 10
-6.979166666666679
 20
62.88283123986325
 30
0.0
 41
1.0
 10
-6.979166666666677
 20
62.6607506890288
 30
0.0
 41
0.7071067811865476
 10
-6.479166666666679
 20
62.6607506890288
 30
0.0
 41
1.0
 10
-5.979166666666673
 20
62.6607506890288
 30
0.0
 41
0.7071067811865476
 10
-5.979166666666679
 20
62.88283123986325
 30
0.0
 41
1.0
  0
POLYLINE
  5
148
330
1F
100
AcDbEntity
  8
Default
100
AcDb2dPolyline
 66
     1
 10
0.0
 20
0.0
 30
0.0
  0
VERTEX
  5
149
330
148
100
AcDbEntity
  8
Default
100
AcDbVertex
100
AcDb2dVertex
 10
-19.4375
 20
63.10491179069767
 30
0.0
  0
VERTEX
  5
14A
330
148
100
AcDbEntity
  8
Default
100
AcDbVertex
100
AcDb2dVertex
 10
-19.4375
 20
65.02190949182364
 30
0.0
  0
SEQEND
  5
14B
330
148
100
AcDbEntity
  8
Default
  0
POLYLINE
  5
14C
330
1F
100
AcDbEntity
  8
Default
100
AcDb2dPolyline
 66
     1
 10
0.0
 20
0.0
 30
0.0
  0
VERTEX
  5
14D
330
14C
100
AcDbEntity
  8
Default
100
AcDbVertex
100
AcDb2dVertex
 10
-19.4375
 20
61.0648859760983
 30
0.0
  0
VERTEX
  5
14E
330
14C
100
AcDbEntity
  8
Default
100
AcDbVertex
100
AcDb2dVertex
 10
-19.4375
 20
62.66075068902876
 30
0.0
  0
SEQEND
  5
14F
330
14C
100
AcDbEntity
  8
Default
  0
SPLINE
  5
150
330
1F
100
AcDbEntity
  8
Default
100
AcDbSpline
210
0.0
220
0.0
230
1.0
 70
    15
 71
     2
 72
    12
 73
     9
 74
     0
 42
0.0000000001
 43
0.0000000001
 40
0.0
 40
0.0
 40
0.0
 40
0.7853981633974483
 40
0.7853981633974483
 40
1.570796326794897
 40
1.570796326794897
 40
2.356194490192345
 40
2.356194490192345
 40
3.141592653589793
 40
3.141592653589793
 40
3.141592653589793
 10
-18.9375
 20
62.88283123986321
 30
0.0
 41
1.0
 10
-18.9375
 20
63.10491179069767
 30
0.0
 41
0.7071067811865476
 10
-19.4375
 20
63.10491179069767
 30
0.0
 41
1.0
 10
-19.9375
 20
63.10491179069767
 30
0.0
 41
0.7071067811865476
 10
-19.9375
 20
62.88283123986321
 30
0.0
 41
1.0
 10
-19.9375
 20
62.66075068902876
 30
0.0
 41
0.7071067811865476
 10
-19.4375
 20
62.66075068902876
 30
0.0
 41
1.0
 10
-18.9375
 20
62.66075068902876
 30
0.0
 41
0.7071067811865476
 10
-18.9375
 20
62.88283123986321
 30
0.0
 41
1.0
  0
POLYLINE
  5
151
330
1F
100
AcDbEntity
  8
Default
100
AcDb2dPolyline
 66
     1
 10
0.0
 20
0.0
 30
0.0
  0
VERTEX
  5
152
330
151
100
AcDbEntity
  8
Default
100
AcDbVertex
100
AcDb2dVertex
 10
-32.39583333333334
 20
63.10491179069768
 30
0.0
  0
VERTEX
  5
153
330
151
100
AcDbEntity
  8
Default
100
AcDbVertex
100
AcDb2dVertex
 10
-32.39583333333334
 20
65.02190949182364
 30
0.0
  0
SEQEND
  5
154
330
151
100
AcDbEntity
  8
Default
  0
POLYLINE
  5
155
330
1F
100
AcDbEntity
  8
Default
100
AcDb2dPolyline
 66
     1
 10
0.0
 20
0.0
 30
0.0
  0
VERTEX
  5
156
330
155
100
AcDbEntity
  8
Default
100
AcDbVertex
100
AcDb2dVertex
 10
-32.39583333333334
 20
61.0648859760983
 30
0.0
  0
VERTEX
  5
157
330
155
100
AcDbEntity
  8
Default
100
AcDbVertex
100
AcDb2dVertex
 10
-32.39583333333334
 20
62.66075068902877
 30
0.0
  0
SEQEND
  5
158
330
155
100
AcDbEntity
  8
Default
  0
SPLINE
  5
159
330
1F
100
AcDbEntity
  8
Default
100
AcDbSpline
210
0.0
220
0.0
230
1.0
 70
    15
 71
     2
 72
    12
 73
     9
 74
     0
 42
0.0000000001
 43
0.0000000001
 40
0.0
 40
0.0
 40
0.0
 40
0.7853981633974483
 40
0.7853981633974483
 40
1.570796326794897
 40
1.570796326794897
 40
2.356194490192345
 40
2.356194490192345
 40
3.141592653589793
 40
3.141592653589793
 40
3.141592653589793
 10
-31.89583333333334
 20
62.88283123986322
 30
0.0
 41
1.0
 10
-31.89583333333333
 20
63.10491179069768
 30
0.0
 41
0.7071067811865476
 10
-32.39583333333334
 20
63.10491179069768
 30
0.0
 41
1.0
 10
-32.89583333333334
 20
63.10491179069768
 30
0.0
 41
0.7071067811865476
 10
-32.89583333333334
 20
62.88283123986322
 30
0.0
 41
1.0
 10
-32.89583333333334
 20
62.66075068902877
 30
0.0
 41
0.7071067811865476
 10
-32.39583333333334
 20
62.66075068902877
 30
0.0
 41
1.0
 10
-31.89583333333333
 20
62.66075068902877
 30
0.0
 41
0.7071067811865476
 10
-31.89583333333334
 20
62.88283123986322
 30
0.0
 41
1.0
  0
LINE
  5
15A
330
1F
100
AcDbEntity
  8
Default
100
AcDbLine
 10
-19.4375
 20
43.48319925160951
 30
0.0
 11
-19.4375
 21
38.28930367677992
 31
0.0
  0
LINE
  5
15B
330
1F
100
AcDbEntity
  8
Default
100
AcDbLine
 10
-19.43750000000001
 20
54.87099040126869
 30
0.0
 11
-19.4375
 21
44.48319925160951
 31
0.0
  0
LINE
  5
15C
330
1F
100
AcDbEntity
  8
Default
100
AcDbLine
 10
-19.43750000000002
 20
61.06488597609831
 30
0.0
 11
-19.43750000000001
 21
55.87099040126869
 31
0.0
  0
LINE
  5
15D
330
1F
100
AcDbEntity
  8
Default
100
AcDbLine
 10
-6.479166666666678
 20
43.4831992516095
 30
0.0
 11
-6.479166666666678
 21
38.2893036767799
 31
0.0
  0
LINE
  5
15E
330
1F
100
AcDbEntity
  8
Default
100
AcDbLine
 10
-6.479166666666678
 20
54.87099040126867
 30
0.0
 11
-6.479166666666678
 21
44.48319925160949
 31
0.0
  0
LINE
  5
15F
330
1F
100
AcDbEntity
  8
Default
100
AcDbLine
 10
-6.479166666666678
 20
61.06488597609833
 30
0.0
 11
-6.479166666666678
 21
55.87099040126868
 31
0.0
  0
LINE
  5
160
330
1F
100
AcDbEntity
  8
Default
100
AcDbLine
 10
-5.979166666666679
 20
55.37099040126871
 30
0.0
 11
-0.000000000000009
 21
55.37099040126871
 31
0.0
  0
LINE
  5
161
330
1F
100
AcDbEntity
  8
Default
100
AcDbLine
 10
-18.9375
 20
55.37099040126871
 30
0.0
 11
-6.979166666666679
 21
55.37099040126871
 31
0.0
  0
LINE
  5
162
330
1F
100
AcDbEntity
  8
Default
100
AcDbLine
 10
-31.89583333333334
 20
55.37099040126871
 30
0.0
 11
-19.9375
 21
55.37099040126871
 31
0.0
  0
LINE
  5
163
330
1F
100
AcDbEntity
  8
Default
100
AcDbLine
 10
-38.875
 20
55.37099040126871
 30
0.0
 11
-32.89583333333334
 21
55.37099040126871
 31
0.0
  0
LINE
  5
164
330
1F
100
AcDbEntity
  8
Default
100
AcDbLine
 10
-5.979166666666679
 20
43.98319925160953
 30
0.0
 11
-0.000000000000009
 21
43.98319925160953
 31
0.0
  0
LINE
  5
165
330
1F
100
AcDbEntity
  8
Default
100
AcDbLine
 10
-18.9375
 20
43.98319925160953
 30
0.0
 11
-6.979166666666679
 21
43.98319925160953
 31
0.0
  0
LINE
  5
166
330
1F
100
AcDbEntity
  8
Default
100
AcDbLine
 10
-31.89583333333334
 20
43.98319925160953
 30
0.0
 11
-19.9375
 21
43.98319925160953
 31
0.0
  0
LINE
  5
167
330
1F
100
AcDbEntity
  8
Default
100
AcDbLine
 10
-38.875
 20
43.98319925160953
 30
0.0
 11
-32.89583333333334
 21
43.98319925160953
 31
0.0
  0
CIRCLE
  5
168
330
1F
100
AcDbEntity
  8
Default
100
AcDbCircle
 10
-6.479166666666679
 20
43.98319925160949
 30
0.0
 40
0.5
  0
CIRCLE
  5
169
330
1F
100
AcDbEntity
  8
Default
100
AcDbCircle
 10
-6.479166666666679
 20
55.37099040126867
 30
0.0
 40
0.5
  0
CIRCLE
  5
16A
330
1F
100
AcDbEntity
  8
Default
100
AcDbCircle
 10
-19.4375
 20
43.98319925160951
 30
0.0
 40
0.5
  0
CIRCLE
  5
16B
330
1F
100
AcDbEntity
  8
Default
100
AcDbCircle
 10
-19.4375
 20
55.37099040126869
 30
0.0
 40
0.5
  0
POLYLINE
  5
16C
330
1F
100
AcDbEntity
  8
Default
100
AcDb2dPolyline
 66
     1
 10
0.0
 20
0.0
 30
0.0
  0
VERTEX
  5
16D
330
16C
100
AcDbEntity
  8
Default
100
AcDbVertex
100
AcDb2dVertex
 10
-32.39583333333334
 20
55.87099040126871
 30
0.0
  0
VERTEX
  5
16E
330
16C
100
AcDbEntity
  8
Default
100
AcDbVertex
100
AcDb2dVertex
 10
-32.39583333333334
 20
61.0648859760983
 30
0.0
  0
SEQEND
  5
16F
330
16C
100
AcDbEntity
  8
Default
  0
POLYLINE
  5
170
330
1F
100
AcDbEntity
  8
Default
100
AcDb2dPolyline
 66
     1
 10
0.0
 20
0.0
 30
0.0
  0
VERTEX
  5
171
330
170
100
AcDbEntity
  8
Default
100
AcDbVertex
100
AcDb2dVertex
 10
-32.39583333333334
 20
49.67709482643912
 30
0.0
  0
VERTEX
  5
172
330
170
100
AcDbEntity
  8
Default
100
AcDbVertex
100
AcDb2dVertex
 10
-32.39583333333334
 20
54.87099040126871
 30
0.0
  0
SEQEND
  5
173
330
170
100
AcDbEntity
  8
Default
  0
POLYLINE
  5
174
330
1F
100
AcDbEntity
  8
Default
100
AcDb2dPolyline
 66
     1
 10
0.0
 20
0.0
 30
0.0
  0
VERTEX
  5
175
330
174
100
AcDbEntity
  8
Default
100
AcDbVertex
100
AcDb2dVertex
 10
-32.39583333333334
 20
44.48319925160953
 30
0.0
  0
VERTEX
  5
176
330
174
100
AcDbEntity
  8
Default
100
AcDbVertex
100
AcDb2dVertex
 10
-32.39583333333334
 20
49.67709482643912
 30
0.0
  0
SEQEND
  5
177
330
174
100
AcDbEntity
  8
Default
  0
POLYLINE
  5
178
330
1F
100
AcDbEntity
  8
Default
100
AcDb2dPolyline
 66
     1
 10
0.0
 20
0.0
 30
0.0
  0
VERTEX
  5
179
330
178
100
AcDbEntity
  8
Default
100
AcDbVertex
100
AcDb2dVertex
 10
-32.39583333333334
 20
38.28930367677994
 30
0.0
  0
VERTEX
  5
17A
330
178
100
AcDbEntity
  8
Default
100
AcDbVertex
100
AcDb2dVertex
 10
-32.39583333333334
 20
43.48319925160953
 30
0.0
  0
SEQEND
  5
17B
330
178
100
AcDbEntity
  8
Default
  0
CIRCLE
  5
17C
330
1F
100
AcDbEntity
  8
Default
100
AcDbCircle
 10
-32.39583333333334
 20
43.98319925160953
 30
0.0
 40
0.5
  0
CIRCLE
  5
17D
330
1F
100
AcDbEntity
  8
Default
100
AcDbCircle
 10
-32.39583333333334
 20
55.37099040126871
 30
0.0
 40
0.5
  0
LINE
  5
17E
330
1F
100
AcDbEntity
  8
Default
100
AcDbLine
 10
-12.95833333333334
 20
61.06488597609832
 30
0.0
 11
-12.95833333333334
 21
38.28930367677992
 31
0.0
  0
LINE
  5
17F
330
1F
100
AcDbEntity
  8
Default
100
AcDbLine
 10
-25.91666666666667
 20
61.0648859760983
 30
0.0
 11
-25.91666666666667
 21
38.28930367677994
 31
0.0
  0
LINE
  5
180
330
1F
100
AcDbEntity
  8
Default
100
AcDbLine
 10
-38.875
 20
49.67709482643912
 30
0.0
 11
-0.0000000000000049
 21
49.67709482643912
 31
0.0
  0
POLYLINE
  5
181
330
1F
100
AcDbEntity
  8
Default
100
AcDb2dPolyline
 66
     1
 10
0.0
 20
0.0
 30
0.0
  0
VERTEX
  5
182
330
181
100
AcDbEntity
  8
Default
100
AcDbVertex
100
AcDb2dVertex
 10
-38.875
 20
40.69308051756479
 30
0.0
  0
VERTEX
  5
183
330
181
100
AcDbEntity
  8
Default
100
AcDbVertex
100
AcDb2dVertex
 10
-38.875
 20
39.28930367678004
 30
0.0
  0
SEQEND
  5
184
330
181
100
AcDbEntity
  8
Default
  0
ARC
  5
185
330
1F
100
AcDbEntity
  8
Default
100
AcDbCircle
 10
-37.875
 20
39.28930367677996
 30
0.0
 40
1.0
100
AcDbArc
 50
179.9999999999951
 51
269.9999999999915
  0
LINE
  5
186
330
1F
100
AcDbEntity
  8
Default
100
AcDbLine
 10
-37.87500000000014
 20
38.28930367677996
 30
0.0
 11
-0.9999999999998536
 21
38.28930367677989
 31
0.0
  0
LINE
  5
187
330
1F
100
AcDbEntity
  8
Default
100
AcDbLine
 10
-0.0000000000000044
 20
68.25359747692758
 30
0.0
 11
-0.0000000000000044
 21
39.28930367678004
 31
0.0
  0
ARC
  5
188
330
1F
100
AcDbEntity
  8
Default
100
AcDbCircle
 10
-1.000000000000004
 20
39.28930367677996
 30
0.0
 40
1.0
100
AcDbArc
 50
270.0000000000084
 51
0.0000000000048853
  0
LINE
  5
189
330
1F
100
AcDbEntity
  8
Default
100
AcDbLine
 10
-38.875
 20
61.0648859760983
 30
0.0
 11
-0.0000000000000049
 21
61.0648859760983
 31
0.0
  0
LINE
  5
18A
330
1F
100
AcDbEntity
  8
Default
100
AcDbLine
 10
-38.07496525070621
 20
65.02190949182364
 30
0.0
 11
-0.8000347492937943
 21
65.02190949182364
 31
0.0
  0
POLYLINE
  5
18B
330
1F
100
AcDbEntity
  8
Default
100
AcDb2dPolyline
 66
     1
 10
0.0
 20
0.0
 30
0.0
  0
VERTEX
  5
18C
330
18B
100
AcDbEntity
  8
Default
100
AcDbVertex
100
AcDb2dVertex
 10
-38.07496525070621
 20
68.79615824416805
 30
0.0
  0
VERTEX
  5
18D
330
18B
100
AcDbEntity
  8
Default
100
AcDbVertex
100
AcDb2dVertex
 10
-0.8000347492937907
 20
68.79615824416805
 30
0.0
  0
SEQEND
  5
18E
330
18B
100
AcDbEntity
  8
Default
  0
SPLINE
  5
18F
330
1F
100
AcDbEntity
  8
Default
100
AcDbSpline
210
0.0
220
0.0
230
1.0
 70
     8
 71
     3
 72
     8
 73
     4
 74
     0
 42
0.0000000001
 43
0.0000000001
 40
0.0
 40
0.0
 40
0.0
 40
0.0
 40
1.0
 40
1.0
 40
1.0
 40
1.0
 10
-0.0000000000000044
 20
68.25359747692758
 30
0.0
 10
-0.0000000000000044
 20
68.5288594502946
 30
0.0
 10
-0.2341365216729416
 20
68.79615824416805
 30
0.0
 10
-0.8000347492937907
 20
68.79615824416805
 30
0.0
  0
SPLINE
  5
190
330
1F
100
AcDbEntity
  8
Default
100
AcDbSpline
210
0.0
220
0.0
230
1.0
 70
     8
 71
     3
 72
     8
 73
     4
 74
     0
 42
0.0000000001
 43
0.0000000001
 40
0.0
 40
0.0
 40
0.0
 40
0.0
 40
1.0
 40
1.0
 40
1.0
 40
1.0
 10
-0.0000000000000044
 20
64.47934872458316
 30
0.0
 10
-0.0000000000000044
 20
64.75461069795018
 30
0.0
 10
-0.2341365216729416
 20
65.02190949182364
 30
0.0
 10
-0.8000347492937907
 20
65.02190949182364
 30
0.0
  0
SPLINE
  5
191
330
1F
100
AcDbEntity
  8
Default
100
AcDbSpline
210
0.0
220
0.0
230
1.0
 70
    12
 71
     2
 72
    22
 73
    19
 74
     0
 42
0.0000000001
 43
0.0000000001
 40
29.74999999999999
 40
29.74999999999999
 40
29.74999999999999
 40
33.74999999999999
 40
33.74999999999999
 40
34.14269908169884
 40
34.14269908169884
 40
64.90057309744665
 40
64.90057309744665
 40
65.29327217914538
 40
65.29327217914538
 40
98.79327217914538
 40
98.79327217914538
 40
99.1859712608441
 40
99.1859712608441
 40
129.943845276592
 40
129.943845276592
 40
130.3365443582908
 40
130.3365443582908
 40
134.3365443582908
 40
134.3365443582908
 40
134.3365443582908
 10
-38.875
 20
39.79526066566588
 30
0.0
 41
1.0
 10
-40.875
 20
39.79526066566588
 30
0.0
 41
1.0
 10
-42.875
 20
39.79526066566588
 30
0.0
 41
1.0
 10
-43.12500000000011
 20
39.79526066566588
 30
0.0
 41
0.7071067811863868
 10
-43.125
 20
40.04526066566599
 30
0.0
 41
1.0
 10
-43.125
 20
55.67026066566588
 30
0.0
 41
1.0
 10
-43.125
 20
71.29526066566577
 30
0.0
 41
1.0
 10
-43.125
 20
71.54526066566577
 30
0.0
 41
0.7071067811865476
 10
-42.875
 20
71.54526066566577
 30
0.0
 41
1.0
 10
0.0
 20
71.54526066566582
 30
0.0
 41
1.0
 10
42.875
 20
71.54526066566588
 30
0.0
 41
1.0
 10
43.125
 20
71.54526066566588
 30
0.0
 41
0.7071067811865476
 10
43.125
 20
71.29526066566588
 30
0.0
 41
1.0
 10
43.125
 20
55.67026066566594
 30
0.0
 41
1.0
 10
43.125
 20
40.04526066566599
 30
0.0
 41
1.0
 10
43.12500000000011
 20
39.79526066566588
 30
0.0
 41
0.7071067811863868
 10
42.875
 20
39.79526066566588
 30
0.0
 41
1.0
 10
40.875
 20
39.79526066566588
 30
0.0
 41
1.0
 10
38.875
 20
39.79526066566588
 30
0.0
 41
1.0
  0
LINE
  5
192
330
1F
100
AcDbEntity
  8
Default
100
AcDbLine
 10
-38.875
 20
68.25359747692758
 30
0.0
 11
-38.875
 21
40.04526066566605
 31
0.0
  0
ARC
  5
193
330
1F
100
AcDbEntity
  8
Default
100
AcDbCircle
 10
-39.125
 20
40.04526066566605
 30
0.0
 40
0.25
100
AcDbArc
 50
270.0000000000309
 51
0.0
  0
SPLINE
  5
194
330
1F
100
AcDbEntity
  8
Default
100
AcDbSpline
210
0.0
220
0.0
230
1.0
 70
     8
 71
     3
 72
     8
 73
     4
 74
     0
 42
0.0000000001
 43
0.0000000001
 40
0.0
 40
0.0
 40
0.0
 40
0.0
 40
1.0
 40
1.0
 40
1.0
 40
1.0
 10
-38.875
 20
68.25359747692758
 30
0.0
 10
-38.875
 20
68.5288594502946
 30
0.0
 10
-38.64086347832706
 20
68.79615824416805
 30
0.0
 10
-38.07496525070621
 20
68.79615824416805
 30
0.0
  0
SPLINE
  5
195
330
1F
100
AcDbEntity
  8
Default
100
AcDbSpline
210
0.0
220
0.0
230
1.0
 70
     8
 71
     3
 72
     8
 73
     4
 74
     0
 42
0.0000000001
 43
0.0000000001
 40
0.0
 40
0.0
 40
0.0
 40
0.0
 40
1.0
 40
1.0
 40
1.0
 40
1.0
 10
-38.875
 20
64.47934872458316
 30
0.0
 10
-38.875
 20
64.75461069795018
 30
0.0
 10
-38.64086347832706
 20
65.02190949182364
 30
0.0
 10
-38.07496525070621
 20
65.02190949182364
 30
0.0
  0
ENDSEC
  0
SECTION
  2
OBJECTS
  0
DICTIONARY
  5
C
330
0
100
AcDbDictionary
281
     1
  3
ACAD_GROUP
350
D
  3
ACAD_LAYOUT
350
1A
  3
ACAD_MLEADERSTYLE
350
197
  3
ACAD_MLINESTYLE
350
17
  3
ACAD_PLOTSETTINGS
350
19
  3
ACAD_PLOTSTYLENAME
350
E
  3
ACAD_TABLESTYLE
350
196
  3
ACAD_VISUALSTYLE
350
2A
  0
DICTIONARY
  5
D
102
{ACAD_REACTORS
330
C
102
}
330
C
100
AcDbDictionary
281
     1
  0
DICTIONARY
  5
1A
102
{ACAD_REACTORS
330
C
102
}
330
C
100
AcDbDictionary
281
     1
  3
Layout1
350
1E
  3
Layout2
350
26
  3
Model
350
22
  0
DICTIONARY
  5
197
102
{ACAD_REACTORS
330
C
102
}
330
C
100
AcDbDictionary
281
     1
  0
DICTIONARY
  5
17
102
{ACAD_REACTORS
330
C
102
}
330
C
100
AcDbDictionary
281
     1
  3
Standard
350
18
  0
DICTIONARY
  5
19
102
{ACAD_REACTORS
330
C
102
}
330
C
100
AcDbDictionary
281
     1
  0
ACDBDICTIONARYWDFLT
  5
E
102
{ACAD_REACTORS
330
C
102
}
330
C
100
AcDbDictionary
281
     1
  3
Normal
350
F
100
AcDbDictionaryWithDefault
340
F
  0
DICTIONARY
  5
196
102
{ACAD_REACTORS
330
C
102
}
330
C
100
AcDbDictionary
281
     1
  0
DICTIONARY
  5
2A
102
{ACAD_REACTORS
330
C
102
}
330
C
100
AcDbDictionary
281
     1
  3
2dWireframe
350
2F
  3
3D Hidden
350
31
  3
3dWireframe
350
30
  3
Basic
350
32
  3
Brighten
350
36
  3
ColorChange
350
3A
  3
Conceptual
350
34
  3
Dim
350
35
  3
Facepattern
350
39
  3
Flat
350
2B
  3
FlatWithEdges
350
2C
  3
Gouraud
350
2D
  3
GouraudWithEdges
350
2E
  3
Linepattern
350
38
  3
Realistic
350
33
  3
Thicken
350
37
  0
LAYOUT
  5
1E
102
{ACAD_REACTORS
330
1A
102
}
330
1A
100
AcDbPlotSettings
  1

  2
none_device
  4

  6

 40
0.0
 41
0.0
 42
0.0
 43
0.0
 44
0.0
 45
0.0
 46
0.0
 47
0.0
 48
0.0
 49
0.0
140
0.0
141
0.0
142
1.0
143
1.0
 70
   688
 72
     0
 73
     0
 74
     5
  7

 75
    16
 76
     0
 77
     2
 78
   300
147
1.0
148
0.0
149
0.0
100
AcDbLayout
  1
Layout1
 70
     1
 71
     1
 10
0.0
 20
0.0
 11
12.0
 21
9.0
 12
0.0
 22
0.0
 32
0.0
 14
1.000000000000000E+20
 24
1.000000000000000E+20
 34
1.000000000000000E+20
 15
-1.000000000000000E+20
 25
-1.000000000000000E+20
 35
-1.000000000000000E+20
146
0.0
 13
0.0
 23
0.0
 33
0.0
 16
1.0
 26
0.0
 36
0.0
 17
0.0
 27
1.0
 37
0.0
 76
     0
330
1B
  0
LAYOUT
  5
26
102
{ACAD_REACTORS
330
1A
102
}
330
1A
100
AcDbPlotSettings
  1

  2
none_device
  4

  6

 40
0.0
 41
0.0
 42
0.0
 43
0.0
 44
0.0
 45
0.0
 46
0.0
 47
0.0
 48
0.0
 49
0.0
140
0.0
141
0.0
142
1.0
143
1.0
 70
   688
 72
     0
 73
     0
 74
     5
  7

 75
    16
 76
     0
 77
     2
 78
   300
147
1.0
148
0.0
149
0.0
100
AcDbLayout
  1
Layout2
 70
     1
 71
     2
 10
0.0
 20
0.0
 11
0.0
 21
0.0
 12
0.0
 22
0.0
 32
0.0
 14
0.0
 24
0.0
 34
0.0
 15
0.0
 25
0.0
 35
0.0
146
0.0
 13
0.0
 23
0.0
 33
0.0
 16
1.0
 26
0.0
 36
0.0
 17
0.0
 27
1.0
 37
0.0
 76
     0
330
23
  0
LAYOUT
  5
22
102
{ACAD_REACTORS
330
1A
102
}
330
1A
100
AcDbPlotSettings
  1

  2
none_device
  4

  6

 40
0.0
 41
0.0
 42
0.0
 43
0.0
 44
0.0
 45
0.0
 46
0.0
 47
0.0
 48
0.0
 49
0.0
140
0.0
141
0.0
142
1.0
143
1.0
 70
  1712
 72
     0
 73
     0
 74
     0
  7

 75
     0
 76
     0
 77
     2
 78
   300
147
1.0
148
0.0
149
0.0
100
AcDbLayout
  1
Model
 70
     1
 71
     0
 10
0.0
 20
0.0
 11
12.0
 21
9.0
 12
0.0
 22
0.0
 32
0.0
 14
-43.125
 24
0.0000000000000018
 34
0.0
 15
86.7215917965187
 25
71.54526066566588
 35
0.0
146
0.0
 13
0.0
 23
0.0
 33
0.0
 16
1.0
 26
0.0
 36
0.0
 17
0.0
 27
1.0
 37
0.0
 76
     0
330
1F
331
29
  0
MLINESTYLE
  5
18
102
{ACAD_REACTORS
330
17
102
}
330
17
100
AcDbMlineStyle
  2
Standard
 70
     0
  3

 62
   256
 51
90.0
 52
90.0
 71
     2
 49
0.5
 62
   256
  6
BYLAYER
 49
-0.5
 62
   256
  6
BYLAYER
  0
ACDBPLACEHOLDER
  5
F
102
{ACAD_REACTORS
330
E
102
}
330
E
  0
VISUALSTYLE
  5
2F
102
{ACAD_REACTORS
330
2A
102
}
330
2A
100
AcDbVisualStyle
  2
2dWireframe
 70
     4
 71
     0
 72
     2
 73
     0
 90
        0
 40
-0.6
 41
-30.0
 62
     5
 63
     7
421
 16777215
 74
     1
 91
        4
 64
     7
 65
   257
 75
     1
175
     1
 42
1.0
 92
        0
 66
   257
 43
1.0
 76
     1
 77
     6
 78
     2
 67
     7
 79
     5
170
     0
171
     0
290
     0
174
     0
 93
        1
 44
0.0
173
     0
291
     0
 45
0.0
1001
ACAD
1000
AcDbSavedByObjectVersion
1070
     0
  0
VISUALSTYLE
  5
31
102
{ACAD_REACTORS
330
2A
102
}
330
2A
100
AcDbVisualStyle
  2
3D Hidden
 70
     6
 71
     1
 72
     2
 73
     2
 90
        0
 40
-0.6
 41
-30.0
 62
     5
 63
     7
421
 16777215
 74
     2
 91
        2
 64
     7
 65
   257
 75
     2
175
     1
 42
40.0
 92
        0
 66
   257
 43
1.0
 76
     1
 77
     6
 78
     2
 67
     7
 79
     3
170
     0
171
     0
290
     0
174
     0
 93
        1
 44
0.0
173
     0
291
     0
 45
0.0
1001
ACAD
1000
AcDbSavedByObjectVersion
1070
     0
  0
VISUALSTYLE
  5
30
102
{ACAD_REACTORS
330
2A
102
}
330
2A
100
AcDbVisualStyle
  2
3dWireframe
 70
     5
 71
     0
 72
     2
 73
     0
 90
        0
 40
-0.6
 41
-30.0
 62
     5
 63
     7
421
 16777215
 74
     1
 91
        4
 64
     7
 65
   257
 75
     1
175
     1
 42
1.0
 92
        0
 66
   257
 43
1.0
 76
     1
 77
     6
 78
     2
 67
     7
 79
     5
170
     0
171
     0
290
     0
174
     0
 93
        1
 44
0.0
173
     0
291
     0
 45
0.0
1001
ACAD
1000
AcDbSavedByObjectVersion
1070
     0
  0
VISUALSTYLE
  5
32
102
{ACAD_REACTORS
330
2A
102
}
330
2A
100
AcDbVisualStyle
  2
Basic
 70
     7
 71
     1
 72
     0
 73
     1
 90
        0
 40
-0.6
 41
-30.0
 62
     5
 63
     7
421
 16777215
 74
     0
 91
        4
 64
     7
 65
   257
 75
     1
175
     1
 42
1.0
 92
        8
 66
     7
 43
1.0
 76
     1
 77
     6
 78
     2
 67
     7
 79
     5
170
     0
171
     0
290
     0
174
     0
 93
        1
 44
0.0
173
     0
291
     1
 45
0.0
1001
ACAD
1000
AcDbSavedByObjectVersion
1070
     0
  0
VISUALSTYLE
  5
36
102
{ACAD_REACTORS
330
2A
102
}
330
2A
100
AcDbVisualStyle
  2
Brighten
 70
    12
 71
     2
 72
     2
 73
     0
 90
        0
 40
-0.6
 41
-30.0
 62
     5
 63
     7
421
 16777215
 74
     1
 91
        4
 64
     7
 65
   257
 75
     1
175
     1
 42
1.0
 92
        8
 66
     7
 43
1.0
 76
     1
 77
     6
 78
     2
 67
     7
 79
     5
170
     0
171
     0
290
     0
174
     0
 93
        1
 44
50.0
173
     0
291
     1
 45
0.0
1001
ACAD
1000
AcDbSavedByObjectVersion
1070
     0
  0
VISUALSTYLE
  5
3A
102
{ACAD_REACTORS
330
2A
102
}
330
2A
100
AcDbVisualStyle
  2
ColorChange
 70
    16
 71
     2
 72
     2
 73
     3
 90
        0
 40
-0.6
 41
-30.0
 62
     5
 63
     8
421
  8421504
 74
     1
 91
        4
 64
     7
 65
   257
 75
     1
175
     1
 42
1.0
 92
        8
 66
     8
424
  8421504
 43
1.0
 76
     1
 77
     6
 78
     2
 67
     7
 79
     5
170
     0
171
     0
290
     0
174
     0
 93
        1
 44
0.0
173
     0
291
     1
 45
0.0
1001
ACAD
1000
AcDbSavedByObjectVersion
1070
     0
  0
VISUALSTYLE
  5
34
102
{ACAD_REACTORS
330
2A
102
}
330
2A
100
AcDbVisualStyle
  2
Conceptual
 70
     9
 71
     3
 72
     2
 73
     0
 90
        0
 40
-0.6
 41
-30.0
 62
     5
 63
     7
421
 16777215
 74
     2
 91
        2
 64
     7
 65
   257
 75
     1
175
     1
 42
40.0
 92
        8
 66
     7
 43
1.0
 76
     1
 77
     6
 78
     2
 67
     7
 79
     3
170
     0
171
     0
290
     0
174
     0
 93
        1
 44
0.0
173
     0
291
     0
 45
0.0
1001
ACAD
1000
AcDbSavedByObjectVersion
1070
     0
  0
VISUALSTYLE
  5
35
102
{ACAD_REACTORS
330
2A
102
}
330
2A
100
AcDbVisualStyle
  2
Dim
 70
    11
 71
     2
 72
     2
 73
     0
 90
        0
 40
-0.6
 41
-30.0
 62
     5
 63
     7
421
 16777215
 74
     1
 91
        4
 64
     7
 65
   257
 75
     1
175
     1
 42
1.0
 92
        8
 66
     7
 43
1.0
 76
     1
 77
     6
 78
     2
 67
     7
 79
     5
170
     0
171
     0
290
     0
174
     0
 93
        1
 44
-50.0
173
     0
291
     1
 45
0.0
1001
ACAD
1000
AcDbSavedByObjectVersion
1070
     0
  0
VISUALSTYLE
  5
39
102
{ACAD_REACTORS
330
2A
102
}
330
2A
100
AcDbVisualStyle
  2
Facepattern
 70
    15
 71
     2
 72
     2
 73
     0
 90
        0
 40
-0.6
 41
-30.0
 62
     5
 63
     7
421
 16777215
 74
     1
 91
        4
 64
     7
 65
   257
 75
     1
175
     1
 42
1.0
 92
        8
 66
     7
 43
1.0
 76
     1
 77
     6
 78
     2
 67
     7
 79
     5
170
     0
171
     0
290
     0
174
     0
 93
        1
 44
0.0
173
     0
291
     1
 45
0.0
1001
ACAD
1000
AcDbSavedByObjectVersion
1070
     0
  0
VISUALSTYLE
  5
2B
102
{ACAD_REACTORS
330
2A
102
}
330
2A
100
AcDbVisualStyle
  2
Flat
 70
     0
 71
     2
 72
     1
 73
     1
 90
        2
 40
-0.6
 41
30.0
 62
     5
 63
     7
421
 16777215
 74
     0
 91
        4
 64
     7
 65
   257
 75
     1
175
     1
 42
1.0
 92
        8
 66
     7
 43
1.0
 76
     1
 77
     6
 78
     2
 67
     7
 79
     5
170
     0
171
     0
290
     0
174
     0
 93
       13
 44
0.0
173
     0
291
     1
 45
0.0
1001
ACAD
1000
AcDbSavedByObjectVersion
1070
     0
  0
VISUALSTYLE
  5
2C
102
{ACAD_REACTORS
330
2A
102
}
330
2A
100
AcDbVisualStyle
  2
FlatWithEdges
 70
     1
 71
     2
 72
     1
 73
     1
 90
        2
 40
-0.6
 41
30.0
 62
     5
 63
     7
421
 16777215
 74
     1
 91
        4
 64
     7
 65
   257
 75
     1
175
     1
 42
1.0
 92
        0
 66
   257
 43
1.0
 76
     1
 77
     6
 78
     2
 67
     7
 79
     5
170
     0
171
     0
290
     0
174
     0
 93
       13
 44
0.0
173
     0
291
     1
 45
0.0
1001
ACAD
1000
AcDbSavedByObjectVersion
1070
     0
  0
VISUALSTYLE
  5
2D
102
{ACAD_REACTORS
330
2A
102
}
330
2A
100
AcDbVisualStyle
  2
Gouraud
 70
     2
 71
     2
 72
     2
 73
     1
 90
        2
 40
-0.6
 41
30.0
 62
     5
 63
     7
421
 16777215
 74
     0
 91
        4
 64
     7
 65
   257
 75
     1
175
     1
 42
1.0
 92
        0
 66
     7
 43
1.0
 76
     1
 77
     6
 78
     2
 67
     7
 79
     5
170
     0
171
     0
290
     0
174
     0
 93
       13
 44
0.0
173
     0
291
     1
 45
0.0
1001
ACAD
1000
AcDbSavedByObjectVersion
1070
     0
  0
VISUALSTYLE
  5
2E
102
{ACAD_REACTORS
330
2A
102
}
330
2A
100
AcDbVisualStyle
  2
GouraudWithEdges
 70
     3
 71
     2
 72
     2
 73
     1
 90
        2
 40
-0.6
 41
30.0
 62
     5
 63
     7
421
 16777215
 74
     1
 91
        4
 64
     7
 65
   257
 75
     1
175
     1
 42
1.0
 92
        0
 66
   257
 43
1.0
 76
     1
 77
     6
 78
     2
 67
     7
 79
     5
170
     0
171
     0
290
     0
174
     0
 93
       13
 44
0.0
173
     0
291
     1
 45
0.0
1001
ACAD
1000
AcDbSavedByObjectVersion
1070
     0
  0
VISUALSTYLE
  5
38
102
{ACAD_REACTORS
330
2A
102
}
330
2A
100
AcDbVisualStyle
  2
Linepattern
 70
    14
 71
     2
 72
     2
 73
     0
 90
        0
 40
-0.6
 41
-30.0
 62
     5
 63
     7
421
 16777215
 74
     1
 91
        4
 64
     7
 65
   257
 75
     7
175
     7
 42
1.0
 92
        8
 66
     7
 43
1.0
 76
     1
 77
     6
 78
     2
 67
     7
 79
     5
170
     0
171
     0
290
     0
174
     0
 93
        1
 44
0.0
173
     0
291
     1
 45
0.0
1001
ACAD
1000
AcDbSavedByObjectVersion
1070
     0
  0
VISUALSTYLE
  5
33
102
{ACAD_REACTORS
330
2A
102
}
330
2A
100
AcDbVisualStyle
  2
Realistic
 70
     8
 71
     2
 72
     2
 73
     0
 90
        0
 40
-0.6
 41
-30.0
 62
     5
 63
     7
421
 16777215
 74
     1
 91
        0
 64
     7
 65
   257
 75
     1
175
     1
 42
1.0
 92
        8
 66
     8
424
  7895160
 43
1.0
 76
     1
 77
     6
 78
     2
 67
     7
 79
     5
170
     0
171
     0
290
     0
174
     0
 93
       13
 44
0.0
173
     0
291
     0
 45
0.0
1001
ACAD
1000
AcDbSavedByObjectVersion
1070
     0
  0
VISUALSTYLE
  5
37
102
{ACAD_REACTORS
330
2A
102
}
330
2A
100
AcDbVisualStyle
  2
Thicken
 70
    13
 71
     2
 72
     2
 73
     0
 90
        0
 40
-0.6
 41
-30.0
 62
     5
 63
     7
421
 16777215
 74
     1
 91
        4
 64
     7
 65
   257
 75
     1
175
     1
 42
1.0
 92
       12
 66
     7
 43
1.0
 76
     1
 77
     6
 78
     2
 67
     7
 79
     5
170
     0
171
     0
290
     0
174
     0
 93
        1
 44
0.0
173
     0
291
     1
 45
0.0
1001
ACAD
1000
AcDbSavedByObjectVersion
1070
     0
  0
ENDSEC
  0
EOF
