  0
SECTION
  2
HEADER
  9
$ACADVER
  1
AC1018
  9
$ACADMAINTVER
 70
     0
  9
$DWGCODEPAGE
  3
ANSI_1252
  9
$INSBASE
 10
0.0
 20
0.0
 30
0.0
  9
$EXTMIN
 10
-15.47507647889114
 20
0.0000000000000086
 30
0.0
  9
$EXTMAX
 10
51.57350265098209
 20
54.07562989960376
 30
0.0
  9
$LIMMIN
 10
0.0
 20
0.0
  9
$LIMMAX
 10
12.0
 20
9.0
  9
$ORTHOMODE
 70
     0
  9
$REGENMODE
 70
     1
  9
$FILLMODE
 70
     1
  9
$QTEXTMODE
 70
     0
  9
$MIRRTEXT
 70
     1
  9
$LTSCALE
 40
0.0393700787401575
  9
$ATTMODE
 70
     1
  9
$TEXTSIZE
 40
0.2
  9
$TRACEWID
 40
0.05
  9
$TEXTSTYLE
  7
Standard
  9
$CLAYER
  8
0
  9
$CELTYPE
  6
ByLayer
  9
$CECOLOR
 62
   256
  9
$CELTSCALE
 40
1.0
  9
$DISPSILH
 70
     0
  9
$DIMSCALE
 40
1.0
  9
$DIMASZ
 40
0.18
  9
$DIMEXO
 40
0.0625
  9
$DIMDLI
 40
0.38
  9
$DIMRND
 40
0.0
  9
$DIMDLE
 40
0.0
  9
$DIMEXE
 40
0.18
  9
$DIMTP
 40
0.0
  9
$DIMTM
 40
0.0
  9
$DIMTXT
 40
0.18
  9
$DIMCEN
 40
0.09
  9
$DIMTSZ
 40
0.0
  9
$DIMTOL
 70
     0
  9
$DIMLIM
 70
     0
  9
$DIMTIH
 70
     1
  9
$DIMTOH
 70
     1
  9
$DIMSE1
 70
     0
  9
$DIMSE2
 70
     0
  9
$DIMTAD
 70
     0
  9
$DIMZIN
 70
     0
  9
$DIMBLK
  1

  9
$DIMASO
 70
     1
  9
$DIMSHO
 70
     1
  9
$DIMPOST
  1

  9
$DIMAPOST
  1

  9
$DIMALT
 70
     0
  9
$DIMALTD
 70
     2
  9
$DIMALTF
 40
25.4
  9
$DIMLFAC
 40
1.0
  9
$DIMTOFL
 70
     0
  9
$DIMTVP
 40
0.0
  9
$DIMTIX
 70
     0
  9
$DIMSOXD
 70
     0
  9
$DIMSAH
 70
     0
  9
$DIMBLK1
  1

  9
$DIMBLK2
  1

  9
$DIMSTYLE
  2
Standard
  9
$DIMCLRD
 70
     0
  9
$DIMCLRE
 70
     0
  9
$DIMCLRT
 70
     0
  9
$DIMTFAC
 40
1.0
  9
$DIMGAP
 40
0.09
  9
$DIMJUST
 70
     0
  9
$DIMSD1
 70
     0
  9
$DIMSD2
 70
     0
  9
$DIMTOLJ
 70
     1
  9
$DIMTZIN
 70
     0
  9
$DIMALTZ
 70
     0
  9
$DIMALTTZ
 70
     0
  9
$DIMUPT
 70
     0
  9
$DIMDEC
 70
     4
  9
$DIMTDEC
 70
     4
  9
$DIMALTU
 70
     2
  9
$DIMALTTD
 70
     2
  9
$DIMTXSTY
  7
Standard
  9
$DIMAUNIT
 70
     0
  9
$DIMADEC
 70
     0
  9
$DIMALTRND
 40
0.0
  9
$DIMAZIN
 70
     0
  9
$DIMDSEP
 70
    46
  9
$DIMATFIT
 70
     3
  9
$DIMFRAC
 70
     0
  9
$DIMLDRBLK
  1

  9
$DIMLUNIT
 70
     2
  9
$DIMLWD
 70
    -2
  9
$DIMLWE
 70
    -2
  9
$DIMTMOVE
 70
     2
  9
$LUNITS
 70
     2
  9
$LUPREC
 70
     3
  9
$SKETCHINC
 40
0.1
  9
$FILLETRAD
 40
0.5
  9
$AUNITS
 70
     0
  9
$AUPREC
 70
     0
  9
$MENU
  1
.
  9
$ELEVATION
 40
0.0
  9
$PELEVATION
 40
0.0
  9
$THICKNESS
 40
0.0
  9
$LIMCHECK
 70
     0
  9
$CHAMFERA
 40
0.5
  9
$CHAMFERB
 40
0.5
  9
$CHAMFERC
 40
1.0
  9
$CHAMFERD
 40
0.0
  9
$SKPOLY
 70
     0
  9
$TDCREATE
 40
2456763.482159491
  9
$TDUCREATE
 40
2456763.648826157
  9
$TDUPDATE
 40
2456763.482159502
  9
$TDUUPDATE
 40
2456763.648826169
  9
$TDINDWG
 40
0.0000000116
  9
$TDUSRTIMER
 40
0.0000000116
  9
$USRTIMER
 70
     1
  9
$ANGBASE
 50
0.0
  9
$ANGDIR
 70
     0
  9
$PDMODE
 70
     0
  9
$PDSIZE
 40
0.0
  9
$PLINEWID
 40
0.0
  9
$SPLFRAME
 70
     0
  9
$SPLINETYPE
 70
     6
  9
$SPLINESEGS
 70
     8
  9
$HANDSEED
  5
F1
  9
$SURFTAB1
 70
     6
  9
$SURFTAB2
 70
     6
  9
$SURFTYPE
 70
     6
  9
$SURFU
 70
     6
  9
$SURFV
 70
     6
  9
$UCSBASE
  2

  9
$UCSNAME
  2

  9
$UCSORG
 10
0.0
 20
0.0
 30
0.0
  9
$UCSXDIR
 10
1.0
 20
0.0
 30
0.0
  9
$UCSYDIR
 10
0.0
 20
1.0
 30
0.0
  9
$UCSORTHOREF
  2

  9
$UCSORTHOVIEW
 70
     0
  9
$UCSORGTOP
 10
0.0
 20
0.0
 30
0.0
  9
$UCSORGBOTTOM
 10
0.0
 20
0.0
 30
0.0
  9
$UCSORGLEFT
 10
0.0
 20
0.0
 30
0.0
  9
$UCSORGRIGHT
 10
0.0
 20
0.0
 30
0.0
  9
$UCSORGFRONT
 10
0.0
 20
0.0
 30
0.0
  9
$UCSORGBACK
 10
0.0
 20
0.0
 30
0.0
  9
$PUCSBASE
  2

  9
$PUCSNAME
  2

  9
$PUCSORG
 10
0.0
 20
0.0
 30
0.0
  9
$PUCSXDIR
 10
1.0
 20
0.0
 30
0.0
  9
$PUCSYDIR
 10
0.0
 20
1.0
 30
0.0
  9
$PUCSORTHOREF
  2

  9
$PUCSORTHOVIEW
 70
     0
  9
$PUCSORGTOP
 10
0.0
 20
0.0
 30
0.0
  9
$PUCSORGBOTTOM
 10
0.0
 20
0.0
 30
0.0
  9
$PUCSORGLEFT
 10
0.0
 20
0.0
 30
0.0
  9
$PUCSORGRIGHT
 10
0.0
 20
0.0
 30
0.0
  9
$PUCSORGFRONT
 10
0.0
 20
0.0
 30
0.0
  9
$PUCSORGBACK
 10
0.0
 20
0.0
 30
0.0
  9
$USERI1
 70
     0
  9
$USERI2
 70
     0
  9
$USERI3
 70
     0
  9
$USERI4
 70
     0
  9
$USERI5
 70
     0
  9
$USERR1
 40
0.0
  9
$USERR2
 40
0.0
  9
$USERR3
 40
0.0
  9
$USERR4
 40
0.0
  9
$USERR5
 40
0.0
  9
$WORLDVIEW
 70
     1
  9
$SHADEDGE
 70
     3
  9
$SHADEDIF
 70
    70
  9
$TILEMODE
 70
     1
  9
$MAXACTVP
 70
    64
  9
$PINSBASE
 10
0.0
 20
0.0
 30
0.0
  9
$PLIMCHECK
 70
     0
  9
$PEXTMIN
 10
1.000000000000000E+20
 20
1.000000000000000E+20
 30
1.000000000000000E+20
  9
$PEXTMAX
 10
-1.000000000000000E+20
 20
-1.000000000000000E+20
 30
-1.000000000000000E+20
  9
$PLIMMIN
 10
0.0
 20
0.0
  9
$PLIMMAX
 10
12.0
 20
9.0
  9
$UNITMODE
 70
     0
  9
$VISRETAIN
 70
     1
  9
$PLINEGEN
 70
     0
  9
$PSLTSCALE
 70
     1
  9
$TREEDEPTH
 70
  3020
  9
$CMLSTYLE
  2
Standard
  9
$CMLJUST
 70
     0
  9
$CMLSCALE
 40
1.0
  9
$PROXYGRAPHICS
 70
     1
  9
$MEASUREMENT
 70
     0
  9
$CELWEIGHT
370
    -1
  9
$ENDCAPS
280
     0
  9
$JOINSTYLE
280
     0
  9
$LWDISPLAY
290
     0
  9
$INSUNITS
 70
     1
  9
$HYPERLINKBASE
  1

  9
$STYLESHEET
  1

  9
$XEDIT
290
     1
  9
$CEPSNTYPE
380
     0
  9
$PSTYLEMODE
290
     1
  9
$FINGERPRINTGUID
  2
{C5F08A3B-02E6-4B81-A653-919CFCE46251}
  9
$VERSIONGUID
  2
{FAEB1C32-E019-11D5-929B-00C0DF256EC4}
  9
$EXTNAMES
290
     1
  9
$PSVPSCALE
 40
0.0
  9
$OLESTARTUP
290
     0
  9
$SORTENTS
280
   127
  9
$INDEXCTL
280
     0
  9
$HIDETEXT
280
     1
  9
$XCLIPFRAME
290
     0
  9
$HALOGAP
280
     0
  9
$OBSCOLOR
 70
   257
  9
$OBSLTYPE
280
     0
  9
$INTERSECTIONDISPLAY
280
     0
  9
$INTERSECTIONCOLOR
 70
   257
  9
$DIMASSOC
280
     2
  9
$PROJECTNAME
  1

  0
ENDSEC
  0
SECTION
  2
CLASSES
  0
CLASS
  1
ACDBDICTIONARYWDFLT
  2
AcDbDictionaryWithDefault
  3
ObjectDBX Classes
 90
        0
 91
        4
280
     0
281
     0
  0
CLASS
  1
VISUALSTYLE
  2
AcDbVisualStyle
  3
ObjectDBX Classes
 90
     4095
 91
        4
280
     0
281
     0
  0
ENDSEC
  0
SECTION
  2
TABLES
  0
TABLE
  2
VPORT
  5
8
330
0
100
AcDbSymbolTable
 70
     1
  0
VPORT
  5
29
330
8
100
AcDbSymbolTableRecord
100
AcDbViewportTableRecord
  2
*Active
 70
     0
 10
0.0
 20
0.0
 11
1.0
 21
1.0
 12
18.04921308604548
 22
27.03781494980188
 13
0.0
 23
0.0
 14
0.5
 24
0.5
 15
0.5
 25
0.5
 16
0.0
 26
0.0
 36
1.0
 17
0.0
 27
0.0
 37
0.0
 40
55.15714249759583
 41
1.239903802403318
 42
50.0
 43
0.0
 44
0.0
 50
0.0
 51
0.0
 71
     0
 72
   100
 73
     1
 74
     3
 75
     0
 76
     0
 77
     0
 78
     0
281
     0
 65
     1
110
0.0
120
0.0
130
0.0
111
1.0
121
0.0
131
0.0
112
0.0
122
1.0
132
0.0
 79
     0
146
0.0
  0
ENDTAB
  0
TABLE
  2
LTYPE
  5
5
330
0
100
AcDbSymbolTable
 70
     1
  0
LTYPE
  5
14
330
5
100
AcDbSymbolTableRecord
100
AcDbLinetypeTableRecord
  2
ByBlock
 70
     0
  3

 72
    65
 73
     0
 40
0.0
  0
LTYPE
  5
15
330
5
100
AcDbSymbolTableRecord
100
AcDbLinetypeTableRecord
  2
ByLayer
 70
     0
  3

 72
    65
 73
     0
 40
0.0
  0
LTYPE
  5
16
330
5
100
AcDbSymbolTableRecord
100
AcDbLinetypeTableRecord
  2
Continuous
 70
     0
  3
Solid line
 72
    65
 73
     0
 40
0.0
  0
ENDTAB
  0
TABLE
  2
LAYER
  5
2
330
0
100
AcDbSymbolTable
 70
     2
  0
LAYER
  5
10
330
2
100
AcDbSymbolTableRecord
100
AcDbLayerTableRecord
  2
0
 70
     0
 62
     7
  6
Continuous
370
    -3
390
F
  0
LAYER
  5
3B
330
2
100
AcDbSymbolTableRecord
100
AcDbLayerTableRecord
  2
2d
 70
     0
 62
     7
  6
Continuous
370
    -3
390
F
  0
ENDTAB
  0
TABLE
  2
STYLE
  5
3
330
0
100
AcDbSymbolTable
 70
     1
  0
STYLE
  5
11
330
3
100
AcDbSymbolTableRecord
100
AcDbTextStyleTableRecord
  2
Standard
 70
     0
 40
0.0
 41
1.0
 50
0.0
 71
     0
 42
0.2
  3
txt
  4

  0
ENDTAB
  0
TABLE
  2
VIEW
  5
6
330
0
100
AcDbSymbolTable
 70
     0
  0
ENDTAB
  0
TABLE
  2
UCS
  5
7
330
0
100
AcDbSymbolTable
 70
     0
  0
ENDTAB
  0
TABLE
  2
APPID
  5
9
330
0
100
AcDbSymbolTable
 70
     1
  0
APPID
  5
12
330
9
100
AcDbSymbolTableRecord
100
AcDbRegAppTableRecord
  2
ACAD
 70
     0
  0
ENDTAB
  0
TABLE
  2
DIMSTYLE
  5
A
330
0
100
AcDbSymbolTable
 70
     1
100
AcDbDimStyleTable
  0
DIMSTYLE
105
27
330
A
100
AcDbSymbolTableRecord
100
AcDbDimStyleTableRecord
  2
Standard
 70
     0
340
11
  0
ENDTAB
  0
TABLE
  2
BLOCK_RECORD
  5
1
330
0
100
AcDbSymbolTable
 70
     1
  0
BLOCK_RECORD
  5
1F
330
1
100
AcDbSymbolTableRecord
100
AcDbBlockTableRecord
  2
*Model_Space
340
22
  0
BLOCK_RECORD
  5
1B
330
1
100
AcDbSymbolTableRecord
100
AcDbBlockTableRecord
  2
*Paper_Space
340
1E
  0
BLOCK_RECORD
  5
23
330
1
100
AcDbSymbolTableRecord
100
AcDbBlockTableRecord
  2
*Paper_Space0
340
26
  0
ENDTAB
  0
ENDSEC
  0
SECTION
  2
BLOCKS
  0
BLOCK
  5
20
330
1F
100
AcDbEntity
  8
0
100
AcDbBlockBegin
  2
*Model_Space
 70
     0
 10
0.0
 20
0.0
 30
0.0
  3
*Model_Space
  1

  0
ENDBLK
  5
21
330
1F
100
AcDbEntity
  8
0
100
AcDbBlockEnd
  0
BLOCK
  5
1C
330
1B
100
AcDbEntity
 67
     1
  8
0
100
AcDbBlockBegin
  2
*Paper_Space
 70
     0
 10
0.0
 20
0.0
 30
0.0
  3
*Paper_Space
  1

  0
ENDBLK
  5
1D
330
1B
100
AcDbEntity
 67
     1
  8
0
100
AcDbBlockEnd
  0
BLOCK
  5
24
330
23
100
AcDbEntity
  8
0
100
AcDbBlockBegin
  2
*Paper_Space0
 70
     0
 10
0.0
 20
0.0
 30
0.0
  3
*Paper_Space0
  1

  0
ENDBLK
  5
25
330
23
100
AcDbEntity
  8
0
100
AcDbBlockEnd
  0
ENDSEC
  0
SECTION
  2
ENTITIES
  0
ARC
  5
3C
330
1F
100
AcDbEntity
  8
2d
100
AcDbCircle
 10
10.75170437357618
 20
-0.1150554964115806
 30
0.0
 40
12.83046932608041
100
AcDbArc
 50
93.00524535934183
 51
109.3462999660464
  0
POLYLINE
  5
3D
330
1F
100
AcDbEntity
  8
2d
100
AcDb2dPolyline
 66
     1
 10
0.0
 20
0.0
 30
0.0
  0
VERTEX
  5
3E
330
3D
100
AcDbEntity
  8
2d
100
AcDbVertex
100
AcDb2dVertex
 10
6.501265527373223
 20
11.99092289206157
 30
0.0
  0
VERTEX
  5
3F
330
3D
100
AcDbEntity
  8
2d
100
AcDbVertex
100
AcDb2dVertex
 10
0.0
 20
11.99092289206158
 30
0.0
  0
SEQEND
  5
40
330
3D
100
AcDbEntity
  8
2d
  0
POLYLINE
  5
41
330
1F
100
AcDbEntity
  8
2d
100
AcDb2dPolyline
 66
     1
 10
0.0
 20
0.0
 30
0.0
  0
VERTEX
  5
42
330
41
100
AcDbEntity
  8
2d
100
AcDbVertex
100
AcDb2dVertex
 10
0.0
 20
11.99092289206158
 30
0.0
  0
VERTEX
  5
43
330
41
100
AcDbEntity
  8
2d
100
AcDbVertex
100
AcDb2dVertex
 10
-6.50126552737322
 20
11.99092289206157
 30
0.0
  0
SEQEND
  5
44
330
41
100
AcDbEntity
  8
2d
  0
ARC
  5
45
330
1F
100
AcDbEntity
  8
2d
100
AcDbCircle
 10
-10.75170437357618
 20
-0.1150554964115806
 30
0.0
 40
12.83046932608041
100
AcDbArc
 50
70.65370003395361
 51
86.99475464065817
  0
SPLINE
  5
46
330
1F
100
AcDbEntity
  8
2d
100
AcDbSpline
210
0.0
220
0.0
230
1.0
 70
    12
 71
     2
 72
    16
 73
    13
 74
     0
 42
0.0000000001
 43
0.0000000001
 40
0.0
 40
0.0
 40
0.0
 40
6.0
 40
6.0
 40
12.11250716655477
 40
12.11250716655477
 40
17.43033013896043
 40
17.43033013896043
 40
20.50365750062681
 40
20.50365750062681
 40
25.16651464609805
 40
25.16651464609805
 40
31.16651464609805
 40
31.16651464609805
 40
31.16651464609805
 10
51.48767197035798
 20
7.077112098489868
 30
0.0
 41
1.0
 10
51.69248902801419
 20
10.02252855483087
 30
0.0
 41
0.7683500317798655
 10
48.83258725501313
 20
10.75627917811971
 30
0.0
 41
1.0
 10
45.87212970573919
 20
11.51582889150741
 30
0.0
 41
0.999956747884175
 10
43.62207379470238
 20
12.0498240798847
 30
0.0
 41
1.0
 10
41.98918210881948
 20
12.53572049918123
 30
0.0
 41
0.9977963223422756
 10
39.33959163684109
 20
12.80088661914936
 30
0.0
 41
1.0
 10
36.99605008800936
 20
13.60048103206151
 30
0.0
 41
0.9971441376361695
 10
35.52538354686185
 20
14.0560029571308
 30
0.0
 41
1.0
 10
32.57386854578701
 20
14.91630156468828
 30
0.0
 41
0.9996882112947554
 10
30.31470426771778
 20
15.4941780905517
 30
0.0
 41
1.0
 10
27.45283938707955
 20
16.22622070948297
 30
0.0
 41
0.7679641902156165
 10
26.21887821713439
 20
13.54228762126479
 30
0.0
 41
1.0
  0
ARC
  5
47
330
1F
100
AcDbEntity
  8
2d
100
AcDbCircle
 10
10.75170437357618
 20
29.43068968310167
 30
0.0
 40
12.83046932608041
100
AcDbArc
 50
93.00524535934177
 51
109.3462999660464
  0
POLYLINE
  5
48
330
1F
100
AcDbEntity
  8
2d
100
AcDb2dPolyline
 66
     1
 10
0.0
 20
0.0
 30
0.0
  0
VERTEX
  5
49
330
48
100
AcDbEntity
  8
2d
100
AcDbVertex
100
AcDb2dVertex
 10
6.501265527373223
 20
41.53666807157483
 30
0.0
  0
VERTEX
  5
4A
330
48
100
AcDbEntity
  8
2d
100
AcDbVertex
100
AcDb2dVertex
 10
0.0
 20
41.53666807157483
 30
0.0
  0
SEQEND
  5
4B
330
48
100
AcDbEntity
  8
2d
  0
POLYLINE
  5
4C
330
1F
100
AcDbEntity
  8
2d
100
AcDb2dPolyline
 66
     1
 10
0.0
 20
0.0
 30
0.0
  0
VERTEX
  5
4D
330
4C
100
AcDbEntity
  8
2d
100
AcDbVertex
100
AcDb2dVertex
 10
0.0
 20
41.53666807157483
 30
0.0
  0
VERTEX
  5
4E
330
4C
100
AcDbEntity
  8
2d
100
AcDbVertex
100
AcDb2dVertex
 10
-6.50126552737322
 20
41.53666807157483
 30
0.0
  0
SEQEND
  5
4F
330
4C
100
AcDbEntity
  8
2d
  0
ARC
  5
50
330
1F
100
AcDbEntity
  8
2d
100
AcDbCircle
 10
-10.75170437357618
 20
29.43068968310167
 30
0.0
 40
12.83046932608041
100
AcDbArc
 50
70.65370003395365
 51
86.99475464065823
  0
SPLINE
  5
51
330
1F
100
AcDbEntity
  8
2d
100
AcDbSpline
210
0.0
220
0.0
230
1.0
 70
    24
 71
     2
 72
     6
 73
     3
 74
     0
 42
0.0000000001
 43
0.0000000001
 40
0.0
 40
0.0
 40
0.0
 40
0.9747732179010136
 40
0.9747732179010136
 40
0.9747732179010136
 10
9.379635149131696
 20
0.5400000000000134
 30
0.0
 10
9.867021758082203
 20
0.5400000000000134
 30
0.0
 10
10.35440836703271
 20
0.5400000000000134
 30
0.0
  0
SPLINE
  5
52
330
1F
100
AcDbEntity
  8
2d
100
AcDbSpline
210
0.0
220
0.0
230
1.0
 70
     8
 71
     2
 72
    23
 73
    20
 74
     0
 42
0.0000000001
 43
0.0000000001
 40
0.0
 40
0.0
 40
0.0
 40
1.0
 40
2.0
 40
3.0
 40
4.0
 40
5.0
 40
6.0
 40
7.0
 40
8.0
 40
9.0
 40
10.0
 40
11.0
 40
12.0
 40
13.0
 40
14.0
 40
15.0
 40
16.0
 40
17.0
 40
18.0
 40
18.0
 40
18.0
 10
14.27439625155165
 20
7.531557828749719
 30
0.0
 10
14.03883958913232
 20
7.176375175381024
 30
0.0
 10
13.54151790568726
 20
6.485189144427174
 30
0.0
 10
12.95698513202201
 20
5.853827569452009
 30
0.0
 10
12.16015907985522
 20
5.530457962649566
 30
0.0
 10
11.34032118023059
 20
5.29919645571504
 30
0.0
 10
10.50341525013772
 20
5.135759410957546
 30
0.0
 10
9.652127646832536
 20
5.081068110821423
 30
0.0
 10
8.809688021450198
 20
4.943384007655714
 30
0.0
 10
8.007913000897357
 20
4.650695858003332
 30
0.0
 10
7.202234871539171
 20
4.373501062997716
 30
0.0
 10
6.371748305747032
 20
4.179723825571422
 30
0.0
 10
5.530977385255783
 20
4.040372820631436
 30
0.0
 10
4.683970972311213
 20
3.946058443434899
 30
0.0
 10
3.833806765427111
 20
3.887709434022654
 30
0.0
 10
2.982188610751095
 20
3.858289317321451
 30
0.0
 10
2.130139210462111
 20
3.849845361111838
 30
0.0
 10
1.27807651108842
 20
3.853299676028124
 30
0.0
 10
0.4260340497000476
 20
3.859640832052543
 30
0.0
 10
0.0000000737600523
 20
3.859744710335863
 30
0.0
  0
SPLINE
  5
53
330
1F
100
AcDbEntity
  8
2d
100
AcDbSpline
210
0.0
220
0.0
230
1.0
 70
     8
 71
     3
 72
    12
 73
     8
 74
     0
 42
0.0000000001
 43
0.0000000001
 40
0.0
 40
0.0
 40
0.0
 40
0.0
 40
0.1365260237921798
 40
0.2833853989087353
 40
0.5677164120917402
 40
0.8311709085946538
 40
1.04953855623064
 40
1.04953855623064
 40
1.04953855623064
 40
1.04953855623064
 10
11.58489809387883
 20
0.6802751823223839
 30
0.0
 10
11.62458018053599
 20
0.7026452623467762
 30
0.0
 10
11.7031857176332
 20
0.7552042224991158
 30
0.0
 10
11.84664516066505
 20
0.8794340269827254
 30
0.0
 10
11.99307299825565
 20
1.060454728561078
 30
0.0
 10
12.1034570309031
 20
1.293495294498182
 30
0.0
 10
12.12273701345016
 20
1.45580609030233
 30
0.0
 10
12.11060835633242
 20
1.529713915600358
 30
0.0
  0
LINE
  5
54
330
1F
100
AcDbEntity
  8
2d
100
AcDbLine
 10
12.11060835633242
 20
1.529713915600358
 30
0.0
 11
11.44183164515696
 21
5.332930555661219
 31
0.0
  0
SPLINE
  5
55
330
1F
100
AcDbEntity
  8
2d
100
AcDbSpline
210
0.0
220
0.0
230
1.0
 70
    24
 71
     2
 72
     6
 73
     3
 74
     0
 42
0.0000000001
 43
0.0000000001
 40
-0.3198920286065814
 40
-0.3198920286065814
 40
-0.3198920286065814
 40
0.0
 40
0.0
 40
0.0
 10
10.95938877498312
 20
0.1512500000000092
 30
0.0
 10
11.11952628307506
 20
0.1512500859135534
 30
0.0
 10
11.279663791167
 20
0.1512501718270976
 30
0.0
  0
SPLINE
  5
56
330
1F
100
AcDbEntity
  8
2d
100
AcDbSpline
210
0.0
220
0.0
230
1.0
 70
     8
 71
     3
 72
    12
 73
     8
 74
     0
 42
0.0000000001
 43
0.0000000001
 40
-2.130244902142901
 40
-2.130244902142901
 40
-2.130244902142901
 40
-2.130244902142901
 40
-1.624152663579506
 40
-1.054440180801371
 40
-0.4870119312344303
 40
-0.2401769105923491
 40
0.0
 40
0.0
 40
0.0
 40
0.0
 10
11.279663791167
 20
0.1512501718270976
 30
0.0
 10
11.44967035499256
 20
0.1509895685684722
 30
0.0
 10
11.80101032338921
 20
0.2591583632864729
 30
0.0
 10
12.22919475551514
 20
0.6133507181687031
 30
0.0
 10
12.4751500356713
 20
1.012085756544116
 30
0.0
 10
12.55855182700118
 20
1.356975941963829
 30
0.0
 10
12.55538509531551
 20
1.520324272378138
 30
0.0
 10
12.54251948243759
 20
1.599495644681429
 30
0.0
  0
SPLINE
  5
57
330
1F
100
AcDbEntity
  8
2d
100
AcDbSpline
210
0.0
220
0.0
230
1.0
 70
    24
 71
     2
 72
     6
 73
     3
 74
     0
 42
0.0000000001
 43
0.0000000001
 40
-3.868525146625297
 40
-3.868525146625297
 40
-3.868525146625297
 40
0.0283140655892411
 40
0.0283140655892411
 40
0.0283140655892411
 10
12.54251948243759
 20
1.599495644681429
 30
0.0
 10
12.20413029806985
 20
3.523942993267644
 30
0.0
 10
11.86574111370211
 20
5.448390341853859
 30
0.0
  0
LINE
  5
58
330
1F
100
AcDbEntity
  8
2d
100
AcDbLine
 10
11.29311571850038
 20
5.297042978089858
 30
0.0
 11
11.29401496870005
 21
4.762245081964608
 31
0.0
  0
ARC
  5
59
330
1F
100
AcDbEntity
  8
2d
100
AcDbCircle
 10
20.0908625718148
 20
5.469108023432679
 30
0.0
 40
8.825201582425558
100
AcDbArc
 50
184.594081203704
 51
189.8391209444723
  0
SPLINE
  5
5A
330
1F
100
AcDbEntity
  8
2d
100
AcDbSpline
210
0.0
220
0.0
230
1.0
 70
    24
 71
     2
 72
     6
 73
     3
 74
     0
 42
0.0000000001
 43
0.0000000001
 40
0.0
 40
0.0
 40
0.0
 40
2.222872559546944
 40
2.222872559546944
 40
2.222872559546944
 10
11.39546689426282
 20
3.961037407958423
 30
0.0
 10
11.56742871063976
 20
2.858823964253721
 30
0.0
 10
11.7393905270167
 20
1.756610520549018
 30
0.0
  0
SPLINE
  5
5B
330
1F
100
AcDbEntity
  8
2d
100
AcDbSpline
210
0.0
220
0.0
230
1.0
 70
     8
 71
     3
 72
    12
 73
     8
 74
     0
 42
0.0000000001
 43
0.0000000001
 40
0.0
 40
0.0
 40
0.0
 40
0.0
 40
0.2924394653941988
 40
0.5847633326104327
 40
1.144072632852043
 40
1.619241029884061
 40
2.023910460491572
 40
2.023910460491572
 40
2.023910460491572
 40
2.023910460491572
 10
11.7393905270167
 20
1.756610520549018
 30
0.0
 10
11.75472132794235
 20
1.655930453931094
 30
0.0
 10
11.76921860043266
 20
1.461574572144319
 30
0.0
 10
11.73674162402852
 20
1.079371441906234
 30
0.0
 10
11.60564126058642
 20
0.6536704647922558
 30
0.0
 10
11.30814936524177
 20
0.2609942608503228
 30
0.0
 10
11.02182914500052
 20
0.1494491215012646
 30
0.0
 10
10.88597319455567
 20
0.1512499999997498
 30
0.0
  0
SPLINE
  5
5C
330
1F
100
AcDbEntity
  8
2d
100
AcDbSpline
210
0.0
220
0.0
230
1.0
 70
    24
 71
     2
 72
     6
 73
     3
 74
     0
 42
0.0000000001
 43
0.0000000001
 40
0.0
 40
0.0
 40
0.0
 40
0.2405583667935964
 40
0.2405583667935964
 40
0.2405583667935964
 10
10.88597319455567
 20
0.1512499999997498
 30
0.0
 10
10.76568060995929
 20
0.1512500000045133
 30
0.0
 10
10.64538802536291
 20
0.1512500000092768
 30
0.0
  0
SPLINE
  5
5D
330
1F
100
AcDbEntity
  8
2d
100
AcDbSpline
210
0.0
220
0.0
230
1.0
 70
     8
 71
     5
 72
    12
 73
     6
 74
     0
 42
0.0000000001
 43
0.0000000001
 40
0.0
 40
0.0
 40
0.0
 40
0.0
 40
0.0
 40
0.0
 40
1.0
 40
1.0
 40
1.0
 40
1.0
 40
1.0
 40
1.0
 10
10.64538802536291
 20
0.1512500000092768
 30
0.0
 10
10.61553117778681
 20
0.1512500000104591
 30
0.0
 10
10.58567433021072
 20
0.1512500000116414
 30
0.0
 10
10.559090307365
 20
0.2034304605336671
 30
0.0
 10
10.55183324530284
 20
0.2323919245403132
 30
0.0
 10
10.54457618324069
 20
0.2613533885469593
 30
0.0
  0
SPLINE
  5
5E
330
1F
100
AcDbEntity
  8
2d
100
AcDbSpline
210
0.0
220
0.0
230
1.0
 70
    24
 71
     2
 72
     6
 73
     3
 74
     0
 42
0.0000000001
 43
0.0000000001
 40
0.0
 40
0.0
 40
0.0
 40
0.3043876315323137
 40
0.3043876315323137
 40
0.3043876315323137
 10
10.54457618324069
 20
0.2613533885469593
 30
0.0
 10
10.51677400803282
 20
0.3723062355383053
 30
0.0
 10
10.48897183282495
 20
0.4832590825296513
 30
0.0
  0
SPLINE
  5
5F
330
1F
100
AcDbEntity
  8
2d
100
AcDbSpline
210
0.0
220
0.0
230
1.0
 70
     8
 71
     5
 72
    12
 73
     6
 74
     0
 42
0.0000000001
 43
0.0000000001
 40
0.0
 40
0.0
 40
0.0
 40
0.0
 40
0.0
 40
0.0
 40
1.0
 40
1.0
 40
1.0
 40
1.0
 40
1.0
 40
1.0
 10
10.48897183282495
 20
0.4832590825296513
 30
0.0
 10
10.48187261795706
 20
0.5115906103725932
 30
0.0
 10
10.47477340308916
 20
0.5399221382155353
 30
0.0
 10
10.41282323916835
 20
0.5400000000000134
 30
0.0
 10
10.38361580310053
 20
0.5400000000000134
 30
0.0
 10
10.35440836703271
 20
0.5400000000000134
 30
0.0
  0
SPLINE
  5
60
330
1F
100
AcDbEntity
  8
2d
100
AcDbSpline
210
0.0
220
0.0
230
1.0
 70
     8
 71
     5
 72
    12
 73
     6
 74
     0
 42
0.0000000001
 43
0.0000000001
 40
0.0
 40
0.0
 40
0.0
 40
0.0
 40
0.0
 40
0.0
 40
1.0
 40
1.0
 40
1.0
 40
1.0
 40
1.0
 40
1.0
 10
10.42224943303468
 20
0.000000000000021
 30
0.0
 10
10.45285886032032
 20
0.0000000000000214
 30
0.0
 10
10.48346828760595
 20
0.0000000000000219
 30
0.0
 10
10.4992844042215
 20
0.076893980111557
 30
0.0
 10
10.49451084104876
 20
0.1071288959108519
 30
0.0
 10
10.48973727787603
 20
0.1373638117101467
 30
0.0
  0
POLYLINE
  5
61
330
1F
100
AcDbEntity
  8
2d
100
AcDb2dPolyline
 66
     1
 10
0.0
 20
0.0
 30
0.0
  0
VERTEX
  5
62
330
61
100
AcDbEntity
  8
2d
100
AcDbVertex
100
AcDb2dVertex
 10
10.48973727787603
 20
0.1373638117101467
 30
0.0
  0
VERTEX
  5
63
330
61
100
AcDbEntity
  8
2d
100
AcDbVertex
100
AcDb2dVertex
 10
10.45166883207585
 20
0.3784827016730432
 30
0.0
  0
SEQEND
  5
64
330
61
100
AcDbEntity
  8
2d
  0
SPLINE
  5
65
330
1F
100
AcDbEntity
  8
2d
100
AcDbSpline
210
0.0
220
0.0
230
1.0
 70
     8
 71
     5
 72
    12
 73
     6
 74
     0
 42
0.0000000001
 43
0.0000000001
 40
0.0
 40
0.0
 40
0.0
 40
0.0
 40
0.0
 40
0.0
 40
1.0
 40
1.0
 40
1.0
 40
1.0
 40
1.0
 40
1.0
 10
10.45166883207585
 20
0.3784827016730432
 30
0.0
 10
10.4457882325451
 20
0.4157293925049677
 30
0.0
 10
10.43990763301434
 20
0.4529760833368922
 30
0.0
 10
10.42982447748055
 20
0.5400000000000134
 30
0.0
 10
10.39211642225663
 20
0.5400000000000134
 30
0.0
 10
10.35440836703271
 20
0.5400000000000134
 30
0.0
  0
SPLINE
  5
66
330
1F
100
AcDbEntity
  8
2d
100
AcDbSpline
210
0.0
220
0.0
230
1.0
 70
    12
 71
     2
 72
     6
 73
     3
 74
     0
 42
0.0000000001
 43
0.0000000001
 40
0.0
 40
0.0
 40
0.0
 40
0.2543371412096204
 40
0.2543371412096204
 40
0.2543371412096204
 10
9.413926409777234
 20
0.005995900014538
 30
0.0
 41
1.0
 10
9.272623411840389
 20
0.0336477363755336
 30
0.0
 41
0.8336899059257488
 10
9.242926843626964
 20
0.1748192437376979
 30
0.0
 41
1.0
  0
SPLINE
  5
67
330
1F
100
AcDbEntity
  8
2d
100
AcDbSpline
210
0.0
220
0.0
230
1.0
 70
    12
 71
     2
 72
     6
 73
     3
 74
     0
 42
0.0000000001
 43
0.0000000001
 40
0.0
 40
0.0
 40
0.0
 40
0.1703254802517573
 40
0.1703254802517573
 40
0.1703254802517573
 10
9.242926843626964
 20
0.1748192437376979
 30
0.0
 41
1.0
 10
9.233529249899231
 20
0.259767133363247
 30
0.0
 41
0.9995614951986025
 10
9.229199059976375
 20
0.3448446546802819
 30
0.0
 41
1.0
  0
SPLINE
  5
68
330
1F
100
AcDbEntity
  8
2d
100
AcDbSpline
210
0.0
220
0.0
230
1.0
 70
    12
 71
     2
 72
     6
 73
     3
 74
     0
 42
0.0000000001
 43
0.0000000001
 40
0.0
 40
0.0
 40
0.0
 40
0.2046483573602042
 40
0.2046483573602042
 40
0.2046483573602042
 10
9.229199059976375
 20
0.3448446546802819
 30
0.0
 41
1.0
 10
9.220351453225136
 20
0.5186782429047366
 30
0.0
 41
0.8365484532241054
 10
9.379635149131696
 20
0.5400000000000134
 30
0.0
 41
1.0
  0
SPLINE
  5
69
330
1F
100
AcDbEntity
  8
2d
100
AcDbSpline
210
0.0
220
0.0
230
1.0
 70
    12
 71
     2
 72
     6
 73
     3
 74
     0
 42
0.0000000001
 43
0.0000000001
 40
0.0
 40
0.0
 40
0.0
 40
0.2695446206252811
 40
0.2695446206252811
 40
0.2695446206252811
 10
8.92933968214925
 20
0.1512499962269956
 30
0.0
 41
1.0
 10
8.974119185650377
 20
0.0013351420356653
 30
0.0
 41
0.8044782790078946
 10
9.130573283828598
 20
0.0000000000000258
 30
0.0
 41
1.0
  0
POLYLINE
  5
6A
330
1F
100
AcDbEntity
  8
2d
100
AcDb2dPolyline
 66
     1
 10
0.0
 20
0.0
 30
0.0
  0
VERTEX
  5
6B
330
6A
100
AcDbEntity
  8
2d
100
AcDbVertex
100
AcDb2dVertex
 10
9.130573283828598
 20
0.0000000000000258
 30
0.0
  0
VERTEX
  5
6C
330
6A
100
AcDbEntity
  8
2d
100
AcDbVertex
100
AcDb2dVertex
 10
10.63968727732292
 20
0.0000000000000142
 30
0.0
  0
SEQEND
  5
6D
330
6A
100
AcDbEntity
  8
2d
  0
SPLINE
  5
6E
330
1F
100
AcDbEntity
  8
2d
100
AcDbSpline
210
0.0
220
0.0
230
1.0
 70
    12
 71
     2
 72
     6
 73
     3
 74
     0
 42
0.0000000001
 43
0.0000000001
 40
-0.2272468809621734
 40
-0.2272468809621734
 40
-0.2272468809621734
 40
0.0
 40
0.0
 40
0.0
 10
10.63968727732292
 20
0.0000000000000142
 30
0.0
 41
1.0
 10
10.76420579613673
 20
0.0000000000000133
 30
0.0
 41
0.8737759050110184
 10
10.85876251525716
 20
0.1495776707133327
 30
0.0
 41
1.0
  0
SPLINE
  5
6F
330
1F
100
AcDbEntity
  8
2d
100
AcDbSpline
210
0.0
220
0.0
230
1.0
 70
    24
 71
     2
 72
     6
 73
     3
 74
     0
 42
0.0000000001
 43
0.0000000001
 40
0.0
 40
0.0
 40
0.0
 40
0.9747732179010136
 40
0.9747732179010136
 40
0.9747732179010136
 10
-9.379635149131696
 20
0.5400000000000134
 30
0.0
 10
-9.867021758082203
 20
0.5400000000000134
 30
0.0
 10
-10.35440836703271
 20
0.5400000000000134
 30
0.0
  0
SPLINE
  5
70
330
1F
100
AcDbEntity
  8
2d
100
AcDbSpline
210
0.0
220
0.0
230
1.0
 70
     8
 71
     2
 72
    23
 73
    20
 74
     0
 42
0.0000000001
 43
0.0000000001
 40
0.0
 40
0.0
 40
0.0
 40
1.0
 40
2.0
 40
3.0
 40
4.0
 40
5.0
 40
6.0
 40
7.0
 40
8.0
 40
9.0
 40
10.0
 40
11.0
 40
12.0
 40
13.0
 40
14.0
 40
15.0
 40
16.0
 40
17.0
 40
18.0
 40
18.0
 40
18.0
 10
-14.27439625155165
 20
7.531557828749719
 30
0.0
 10
-14.03883958913232
 20
7.176375175381024
 30
0.0
 10
-13.54151790568726
 20
6.485189144427174
 30
0.0
 10
-12.95698513202201
 20
5.853827569452009
 30
0.0
 10
-12.16015907985522
 20
5.530457962649566
 30
0.0
 10
-11.34032118023059
 20
5.29919645571504
 30
0.0
 10
-10.50341525013772
 20
5.135759410957546
 30
0.0
 10
-9.652127646832536
 20
5.081068110821423
 30
0.0
 10
-8.809688021450198
 20
4.943384007655714
 30
0.0
 10
-8.007913000897357
 20
4.650695858003332
 30
0.0
 10
-7.202234871539171
 20
4.373501062997716
 30
0.0
 10
-6.371748305747032
 20
4.179723825571422
 30
0.0
 10
-5.530977385255783
 20
4.040372820631436
 30
0.0
 10
-4.683970972311213
 20
3.946058443434899
 30
0.0
 10
-3.833806765427111
 20
3.887709434022654
 30
0.0
 10
-2.982188610751095
 20
3.858289317321451
 30
0.0
 10
-2.130139210462111
 20
3.849845361111838
 30
0.0
 10
-1.27807651108842
 20
3.853299676028124
 30
0.0
 10
-0.4260340497000476
 20
3.859640832052543
 30
0.0
 10
-0.0000000737600523
 20
3.859744710335863
 30
0.0
  0
SPLINE
  5
71
330
1F
100
AcDbEntity
  8
2d
100
AcDbSpline
210
0.0
220
0.0
230
1.0
 70
     8
 71
     3
 72
    12
 73
     8
 74
     0
 42
0.0000000001
 43
0.0000000001
 40
0.0
 40
0.0
 40
0.0
 40
0.0
 40
0.1365260237921798
 40
0.2833853989087353
 40
0.5677164120917402
 40
0.8311709085946538
 40
1.04953855623064
 40
1.04953855623064
 40
1.04953855623064
 40
1.04953855623064
 10
-11.58489809387883
 20
0.6802751823223839
 30
0.0
 10
-11.62458018053599
 20
0.7026452623467762
 30
0.0
 10
-11.7031857176332
 20
0.7552042224991158
 30
0.0
 10
-11.84664516066505
 20
0.8794340269827254
 30
0.0
 10
-11.99307299825565
 20
1.060454728561078
 30
0.0
 10
-12.1034570309031
 20
1.293495294498182
 30
0.0
 10
-12.12273701345016
 20
1.45580609030233
 30
0.0
 10
-12.11060835633242
 20
1.529713915600358
 30
0.0
  0
LINE
  5
72
330
1F
100
AcDbEntity
  8
2d
100
AcDbLine
 10
-12.11060835633242
 20
1.529713915600358
 30
0.0
 11
-11.44183164515696
 21
5.332930555661219
 31
0.0
  0
SPLINE
  5
73
330
1F
100
AcDbEntity
  8
2d
100
AcDbSpline
210
0.0
220
0.0
230
1.0
 70
    24
 71
     2
 72
     6
 73
     3
 74
     0
 42
0.0000000001
 43
0.0000000001
 40
-0.3198920286065814
 40
-0.3198920286065814
 40
-0.3198920286065814
 40
0.0
 40
0.0
 40
0.0
 10
-10.95938877498312
 20
0.1512500000000092
 30
0.0
 10
-11.11952628307506
 20
0.1512500859135534
 30
0.0
 10
-11.279663791167
 20
0.1512501718270976
 30
0.0
  0
SPLINE
  5
74
330
1F
100
AcDbEntity
  8
2d
100
AcDbSpline
210
0.0
220
0.0
230
1.0
 70
     8
 71
     3
 72
    12
 73
     8
 74
     0
 42
0.0000000001
 43
0.0000000001
 40
-2.130244902142901
 40
-2.130244902142901
 40
-2.130244902142901
 40
-2.130244902142901
 40
-1.624152663579506
 40
-1.054440180801371
 40
-0.4870119312344303
 40
-0.2401769105923491
 40
0.0
 40
0.0
 40
0.0
 40
0.0
 10
-11.279663791167
 20
0.1512501718270976
 30
0.0
 10
-11.44967035499256
 20
0.1509895685684722
 30
0.0
 10
-11.80101032338921
 20
0.2591583632864729
 30
0.0
 10
-12.22919475551514
 20
0.6133507181687031
 30
0.0
 10
-12.4751500356713
 20
1.012085756544116
 30
0.0
 10
-12.55855182700118
 20
1.356975941963829
 30
0.0
 10
-12.55538509531551
 20
1.520324272378138
 30
0.0
 10
-12.54251948243759
 20
1.599495644681429
 30
0.0
  0
SPLINE
  5
75
330
1F
100
AcDbEntity
  8
2d
100
AcDbSpline
210
0.0
220
0.0
230
1.0
 70
    24
 71
     2
 72
     6
 73
     3
 74
     0
 42
0.0000000001
 43
0.0000000001
 40
-3.868525146625297
 40
-3.868525146625297
 40
-3.868525146625297
 40
0.0283140655892411
 40
0.0283140655892411
 40
0.0283140655892411
 10
-12.54251948243759
 20
1.599495644681429
 30
0.0
 10
-12.20413029806985
 20
3.523942993267644
 30
0.0
 10
-11.86574111370211
 20
5.448390341853859
 30
0.0
  0
LINE
  5
76
330
1F
100
AcDbEntity
  8
2d
100
AcDbLine
 10
-11.29311571850038
 20
5.297042978089858
 30
0.0
 11
-11.29401496870005
 21
4.762245081964608
 31
0.0
  0
ARC
  5
77
330
1F
100
AcDbEntity
  8
2d
100
AcDbCircle
 10
-20.0908625718148
 20
5.469108023432679
 30
0.0
 40
8.825201582425558
100
AcDbArc
 50
350.1608790555277
 51
355.405918796296
  0
SPLINE
  5
78
330
1F
100
AcDbEntity
  8
2d
100
AcDbSpline
210
0.0
220
0.0
230
1.0
 70
    24
 71
     2
 72
     6
 73
     3
 74
     0
 42
0.0000000001
 43
0.0000000001
 40
0.0
 40
0.0
 40
0.0
 40
2.222872559546944
 40
2.222872559546944
 40
2.222872559546944
 10
-11.39546689426282
 20
3.961037407958423
 30
0.0
 10
-11.56742871063976
 20
2.858823964253721
 30
0.0
 10
-11.7393905270167
 20
1.756610520549018
 30
0.0
  0
SPLINE
  5
79
330
1F
100
AcDbEntity
  8
2d
100
AcDbSpline
210
0.0
220
0.0
230
1.0
 70
     8
 71
     3
 72
    12
 73
     8
 74
     0
 42
0.0000000001
 43
0.0000000001
 40
0.0
 40
0.0
 40
0.0
 40
0.0
 40
0.2924394653941988
 40
0.5847633326104327
 40
1.144072632852043
 40
1.619241029884061
 40
2.023910460491572
 40
2.023910460491572
 40
2.023910460491572
 40
2.023910460491572
 10
-11.7393905270167
 20
1.756610520549018
 30
0.0
 10
-11.75472132794235
 20
1.655930453931094
 30
0.0
 10
-11.76921860043266
 20
1.461574572144319
 30
0.0
 10
-11.73674162402852
 20
1.079371441906234
 30
0.0
 10
-11.60564126058642
 20
0.6536704647922558
 30
0.0
 10
-11.30814936524177
 20
0.2609942608503228
 30
0.0
 10
-11.02182914500052
 20
0.1494491215012646
 30
0.0
 10
-10.88597319455567
 20
0.1512499999997498
 30
0.0
  0
SPLINE
  5
7A
330
1F
100
AcDbEntity
  8
2d
100
AcDbSpline
210
0.0
220
0.0
230
1.0
 70
    24
 71
     2
 72
     6
 73
     3
 74
     0
 42
0.0000000001
 43
0.0000000001
 40
0.0
 40
0.0
 40
0.0
 40
0.2405583667935964
 40
0.2405583667935964
 40
0.2405583667935964
 10
-10.88597319455567
 20
0.1512499999997498
 30
0.0
 10
-10.76568060995929
 20
0.1512500000045133
 30
0.0
 10
-10.64538802536291
 20
0.1512500000092768
 30
0.0
  0
SPLINE
  5
7B
330
1F
100
AcDbEntity
  8
2d
100
AcDbSpline
210
0.0
220
0.0
230
1.0
 70
     8
 71
     5
 72
    12
 73
     6
 74
     0
 42
0.0000000001
 43
0.0000000001
 40
0.0
 40
0.0
 40
0.0
 40
0.0
 40
0.0
 40
0.0
 40
1.0
 40
1.0
 40
1.0
 40
1.0
 40
1.0
 40
1.0
 10
-10.64538802536291
 20
0.1512500000092768
 30
0.0
 10
-10.61553117778681
 20
0.1512500000104591
 30
0.0
 10
-10.58567433021072
 20
0.1512500000116414
 30
0.0
 10
-10.559090307365
 20
0.2034304605336671
 30
0.0
 10
-10.55183324530284
 20
0.2323919245403132
 30
0.0
 10
-10.54457618324069
 20
0.2613533885469593
 30
0.0
  0
SPLINE
  5
7C
330
1F
100
AcDbEntity
  8
2d
100
AcDbSpline
210
0.0
220
0.0
230
1.0
 70
    24
 71
     2
 72
     6
 73
     3
 74
     0
 42
0.0000000001
 43
0.0000000001
 40
0.0
 40
0.0
 40
0.0
 40
0.3043876315323137
 40
0.3043876315323137
 40
0.3043876315323137
 10
-10.54457618324069
 20
0.2613533885469593
 30
0.0
 10
-10.51677400803282
 20
0.3723062355383053
 30
0.0
 10
-10.48897183282495
 20
0.4832590825296513
 30
0.0
  0
SPLINE
  5
7D
330
1F
100
AcDbEntity
  8
2d
100
AcDbSpline
210
0.0
220
0.0
230
1.0
 70
     8
 71
     5
 72
    12
 73
     6
 74
     0
 42
0.0000000001
 43
0.0000000001
 40
0.0
 40
0.0
 40
0.0
 40
0.0
 40
0.0
 40
0.0
 40
1.0
 40
1.0
 40
1.0
 40
1.0
 40
1.0
 40
1.0
 10
-10.48897183282495
 20
0.4832590825296513
 30
0.0
 10
-10.48187261795706
 20
0.5115906103725932
 30
0.0
 10
-10.47477340308916
 20
0.5399221382155353
 30
0.0
 10
-10.41282323916835
 20
0.5400000000000134
 30
0.0
 10
-10.38361580310053
 20
0.5400000000000134
 30
0.0
 10
-10.35440836703271
 20
0.5400000000000134
 30
0.0
  0
SPLINE
  5
7E
330
1F
100
AcDbEntity
  8
2d
100
AcDbSpline
210
0.0
220
0.0
230
1.0
 70
     8
 71
     5
 72
    12
 73
     6
 74
     0
 42
0.0000000001
 43
0.0000000001
 40
0.0
 40
0.0
 40
0.0
 40
0.0
 40
0.0
 40
0.0
 40
1.0
 40
1.0
 40
1.0
 40
1.0
 40
1.0
 40
1.0
 10
-10.42224943303468
 20
0.000000000000021
 30
0.0
 10
-10.45285886032032
 20
0.0000000000000214
 30
0.0
 10
-10.48346828760595
 20
0.0000000000000219
 30
0.0
 10
-10.4992844042215
 20
0.076893980111557
 30
0.0
 10
-10.49451084104876
 20
0.1071288959108519
 30
0.0
 10
-10.48973727787603
 20
0.1373638117101467
 30
0.0
  0
POLYLINE
  5
7F
330
1F
100
AcDbEntity
  8
2d
100
AcDb2dPolyline
 66
     1
 10
0.0
 20
0.0
 30
0.0
  0
VERTEX
  5
80
330
7F
100
AcDbEntity
  8
2d
100
AcDbVertex
100
AcDb2dVertex
 10
-10.48973727787603
 20
0.1373638117101467
 30
0.0
  0
VERTEX
  5
81
330
7F
100
AcDbEntity
  8
2d
100
AcDbVertex
100
AcDb2dVertex
 10
-10.45166883207585
 20
0.3784827016730432
 30
0.0
  0
SEQEND
  5
82
330
7F
100
AcDbEntity
  8
2d
  0
SPLINE
  5
83
330
1F
100
AcDbEntity
  8
2d
100
AcDbSpline
210
0.0
220
0.0
230
1.0
 70
     8
 71
     5
 72
    12
 73
     6
 74
     0
 42
0.0000000001
 43
0.0000000001
 40
0.0
 40
0.0
 40
0.0
 40
0.0
 40
0.0
 40
0.0
 40
1.0
 40
1.0
 40
1.0
 40
1.0
 40
1.0
 40
1.0
 10
-10.45166883207585
 20
0.3784827016730432
 30
0.0
 10
-10.4457882325451
 20
0.4157293925049677
 30
0.0
 10
-10.43990763301434
 20
0.4529760833368922
 30
0.0
 10
-10.42982447748055
 20
0.5400000000000134
 30
0.0
 10
-10.39211642225663
 20
0.5400000000000134
 30
0.0
 10
-10.35440836703271
 20
0.5400000000000134
 30
0.0
  0
SPLINE
  5
84
330
1F
100
AcDbEntity
  8
2d
100
AcDbSpline
210
0.0
220
0.0
230
1.0
 70
    12
 71
     2
 72
     6
 73
     3
 74
     0
 42
0.0000000001
 43
0.0000000001
 40
0.0
 40
0.0
 40
0.0
 40
0.2543371412096204
 40
0.2543371412096204
 40
0.2543371412096204
 10
-9.413926409777234
 20
0.005995900014538
 30
0.0
 41
1.0
 10
-9.272623411840389
 20
0.0336477363755336
 30
0.0
 41
0.8336899059257488
 10
-9.242926843626964
 20
0.1748192437376979
 30
0.0
 41
1.0
  0
SPLINE
  5
85
330
1F
100
AcDbEntity
  8
2d
100
AcDbSpline
210
0.0
220
0.0
230
1.0
 70
    12
 71
     2
 72
     6
 73
     3
 74
     0
 42
0.0000000001
 43
0.0000000001
 40
0.0
 40
0.0
 40
0.0
 40
0.1703254802517573
 40
0.1703254802517573
 40
0.1703254802517573
 10
-9.242926843626964
 20
0.1748192437376979
 30
0.0
 41
1.0
 10
-9.233529249899231
 20
0.259767133363247
 30
0.0
 41
0.9995614951986025
 10
-9.229199059976375
 20
0.3448446546802819
 30
0.0
 41
1.0
  0
SPLINE
  5
86
330
1F
100
AcDbEntity
  8
2d
100
AcDbSpline
210
0.0
220
0.0
230
1.0
 70
    12
 71
     2
 72
     6
 73
     3
 74
     0
 42
0.0000000001
 43
0.0000000001
 40
0.0
 40
0.0
 40
0.0
 40
0.2046483573602042
 40
0.2046483573602042
 40
0.2046483573602042
 10
-9.229199059976375
 20
0.3448446546802819
 30
0.0
 41
1.0
 10
-9.220351453225136
 20
0.5186782429047366
 30
0.0
 41
0.8365484532241054
 10
-9.379635149131696
 20
0.5400000000000134
 30
0.0
 41
1.0
  0
SPLINE
  5
87
330
1F
100
AcDbEntity
  8
2d
100
AcDbSpline
210
0.0
220
0.0
230
1.0
 70
    12
 71
     2
 72
     6
 73
     3
 74
     0
 42
0.0000000001
 43
0.0000000001
 40
0.0
 40
0.0
 40
0.0
 40
0.2695446206252811
 40
0.2695446206252811
 40
0.2695446206252811
 10
-8.92933968214925
 20
0.1512499962269956
 30
0.0
 41
1.0
 10
-8.974119185650377
 20
0.0013351420356653
 30
0.0
 41
0.8044782790078946
 10
-9.130573283828598
 20
0.0000000000000258
 30
0.0
 41
1.0
  0
POLYLINE
  5
88
330
1F
100
AcDbEntity
  8
2d
100
AcDb2dPolyline
 66
     1
 10
0.0
 20
0.0
 30
0.0
  0
VERTEX
  5
89
330
88
100
AcDbEntity
  8
2d
100
AcDbVertex
100
AcDb2dVertex
 10
-9.130573283828598
 20
0.0000000000000258
 30
0.0
  0
VERTEX
  5
8A
330
88
100
AcDbEntity
  8
2d
100
AcDbVertex
100
AcDb2dVertex
 10
-10.63968727732292
 20
0.0000000000000142
 30
0.0
  0
SEQEND
  5
8B
330
88
100
AcDbEntity
  8
2d
  0
SPLINE
  5
8C
330
1F
100
AcDbEntity
  8
2d
100
AcDbSpline
210
0.0
220
0.0
230
1.0
 70
    12
 71
     2
 72
     6
 73
     3
 74
     0
 42
0.0000000001
 43
0.0000000001
 40
-0.2272468809621734
 40
-0.2272468809621734
 40
-0.2272468809621734
 40
0.0
 40
0.0
 40
0.0
 10
-10.63968727732292
 20
0.0000000000000142
 30
0.0
 41
1.0
 10
-10.76420579613673
 20
0.0000000000000133
 30
0.0
 41
0.8737759050110184
 10
-10.85876251525716
 20
0.1495776707133327
 30
0.0
 41
1.0
  0
SPLINE
  5
8D
330
1F
100
AcDbEntity
  8
2d
100
AcDbSpline
210
0.0
220
0.0
230
1.0
 70
     8
 71
     2
 72
    18
 73
    15
 74
     0
 42
0.0000000001
 43
0.0000000001
 40
-13.0
 40
-13.0
 40
-13.0
 40
-12.0
 40
-11.0
 40
-10.0
 40
-9.0
 40
-8.0
 40
-7.0
 40
-6.0
 40
-5.0
 40
-4.0
 40
-3.0
 40
-2.0
 40
-1.0
 40
0.0
 40
0.0
 40
0.0
 10
14.66545199961704
 20
12.28730991020576
 30
0.0
 10
14.31441619805415
 20
12.79164418780126
 30
0.0
 10
13.58924892003301
 20
13.78308719274695
 30
0.0
 10
12.76279415853282
 20
14.70230744905853
 30
0.0
 10
11.67243360663334
 20
15.29549148439056
 30
0.0
 10
10.44195746196556
 20
15.43380377377054
 30
0.0
 10
9.214408136788993
 20
15.46026136533433
 30
0.0
 10
7.985964404000197
 20
15.49429936610907
 30
0.0
 10
6.757560248498021
 20
15.52253675802543
 30
0.0
 10
5.529039112468261
 20
15.54673242774946
 30
0.0
 10
4.300448392151984
 20
15.56677184214893
 30
0.0
 10
3.071799306627534
 20
15.58289870787594
 30
0.0
 10
1.843104613041435
 20
15.59504452896383
 30
0.0
 10
0.6143749680035097
 20
15.60296267658897
 30
0.0
 10
0.0
 20
15.6046965552062
 30
0.0
  0
SPLINE
  5
8E
330
1F
100
AcDbEntity
  8
2d
100
AcDbSpline
210
0.0
220
0.0
230
1.0
 70
     8
 71
     2
 72
    18
 73
    15
 74
     0
 42
0.0000000001
 43
0.0000000001
 40
0.0
 40
0.0
 40
0.0
 40
1.0
 40
2.0
 40
3.0
 40
4.0
 40
5.0
 40
6.0
 40
7.0
 40
8.0
 40
9.0
 40
10.0
 40
11.0
 40
12.0
 40
13.0
 40
13.0
 40
13.0
 10
0.0
 20
15.6046965552062
 30
0.0
 10
-0.6143749680035097
 20
15.60296267658897
 30
0.0
 10
-1.843104613041435
 20
15.59504452896383
 30
0.0
 10
-3.071799306627534
 20
15.58289870787594
 30
0.0
 10
-4.300448392151984
 20
15.56677184214893
 30
0.0
 10
-5.529039112468261
 20
15.54673242774946
 30
0.0
 10
-6.757560248498021
 20
15.52253675802543
 30
0.0
 10
-7.985964404000197
 20
15.49429936610907
 30
0.0
 10
-9.214408136788993
 20
15.46026136533433
 30
0.0
 10
-10.44195746196556
 20
15.43380377377054
 30
0.0
 10
-11.67243360663334
 20
15.29549148439056
 30
0.0
 10
-12.76279415853282
 20
14.70230744905853
 30
0.0
 10
-13.58924892003301
 20
13.78308719274695
 30
0.0
 10
-14.31441619805415
 20
12.79164418780126
 30
0.0
 10
-14.66545199961704
 20
12.28730991020576
 30
0.0
  0
ARC
  5
8F
330
1F
100
AcDbEntity
  8
2d
100
AcDbCircle
 10
12.38606521566542
 20
12.61924457914007
 30
0.0
 40
5.293548509291655
100
AcDbArc
 50
281.8400952120257
 51
293.8326030874901
  0
SPLINE
  5
90
330
1F
100
AcDbEntity
  8
2d
100
AcDbSpline
210
0.0
220
0.0
230
1.0
 70
     8
 71
     3
 72
    14
 73
    10
 74
     0
 42
0.0000000001
 43
0.0000000001
 40
-13.48416669746022
 40
-13.48416669746022
 40
-13.48416669746022
 40
-13.48416669746022
 40
-12.40759787620738
 40
-12.05026479858741
 40
-10.94116291353892
 40
-9.03128513318135
 40
-4.521837059548568
 40
-2.261691239967746
 40
0.0
 40
0.0
 40
0.0
 40
0.0
 10
13.47220082789562
 20
7.438321374529788
 30
0.0
 10
13.1207864558052
 20
7.364650399473203
 30
0.0
 10
12.64422832717026
 20
7.314458300025609
 30
0.0
 10
11.79732721114282
 20
7.282193028186793
 30
0.0
 10
10.67244148572381
 20
7.244597678203381
 30
0.0
 10
8.16415959824032
 20
7.169118832654213
 30
0.0
 10
5.271435275117211
 20
7.111683177430218
 30
0.0
 10
2.26119741398576
 20
7.08098902388927
 30
0.0
 10
0.7538854148221805
 20
7.076215941221982
 30
0.0
 10
0.0
 20
7.076118324605343
 30
0.0
  0
SPLINE
  5
91
330
1F
100
AcDbEntity
  8
2d
100
AcDbSpline
210
0.0
220
0.0
230
1.0
 70
     8
 71
     3
 72
    14
 73
    10
 74
     0
 42
0.0000000001
 43
0.0000000001
 40
0.0
 40
0.0
 40
0.0
 40
0.0
 40
2.261691239967746
 40
4.521837059548568
 40
9.03128513318135
 40
10.94116291353892
 40
12.05026479858741
 40
12.40759787620738
 40
13.48416669746022
 40
13.48416669746022
 40
13.48416669746022
 40
13.48416669746022
 10
0.0
 20
7.076118324605343
 30
0.0
 10
-0.7538854148221805
 20
7.076215941221982
 30
0.0
 10
-2.26119741398576
 20
7.08098902388927
 30
0.0
 10
-5.271435275117211
 20
7.111683177430218
 30
0.0
 10
-8.16415959824032
 20
7.169118832654213
 30
0.0
 10
-10.67244148572381
 20
7.244597678203381
 30
0.0
 10
-11.79732721114282
 20
7.282193028186793
 30
0.0
 10
-12.64422832717026
 20
7.314458300025609
 30
0.0
 10
-13.1207864558052
 20
7.364650399473203
 30
0.0
 10
-13.47220082789562
 20
7.438321374529788
 30
0.0
  0
ARC
  5
92
330
1F
100
AcDbEntity
  8
2d
100
AcDbCircle
 10
-12.38606521566542
 20
12.61924457914007
 30
0.0
 40
5.293548509291655
100
AcDbArc
 50
246.1673969125099
 51
258.1599047879743
  0
SPLINE
  5
93
330
1F
100
AcDbEntity
  8
2d
100
AcDbSpline
210
0.0
220
0.0
230
1.0
 70
     8
 71
     2
 72
    23
 73
    20
 74
     0
 42
0.0000000001
 43
0.0000000001
 40
0.0
 40
0.0
 40
0.0
 40
1.000000000001655
 40
2.000000000003311
 40
3.000000000004966
 40
4.000000000006621
 40
5.000000000008277
 40
6.000000000009932
 40
7.000000000011587
 40
8.000000000013243
 40
9.000000000014898
 40
10.00000000001655
 40
11.00000000001821
 40
12.00000000001986
 40
13.00000000002152
 40
14.00000000002317
 40
15.00000000002483
 40
16.00000000002649
 40
17.00000000002814
 40
18.0
 40
18.0
 40
18.0
 10
-14.1795372628236
 20
12.97160427305696
 30
0.0
 10
-14.60739611618826
 20
12.59702036423319
 30
0.0
 10
-15.20202092696251
 20
11.61349334890603
 30
0.0
 10
-15.51346867709141
 20
10.50961280867774
 30
0.0
 10
-15.40925878181611
 20
9.362363444035735
 30
0.0
 10
-14.93480901901253
 20
8.325156972936146
 30
0.0
 10
-14.23802608743667
 20
7.384913911040646
 30
0.0
 10
-13.08287409415201
 20
7.16244720991219
 30
0.0
 10
-11.95191835995597
 20
7.097215632567701
 30
0.0
 10
-10.81301736460574
 20
7.062096283173181
 30
0.0
 10
-9.67531260031576
 20
7.026902697962535
 30
0.0
 10
-8.5372706047316
 20
6.996238590351667
 30
0.0
 10
-7.399169946959498
 20
6.969299161176997
 30
0.0
 10
-6.26097837589185
 20
6.946225178707079
 30
0.0
 10
-5.122716416406612
 20
6.926995162972206
 30
0.0
 10
-3.984395562456454
 20
6.91161547302847
 30
0.0
 10
-2.84602908938377
 20
6.900087695224091
 30
0.0
 10
-1.707630794859025
 20
6.892414235302194
 30
0.0
 10
-0.5692122100764285
 20
6.888597342978811
 30
0.0
 10
0.0
 20
6.888618324605343
 30
0.0
  0
SPLINE
  5
94
330
1F
100
AcDbEntity
  8
2d
100
AcDbSpline
210
0.0
220
0.0
230
1.0
 70
     8
 71
     2
 72
    23
 73
    20
 74
     0
 42
0.0000000001
 43
0.0000000001
 40
-18.0
 40
-18.0
 40
-18.0
 40
-17.00000000002814
 40
-16.00000000002649
 40
-15.00000000002483
 40
-14.00000000002317
 40
-13.00000000002152
 40
-12.00000000001986
 40
-11.00000000001821
 40
-10.00000000001655
 40
-9.000000000014898
 40
-8.000000000013243
 40
-7.000000000011587
 40
-6.000000000009932
 40
-5.000000000008277
 40
-4.000000000006621
 40
-3.000000000004966
 40
-2.000000000003311
 40
-1.000000000001655
 40
0.0
 40
0.0
 40
0.0
 10
0.0
 20
6.888618324605343
 30
0.0
 10
0.5692122100764285
 20
6.888597342978811
 30
0.0
 10
1.707630794859025
 20
6.892414235302194
 30
0.0
 10
2.84602908938377
 20
6.900087695224091
 30
0.0
 10
3.984395562456454
 20
6.91161547302847
 30
0.0
 10
5.122716416406612
 20
6.926995162972206
 30
0.0
 10
6.26097837589185
 20
6.946225178707079
 30
0.0
 10
7.399169946959498
 20
6.969299161176997
 30
0.0
 10
8.5372706047316
 20
6.996238590351667
 30
0.0
 10
9.67531260031576
 20
7.026902697962535
 30
0.0
 10
10.81301736460574
 20
7.062096283173181
 30
0.0
 10
11.95191835995597
 20
7.097215632567701
 30
0.0
 10
13.08287409415201
 20
7.16244720991219
 30
0.0
 10
14.23802608743667
 20
7.384913911040646
 30
0.0
 10
14.93480901901253
 20
8.325156972936146
 30
0.0
 10
15.40925878181611
 20
9.362363444035735
 30
0.0
 10
15.51346867709141
 20
10.50961280867774
 30
0.0
 10
15.20202092696251
 20
11.61349334890603
 30
0.0
 10
14.60739611618826
 20
12.59702036423319
 30
0.0
 10
14.1795372628236
 20
12.97160427305696
 30
0.0
  0
SPLINE
  5
95
330
1F
100
AcDbEntity
  8
2d
100
AcDbSpline
210
0.0
220
0.0
230
1.0
 70
    24
 71
     2
 72
     6
 73
     3
 74
     0
 42
0.0000000001
 43
0.0000000001
 40
0.0
 40
0.0
 40
0.0
 40
8.379040723580875
 40
8.379040723580875
 40
8.379040723580875
 10
-9.24804072358094
 20
0.1512500000661582
 30
0.0
 10
-4.62402036179047
 20
0.1512500002366998
 30
0.0
 10
0.0
 20
0.1512500004072415
 30
0.0
  0
SPLINE
  5
96
330
1F
100
AcDbEntity
  8
2d
100
AcDbSpline
210
0.0
220
0.0
230
1.0
 70
    24
 71
     2
 72
     6
 73
     3
 74
     0
 42
0.0000000001
 43
0.0000000001
 40
-8.379040723580875
 40
-8.379040723580875
 40
-8.379040723580875
 40
0.0
 40
0.0
 40
0.0
 10
0.0
 20
0.1512500004072415
 30
0.0
 10
4.62402036179047
 20
0.1512500002366998
 30
0.0
 10
9.24804072358094
 20
0.1512500000661582
 30
0.0
  0
LINE
  5
97
330
1F
100
AcDbEntity
  8
2d
100
AcDbLine
 10
10.85354484629063
 20
5.204506472917361
 30
0.0
 11
10.85651557787905
 21
4.761515012012637
 31
0.0
  0
ARC
  5
98
330
1F
100
AcDbEntity
  8
2d
100
AcDbCircle
 10
20.5340615278939
 20
5.510329418395734
 30
0.0
 40
9.706473027307897
100
AcDbArc
 50
184.424529526667
 51
189.5957688585181
  0
SPLINE
  5
99
330
1F
100
AcDbEntity
  8
2d
100
AcDbSpline
210
0.0
220
0.0
230
1.0
 70
    24
 71
     2
 72
     6
 73
     3
 74
     0
 42
0.0000000001
 43
0.0000000001
 40
-2.228243704868567
 40
-2.228243704868567
 40
-2.228243704868567
 40
0.0
 40
0.0
 40
0.0
 10
10.96339807574368
 20
3.892299840318849
 30
0.0
 10
11.135356872989
 20
2.790108023389899
 30
0.0
 10
11.30731567023433
 20
1.687916206460949
 30
0.0
  0
SPLINE
  5
9A
330
1F
100
AcDbEntity
  8
2d
100
AcDbSpline
210
0.0
220
0.0
230
1.0
 70
     8
 71
     3
 72
    11
 73
     7
 74
     0
 42
0.0000000001
 43
0.0000000001
 40
-1.270478306395312
 40
-1.270478306395312
 40
-1.270478306395312
 40
-1.270478306395312
 40
-0.5345279453592615
 40
-0.2181223204202251
 40
-0.095775646476337
 40
0.0
 40
0.0
 40
0.0
 40
0.0
 10
11.30731567023433
 20
1.687916206460949
 30
0.0
 10
11.3439932950277
 20
1.443935863242561
 30
0.0
 10
11.30963837456667
 20
1.083754732903965
 30
0.0
 10
11.12354678368306
 20
0.7333356617352688
 30
0.0
 10
10.98865862390366
 20
0.6127265756682905
 30
0.0
 10
10.91827075544322
 20
0.5885141407670602
 30
0.0
 10
10.88599999999876
 20
0.5887499999999977
 30
0.0
  0
POLYLINE
  5
9B
330
1F
100
AcDbEntity
  8
2d
100
AcDb2dPolyline
 66
     1
 10
0.0
 20
0.0
 30
0.0
  0
VERTEX
  5
9C
330
9B
100
AcDbEntity
  8
2d
100
AcDbVertex
100
AcDb2dVertex
 10
10.88599999999876
 20
0.5887499999999977
 30
0.0
  0
VERTEX
  5
9D
330
9B
100
AcDbEntity
  8
2d
100
AcDbVertex
100
AcDb2dVertex
 10
0.0
 20
0.5887499999999977
 30
0.0
  0
SEQEND
  5
9E
330
9B
100
AcDbEntity
  8
2d
  0
POLYLINE
  5
9F
330
1F
100
AcDbEntity
  8
2d
100
AcDb2dPolyline
 66
     1
 10
0.0
 20
0.0
 30
0.0
  0
VERTEX
  5
A0
330
9F
100
AcDbEntity
  8
2d
100
AcDbVertex
100
AcDb2dVertex
 10
0.0
 20
0.5887499999999977
 30
0.0
  0
VERTEX
  5
A1
330
9F
100
AcDbEntity
  8
2d
100
AcDbVertex
100
AcDb2dVertex
 10
-10.88599999999876
 20
0.5887499999999977
 30
0.0
  0
SEQEND
  5
A2
330
9F
100
AcDbEntity
  8
2d
  0
SPLINE
  5
A3
330
1F
100
AcDbEntity
  8
2d
100
AcDbSpline
210
0.0
220
0.0
230
1.0
 70
     8
 71
     3
 72
    11
 73
     7
 74
     0
 42
0.0000000001
 43
0.0000000001
 40
0.0
 40
0.0
 40
0.0
 40
0.0
 40
0.095775646476337
 40
0.2181223204202251
 40
0.5345279453592615
 40
1.270478306395312
 40
1.270478306395312
 40
1.270478306395312
 40
1.270478306395312
 10
-10.88599999999876
 20
0.5887499999999977
 30
0.0
 10
-10.91827075544322
 20
0.5885141407670602
 30
0.0
 10
-10.98865862390366
 20
0.6127265756682905
 30
0.0
 10
-11.12354678368306
 20
0.7333356617352688
 30
0.0
 10
-11.30963837456667
 20
1.083754732903965
 30
0.0
 10
-11.3439932950277
 20
1.443935863242561
 30
0.0
 10
-11.30731567023433
 20
1.687916206460949
 30
0.0
  0
SPLINE
  5
A4
330
1F
100
AcDbEntity
  8
2d
100
AcDbSpline
210
0.0
220
0.0
230
1.0
 70
    24
 71
     2
 72
     6
 73
     3
 74
     0
 42
0.0000000001
 43
0.0000000001
 40
0.0
 40
0.0
 40
0.0
 40
2.228243704868567
 40
2.228243704868567
 40
2.228243704868567
 10
-11.30731567023433
 20
1.687916206460949
 30
0.0
 10
-11.135356872989
 20
2.790108023389899
 30
0.0
 10
-10.96339807574368
 20
3.892299840318849
 30
0.0
  0
ARC
  5
A5
330
1F
100
AcDbEntity
  8
2d
100
AcDbCircle
 10
-20.5340615278939
 20
5.510329418395734
 30
0.0
 40
9.706473027307897
100
AcDbArc
 50
350.4042311414819
 51
355.5754704733331
  0
LINE
  5
A6
330
1F
100
AcDbEntity
  8
2d
100
AcDbLine
 10
-10.85651557787905
 20
4.761515012012637
 30
0.0
 11
-10.85354484629063
 21
5.204506472917361
 31
0.0
  0
SPLINE
  5
A7
330
1F
100
AcDbEntity
  8
2d
100
AcDbSpline
210
0.0
220
0.0
230
1.0
 70
     8
 71
     3
 72
    11
 73
     7
 74
     0
 42
0.0000000001
 43
0.0000000001
 40
0.0
 40
0.0
 40
0.0
 40
0.0
 40
0.0726963058719319
 40
0.1774897108101949
 40
0.4370010746072978
 40
0.9869649001615712
 40
0.9869649001615712
 40
0.9869649001615712
 40
0.9869649001615712
 10
29.47750269726838
 20
0.5400608967366153
 30
0.0
 10
29.46639577798426
 20
0.5616917470403848
 30
0.0
 10
29.44969234452059
 20
0.618634787520298
 30
0.0
 10
29.42490648426877
 20
0.7624597744423245
 30
0.0
 10
29.41280880909589
 20
1.06739471811851
 30
0.0
 10
29.44295692898044
 20
1.337173779739369
 30
0.0
 10
29.48764370811207
 20
1.51588459899911
 30
0.0
  0
SPLINE
  5
A8
330
1F
100
AcDbEntity
  8
2d
100
AcDbSpline
210
0.0
220
0.0
230
1.0
 70
    24
 71
     2
 72
     6
 73
     3
 74
     0
 42
0.0000000001
 43
0.0000000001
 40
0.0
 40
0.0
 40
0.0
 40
6.284837786516417
 40
6.284837786516417
 40
6.284837786516417
 10
29.48764370811207
 20
1.51588459899911
 30
0.0
 10
30.2648732703264
 20
4.561441961140365
 30
0.0
 10
31.04210283254072
 20
7.60699932328162
 30
0.0
  0
SPLINE
  5
A9
330
1F
100
AcDbEntity
  8
2d
100
AcDbSpline
210
0.0
220
0.0
230
1.0
 70
    12
 71
     2
 72
     8
 73
     5
 74
     0
 42
0.0000000001
 43
0.0000000001
 40
0.0
 40
0.0
 40
0.0
 40
0.685939067824499
 40
0.685939067824499
 40
1.371878135648998
 40
1.371878135648998
 40
1.371878135648998
 10
31.04210283254072
 20
7.60699932328162
 30
0.0
 41
1.0
 10
31.13234799875311
 20
7.958147887273913
 30
0.0
 41
0.9236882929863358
 10
31.44399963776577
 20
8.141941513691194
 30
0.0
 41
1.0
 10
31.7556512767784
 20
8.325735140108474
 30
0.0
 41
0.9236882929863358
 10
32.10589346143373
 20
8.234975822745062
 30
0.0
 41
1.0
  0
SPLINE
  5
AA
330
1F
100
AcDbEntity
  8
2d
100
AcDbSpline
210
0.0
220
0.0
230
1.0
 70
    24
 71
     2
 72
     6
 73
     3
 74
     0
 42
0.0000000001
 43
0.0000000001
 40
0.0
 40
0.0
 40
0.0
 40
14.86958098460211
 40
14.86958098460211
 40
14.86958098460211
 10
32.10589346143373
 20
8.234975822745062
 30
0.0
 10
39.30875804717635
 20
6.392463570283127
 30
0.0
 10
46.51162263291896
 20
4.549951317821192
 30
0.0
  0
SPLINE
  5
AB
330
1F
100
AcDbEntity
  8
2d
100
AcDbSpline
210
0.0
220
0.0
230
1.0
 70
    12
 71
     2
 72
     6
 73
     3
 74
     0
 42
0.0000000001
 43
0.0000000001
 40
0.0
 40
0.0
 40
0.0
 40
0.9794261990689952
 40
0.9794261990689952
 40
0.9794261990689952
 10
46.51162263291897
 20
4.549951317821192
 30
0.0
 41
0.9999999990179813
 10
47.04014207104155
 20
4.414034634788496
 30
0.0
 41
0.8529405928950357
 10
47.16031490191859
 20
3.878283775246325
 30
0.0
 41
1.0
  0
SPLINE
  5
AC
330
1F
100
AcDbEntity
  8
2d
100
AcDbSpline
210
0.0
220
0.0
230
1.0
 70
    24
 71
     2
 72
     6
 73
     3
 74
     0
 42
0.0000000001
 43
0.0000000001
 40
0.0
 40
0.0
 40
0.0
 40
2.249906031049649
 40
2.249906031049649
 40
2.249906031049649
 10
47.16031490191859
 20
3.878283775246325
 30
0.0
 10
47.40164839179924
 20
2.776094353813777
 30
0.0
 10
47.64298188167989
 20
1.673904932381229
 30
0.0
  0
SPLINE
  5
AD
330
1F
100
AcDbEntity
  8
2d
100
AcDbSpline
210
0.0
220
0.0
230
1.0
 70
     8
 71
     3
 72
    12
 73
     8
 74
     0
 42
0.0000000001
 43
0.0000000001
 40
0.0
 40
0.0
 40
0.0
 40
0.0
 40
0.1857258840809467
 40
0.3771144125933392
 40
0.7569356705591151
 40
1.104095869332441
 40
1.400254243759133
 40
1.400254243759133
 40
1.400254243759133
 40
1.400254243759133
 10
47.64298188167989
 20
1.673904932381229
 30
0.0
 10
47.65655250690127
 20
1.609971379605244
 30
0.0
 10
47.67192513414892
 20
1.484990239680297
 30
0.0
 10
47.65525737719684
 20
1.231625033648011
 30
0.0
 10
47.55613937350046
 20
0.9380255197419125
 30
0.0
 10
47.33370373763688
 20
0.668581454363148
 30
0.0
 10
47.12606512077095
 20
0.5870778008050415
 30
0.0
 10
47.02619916295733
 20
0.5887499999999974
 30
0.0
  0
POLYLINE
  5
AE
330
1F
100
AcDbEntity
  8
2d
100
AcDb2dPolyline
 66
     1
 10
0.0
 20
0.0
 30
0.0
  0
VERTEX
  5
AF
330
AE
100
AcDbEntity
  8
2d
100
AcDbVertex
100
AcDb2dVertex
 10
47.02619916295733
 20
0.5887499999999974
 30
0.0
  0
VERTEX
  5
B0
330
AE
100
AcDbEntity
  8
2d
100
AcDbVertex
100
AcDb2dVertex
 10
33.29559922361762
 20
0.5888613402140812
 30
0.0
  0
SEQEND
  5
B1
330
AE
100
AcDbEntity
  8
2d
  0
ARC
  5
B2
330
1F
100
AcDbEntity
  8
2d
100
AcDbCircle
 10
33.29559922361762
 20
0.3700402164238749
 30
0.0
 40
0.2188211237902063
100
AcDbArc
 50
90.0
 51
270.0
  0
POLYLINE
  5
B3
330
1F
100
AcDbEntity
  8
2d
100
AcDb2dPolyline
 66
     1
 10
0.0
 20
0.0
 30
0.0
  0
VERTEX
  5
B4
330
B3
100
AcDbEntity
  8
2d
100
AcDbVertex
100
AcDb2dVertex
 10
33.29559922361762
 20
0.1512190926336686
 30
0.0
  0
VERTEX
  5
B5
330
B3
100
AcDbEntity
  8
2d
100
AcDbVertex
100
AcDb2dVertex
 10
44.99033891585076
 20
0.1512500000619149
 30
0.0
  0
SEQEND
  5
B6
330
B3
100
AcDbEntity
  8
2d
  0
SPLINE
  5
B7
330
1F
100
AcDbEntity
  8
2d
100
AcDbSpline
210
0.0
220
0.0
230
1.0
 70
     8
 71
     2
 72
    11
 73
     8
 74
     0
 42
0.0000000001
 43
0.0000000001
 40
0.0
 40
0.0
 40
0.0
 40
1.0
 40
2.0
 40
3.0
 40
4.0
 40
5.0
 40
6.0
 40
6.0
 40
6.0
 10
26.18762445545401
 20
13.35674254142253
 30
0.0
 10
26.2410789473138
 20
12.74288952493662
 30
0.0
 10
26.68285927898308
 20
11.58831283481391
 30
0.0
 10
27.45506615135277
 20
10.63331111944715
 30
0.0
 10
28.31655774375314
 20
9.760943668162755
 30
0.0
 10
29.21258730993791
 20
8.92513269731211
 30
0.0
 10
30.14685392830606
 20
8.131824872903913
 30
0.0
 10
30.62846951779497
 20
7.753005257765235
 30
0.0
  0
SPLINE
  5
B8
330
1F
100
AcDbEntity
  8
2d
100
AcDbSpline
210
0.0
220
0.0
230
1.0
 70
     8
 71
     2
 72
    11
 73
     8
 74
     0
 42
0.0000000001
 43
0.0000000001
 40
0.0
 40
0.0
 40
0.0
 40
1.0
 40
2.0
 40
3.0
 40
4.0
 40
5.0
 40
6.0
 40
6.0
 40
6.0
 10
47.238128841148
 20
4.617568047429816
 30
0.0
 10
47.63406663514931
 20
4.718216697996353
 30
0.0
 10
48.41426273595179
 20
4.960050879981144
 30
0.0
 10
49.20072484197443
 20
5.183190087587113
 30
0.0
 10
49.95292624879229
 20
5.50567496800541
 30
0.0
 10
50.62660999187161
 20
5.972652169937955
 30
0.0
 10
51.19995639958699
 20
6.557758222453992
 30
0.0
 10
51.42615411758965
 20
6.899312173293861
 30
0.0
  0
LINE
  5
B9
330
1F
100
AcDbEntity
  8
2d
100
AcDbLine
 10
29.20603801375656
 20
0.2022704120249102
 30
0.0
 11
29.21051685205913
 21
0.1752734512529705
 31
0.0
  0
ARC
  5
BA
330
1F
100
AcDbEntity
  8
2d
100
AcDbCircle
 10
29.41688210140117
 20
0.2095097710698632
 30
0.0
 40
0.2091859023228089
100
AcDbArc
 50
189.4196651509021
 51
266.1004370077815
  0
LINE
  5
BB
330
1F
100
AcDbEntity
  8
2d
100
AcDbLine
 10
29.40265585326514
 20
0.0008081764554953
 30
0.0
 11
30.14118020320801
 21
0.0000000000000142
 31
0.0
  0
SPLINE
  5
BC
330
1F
100
AcDbEntity
  8
2d
100
AcDbSpline
210
0.0
220
0.0
230
1.0
 70
    12
 71
     2
 72
     6
 73
     3
 74
     0
 42
0.0000000001
 43
0.0000000001
 40
0.0
 40
0.0
 40
0.0
 40
0.3067853416654867
 40
0.3067853416654867
 40
0.3067853416654867
 10
30.14118020320801
 20
0.0000000000000142
 30
0.0
 41
1.0
 10
30.32963464253281
 20
0.0005122229344298
 30
0.0
 41
0.7429243240309537
 10
30.34870053772613
 20
0.1880004351346581
 30
0.0
 41
1.0
  0
SPLINE
  5
BD
330
1F
100
AcDbEntity
  8
2d
100
AcDbSpline
210
0.0
220
0.0
230
1.0
 70
     8
 71
     2
 72
     6
 73
     3
 74
     0
 42
0.0000000001
 43
0.0000000001
 40
-1.0
 40
-1.0
 40
-1.0
 40
0.0
 40
0.0
 40
0.0
 10
30.34870053772613
 20
0.1880004351346581
 30
0.0
 10
30.3562911428183
 20
0.2788697387551762
 30
0.0
 10
30.35947792591028
 20
0.3699999579289575
 30
0.0
  0
SPLINE
  5
BE
330
1F
100
AcDbEntity
  8
2d
100
AcDbSpline
210
0.0
220
0.0
230
1.0
 70
     8
 71
     5
 72
    12
 73
     6
 74
     0
 42
0.0000000001
 43
0.0000000001
 40
-1.0
 40
-1.0
 40
-1.0
 40
-1.0
 40
-1.0
 40
-1.0
 40
0.0
 40
0.0
 40
0.0
 40
0.0
 40
0.0
 40
0.0
 10
30.35947792591028
 20
0.3699999579289575
 30
0.0
 10
30.36090227540436
 20
0.4107310895524773
 30
0.0
 10
30.36177631667578
 20
0.451481465208934
 30
0.0
 10
30.3286230300737
 20
0.5400000000000134
 30
0.0
 10
30.2878670016262
 20
0.5400000000000134
 30
0.0
 10
30.24711097317869
 20
0.5400000000000134
 30
0.0
  0
SPLINE
  5
BF
330
1F
100
AcDbEntity
  8
2d
100
AcDbSpline
210
0.0
220
0.0
230
1.0
 70
    24
 71
     2
 72
     6
 73
     3
 74
     0
 42
0.0000000001
 43
0.0000000001
 40
0.0
 40
0.0
 40
0.0
 40
0.4856600553644057
 40
0.4856600553644057
 40
0.4856600553644057
 10
30.24711097317869
 20
0.5400000000000134
 30
0.0
 10
30.00428094549649
 20
0.5400000000000134
 30
0.0
 10
29.76145091781429
 20
0.5400000000000134
 30
0.0
  0
SPLINE
  5
C0
330
1F
100
AcDbEntity
  8
2d
100
AcDbSpline
210
0.0
220
0.0
230
1.0
 70
     8
 71
     5
 72
    12
 73
     6
 74
     0
 42
0.0000000001
 43
0.0000000001
 40
-1.0
 40
-1.0
 40
-1.0
 40
-1.0
 40
-1.0
 40
-1.0
 40
0.0
 40
0.0
 40
0.0
 40
0.0
 40
0.0
 40
0.0
 10
29.76145091781429
 20
0.5400000000000134
 30
0.0
 10
29.74382917886989
 20
0.5400000000000134
 30
0.0
 10
29.72620743992549
 20
0.5400000000000134
 30
0.0
 10
29.6848721000925
 20
0.520126192383362
 30
0.0
 10
29.68883396502576
 20
0.5029417797165102
 30
0.0
 10
29.69211890150312
 20
0.4856289268099516
 30
0.0
  0
SPLINE
  5
C1
330
1F
100
AcDbEntity
  8
2d
100
AcDbSpline
210
0.0
220
0.0
230
1.0
 70
     8
 71
     2
 72
    11
 73
     8
 74
     0
 42
0.0000000001
 43
0.0000000001
 40
0.0
 40
0.0
 40
0.0
 40
1.0
 40
2.0
 40
3.0
 40
4.0
 40
5.0
 40
6.0
 40
6.0
 40
6.0
 10
29.69211890150312
 20
0.4856289268099516
 30
0.0
 10
29.69921782272471
 20
0.4481583200254036
 30
0.0
 10
29.70322827798788
 20
0.3719871902464767
 30
0.0
 10
29.69270760406491
 20
0.2959829860912093
 30
0.0
 10
29.65757974771874
 20
0.2278081476586698
 30
0.0
 10
29.60299611921204
 20
0.1728670730459329
 30
0.0
 10
29.52971629328155
 20
0.1490961199508083
 30
0.0
 10
29.49121183692478
 20
0.1512500000000103
 30
0.0
  0
SPLINE
  5
C2
330
1F
100
AcDbEntity
  8
2d
100
AcDbSpline
210
0.0
220
0.0
230
1.0
 70
    24
 71
     2
 72
     6
 73
     3
 74
     0
 42
0.0000000001
 43
0.0000000001
 40
-0.0891462833252206
 40
-0.0891462833252206
 40
-0.0891462833252206
 40
0.0
 40
0.0
 40
0.0
 10
29.49121183692478
 20
0.1512500000000103
 30
0.0
 10
29.44663869526217
 20
0.1512500000000082
 30
0.0
 10
29.40206555359956
 20
0.1512500000000061
 30
0.0
  0
SPLINE
  5
C3
330
1F
100
AcDbEntity
  8
2d
100
AcDbSpline
210
0.0
220
0.0
230
1.0
 70
     8
 71
     3
 72
    11
 73
     7
 74
     0
 42
0.0000000001
 43
0.0000000001
 40
0.0
 40
0.0
 40
0.0
 40
0.0
 40
0.0316841027571179
 40
0.063859293387195
 40
0.1298200148800378
 40
0.2713098374243653
 40
0.2713098374243653
 40
0.2713098374243653
 40
0.2713098374243653
 10
29.65446266883217
 20
0.0000000742239737
 30
0.0
 10
29.66498178377132
 20
-0.0000456344556027
 30
0.0
 10
29.68637349991756
 20
0.0026254735076816
 30
0.0
 10
29.72725587757438
 20
0.0168342594539914
 30
0.0
 10
29.79155080597971
 20
0.068659394628537
 30
0.0
 10
29.80866101243525
 20
0.1413890390070368
 30
0.0
 10
29.80550659163347
 20
0.1880004602530256
 30
0.0
  0
SPLINE
  5
C4
330
1F
100
AcDbEntity
  8
2d
100
AcDbSpline
210
0.0
220
0.0
230
1.0
 70
     8
 71
     2
 72
     9
 73
     6
 74
     0
 42
0.0000000001
 43
0.0000000001
 40
0.0
 40
0.0
 40
0.0
 40
1.0
 40
2.0
 40
3.0
 40
4.0
 40
4.0
 40
4.0
 10
29.80550659163347
 20
0.1880004602530256
 30
0.0
 10
29.80175607271207
 20
0.2290459855525782
 30
0.0
 10
29.79675395299865
 20
0.3113484131143888
 30
0.0
 10
29.79499741529723
 20
0.3937011508213143
 30
0.0
 10
29.7845249346683
 20
0.4761896192503289
 30
0.0
 10
29.79090306457486
 20
0.516226415131797
 30
0.0
  0
SPLINE
  5
C5
330
1F
100
AcDbEntity
  8
2d
100
AcDbSpline
210
0.0
220
0.0
230
1.0
 70
     8
 71
     2
 72
    11
 73
     8
 74
     0
 42
0.0000000001
 43
0.0000000001
 40
0.0
 40
0.0
 40
0.0
 40
1.0
 40
2.0
 40
3.0
 40
4.0
 40
5.0
 40
6.0
 40
6.0
 40
6.0
 10
46.43659657713907
 20
0.5162264151012792
 30
0.0
 10
46.48244144285162
 20
0.4955510315427854
 30
0.0
 10
46.5014796341579
 20
0.3988401754921854
 30
0.0
 10
46.4905588008724
 20
0.3060037917321077
 30
0.0
 10
46.47423773774906
 20
0.2134573407238866
 30
0.0
 10
46.45902734368386
 20
0.1219846085600404
 30
0.0
 10
46.46174314941558
 20
0.0215347687540843
 30
0.0
 10
46.50687546518773
 20
0.0000000000000142
 30
0.0
  0
POLYLINE
  5
C6
330
1F
100
AcDbEntity
  8
2d
100
AcDb2dPolyline
 66
     1
 10
0.0
 20
0.0
 30
0.0
  0
VERTEX
  5
C7
330
C6
100
AcDbEntity
  8
2d
100
AcDbVertex
100
AcDb2dVertex
 10
46.47633035791345
 20
0.5364384937091446
 30
0.0
  0
VERTEX
  5
C8
330
C6
100
AcDbEntity
  8
2d
100
AcDbVertex
100
AcDb2dVertex
 10
45.11359938116877
 20
0.5364384937091446
 30
0.0
  0
SEQEND
  5
C9
330
C6
100
AcDbEntity
  8
2d
  0
SPLINE
  5
CA
330
1F
100
AcDbEntity
  8
2d
100
AcDbSpline
210
0.0
220
0.0
230
1.0
 70
     8
 71
     5
 72
    12
 73
     6
 74
     0
 42
0.0000000001
 43
0.0000000001
 40
0.0
 40
0.0
 40
0.0
 40
0.0
 40
0.0
 40
0.0
 40
1.0
 40
1.0
 40
1.0
 40
1.0
 40
1.0
 40
1.0
 10
45.11359938116877
 20
0.5364384937091446
 30
0.0
 10
45.0697518653073
 20
0.5364384937091446
 30
0.0
 10
45.02590434944584
 20
0.5364384937091446
 30
0.0
 10
44.96859500611761
 20
0.4581610161122912
 30
0.0
 10
44.96894318107798
 20
0.4143022214994047
 30
0.0
 10
44.97034459349948
 20
0.3704771066627446
 30
0.0
  0
SPLINE
  5
CB
330
1F
100
AcDbEntity
  8
2d
100
AcDbSpline
210
0.0
220
0.0
230
1.0
 70
     8
 71
     2
 72
     6
 73
     3
 74
     0
 42
0.0000000001
 43
0.0000000001
 40
0.0
 40
0.0
 40
0.0
 40
1.0
 40
1.0
 40
1.0
 10
44.97034459349948
 20
0.3704771066627446
 30
0.0
 10
44.97348180123776
 20
0.2723700203490237
 30
0.0
 10
44.98505312151503
 20
0.1748742215597994
 30
0.0
  0
SPLINE
  5
CC
330
1F
100
AcDbEntity
  8
2d
100
AcDbSpline
210
0.0
220
0.0
230
1.0
 70
     8
 71
     5
 72
    12
 73
     6
 74
     0
 42
0.0000000001
 43
0.0000000001
 40
0.0
 40
0.0
 40
0.0
 40
0.0
 40
0.0
 40
0.0
 40
1.0
 40
1.0
 40
1.0
 40
1.0
 40
1.0
 40
1.0
 10
44.98505312151503
 20
0.1748742215597994
 30
0.0
 10
44.99176489147477
 20
0.1183232526267882
 30
0.0
 10
45.0002405562662
 20
0.0619816321199289
 30
0.0
 10
45.09586943026727
 20
0.0000000000000142
 30
0.0
 10
45.15281730066867
 20
0.0000000000000142
 30
0.0
 10
45.20976517107007
 20
0.0000000000000142
 30
0.0
  0
SPLINE
  5
CD
330
1F
100
AcDbEntity
  8
2d
100
AcDbSpline
210
0.0
220
0.0
230
1.0
 70
    24
 71
     2
 72
     6
 73
     3
 74
     0
 42
0.0000000001
 43
0.0000000001
 40
0.0
 40
0.0
 40
0.0
 40
1.28420631629259
 40
1.28420631629259
 40
1.28420631629259
 10
45.20976517107007
 20
0.0000000000000142
 30
0.0
 10
45.93172916558633
 20
0.0000000000000114
 30
0.0
 10
46.6536931601026
 20
0.0000000000000086
 30
0.0
  0
SPLINE
  5
CE
330
1F
100
AcDbEntity
  8
2d
100
AcDbSpline
210
0.0
220
0.0
230
1.0
 70
    12
 71
     2
 72
     6
 73
     3
 74
     0
 42
0.0000000001
 43
0.0000000001
 40
-0.2648196344533495
 40
-0.2648196344533495
 40
-0.2648196344533495
 40
0.0
 40
0.0
 40
0.0
 10
46.6536931601026
 20
0.0000000000000086
 30
0.0
 41
1.0
 10
46.804383086451
 20
0.008000543037389
 30
0.0
 41
0.8259231222866791
 10
46.85182836127517
 20
0.1512500054749274
 30
0.0
 41
1.0
  0
SPLINE
  5
CF
330
1F
100
AcDbEntity
  8
2d
100
AcDbSpline
210
0.0
220
0.0
230
1.0
 70
     8
 71
     2
 72
    12
 73
     9
 74
     0
 42
0.0000000001
 43
0.0000000001
 40
0.0
 40
0.0
 40
0.0
 40
1.0
 40
2.0
 40
3.0
 40
4.0
 40
5.0
 40
6.0
 40
7.0
 40
7.0
 40
7.0
 10
46.47633035791345
 20
0.5364384937091446
 30
0.0
 10
46.5134862546612
 20
0.5330100553772797
 30
0.0
 10
46.56534456966469
 20
0.4819665003255443
 30
0.0
 10
46.58829351497261
 20
0.4134444636891771
 30
0.0
 10
46.5910222918758
 20
0.3420548463233378
 30
0.0
 10
46.60380577345234
 20
0.2717211670728286
 30
0.0
 10
46.63091992936982
 20
0.2057456372191881
 30
0.0
 10
46.678604436189
 20
0.1493854605217112
 30
0.0
 10
46.71718436256869
 20
0.1512500000089587
 30
0.0
  0
LINE
  5
D0
330
1F
100
AcDbEntity
  8
2d
100
AcDbLine
 10
30.3415968774899
 20
0.1512500746256346
 30
0.0
 11
32.85795697603721
 21
0.1512190926336686
 31
0.0
  0
ARC
  5
D1
330
1F
100
AcDbEntity
  8
2d
100
AcDbCircle
 10
32.85795697603721
 20
0.3700402164238749
 30
0.0
 40
0.2188211237902063
100
AcDbArc
 50
270.0
 51
90.0
  0
POLYLINE
  5
D2
330
1F
100
AcDbEntity
  8
2d
100
AcDb2dPolyline
 66
     1
 10
0.0
 20
0.0
 30
0.0
  0
VERTEX
  5
D3
330
D2
100
AcDbEntity
  8
2d
100
AcDbVertex
100
AcDb2dVertex
 10
32.85795697603721
 20
0.5888613402140812
 30
0.0
  0
VERTEX
  5
D4
330
D2
100
AcDbEntity
  8
2d
100
AcDbVertex
100
AcDb2dVertex
 10
29.45909004770628
 20
0.5887499999996785
 30
0.0
  0
SEQEND
  5
D5
330
D2
100
AcDbEntity
  8
2d
  0
ARC
  5
D6
330
1F
100
AcDbEntity
  8
2d
100
AcDbCircle
 10
51.47975264562204
 20
6.982368214536234
 30
0.0
 40
0.093750005360059
100
AcDbArc
 50
255.6194906677392
 51
75.64659397428977
  0
SPLINE
  5
D7
330
1F
100
AcDbEntity
  8
2d
100
AcDbSpline
210
0.0
220
0.0
230
1.0
 70
    12
 71
     2
 72
     6
 73
     3
 74
     0
 42
0.0000000001
 43
0.0000000001
 40
-26.11434725738635
 40
-26.11434725738635
 40
-26.11434725738635
 40
0.0
 40
0.0
 40
0.0
 10
51.45646885831693
 20
6.891555612141294
 30
0.0
 41
1.0
 10
38.80675811901897
 20
10.1280044965405
 30
0.0
 41
0.9999999999907445
 10
26.15707522936307
 20
13.36456223018532
 30
0.0
 41
1.0
  0
ARC
  5
D8
330
1F
100
AcDbEntity
  8
2d
100
AcDbCircle
 10
26.18032292959968
 20
13.45538407166678
 30
0.0
 40
0.0937499997673349
100
AcDbArc
 50
75.64225680311291
 51
255.6422568031219
  0
SPLINE
  5
D9
330
1F
100
AcDbEntity
  8
2d
100
AcDbSpline
210
0.0
220
0.0
230
1.0
 70
    12
 71
     2
 72
     6
 73
     3
 74
     0
 42
0.0000000001
 43
0.0000000001
 40
-26.11437741169251
 40
-26.11437741169251
 40
-26.11437741169251
 40
0.0
 40
0.0
 40
0.0
 10
26.20357062983376
 20
13.54620591314889
 30
0.0
 41
1.0
 10
38.85326819492368
 20
10.30964471157002
 30
0.0
 41
0.9999999999908358
 10
51.50299347215427
 20
7.073191820978117
 30
0.0
 41
1.0
  0
SPLINE
  5
DA
330
1F
100
AcDbEntity
  8
2d
100
AcDbSpline
210
0.0
220
0.0
230
1.0
 70
    12
 71
     2
 72
     6
 73
     3
 74
     0
 42
0.0000000001
 43
0.0000000001
 40
0.0
 40
0.0
 40
0.0
 40
0.0154241885422534
 40
0.0154241885422534
 40
0.0154241885422534
 10
27.1663498418133
 20
10.96506697692332
 30
0.0
 41
1.0
 10
27.17127525753229
 20
10.95913259661947
 30
0.0
 41
0.9999975845683884
 10
27.17622671220029
 20
10.95321992495039
 30
0.0
 41
1.0
  0
SPLINE
  5
DB
330
1F
100
AcDbEntity
  8
2d
100
AcDbSpline
210
0.0
220
0.0
230
1.0
 70
    12
 71
     2
 72
     6
 73
     3
 74
     0
 42
0.0000000001
 43
0.0000000001
 40
0.0
 40
0.0
 40
0.0
 40
0.3220601460965751
 40
0.3220601460965751
 40
0.3220601460965751
 10
30.70855730881516
 20
15.39339657137754
 30
0.0
 41
1.0
 10
30.55253855167389
 20
15.43325675789054
 30
0.0
 41
0.9999999241395554
 10
30.39655089404636
 20
15.47323847517012
 30
0.0
 41
1.0
  0
POLYLINE
  5
DC
330
1F
100
AcDbEntity
  8
2d
100
AcDb2dPolyline
 66
     1
 10
0.0
 20
0.0
 30
0.0
  0
VERTEX
  5
DD
330
DC
100
AcDbEntity
  8
2d
100
AcDbVertex
100
AcDb2dVertex
 10
46.7124526589329
 20
0.1511342885573647
 30
0.0
  0
VERTEX
  5
DE
330
DC
100
AcDbEntity
  8
2d
100
AcDbVertex
100
AcDb2dVertex
 10
47.02619916979324
 20
0.1512500000000152
 30
0.0
  0
SEQEND
  5
DF
330
DC
100
AcDbEntity
  8
2d
  0
SPLINE
  5
E0
330
1F
100
AcDbEntity
  8
2d
100
AcDbSpline
210
0.0
220
0.0
230
1.0
 70
     8
 71
     3
 72
    11
 73
     7
 74
     0
 42
0.0000000001
 43
0.0000000001
 40
0.0
 40
0.0
 40
0.0
 40
0.0
 40
0.2408560772051118
 40
0.4900121454672118
 40
1.024242597521907
 40
2.184671008940754
 40
2.184671008940754
 40
2.184671008940754
 40
2.184671008940754
 10
47.02619916979324
 20
0.1512500000000152
 30
0.0
 10
47.1068464120989
 20
0.1513126180256746
 30
0.0
 10
47.26926012446215
 20
0.1739612235519312
 30
0.0
 10
47.58643512781772
 20
0.3122375032439786
 30
0.0
 10
48.04773268459404
 20
0.789667799085019
 30
0.0
 10
48.15250116494212
 20
1.389169577514058
 30
0.0
 10
48.07014660162728
 20
1.768453555064772
 30
0.0
  0
SPLINE
  5
E1
330
1F
100
AcDbEntity
  8
2d
100
AcDbSpline
210
0.0
220
0.0
230
1.0
 70
    24
 71
     2
 72
     6
 73
     3
 74
     0
 42
0.0000000001
 43
0.0000000001
 40
0.0
 40
0.0
 40
0.0
 40
2.253709458960993
 40
2.253709458960993
 40
2.253709458960993
 10
48.07014660162728
 20
1.768453555064772
 30
0.0
 10
47.82881270113811
 20
2.870645640103911
 30
0.0
 10
47.58747880064895
 20
3.97283772514305
 30
0.0
  0
SPLINE
  5
E2
330
1F
100
AcDbEntity
  8
2d
100
AcDbSpline
210
0.0
220
0.0
230
1.0
 70
    12
 71
     2
 72
     6
 73
     3
 74
     0
 42
0.0000000001
 43
0.0000000001
 40
0.0
 40
0.0
 40
0.0
 40
1.463740670784062
 40
1.463740670784062
 40
1.463740670784062
 10
47.58747880064895
 20
3.97283772514305
 30
0.0
 41
1.0
 10
47.4105903346689
 20
4.771053184310168
 30
0.0
 41
0.8520916364574898
 10
46.62004519681284
 20
4.973803599132733
 30
0.0
 41
1.0
  0
POLYLINE
  5
E3
330
1F
100
AcDbEntity
  8
2d
100
AcDb2dPolyline
 66
     1
 10
0.0
 20
0.0
 30
0.0
  0
VERTEX
  5
E4
330
E3
100
AcDbEntity
  8
2d
100
AcDbVertex
100
AcDb2dVertex
 10
46.62004519681284
 20
4.973803599132733
 30
0.0
  0
VERTEX
  5
E5
330
E3
100
AcDbEntity
  8
2d
100
AcDbVertex
100
AcDb2dVertex
 10
32.21429461698619
 20
8.658833799978751
 30
0.0
  0
SEQEND
  5
E6
330
E3
100
AcDbEntity
  8
2d
  0
SPLINE
  5
E7
330
1F
100
AcDbEntity
  8
2d
100
AcDbSpline
210
0.0
220
0.0
230
1.0
 70
    12
 71
     2
 72
     6
 73
     3
 74
     0
 42
0.0000000001
 43
0.0000000001
 40
0.0
 40
0.0
 40
0.0
 40
2.05487388634592
 40
2.05487388634592
 40
2.05487388634592
 10
32.21429461698619
 20
8.658833799978751
 30
0.0
 41
1.0
 10
30.94845739743299
 20
8.985474733372616
 30
0.0
 41
0.7077555292825638
 10
30.61868447332907
 20
7.71709777406925
 30
0.0
 41
1.0
  0
SPLINE
  5
E8
330
1F
100
AcDbEntity
  8
2d
100
AcDbSpline
210
0.0
220
0.0
230
1.0
 70
    24
 71
     2
 72
     6
 73
     3
 74
     0
 42
0.0000000001
 43
0.0000000001
 40
0.0
 40
0.0
 40
0.0
 40
6.279861676903744
 40
6.279861676903744
 40
6.279861676903744
 10
30.61868447332907
 20
7.71709777406925
 30
0.0
 10
29.84143545318766
 20
4.67147650450295
 30
0.0
 10
29.06418643304626
 20
1.62585523493665
 30
0.0
  0
SPLINE
  5
E9
330
1F
100
AcDbEntity
  8
2d
100
AcDbSpline
210
0.0
220
0.0
230
1.0
 70
     8
 71
     3
 72
    13
 73
     9
 74
     0
 42
0.0000000001
 43
0.0000000001
 40
0.0
 40
0.0
 40
0.0
 40
0.0
 40
0.2665070147723875
 40
0.5557485967864204
 40
1.084053701362061
 40
1.262104679140156
 40
1.404756401696689
 40
1.658500034173522
 40
1.658500034173522
 40
1.658500034173522
 40
1.658500034173522
 10
29.06418643304626
 20
1.62585523493665
 30
0.0
 10
29.04194977976982
 20
1.536675225863257
 30
0.0
 10
29.00554436913669
 20
1.353933228194847
 30
0.0
 10
28.97579516915015
 20
0.9946762465500806
 30
0.0
 10
28.98514913772415
 20
0.6598886045108514
 30
0.0
 10
29.05953661310264
 20
0.3856446258282077
 30
0.0
 10
29.15615945594392
 20
0.2173710295629792
 30
0.0
 10
29.28141949889114
 20
0.1496703389957972
 30
0.0
 10
29.36761973006038
 20
0.1512500000053265
 30
0.0
  0
ARC
  5
EA
330
1F
100
AcDbEntity
  8
2d
100
AcDbCircle
 10
29.36377139355232
 20
0.3612491673019735
 30
0.0
 40
0.2100344256524735
100
AcDbArc
 50
271.0498554141137
 51
11.94469064025778
  0
SPLINE
  5
EB
330
1F
100
AcDbEntity
  8
2d
100
AcDbSpline
210
0.0
220
0.0
230
1.0
 70
     8
 71
     2
 72
    11
 73
     8
 74
     0
 42
0.0000000001
 43
0.0000000001
 40
0.0
 40
0.0
 40
0.0
 40
1.0
 40
2.0
 40
3.0
 40
4.0
 40
5.0
 40
6.0
 40
6.0
 40
6.0
 10
31.00613023041849
 20
7.466044060186019
 30
0.0
 10
32.11549692272739
 20
6.645546792052532
 30
0.0
 10
34.5256797105156
 20
5.298389661170613
 30
0.0
 10
37.12183617758134
 20
4.35220939369499
 30
0.0
 10
39.84335052018493
 20
3.877884613632244
 30
0.0
 10
42.60459314449518
 20
3.828345118394258
 30
0.0
 10
45.34336026319897
 20
4.166998860927177
 30
0.0
 10
46.68562244856562
 20
4.48538399874154
 30
0.0
  0
SPLINE
  5
EC
330
1F
100
AcDbEntity
  8
2d
100
AcDbSpline
210
0.0
220
0.0
230
1.0
 70
     8
 71
     2
 72
    33
 73
    30
 74
     0
 42
0.0000000001
 43
0.0000000001
 40
0.0
 40
0.0
 40
0.0
 40
0.9999958630642677
 40
1.99999601628411
 40
2.999996169503952
 40
3.999996322723793
 40
4.999996475943635
 40
5.999996629163477
 40
6.999996782383319
 40
7.999996935603161
 40
8.999997088823003
 40
9.999997242042845
 40
10.99999739526269
 40
11.99999754848253
 40
12.99999770170237
 40
13.99999785492221
 40
14.99999800814206
 40
15.9999981613619
 40
16.99999831458174
 40
17.99999846780158
 40
18.99999862102142
 40
19.99999877424126
 40
20.99999892746111
 40
21.99999908068095
 40
22.99999923390079
 40
23.99999938712063
 40
24.99999954034048
 40
25.99999969356032
 40
26.99999984678016
 40
28.0
 40
28.0
 40
28.0
 10
0.0
 20
28.5887043753716
 30
0.0
 10
0.9074082590518179
 20
28.58865657660513
 30
0.0
 10
2.721800899645336
 20
28.62707270195518
 30
0.0
 10
4.535021654521977
 20
28.70308361948011
 30
0.0
 10
6.346335872451335
 20
28.81608060986563
 30
0.0
 10
8.154621900028166
 20
28.96823958115194
 30
0.0
 10
9.959719126742195
 20
29.16492966864794
 30
0.0
 10
11.75831364586103
 20
29.35715728615013
 30
0.0
 10
13.56652778114845
 20
29.81403517487076
 30
0.0
 10
14.49787451140441
 20
31.43172768342333
 30
0.0
 10
14.76182700303452
 20
33.23770743510871
 30
0.0
 10
15.05876386131128
 20
35.02629981520682
 30
0.0
 10
15.26703796175394
 20
36.82974259358673
 30
0.0
 10
15.40744881304111
 20
38.63918992311999
 30
0.0
 10
15.47609669707685
 20
40.45289161101299
 30
0.0
 10
15.47405626070543
 20
42.26785967042681
 30
0.0
 10
15.40119275172691
 20
44.08139326168556
 30
0.0
 10
15.25703666408872
 20
45.89055880356938
 30
0.0
 10
15.04472701466164
 20
47.69345572867701
 30
0.0
 10
14.74553784083447
 20
49.48203726155555
 30
0.0
 10
14.47005038315236
 20
51.28406041390011
 30
0.0
 10
13.57014123428549
 20
52.91736806157493
 30
0.0
 10
11.76617613133017
 20
53.39213620073109
 30
0.0
 10
9.963678948800311
 20
53.55530835443253
 30
0.0
 10
8.156865025654898
 20
53.73380922233473
 30
0.0
 10
6.347272141099936
 20
53.86972558621105
 30
0.0
 10
4.535384740052097
 20
53.97280968911317
 30
0.0
 10
2.721879797467724
 20
54.04133178425279
 30
0.0
 10
0.9073998825589108
 20
54.07562374644767
 30
0.0
 10
0.0
 20
54.07562989960376
 30
0.0
  0
SPLINE
  5
ED
330
1F
100
AcDbEntity
  8
2d
100
AcDbSpline
210
0.0
220
0.0
230
1.0
 70
     8
 71
     2
 72
    33
 73
    30
 74
     0
 42
0.0000000001
 43
0.0000000001
 40
-28.0
 40
-28.0
 40
-28.0
 40
-26.99999984678016
 40
-25.99999969356032
 40
-24.99999954034048
 40
-23.99999938712063
 40
-22.99999923390079
 40
-21.99999908068095
 40
-20.99999892746111
 40
-19.99999877424126
 40
-18.99999862102142
 40
-17.99999846780158
 40
-16.99999831458174
 40
-15.9999981613619
 40
-14.99999800814206
 40
-13.99999785492221
 40
-12.99999770170237
 40
-11.99999754848253
 40
-10.99999739526269
 40
-9.999997242042845
 40
-8.999997088823003
 40
-7.999996935603161
 40
-6.999996782383319
 40
-5.999996629163477
 40
-4.999996475943635
 40
-3.999996322723793
 40
-2.999996169503952
 40
-1.99999601628411
 40
-0.9999958630642677
 40
0.0
 40
0.0
 40
0.0
 10
0.0
 20
54.07562989960376
 30
0.0
 10
-0.9073998825589108
 20
54.07562374644767
 30
0.0
 10
-2.721879797467724
 20
54.04133178425279
 30
0.0
 10
-4.535384740052097
 20
53.97280968911317
 30
0.0
 10
-6.347272141099936
 20
53.86972558621105
 30
0.0
 10
-8.156865025654898
 20
53.73380922233473
 30
0.0
 10
-9.963678948800311
 20
53.55530835443253
 30
0.0
 10
-11.76617613133017
 20
53.39213620073109
 30
0.0
 10
-13.57014123428549
 20
52.91736806157493
 30
0.0
 10
-14.47005038315236
 20
51.28406041390011
 30
0.0
 10
-14.74553784083447
 20
49.48203726155555
 30
0.0
 10
-15.04472701466164
 20
47.69345572867701
 30
0.0
 10
-15.25703666408872
 20
45.89055880356938
 30
0.0
 10
-15.40119275172691
 20
44.08139326168556
 30
0.0
 10
-15.47405626070543
 20
42.26785967042681
 30
0.0
 10
-15.47609669707685
 20
40.45289161101299
 30
0.0
 10
-15.40744881304111
 20
38.63918992311999
 30
0.0
 10
-15.26703796175394
 20
36.82974259358673
 30
0.0
 10
-15.05876386131128
 20
35.02629981520682
 30
0.0
 10
-14.76182700303452
 20
33.23770743510871
 30
0.0
 10
-14.49787451140441
 20
31.43172768342333
 30
0.0
 10
-13.56652778114845
 20
29.81403517487076
 30
0.0
 10
-11.75831364586103
 20
29.35715728615013
 30
0.0
 10
-9.959719126742195
 20
29.16492966864794
 30
0.0
 10
-8.154621900028166
 20
28.96823958115194
 30
0.0
 10
-6.346335872451335
 20
28.81608060986563
 30
0.0
 10
-4.535021654521977
 20
28.70308361948011
 30
0.0
 10
-2.721800899645336
 20
28.62707270195518
 30
0.0
 10
-0.9074082590518179
 20
28.58865657660513
 30
0.0
 10
0.0
 20
28.5887043753716
 30
0.0
  0
SPLINE
  5
EE
330
1F
100
AcDbEntity
  8
2d
100
AcDbSpline
210
0.0
220
0.0
230
1.0
 70
    11
 71
     2
 72
   116
 73
   113
 74
     0
 42
0.0000000001
 43
0.0000000001
 40
0.0
 40
0.0
 40
0.0
 40
0.9999958630642677
 40
0.9999958630642677
 40
1.99999601628411
 40
1.99999601628411
 40
2.999996169503952
 40
2.999996169503952
 40
3.999996322723793
 40
3.999996322723793
 40
4.999996475943635
 40
4.999996475943635
 40
5.999996629163477
 40
5.999996629163477
 40
6.999996782383319
 40
6.999996782383319
 40
7.999996935603161
 40
7.999996935603161
 40
8.999997088823003
 40
8.999997088823003
 40
9.999997242042845
 40
9.999997242042845
 40
10.99999739526269
 40
10.99999739526269
 40
11.99999754848253
 40
11.99999754848253
 40
12.99999770170237
 40
12.99999770170237
 40
13.99999785492221
 40
13.99999785492221
 40
14.99999800814206
 40
14.99999800814206
 40
15.9999981613619
 40
15.9999981613619
 40
16.99999831458174
 40
16.99999831458174
 40
17.99999846780158
 40
17.99999846780158
 40
18.99999862102142
 40
18.99999862102142
 40
19.99999877424126
 40
19.99999877424126
 40
20.99999892746111
 40
20.99999892746111
 40
21.99999908068095
 40
21.99999908068095
 40
22.99999923390079
 40
22.99999923390079
 40
23.99999938712063
 40
23.99999938712063
 40
24.99999954034048
 40
24.99999954034048
 40
25.99999969356032
 40
25.99999969356032
 40
26.99999984678016
 40
26.99999984678016
 40
28.0
 40
28.0
 40
29.00000015321984
 40
29.00000015321984
 40
30.00000030643968
 40
30.00000030643968
 40
31.00000045965952
 40
31.00000045965952
 40
32.00000061287937
 40
32.00000061287937
 40
33.00000076609921
 40
33.00000076609921
 40
34.00000091931905
 40
34.00000091931905
 40
35.00000107253889
 40
35.00000107253889
 40
36.00000122575874
 40
36.00000122575874
 40
37.00000137897858
 40
37.00000137897858
 40
38.00000153219842
 40
38.00000153219842
 40
39.00000168541826
 40
39.00000168541826
 40
40.0000018386381
 40
40.0000018386381
 40
41.00000199185794
 40
41.00000199185794
 40
42.00000214507779
 40
42.00000214507779
 40
43.00000229829763
 40
43.00000229829763
 40
44.00000245151747
 40
44.00000245151747
 40
45.00000260473731
 40
45.00000260473731
 40
46.00000275795716
 40
46.00000275795716
 40
47.000002911177
 40
47.000002911177
 40
48.00000306439684
 40
48.00000306439684
 40
49.00000321761668
 40
49.00000321761668
 40
50.00000337083652
 40
50.00000337083652
 40
51.00000352405637
 40
51.00000352405637
 40
52.0000036772762
 40
52.0000036772762
 40
53.00000383049605
 40
53.00000383049605
 40
54.00000398371589
 40
54.00000398371589
 40
55.00000413693573
 40
55.00000413693573
 40
56.0
 40
56.0
 40
56.0
 10
0.0
 20
28.67021640162885
 30
0.0
 10
0.9065475755294445
 20
28.67016864842605
 30
0.0
 10
1.812877166370623
 20
28.6893583598431
 30
0.0
 10
2.719230881508016
 20
28.70854858204374
 30
0.0
 10
3.624997259755664
 20
28.74651866003268
 30
0.0
 10
4.530776614628867
 20
28.78448928200681
 30
0.0
 10
5.435603584945116
 20
28.84093598984652
 30
0.0
 10
6.340380231060307
 20
28.89737955826228
 30
0.0
 10
7.243644176996165
 20
28.97338507437954
 30
0.0
 10
8.146788566495385
 20
29.04938053037129
 30
0.0
 10
9.048340923314097
 20
29.14761701831255
 30
0.0
 10
9.950973125929657
 20
29.24597117025613
 30
0.0
 10
10.85035399336089
 20
29.34209391472999
 30
0.0
 10
11.74392706963858
 20
29.43759594239163
 30
0.0
 10
12.64245275885059
 20
29.66462465090418
 30
0.0
 10
13.51310387333099
 20
29.8846103457582
 30
0.0
 10
13.96156001209468
 20
30.66355132716161
 30
0.0
 10
14.41946967887228
 20
31.45891251057001
 30
0.0
 10
14.5491956244323
 20
32.34650568880737
 30
0.0
 10
14.68128615605578
 20
33.25027751542708
 30
0.0
 10
14.82988401010683
 20
34.14535329347993
 30
0.0
 10
14.97802170716056
 20
35.03765732637516
 30
0.0
 10
15.08192708010379
 20
35.93737262496992
 30
0.0
 10
15.18588861143991
 20
36.83757419837227
 30
0.0
 10
15.25597567324705
 20
37.74077253140138
 30
0.0
 10
15.32605618046893
 20
38.64388639676501
 30
0.0
 10
15.36031905277863
 20
39.5491237571446
 30
0.0
 10
15.39458293707783
 20
40.45438785464945
 30
0.0
 10
15.39356450403174
 20
41.36028400274459
 30
0.0
 10
15.39254607447161
 20
42.26617705007483
 30
0.0
 10
15.35617819041759
 20
43.17135414488658
 30
0.0
 10
15.31981083851828
 20
44.07651799465363
 30
0.0
 10
15.24786021817809
 20
44.97950159506425
 30
0.0
 10
15.1759042560293
 20
45.88255223541877
 30
0.0
 10
15.06992918522458
 20
46.78247425878175
 30
0.0
 10
14.96400568797322
 20
47.68195832842461
 30
0.0
 10
14.81473743586325
 20
48.57429823415657
 30
0.0
 10
14.66504843667147
 20
49.4691534062362
 30
0.0
 10
14.52721822918333
 20
50.37073065797694
 30
0.0
 10
14.39166445496745
 20
51.25741726643436
 30
0.0
 10
13.94870304064712
 20
52.06137871803783
 30
0.0
 10
13.51560835683015
 20
52.84743235482579
 30
0.0
 10
12.64741276398119
 20
53.07592436133147
 30
0.0
 10
11.75203025792677
 20
53.31157142874758
 30
0.0
 10
10.85757866446276
 20
53.39254220323854
 30
0.0
 10
9.955997472898543
 20
53.47415838893364
 30
0.0
 10
9.052258168904233
 20
53.56344165604477
 30
0.0
 10
8.149804603822197
 20
53.65259790093808
 30
0.0
 10
7.245963508430389
 20
53.72048432791077
 30
0.0
 10
6.341904165143109
 20
53.78838714722266
 30
0.0
 10
5.436698446396967
 20
53.83988721251637
 30
0.0
 10
4.531530551569785
 20
53.89138512588566
 30
0.0
 10
3.625554586444268
 20
53.92561683367911
 30
0.0
 10
2.719570638005332
 20
53.95984884311684
 30
0.0
 10
1.8130996144924
 20
53.97698029208668
 30
0.0
 10
0.906629424699264
 20
53.99411172529999
 30
0.0
 10
0.0
 20
53.9941178732353
 30
0.0
 10
-0.906629424699264
 20
53.99411172529999
 30
0.0
 10
-1.8130996144924
 20
53.97698029208668
 30
0.0
 10
-2.719570638005332
 20
53.95984884311684
 30
0.0
 10
-3.625554586444268
 20
53.92561683367911
 30
0.0
 10
-4.531530551569785
 20
53.89138512588566
 30
0.0
 10
-5.436698446396967
 20
53.83988721251637
 30
0.0
 10
-6.341904165143109
 20
53.78838714722266
 30
0.0
 10
-7.245963508430391
 20
53.72048432791077
 30
0.0
 10
-8.149804603822197
 20
53.65259790093808
 30
0.0
 10
-9.052258168904231
 20
53.56344165604477
 30
0.0
 10
-9.955997472898543
 20
53.47415838893364
 30
0.0
 10
-10.85757866446276
 20
53.39254220323854
 30
0.0
 10
-11.75203025792677
 20
53.31157142874758
 30
0.0
 10
-12.64741276398119
 20
53.07592436133147
 30
0.0
 10
-13.51560835683015
 20
52.84743235482579
 30
0.0
 10
-13.94870304064712
 20
52.06137871803784
 30
0.0
 10
-14.39166445496745
 20
51.25741726643436
 30
0.0
 10
-14.52721822918333
 20
50.37073065797694
 30
0.0
 10
-14.66504843667147
 20
49.4691534062362
 30
0.0
 10
-14.81473743586325
 20
48.57429823415657
 30
0.0
 10
-14.96400568797322
 20
47.68195832842461
 30
0.0
 10
-15.06992918522458
 20
46.78247425878175
 30
0.0
 10
-15.1759042560293
 20
45.88255223541877
 30
0.0
 10
-15.24786021817809
 20
44.97950159506425
 30
0.0
 10
-15.31981083851828
 20
44.07651799465363
 30
0.0
 10
-15.35617819041759
 20
43.17135414488658
 30
0.0
 10
-15.39254607447161
 20
42.26617705007483
 30
0.0
 10
-15.39356450403174
 20
41.36028400274459
 30
0.0
 10
-15.39458293707783
 20
40.45438785464945
 30
0.0
 10
-15.36031905277863
 20
39.5491237571446
 30
0.0
 10
-15.32605618046893
 20
38.64388639676501
 30
0.0
 10
-15.25597567324705
 20
37.74077253140137
 30
0.0
 10
-15.18588861143991
 20
36.83757419837227
 30
0.0
 10
-15.08192708010379
 20
35.93737262496992
 30
0.0
 10
-14.97802170716056
 20
35.03765732637516
 30
0.0
 10
-14.82988401010683
 20
34.14535329347993
 30
0.0
 10
-14.68128615605578
 20
33.25027751542708
 30
0.0
 10
-14.5491956244323
 20
32.34650568880737
 30
0.0
 10
-14.41946967887228
 20
31.45891251057001
 30
0.0
 10
-13.96156001209468
 20
30.66355132716161
 30
0.0
 10
-13.51310387333099
 20
29.8846103457582
 30
0.0
 10
-12.64245275885059
 20
29.66462465090418
 30
0.0
 10
-11.74392706963858
 20
29.43759594239163
 30
0.0
 10
-10.85035399336089
 20
29.34209391472999
 30
0.0
 10
-9.950973125929657
 20
29.24597117025613
 30
0.0
 10
-9.048340923314093
 20
29.14761701831255
 30
0.0
 10
-8.146788566495385
 20
29.04938053037129
 30
0.0
 10
-7.243644176996168
 20
28.97338507437954
 30
0.0
 10
-6.340380231060307
 20
28.89737955826228
 30
0.0
 10
-5.435603584945115
 20
28.84093598984652
 30
0.0
 10
-4.530776614628867
 20
28.78448928200681
 30
0.0
 10
-3.624997259755661
 20
28.74651866003268
 30
0.0
 10
-2.719230881508016
 20
28.70854858204374
 30
0.0
 10
-1.812877166370627
 20
28.6893583598431
 30
0.0
 10
-0.9065475755294445
 20
28.67016864842605
 30
0.0
 10
0.0
 20
28.67021640162885
 30
0.0
  0
ENDSEC
  0
SECTION
  2
OBJECTS
  0
DICTIONARY
  5
C
330
0
100
AcDbDictionary
281
     1
  3
ACAD_GROUP
350
D
  3
ACAD_LAYOUT
350
1A
  3
ACAD_MLEADERSTYLE
350
F0
  3
ACAD_MLINESTYLE
350
17
  3
ACAD_PLOTSETTINGS
350
19
  3
ACAD_PLOTSTYLENAME
350
E
  3
ACAD_TABLESTYLE
350
EF
  3
ACAD_VISUALSTYLE
350
2A
  0
DICTIONARY
  5
D
102
{ACAD_REACTORS
330
C
102
}
330
C
100
AcDbDictionary
281
     1
  0
DICTIONARY
  5
1A
102
{ACAD_REACTORS
330
C
102
}
330
C
100
AcDbDictionary
281
     1
  3
Layout1
350
1E
  3
Layout2
350
26
  3
Model
350
22
  0
DICTIONARY
  5
F0
102
{ACAD_REACTORS
330
C
102
}
330
C
100
AcDbDictionary
281
     1
  0
DICTIONARY
  5
17
102
{ACAD_REACTORS
330
C
102
}
330
C
100
AcDbDictionary
281
     1
  3
Standard
350
18
  0
DICTIONARY
  5
19
102
{ACAD_REACTORS
330
C
102
}
330
C
100
AcDbDictionary
281
     1
  0
ACDBDICTIONARYWDFLT
  5
E
102
{ACAD_REACTORS
330
C
102
}
330
C
100
AcDbDictionary
281
     1
  3
Normal
350
F
100
AcDbDictionaryWithDefault
340
F
  0
DICTIONARY
  5
EF
102
{ACAD_REACTORS
330
C
102
}
330
C
100
AcDbDictionary
281
     1
  0
DICTIONARY
  5
2A
102
{ACAD_REACTORS
330
C
102
}
330
C
100
AcDbDictionary
281
     1
  3
2dWireframe
350
2F
  3
3D Hidden
350
31
  3
3dWireframe
350
30
  3
Basic
350
32
  3
Brighten
350
36
  3
ColorChange
350
3A
  3
Conceptual
350
34
  3
Dim
350
35
  3
Facepattern
350
39
  3
Flat
350
2B
  3
FlatWithEdges
350
2C
  3
Gouraud
350
2D
  3
GouraudWithEdges
350
2E
  3
Linepattern
350
38
  3
Realistic
350
33
  3
Thicken
350
37
  0
LAYOUT
  5
1E
102
{ACAD_REACTORS
330
1A
102
}
330
1A
100
AcDbPlotSettings
  1

  2
none_device
  4

  6

 40
0.0
 41
0.0
 42
0.0
 43
0.0
 44
0.0
 45
0.0
 46
0.0
 47
0.0
 48
0.0
 49
0.0
140
0.0
141
0.0
142
1.0
143
1.0
 70
   688
 72
     0
 73
     0
 74
     5
  7

 75
    16
 76
     0
 77
     2
 78
   300
147
1.0
148
0.0
149
0.0
100
AcDbLayout
  1
Layout1
 70
     1
 71
     1
 10
0.0
 20
0.0
 11
12.0
 21
9.0
 12
0.0
 22
0.0
 32
0.0
 14
1.000000000000000E+20
 24
1.000000000000000E+20
 34
1.000000000000000E+20
 15
-1.000000000000000E+20
 25
-1.000000000000000E+20
 35
-1.000000000000000E+20
146
0.0
 13
0.0
 23
0.0
 33
0.0
 16
1.0
 26
0.0
 36
0.0
 17
0.0
 27
1.0
 37
0.0
 76
     0
330
1B
  0
LAYOUT
  5
26
102
{ACAD_REACTORS
330
1A
102
}
330
1A
100
AcDbPlotSettings
  1

  2
none_device
  4

  6

 40
0.0
 41
0.0
 42
0.0
 43
0.0
 44
0.0
 45
0.0
 46
0.0
 47
0.0
 48
0.0
 49
0.0
140
0.0
141
0.0
142
1.0
143
1.0
 70
   688
 72
     0
 73
     0
 74
     5
  7

 75
    16
 76
     0
 77
     2
 78
   300
147
1.0
148
0.0
149
0.0
100
AcDbLayout
  1
Layout2
 70
     1
 71
     2
 10
0.0
 20
0.0
 11
0.0
 21
0.0
 12
0.0
 22
0.0
 32
0.0
 14
0.0
 24
0.0
 34
0.0
 15
0.0
 25
0.0
 35
0.0
146
0.0
 13
0.0
 23
0.0
 33
0.0
 16
1.0
 26
0.0
 36
0.0
 17
0.0
 27
1.0
 37
0.0
 76
     0
330
23
  0
LAYOUT
  5
22
102
{ACAD_REACTORS
330
1A
102
}
330
1A
100
AcDbPlotSettings
  1

  2
none_device
  4

  6

 40
0.0
 41
0.0
 42
0.0
 43
0.0
 44
0.0
 45
0.0
 46
0.0
 47
0.0
 48
0.0
 49
0.0
140
0.0
141
0.0
142
1.0
143
1.0
 70
  1712
 72
     0
 73
     0
 74
     0
  7

 75
     0
 76
     0
 77
     2
 78
   300
147
1.0
148
0.0
149
0.0
100
AcDbLayout
  1
Model
 70
     1
 71
     0
 10
0.0
 20
0.0
 11
12.0
 21
9.0
 12
0.0
 22
0.0
 32
0.0
 14
-15.47507647889114
 24
0.0000000000000086
 34
0.0
 15
51.57350265098209
 25
54.07562989960376
 35
0.0
146
0.0
 13
0.0
 23
0.0
 33
0.0
 16
1.0
 26
0.0
 36
0.0
 17
0.0
 27
1.0
 37
0.0
 76
     0
330
1F
331
29
  0
MLINESTYLE
  5
18
102
{ACAD_REACTORS
330
17
102
}
330
17
100
AcDbMlineStyle
  2
Standard
 70
     0
  3

 62
   256
 51
90.0
 52
90.0
 71
     2
 49
0.5
 62
   256
  6
BYLAYER
 49
-0.5
 62
   256
  6
BYLAYER
  0
ACDBPLACEHOLDER
  5
F
102
{ACAD_REACTORS
330
E
102
}
330
E
  0
VISUALSTYLE
  5
2F
102
{ACAD_REACTORS
330
2A
102
}
330
2A
100
AcDbVisualStyle
  2
2dWireframe
 70
     4
 71
     0
 72
     2
 73
     0
 90
        0
 40
-0.6
 41
-30.0
 62
     5
 63
     7
421
 16777215
 74
     1
 91
        4
 64
     7
 65
   257
 75
     1
175
     1
 42
1.0
 92
        0
 66
   257
 43
1.0
 76
     1
 77
     6
 78
     2
 67
     7
 79
     5
170
     0
171
     0
290
     0
174
     0
 93
        1
 44
0.0
173
     0
291
     0
 45
0.0
1001
ACAD
1000
AcDbSavedByObjectVersion
1070
     0
  0
VISUALSTYLE
  5
31
102
{ACAD_REACTORS
330
2A
102
}
330
2A
100
AcDbVisualStyle
  2
3D Hidden
 70
     6
 71
     1
 72
     2
 73
     2
 90
        0
 40
-0.6
 41
-30.0
 62
     5
 63
     7
421
 16777215
 74
     2
 91
        2
 64
     7
 65
   257
 75
     2
175
     1
 42
40.0
 92
        0
 66
   257
 43
1.0
 76
     1
 77
     6
 78
     2
 67
     7
 79
     3
170
     0
171
     0
290
     0
174
     0
 93
        1
 44
0.0
173
     0
291
     0
 45
0.0
1001
ACAD
1000
AcDbSavedByObjectVersion
1070
     0
  0
VISUALSTYLE
  5
30
102
{ACAD_REACTORS
330
2A
102
}
330
2A
100
AcDbVisualStyle
  2
3dWireframe
 70
     5
 71
     0
 72
     2
 73
     0
 90
        0
 40
-0.6
 41
-30.0
 62
     5
 63
     7
421
 16777215
 74
     1
 91
        4
 64
     7
 65
   257
 75
     1
175
     1
 42
1.0
 92
        0
 66
   257
 43
1.0
 76
     1
 77
     6
 78
     2
 67
     7
 79
     5
170
     0
171
     0
290
     0
174
     0
 93
        1
 44
0.0
173
     0
291
     0
 45
0.0
1001
ACAD
1000
AcDbSavedByObjectVersion
1070
     0
  0
VISUALSTYLE
  5
32
102
{ACAD_REACTORS
330
2A
102
}
330
2A
100
AcDbVisualStyle
  2
Basic
 70
     7
 71
     1
 72
     0
 73
     1
 90
        0
 40
-0.6
 41
-30.0
 62
     5
 63
     7
421
 16777215
 74
     0
 91
        4
 64
     7
 65
   257
 75
     1
175
     1
 42
1.0
 92
        8
 66
     7
 43
1.0
 76
     1
 77
     6
 78
     2
 67
     7
 79
     5
170
     0
171
     0
290
     0
174
     0
 93
        1
 44
0.0
173
     0
291
     1
 45
0.0
1001
ACAD
1000
AcDbSavedByObjectVersion
1070
     0
  0
VISUALSTYLE
  5
36
102
{ACAD_REACTORS
330
2A
102
}
330
2A
100
AcDbVisualStyle
  2
Brighten
 70
    12
 71
     2
 72
     2
 73
     0
 90
        0
 40
-0.6
 41
-30.0
 62
     5
 63
     7
421
 16777215
 74
     1
 91
        4
 64
     7
 65
   257
 75
     1
175
     1
 42
1.0
 92
        8
 66
     7
 43
1.0
 76
     1
 77
     6
 78
     2
 67
     7
 79
     5
170
     0
171
     0
290
     0
174
     0
 93
        1
 44
50.0
173
     0
291
     1
 45
0.0
1001
ACAD
1000
AcDbSavedByObjectVersion
1070
     0
  0
VISUALSTYLE
  5
3A
102
{ACAD_REACTORS
330
2A
102
}
330
2A
100
AcDbVisualStyle
  2
ColorChange
 70
    16
 71
     2
 72
     2
 73
     3
 90
        0
 40
-0.6
 41
-30.0
 62
     5
 63
     8
421
  8421504
 74
     1
 91
        4
 64
     7
 65
   257
 75
     1
175
     1
 42
1.0
 92
        8
 66
     8
424
  8421504
 43
1.0
 76
     1
 77
     6
 78
     2
 67
     7
 79
     5
170
     0
171
     0
290
     0
174
     0
 93
        1
 44
0.0
173
     0
291
     1
 45
0.0
1001
ACAD
1000
AcDbSavedByObjectVersion
1070
     0
  0
VISUALSTYLE
  5
34
102
{ACAD_REACTORS
330
2A
102
}
330
2A
100
AcDbVisualStyle
  2
Conceptual
 70
     9
 71
     3
 72
     2
 73
     0
 90
        0
 40
-0.6
 41
-30.0
 62
     5
 63
     7
421
 16777215
 74
     2
 91
        2
 64
     7
 65
   257
 75
     1
175
     1
 42
40.0
 92
        8
 66
     7
 43
1.0
 76
     1
 77
     6
 78
     2
 67
     7
 79
     3
170
     0
171
     0
290
     0
174
     0
 93
        1
 44
0.0
173
     0
291
     0
 45
0.0
1001
ACAD
1000
AcDbSavedByObjectVersion
1070
     0
  0
VISUALSTYLE
  5
35
102
{ACAD_REACTORS
330
2A
102
}
330
2A
100
AcDbVisualStyle
  2
Dim
 70
    11
 71
     2
 72
     2
 73
     0
 90
        0
 40
-0.6
 41
-30.0
 62
     5
 63
     7
421
 16777215
 74
     1
 91
        4
 64
     7
 65
   257
 75
     1
175
     1
 42
1.0
 92
        8
 66
     7
 43
1.0
 76
     1
 77
     6
 78
     2
 67
     7
 79
     5
170
     0
171
     0
290
     0
174
     0
 93
        1
 44
-50.0
173
     0
291
     1
 45
0.0
1001
ACAD
1000
AcDbSavedByObjectVersion
1070
     0
  0
VISUALSTYLE
  5
39
102
{ACAD_REACTORS
330
2A
102
}
330
2A
100
AcDbVisualStyle
  2
Facepattern
 70
    15
 71
     2
 72
     2
 73
     0
 90
        0
 40
-0.6
 41
-30.0
 62
     5
 63
     7
421
 16777215
 74
     1
 91
        4
 64
     7
 65
   257
 75
     1
175
     1
 42
1.0
 92
        8
 66
     7
 43
1.0
 76
     1
 77
     6
 78
     2
 67
     7
 79
     5
170
     0
171
     0
290
     0
174
     0
 93
        1
 44
0.0
173
     0
291
     1
 45
0.0
1001
ACAD
1000
AcDbSavedByObjectVersion
1070
     0
  0
VISUALSTYLE
  5
2B
102
{ACAD_REACTORS
330
2A
102
}
330
2A
100
AcDbVisualStyle
  2
Flat
 70
     0
 71
     2
 72
     1
 73
     1
 90
        2
 40
-0.6
 41
30.0
 62
     5
 63
     7
421
 16777215
 74
     0
 91
        4
 64
     7
 65
   257
 75
     1
175
     1
 42
1.0
 92
        8
 66
     7
 43
1.0
 76
     1
 77
     6
 78
     2
 67
     7
 79
     5
170
     0
171
     0
290
     0
174
     0
 93
       13
 44
0.0
173
     0
291
     1
 45
0.0
1001
ACAD
1000
AcDbSavedByObjectVersion
1070
     0
  0
VISUALSTYLE
  5
2C
102
{ACAD_REACTORS
330
2A
102
}
330
2A
100
AcDbVisualStyle
  2
FlatWithEdges
 70
     1
 71
     2
 72
     1
 73
     1
 90
        2
 40
-0.6
 41
30.0
 62
     5
 63
     7
421
 16777215
 74
     1
 91
        4
 64
     7
 65
   257
 75
     1
175
     1
 42
1.0
 92
        0
 66
   257
 43
1.0
 76
     1
 77
     6
 78
     2
 67
     7
 79
     5
170
     0
171
     0
290
     0
174
     0
 93
       13
 44
0.0
173
     0
291
     1
 45
0.0
1001
ACAD
1000
AcDbSavedByObjectVersion
1070
     0
  0
VISUALSTYLE
  5
2D
102
{ACAD_REACTORS
330
2A
102
}
330
2A
100
AcDbVisualStyle
  2
Gouraud
 70
     2
 71
     2
 72
     2
 73
     1
 90
        2
 40
-0.6
 41
30.0
 62
     5
 63
     7
421
 16777215
 74
     0
 91
        4
 64
     7
 65
   257
 75
     1
175
     1
 42
1.0
 92
        0
 66
     7
 43
1.0
 76
     1
 77
     6
 78
     2
 67
     7
 79
     5
170
     0
171
     0
290
     0
174
     0
 93
       13
 44
0.0
173
     0
291
     1
 45
0.0
1001
ACAD
1000
AcDbSavedByObjectVersion
1070
     0
  0
VISUALSTYLE
  5
2E
102
{ACAD_REACTORS
330
2A
102
}
330
2A
100
AcDbVisualStyle
  2
GouraudWithEdges
 70
     3
 71
     2
 72
     2
 73
     1
 90
        2
 40
-0.6
 41
30.0
 62
     5
 63
     7
421
 16777215
 74
     1
 91
        4
 64
     7
 65
   257
 75
     1
175
     1
 42
1.0
 92
        0
 66
   257
 43
1.0
 76
     1
 77
     6
 78
     2
 67
     7
 79
     5
170
     0
171
     0
290
     0
174
     0
 93
       13
 44
0.0
173
     0
291
     1
 45
0.0
1001
ACAD
1000
AcDbSavedByObjectVersion
1070
     0
  0
VISUALSTYLE
  5
38
102
{ACAD_REACTORS
330
2A
102
}
330
2A
100
AcDbVisualStyle
  2
Linepattern
 70
    14
 71
     2
 72
     2
 73
     0
 90
        0
 40
-0.6
 41
-30.0
 62
     5
 63
     7
421
 16777215
 74
     1
 91
        4
 64
     7
 65
   257
 75
     7
175
     7
 42
1.0
 92
        8
 66
     7
 43
1.0
 76
     1
 77
     6
 78
     2
 67
     7
 79
     5
170
     0
171
     0
290
     0
174
     0
 93
        1
 44
0.0
173
     0
291
     1
 45
0.0
1001
ACAD
1000
AcDbSavedByObjectVersion
1070
     0
  0
VISUALSTYLE
  5
33
102
{ACAD_REACTORS
330
2A
102
}
330
2A
100
AcDbVisualStyle
  2
Realistic
 70
     8
 71
     2
 72
     2
 73
     0
 90
        0
 40
-0.6
 41
-30.0
 62
     5
 63
     7
421
 16777215
 74
     1
 91
        0
 64
     7
 65
   257
 75
     1
175
     1
 42
1.0
 92
        8
 66
     8
424
  7895160
 43
1.0
 76
     1
 77
     6
 78
     2
 67
     7
 79
     5
170
     0
171
     0
290
     0
174
     0
 93
       13
 44
0.0
173
     0
291
     0
 45
0.0
1001
ACAD
1000
AcDbSavedByObjectVersion
1070
     0
  0
VISUALSTYLE
  5
37
102
{ACAD_REACTORS
330
2A
102
}
330
2A
100
AcDbVisualStyle
  2
Thicken
 70
    13
 71
     2
 72
     2
 73
     0
 90
        0
 40
-0.6
 41
-30.0
 62
     5
 63
     7
421
 16777215
 74
     1
 91
        4
 64
     7
 65
   257
 75
     1
175
     1
 42
1.0
 92
       12
 66
     7
 43
1.0
 76
     1
 77
     6
 78
     2
 67
     7
 79
     5
170
     0
171
     0
290
     0
174
     0
 93
        1
 44
0.0
173
     0
291
     1
 45
0.0
1001
ACAD
1000
AcDbSavedByObjectVersion
1070
     0
  0
ENDSEC
  0
EOF
