  0
SECTION
  2
HEADER
  9
$ACADVER
  1
AC1018
  9
$ACADMAINTVER
 70
     0
  9
$DWGCODEPAGE
  3
ANSI_1252
  9
$INSBASE
 10
0.0
 20
0.0
 30
0.0
  9
$EXTMIN
 10
-10.08719999549427
 20
0.0000047233536958
 30
0.0
  9
$EXTMAX
 10
44.7660821612291
 20
66.47486563784624
 30
0.0
  9
$LIMMIN
 10
0.0
 20
0.0
  9
$LIMMAX
 10
12.0
 20
9.0
  9
$ORTHOMODE
 70
     0
  9
$REGENMODE
 70
     1
  9
$FILLMODE
 70
     1
  9
$QTEXTMODE
 70
     0
  9
$MIRRTEXT
 70
     1
  9
$LTSCALE
 40
0.0393700787401575
  9
$ATTMODE
 70
     1
  9
$TEXTSIZE
 40
0.2
  9
$TRACEWID
 40
0.05
  9
$TEXTSTYLE
  7
Standard
  9
$CLAYER
  8
DEFAULT
  9
$CELTYPE
  6
ByLayer
  9
$CECOLOR
 62
   256
  9
$CELTSCALE
 40
1.0
  9
$DISPSILH
 70
     0
  9
$DIMSCALE
 40
1.0
  9
$DIMASZ
 40
0.18
  9
$DIMEXO
 40
0.0625
  9
$DIMDLI
 40
0.38
  9
$DIMRND
 40
0.0
  9
$DIMDLE
 40
0.0
  9
$DIMEXE
 40
0.18
  9
$DIMTP
 40
0.0
  9
$DIMTM
 40
0.0
  9
$DIMTXT
 40
0.18
  9
$DIMCEN
 40
0.09
  9
$DIMTSZ
 40
0.0
  9
$DIMTOL
 70
     0
  9
$DIMLIM
 70
     0
  9
$DIMTIH
 70
     1
  9
$DIMTOH
 70
     1
  9
$DIMSE1
 70
     0
  9
$DIMSE2
 70
     0
  9
$DIMTAD
 70
     0
  9
$DIMZIN
 70
     0
  9
$DIMBLK
  1

  9
$DIMASO
 70
     1
  9
$DIMSHO
 70
     1
  9
$DIMPOST
  1

  9
$DIMAPOST
  1

  9
$DIMALT
 70
     0
  9
$DIMALTD
 70
     2
  9
$DIMALTF
 40
25.4
  9
$DIMLFAC
 40
1.0
  9
$DIMTOFL
 70
     0
  9
$DIMTVP
 40
0.0
  9
$DIMTIX
 70
     0
  9
$DIMSOXD
 70
     0
  9
$DIMSAH
 70
     0
  9
$DIMBLK1
  1

  9
$DIMBLK2
  1

  9
$DIMSTYLE
  2
Standard
  9
$DIMCLRD
 70
     0
  9
$DIMCLRE
 70
     0
  9
$DIMCLRT
 70
     0
  9
$DIMTFAC
 40
1.0
  9
$DIMGAP
 40
0.09
  9
$DIMJUST
 70
     0
  9
$DIMSD1
 70
     0
  9
$DIMSD2
 70
     0
  9
$DIMTOLJ
 70
     1
  9
$DIMTZIN
 70
     0
  9
$DIMALTZ
 70
     0
  9
$DIMALTTZ
 70
     0
  9
$DIMUPT
 70
     0
  9
$DIMDEC
 70
     4
  9
$DIMTDEC
 70
     4
  9
$DIMALTU
 70
     2
  9
$DIMALTTD
 70
     2
  9
$DIMTXSTY
  7
Standard
  9
$DIMAUNIT
 70
     0
  9
$DIMADEC
 70
     0
  9
$DIMALTRND
 40
0.0
  9
$DIMAZIN
 70
     0
  9
$DIMDSEP
 70
    46
  9
$DIMATFIT
 70
     3
  9
$DIMFRAC
 70
     0
  9
$DIMLDRBLK
  1

  9
$DIMLUNIT
 70
     2
  9
$DIMLWD
 70
    -2
  9
$DIMLWE
 70
    -2
  9
$DIMTMOVE
 70
     2
  9
$LUNITS
 70
     2
  9
$LUPREC
 70
     3
  9
$SKETCHINC
 40
0.1
  9
$FILLETRAD
 40
0.5
  9
$AUNITS
 70
     0
  9
$AUPREC
 70
     0
  9
$MENU
  1
.
  9
$ELEVATION
 40
0.0
  9
$PELEVATION
 40
0.0
  9
$THICKNESS
 40
0.0
  9
$LIMCHECK
 70
     0
  9
$CHAMFERA
 40
0.5
  9
$CHAMFERB
 40
0.5
  9
$CHAMFERC
 40
1.0
  9
$CHAMFERD
 40
0.0
  9
$SKPOLY
 70
     0
  9
$TDCREATE
 40
2455909.58848044
  9
$TDUCREATE
 40
2455909.796813773
  9
$TDUPDATE
 40
2455909.588480452
  9
$TDUUPDATE
 40
2455909.796813785
  9
$TDINDWG
 40
0.0000000116
  9
$TDUSRTIMER
 40
0.0000000116
  9
$USRTIMER
 70
     1
  9
$ANGBASE
 50
0.0
  9
$ANGDIR
 70
     0
  9
$PDMODE
 70
     0
  9
$PDSIZE
 40
0.0
  9
$PLINEWID
 40
0.0
  9
$SPLFRAME
 70
     0
  9
$SPLINETYPE
 70
     6
  9
$SPLINESEGS
 70
     8
  9
$HANDSEED
  5
145
  9
$SURFTAB1
 70
     6
  9
$SURFTAB2
 70
     6
  9
$SURFTYPE
 70
     6
  9
$SURFU
 70
     6
  9
$SURFV
 70
     6
  9
$UCSBASE
  2

  9
$UCSNAME
  2

  9
$UCSORG
 10
0.0
 20
0.0
 30
0.0
  9
$UCSXDIR
 10
1.0
 20
0.0
 30
0.0
  9
$UCSYDIR
 10
0.0
 20
1.0
 30
0.0
  9
$UCSORTHOREF
  2

  9
$UCSORTHOVIEW
 70
     0
  9
$UCSORGTOP
 10
0.0
 20
0.0
 30
0.0
  9
$UCSORGBOTTOM
 10
0.0
 20
0.0
 30
0.0
  9
$UCSORGLEFT
 10
0.0
 20
0.0
 30
0.0
  9
$UCSORGRIGHT
 10
0.0
 20
0.0
 30
0.0
  9
$UCSORGFRONT
 10
0.0
 20
0.0
 30
0.0
  9
$UCSORGBACK
 10
0.0
 20
0.0
 30
0.0
  9
$PUCSBASE
  2

  9
$PUCSNAME
  2

  9
$PUCSORG
 10
0.0
 20
0.0
 30
0.0
  9
$PUCSXDIR
 10
1.0
 20
0.0
 30
0.0
  9
$PUCSYDIR
 10
0.0
 20
1.0
 30
0.0
  9
$PUCSORTHOREF
  2

  9
$PUCSORTHOVIEW
 70
     0
  9
$PUCSORGTOP
 10
0.0
 20
0.0
 30
0.0
  9
$PUCSORGBOTTOM
 10
0.0
 20
0.0
 30
0.0
  9
$PUCSORGLEFT
 10
0.0
 20
0.0
 30
0.0
  9
$PUCSORGRIGHT
 10
0.0
 20
0.0
 30
0.0
  9
$PUCSORGFRONT
 10
0.0
 20
0.0
 30
0.0
  9
$PUCSORGBACK
 10
0.0
 20
0.0
 30
0.0
  9
$USERI1
 70
     0
  9
$USERI2
 70
     0
  9
$USERI3
 70
     0
  9
$USERI4
 70
     0
  9
$USERI5
 70
     0
  9
$USERR1
 40
0.0
  9
$USERR2
 40
0.0
  9
$USERR3
 40
0.0
  9
$USERR4
 40
0.0
  9
$USERR5
 40
0.0
  9
$WORLDVIEW
 70
     1
  9
$SHADEDGE
 70
     3
  9
$SHADEDIF
 70
    70
  9
$TILEMODE
 70
     1
  9
$MAXACTVP
 70
    64
  9
$PINSBASE
 10
0.0
 20
0.0
 30
0.0
  9
$PLIMCHECK
 70
     0
  9
$PEXTMIN
 10
1.000000000000000E+20
 20
1.000000000000000E+20
 30
1.000000000000000E+20
  9
$PEXTMAX
 10
-1.000000000000000E+20
 20
-1.000000000000000E+20
 30
-1.000000000000000E+20
  9
$PLIMMIN
 10
0.0
 20
0.0
  9
$PLIMMAX
 10
12.0
 20
9.0
  9
$UNITMODE
 70
     0
  9
$VISRETAIN
 70
     1
  9
$PLINEGEN
 70
     0
  9
$PSLTSCALE
 70
     1
  9
$TREEDEPTH
 70
  3020
  9
$CMLSTYLE
  2
Standard
  9
$CMLJUST
 70
     0
  9
$CMLSCALE
 40
1.0
  9
$PROXYGRAPHICS
 70
     1
  9
$MEASUREMENT
 70
     0
  9
$CELWEIGHT
370
    -1
  9
$ENDCAPS
280
     0
  9
$JOINSTYLE
280
     0
  9
$LWDISPLAY
290
     0
  9
$INSUNITS
 70
     1
  9
$HYPERLINKBASE
  1

  9
$STYLESHEET
  1

  9
$XEDIT
290
     1
  9
$CEPSNTYPE
380
     0
  9
$PSTYLEMODE
290
     1
  9
$FINGERPRINTGUID
  2
{C9A5EE3B-4AA1-40E9-9E85-DEB556902599}
  9
$VERSIONGUID
  2
{FAEB1C32-E019-11D5-929B-00C0DF256EC4}
  9
$EXTNAMES
290
     1
  9
$PSVPSCALE
 40
0.0
  9
$OLESTARTUP
290
     0
  9
$SORTENTS
280
   127
  9
$INDEXCTL
280
     0
  9
$HIDETEXT
280
     1
  9
$XCLIPFRAME
290
     0
  9
$HALOGAP
280
     0
  9
$OBSCOLOR
 70
   257
  9
$OBSLTYPE
280
     0
  9
$INTERSECTIONDISPLAY
280
     0
  9
$INTERSECTIONCOLOR
 70
   257
  9
$DIMASSOC
280
     2
  9
$PROJECTNAME
  1

  0
ENDSEC
  0
SECTION
  2
CLASSES
  0
CLASS
  1
ACDBDICTIONARYWDFLT
  2
AcDbDictionaryWithDefault
  3
ObjectDBX Classes
 90
        0
 91
        4
280
     0
281
     0
  0
CLASS
  1
VISUALSTYLE
  2
AcDbVisualStyle
  3
ObjectDBX Classes
 90
     4095
 91
        4
280
     0
281
     0
  0
ENDSEC
  0
SECTION
  2
TABLES
  0
TABLE
  2
VPORT
  5
8
330
0
100
AcDbSymbolTable
 70
     1
  0
VPORT
  5
29
330
8
100
AcDbSymbolTableRecord
100
AcDbViewportTableRecord
  2
*Active
 70
     0
 10
0.0
 20
0.0
 11
1.0
 21
1.0
 12
17.33944108286742
 22
33.23743518059997
 13
0.0
 23
0.0
 14
0.5
 24
0.5
 15
0.5
 25
0.5
 16
0.0
 26
0.0
 36
1.0
 17
0.0
 27
0.0
 37
0.0
 40
67.8043581327824
 41
0.8251733272113475
 42
50.0
 43
0.0
 44
0.0
 50
0.0
 51
0.0
 71
     0
 72
   100
 73
     1
 74
     3
 75
     0
 76
     0
 77
     0
 78
     0
281
     0
 65
     1
110
0.0
120
0.0
130
0.0
111
1.0
121
0.0
131
0.0
112
0.0
122
1.0
132
0.0
 79
     0
146
0.0
  0
ENDTAB
  0
TABLE
  2
LTYPE
  5
5
330
0
100
AcDbSymbolTable
 70
     1
  0
LTYPE
  5
14
330
5
100
AcDbSymbolTableRecord
100
AcDbLinetypeTableRecord
  2
ByBlock
 70
     0
  3

 72
    65
 73
     0
 40
0.0
  0
LTYPE
  5
15
330
5
100
AcDbSymbolTableRecord
100
AcDbLinetypeTableRecord
  2
ByLayer
 70
     0
  3

 72
    65
 73
     0
 40
0.0
  0
LTYPE
  5
16
330
5
100
AcDbSymbolTableRecord
100
AcDbLinetypeTableRecord
  2
Continuous
 70
     0
  3
Solid line
 72
    65
 73
     0
 40
0.0
  0
ENDTAB
  0
TABLE
  2
LAYER
  5
2
330
0
100
AcDbSymbolTable
 70
     4
  0
LAYER
  5
10
330
2
100
AcDbSymbolTableRecord
100
AcDbLayerTableRecord
  2
0
 70
     0
 62
     7
  6
Continuous
370
    -3
390
F
  0
LAYER
  5
3B
330
2
100
AcDbSymbolTableRecord
100
AcDbLayerTableRecord
  2
DEFAULT
 70
     0
 62
     7
  6
Continuous
370
    -3
390
F
  0
LAYER
  5
3D
330
2
100
AcDbSymbolTableRecord
100
AcDbLayerTableRecord
  2
MAKE2D VISIBLE LINES
 70
     0
 62
     7
  6
Continuous
370
    -3
390
F
  0
LAYER
  5
4C
330
2
100
AcDbSymbolTableRecord
100
AcDbLayerTableRecord
  2
MAKE2D VISIBLE LINES - TANGENT
 70
     0
 62
     7
  6
Continuous
370
    -3
390
F
  0
ENDTAB
  0
TABLE
  2
STYLE
  5
3
330
0
100
AcDbSymbolTable
 70
     1
  0
STYLE
  5
11
330
3
100
AcDbSymbolTableRecord
100
AcDbTextStyleTableRecord
  2
Standard
 70
     0
 40
0.0
 41
1.0
 50
0.0
 71
     0
 42
0.2
  3
txt
  4

  0
ENDTAB
  0
TABLE
  2
VIEW
  5
6
330
0
100
AcDbSymbolTable
 70
     0
  0
ENDTAB
  0
TABLE
  2
UCS
  5
7
330
0
100
AcDbSymbolTable
 70
     0
  0
ENDTAB
  0
TABLE
  2
APPID
  5
9
330
0
100
AcDbSymbolTable
 70
     1
  0
APPID
  5
12
330
9
100
AcDbSymbolTableRecord
100
AcDbRegAppTableRecord
  2
ACAD
 70
     0
  0
ENDTAB
  0
TABLE
  2
DIMSTYLE
  5
A
330
0
100
AcDbSymbolTable
 70
     1
100
AcDbDimStyleTable
  0
DIMSTYLE
105
27
330
A
100
AcDbSymbolTableRecord
100
AcDbDimStyleTableRecord
  2
Standard
 70
     0
340
11
  0
ENDTAB
  0
TABLE
  2
BLOCK_RECORD
  5
1
330
0
100
AcDbSymbolTable
 70
     1
  0
BLOCK_RECORD
  5
1F
330
1
100
AcDbSymbolTableRecord
100
AcDbBlockTableRecord
  2
*Model_Space
340
22
  0
BLOCK_RECORD
  5
1B
330
1
100
AcDbSymbolTableRecord
100
AcDbBlockTableRecord
  2
*Paper_Space
340
1E
  0
BLOCK_RECORD
  5
23
330
1
100
AcDbSymbolTableRecord
100
AcDbBlockTableRecord
  2
*Paper_Space0
340
26
  0
ENDTAB
  0
ENDSEC
  0
SECTION
  2
BLOCKS
  0
BLOCK
  5
20
330
1F
100
AcDbEntity
  8
0
100
AcDbBlockBegin
  2
*Model_Space
 70
     0
 10
0.0
 20
0.0
 30
0.0
  3
*Model_Space
  1

  0
ENDBLK
  5
21
330
1F
100
AcDbEntity
  8
0
100
AcDbBlockEnd
  0
BLOCK
  5
1C
330
1B
100
AcDbEntity
 67
     1
  8
0
100
AcDbBlockBegin
  2
*Paper_Space
 70
     0
 10
0.0
 20
0.0
 30
0.0
  3
*Paper_Space
  1

  0
ENDBLK
  5
1D
330
1B
100
AcDbEntity
 67
     1
  8
0
100
AcDbBlockEnd
  0
BLOCK
  5
24
330
23
100
AcDbEntity
  8
0
100
AcDbBlockBegin
  2
*Paper_Space0
 70
     0
 10
0.0
 20
0.0
 30
0.0
  3
*Paper_Space0
  1

  0
ENDBLK
  5
25
330
23
100
AcDbEntity
  8
0
100
AcDbBlockEnd
  0
ENDSEC
  0
SECTION
  2
ENTITIES
  0
SPLINE
  5
3C
330
1F
100
AcDbEntity
  8
DEFAULT
100
AcDbSpline
210
0.0
220
0.0
230
1.0
 70
    12
 71
     2
 72
     8
 73
     5
 74
     0
 42
0.0000000001
 43
0.0000000001
 40
0.0
 40
0.0
 40
0.0
 40
1.570796326794897
 40
1.570796326794897
 40
3.141592653589793
 40
3.141592653589793
 40
3.141592653589793
 10
-10.08007788435724
 20
65.84508627010612
 30
0.0
 41
1.0
 10
-10.11708377637188
 20
66.43994101946241
 30
0.0
 41
0.7071067811865475
 10
-9.555684658986452
 20
66.47486563784624
 30
0.0
 41
1.0
 10
-8.994285541601029
 20
66.50979025623006
 30
0.0
 41
0.7071067811865475
 10
-8.957279649586397
 20
65.91493550687377
 30
0.0
 41
1.0
  0
SPLINE
  5
3E
330
1F
100
AcDbEntity
  8
MAKE2D VISIBLE LINES
100
AcDbSpline
210
0.0
220
0.0
230
1.0
 70
    12
 71
     2
 72
     6
 73
     3
 74
     0
 42
0.0000000001
 43
0.0000000001
 40
0.0
 40
0.0
 40
0.0
 40
0.3556817435085856
 40
0.3556817435085856
 40
0.3556817435085856
 10
8.941331023646182
 20
46.64089050790622
 30
0.0
 41
1.0
 10
9.051964064561803
 20
46.49339622260752
 30
0.0
 41
0.9476770481644298
 10
9.050806100141248
 20
46.30902460587539
 30
0.0
 41
1.0
  0
SPLINE
  5
3F
330
1F
100
AcDbEntity
  8
MAKE2D VISIBLE LINES
100
AcDbSpline
210
0.0
220
0.0
230
1.0
 70
    12
 71
     2
 72
     6
 73
     3
 74
     0
 42
0.0000000001
 43
0.0000000001
 40
0.0
 40
0.0
 40
0.0
 40
0.3986790467165864
 40
0.3986790467165864
 40
0.3986790467165864
 10
9.050806100141248
 20
46.30902460587539
 30
0.0
 41
1.0
 10
9.050705898804281
 20
46.10145912120941
 30
0.0
 41
0.9416003006521181
 10
8.919003857699543
 20
45.94102841082709
 30
0.0
 41
1.0
  0
SPLINE
  5
40
330
1F
100
AcDbEntity
  8
MAKE2D VISIBLE LINES
100
AcDbSpline
210
0.0
220
0.0
230
1.0
 70
    24
 71
     2
 72
     6
 73
     3
 74
     0
 42
0.0000000001
 43
0.0000000001
 40
0.0
 40
0.0
 40
0.0
 40
2.34975482514205
 40
2.34975482514205
 40
2.34975482514205
 10
8.811279904834919
 20
63.56972084445781
 30
0.0
 10
8.884279777210658
 20
64.74232817566579
 30
0.0
 10
8.957279649586397
 20
65.91493550687377
 30
0.0
  0
SPLINE
  5
41
330
1F
100
AcDbEntity
  8
MAKE2D VISIBLE LINES
100
AcDbSpline
210
0.0
220
0.0
230
1.0
 70
    12
 71
     2
 72
     8
 73
     5
 74
     0
 42
0.0000000001
 43
0.0000000001
 40
-3.141592653589793
 40
-3.141592653589793
 40
-3.141592653589793
 40
-1.570796326794897
 40
-1.570796326794897
 40
0.0
 40
0.0
 40
0.0
 10
8.957279649586397
 20
65.91493550687377
 30
0.0
 41
1.0
 10
8.99106639024708
 20
66.45765672688385
 30
0.0
 41
0.7071067811865475
 10
9.553639161221142
 20
66.42385621572359
 30
0.0
 41
1.0
 10
10.11494709068074
 20
66.38775710465293
 30
0.0
 41
0.7071067811865475
 10
10.08007788435724
 20
65.84508627010612
 30
0.0
 41
1.0
  0
SPLINE
  5
42
330
1F
100
AcDbEntity
  8
MAKE2D VISIBLE LINES
100
AcDbSpline
210
0.0
220
0.0
230
1.0
 70
    24
 71
     2
 72
     6
 73
     3
 74
     0
 42
0.0000000001
 43
0.0000000001
 40
0.0
 40
0.0
 40
0.0
 40
4.328712305731482
 40
4.328712305731482
 40
4.328712305731482
 10
10.08007788435724
 20
65.84508627010612
 30
0.0
 10
9.945612716624801
 20
63.68490204714418
 30
0.0
 10
9.811147548892357
 20
61.52471782418223
 30
0.0
  0
SPLINE
  5
43
330
1F
100
AcDbEntity
  8
MAKE2D VISIBLE LINES
100
AcDbSpline
210
0.0
220
0.0
230
1.0
 70
    24
 71
     2
 72
     6
 73
     3
 74
     0
 42
0.0000000001
 43
0.0000000001
 40
0.0
 40
0.0
 40
0.0
 40
0.4972622954824316
 40
0.4972622954824316
 40
0.4972622954824316
 10
9.016527089002825
 20
46.51025236941272
 30
0.0
 10
9.127703404322425
 20
46.28785670039302
 30
0.0
 10
9.238879719642023
 20
46.06546103137333
 30
0.0
  0
SPLINE
  5
44
330
1F
100
AcDbEntity
  8
MAKE2D VISIBLE LINES
100
AcDbSpline
210
0.0
220
0.0
230
1.0
 70
    12
 71
     2
 72
     6
 73
     3
 74
     0
 42
0.0000000001
 43
0.0000000001
 40
-0.2685382090885736
 40
-0.2685382090885736
 40
-0.2685382090885736
 40
0.0
 40
0.0
 40
0.0
 10
9.238879719642023
 20
46.06546103137333
 30
0.0
 41
0.8760746284291077
 10
9.298185974453176
 20
45.94681469736796
 30
0.0
 41
0.910982990284551
 10
9.29818597305514
 20
45.81416909525345
 30
0.0
 41
1.0
  0
SPLINE
  5
45
330
1F
100
AcDbEntity
  8
MAKE2D VISIBLE LINES
100
AcDbSpline
210
0.0
220
0.0
230
1.0
 70
    12
 71
     2
 72
     6
 73
     3
 74
     0
 42
0.0000000001
 43
0.0000000001
 40
-3.534291735288516
 40
-3.534291735288516
 40
-3.534291735288516
 40
-3.092505268377452
 40
-3.092505268377452
 40
-3.092505268377452
 10
9.29818597305514
 20
45.81416909525345
 30
0.0
 41
1.0
 10
9.29818597060041
 20
45.58126412772563
 30
0.0
 41
0.8535533905932737
 10
9.133449459779964
 20
45.41651172336203
 30
0.0
 41
0.8535533905932737
  0
SPLINE
  5
46
330
1F
100
AcDbEntity
  8
MAKE2D VISIBLE LINES
100
AcDbSpline
210
0.0
220
0.0
230
1.0
 70
    12
 71
     2
 72
     6
 73
     3
 74
     0
 42
0.0000000001
 43
0.0000000001
 40
-0.3196461709013371
 40
-0.3196461709013371
 40
-0.3196461709013371
 40
0.0
 40
0.0
 40
0.0
 10
9.133449459779964
 20
45.41651172336202
 30
0.0
 41
1.0
 10
9.017302439440813
 20
45.30035543707133
 30
0.0
 41
0.9599427368500695
 10
8.856907150645927
 20
45.26491867488168
 30
0.0
 41
1.0
  0
SPLINE
  5
47
330
1F
100
AcDbEntity
  8
MAKE2D VISIBLE LINES
100
AcDbSpline
210
0.0
220
0.0
230
1.0
 70
    12
 71
     2
 72
     6
 73
     3
 74
     0
 42
0.0000000001
 43
0.0000000001
 40
0.0
 40
0.0
 40
0.0
 40
0.0742368075508645
 40
0.0742368075508645
 40
0.0742368075508645
 10
9.335955625871321
 20
62.11656697078459
 30
0.0
 41
1.0
 10
9.346903559562929
 20
62.08109977472404
 30
0.0
 41
0.9999981765885326
 10
9.357715952740225
 20
62.04559102365766
 30
0.0
 41
1.0
  0
SPLINE
  5
48
330
1F
100
AcDbEntity
  8
MAKE2D VISIBLE LINES
100
AcDbSpline
210
0.0
220
0.0
230
1.0
 70
    12
 71
     2
 72
     8
 73
     5
 74
     0
 42
0.0000000001
 43
0.0000000001
 40
-3.0
 40
-3.0
 40
-3.0
 40
-2.0
 40
-1.0
 40
0.0
 40
0.0
 40
0.0
 10
9.808061667404179
 20
61.47615068487386
 30
0.0
 41
1.0
 10
9.805392058688057
 20
61.43608123939931
 30
0.0
 41
1.0
 10
9.800444412906478
 20
61.35591626016576
 30
0.0
 41
1.0
 10
9.78651454053432
 20
61.0680690609728
 30
0.0
 41
1.0
 10
9.783972834294474
 20
61.02799129905018
 30
0.0
 41
1.0
  0
SPLINE
  5
49
330
1F
100
AcDbEntity
  8
MAKE2D VISIBLE LINES
100
AcDbSpline
210
0.0
220
0.0
230
1.0
 70
     8
 71
     3
 72
    11
 73
     7
 74
     0
 42
0.0000000001
 43
0.0000000001
 40
0.0000000000000001
 40
0.0000000000000001
 40
0.0000000000000001
 40
0.0000000000000001
 40
0.3781335773925084
 40
0.5640830755754028
 40
0.63666157123833
 40
0.705388731348004
 40
0.705388731348004
 40
0.705388731348004
 40
0.705388731348004
 10
9.783972834294474
 20
61.02799129905018
 30
0.0
 10
9.776006659832628
 20
60.90238022782928
 30
0.0
 10
9.764112973279246
 20
60.71419733332774
 30
0.0
 10
9.746129529904515
 20
60.5034139113605
 30
0.0
 10
9.723210800532229
 20
60.39547834103625
 30
0.0
 10
9.68592717374109
 20
60.3609373272925
 30
0.0
 10
9.667730153039852
 20
60.34864705002573
 30
0.0
  0
ARC
  5
4A
330
1F
100
AcDbEntity
  8
MAKE2D VISIBLE LINES
100
AcDbCircle
 10
9.528788439215226
 20
60.55436456053054
 30
0.0
 40
0.2482428125219768
100
AcDbArc
 50
285.9438040692613
 51
304.0351122329449
  0
SPLINE
  5
4B
330
1F
100
AcDbEntity
  8
MAKE2D VISIBLE LINES
100
AcDbSpline
210
0.0
220
0.0
230
1.0
 70
     8
 71
     2
 72
    11
 73
     8
 74
     0
 42
0.0000000001
 43
0.0000000001
 40
0.0
 40
0.0
 40
0.0
 40
1.0
 40
2.0
 40
3.0
 40
4.0
 40
5.0
 40
6.0
 40
6.0
 40
6.0
 10
9.687953095134208
 20
60.6416039982254
 30
0.0
 10
9.687672850839316
 20
60.73744527607585
 30
0.0
 10
9.676163764993248
 20
60.92877742399269
 30
0.0
 10
9.660350413980714
 20
61.11977844938504
 30
0.0
 10
9.633003343408213
 20
61.30959612831992
 30
0.0
 10
9.583189056844478
 20
61.49495774354649
 30
0.0
 10
9.502300219732794
 20
61.66950774381552
 30
0.0
 10
9.444444315482212
 20
61.74613979210507
 30
0.0
  0
SPLINE
  5
4D
330
1F
100
AcDbEntity
  8
MAKE2D VISIBLE LINES - TANGENT
100
AcDbSpline
210
0.0
220
0.0
230
1.0
 70
    12
 71
     2
 72
     6
 73
     3
 74
     0
 42
0.0000000001
 43
0.0000000001
 40
-4.878290109995292
 40
-4.878290109995292
 40
-4.878290109995292
 40
0.0
 40
0.0
 40
0.0
 10
4.830211976756479
 20
61.4247092328999
 30
0.0
 41
1.0
 10
2.448250804729704
 20
61.99068630766807
 30
0.0
 41
0.9934760685754098
 10
0.0
 20
62.00239406379631
 30
0.0
 41
0.9999918043754388
  0
SPLINE
  5
4E
330
1F
100
AcDbEntity
  8
MAKE2D VISIBLE LINES - TANGENT
100
AcDbSpline
210
0.0
220
0.0
230
1.0
 70
    12
 71
     2
 72
     6
 73
     3
 74
     0
 42
0.0000000001
 43
0.0000000001
 40
0.0
 40
0.0
 40
0.0
 40
4.878290109995292
 40
4.878290109995292
 40
4.878290109995292
 10
0.0
 20
62.00239406379631
 30
0.0
 41
0.9999918043754388
 10
-2.448250804729704
 20
61.99068630766807
 30
0.0
 41
0.9934760685754098
 10
-4.830211976756479
 20
61.4247092328999
 30
0.0
 41
1.0
  0
SPLINE
  5
4F
330
1F
100
AcDbEntity
  8
MAKE2D VISIBLE LINES
100
AcDbSpline
210
0.0
220
0.0
230
1.0
 70
    12
 71
     2
 72
    10
 73
     7
 74
     0
 42
0.0000000001
 43
0.0000000001
 40
-0.7644817079169229
 40
-0.7644817079169229
 40
-0.7644817079169229
 40
-0.1060175460643373
 40
-0.1060175460643373
 40
0.0
 40
0.0
 40
0.1282201628013348
 40
0.1282201628013348
 40
0.1282201628013348
 10
9.575795352076865
 20
61.1849549007774
 30
0.0
 41
0.9999992040962243
 10
9.635907193177394
 20
60.86112252616997
 30
0.0
 41
0.9993961059510184
 10
9.722534167137058
 20
60.49140701255917
 30
0.0
 41
0.9999992032399301
 10
9.736218074693424
 20
60.43669622710222
 30
0.0
 41
0.912286974915978
 10
9.704428521016187
 20
60.39011357316044
 30
0.0
 41
1.0
 10
9.659749710334621
 20
60.33757454717219
 30
0.0
 41
0.9473303484341768
 10
9.596979353144686
 20
60.31567125684088
 30
0.0
 41
1.0
  0
SPLINE
  5
50
330
1F
100
AcDbEntity
  8
MAKE2D VISIBLE LINES
100
AcDbSpline
210
0.0
220
0.0
230
1.0
 70
     8
 71
     3
 72
    14
 73
    10
 74
     0
 42
0.0000000001
 43
0.0000000001
 40
0.0
 40
0.0
 40
0.0
 40
0.0
 40
0.4769411130260029
 40
1.094312261690871
 40
2.259118278458852
 40
3.620449295513177
 40
6.166555932487759
 40
7.352656220994111
 40
10.1118640375627
 40
10.1118640375627
 40
10.1118640375627
 40
10.1118640375627
 10
9.596979353144686
 20
60.31567125684088
 30
0.0
 10
9.445378135990651
 20
60.26277104051972
 30
0.0
 10
9.087548482867035
 20
60.20223571586292
 30
0.0
 10
8.330944694905426
 20
60.15254815726722
 30
0.0
 10
7.293753513649545
 20
60.33475560613686
 30
0.0
 10
5.700003680299151
 20
60.91551477192756
 30
0.0
 10
4.233223712573581
 20
61.78197268924964
 30
0.0
 10
2.231367797824285
 20
62.60955688287368
 30
0.0
 10
0.9201669441223597
 20
62.84289420981223
 30
0.0
 10
0.0
 20
62.84081665923863
 30
0.0
  0
SPLINE
  5
51
330
1F
100
AcDbEntity
  8
MAKE2D VISIBLE LINES
100
AcDbSpline
210
0.0
220
0.0
230
1.0
 70
     8
 71
     3
 72
    14
 73
    10
 74
     0
 42
0.0000000001
 43
0.0000000001
 40
-10.1118640375627
 40
-10.1118640375627
 40
-10.1118640375627
 40
-10.1118640375627
 40
-7.352656220994111
 40
-6.166555932487759
 40
-3.620449295513177
 40
-2.259118278458852
 40
-1.094312261690871
 40
-0.4769411130260029
 40
0.0
 40
0.0
 40
0.0
 40
0.0
 10
0.0
 20
62.84081665923863
 30
0.0
 10
-0.9201669441223597
 20
62.84289420981223
 30
0.0
 10
-2.231367797824285
 20
62.60955688287368
 30
0.0
 10
-4.233223712573581
 20
61.78197268924964
 30
0.0
 10
-5.700003680299151
 20
60.91551477192756
 30
0.0
 10
-7.293753513649545
 20
60.33475560613686
 30
0.0
 10
-8.330944694905426
 20
60.15254815726722
 30
0.0
 10
-9.087548482867035
 20
60.20223571586292
 30
0.0
 10
-9.445378135990651
 20
60.26277104051972
 30
0.0
 10
-9.596979353144686
 20
60.31567125684088
 30
0.0
  0
SPLINE
  5
52
330
1F
100
AcDbEntity
  8
MAKE2D VISIBLE LINES
100
AcDbSpline
210
0.0
220
0.0
230
1.0
 70
    12
 71
     2
 72
    10
 73
     7
 74
     0
 42
0.0000000001
 43
0.0000000001
 40
-0.1282201628013348
 40
-0.1282201628013348
 40
-0.1282201628013348
 40
0.0
 40
0.0
 40
0.1060175460643373
 40
0.1060175460643373
 40
0.7644817079169229
 40
0.7644817079169229
 40
0.7644817079169229
 10
-9.596979353144686
 20
60.31567125684088
 30
0.0
 41
1.0
 10
-9.659749710334621
 20
60.33757454717219
 30
0.0
 41
0.9473303484341768
 10
-9.704428521016187
 20
60.39011357316044
 30
0.0
 41
1.0
 10
-9.736218074693424
 20
60.43669622710222
 30
0.0
 41
0.912286974915978
 10
-9.722534167137058
 20
60.49140701255917
 30
0.0
 41
0.9999992032399301
 10
-9.635907193177394
 20
60.86112252616997
 30
0.0
 41
0.9993961059510184
 10
-9.575795352076865
 20
61.1849549007774
 30
0.0
 41
0.9999992040962243
  0
SPLINE
  5
53
330
1F
100
AcDbEntity
  8
MAKE2D VISIBLE LINES
100
AcDbSpline
210
0.0
220
0.0
230
1.0
 70
     8
 71
     3
 72
    19
 73
    15
 74
     0
 42
0.0000000001
 43
0.0000000001
 40
-11.51386883183247
 40
-11.51386883183247
 40
-11.51386883183247
 40
-11.51386883183247
 40
-10.86335533494464
 40
-9.710123961932329
 40
-9.470060216773138
 40
-9.238659435547545
 40
-9.218595657282524
 40
-9.090866166954358
 40
-9.019515739888016
 40
-8.91937015223986
 40
-6.899475607671127
 40
-4.462819732511551
 40
-2.232247940101095
 40
0.0
 40
0.0
 40
0.0
 40
0.0
 10
-9.575795352076867
 20
61.1849549007774
 30
0.0
 10
-9.53623790132954
 20
61.39805739397005
 30
0.0
 10
-9.374104256080454
 20
62.03008686609212
 30
0.0
 10
-9.15371112416673
 20
62.67440970557656
 30
0.0
 10
-8.999653704232013
 20
63.19394001035906
 30
0.0
 10
-8.958241891219327
 20
63.3515857565977
 30
0.0
 10
-8.924905977011832
 20
63.47513272276396
 30
0.0
 10
-8.870270733235689
 20
63.52697591417011
 30
0.0
 10
-8.790985997864453
 20
63.58823356597388
 30
0.0
 10
-8.112337509100534
 20
63.85907661894821
 30
0.0
 10
-6.675243884416862
 20
64.35233226150076
 30
0.0
 10
-4.509994723262233
 20
64.89156312196508
 30
0.0
 10
-2.23105346267073
 20
65.21703928355045
 30
0.0
 10
-0.7439226005075675
 20
65.28655119892935
 30
0.0
 10
0.0
 20
65.28664619258011
 30
0.0
  0
SPLINE
  5
54
330
1F
100
AcDbEntity
  8
MAKE2D VISIBLE LINES
100
AcDbSpline
210
0.0
220
0.0
230
1.0
 70
     8
 71
     3
 72
    19
 73
    15
 74
     0
 42
0.0000000001
 43
0.0000000001
 40
0.0
 40
0.0
 40
0.0
 40
0.0
 40
2.232247940101095
 40
4.462819732511551
 40
6.899475607671127
 40
8.91937015223986
 40
9.019515739888016
 40
9.090866166954358
 40
9.218595657282524
 40
9.238659435547545
 40
9.470060216773138
 40
9.710123961932329
 40
10.86335533494464
 40
11.51386883183247
 40
11.51386883183247
 40
11.51386883183247
 40
11.51386883183247
 10
0.0
 20
65.28664619258011
 30
0.0
 10
0.7439226005075675
 20
65.28655119892935
 30
0.0
 10
2.23105346267073
 20
65.21703928355045
 30
0.0
 10
4.509994723262233
 20
64.89156312196508
 30
0.0
 10
6.675243884416862
 20
64.35233226150076
 30
0.0
 10
8.112337509100534
 20
63.85907661894821
 30
0.0
 10
8.790985997864453
 20
63.58823356597388
 30
0.0
 10
8.870270733235689
 20
63.52697591417011
 30
0.0
 10
8.924905977011832
 20
63.47513272276396
 30
0.0
 10
8.958241891219327
 20
63.3515857565977
 30
0.0
 10
8.999653704232013
 20
63.19394001035906
 30
0.0
 10
9.15371112416673
 20
62.67440970557656
 30
0.0
 10
9.374104256080454
 20
62.03008686609212
 30
0.0
 10
9.53623790132954
 20
61.39805739397005
 30
0.0
 10
9.575795352076867
 20
61.1849549007774
 30
0.0
  0
SPLINE
  5
55
330
1F
100
AcDbEntity
  8
MAKE2D VISIBLE LINES
100
AcDbSpline
210
0.0
220
0.0
230
1.0
 70
     8
 71
     2
 72
    13
 73
    10
 74
     0
 42
0.0000000001
 43
0.0000000001
 40
0.0
 40
0.0
 40
0.0
 40
1.0
 40
2.0
 40
3.0
 40
4.0
 40
5.0
 40
6.0
 40
7.0
 40
8.0
 40
8.0
 40
8.0
 10
-7.43217764465102
 20
60.33606488373158
 30
0.0
 10
-7.635158840831446
 20
59.37706838872214
 30
0.0
 10
-7.985301972178683
 20
57.44807150949963
 30
0.0
 10
-8.274599640488645
 20
55.50902178145289
 30
0.0
 10
-8.503242756070078
 20
53.56190822836471
 30
0.0
 10
-8.685430107063237
 20
51.60997637996236
 30
0.0
 10
-8.831629822223517
 20
49.65496653651799
 30
0.0
 10
-8.938358194108318
 20
47.69772254893506
 30
0.0
 10
-8.949221069858229
 20
45.73427938338844
 30
0.0
 10
-8.77855073793356
 20
44.76620406729831
 30
0.0
  0
SPLINE
  5
56
330
1F
100
AcDbEntity
  8
MAKE2D VISIBLE LINES
100
AcDbSpline
210
0.0
220
0.0
230
1.0
 70
    12
 71
     3
 72
    11
 73
     7
 74
     0
 42
0.0000000001
 43
0.0000000001
 40
0.0285067606237307
 40
0.0285067606237307
 40
0.0285067606237307
 40
0.0285067606237307
 40
0.2036422705824251
 40
0.3529649579604772
 40
0.5498106380855059
 40
0.8536425016506567
 40
0.8536425016506567
 40
0.8536425016506567
 40
0.8536425016506567
 10
-8.77855073793356
 20
44.76620406729831
 30
0.0
 41
1.0
 10
-8.769860238955985
 20
44.71690986689556
 30
0.0
 41
1.0
 10
-8.729588937889474
 20
44.61019442651425
 30
0.0
 41
1.0
 10
-8.636625616563542
 20
44.48914325164289
 30
0.0
 41
1.0
 10
-8.477211326936459
 20
44.37251055549218
 30
0.0
 41
1.0
 10
-8.320805969638428
 20
44.32568907345325
 30
0.0
 41
1.0
 10
-8.221690428988202
 20
44.31215371992135
 30
0.0
 41
1.0
  0
SPLINE
  5
57
330
1F
100
AcDbEntity
  8
MAKE2D VISIBLE LINES
100
AcDbSpline
210
0.0
220
0.0
230
1.0
 70
    12
 71
     2
 72
     6
 73
     3
 74
     0
 42
0.0000000001
 43
0.0000000001
 40
0.0
 40
0.0
 40
0.0
 40
8.250474918043878
 40
8.250474918043878
 40
8.250474918043878
 10
-8.221690428988202
 20
44.31215371992135
 30
0.0
 41
1.0
 10
-4.130406130279521
 20
43.74447538522553
 30
0.0
 41
0.9976037974956197
 10
0.0
 20
43.74689456168725
 30
0.0
 41
0.9999983358919136
  0
SPLINE
  5
58
330
1F
100
AcDbEntity
  8
MAKE2D VISIBLE LINES
100
AcDbSpline
210
0.0
220
0.0
230
1.0
 70
    12
 71
     2
 72
     6
 73
     3
 74
     0
 42
0.0000000001
 43
0.0000000001
 40
-8.250474918043878
 40
-8.250474918043878
 40
-8.250474918043878
 40
0.0
 40
0.0
 40
0.0
 10
0.0
 20
43.74689456168725
 30
0.0
 41
0.9999983358919136
 10
4.130406130279521
 20
43.74447538522553
 30
0.0
 41
0.9976037974956197
 10
8.221690428988202
 20
44.31215371992135
 30
0.0
 41
1.0
  0
SPLINE
  5
59
330
1F
100
AcDbEntity
  8
MAKE2D VISIBLE LINES
100
AcDbSpline
210
0.0
220
0.0
230
1.0
 70
    12
 71
     3
 72
    11
 73
     7
 74
     0
 42
0.0000000001
 43
0.0000000001
 40
-0.8536425016506567
 40
-0.8536425016506567
 40
-0.8536425016506567
 40
-0.8536425016506567
 40
-0.5498106380855059
 40
-0.3529649579604772
 40
-0.2036422705824251
 40
-0.0285067606237307
 40
-0.0285067606237307
 40
-0.0285067606237307
 40
-0.0285067606237307
 10
8.221690428988202
 20
44.31215371992135
 30
0.0
 41
1.0
 10
8.320805969638428
 20
44.32568907345325
 30
0.0
 41
1.0
 10
8.477211326936459
 20
44.37251055549218
 30
0.0
 41
1.0
 10
8.636625616563542
 20
44.48914325164289
 30
0.0
 41
1.0
 10
8.729588937889474
 20
44.61019442651425
 30
0.0
 41
1.0
 10
8.769860238955985
 20
44.71690986689556
 30
0.0
 41
1.0
 10
8.77855073793356
 20
44.76620406729831
 30
0.0
 41
1.0
  0
SPLINE
  5
5A
330
1F
100
AcDbEntity
  8
MAKE2D VISIBLE LINES
100
AcDbSpline
210
0.0
220
0.0
230
1.0
 70
     8
 71
     2
 72
    13
 73
    10
 74
     0
 42
0.0000000001
 43
0.0000000001
 40
-8.0
 40
-8.0
 40
-8.0
 40
-7.0
 40
-6.0
 40
-5.0
 40
-4.0
 40
-3.0
 40
-2.0
 40
-1.0
 40
0.0
 40
0.0
 40
0.0
 10
8.77855073793356
 20
44.76620406729831
 30
0.0
 10
8.949221069858229
 20
45.73427938338844
 30
0.0
 10
8.938358194108318
 20
47.69772254893506
 30
0.0
 10
8.831629822223517
 20
49.65496653651799
 30
0.0
 10
8.685430107063237
 20
51.60997637996236
 30
0.0
 10
8.503242756070078
 20
53.56190822836471
 30
0.0
 10
8.274599640488645
 20
55.50902178145289
 30
0.0
 10
7.985301972178683
 20
57.44807150949963
 30
0.0
 10
7.635158840831446
 20
59.37706838872214
 30
0.0
 10
7.43217764465102
 20
60.33606488373158
 30
0.0
  0
SPLINE
  5
5B
330
1F
100
AcDbEntity
  8
MAKE2D VISIBLE LINES
100
AcDbSpline
210
0.0
220
0.0
230
1.0
 70
     8
 71
     2
 72
    11
 73
     8
 74
     0
 42
0.0000000001
 43
0.0000000001
 40
0.0
 40
0.0
 40
0.0
 40
1.0
 40
2.0
 40
3.0
 40
4.0
 40
5.0
 40
6.0
 40
6.0
 40
6.0
 10
-9.356630980129527
 20
62.04605054382793
 30
0.0
 10
-9.421919879349215
 20
62.03360923254479
 30
0.0
 10
-9.543078044368498
 20
61.97892810859325
 30
0.0
 10
-9.648088631134078
 20
61.89742554496718
 30
0.0
 10
-9.73114170892758
 20
61.7936426389284
 30
0.0
 10
-9.787576848395611
 20
61.67324875943548
 30
0.0
 10
-9.812162408258384
 20
61.5425209613641
 30
0.0
 10
-9.808078907190648
 20
61.47615743314853
 30
0.0
  0
SPLINE
  5
5C
330
1F
100
AcDbEntity
  8
MAKE2D VISIBLE LINES
100
AcDbSpline
210
0.0
220
0.0
230
1.0
 70
     8
 71
     2
 72
    11
 73
     8
 74
     0
 42
0.0000000001
 43
0.0000000001
 40
0.0
 40
0.0
 40
0.0
 40
1.0
 40
2.0
 40
3.0
 40
4.0
 40
5.0
 40
6.0
 40
6.0
 40
6.0
 10
-9.687953095134208
 20
60.6416039982254
 30
0.0
 10
-9.687672850839316
 20
60.73744527607585
 30
0.0
 10
-9.676163764993248
 20
60.92877742399269
 30
0.0
 10
-9.660350413980714
 20
61.11977844938504
 30
0.0
 10
-9.633003343408213
 20
61.30959612831992
 30
0.0
 10
-9.583189056844478
 20
61.49495774354649
 30
0.0
 10
-9.502300219732794
 20
61.66950774381552
 30
0.0
 10
-9.444444315482212
 20
61.74613979210507
 30
0.0
  0
SPLINE
  5
5D
330
1F
100
AcDbEntity
  8
MAKE2D VISIBLE LINES
100
AcDbSpline
210
0.0
220
0.0
230
1.0
 70
    12
 71
     2
 72
     8
 73
     5
 74
     0
 42
0.0000000001
 43
0.0000000001
 40
-3.0
 40
-3.0
 40
-3.0
 40
-2.0
 40
-1.0
 40
0.0
 40
0.0
 40
0.0
 10
-9.808061667404179
 20
61.47615068487386
 30
0.0
 41
1.0
 10
-9.805392058688057
 20
61.43608123939931
 30
0.0
 41
1.0
 10
-9.800444412906478
 20
61.35591626016576
 30
0.0
 41
1.0
 10
-9.78651454053432
 20
61.0680690609728
 30
0.0
 41
1.0
 10
-9.783972834294474
 20
61.02799129905018
 30
0.0
 41
1.0
  0
SPLINE
  5
5E
330
1F
100
AcDbEntity
  8
MAKE2D VISIBLE LINES
100
AcDbSpline
210
0.0
220
0.0
230
1.0
 70
     8
 71
     3
 72
    11
 73
     7
 74
     0
 42
0.0000000001
 43
0.0000000001
 40
0.0000000000000001
 40
0.0000000000000001
 40
0.0000000000000001
 40
0.0000000000000001
 40
0.3781335773925084
 40
0.5640830755754028
 40
0.63666157123833
 40
0.705388731348004
 40
0.705388731348004
 40
0.705388731348004
 40
0.705388731348004
 10
-9.783972834294474
 20
61.02799129905018
 30
0.0
 10
-9.776006659832628
 20
60.90238022782928
 30
0.0
 10
-9.764112973279246
 20
60.71419733332774
 30
0.0
 10
-9.746129529904515
 20
60.5034139113605
 30
0.0
 10
-9.723210800532229
 20
60.39547834103625
 30
0.0
 10
-9.68592717374109
 20
60.3609373272925
 30
0.0
 10
-9.667730153039852
 20
60.34864705002573
 30
0.0
  0
ARC
  5
5F
330
1F
100
AcDbEntity
  8
MAKE2D VISIBLE LINES
100
AcDbCircle
 10
-9.528788439215226
 20
60.55436456053054
 30
0.0
 40
0.2482428125219768
100
AcDbArc
 50
235.9648877670555
 51
254.0561959307387
  0
SPLINE
  5
60
330
1F
100
AcDbEntity
  8
MAKE2D VISIBLE LINES
100
AcDbSpline
210
0.0
220
0.0
230
1.0
 70
    12
 71
     2
 72
     6
 73
     3
 74
     0
 42
0.0000000001
 43
0.0000000001
 40
0.0
 40
0.0
 40
0.0
 40
0.0742368075508645
 40
0.0742368075508645
 40
0.0742368075508645
 10
-9.335955625871321
 20
62.11656697078459
 30
0.0
 41
1.0
 10
-9.346903559562929
 20
62.08109977472404
 30
0.0
 41
0.9999981765885326
 10
-9.357715952740225
 20
62.04559102365766
 30
0.0
 41
1.0
  0
SPLINE
  5
61
330
1F
100
AcDbEntity
  8
MAKE2D VISIBLE LINES
100
AcDbSpline
210
0.0
220
0.0
230
1.0
 70
    24
 71
     2
 72
     6
 73
     3
 74
     0
 42
0.0000000001
 43
0.0000000001
 40
0.0
 40
0.0
 40
0.0
 40
0.4972622954824316
 40
0.4972622954824316
 40
0.4972622954824316
 10
-9.016527089002825
 20
46.51025236941272
 30
0.0
 10
-9.127703404322425
 20
46.28785670039302
 30
0.0
 10
-9.238879719642023
 20
46.06546103137333
 30
0.0
  0
SPLINE
  5
62
330
1F
100
AcDbEntity
  8
MAKE2D VISIBLE LINES
100
AcDbSpline
210
0.0
220
0.0
230
1.0
 70
    12
 71
     2
 72
     6
 73
     3
 74
     0
 42
0.0000000001
 43
0.0000000001
 40
-0.2685382090885736
 40
-0.2685382090885736
 40
-0.2685382090885736
 40
0.0
 40
0.0
 40
0.0
 10
-9.238879719642023
 20
46.06546103137333
 30
0.0
 41
0.8760746284291077
 10
-9.298185974453176
 20
45.94681469736796
 30
0.0
 41
0.910982990284551
 10
-9.29818597305514
 20
45.81416909525345
 30
0.0
 41
1.0
  0
SPLINE
  5
63
330
1F
100
AcDbEntity
  8
MAKE2D VISIBLE LINES
100
AcDbSpline
210
0.0
220
0.0
230
1.0
 70
    12
 71
     2
 72
     6
 73
     3
 74
     0
 42
0.0000000001
 43
0.0000000001
 40
-3.534291735288516
 40
-3.534291735288516
 40
-3.534291735288516
 40
-3.092505268377452
 40
-3.092505268377452
 40
-3.092505268377452
 10
-9.29818597305514
 20
45.81416909525345
 30
0.0
 41
1.0
 10
-9.29818597060041
 20
45.58126412772563
 30
0.0
 41
0.8535533905932737
 10
-9.133449459779964
 20
45.41651172336203
 30
0.0
 41
0.8535533905932737
  0
SPLINE
  5
64
330
1F
100
AcDbEntity
  8
MAKE2D VISIBLE LINES
100
AcDbSpline
210
0.0
220
0.0
230
1.0
 70
    12
 71
     2
 72
     6
 73
     3
 74
     0
 42
0.0000000001
 43
0.0000000001
 40
-0.3196461709013371
 40
-0.3196461709013371
 40
-0.3196461709013371
 40
0.0
 40
0.0
 40
0.0
 10
-9.133449459779964
 20
45.41651172336202
 30
0.0
 41
1.0
 10
-9.017302439440813
 20
45.30035543707133
 30
0.0
 41
0.9599427368500695
 10
-8.856907150645927
 20
45.26491867488168
 30
0.0
 41
1.0
  0
SPLINE
  5
65
330
1F
100
AcDbEntity
  8
MAKE2D VISIBLE LINES
100
AcDbSpline
210
0.0
220
0.0
230
1.0
 70
    24
 71
     2
 72
     6
 73
     3
 74
     0
 42
0.0000000001
 43
0.0000000001
 40
0.0
 40
0.0
 40
0.0
 40
2.34975482514205
 40
2.34975482514205
 40
2.34975482514205
 10
-8.811279904834919
 20
63.56972084445781
 30
0.0
 10
-8.884279777210658
 20
64.74232817566579
 30
0.0
 10
-8.957279649586397
 20
65.91493550687377
 30
0.0
  0
SPLINE
  5
66
330
1F
100
AcDbEntity
  8
MAKE2D VISIBLE LINES
100
AcDbSpline
210
0.0
220
0.0
230
1.0
 70
    12
 71
     2
 72
     8
 73
     5
 74
     0
 42
0.0000000001
 43
0.0000000001
 40
-3.141592653589793
 40
-3.141592653589793
 40
-3.141592653589793
 40
-1.570796326794897
 40
-1.570796326794897
 40
0.0
 40
0.0
 40
0.0
 10
-8.957279649586397
 20
65.91493550687377
 30
0.0
 41
1.0
 10
-8.99106639024708
 20
66.45765672688385
 30
0.0
 41
0.7071067811865475
 10
-9.553639161221142
 20
66.42385621572359
 30
0.0
 41
1.0
 10
-10.11494709068074
 20
66.38775710465293
 30
0.0
 41
0.7071067811865475
 10
-10.08007788435724
 20
65.84508627010612
 30
0.0
 41
1.0
  0
SPLINE
  5
67
330
1F
100
AcDbEntity
  8
MAKE2D VISIBLE LINES
100
AcDbSpline
210
0.0
220
0.0
230
1.0
 70
    24
 71
     2
 72
     6
 73
     3
 74
     0
 42
0.0000000001
 43
0.0000000001
 40
0.0
 40
0.0
 40
0.0
 40
4.328712305731482
 40
4.328712305731482
 40
4.328712305731482
 10
-10.08007788435724
 20
65.84508627010612
 30
0.0
 10
-9.945612716624801
 20
63.68490204714418
 30
0.0
 10
-9.811147548892357
 20
61.52471782418223
 30
0.0
  0
SPLINE
  5
68
330
1F
100
AcDbEntity
  8
MAKE2D VISIBLE LINES
100
AcDbSpline
210
0.0
220
0.0
230
1.0
 70
    12
 71
     2
 72
     6
 73
     3
 74
     0
 42
0.0000000001
 43
0.0000000001
 40
0.0
 40
0.0
 40
0.0
 40
0.3556817435085856
 40
0.3556817435085856
 40
0.3556817435085856
 10
-8.941331023646182
 20
46.64089050790622
 30
0.0
 41
1.0
 10
-9.051964064561803
 20
46.49339622260752
 30
0.0
 41
0.9476770481644298
 10
-9.050806100141248
 20
46.30902460587539
 30
0.0
 41
1.0
  0
SPLINE
  5
69
330
1F
100
AcDbEntity
  8
MAKE2D VISIBLE LINES
100
AcDbSpline
210
0.0
220
0.0
230
1.0
 70
    12
 71
     2
 72
     6
 73
     3
 74
     0
 42
0.0000000001
 43
0.0000000001
 40
0.0
 40
0.0
 40
0.0
 40
0.3986790467165864
 40
0.3986790467165864
 40
0.3986790467165864
 10
-9.050806100141248
 20
46.30902460587539
 30
0.0
 41
1.0
 10
-9.050705898804281
 20
46.10145912120941
 30
0.0
 41
0.9416003006521181
 10
-8.919003857699543
 20
45.94102841082709
 30
0.0
 41
1.0
  0
LINE
  5
6A
330
1F
100
AcDbEntity
  8
MAKE2D VISIBLE LINES
100
AcDbLine
 10
-7.924506129476445
 20
60.23509431705963
 30
0.0
 11
-7.508651261700488
 21
59.97016554798754
 31
0.0
  0
SPLINE
  5
6B
330
1F
100
AcDbEntity
  8
DEFAULT
100
AcDbSpline
210
0.0
220
0.0
230
1.0
 70
    12
 71
     2
 72
     8
 73
     5
 74
     0
 42
0.0000000001
 43
0.0000000001
 40
0.0
 40
0.0
 40
0.0
 40
1.570796326794897
 40
1.570796326794897
 40
3.141592653589793
 40
3.141592653589793
 40
3.141592653589793
 10
10.08007788435724
 20
65.84508627010612
 30
0.0
 41
1.0
 10
10.11708377637188
 20
66.43994101946241
 30
0.0
 41
0.7071067811865475
 10
9.555684658986452
 20
66.47486563784624
 30
0.0
 41
1.0
 10
8.994285541601029
 20
66.50979025623006
 30
0.0
 41
0.7071067811865475
 10
8.957279649586397
 20
65.91493550687377
 30
0.0
 41
1.0
  0
SPLINE
  5
6C
330
1F
100
AcDbEntity
  8
MAKE2D VISIBLE LINES
100
AcDbSpline
210
0.0
220
0.0
230
1.0
 70
     8
 71
     2
 72
    11
 73
     8
 74
     0
 42
0.0000000001
 43
0.0000000001
 40
0.0
 40
0.0
 40
0.0
 40
1.0
 40
2.0
 40
3.0
 40
4.0
 40
5.0
 40
6.0
 40
6.0
 40
6.0
 10
9.356630980129527
 20
62.04605054382793
 30
0.0
 10
9.421919879349215
 20
62.03360923254479
 30
0.0
 10
9.543078044368498
 20
61.97892810859325
 30
0.0
 10
9.648088631134078
 20
61.89742554496718
 30
0.0
 10
9.73114170892758
 20
61.7936426389284
 30
0.0
 10
9.787576848395611
 20
61.67324875943548
 30
0.0
 10
9.812162408258384
 20
61.5425209613641
 30
0.0
 10
9.808078907190648
 20
61.47615743314853
 30
0.0
  0
LINE
  5
6D
330
1F
100
AcDbEntity
  8
MAKE2D VISIBLE LINES
100
AcDbLine
 10
7.924506129476445
 20
60.23509431705963
 30
0.0
 11
7.508651261700488
 21
59.97016554798754
 31
0.0
  0
SPLINE
  5
6E
330
1F
100
AcDbEntity
  8
MAKE2D VISIBLE LINES
100
AcDbSpline
210
0.0
220
0.0
230
1.0
 70
    24
 71
     2
 72
     6
 73
     3
 74
     0
 42
0.0000000001
 43
0.0000000001
 40
0.0
 40
0.0
 40
0.0
 40
1.315706620815528
 40
1.315706620815528
 40
1.315706620815528
 10
27.25163601921702
 20
16.60953411884827
 30
0.0
 10
27.86442477898004
 20
16.37023832634972
 30
0.0
 10
28.47721353874307
 20
16.13094253385117
 30
0.0
  0
SPLINE
  5
6F
330
1F
100
AcDbEntity
  8
MAKE2D VISIBLE LINES
100
AcDbSpline
210
0.0
220
0.0
230
1.0
 70
    12
 71
     2
 72
     6
 73
     3
 74
     0
 42
0.0000000001
 43
0.0000000001
 40
0.0
 40
0.0
 40
0.0
 40
4.099774915109466
 40
4.099774915109466
 40
4.099774915109466
 10
28.47721353874307
 20
16.13094253385117
 30
0.0
 41
1.0
 10
30.42254083073786
 20
15.37264010391407
 30
0.0
 41
0.9729153703086446
 10
32.50057417415325
 20
15.57536615255055
 30
0.0
 41
1.0
  0
SPLINE
  5
70
330
1F
100
AcDbEntity
  8
MAKE2D VISIBLE LINES
100
AcDbSpline
210
0.0
220
0.0
230
1.0
 70
    24
 71
     2
 72
     6
 73
     3
 74
     0
 42
0.0000000001
 43
0.0000000001
 40
0.0
 40
0.0
 40
0.0
 40
0.2016285515089675
 40
0.2016285515089675
 40
0.2016285515089675
 10
32.50057417415325
 20
15.57536615255055
 30
0.0
 10
32.60080451379022
 20
15.58627301792303
 30
0.0
 10
32.70103485342719
 20
15.59717988329552
 30
0.0
  0
SPLINE
  5
71
330
1F
100
AcDbEntity
  8
MAKE2D VISIBLE LINES
100
AcDbSpline
210
0.0
220
0.0
230
1.0
 70
    24
 71
     2
 72
     6
 73
     3
 74
     0
 42
0.0000000001
 43
0.0000000001
 40
0.0
 40
0.0
 40
0.0
 40
0.1356043790062872
 40
0.1356043790062872
 40
0.1356043790062872
 10
32.54042734812266
 20
16.57629398318099
 30
0.0
 10
32.47281695553211
 20
16.57103962395857
 30
0.0
 10
32.40520656294155
 20
16.56578526473615
 30
0.0
  0
SPLINE
  5
72
330
1F
100
AcDbEntity
  8
MAKE2D VISIBLE LINES
100
AcDbSpline
210
0.0
220
0.0
230
1.0
 70
    12
 71
     2
 72
     6
 73
     3
 74
     0
 42
0.0000000001
 43
0.0000000001
 40
0.0
 40
0.0
 40
0.0
 40
3.577868569146716
 40
3.577868569146716
 40
3.577868569146716
 10
32.40520656294155
 20
16.56578526473615
 30
0.0
 41
1.0
 10
30.59228121359508
 20
16.39349368637177
 30
0.0
 41
0.9737220710303375
 10
28.89011084498009
 20
17.04078782602451
 30
0.0
 41
1.0
  0
SPLINE
  5
73
330
1F
100
AcDbEntity
  8
MAKE2D VISIBLE LINES
100
AcDbSpline
210
0.0
220
0.0
230
1.0
 70
     8
 71
     3
 72
     8
 73
     4
 74
     0
 42
0.0000000001
 43
0.0000000001
 40
0.0
 40
0.0
 40
0.0
 40
0.0
 40
1.443706964781046
 40
1.443706964781046
 40
1.443706964781046
 40
1.443706964781046
 10
28.89011084498009
 20
17.04078782602451
 30
0.0
 10
28.44030085777989
 20
17.21183966316163
 30
0.0
 10
27.93960849824064
 20
17.40440481547893
 30
0.0
 10
27.49100766984512
 20
17.57860312871959
 30
0.0
  0
SPLINE
  5
74
330
1F
100
AcDbEntity
  8
MAKE2D VISIBLE LINES - TANGENT
100
AcDbSpline
210
0.0
220
0.0
230
1.0
 70
    24
 71
     2
 72
     6
 73
     3
 74
     0
 42
0.0000000001
 43
0.0000000001
 40
-0.3592519704053348
 40
-0.3592519704053348
 40
-0.3592519704053348
 40
0.0
 40
0.0
 40
0.0
 10
27.65700802677364
 20
16.86501441753719
 30
0.0
 10
27.705919157579
 20
17.03785305859691
 30
0.0
 10
27.75483028838437
 20
17.21069169965662
 30
0.0
  0
SPLINE
  5
75
330
1F
100
AcDbEntity
  8
MAKE2D VISIBLE LINES - TANGENT
100
AcDbSpline
210
0.0
220
0.0
230
1.0
 70
    12
 71
     2
 72
     8
 73
     5
 74
     0
 42
0.0000000001
 43
0.0000000001
 40
-0.0851434026212989
 40
-0.0851434026212989
 40
-0.0851434026212989
 40
-0.0349273505781476
 40
-0.0349273505781476
 40
0.0
 40
0.0
 40
0.0
 10
27.75483028838437
 20
17.21069169965662
 30
0.0
 41
1.0
 10
27.76120107450918
 20
17.23557491090508
 30
0.0
 41
0.9665972973670869
 10
27.77906394678782
 20
17.25403240022082
 30
0.0
 41
1.0
 10
27.79175337120549
 20
17.26909511267556
 30
0.0
 41
0.8383882943599786
 10
27.81066942414109
 20
17.26360970112464
 30
0.0
 41
1.0
  0
SPLINE
  5
76
330
1F
100
AcDbEntity
  8
MAKE2D VISIBLE LINES - TANGENT
100
AcDbSpline
210
0.0
220
0.0
230
1.0
 70
    24
 71
     2
 72
     6
 73
     3
 74
     0
 42
0.0000000001
 43
0.0000000001
 40
-0.2398007059438697
 40
-0.2398007059438697
 40
-0.2398007059438697
 40
0.0
 40
0.0
 40
0.0
 10
27.81066942414109
 20
17.26360970112464
 30
0.0
 10
27.92243877688425
 20
17.22020801417391
 30
0.0
 10
28.03420812962742
 20
17.17680632722319
 30
0.0
  0
SPLINE
  5
77
330
1F
100
AcDbEntity
  8
MAKE2D VISIBLE LINES - TANGENT
100
AcDbSpline
210
0.0
220
0.0
230
1.0
 70
    12
 71
     2
 72
     6
 73
     3
 74
     0
 42
0.0000000001
 43
0.0000000001
 40
0.0
 40
0.0
 40
0.0
 40
0.08967655564239
 40
0.08967655564239
 40
0.08967655564239
 10
28.03420812962742
 20
17.17680632722319
 30
0.0
 41
1.0
 10
28.07430228226213
 20
17.14286146750576
 30
0.0
 41
0.7940831638840014
 10
28.05180802355478
 20
17.09459724239993
 30
0.0
 41
1.0
  0
SPLINE
  5
78
330
1F
100
AcDbEntity
  8
MAKE2D VISIBLE LINES - TANGENT
100
AcDbSpline
210
0.0
220
0.0
230
1.0
 70
    24
 71
     2
 72
     6
 73
     3
 74
     0
 42
0.0000000001
 43
0.0000000001
 40
0.0
 40
0.0
 40
0.0
 40
0.3578031650550604
 40
0.3578031650550604
 40
0.3578031650550604
 10
28.05180802355478
 20
17.09459724239993
 30
0.0
 10
28.00299551810687
 20
16.92210711654477
 30
0.0
 10
27.95418301265897
 20
16.7496169906896
 30
0.0
  0
SPLINE
  5
79
330
1F
100
AcDbEntity
  8
MAKE2D VISIBLE LINES - TANGENT
100
AcDbSpline
210
0.0
220
0.0
230
1.0
 70
    12
 71
     2
 72
     6
 73
     3
 74
     0
 42
0.0000000001
 43
0.0000000001
 40
0.0
 40
0.0
 40
0.0
 40
0.0850192936796374
 40
0.0850192936796374
 40
0.0850192936796374
 10
27.95418301265897
 20
16.7496169906896
 30
0.0
 41
1.0
 10
27.95175252158793
 20
16.69626188691553
 30
0.0
 41
0.7201836708809143
 10
27.89834387690225
 20
16.69669898922158
 30
0.0
 41
1.0
  0
SPLINE
  5
7A
330
1F
100
AcDbEntity
  8
MAKE2D VISIBLE LINES - TANGENT
100
AcDbSpline
210
0.0
220
0.0
230
1.0
 70
    24
 71
     2
 72
     6
 73
     3
 74
     0
 42
0.0000000001
 43
0.0000000001
 40
0.0
 40
0.0
 40
0.0
 40
0.2398007059438631
 40
0.2398007059438631
 40
0.2398007059438631
 10
27.89834387690225
 20
16.69669898922158
 30
0.0
 10
27.78657452415909
 20
16.74010067617231
 30
0.0
 10
27.67480517141593
 20
16.78350236312304
 30
0.0
  0
SPLINE
  5
7B
330
1F
100
AcDbEntity
  8
MAKE2D VISIBLE LINES - TANGENT
100
AcDbSpline
210
0.0
220
0.0
230
1.0
 70
    12
 71
     2
 72
     8
 73
     5
 74
     0
 42
0.0000000001
 43
0.0000000001
 40
-0.0898917853188032
 40
-0.0898917853188032
 40
-0.0898917853188032
 40
-0.0522765087782868
 40
-0.0522765087782868
 40
0.0
 40
0.0
 40
0.0
 10
27.67480517141593
 20
16.78350236312304
 30
0.0
 41
1.0
 10
27.65668600288976
 20
16.79298360585488
 30
0.0
 41
0.8837810173697971
 10
27.65434193500433
 20
16.81329871298156
 30
0.0
 41
1.0
 10
27.64940192986791
 20
16.83947995889463
 30
0.0
 41
0.9718115344464822
 10
27.65700802677364
 20
16.86501441753719
 30
0.0
 41
1.0
  0
SPLINE
  5
7C
330
1F
100
AcDbEntity
  8
MAKE2D VISIBLE LINES
100
AcDbSpline
210
0.0
220
0.0
230
1.0
 70
    24
 71
     2
 72
     6
 73
     3
 74
     0
 42
0.0000000001
 43
0.0000000001
 40
-17.17255256346714
 40
-17.17255256346714
 40
-17.17255256346714
 40
0.0
 40
0.0
 40
0.0
 10
42.1370697036715
 20
0.1546850528959354
 30
0.0
 10
41.89822560309564
 20
8.737638733391178
 30
0.0
 10
41.65938150251979
 20
17.32059241388642
 30
0.0
  0
SPLINE
  5
7D
330
1F
100
AcDbEntity
  8
MAKE2D VISIBLE LINES
100
AcDbSpline
210
0.0
220
0.0
230
1.0
 70
    12
 71
     3
 72
    10
 73
     6
 74
     0
 42
0.0000000001
 43
0.0000000001
 40
-1.13253298991588
 40
-1.13253298991588
 40
-1.13253298991588
 40
-1.13253298991588
 40
-0.5570862629503451
 40
-0.5570862629503451
 40
0.0
 40
0.0
 40
0.0
 40
0.0
 10
41.65938150251979
 20
17.32059241388642
 30
0.0
 41
1.0
 10
41.65563251577506
 20
17.45531370292463
 30
0.0
 41
1.0
 10
41.69158120659753
 20
17.59949775945306
 30
0.0
 41
1.0
 10
41.86012360126957
 20
17.83995798135899
 30
0.0
 41
1.0
 10
42.00667278047911
 20
17.95547248640129
 30
0.0
 41
1.0
 10
42.20427896693592
 20
17.96097145985103
 30
0.0
 41
1.0
  0
SPLINE
  5
7E
330
1F
100
AcDbEntity
  8
MAKE2D VISIBLE LINES
100
AcDbSpline
210
0.0
220
0.0
230
1.0
 70
    12
 71
     3
 72
    10
 73
     6
 74
     0
 42
0.0000000001
 43
0.0000000001
 40
0.0
 40
0.0
 40
0.0
 40
0.0
 40
0.5574927714314596
 40
0.5574927714314596
 40
1.13250510453735
 40
1.13250510453735
 40
1.13250510453735
 40
1.13250510453735
 10
42.20427896693592
 20
17.96097145985103
 30
0.0
 41
1.0
 10
42.40204896998509
 20
17.96647348757736
 30
0.0
 41
1.0
 10
42.55488507709315
 20
17.85909951196185
 30
0.0
 41
1.0
 10
42.73635645934131
 20
17.62832555478597
 30
0.0
 41
1.0
 10
42.78020035402166
 20
17.48649365743945
 30
0.0
 41
1.0
 10
42.78394652624997
 20
17.3518735135982
 30
0.0
 41
1.0
  0
SPLINE
  5
7F
330
1F
100
AcDbEntity
  8
MAKE2D VISIBLE LINES
100
AcDbSpline
210
0.0
220
0.0
230
1.0
 70
    24
 71
     2
 72
     6
 73
     3
 74
     0
 42
0.0000000001
 43
0.0000000001
 40
-17.1725395786827
 40
-17.1725395786827
 40
-17.1725395786827
 40
0.0
 40
0.0
 40
0.0
 10
42.78394652624997
 20
17.3518735135982
 30
0.0
 10
43.02279044631046
 20
8.768926322964553
 30
0.0
 10
43.26163436637095
 20
0.1859791323309068
 30
0.0
  0
SPLINE
  5
80
330
1F
100
AcDbEntity
  8
MAKE2D VISIBLE LINES
100
AcDbSpline
210
0.0
220
0.0
230
1.0
 70
    12
 71
     2
 72
     6
 73
     3
 74
     0
 42
0.0000000001
 43
0.0000000001
 40
0.0
 40
0.0
 40
0.0
 40
0.8188583327906658
 40
0.8188583327906658
 40
0.8188583327906658
 10
27.19945239726182
 20
16.39827463708892
 30
0.0
 41
1.0
 10
27.60655185341401
 20
16.35464738486291
 30
0.0
 41
0.999995248373231
 10
28.01391255294123
 20
16.31353090620892
 30
0.0
 41
1.0
  0
SPLINE
  5
81
330
1F
100
AcDbEntity
  8
MAKE2D VISIBLE LINES
100
AcDbSpline
210
0.0
220
0.0
230
1.0
 70
    12
 71
     2
 72
     6
 73
     3
 74
     0
 42
0.0000000001
 43
0.0000000001
 40
0.0
 40
0.0
 40
0.0
 40
0.3221738804473611
 40
0.3221738804473611
 40
0.3221738804473611
 10
44.49662522341743
 20
17.08077577996983
 30
0.0
 41
1.0
 10
44.62719241594413
 20
16.98535407386692
 30
0.0
 41
0.9941460496295335
 10
44.73421233088306
 20
16.86411121194771
 30
0.0
 41
1.0
  0
SPLINE
  5
82
330
1F
100
AcDbEntity
  8
MAKE2D VISIBLE LINES
100
AcDbSpline
210
0.0
220
0.0
230
1.0
 70
    12
 71
     2
 72
     6
 73
     3
 74
     0
 42
0.0000000001
 43
0.0000000001
 40
-0.3996431962499557
 40
-0.3996431962499557
 40
-0.3996431962499557
 40
0.0
 40
0.0
 40
0.0
 10
27.70331235475205
 20
17.4961620905785
 30
0.0
 41
1.0
 10
27.86482722637337
 20
17.61408153753009
 30
0.0
 41
0.9988113668901045
 10
28.03705639350674
 20
17.71571403092057
 30
0.0
 41
1.0
  0
SPLINE
  5
83
330
1F
100
AcDbEntity
  8
MAKE2D VISIBLE LINES
100
AcDbSpline
210
0.0
220
0.0
230
1.0
 70
    12
 71
     2
 72
     6
 73
     3
 74
     0
 42
0.0000000001
 43
0.0000000001
 40
-0.1602767204255962
 40
-0.1602767204255962
 40
-0.1602767204255962
 40
0.0
 40
0.0
 40
0.0
 10
28.03705639350674
 20
17.71571403092057
 30
0.0
 41
1.0
 10
28.10963616162676
 20
17.75225388512835
 30
0.0
 41
0.9794459357424379
 10
28.19074771630321
 20
17.75714258473568
 30
0.0
 41
1.0
  0
SPLINE
  5
84
330
1F
100
AcDbEntity
  8
MAKE2D VISIBLE LINES
100
AcDbSpline
210
0.0
220
0.0
230
1.0
 70
     8
 71
     3
 72
    15
 73
    11
 74
     0
 42
0.0000000001
 43
0.0000000001
 40
-15.65359896050636
 40
-15.65359896050636
 40
-15.65359896050636
 40
-15.65359896050636
 40
-10.58742135048161
 40
-6.912338381831451
 40
-4.741124145587254
 40
-4.078959884244495
 40
-2.884298681508266
 40
-1.256080944522508
 40
-0.6345414576259943
 40
0.0
 40
0.0
 40
0.0
 40
0.0
 10
28.19074771630321
 20
17.75714258473568
 30
0.0
 10
29.87059292094875
 20
17.93166415627961
 30
0.0
 10
32.77731976760499
 20
18.14228056003545
 30
0.0
 10
36.41341664388598
 20
18.26861102372317
 30
0.0
 10
38.58092883605433
 20
18.33574584439306
 30
0.0
 10
39.92476907091868
 20
18.37791425591161
 30
0.0
 10
41.08147527006894
 20
18.39358720507044
 30
0.0
 10
42.24026237285682
 20
18.3710975854105
 30
0.0
 10
43.15865857790504
 20
18.05608477253789
 30
0.0
 10
43.50874967204353
 20
17.82157103728986
 30
0.0
 10
43.67785206251097
 20
17.69522618400423
 30
0.0
  0
SPLINE
  5
85
330
1F
100
AcDbEntity
  8
MAKE2D VISIBLE LINES
100
AcDbSpline
210
0.0
220
0.0
230
1.0
 70
    12
 71
     2
 72
     6
 73
     3
 74
     0
 42
0.0000000001
 43
0.0000000001
 40
-0.5311035778685866
 40
-0.5311035778685866
 40
-0.5311035778685866
 40
0.0
 40
0.0
 40
0.0
 10
43.67785206251097
 20
17.69522618400423
 30
0.0
 41
1.0
 10
43.89517471713465
 20
17.53991417523306
 30
0.0
 41
0.9912392283435499
 10
44.06424767408301
 20
17.33311646850026
 30
0.0
 41
1.0
  0
SPLINE
  5
86
330
1F
100
AcDbEntity
  8
MAKE2D VISIBLE LINES
100
AcDbSpline
210
0.0
220
0.0
230
1.0
 70
    12
 71
     2
 72
     6
 73
     3
 74
     0
 42
0.0000000001
 43
0.0000000001
 40
-0.6951027209318128
 40
-0.6951027209318128
 40
-0.6951027209318128
 40
0.0
 40
0.0
 40
0.0
 10
44.06424767408301
 20
17.33311646850026
 30
0.0
 41
1.0
 10
44.25836900574063
 20
17.04398334356225
 30
0.0
 41
0.9969743058485598
 10
44.4949700694508
 20
16.7884427552871
 30
0.0
 41
0.9999999969405681
  0
SPLINE
  5
87
330
1F
100
AcDbEntity
  8
MAKE2D VISIBLE LINES
100
AcDbSpline
210
0.0
220
0.0
230
1.0
 70
     8
 71
     2
 72
    11
 73
     8
 74
     0
 42
0.0000000001
 43
0.0000000001
 40
0.0
 40
0.0
 40
0.0
 40
1.0
 40
2.0
 40
3.0
 40
4.0
 40
5.0
 40
6.0
 40
6.0
 40
6.0
 10
44.49497006945079
 20
16.7884427552871
 30
0.0
 10
44.52089470305453
 20
16.7617933782896
 30
0.0
 10
44.57527775568449
 20
16.71258384671667
 30
0.0
 10
44.63850613747451
 20
16.66590249148475
 30
0.0
 10
44.71067949332729
 20
16.69462893701163
 30
0.0
 10
44.7648761823968
 20
16.74729002551288
 30
0.0
 10
44.7672881400614
 20
16.82513431779424
 30
0.0
 10
44.74235594876976
 20
16.85469663665091
 30
0.0
  0
SPLINE
  5
88
330
1F
100
AcDbEntity
  8
MAKE2D VISIBLE LINES
100
AcDbSpline
210
0.0
220
0.0
230
1.0
 70
    12
 71
     2
 72
     6
 73
     3
 74
     0
 42
0.0000000001
 43
0.0000000001
 40
0.0
 40
0.0
 40
0.0
 40
0.1536154254458133
 40
0.1536154254458133
 40
0.1536154254458133
 10
44.74235594876976
 20
16.85469663665091
 30
0.0
 41
1.0
 10
44.67136912938312
 20
16.88702047173661
 30
0.0
 41
0.9772332537707474
 10
44.61942155728429
 20
16.94669276982202
 30
0.0
 41
1.0
  0
SPLINE
  5
89
330
1F
100
AcDbEntity
  8
MAKE2D VISIBLE LINES
100
AcDbSpline
210
0.0
220
0.0
230
1.0
 70
     8
 71
     3
 72
    10
 73
     6
 74
     0
 42
0.0000000001
 43
0.0000000001
 40
0.0
 40
0.0
 40
0.0
 40
0.0
 40
0.1152498341348094
 40
0.2403205425210536
 40
0.6787755723814768
 40
0.6787755723814768
 40
0.6787755723814768
 40
0.6787755723814768
 10
44.61942155728429
 20
16.94669276982202
 30
0.0
 10
44.59137541883306
 20
16.97453854071522
 30
0.0
 10
44.53609403540806
 20
17.03260616000355
 30
0.0
 10
44.3919482640648
 20
17.20712623734091
 30
0.0
 10
44.28373072029389
 20
17.36086354681698
 30
0.0
 10
44.18932913604993
 20
17.48753617524844
 30
0.0
  0
SPLINE
  5
8A
330
1F
100
AcDbEntity
  8
MAKE2D VISIBLE LINES
100
AcDbSpline
210
0.0
220
0.0
230
1.0
 70
    12
 71
     2
 72
     6
 73
     3
 74
     0
 42
0.0000000001
 43
0.0000000001
 40
0.0
 40
0.0
 40
0.0
 40
0.5322559643862634
 40
0.5322559643862634
 40
0.5322559643862634
 10
44.18932913604993
 20
17.48753617524844
 30
0.0
 41
1.0
 10
44.00886337307657
 20
17.70058457023029
 30
0.0
 41
0.9929971765553433
 10
43.79241290876472
 20
17.85786422887413
 30
0.0
 41
1.0
  0
SPLINE
  5
8B
330
1F
100
AcDbEntity
  8
MAKE2D VISIBLE LINES
100
AcDbSpline
210
0.0
220
0.0
230
1.0
 70
     8
 71
     3
 72
    14
 73
    10
 74
     0
 42
0.0000000001
 43
0.0000000001
 40
0.0
 40
0.0
 40
0.0
 40
0.0
 40
0.652191737395391
 40
1.280718439150231
 40
1.951238196747561
 40
2.863422602058994
 40
4.698367840212491
 40
10.21696999528845
 40
15.7709804310952
 40
15.7709804310952
 40
15.7709804310952
 40
15.7709804310952
 10
43.79241290876472
 20
17.85786422887413
 30
0.0
 10
43.619455337589
 20
17.98979639729396
 30
0.0
 10
43.25723483725755
 20
18.21965793536656
 30
0.0
 10
42.64316480868114
 20
18.44572786115718
 30
0.0
 10
41.91225179041144
 20
18.55773159909647
 30
0.0
 10
40.77234096646362
 20
18.58532799600411
 30
0.0
 10
38.01882064508643
 20
18.49028406114235
 30
0.0
 10
33.71763496387841
 20
18.36439105974532
 30
0.0
 10
30.03495187718112
 20
18.10458404262015
 30
0.0
 10
28.19159119148962
 20
17.93289168105434
 30
0.0
  0
SPLINE
  5
8C
330
1F
100
AcDbEntity
  8
MAKE2D VISIBLE LINES
100
AcDbSpline
210
0.0
220
0.0
230
1.0
 70
    12
 71
     2
 72
     6
 73
     3
 74
     0
 42
0.0000000001
 43
0.0000000001
 40
0.0
 40
0.0
 40
0.0
 40
0.1700326451009857
 40
0.1700326451009857
 40
0.1700326451009857
 10
28.19159119148962
 20
17.93289168105434
 30
0.0
 41
1.0
 10
28.10529933250416
 20
17.9279686347722
 30
0.0
 41
0.9757167984688314
 10
28.02441807949511
 20
17.88353528508495
 30
0.0
 41
1.0
  0
SPLINE
  5
8D
330
1F
100
AcDbEntity
  8
MAKE2D VISIBLE LINES
100
AcDbSpline
210
0.0
220
0.0
230
1.0
 70
    12
 71
     2
 72
     6
 73
     3
 74
     0
 42
0.0000000001
 43
0.0000000001
 40
0.0
 40
0.0
 40
0.0
 40
0.1423721098865516
 40
0.1423721098865516
 40
0.1423721098865516
 10
28.02441807949511
 20
17.88353528508495
 30
0.0
 41
1.0
 10
27.95909155046909
 20
17.84265904412302
 30
0.0
 41
0.9998152309905386
 10
27.90024110628206
 20
17.80259249570758
 30
0.0
 41
0.9999999999981415
  0
SPLINE
  5
8E
330
1F
100
AcDbEntity
  8
MAKE2D VISIBLE LINES
100
AcDbSpline
210
0.0
220
0.0
230
1.0
 70
    12
 71
     2
 72
     6
 73
     3
 74
     0
 42
0.0000000001
 43
0.0000000001
 40
0.0
 40
0.0
 40
0.0
 40
0.0149839129831681
 40
0.0149839129831681
 40
0.0149839129831681
 10
27.90024110628205
 20
17.80259249570758
 30
0.0
 41
0.9999999999998306
 10
27.89404503165811
 20
17.79838082412444
 30
0.0
 41
0.9999984935037622
 10
27.88786326051271
 20
17.79414818618076
 30
0.0
 41
0.9999999999999929
  0
SPLINE
  5
8F
330
1F
100
AcDbEntity
  8
MAKE2D VISIBLE LINES
100
AcDbSpline
210
0.0
220
0.0
230
1.0
 70
    12
 71
     2
 72
     6
 73
     3
 74
     0
 42
0.0000000001
 43
0.0000000001
 40
0.0
 40
0.0
 40
0.0
 40
0.2199143347734641
 40
0.2199143347734641
 40
0.2199143347734641
 10
27.88786326051271
 20
17.79414818618076
 30
0.0
 41
0.9999999999987874
 10
27.79719121155074
 20
17.73191340277237
 30
0.0
 41
0.9997513250470668
 10
27.70938469650369
 20
17.66569705551612
 30
0.0
 41
0.9999999999999885
  0
SPLINE
  5
90
330
1F
100
AcDbEntity
  8
MAKE2D VISIBLE LINES
100
AcDbSpline
210
0.0
220
0.0
230
1.0
 70
    12
 71
     2
 72
     6
 73
     3
 74
     0
 42
0.0000000001
 43
0.0000000001
 40
0.0
 40
0.0
 40
0.0
 40
0.1630509499976804
 40
0.1630509499976804
 40
0.1630509499976804
 10
27.70938469650369
 20
17.66569705551612
 30
0.0
 41
0.9999999999999778
 10
27.64428486153131
 20
17.61661297692072
 30
0.0
 41
0.9999060755755675
 10
27.58055456287964
 20
17.56576335235204
 30
0.0
 41
0.9999999999966795
  0
SPLINE
  5
91
330
1F
100
AcDbEntity
  8
MAKE2D VISIBLE LINES
100
AcDbSpline
210
0.0
220
0.0
230
1.0
 70
    12
 71
     2
 72
     6
 73
     3
 74
     0
 42
0.0000000001
 43
0.0000000001
 40
0.0
 40
0.0
 40
0.0
 40
0.0239581891640136
 40
0.0239581891640136
 40
0.0239581891640136
 10
27.58055456287964
 20
17.56576335235204
 30
0.0
 41
0.9999999999995819
 10
27.57118855682507
 20
17.55829495603592
 30
0.0
 41
0.9999982245823352
 10
27.56185089650322
 20
17.55079114949406
 30
0.0
 41
1.0
  0
LINE
  5
92
330
1F
100
AcDbEntity
  8
MAKE2D VISIBLE LINES
100
AcDbLine
 10
22.08719999549354
 20
0.3932221040366883
 30
0.0
 11
26.45600693215356
 21
18.07967766300033
 31
0.0
  0
SPLINE
  5
93
330
1F
100
AcDbEntity
  8
MAKE2D VISIBLE LINES
100
AcDbSpline
210
0.0
220
0.0
230
1.0
 70
     8
 71
     2
 72
    11
 73
     8
 74
     0
 42
0.0000000001
 43
0.0000000001
 40
0.0
 40
0.0
 40
0.0
 40
1.0
 40
2.0
 40
3.0
 40
4.0
 40
5.0
 40
6.0
 40
6.0
 40
6.0
 10
26.45600693215356
 20
18.07967766300033
 30
0.0
 10
26.54803224218391
 20
18.0631036346349
 30
0.0
 10
26.73040480289305
 20
18.01946650612292
 30
0.0
 10
26.91259140597297
 20
17.97567439570509
 30
0.0
 10
27.09452413146725
 20
17.93072544508391
 30
0.0
 10
27.27618154590615
 20
17.88473422393082
 30
0.0
 10
27.45779240961258
 20
17.83834209008075
 30
0.0
 10
27.54813593206912
 20
17.80991481515813
 30
0.0
  0
ARC
  5
94
330
1F
100
AcDbEntity
  8
MAKE2D VISIBLE LINES
100
AcDbCircle
 10
-42652.81477724839
 20
10559.49356419321
 30
0.0
 40
43962.94431182191
100
AcDbArc
 50
346.1249999996745
 51
346.1261097646095
  0
LINE
  5
95
330
1F
100
AcDbEntity
  8
MAKE2D VISIBLE LINES
100
AcDbLine
 10
27.34394550690206
 20
16.98323862227607
 30
0.0
 11
23.17937385497806
 21
0.123442081298764
 31
0.0
  0
SPLINE
  5
96
330
1F
100
AcDbEntity
  8
MAKE2D VISIBLE LINES
100
AcDbSpline
210
0.0
220
0.0
230
1.0
 70
    12
 71
     2
 72
     6
 73
     3
 74
     0
 42
0.0000000001
 43
0.0000000001
 40
0.0
 40
0.0
 40
0.0
 40
2.061631574185771
 40
2.061631574185771
 40
2.061631574185771
 10
27.54813593206745
 20
17.80991481515736
 30
0.0
 41
1.0
 10
27.79189045789716
 20
18.81160326069643
 30
0.0
 41
0.9998484010904932
 10
28.00061984023964
 20
19.82117151283983
 30
0.0
 41
1.0
  0
SPLINE
  5
97
330
1F
100
AcDbEntity
  8
MAKE2D VISIBLE LINES
100
AcDbSpline
210
0.0
220
0.0
230
1.0
 70
    12
 71
     2
 72
     6
 73
     3
 74
     0
 42
0.0000000001
 43
0.0000000001
 40
0.0
 40
0.0
 40
0.0
 40
0.1598633113070148
 40
0.1598633113070148
 40
0.1598633113070148
 10
26.60614084396708
 20
19.00782146182324
 30
0.0
 41
1.0
 10
26.59432972252992
 20
18.92871518479228
 30
0.0
 41
0.9990343967449803
 10
26.58950853454393
 20
18.84887743346455
 30
0.0
 41
1.0
  0
SPLINE
  5
98
330
1F
100
AcDbEntity
  8
MAKE2D VISIBLE LINES
100
AcDbSpline
210
0.0
220
0.0
230
1.0
 70
    12
 71
     2
 72
     6
 73
     3
 74
     0
 42
0.0000000001
 43
0.0000000001
 40
0.0
 40
0.0
 40
0.0
 40
0.7816405396757449
 40
0.7816405396757449
 40
0.7816405396757449
 10
26.58950853454393
 20
18.84887743346455
 30
0.0
 41
1.0
 10
26.55609852702656
 20
18.45850625773229
 30
0.0
 41
0.996260045340734
 10
26.4559792133214
 20
18.07971610043176
 30
0.0
 41
1.0
  0
SPLINE
  5
99
330
1F
100
AcDbEntity
  8
DEFAULT
100
AcDbSpline
210
0.0
220
0.0
230
1.0
 70
     8
 71
     2
 72
    11
 73
     8
 74
     0
 42
0.0000000001
 43
0.0000000001
 40
0.0
 40
0.0
 40
0.0
 40
1.0
 40
2.0
 40
3.0
 40
4.0
 40
5.0
 40
6.0
 40
6.0
 40
6.0
 10
28.00441343059479
 20
19.83987717688064
 30
0.0
 10
28.24417123541173
 20
20.93175422618518
 30
0.0
 10
28.3680188745184
 20
23.16403344032311
 30
0.0
 10
27.95409692458339
 20
25.36446535984945
 30
0.0
 10
27.31056338709945
 20
27.50147630239373
 30
0.0
 10
26.50392023742648
 20
29.57793763663282
 30
0.0
 10
25.65527106023861
 20
31.66257011733954
 30
0.0
 10
25.01155440992538
 20
32.53442430416921
 30
0.0
  0
SPLINE
  5
9A
330
1F
100
AcDbEntity
  8
DEFAULT
100
AcDbSpline
210
0.0
220
0.0
230
1.0
 70
     8
 71
     5
 72
    12
 73
     6
 74
     0
 42
0.0000000001
 43
0.0000000001
 40
0.0
 40
0.0
 40
0.0
 40
0.0
 40
0.0
 40
0.0
 40
1.0
 40
1.0
 40
1.0
 40
1.0
 40
1.0
 40
1.0
 10
25.01155440992538
 20
32.53442430416921
 30
0.0
 10
25.00468444837441
 20
32.54463944964004
 30
0.0
 10
24.97773889076692
 20
32.57870049113087
 30
0.0
 10
24.82170566979064
 20
32.46779249073703
 30
0.0
 10
24.76087494057156
 20
32.43983236368147
 30
0.0
 10
24.70009062479807
 20
32.41177169697863
 30
0.0
  0
ARC
  5
9B
330
1F
100
AcDbEntity
  8
DEFAULT
100
AcDbCircle
 10
45.90625744466979
 20
-13.52449752909375
 30
0.0
 40
50.59488453986661
100
AcDbArc
 50
114.7800881090393
 51
116.5741649610439
  0
ARC
  5
9C
330
1F
100
AcDbEntity
  8
DEFAULT
100
AcDbCircle
 10
23.34793096055348
 20
31.57421988320674
 30
0.0
 40
0.1689744737258318
100
AcDbArc
 50
116.5741649610433
 51
135.8652056261011
  0
ARC
  5
9D
330
1F
100
AcDbEntity
  8
MAKE2D VISIBLE LINES
100
AcDbCircle
 10
25.89611405242085
 20
19.33503980449489
 30
0.0
 40
0.7812392972202519
100
AcDbArc
 50
335.4266311420732
 51
8.420640287721612
  0
SPLINE
  5
9E
330
1F
100
AcDbEntity
  8
MAKE2D VISIBLE LINES
100
AcDbSpline
210
0.0
220
0.0
230
1.0
 70
     8
 71
     3
 72
    11
 73
     7
 74
     0
 42
0.0000000001
 43
0.0000000001
 40
-1.932317162159845
 40
-1.932317162159845
 40
-1.932317162159845
 40
-1.932317162159845
 40
-1.114321231087402
 40
-0.6074116793840068
 40
-0.2699890469078568
 40
0.0000000000000001
 40
0.0000000000000001
 40
0.0000000000000001
 40
0.0000000000000001
 10
26.66893131164601
 20
19.44944401492837
 30
0.0
 10
26.62891476116479
 20
19.7197616959766
 30
0.0
 10
26.39743497703234
 20
20.12768824549079
 30
0.0
 10
25.90504097534009
 20
20.401528207273
 30
0.0
 10
25.57205831559347
 20
20.55833654968955
 30
0.0
 10
25.37991937123735
 20
20.62844069545744
 30
0.0
 10
25.29367992853978
 20
20.65245199748832
 30
0.0
  0
SPLINE
  5
9F
330
1F
100
AcDbEntity
  8
MAKE2D VISIBLE LINES
100
AcDbSpline
210
0.0
220
0.0
230
1.0
 70
    12
 71
     2
 72
     6
 73
     3
 74
     0
 42
0.0000000001
 43
0.0000000001
 40
-0.1016264246854027
 40
-0.1016264246854027
 40
-0.1016264246854027
 40
0.0
 40
0.0
 40
0.0
 10
25.29367992853978
 20
20.65245199748832
 30
0.0
 41
1.0
 10
25.23979336716233
 20
20.66870807868654
 30
0.0
 41
0.8603657572054948
 10
25.22814875014267
 20
20.7237749392443
 30
0.0
 41
1.0
  0
SPLINE
  5
A0
330
1F
100
AcDbEntity
  8
MAKE2D VISIBLE LINES
100
AcDbSpline
210
0.0
220
0.0
230
1.0
 70
    12
 71
     2
 72
     6
 73
     3
 74
     0
 42
0.0000000001
 43
0.0000000001
 40
0.0
 40
0.0
 40
0.0
 40
0.0168225849784347
 40
0.0168225849784347
 40
0.0168225849784347
 10
25.22814875014267
 20
20.7237749392443
 30
0.0
 41
1.0
 10
25.22541733975525
 20
20.73197062428751
 30
0.0
 41
0.9609513453654801
 10
25.22746289237034
 20
20.74036381024584
 30
0.0
 41
1.0
  0
SPLINE
  5
A1
330
1F
100
AcDbEntity
  8
MAKE2D VISIBLE LINES
100
AcDbSpline
210
0.0
220
0.0
230
1.0
 70
    12
 71
     3
 72
    30
 73
    26
 74
     0
 42
0.0000000001
 43
0.0000000001
 40
0.0
 40
0.0
 40
0.0
 40
0.0
 40
0.998777893850345
 40
2.039580217844248
 40
4.189912437327197
 40
6.986695890956174
 40
11.26981331091288
 40
11.26981331091288
 40
11.26981331091288
 40
11.3042122140525
 40
11.3042122140525
 40
11.3042122140525
 40
11.8678701670312
 40
12.41264512907092
 40
13.13074674650946
 40
13.16058978273658
 40
13.19762092784838
 40
13.24788819881942
 40
13.30844704110376
 40
13.35134589188302
 40
13.42219038585663
 40
13.76419401457089
 40
14.4210863406999
 40
15.94007407868409
 40
19.48616492399376
 40
19.48616492399376
 40
19.48616492399376
 40
19.48616492399376
 10
25.22746289237034
 20
20.74036381024584
 30
0.0
 41
1.0
 10
25.30914644077633
 20
21.06425578641621
 30
0.0
 41
1.0
 10
25.4245474647595
 20
21.73293587939238
 30
0.0
 41
1.0
 10
25.53093478227166
 20
23.13002115251788
 30
0.0
 41
1.0
 10
25.32453793117371
 20
25.12493288897919
 30
0.0
 41
1.0
 10
24.48129143566226
 20
28.09049362236302
 30
0.0
 41
1.0
 10
23.71017574812575
 20
30.31852134949535
 30
0.0
 41
1.0
 10
23.21943844452582
 20
31.66015057302705
 30
0.0
 41
1.0
 10
23.21527880029312
 20
31.67155863810694
 30
0.0
 41
0.8934048983870025
 10
23.21797221724901
 20
31.68339891234833
 30
0.0
 41
0.8934048983870025
 10
23.2266573802312
 20
31.69188505004356
 30
0.0
 41
1.0
 10
23.39584257259012
 20
31.77354383341592
 30
0.0
 41
1.0
 10
23.73002980818789
 20
31.93134687155042
 30
0.0
 41
1.0
 10
24.28436501998786
 20
32.18280676767586
 30
0.0
 41
1.0
 10
24.67440728993386
 20
32.36660910113901
 30
0.0
 41
1.0
 10
24.91442724656473
 20
32.47013037589994
 30
0.0
 41
1.0
 10
24.95471521032108
 20
32.45172779306326
 30
0.0
 41
1.0
 10
24.99275958749715
 20
32.42475484938559
 30
0.0
 41
1.0
 10
25.02811915070166
 20
32.38527711904508
 30
0.0
 41
1.0
 10
25.06265395494376
 20
32.33916227944499
 30
0.0
 41
1.0
 10
25.13747645678369
 20
32.20670018983024
 30
0.0
 41
1.0
 10
25.30833210566177
 20
31.89371417256157
 30
0.0
 41
1.0
 10
25.67544022511115
 20
31.13869033358302
 30
0.0
 41
1.0
 10
26.40821034869509
 20
29.3766351684221
 30
0.0
 41
1.0
 10
26.94062688889844
 20
27.7729517103907
 30
0.0
 41
1.0
 10
27.29093509691328
 20
26.59907787656033
 30
0.0
 41
1.0
  0
SPLINE
  5
A2
330
1F
100
AcDbEntity
  8
MAKE2D VISIBLE LINES
100
AcDbSpline
210
0.0
220
0.0
230
1.0
 70
    12
 71
     3
 72
    12
 73
     8
 74
     0
 42
0.0000000001
 43
0.0000000001
 40
-0.9785015012744535
 40
-0.9785015012744535
 40
-0.9785015012744535
 40
-0.9785015012744535
 40
-0.4942537595695717
 40
-0.4942537595695717
 40
-0.2506663683008745
 40
-0.2506663683008745
 40
0.0
 40
0.0
 40
0.0
 40
0.0
 10
27.29093509691328
 20
26.59907787656033
 30
0.0
 41
1.0
 10
27.51656981436677
 20
25.83926702383544
 30
0.0
 41
1.0
 10
27.67873182563537
 20
25.19923354229742
 30
0.0
 41
1.0
 10
27.82902700382876
 20
24.35835492229318
 30
0.0
 41
1.0
 10
27.8678346192513
 20
24.10022918194149
 30
0.0
 41
1.0
 10
27.93744928613626
 20
23.37454884832054
 30
0.0
 41
1.0
 10
27.94470386598007
 20
23.08915884939383
 30
0.0
 41
1.0
 10
27.94581656907632
 20
22.89033205734224
 30
0.0
 41
1.0
  0
SPLINE
  5
A3
330
1F
100
AcDbEntity
  8
MAKE2D VISIBLE LINES
100
AcDbSpline
210
0.0
220
0.0
230
1.0
 70
    12
 71
     2
 72
     6
 73
     3
 74
     0
 42
0.0000000001
 43
0.0000000001
 40
0.0
 40
0.0
 40
0.0
 40
0.4616602041699219
 40
0.4616602041699219
 40
0.4616602041699219
 10
27.94581656907632
 20
22.89033205734224
 30
0.0
 41
1.0
 10
27.94674447037464
 20
22.65932796679603
 30
0.0
 41
0.9988585240063492
 10
27.92562476356974
 20
22.42928947255131
 30
0.0
 41
1.0
  0
SPLINE
  5
A4
330
1F
100
AcDbEntity
  8
MAKE2D VISIBLE LINES
100
AcDbSpline
210
0.0
220
0.0
230
1.0
 70
     8
 71
     3
 72
    11
 73
     7
 74
     0
 42
0.0000000001
 43
0.0000000001
 40
0.0
 40
0.0
 40
0.0
 40
0.0
 40
0.2874736741838422
 40
0.6007707123945327
 40
1.295211947608686
 40
2.682234006193673
 40
2.682234006193673
 40
2.682234006193673
 40
2.682234006193673
 10
27.92562476356974
 20
22.42928947255131
 30
0.0
 10
27.91710247876553
 20
22.33383713763722
 30
0.0
 10
27.89408188253147
 20
22.13483493447577
 30
0.0
 10
27.81795655312009
 20
21.70965934465534
 30
0.0
 10
27.61482539442493
 20
20.93656069114137
 30
0.0
 10
27.34136027001636
 20
20.29565413480423
 30
0.0
 10
27.12661039438953
 20
19.88474050578927
 30
0.0
  0
SPLINE
  5
A5
330
1F
100
AcDbEntity
  8
MAKE2D VISIBLE LINES
100
AcDbSpline
210
0.0
220
0.0
230
1.0
 70
    12
 71
     2
 72
     6
 73
     3
 74
     0
 42
0.0000000001
 43
0.0000000001
 40
0.0
 40
0.0
 40
0.0
 40
0.6504522985104759
 40
0.6504522985104759
 40
0.6504522985104759
 10
27.12661039438953
 20
19.88474050578927
 30
0.0
 41
1.0
 10
26.97366585214432
 20
19.59582046394283
 30
0.0
 41
0.9991283073103383
 10
26.79680479734902
 20
19.32011274460865
 30
0.0
 41
1.0
  0
SPLINE
  5
A6
330
1F
100
AcDbEntity
  8
MAKE2D VISIBLE LINES
100
AcDbSpline
210
0.0
220
0.0
230
1.0
 70
     8
 71
     3
 72
     9
 73
     5
 74
     0
 42
0.0000000001
 43
0.0000000001
 40
0.0
 40
0.0
 40
0.0
 40
0.0
 40
0.3651881675984961
 40
0.369218707017257
 40
0.369218707017257
 40
0.369218707017257
 40
0.369218707017257
 10
26.79680479734902
 20
19.32011274460865
 30
0.0
 10
26.72840404833558
 20
19.21756374062421
 30
0.0
 10
26.66760464987304
 20
19.10835222149802
 30
0.0
 10
26.60572428114951
 20
19.00400218461689
 30
0.0
 10
26.60659611477836
 20
19.0101550886503
 30
0.0
  0
SPLINE
  5
A7
330
1F
100
AcDbEntity
  8
MAKE2D VISIBLE LINES
100
AcDbSpline
210
0.0
220
0.0
230
1.0
 70
    12
 71
     2
 72
    12
 73
     9
 74
     0
 42
0.0000000001
 43
0.0000000001
 40
-0.4171709231871386
 40
-0.4171709231871386
 40
-0.4171709231871386
 40
-0.0801336414061238
 40
-0.0801336414061238
 40
-0.0400668207030619
 40
-0.0400668207030619
 40
0.0
 40
0.0
 40
0.9002440585113858
 40
0.9002440585113858
 40
0.9002440585113858
 10
22.08719946622776
 20
0.3931930026811459
 30
0.0
 41
1.0
 10
22.04666039886896
 20
0.2289542388617509
 30
0.0
 41
0.994502632275188
 10
22.04121108638005
 20
0.0599024973427458
 30
0.0
 41
1.0
 10
22.0405279678872
 20
0.0387337480959867
 30
0.0
 41
0.9207550203895514
 10
22.05526147180838
 20
0.0235184118278704
 30
0.0
 41
1.0
 10
22.06999497572957
 20
0.0083030755597541
 30
0.0
 41
0.9207550203895514
 10
22.0911747441969
 20
0.0083048693151531
 30
0.0
 41
1.0
 10
22.62899452853109
 20
-0.0047046777954313
 30
0.0
 41
0.9997936884095617
 10
23.11772666773445
 20
0.0083630491118285
 30
0.0
 41
1.0
  0
SPLINE
  5
A8
330
1F
100
AcDbEntity
  8
MAKE2D VISIBLE LINES
100
AcDbSpline
210
0.0
220
0.0
230
1.0
 70
    12
 71
     2
 72
     8
 73
     5
 74
     0
 42
0.0000000001
 43
0.0000000001
 40
0.0
 40
0.0
 40
0.0
 40
0.0400487643131459
 40
0.0400487643131459
 40
0.0737985633247636
 40
0.0737985633247636
 40
0.0737985633247636
 10
23.11772666773445
 20
0.0083630491118285
 30
0.0
 41
1.0
 10
23.13889353212216
 20
0.0083771491827248
 30
0.0
 41
0.9209692297744823
 10
23.15362335338257
 20
0.023578093642058
 30
0.0
 41
1.0
 10
23.16583392429818
 20
0.0361784597201908
 30
0.0
 41
0.9435914231870833
 10
23.16749349858825
 20
0.0536459461038596
 30
0.0
 41
1.0
  0
SPLINE
  5
A9
330
1F
100
AcDbEntity
  8
MAKE2D VISIBLE LINES
100
AcDbSpline
210
0.0
220
0.0
230
1.0
 70
    12
 71
     2
 72
     6
 73
     3
 74
     0
 42
0.0000000001
 43
0.0000000001
 40
-0.0708654497355923
 40
-0.0708654497355923
 40
-0.0708654497355923
 40
0.0
 40
0.0
 40
0.0
 10
23.16749349858825
 20
0.0536459461038596
 30
0.0
 41
1.0
 10
23.17084615637852
 20
0.08898444707195
 30
0.0
 41
0.9972784465641281
 10
23.17845525855553
 20
0.1240308316735862
 30
0.0
 41
1.0
  0
SPLINE
  5
AA
330
1F
100
AcDbEntity
  8
MAKE2D VISIBLE LINES
100
AcDbSpline
210
0.0
220
0.0
230
1.0
 70
     8
 71
     2
 72
    11
 73
     8
 74
     0
 42
0.0000000001
 43
0.0000000001
 40
0.0
 40
0.0
 40
0.0
 40
1.000004143264599
 40
2.000008286529197
 40
3.000012429793797
 40
4.000016573058396
 40
5.000020716322994
 40
6.0
 40
6.0
 40
6.0
 10
23.17845525855553
 20
0.1240308316735862
 30
0.0
 10
23.08803957626789
 20
0.1519624094332632
 30
0.0
 10
22.9066172515974
 20
0.1983654390863449
 30
0.0
 10
22.72512030104438
 20
0.2443067606907554
 30
0.0
 10
22.54338847259302
 20
0.2893592950152835
 30
0.0
 10
22.36132468942825
 20
0.332951489963928
 30
0.0
 10
22.17915928155465
 20
0.3766320443486372
 30
0.0
 10
22.08719946622776
 20
0.3931930026811459
 30
0.0
  0
SPLINE
  5
AB
330
1F
100
AcDbEntity
  8
MAKE2D VISIBLE LINES
100
AcDbSpline
210
0.0
220
0.0
230
1.0
 70
     8
 71
     3
 72
    11
 73
     7
 74
     0
 42
0.0000000001
 43
0.0000000001
 40
0.0
 40
0.0
 40
0.0
 40
0.0
 40
0.0812142956748983
 40
0.1691805052559531
 40
0.2770251838984233
 40
0.414857363145586
 40
0.414857363145586
 40
0.414857363145586
 40
0.414857363145586
 10
40.02281393732354
 20
16.46646640981928
 30
0.0
 10
39.99585633750399
 20
16.46390179587649
 30
0.0
 10
39.94051838628486
 20
16.45113082243773
 30
0.0
 10
39.85678621628657
 20
16.41121082742138
 30
0.0
 10
39.76522928802256
 20
16.34769290223922
 30
0.0
 10
39.70315957515594
 20
16.29415613783051
 30
0.0
 10
39.66928783909321
 20
16.26311934466696
 30
0.0
  0
SPLINE
  5
AC
330
1F
100
AcDbEntity
  8
MAKE2D VISIBLE LINES
100
AcDbSpline
210
0.0
220
0.0
230
1.0
 70
    24
 71
     2
 72
     6
 73
     3
 74
     0
 42
0.0000000001
 43
0.0000000001
 40
0.0
 40
0.0
 40
0.0
 40
0.3660519085076586
 40
0.3660519085076586
 40
0.3660519085076586
 10
39.66928783909321
 20
16.26311934466696
 30
0.0
 10
39.69015520448801
 20
16.08091058841038
 30
0.0
 10
39.71102256988281
 20
15.8987018321538
 30
0.0
  0
SPLINE
  5
AD
330
1F
100
AcDbEntity
  8
MAKE2D VISIBLE LINES
100
AcDbSpline
210
0.0
220
0.0
230
1.0
 70
    12
 71
     2
 72
     6
 73
     3
 74
     0
 42
0.0000000001
 43
0.0000000001
 40
0.0
 40
0.0
 40
0.0
 40
0.2226359711496808
 40
0.2226359711496808
 40
0.2226359711496808
 10
39.71102256988281
 20
15.8987018321538
 30
0.0
 41
1.0
 10
39.75720618464315
 20
15.78787172010467
 30
0.0
 41
0.9027033858667041
 10
39.87163810595653
 20
15.75417452022436
 30
0.0
 41
1.0
  0
SPLINE
  5
AE
330
1F
100
AcDbEntity
  8
MAKE2D VISIBLE LINES
100
AcDbSpline
210
0.0
220
0.0
230
1.0
 70
    24
 71
     2
 72
     6
 73
     3
 74
     0
 42
0.0000000001
 43
0.0000000001
 40
0.0
 40
0.0
 40
0.0
 40
0.2187499999999951
 40
0.2187499999999951
 40
0.2187499999999951
 10
39.87163810595653
 20
15.75417452022436
 30
0.0
 10
39.98050956515294
 20
15.76465764940626
 30
0.0
 10
40.08938102434934
 20
15.77514077858816
 30
0.0
  0
SPLINE
  5
AF
330
1F
100
AcDbEntity
  8
MAKE2D VISIBLE LINES
100
AcDbSpline
210
0.0
220
0.0
230
1.0
 70
    24
 71
     2
 72
     6
 73
     3
 74
     0
 42
0.0000000001
 43
0.0000000001
 40
0.0
 40
0.0
 40
0.0
 40
0.2187500000000019
 40
0.2187500000000019
 40
0.2187500000000019
 10
40.08938102434934
 20
15.77514077858816
 30
0.0
 10
40.19825248354575
 20
15.78562390777006
 30
0.0
 10
40.30712394274216
 20
15.79610703695196
 30
0.0
  0
SPLINE
  5
B0
330
1F
100
AcDbEntity
  8
MAKE2D VISIBLE LINES
100
AcDbSpline
210
0.0
220
0.0
230
1.0
 70
    12
 71
     2
 72
     6
 73
     3
 74
     0
 42
0.0000000001
 43
0.0000000001
 40
0.0
 40
0.0
 40
0.0
 40
0.2226303472499437
 40
0.2226303472499437
 40
0.2226303472499437
 10
40.30712394274216
 20
15.79610703695196
 30
0.0
 41
1.0
 10
40.41300607248142
 20
15.85103307459739
 30
0.0
 41
0.9027752838223648
 10
40.43721140191598
 20
15.96862584794003
 30
0.0
 41
1.0
  0
SPLINE
  5
B1
330
1F
100
AcDbEntity
  8
MAKE2D VISIBLE LINES
100
AcDbSpline
210
0.0
220
0.0
230
1.0
 70
    24
 71
     2
 72
     6
 73
     3
 74
     0
 42
0.0000000001
 43
0.0000000001
 40
0.0
 40
0.0
 40
0.0
 40
0.3660519085099956
 40
0.3660519085099956
 40
0.3660519085099956
 10
40.43721140191598
 20
15.96862584794003
 30
0.0
 10
40.42249370306931
 20
16.15173703841189
 30
0.0
 10
40.40777600422264
 20
16.33484822888374
 30
0.0
  0
SPLINE
  5
B2
330
1F
100
AcDbEntity
  8
MAKE2D VISIBLE LINES
100
AcDbSpline
210
0.0
220
0.0
230
1.0
 70
     8
 71
     3
 72
    11
 73
     7
 74
     0
 42
0.0000000001
 43
0.0000000001
 40
0.0
 40
0.0
 40
0.0
 40
0.0
 40
0.0017540549121738
 40
0.1396136358089379
 40
0.2474265428751539
 40
0.4169006501691559
 40
0.4169006501691559
 40
0.4169006501691559
 40
0.4169006501691559
 10
40.40777600422264
 20
16.33484822888374
 30
0.0
 10
40.4091925577895
 20
16.33397453722892
 30
0.0
 10
40.37048401769729
 20
16.35776163066377
 30
0.0
 10
40.29803253052618
 20
16.39910520261533
 30
0.0
 10
40.17193446509479
 20
16.45478077905962
 30
0.0
 10
40.07925040560415
 20
16.47213120689885
 30
0.0
 10
40.02281393732354
 20
16.46646640981928
 30
0.0
  0
SPLINE
  5
B3
330
1F
100
AcDbEntity
  8
MAKE2D VISIBLE LINES
100
AcDbSpline
210
0.0
220
0.0
230
1.0
 70
    12
 71
     2
 72
     6
 73
     3
 74
     0
 42
0.0000000001
 43
0.0000000001
 40
0.0
 40
0.0
 40
0.0
 40
1.139711099716156
 40
1.139711099716156
 40
1.139711099716156
 10
42.78115848603877
 20
17.39742614039635
 30
0.0
 41
1.0
 10
43.35283796255469
 20
17.35766526923915
 30
0.0
 41
0.9916320061266115
 10
43.89532116684924
 20
17.17294095905397
 30
0.0
 41
1.0
  0
SPLINE
  5
B4
330
1F
100
AcDbEntity
  8
MAKE2D VISIBLE LINES
100
AcDbSpline
210
0.0
220
0.0
230
1.0
 70
    12
 71
     2
 72
     6
 73
     3
 74
     0
 42
0.0000000001
 43
0.0000000001
 40
0.0
 40
0.0
 40
0.0
 40
0.6200990255108542
 40
0.6200990255108542
 40
0.6200990255108542
 10
43.89532116684924
 20
17.17294095905397
 30
0.0
 41
1.0
 10
44.19319585976923
 20
17.07126172350432
 30
0.0
 41
0.9777967244108859
 10
44.42317199080402
 20
16.85638496173237
 30
0.0
 41
1.0
  0
SPLINE
  5
B5
330
1F
100
AcDbEntity
  8
MAKE2D VISIBLE LINES
100
AcDbSpline
210
0.0
220
0.0
230
1.0
 70
    24
 71
     2
 72
     6
 73
     3
 74
     0
 42
0.0000000001
 43
0.0000000001
 40
0.0
 40
0.0
 40
0.0
 40
0.3660519085076657
 40
0.3660519085076657
 40
0.3660519085076657
 10
32.7015144505222
 20
15.59219907702497
 30
0.0
 10
32.72238181591701
 20
15.40999032076839
 30
0.0
 10
32.74324918131182
 20
15.2277815645118
 30
0.0
  0
SPLINE
  5
B6
330
1F
100
AcDbEntity
  8
MAKE2D VISIBLE LINES
100
AcDbSpline
210
0.0
220
0.0
230
1.0
 70
    12
 71
     2
 72
     6
 73
     3
 74
     0
 42
0.0000000001
 43
0.0000000001
 40
0.0
 40
0.0
 40
0.0
 40
0.2226359711497572
 40
0.2226359711497572
 40
0.2226359711497572
 10
32.74324918131182
 20
15.2277815645118
 30
0.0
 41
1.0
 10
32.78943279607196
 20
15.11695145246247
 30
0.0
 41
0.9027033858658244
 10
32.90386471738554
 20
15.08325425258236
 30
0.0
 41
1.0
  0
SPLINE
  5
B7
330
1F
100
AcDbEntity
  8
MAKE2D VISIBLE LINES
100
AcDbSpline
210
0.0
220
0.0
230
1.0
 70
    28
 71
     3
 72
     8
 73
     4
 74
     0
 42
0.0000000001
 43
0.0000000001
 40
-0.3436117278563864
 40
-0.3436117278563864
 40
-0.3436117278563864
 40
-0.3436117278563864
 40
0.0
 40
0.0
 40
0.0
 40
0.0
 10
32.90386471738554
 20
15.08325425258236
 30
0.0
 41
1.249004411490993
 10
32.90386470224215
 20
15.08325425112422
 30
0.0
 41
0.9343217557452168
 10
32.99336996949683
 20
15.09187262811684
 30
0.0
 41
0.8657533669198912
 10
33.12160763577835
 20
15.10422051094616
 30
0.0
 41
1.0
  0
SPLINE
  5
B8
330
1F
100
AcDbEntity
  8
MAKE2D VISIBLE LINES
100
AcDbSpline
210
0.0
220
0.0
230
1.0
 70
    24
 71
     2
 72
     6
 73
     3
 74
     0
 42
0.0000000001
 43
0.0000000001
 40
0.0
 40
0.0
 40
0.0
 40
0.2187499999999946
 40
0.2187499999999946
 40
0.2187499999999946
 10
33.12160763577835
 20
15.10422051094616
 30
0.0
 10
33.23047909497475
 20
15.11470364012806
 30
0.0
 10
33.33935055417115
 20
15.12518676930996
 30
0.0
  0
SPLINE
  5
B9
330
1F
100
AcDbEntity
  8
MAKE2D VISIBLE LINES
100
AcDbSpline
210
0.0
220
0.0
230
1.0
 70
    12
 71
     2
 72
     6
 73
     3
 74
     0
 42
0.0000000001
 43
0.0000000001
 40
0.0
 40
0.0
 40
0.0
 40
0.2226303472499221
 40
0.2226303472499221
 40
0.2226303472499221
 10
33.33935055417115
 20
15.12518676930996
 30
0.0
 41
1.0
 10
33.44523268391036
 20
15.18011280695543
 30
0.0
 41
0.9027752838226327
 10
33.46943801334498
 20
15.29770558029803
 30
0.0
 41
1.0
  0
SPLINE
  5
BA
330
1F
100
AcDbEntity
  8
MAKE2D VISIBLE LINES
100
AcDbSpline
210
0.0
220
0.0
230
1.0
 70
    24
 71
     2
 72
     6
 73
     3
 74
     0
 42
0.0000000001
 43
0.0000000001
 40
0.0
 40
0.0
 40
0.0
 40
0.3660519085099928
 40
0.3660519085099928
 40
0.3660519085099928
 10
33.46943801334498
 20
15.29770558029803
 30
0.0
 10
33.45515491969647
 20
15.48054833764625
 30
0.0
 10
33.44087182604795
 20
15.66339109499448
 30
0.0
  0
SPLINE
  5
BB
330
1F
100
AcDbEntity
  8
MAKE2D VISIBLE LINES
100
AcDbSpline
210
0.0
220
0.0
230
1.0
 70
     8
 71
     3
 72
    11
 73
     7
 74
     0
 42
0.0000000001
 43
0.0000000001
 40
0.0
 40
0.0
 40
0.0
 40
0.0
 40
0.1377635348129177
 40
0.2455013291633975
 40
0.3335348622749909
 40
0.414857364690363
 40
0.414857364690363
 40
0.414857364690363
 40
0.414857364690363
 10
33.44087182604624
 20
15.66339109499554
 30
0.0
 10
33.40171989228124
 20
15.68738266444795
 30
0.0
 10
33.33062649509195
 20
15.72806422983954
 30
0.0
 10
33.22867142164327
 20
15.77294277844398
 30
0.0
 10
33.13884558182698
 20
15.79618591109007
 30
0.0
 10
33.08202819119863
 20
15.79817617976863
 30
0.0
 10
33.05504054875255
 20
15.79554614217727
 30
0.0
  0
SPLINE
  5
BC
330
1F
100
AcDbEntity
  8
MAKE2D VISIBLE LINES
100
AcDbSpline
210
0.0
220
0.0
230
1.0
 70
     8
 71
     3
 72
    11
 73
     7
 74
     0
 42
0.0000000001
 43
0.0000000001
 40
0.0
 40
0.0
 40
0.0
 40
0.0
 40
0.081214295674898
 40
0.1691805052559474
 40
0.277025183898425
 40
0.4148573631455907
 40
0.4148573631455907
 40
0.4148573631455907
 40
0.4148573631455907
 10
33.05504054875255
 20
15.79554614217727
 30
0.0
 10
33.02808294893297
 20
15.79298152823451
 30
0.0
 10
32.97274499771382
 20
15.78021055479575
 30
0.0
 10
32.88901282771553
 20
15.74029055977939
 30
0.0
 10
32.79745589945149
 20
15.67677263459725
 30
0.0
 10
32.73538618658491
 20
15.62323587018852
 30
0.0
 10
32.7015144505222
 20
15.59219907702497
 30
0.0
  0
SPLINE
  5
BD
330
1F
100
AcDbEntity
  8
MAKE2D VISIBLE LINES
100
AcDbSpline
210
0.0
220
0.0
230
1.0
 70
    24
 71
     2
 72
     6
 73
     3
 74
     0
 42
0.0000000001
 43
0.0000000001
 40
-0.0992958139205835
 40
-0.0992958139205835
 40
-0.0992958139205835
 40
0.0
 40
0.0
 40
0.0
 10
32.95043259129077
 20
16.3639368427628
 30
0.0
 10
32.99988575266516
 20
16.36870195426278
 30
0.0
 10
33.04933891403957
 20
16.37346706576277
 30
0.0
  0
SPLINE
  5
BE
330
1F
100
AcDbEntity
  8
MAKE2D VISIBLE LINES
100
AcDbSpline
210
0.0
220
0.0
230
1.0
 70
    12
 71
     3
 72
    12
 73
     8
 74
     0
 42
0.0000000001
 43
0.0000000001
 40
2.266806351395972
 40
2.266806351395972
 40
2.266806351395972
 40
2.266806351395972
 40
2.411132418285951
 40
2.411132418285951
 40
2.598945532857947
 40
2.598945532857947
 40
2.9565629204786
 40
2.9565629204786
 40
2.9565629204786
 40
2.9565629204786
 10
33.04933891403957
 20
16.37346706576277
 30
0.0
 41
1.0
 10
33.09361370253616
 20
16.38598860588929
 30
0.0
 41
1.0
 10
33.12961257457456
 20
16.4084926958738
 30
0.0
 41
1.0
 10
33.21564969934411
 20
16.46937232069973
 30
0.0
 41
1.0
 10
33.25497677738466
 20
16.50511826058619
 30
0.0
 41
1.0
 10
33.36112453030227
 20
16.60545904352252
 30
0.0
 41
1.0
 10
33.41122520945522
 20
16.66014228042114
 30
0.0
 41
1.0
 10
33.41122520945522
 20
16.66014228042114
 30
0.0
 41
1.0
  0
SPLINE
  5
BF
330
1F
100
AcDbEntity
  8
MAKE2D VISIBLE LINES
100
AcDbSpline
210
0.0
220
0.0
230
1.0
 70
    24
 71
     2
 72
     6
 73
     3
 74
     0
 42
0.0000000001
 43
0.0000000001
 40
0.0
 40
0.0
 40
0.0
 40
0.0795454859458744
 40
0.0795454859458744
 40
0.0795454859458744
 10
33.41122520945522
 20
16.66014228042114
 30
0.0
 10
33.40810467600694
 20
16.69979241730098
 30
0.0
 10
33.40498414255867
 20
16.73944255418081
 30
0.0
  0
SPLINE
  5
C0
330
1F
100
AcDbEntity
  8
MAKE2D VISIBLE LINES
100
AcDbSpline
210
0.0
220
0.0
230
1.0
 70
    12
 71
     3
 72
    10
 73
     6
 74
     0
 42
0.0000000001
 43
0.0000000001
 40
-2.791708356059433
 40
-2.791708356059433
 40
-2.791708356059433
 40
-2.791708356059433
 40
-2.093725516925132
 40
-2.093725516925132
 40
-1.39319396481126
 40
-1.39319396481126
 40
-1.39319396481126
 40
-1.39319396481126
 10
33.40498414255867
 20
16.73944255418081
 30
0.0
 41
1.0
 10
33.40100210527281
 20
16.79003913520206
 30
0.0
 41
1.0
 10
33.20453783498778
 20
16.82653964201936
 30
0.0
 41
1.0
 10
32.70932858932843
 20
16.79941817009654
 30
0.0
 41
1.0
 10
32.52178820124212
 20
16.74009742884956
 30
0.0
 41
1.0
 10
32.52770233407846
 20
16.68797942932343
 30
0.0
 41
1.0
  0
SPLINE
  5
C1
330
1F
100
AcDbEntity
  8
MAKE2D VISIBLE LINES
100
AcDbSpline
210
0.0
220
0.0
230
1.0
 70
    24
 71
     2
 72
     6
 73
     3
 74
     0
 42
0.0000000001
 43
0.0000000001
 40
0.0
 40
0.0
 40
0.0
 40
0.1124025976139652
 40
0.1124025976139652
 40
0.1124025976139652
 10
32.52770233407846
 20
16.68797942932343
 30
0.0
 10
32.53406481168086
 20
16.63213667526192
 30
0.0
 10
32.54042728928327
 20
16.5762939212004
 30
0.0
  0
SPLINE
  5
C2
330
1F
100
AcDbEntity
  8
MAKE2D VISIBLE LINES
100
AcDbSpline
210
0.0
220
0.0
230
1.0
 70
    12
 71
     3
 72
    12
 73
     8
 74
     0
 42
0.0000000001
 43
0.0000000001
 40
1.478228585790528
 40
1.478228585790528
 40
1.478228585790528
 40
1.478228585790528
 40
1.835108898878118
 40
1.835108898878118
 40
2.024274150184068
 40
2.024274150184068
 40
2.167373199071931
 40
2.167373199071931
 40
2.167373199071931
 40
2.167373199071931
 10
32.5404273597697
 20
16.57629386222185
 30
0.0
 41
1.0
 10
32.54050329433232
 20
16.57623490529217
 30
0.0
 41
1.0
 10
32.59998363876863
 20
16.53222489810002
 30
0.0
 41
1.0
 10
32.72347903820648
 20
16.45386517454697
 30
0.0
 41
1.0
 10
32.7692303332108
 20
16.42605677803648
 30
0.0
 41
1.0
 10
32.86553223183899
 20
16.38278639203984
 30
0.0
 41
1.0
 10
32.90493088777666
 20
16.36775973537757
 30
0.0
 41
1.0
 10
32.95043259129077
 20
16.3639368427628
 30
0.0
 41
1.0
  0
SPLINE
  5
C3
330
1F
100
AcDbEntity
  8
MAKE2D VISIBLE LINES
100
AcDbSpline
210
0.0
220
0.0
230
1.0
 70
    12
 71
     2
 72
     7
 73
     4
 74
     0
 42
0.0000000001
 43
0.0000000001
 40
-2.0
 40
-2.0
 40
-2.0
 40
-1.0
 40
0.0
 40
0.0
 40
0.0
 10
43.20949155116636
 20
0.0406879580384168
 30
0.0
 41
1.0
 10
42.97606810001727
 20
0.0247868753695916
 30
0.0
 41
1.0
 10
42.43115832798786
 20
0.0096232744259
 30
0.0
 41
1.0
 10
42.19721181792529
 20
0.0125185129188097
 30
0.0
 41
1.0
  0
SPLINE
  5
C4
330
1F
100
AcDbEntity
  8
MAKE2D VISIBLE LINES
100
AcDbSpline
210
0.0
220
0.0
230
1.0
 70
    12
 71
     2
 72
     6
 73
     3
 74
     0
 42
0.0000000001
 43
0.0000000001
 40
0.0
 40
0.0
 40
0.0
 40
0.0904048108433135
 40
0.0904048108433135
 40
0.0904048108433135
 10
42.19721181792529
 20
0.0125185129188097
 30
0.0
 41
1.0
 10
42.14097183216272
 20
0.0145496949188919
 30
0.0
 41
0.729356425966674
 10
42.13940391080583
 20
0.0708045020157896
 30
0.0
 41
1.0
  0
SPLINE
  5
C5
330
1F
100
AcDbEntity
  8
MAKE2D VISIBLE LINES
100
AcDbSpline
210
0.0
220
0.0
230
1.0
 70
    24
 71
     2
 72
     6
 73
     3
 74
     0
 42
0.0000000001
 43
0.0000000001
 40
0.0
 40
0.0
 40
0.0
 40
0.0839130223841461
 40
0.0839130223841461
 40
0.0839130223841461
 10
42.13940391080583
 20
0.0708045020157896
 30
0.0
 10
42.13823680822719
 20
0.112744777443849
 30
0.0
 10
42.13706970564856
 20
0.1546850528719084
 30
0.0
  0
SPLINE
  5
C6
330
1F
100
AcDbEntity
  8
MAKE2D VISIBLE LINES
100
AcDbSpline
210
0.0
220
0.0
230
1.0
 70
    12
 71
     2
 72
     6
 73
     3
 74
     0
 42
0.0000000001
 43
0.0000000001
 40
-0.8835729338221291
 40
-0.8835729338221291
 40
-0.8835729338221291
 40
0.0
 40
0.0
 40
0.0
 10
42.1370697036715
 20
0.1546850528959354
 30
0.0
 41
1.0
 10
42.13685214620813
 20
0.1625032762212801
 30
0.0
 41
0.7071067811865476
 10
42.69913447755781
 20
0.1781503159405826
 30
0.0
 41
1.0
  0
SPLINE
  5
C7
330
1F
100
AcDbEntity
  8
MAKE2D VISIBLE LINES
100
AcDbSpline
210
0.0
220
0.0
230
1.0
 70
    12
 71
     2
 72
     6
 73
     3
 74
     0
 42
0.0000000001
 43
0.0000000001
 40
-0.5626268167511917
 40
-0.5626268167511917
 40
-0.5626268167511917
 40
0.0
 40
0.0
 40
0.0
 10
42.69913447755781
 20
0.1781503159405826
 30
0.0
 41
1.0
 10
42.98027558865088
 20
0.1898844606226482
 30
0.0
 41
0.9996137062916401
 10
43.26163436834342
 20
0.1859791324716351
 30
0.0
 41
1.0
  0
SPLINE
  5
C8
330
1F
100
AcDbEntity
  8
MAKE2D VISIBLE LINES
100
AcDbSpline
210
0.0
220
0.0
230
1.0
 70
    24
 71
     2
 72
     6
 73
     3
 74
     0
 42
0.0000000001
 43
0.0000000001
 40
0.0
 40
0.0
 40
0.0
 40
0.0839130223841461
 40
0.0839130223841461
 40
0.0839130223841461
 10
43.26163436834342
 20
0.1859791324716351
 30
0.0
 10
43.26280147092206
 20
0.1440388570435758
 30
0.0
 10
43.2639685735007
 20
0.1020985816155164
 30
0.0
  0
SPLINE
  5
C9
330
1F
100
AcDbEntity
  8
MAKE2D VISIBLE LINES
100
AcDbSpline
210
0.0
220
0.0
230
1.0
 70
    12
 71
     2
 72
     6
 73
     3
 74
     0
 42
0.0000000001
 43
0.0000000001
 40
0.0
 40
0.0
 40
0.0
 40
0.0904048108433086
 40
0.0904048108433086
 40
0.0904048108433086
 10
43.2639685735007
 20
0.1020985816155164
 30
0.0
 41
1.0
 10
43.26553154292445
 20
0.0458436367175797
 30
0.0
 41
0.7293564259667926
 10
43.20949155116636
 20
0.0406879580384168
 30
0.0
 41
1.0
  0
SPLINE
  5
CA
330
1F
100
AcDbEntity
  8
MAKE2D VISIBLE LINES
100
AcDbSpline
210
0.0
220
0.0
230
1.0
 70
    12
 71
     3
 72
    36
 73
    32
 74
     0
 42
0.0000000001
 43
0.0000000001
 40
-0.0889457941897172
 40
-0.0889457941897172
 40
-0.0889457941897172
 40
-0.0889457941897172
 40
0.0
 40
0.0
 40
0.0
 40
0.2215729701957649
 40
0.2215729701957649
 40
0.2215729701957649
 40
0.3158714000432518
 40
0.3158714000432518
 40
0.3158714000432518
 40
0.7215575836071267
 40
0.7215575836071267
 40
0.9710263337659925
 40
0.9710263337659925
 40
1.222332614297898
 40
1.222332614297898
 40
1.222332614297898
 40
1.587029359019114
 40
1.587029359019114
 40
1.587029359019114
 40
1.628812051493471
 40
1.664042597137328
 40
1.68787289307827
 40
1.707876599877494
 40
1.707876599877494
 40
1.707876599877494
 40
1.947677305818644
 40
1.947677305818644
 40
1.947677305818644
 40
2.062852807233988
 40
2.062852807233988
 40
2.062852807233988
 40
2.062852807233988
 10
28.06182677797319
 20
17.1205499286931
 30
0.0
 41
1.0
 10
28.06696691327529
 20
17.15097237652878
 30
0.0
 41
0.924278334233492
 10
28.05744107543353
 20
17.18031866652686
 30
0.0
 41
0.924278334233492
 10
28.03541320137552
 20
17.20192234879917
 30
0.0
 41
1.0
 10
27.94940423494357
 20
17.23824439023696
 30
0.0
 41
1.0
 10
27.84627367066235
 20
17.28624017264634
 30
0.0
 41
1.0
 10
27.77439577565571
 20
17.30322609821267
 30
0.0
 41
1.0
 10
27.74380552525703
 20
17.31045507613807
 30
0.0
 41
1.0
 10
27.71321527485835
 20
17.31768405406348
 30
0.0
 41
1.0
 10
27.67445219411541
 20
17.32651012480429
 30
0.0
 41
1.0
 10
27.66335990528734
 20
17.32724738570355
 30
0.0
 41
1.0
 10
27.65496195897792
 20
17.31956702419183
 30
0.0
 41
1.0
 10
27.64564843587038
 20
17.29879181958419
 30
0.0
 41
1.0
 10
27.64305411189569
 20
17.28894305121616
 30
0.0
 41
1.0
 10
27.63955810864049
 20
17.26667488656028
 30
0.0
 41
1.0
 10
27.63863436584092
 20
17.25413381344913
 30
0.0
 41
1.0
 10
27.63865941067345
 20
17.24054067899784
 30
0.0
 41
1.0
 10
27.64165757386683
 20
17.11715083761452
 30
0.0
 41
0.9702102744834417
 10
27.60804916753257
 20
16.99838839842263
 30
0.0
 41
0.9702102744834417
 10
27.5408377472699
 20
16.89486706281778
 30
0.0
 41
1.0
 10
27.53357554090037
 20
16.88301263027817
 30
0.0
 41
1.0
 10
27.52185256424347
 20
16.85998605896417
 30
0.0
 41
1.0
 10
27.51204768911213
 20
16.82777982670915
 30
0.0
 41
1.0
 10
27.51304254998482
 20
16.8005470267607
 30
0.0
 41
1.0
 10
27.52400552873845
 20
16.78901485932554
 30
0.0
 41
1.0
 10
27.53038734742184
 20
16.78689780951874
 30
0.0
 41
1.0
 10
27.60490024925108
 20
16.75796335155532
 30
0.0
 41
1.0
 10
27.67941315108034
 20
16.7290288935919
 30
0.0
 41
1.0
 10
27.75392605290959
 20
16.70009443562848
 30
0.0
 41
1.0
 10
27.79128878968965
 20
16.69126500737839
 30
0.0
 41
1.0
 10
27.82865152646972
 20
16.68243557912831
 30
0.0
 41
1.0
 10
27.88743932415934
 20
16.67119256041643
 30
0.0
 41
1.0
  0
SPLINE
  5
CB
330
1F
100
AcDbEntity
  8
MAKE2D VISIBLE LINES
100
AcDbSpline
210
0.0
220
0.0
230
1.0
 70
    12
 71
     2
 72
     6
 73
     3
 74
     0
 42
0.0000000001
 43
0.0000000001
 40
0.0
 40
0.0
 40
0.0
 40
0.0849799967781024
 40
0.0849799967781024
 40
0.0849799967781024
 10
27.88743932415934
 20
16.67119256041643
 30
0.0
 41
1.0
 10
27.93322635013573
 20
16.67981936839157
 30
0.0
 41
0.8730054950337861
 10
27.94988530518841
 20
16.72333204217927
 30
0.0
 41
1.0
  0
SPLINE
  5
CC
330
1F
100
AcDbEntity
  8
MAKE2D VISIBLE LINES
100
AcDbSpline
210
0.0
220
0.0
230
1.0
 70
    24
 71
     2
 72
     6
 73
     3
 74
     0
 42
0.0000000001
 43
0.0000000001
 40
0.0
 40
0.0
 40
0.0
 40
6.257223026633629
 40
6.257223026633629
 40
6.257223026633629
 10
33.44039222895154
 20
15.66837190126259
 30
0.0
 10
36.55460023547488
 20
15.96823602609986
 30
0.0
 10
39.66880824199823
 20
16.26810015093713
 30
0.0
  0
SPLINE
  5
CD
330
1F
100
AcDbEntity
  8
MAKE2D VISIBLE LINES
100
AcDbSpline
210
0.0
220
0.0
230
1.0
 70
    24
 71
     2
 72
     6
 73
     3
 74
     0
 42
0.0000000001
 43
0.0000000001
 40
0.0
 40
0.0
 40
0.0
 40
1.29585246190359
 40
1.29585246190359
 40
1.29585246190359
 10
41.66888521224841
 20
17.45526450242895
 30
0.0
 10
41.02394190513662
 20
17.39316352524578
 30
0.0
 10
40.37899859802483
 20
17.33106254806262
 30
0.0
  0
SPLINE
  5
CE
330
1F
100
AcDbEntity
  8
MAKE2D VISIBLE LINES
100
AcDbSpline
210
0.0
220
0.0
230
1.0
 70
    24
 71
     2
 72
     6
 73
     3
 74
     0
 42
0.0000000001
 43
0.0000000001
 40
0.0
 40
0.0
 40
0.0
 40
6.125174616136164
 40
6.125174616136164
 40
6.125174616136164
 10
39.50820073669231
 20
17.24721425082246
 30
0.0
 10
36.45971297307376
 20
16.9536782656218
 30
0.0
 10
33.41122520945522
 20
16.66014228042114
 30
0.0
  0
SPLINE
  5
CF
330
1F
100
AcDbEntity
  8
MAKE2D VISIBLE LINES
100
AcDbSpline
210
0.0
220
0.0
230
1.0
 70
    24
 71
     2
 72
     6
 73
     3
 74
     0
 42
0.0000000001
 43
0.0000000001
 40
0.0
 40
0.0
 40
0.0
 40
1.281609588325501
 40
1.281609588325501
 40
1.281609588325501
 10
40.40756289131989
 20
16.33923413297182
 30
0.0
 10
41.04541754732496
 20
16.40065255068691
 30
0.0
 10
41.68327220333002
 20
16.46207096840201
 30
0.0
  0
SPLINE
  5
D0
330
1F
100
AcDbEntity
  8
MAKE2D VISIBLE LINES
100
AcDbSpline
210
0.0
220
0.0
230
1.0
 70
    24
 71
     2
 72
     6
 73
     3
 74
     0
 42
0.0000000001
 43
0.0000000001
 40
-0.0539779438293136
 40
-0.0539779438293136
 40
-0.0539779438293136
 40
0.0
 40
0.0
 40
0.0
 10
39.9410609843609
 20
17.03391842538412
 30
0.0
 10
39.96796264260581
 20
17.03651152260289
 30
0.0
 10
39.99486430085071
 20
17.03910461982165
 30
0.0
  0
SPLINE
  5
D1
330
1F
100
AcDbEntity
  8
MAKE2D VISIBLE LINES
100
AcDbSpline
210
0.0
220
0.0
230
1.0
 70
    12
 71
     3
 72
    12
 73
     8
 74
     0
 42
0.0000000001
 43
0.0000000001
 40
2.243370895977966
 40
2.243370895977966
 40
2.243370895977966
 40
2.243370895977966
 40
2.411132418445384
 40
2.411132418445384
 40
2.598945533022796
 40
2.598945533022796
 40
2.956562920478512
 40
2.956562920478512
 40
2.956562920478512
 40
2.956562920478512
 10
39.99486430085071
 20
17.03910461982165
 30
0.0
 41
1.0
 10
40.04973278039951
 20
17.04970466605161
 30
0.0
 41
1.0
 10
40.0913152574652
 20
17.07511734943991
 30
0.0
 41
1.0
 10
40.18342308791379
 20
17.14029258834125
 30
0.0
 41
1.0
 10
40.22275016595432
 20
17.17603852822774
 30
0.0
 41
1.0
 10
40.32889791883785
 20
17.27637931113176
 30
0.0
 41
1.0
 10
40.37899859802484
 20
17.3310625480626
 30
0.0
 41
1.0
 10
40.37899859802484
 20
17.3310625480626
 30
0.0
 41
1.0
  0
SPLINE
  5
D2
330
1F
100
AcDbEntity
  8
MAKE2D VISIBLE LINES
100
AcDbSpline
210
0.0
220
0.0
230
1.0
 70
    24
 71
     2
 72
     6
 73
     3
 74
     0
 42
0.0000000001
 43
0.0000000001
 40
0.0
 40
0.0
 40
0.0
 40
0.1838299925808962
 40
0.1838299925808962
 40
0.1838299925808962
 10
40.37899859802484
 20
17.3310625480626
 30
0.0
 10
40.37178703053206
 20
17.42269420109457
 30
0.0
 10
40.36457546303929
 20
17.51432585412653
 30
0.0
  0
SPLINE
  5
D3
330
1F
100
AcDbEntity
  8
MAKE2D VISIBLE LINES
100
AcDbSpline
210
0.0
220
0.0
230
1.0
 70
    12
 71
     3
 72
    10
 73
     6
 74
     0
 42
0.0000000001
 43
0.0000000001
 40
-2.775250769275885
 40
-2.775250769275885
 40
-2.775250769275885
 40
-2.775250769275885
 40
-2.081012583142561
 40
-2.081012583142561
 40
-1.386692026910074
 40
-1.386692026910074
 40
-1.386692026910074
 40
-1.386692026910074
 10
40.36457546303929
 20
17.51432585412653
 30
0.0
 41
1.0
 10
40.36268912152499
 20
17.53829409560946
 30
0.0
 41
1.0
 10
40.16500541840877
 20
17.54337344627316
 30
0.0
 41
1.0
 10
39.67802009278649
 20
17.4928284416376
 30
0.0
 41
1.0
 10
39.48554758163159
 20
17.44640675676733
 30
0.0
 41
1.0
 10
39.48839069368542
 20
17.42108421729582
 30
0.0
 41
1.0
  0
SPLINE
  5
D4
330
1F
100
AcDbEntity
  8
MAKE2D VISIBLE LINES
100
AcDbSpline
210
0.0
220
0.0
230
1.0
 70
    24
 71
     2
 72
     6
 73
     3
 74
     0
 42
0.0000000001
 43
0.0000000001
 40
0.0
 40
0.0
 40
0.0
 40
0.1749908903973856
 40
0.1749908903973856
 40
0.1749908903973856
 10
39.48839069368542
 20
17.42108421729582
 30
0.0
 10
39.49829568576733
 20
17.33414920308495
 30
0.0
 10
39.50820067784924
 20
17.24721418887408
 30
0.0
  0
SPLINE
  5
D5
330
1F
100
AcDbEntity
  8
MAKE2D VISIBLE LINES
100
AcDbSpline
210
0.0
220
0.0
230
1.0
 70
    12
 71
     3
 72
    12
 73
     8
 74
     0
 42
0.0000000001
 43
0.0000000001
 40
1.478228585923088
 40
1.478228585923088
 40
1.478228585923088
 40
1.478228585923088
 40
1.83510889902099
 40
1.83510889902099
 40
2.024274150332355
 40
2.024274150332355
 40
2.190798913240323
 40
2.190798913240323
 40
2.190798913240323
 40
2.190798913240323
 10
39.50820074833934
 20
17.24721412986332
 30
0.0
 41
1.0
 10
39.50827668290199
 20
17.24715517293359
 30
0.0
 41
1.0
 10
39.56775702733828
 20
17.20314516574151
 30
0.0
 41
1.0
 10
39.69125242677615
 20
17.1247854421884
 30
0.0
 41
1.0
 10
39.7370037217805
 20
17.09697704567795
 30
0.0
 41
1.0
 10
39.84009521753084
 20
17.05065595671047
 30
0.0
 41
1.0
 10
39.88554796938658
 20
17.03385690684976
 30
0.0
 41
1.0
 10
39.9410609843609
 20
17.03391842538412
 30
0.0
 41
1.0
  0
SPLINE
  5
D6
330
1F
100
AcDbEntity
  8
MAKE2D VISIBLE LINES
100
AcDbSpline
210
0.0
220
0.0
230
1.0
 70
    12
 71
     2
 72
     6
 73
     3
 74
     0
 42
0.0000000001
 43
0.0000000001
 40
0.0
 40
0.0
 40
0.0
 40
15.91655586801872
 40
15.91655586801872
 40
15.91655586801872
 10
7.946375404097083
 20
16.71590516377492
 30
0.0
 41
1.0
 10
0.0001772139809409
 20
15.95512272373074
 30
0.0
 41
0.9954481862522884
 10
-7.946023395003836
 20
16.71587989882316
 30
0.0
 41
1.0
  0
SPLINE
  5
D7
330
1F
100
AcDbEntity
  8
MAKE2D VISIBLE LINES
100
AcDbSpline
210
0.0
220
0.0
230
1.0
 70
    12
 71
     2
 72
     6
 73
     3
 74
     0
 42
0.0000000001
 43
0.0000000001
 40
0.0
 40
0.0
 40
0.0
 40
7.680773469173904
 40
7.680773469173904
 40
7.680773469173904
 10
3.83411556613216
 20
16.15162114297163
 30
0.0
 41
1.0
 10
0.0000785880988056
 20
15.76838105316487
 30
0.0
 41
0.9950413933731445
 10
-3.83395838993455
 20
16.15162114297163
 30
0.0
 41
1.0
  0
SPLINE
  5
D8
330
1F
100
AcDbEntity
  8
MAKE2D VISIBLE LINES
100
AcDbSpline
210
0.0
220
0.0
230
1.0
 70
    12
 71
     2
 72
     6
 73
     3
 74
     0
 42
0.0000000001
 43
0.0000000001
 40
0.0
 40
0.0
 40
0.0
 40
7.679978169176025
 40
7.679978169176025
 40
7.679978169176025
 10
3.833646442870821
 20
16.34049807507206
 30
0.0
 41
1.0
 10
0.0000785880988189
 20
15.95511869043655
 30
0.0
 41
0.9949850785804287
 10
-3.833489266673181
 20
16.34049807507206
 30
0.0
 41
1.0
  0
SPLINE
  5
D9
330
1F
100
AcDbEntity
  8
MAKE2D VISIBLE LINES
100
AcDbSpline
210
0.0
220
0.0
230
1.0
 70
    12
 71
     2
 72
     6
 73
     3
 74
     0
 42
0.0000000001
 43
0.0000000001
 40
-1.159140194503718
 40
-1.159140194503718
 40
-1.159140194503718
 40
0.0
 40
0.0
 40
0.0
 10
-8.501339865335092
 20
18.49689527264023
 30
0.0
 41
1.0
 10
-8.20033152494412
 20
19.00738266576521
 30
0.0
 41
0.9672838163369827
 10
-7.687292469273153
 20
19.30456946681521
 30
0.0
 41
1.0
  0
SPLINE
  5
DA
330
1F
100
AcDbEntity
  8
MAKE2D VISIBLE LINES
100
AcDbSpline
210
0.0
220
0.0
230
1.0
 70
     8
 71
     3
 72
    12
 73
     8
 74
     0
 42
0.0000000001
 43
0.0000000001
 40
-7.894681883043148
 40
-7.894681883043148
 40
-7.894681883043148
 40
-7.894681883043148
 40
-4.89328680666405
 40
-3.607507320650333
 40
-2.584983022344898
 40
-1.409468345024047
 40
0.0
 40
0.0
 40
0.0
 40
0.0
 10
-7.687292469273153
 20
19.30456946681521
 30
0.0
 10
-6.830430157696894
 20
19.83044753251617
 30
0.0
 10
-5.443171635545982
 20
20.25225775873664
 30
0.0
 10
-3.68954478028818
 20
20.47202703704514
 30
0.0
 10
-2.532892209525697
 20
20.58802254629132
 30
0.0
 10
-1.331581759571784
 20
20.64098293152931
 30
0.0
 10
-0.4697858141703474
 20
20.65164279685978
 30
0.0
 10
0.0
 20
20.6509019585564
 30
0.0
  0
SPLINE
  5
DB
330
1F
100
AcDbEntity
  8
MAKE2D VISIBLE LINES
100
AcDbSpline
210
0.0
220
0.0
230
1.0
 70
     8
 71
     3
 72
    12
 73
     8
 74
     0
 42
0.0000000001
 43
0.0000000001
 40
0.0
 40
0.0
 40
0.0
 40
0.0
 40
1.409468345024047
 40
2.584983022344898
 40
3.607507320650333
 40
4.89328680666405
 40
7.894681883043148
 40
7.894681883043148
 40
7.894681883043148
 40
7.894681883043148
 10
0.0
 20
20.6509019585564
 30
0.0
 10
0.4697858141703474
 20
20.65164279685978
 30
0.0
 10
1.331581759571784
 20
20.64098293152931
 30
0.0
 10
2.532892209525697
 20
20.58802254629132
 30
0.0
 10
3.68954478028818
 20
20.47202703704514
 30
0.0
 10
5.443171635545982
 20
20.25225775873664
 30
0.0
 10
6.830430157696894
 20
19.83044753251617
 30
0.0
 10
7.687292469273153
 20
19.30456946681521
 30
0.0
  0
SPLINE
  5
DC
330
1F
100
AcDbEntity
  8
MAKE2D VISIBLE LINES
100
AcDbSpline
210
0.0
220
0.0
230
1.0
 70
    12
 71
     2
 72
     6
 73
     3
 74
     0
 42
0.0000000001
 43
0.0000000001
 40
0.0
 40
0.0
 40
0.0
 40
1.159140194503718
 40
1.159140194503718
 40
1.159140194503718
 10
7.687292469273153
 20
19.30456946681521
 30
0.0
 41
1.0
 10
8.20033152494412
 20
19.00738266576521
 30
0.0
 41
0.9672838163369827
 10
8.501339865335092
 20
18.49689527264023
 30
0.0
 41
1.0
  0
SPLINE
  5
DD
330
1F
100
AcDbEntity
  8
MAKE2D VISIBLE LINES
100
AcDbSpline
210
0.0
220
0.0
230
1.0
 70
    12
 71
     3
 72
    27
 73
    23
 74
     0
 42
0.0000000001
 43
0.0000000001
 40
0.0
 40
0.0
 40
0.0
 40
0.0
 40
1.244728433228314
 40
1.244728433228314
 40
1.244728433228314
 40
1.870401398594343
 40
1.870401398594343
 40
1.870401398594343
 40
4.920229152264927
 40
4.920229152264927
 40
4.920229152264927
 40
5.772800495400565
 40
6.586620086222773
 40
8.673929290600562
 40
8.673929290600562
 40
8.673929290600562
 40
9.446987305907031
 40
10.18186587578625
 40
11.72195382020863
 40
14.37741709520271
 40
14.41934725534845
 40
14.5374141795705
 40
14.5374141795705
 40
14.5374141795705
 40
14.5374141795705
 10
-9.812024206979089
 20
17.95691271814449
 30
0.0
 41
1.0
 10
-9.805078233260309
 20
18.37176505723175
 30
0.0
 41
0.9999951491592268
 10
-9.799715950733708
 20
18.78723809191682
 30
0.0
 41
0.9999951491592268
 10
-9.79593743743402
 20
19.20332577601907
 30
0.0
 41
1.0
 10
-9.794564521912566
 20
19.41307461779935
 30
0.0
 41
0.9999875412613548
 10
-9.791884196796378
 20
19.62393715285677
 30
0.0
 41
0.9999875412613548
 10
-9.787896562265871
 20
19.83590549994768
 30
0.0
 41
1.0
 10
-9.768280953900666
 20
20.85577304864138
 30
0.0
 41
0.9999999998608998
 10
-9.748677668334178
 20
21.87392689826542
 30
0.0
 41
0.9999999998608998
 10
-9.72908670557459
 20
22.89036704839491
 30
0.0
 41
1.0
 10
-9.725643444996125
 20
23.17458115165922
 30
0.0
 41
1.0
 10
-9.716479212786098
 20
23.72994020667396
 30
0.0
 41
1.0
 10
-9.676628460264677
 20
24.98066585107565
 30
0.0
 41
1.0
 10
-9.608675387058055
 20
25.94554014077119
 30
0.0
 41
1.0
 10
-9.572498973225377
 20
26.64042143435345
 30
0.0
 41
1.0
 10
-9.557521082863406
 20
26.89775152697602
 30
0.0
 41
1.0
 10
-9.524251207213506
 20
27.39933947303594
 30
0.0
 41
1.0
 10
-9.440331821555226
 20
28.41186658455564
 30
0.0
 41
1.0
 10
-9.26597286477488
 20
30.04634182362106
 30
0.0
 41
1.0
 10
-9.065159534871437
 20
31.4446557127379
 30
0.0
 41
1.0
 10
-8.930197656893572
 20
32.37337679643962
 30
0.0
 41
1.0
 10
-8.878777845047987
 20
32.44837552367935
 30
0.0
 41
1.0
 10
-8.849998081824591
 20
32.47393965815978
 30
0.0
 41
1.0
  0
SPLINE
  5
DE
330
1F
100
AcDbEntity
  8
MAKE2D VISIBLE LINES
100
AcDbSpline
210
0.0
220
0.0
230
1.0
 70
     8
 71
     3
 72
    14
 73
    10
 74
     0
 42
0.0000000001
 43
0.0000000001
 40
0.0
 40
0.0
 40
0.0
 40
0.0
 40
0.0559075622214563
 40
0.0815199279409795
 40
0.1553079131419963
 40
0.1666624510078076
 40
2.770559133715509
 40
4.914447712395043
 40
8.877532991886884
 40
8.877532991886884
 40
8.877532991886884
 40
8.877532991886884
 10
-8.849998081824591
 20
32.47393965815978
 30
0.0
 10
-8.836294188102382
 20
32.48611238450574
 30
0.0
 10
-8.783619928427889
 20
32.52011930853569
 30
0.0
 10
-8.7339813650184
 20
32.53229133362384
 30
0.0
 10
-8.696315743605833
 20
32.53758438512236
 30
0.0
 10
-7.810853097720901
 20
32.39923973820823
 30
0.0
 10
-6.244612968252638
 20
32.14378194631692
 30
0.0
 10
-3.356268677821296
 20
31.83771068081702
 30
0.0
 10
-1.321165740089867
 20
31.74691235613956
 30
0.0
 10
0.0
 20
31.74689456168725
 30
0.0
  0
SPLINE
  5
DF
330
1F
100
AcDbEntity
  8
MAKE2D VISIBLE LINES
100
AcDbSpline
210
0.0
220
0.0
230
1.0
 70
     8
 71
     3
 72
    14
 73
    10
 74
     0
 42
0.0000000001
 43
0.0000000001
 40
-8.877532991886884
 40
-8.877532991886884
 40
-8.877532991886884
 40
-8.877532991886884
 40
-4.914447712395043
 40
-2.770559133715509
 40
-0.1666624510078076
 40
-0.1553079131419963
 40
-0.0815199279409795
 40
-0.0559075622214563
 40
0.0
 40
0.0
 40
0.0
 40
0.0
 10
0.0
 20
31.74689456168725
 30
0.0
 10
1.321165740089867
 20
31.74691235613956
 30
0.0
 10
3.356268677821296
 20
31.83771068081702
 30
0.0
 10
6.244612968252638
 20
32.14378194631692
 30
0.0
 10
7.810853097720901
 20
32.39923973820823
 30
0.0
 10
8.696315743605833
 20
32.53758438512236
 30
0.0
 10
8.7339813650184
 20
32.53229133362384
 30
0.0
 10
8.783619928427889
 20
32.52011930853569
 30
0.0
 10
8.836294188102382
 20
32.48611238450574
 30
0.0
 10
8.849998081824591
 20
32.47393965815978
 30
0.0
  0
SPLINE
  5
E0
330
1F
100
AcDbEntity
  8
MAKE2D VISIBLE LINES
100
AcDbSpline
210
0.0
220
0.0
230
1.0
 70
    12
 71
     3
 72
    27
 73
    23
 74
     0
 42
0.0000000001
 43
0.0000000001
 40
-14.5374141795705
 40
-14.5374141795705
 40
-14.5374141795705
 40
-14.5374141795705
 40
-14.41934725534845
 40
-14.37741709520271
 40
-11.72195382020863
 40
-10.18186587578625
 40
-9.446987305907031
 40
-8.673929290600562
 40
-8.673929290600562
 40
-8.673929290600562
 40
-6.586620086222773
 40
-5.772800495400565
 40
-4.920229152264927
 40
-4.920229152264927
 40
-4.920229152264927
 40
-1.870401398594343
 40
-1.870401398594343
 40
-1.870401398594343
 40
-1.244728433228314
 40
-1.244728433228314
 40
-1.244728433228314
 40
0.0
 40
0.0
 40
0.0
 40
0.0
 10
8.849998081824591
 20
32.47393965815978
 30
0.0
 41
1.0
 10
8.878777845047987
 20
32.44837552367935
 30
0.0
 41
1.0
 10
8.930197656893572
 20
32.37337679643962
 30
0.0
 41
1.0
 10
9.065159534871437
 20
31.4446557127379
 30
0.0
 41
1.0
 10
9.26597286477488
 20
30.04634182362106
 30
0.0
 41
1.0
 10
9.440331821555226
 20
28.41186658455564
 30
0.0
 41
1.0
 10
9.524251207213506
 20
27.39933947303594
 30
0.0
 41
1.0
 10
9.557521082863406
 20
26.89775152697602
 30
0.0
 41
1.0
 10
9.572498973225377
 20
26.64042143435345
 30
0.0
 41
1.0
 10
9.608675387058055
 20
25.94554014077119
 30
0.0
 41
1.0
 10
9.676628460264677
 20
24.98066585107565
 30
0.0
 41
1.0
 10
9.716479212786098
 20
23.72994020667396
 30
0.0
 41
1.0
 10
9.725643444996125
 20
23.17458115165922
 30
0.0
 41
1.0
 10
9.72908670557459
 20
22.89036704839491
 30
0.0
 41
1.0
 10
9.748677668334178
 20
21.87392689826542
 30
0.0
 41
0.9999999998608998
 10
9.768280953900666
 20
20.85577304864138
 30
0.0
 41
0.9999999998608998
 10
9.787896562265871
 20
19.83590549994768
 30
0.0
 41
1.0
 10
9.791884196796378
 20
19.62393715285677
 30
0.0
 41
0.9999875412613548
 10
9.794564521912566
 20
19.41307461779935
 30
0.0
 41
0.9999875412613548
 10
9.79593743743402
 20
19.20332577601907
 30
0.0
 41
1.0
 10
9.799715950733708
 20
18.78723809191682
 30
0.0
 41
0.9999951491592268
 10
9.805078233260309
 20
18.37176505723175
 30
0.0
 41
0.9999951491592268
 10
9.812024206979089
 20
17.95691271814449
 30
0.0
 41
1.0
  0
SPLINE
  5
E1
330
1F
100
AcDbEntity
  8
DEFAULT
100
AcDbSpline
210
0.0
220
0.0
230
1.0
 70
     8
 71
     3
 72
    12
 73
     8
 74
     0
 42
0.0000000001
 43
0.0000000001
 40
0.0
 40
0.0
 40
0.0
 40
0.0
 40
1.45186367659028
 40
2.488811453363902
 40
4.456822206700376
 40
6.316482208258889
 40
8.273460492208956
 40
8.273460492208956
 40
8.273460492208956
 40
8.273460492208956
 10
0.0
 20
16.67654286542395
 30
0.0
 10
0.4839459175036736
 20
16.67664223995691
 30
0.0
 10
1.313566582974555
 20
16.67705223052543
 30
0.0
 10
2.798964872517368
 20
16.70533044897741
 30
0.0
 10
4.418714451993215
 20
16.79016139572363
 30
0.0
 10
6.337074728512439
 20
16.99310696022101
 30
0.0
 10
7.591564885943434
 20
17.20846674370148
 30
0.0
 10
8.233148946578854
 20
17.32571886731488
 30
0.0
  0
SPLINE
  5
E2
330
1F
100
AcDbEntity
  8
DEFAULT
100
AcDbSpline
210
0.0
220
0.0
230
1.0
 70
     8
 71
     3
 72
    11
 73
     7
 74
     0
 42
0.0000000001
 43
0.0000000001
 40
-0.6678296448444616
 40
-0.6678296448444616
 40
-0.6678296448444616
 40
-0.6678296448444616
 40
-0.3055450446207338
 40
-0.1449430031713405
 40
-0.0723027297364637
 40
0.0
 40
0.0
 40
0.0
 40
0.0
 10
8.233148946578854
 20
17.32571886731488
 30
0.0
 10
8.351543239031747
 20
17.34791144208856
 30
0.0
 10
8.5191172676018
 20
17.40869838252431
 30
0.0
 10
8.672781955570706
 20
17.53730059164565
 30
0.0
 10
8.7339036353653
 20
17.61929520207179
 30
0.0
 10
8.755329441315611
 20
17.66283213050841
 30
0.0
 10
8.763609142001986
 20
17.68547857180186
 30
0.0
  0
SPLINE
  5
E3
330
1F
100
AcDbEntity
  8
DEFAULT
100
AcDbSpline
210
0.0
220
0.0
230
1.0
 70
    12
 71
     5
 72
    42
 73
    36
 74
     0
 42
0.0000000001
 43
0.0000000001
 40
0.0
 40
0.0
 40
0.0
 40
0.0
 40
0.0
 40
0.0
 40
0.2855995164709133
 40
0.2855995164709133
 40
0.2855995164709133
 40
0.2855995164709133
 40
0.2855995164709133
 40
0.6563088386039608
 40
0.6563088386039608
 40
0.6563088386039608
 40
0.6563088386039608
 40
0.6563088386039608
 40
1.656308838603961
 40
1.656308838603961
 40
1.656308838603961
 40
1.656308838603961
 40
1.656308838603961
 40
2.019952292718224
 40
2.019952292718224
 40
2.019952292718224
 40
2.790692718633749
 40
2.790692718633749
 40
2.790692718633749
 40
3.93495942312767
 40
3.93495942312767
 40
3.93495942312767
 40
5.747266165788471
 40
5.747266165788471
 40
5.747266165788471
 40
8.068508251492666
 40
8.068508251492666
 40
8.068508251492666
 40
10.53337729089963
 40
10.53337729089963
 40
10.53337729089963
 40
10.53337729089963
 40
10.53337729089963
 40
10.53337729089963
 10
8.763609142001986
 20
17.68547857180186
 30
0.0
 41
1.0
 10
8.783222865465548
 20
17.73912556385973
 30
0.0
 41
0.9999866190723671
 10
8.814582317511219
 20
17.88040435360112
 30
0.0
 41
0.9999799286085507
 10
8.82876919022291
 20
17.9357350796919
 30
0.0
 41
0.9999799286085507
 10
8.843177705574414
 20
17.99100841354165
 30
0.0
 41
0.9999866190723672
 10
8.857807569918098
 20
18.0462232468896
 30
0.0
 41
1.0
 10
8.879467321616305
 20
18.11713704913844
 30
0.0
 41
0.9994874743699717
 10
8.899334071700721
 20
18.18858907675794
 30
0.0
 41
0.9992312125689933
 10
8.917391155538002
 20
18.2605247698725
 30
0.0
 41
0.9992312145970651
 10
8.933624683888315
 20
18.33288879657202
 30
0.0
 41
0.9994874804541871
 10
8.948023578498404
 20
18.40562519470755
 30
0.0
 41
1.000000010140359
 10
8.95640818283386
 20
18.44798024595748
 30
0.0
 41
1.000000010140359
 10
8.964169939855804
 20
18.49045859603791
 30
0.0
 41
1.000000010140359
 10
8.88889090405955
 20
18.58965062365179
 30
0.0
 41
1.000000010140359
 10
8.847192429845421
 20
18.57843904835054
 30
0.0
 41
1.000000010140359
 10
8.805379615553713
 20
18.56767148050757
 30
0.0
 41
1.000000010140359
 10
8.734953966414617
 20
18.54953558203157
 30
0.0
 41
1.000000010140359
 10
8.664212857394457
 20
18.53266157975544
 30
0.0
 41
1.000000010140359
 10
8.593251289055369
 20
18.51668710229251
 30
0.0
 41
1.000000010140359
 10
8.371495674580693
 20
18.46853044956152
 30
0.0
 41
1.000000010140359
 10
8.149443663857799
 20
18.42207464422034
 30
0.0
 41
1.000000010140359
 10
7.998467356537445
 20
18.39108018727798
 30
0.0
 41
1.000000010140359
 10
7.623158175948246
 20
18.31494827049202
 30
0.0
 41
1.000000010140359
 10
7.247568960845044
 20
18.23966480088159
 30
0.0
 41
1.000000010140359
 10
7.022929151164303
 20
18.19574753102667
 30
0.0
 41
1.000000010140359
 10
6.441646375835044
 20
18.08700234496977
 30
0.0
 41
1.000000010140359
 10
5.857383330354809
 20
17.99557392838119
 30
0.0
 41
1.000000010140359
 10
5.498316336436149
 20
17.94562782129714
 30
0.0
 41
1.000000010140359
 10
4.677668764260282
 20
17.844682828188
 30
0.0
 41
1.000000010140359
 10
3.85418715405732
 20
17.77119799848617
 30
0.0
 41
1.000000010140359
 10
3.391090542119904
 20
17.73738011571381
 30
0.0
 41
1.000000010140359
 10
2.435360119608289
 20
17.68051207853056
 30
0.0
 41
1.000000010140359
 10
1.478798252914011
 20
17.64501086093511
 30
0.0
 41
1.000000010140359
 10
0.9859866139149623
 20
17.63270834581613
 30
0.0
 41
1.000000010140359
 10
0.4930396612702577
 20
17.62670026312193
 30
0.0
 41
1.000000010140359
 10
0.0
 20
17.62730027155802
 30
0.0
 41
1.000000010140359
  0
SPLINE
  5
E4
330
1F
100
AcDbEntity
  8
DEFAULT
100
AcDbSpline
210
0.0
220
0.0
230
1.0
 70
    12
 71
     5
 72
    42
 73
    36
 74
     0
 42
0.0000000001
 43
0.0000000001
 40
-10.53337729089963
 40
-10.53337729089963
 40
-10.53337729089963
 40
-10.53337729089963
 40
-10.53337729089963
 40
-10.53337729089963
 40
-8.068508251492666
 40
-8.068508251492666
 40
-8.068508251492666
 40
-5.747266165788471
 40
-5.747266165788471
 40
-5.747266165788471
 40
-3.93495942312767
 40
-3.93495942312767
 40
-3.93495942312767
 40
-2.790692718633749
 40
-2.790692718633749
 40
-2.790692718633749
 40
-2.019952292718224
 40
-2.019952292718224
 40
-2.019952292718224
 40
-1.656308838603961
 40
-1.656308838603961
 40
-1.656308838603961
 40
-1.656308838603961
 40
-1.656308838603961
 40
-0.6563088386039608
 40
-0.6563088386039608
 40
-0.6563088386039608
 40
-0.6563088386039608
 40
-0.6563088386039608
 40
-0.2855995164709133
 40
-0.2855995164709133
 40
-0.2855995164709133
 40
-0.2855995164709133
 40
-0.2855995164709133
 40
0.0
 40
0.0
 40
0.0
 40
0.0
 40
0.0
 40
0.0
 10
0.0
 20
17.62730027155802
 30
0.0
 41
1.000000010140359
 10
-0.4930396612702577
 20
17.62670026312193
 30
0.0
 41
1.000000010140359
 10
-0.9859866139149623
 20
17.63270834581613
 30
0.0
 41
1.000000010140359
 10
-1.478798252914011
 20
17.64501086093511
 30
0.0
 41
1.000000010140359
 10
-2.435360119608289
 20
17.68051207853056
 30
0.0
 41
1.000000010140359
 10
-3.391090542119904
 20
17.73738011571381
 30
0.0
 41
1.000000010140359
 10
-3.85418715405732
 20
17.77119799848617
 30
0.0
 41
1.000000010140359
 10
-4.677668764260282
 20
17.844682828188
 30
0.0
 41
1.000000010140359
 10
-5.498316336436149
 20
17.94562782129714
 30
0.0
 41
1.000000010140359
 10
-5.857383330354809
 20
17.99557392838119
 30
0.0
 41
1.000000010140359
 10
-6.441646375835044
 20
18.08700234496977
 30
0.0
 41
1.000000010140359
 10
-7.022929151164303
 20
18.19574753102667
 30
0.0
 41
1.000000010140359
 10
-7.247568960845044
 20
18.23966480088159
 30
0.0
 41
1.000000010140359
 10
-7.623158175948246
 20
18.31494827049202
 30
0.0
 41
1.000000010140359
 10
-7.998467356537445
 20
18.39108018727798
 30
0.0
 41
1.000000010140359
 10
-8.149443663857799
 20
18.42207464422034
 30
0.0
 41
1.000000010140359
 10
-8.371495674580693
 20
18.46853044956152
 30
0.0
 41
1.000000010140359
 10
-8.593251289055369
 20
18.51668710229251
 30
0.0
 41
1.000000010140359
 10
-8.664212857394457
 20
18.53266157975544
 30
0.0
 41
1.000000010140359
 10
-8.734953966414617
 20
18.54953558203157
 30
0.0
 41
1.000000010140359
 10
-8.805379615553713
 20
18.56767148050757
 30
0.0
 41
1.000000010140359
 10
-8.847192429845421
 20
18.57843904835054
 30
0.0
 41
1.000000010140359
 10
-8.88889090405955
 20
18.58965062365179
 30
0.0
 41
1.000000010140359
 10
-8.964169939855804
 20
18.49045859603791
 30
0.0
 41
1.000000010140359
 10
-8.95640818283386
 20
18.44798024595748
 30
0.0
 41
1.000000010140359
 10
-8.948023578498404
 20
18.40562519470755
 30
0.0
 41
1.000000010140359
 10
-8.933624683888315
 20
18.33288879657202
 30
0.0
 41
0.9994874804541871
 10
-8.917391155538002
 20
18.2605247698725
 30
0.0
 41
0.9992312145970651
 10
-8.899334071700721
 20
18.18858907675794
 30
0.0
 41
0.9992312125689933
 10
-8.879467321616305
 20
18.11713704913844
 30
0.0
 41
0.9994874743699717
 10
-8.857807569918098
 20
18.0462232468896
 30
0.0
 41
1.0
 10
-8.843177705574414
 20
17.99100841354165
 30
0.0
 41
0.9999866190723672
 10
-8.82876919022291
 20
17.9357350796919
 30
0.0
 41
0.9999799286085507
 10
-8.814582317511219
 20
17.88040435360112
 30
0.0
 41
0.9999799286085507
 10
-8.783222865465548
 20
17.73912556385973
 30
0.0
 41
0.9999866190723671
 10
-8.763609142001986
 20
17.68547857180186
 30
0.0
 41
1.0
  0
SPLINE
  5
E5
330
1F
100
AcDbEntity
  8
DEFAULT
100
AcDbSpline
210
0.0
220
0.0
230
1.0
 70
     8
 71
     3
 72
    11
 73
     7
 74
     0
 42
0.0000000001
 43
0.0000000001
 40
0.0
 40
0.0
 40
0.0
 40
0.0
 40
0.0723027297364637
 40
0.1449430031713405
 40
0.3055450446207338
 40
0.6678296448444616
 40
0.6678296448444616
 40
0.6678296448444616
 40
0.6678296448444616
 10
-8.763609142001986
 20
17.68547857180186
 30
0.0
 10
-8.755329441315611
 20
17.66283213050841
 30
0.0
 10
-8.7339036353653
 20
17.61929520207179
 30
0.0
 10
-8.672781955570706
 20
17.53730059164565
 30
0.0
 10
-8.5191172676018
 20
17.40869838252431
 30
0.0
 10
-8.351543239031747
 20
17.34791144208856
 30
0.0
 10
-8.233148946578854
 20
17.32571886731488
 30
0.0
  0
SPLINE
  5
E6
330
1F
100
AcDbEntity
  8
DEFAULT
100
AcDbSpline
210
0.0
220
0.0
230
1.0
 70
     8
 71
     3
 72
    12
 73
     8
 74
     0
 42
0.0000000001
 43
0.0000000001
 40
-8.273460492208956
 40
-8.273460492208956
 40
-8.273460492208956
 40
-8.273460492208956
 40
-6.316482208258889
 40
-4.456822206700376
 40
-2.488811453363902
 40
-1.45186367659028
 40
0.0
 40
0.0
 40
0.0
 40
0.0
 10
-8.233148946578854
 20
17.32571886731488
 30
0.0
 10
-7.591564885943434
 20
17.20846674370148
 30
0.0
 10
-6.337074728512439
 20
16.99310696022101
 30
0.0
 10
-4.418714451993215
 20
16.79016139572363
 30
0.0
 10
-2.798964872517368
 20
16.70533044897741
 30
0.0
 10
-1.313566582974555
 20
16.67705223052543
 30
0.0
 10
-0.4839459175036736
 20
16.67664223995691
 30
0.0
 10
0.0
 20
16.67654286542395
 30
0.0
  0
SPLINE
  5
E7
330
1F
100
AcDbEntity
  8
MAKE2D VISIBLE LINES
100
AcDbSpline
210
0.0
220
0.0
230
1.0
 70
     8
 71
     2
 72
    11
 73
     8
 74
     0
 42
0.0000000001
 43
0.0000000001
 40
0.0
 40
0.0
 40
0.0
 40
1.0
 40
2.0
 40
3.0
 40
4.0
 40
5.0
 40
6.0
 40
6.0
 40
6.0
 10
8.176273669141636
 20
0.1625193447034521
 30
0.0
 10
8.26968360402873
 20
0.1716136120374464
 30
0.0
 10
8.457048704637886
 20
0.1829681730595324
 30
0.0
 10
8.64470355399548
 20
0.1869757944380247
 30
0.0
 10
8.832389058408115
 20
0.1864483340951451
 30
0.0
 10
9.020022085220845
 20
0.1908853354190592
 30
0.0
 10
9.2077228148038
 20
0.1874516050915349
 30
0.0
 10
9.301164913756498
 20
0.1781557913541398
 30
0.0
  0
SPLINE
  5
E8
330
1F
100
AcDbEntity
  8
MAKE2D VISIBLE LINES
100
AcDbSpline
210
0.0
220
0.0
230
1.0
 70
    12
 71
     2
 72
     6
 73
     3
 74
     0
 42
0.0000000001
 43
0.0000000001
 40
0.0
 40
0.0
 40
0.0
 40
0.5069875979584633
 40
0.5069875979584633
 40
0.5069875979584633
 10
8.234431874824388
 20
0.0195711174873248
 30
0.0
 41
1.0
 10
8.486988453746715
 20
0.0441985981836849
 30
0.0
 41
0.9984597417000961
 10
8.74072275850097
 20
0.040693489475495
 30
0.0
 41
1.0
  0
SPLINE
  5
E9
330
1F
100
AcDbEntity
  8
MAKE2D VISIBLE LINES
100
AcDbSpline
210
0.0
220
0.0
230
1.0
 70
    12
 71
     2
 72
     6
 73
     3
 74
     0
 42
0.0000000001
 43
0.0000000001
 40
0.0
 40
0.0
 40
0.0
 40
0.5065890987312437
 40
0.5065890987312437
 40
0.5065890987312437
 10
8.74072275850097
 20
0.040693489475495
 30
0.0
 41
1.0
 10
8.994062410834788
 20
0.0512669135199976
 30
0.0
 41
0.9984529850107059
 10
9.247005581609013
 20
0.0336463043006566
 30
0.0
 41
1.0
  0
SPLINE
  5
EA
330
1F
100
AcDbEntity
  8
MAKE2D VISIBLE LINES
100
AcDbSpline
210
0.0
220
0.0
230
1.0
 70
    12
 71
     2
 72
     6
 73
     3
 74
     0
 42
0.0000000001
 43
0.0000000001
 40
0.0
 40
0.0
 40
0.0
 40
0.0437713866611207
 40
0.0437713866611207
 40
0.0437713866611207
 10
8.974646552743373
 20
0.0173695236833032
 30
0.0
 41
1.0
 10
8.98989690606149
 20
-0.0003926996203261
 30
0.0
 41
0.9050810086732575
 10
9.017077161882934
 20
0.0000693463675743
 30
0.0
 41
1.0
  0
SPLINE
  5
EB
330
1F
100
AcDbEntity
  8
MAKE2D VISIBLE LINES
100
AcDbSpline
210
0.0
220
0.0
230
1.0
 70
     8
 71
     3
 72
    10
 73
     6
 74
     0
 42
0.0000000001
 43
0.0000000001
 40
0.0
 40
0.0
 40
0.0
 40
0.0
 40
0.0051614376977276
 40
0.0076964859399531
 40
0.5184066067045295
 40
0.5184066067045295
 40
0.5184066067045295
 40
0.5184066067045295
 10
9.017077161882934
 20
0.0000693463675743
 30
0.0
 10
9.02396858734003
 20
0.0001816331211356
 30
0.0
 10
9.010504651860918
 20
-0.0000376096013241
 30
0.0
 10
9.18138027403392
 20
0.0027402190062556
 30
0.0
 10
9.35417496077946
 20
0.0055504775875407
 30
0.0
 10
9.525635883920387
 20
0.0083386225390382
 30
0.0
  0
SPLINE
  5
EC
330
1F
100
AcDbEntity
  8
MAKE2D VISIBLE LINES
100
AcDbSpline
210
0.0
220
0.0
230
1.0
 70
    12
 71
     2
 72
     6
 73
     3
 74
     0
 42
0.0000000001
 43
0.0000000001
 40
0.0
 40
0.0
 40
0.0
 40
0.5099198703305488
 40
0.5099198703305488
 40
0.5099198703305488
 10
9.525635883920387
 20
0.0083386225390382
 30
0.0
 41
1.0
 10
9.782400896350724
 20
0.0125138069040774
 30
0.0
 41
0.9999999999963927
 10
10.03764477969748
 20
0.0166656113527158
 30
0.0
 41
1.0
  0
SPLINE
  5
ED
330
1F
100
AcDbEntity
  8
MAKE2D VISIBLE LINES
100
AcDbSpline
210
0.0
220
0.0
230
1.0
 70
    12
 71
     2
 72
     6
 73
     3
 74
     0
 42
0.0000000001
 43
0.0000000001
 40
0.0
 40
0.0
 40
0.0
 40
0.0783866764327407
 40
0.0783866764327407
 40
0.0783866764327407
 10
10.03764477969748
 20
0.0166656113527158
 30
0.0
 41
1.0
 10
10.08760061829504
 20
0.0178125903701542
 30
0.0
 41
0.7120380762811236
 10
10.08719999549354
 20
0.067491203621007
 30
0.0
 41
1.0
  0
SPLINE
  5
EE
330
1F
100
AcDbEntity
  8
MAKE2D VISIBLE LINES
100
AcDbSpline
210
0.0
220
0.0
230
1.0
 70
    12
 71
     2
 72
     6
 73
     3
 74
     0
 42
0.0000000001
 43
0.0000000001
 40
0.0
 40
0.0
 40
0.0
 40
0.1989932917610396
 40
0.1989932917610396
 40
0.1989932917610396
 10
10.08719999549354
 20
0.067491203621007
 30
0.0
 41
1.0
 10
10.08564530482038
 20
0.1670042978800845
 30
0.0
 41
0.9999999374659112
 10
10.08411464547185
 20
0.2664891733579558
 30
0.0
 41
1.0
  0
SPLINE
  5
EF
330
1F
100
AcDbEntity
  8
MAKE2D VISIBLE LINES
100
AcDbSpline
210
0.0
220
0.0
230
1.0
 70
    24
 71
     2
 72
     6
 73
     3
 74
     0
 42
0.0000000001
 43
0.0000000001
 40
0.0
 40
0.0
 40
0.0
 40
17.78454173258046
 40
17.78454173258046
 40
17.78454173258046
 10
9.301164913756498
 20
0.1781557913541398
 30
0.0
 10
9.176022259467778
 20
9.069459244966332
 30
0.0
 10
9.050879605179057
 20
17.96076269857852
 30
0.0
  0
SPLINE
  5
F0
330
1F
100
AcDbEntity
  8
MAKE2D VISIBLE LINES
100
AcDbSpline
210
0.0
220
0.0
230
1.0
 70
    12
 71
     2
 72
     6
 73
     3
 74
     0
 42
0.0000000001
 43
0.0000000001
 40
0.0
 40
0.0
 40
0.0
 40
0.2201162761220194
 40
0.2201162761220194
 40
0.2201162761220194
 10
9.050879605179057
 20
17.96076269857852
 30
0.0
 41
1.0
 10
8.938584057508242
 20
17.94844013201167
 30
0.0
 41
0.9999991019444715
 10
8.829161883549114
 20
17.93662505251639
 30
0.0
 41
1.0
  0
SPLINE
  5
F1
330
1F
100
AcDbEntity
  8
DEFAULT
100
AcDbSpline
210
0.0
220
0.0
230
1.0
 70
    24
 71
     2
 72
     6
 73
     3
 74
     0
 42
0.0000000001
 43
0.0000000001
 40
0.0
 40
0.0
 40
0.0
 40
0.5321440388778759
 40
0.5321440388778759
 40
0.5321440388778759
 10
4.702819401700218
 20
16.46647188523465
 30
0.0
 10
4.698154334186682
 20
16.20044076548847
 30
0.0
 10
4.693489266673148
 20
15.93440964574228
 30
0.0
  0
SPLINE
  5
F2
330
1F
100
AcDbEntity
  8
DEFAULT
100
AcDbSpline
210
0.0
220
0.0
230
1.0
 70
    12
 71
     2
 72
     6
 73
     3
 74
     0
 42
0.0000000001
 43
0.0000000001
 40
0.0
 40
0.0
 40
0.0
 40
0.223652467853702
 40
0.223652467853702
 40
0.223652467853702
 10
4.693489266673148
 20
15.93440964574228
 30
0.0
 41
1.0
 10
4.65869254851784
 20
15.81958146712452
 30
0.0
 41
0.9010587385208453
 10
4.547239266673174
 20
15.77514625400353
 30
0.0
 41
1.0
  0
SPLINE
  5
F3
330
1F
100
AcDbEntity
  8
DEFAULT
100
AcDbSpline
210
0.0
220
0.0
230
1.0
 70
     8
 71
     3
 72
     8
 73
     4
 74
     0
 42
0.0000000001
 43
0.0000000001
 40
0.0
 40
0.0
 40
0.0
 40
0.0
 40
1.0
 40
1.0
 40
1.0
 40
1.0
 10
4.547239266673174
 20
15.77514625400353
 30
0.0
 10
4.411775269937279
 20
15.72113822960486
 30
0.0
 10
4.245203263409079
 20
15.72113822960487
 30
0.0
 10
4.109739266673182
 20
15.77514625400354
 30
0.0
  0
SPLINE
  5
F4
330
1F
100
AcDbEntity
  8
DEFAULT
100
AcDbSpline
210
0.0
220
0.0
230
1.0
 70
    12
 71
     2
 72
     6
 73
     3
 74
     0
 42
0.0000000001
 43
0.0000000001
 40
0.0
 40
0.0
 40
0.0
 40
0.2236524678537002
 40
0.2236524678537002
 40
0.2236524678537002
 10
4.109739266673182
 20
15.77514625400354
 30
0.0
 41
1.0
 10
3.998285984828513
 20
15.81958146712451
 30
0.0
 41
0.9010587385208325
 10
3.963489266673208
 20
15.93440964574228
 30
0.0
 41
1.0
  0
SPLINE
  5
F5
330
1F
100
AcDbEntity
  8
DEFAULT
100
AcDbSpline
210
0.0
220
0.0
230
1.0
 70
    24
 71
     2
 72
     6
 73
     3
 74
     0
 42
0.0000000001
 43
0.0000000001
 40
0.0
 40
0.0
 40
0.0
 40
0.4919977399559122
 40
0.4919977399559122
 40
0.4919977399559122
 10
3.963489266673208
 20
15.93440964574228
 30
0.0
 10
3.959176143710784
 20
16.18037070160426
 30
0.0
 10
3.954863020748361
 20
16.42633175746625
 30
0.0
  0
SPLINE
  5
F6
330
1F
100
AcDbEntity
  8
DEFAULT
100
AcDbSpline
210
0.0
220
0.0
230
1.0
 70
    24
 71
     2
 72
     6
 73
     3
 74
     0
 42
0.0000000001
 43
0.0000000001
 40
0.0
 40
0.0
 40
0.0
 40
0.5321440388778741
 40
0.5321440388778741
 40
0.5321440388778741
 10
4.699882203321968
 20
15.79542700207427
 30
0.0
 10
4.696685734997558
 20
15.52945819008728
 30
0.0
 10
4.693489266673148
 20
15.26348937810028
 30
0.0
  0
SPLINE
  5
F7
330
1F
100
AcDbEntity
  8
DEFAULT
100
AcDbSpline
210
0.0
220
0.0
230
1.0
 70
    12
 71
     2
 72
     6
 73
     3
 74
     0
 42
0.0000000001
 43
0.0000000001
 40
0.0
 40
0.0
 40
0.0
 40
0.2236524678536994
 40
0.2236524678536994
 40
0.2236524678536994
 10
4.693489266673148
 20
15.26348937810028
 30
0.0
 41
1.0
 10
4.658692548517843
 20
15.14866119948251
 30
0.0
 41
0.9010587385208312
 10
4.547239266673174
 20
15.10422598636154
 30
0.0
 41
1.0
  0
SPLINE
  5
F8
330
1F
100
AcDbEntity
  8
DEFAULT
100
AcDbSpline
210
0.0
220
0.0
230
1.0
 70
     8
 71
     3
 72
     8
 73
     4
 74
     0
 42
0.0000000001
 43
0.0000000001
 40
0.0
 40
0.0
 40
0.0
 40
0.0
 40
1.0
 40
1.0
 40
1.0
 40
1.0
 10
4.547239266673174
 20
15.10422598636154
 30
0.0
 10
4.411775269937276
 20
15.05021796196287
 30
0.0
 10
4.245203263409078
 20
15.05021796196287
 30
0.0
 10
4.109739266673182
 20
15.10422598636154
 30
0.0
  0
SPLINE
  5
F9
330
1F
100
AcDbEntity
  8
DEFAULT
100
AcDbSpline
210
0.0
220
0.0
230
1.0
 70
    12
 71
     2
 72
     6
 73
     3
 74
     0
 42
0.0000000001
 43
0.0000000001
 40
0.0
 40
0.0
 40
0.0
 40
0.2236524678536981
 40
0.2236524678536981
 40
0.2236524678536981
 10
4.109739266673182
 20
15.10422598636154
 30
0.0
 41
1.0
 10
3.998285984828513
 20
15.14866119948251
 30
0.0
 41
0.9010587385208331
 10
3.963489266673208
 20
15.26348937810028
 30
0.0
 41
1.0
  0
SPLINE
  5
FA
330
1F
100
AcDbEntity
  8
DEFAULT
100
AcDbSpline
210
0.0
220
0.0
230
1.0
 70
    24
 71
     2
 72
     6
 73
     3
 74
     0
 42
0.0000000001
 43
0.0000000001
 40
0.0
 40
0.0
 40
0.0
 40
0.5321440388778741
 40
0.5321440388778741
 40
0.5321440388778741
 10
3.963489266673208
 20
15.26348937810028
 30
0.0
 10
3.958824199159674
 20
15.52952049784647
 30
0.0
 10
3.954159131646138
 20
15.79555161759265
 30
0.0
  0
SPLINE
  5
FB
330
1F
100
AcDbEntity
  8
DEFAULT
100
AcDbSpline
210
0.0
220
0.0
230
1.0
 70
     8
 71
     3
 72
    14
 73
    10
 74
     0
 42
0.0000000001
 43
0.0000000001
 40
0.0
 40
0.0
 40
0.0
 40
0.0
 40
0.0011429773882848
 40
0.0041559612549722
 40
0.010740543323966
 40
0.120253821530844
 40
0.2135872029610184
 40
0.4059865476491976
 40
0.8047865810560537
 40
0.8047865810560537
 40
0.8047865810560537
 40
0.8047865810560537
 10
3.954159131646138
 20
15.79555161759265
 30
0.0
 10
3.954064698968024
 20
15.79604234793775
 30
0.0
 10
3.954729804750294
 20
15.79728640809484
 30
0.0
 10
3.958799138006872
 20
15.79657232931934
 30
0.0
 10
3.990713770963564
 20
15.77377427350036
 30
0.0
 10
4.048527104861989
 20
15.7326125322114
 30
0.0
 10
4.168668647219088
 20
15.68037079668747
 30
0.0
 10
4.398510030423761
 20
15.63876513456371
 30
0.0
 10
4.592563028077378
 20
15.71305959995781
 30
0.0
 10
4.699882203321968
 20
15.79542700207427
 30
0.0
  0
SPLINE
  5
FC
330
1F
100
AcDbEntity
  8
MAKE2D VISIBLE LINES
100
AcDbSpline
210
0.0
220
0.0
230
1.0
 70
    12
 71
     2
 72
     6
 73
     3
 74
     0
 42
0.0000000001
 43
0.0000000001
 40
0.0
 40
0.0
 40
0.0
 40
0.7473847420755672
 40
0.7473847420755672
 40
0.7473847420755672
 10
4.001363716688768
 20
16.43735793932769
 30
0.0
 41
1.0
 10
4.360082953370006
 20
16.18856768343522
 30
0.0
 41
0.7973745102127584
 10
4.696952909337941
 20
16.46622703400417
 30
0.0
 41
1.0
  0
SPLINE
  5
FD
330
1F
100
AcDbEntity
  8
MAKE2D VISIBLE LINES
100
AcDbSpline
210
0.0
220
0.0
230
1.0
 70
     8
 71
     2
 72
    11
 73
     8
 74
     0
 42
0.0000000001
 43
0.0000000001
 40
0.0
 40
0.0
 40
0.0
 40
1.0
 40
2.0
 40
3.0
 40
4.0
 40
5.0
 40
6.0
 40
6.0
 40
6.0
 10
9.301821038144984
 20
0.1309935316199082
 30
0.0
 10
9.370093870807503
 20
0.1250992977041999
 30
0.0
 10
9.50709115906657
 20
0.1225663137959416
 30
0.0
 10
9.644069043938398
 20
0.1258280269276552
 30
0.0
 10
9.780589717216472
 20
0.1401657240497496
 30
0.0
 10
9.91371290449062
 20
0.1683005061864386
 30
0.0
 10
10.05184397091273
 20
0.2043146080932381
 30
0.0
 10
10.08411102699332
 20
0.2664891172410986
 30
0.0
  0
SPLINE
  5
FE
330
1F
100
AcDbEntity
  8
MAKE2D VISIBLE LINES
100
AcDbSpline
210
0.0
220
0.0
230
1.0
 70
    12
 71
     2
 72
     6
 73
     3
 74
     0
 42
0.0000000001
 43
0.0000000001
 40
-0.3590936632311201
 40
-0.3590936632311201
 40
-0.3590936632311201
 40
0.0
 40
0.0
 40
0.0
 10
4.701935526524261
 20
15.74514780786723
 30
0.0
 41
1.0
 10
4.827484579064138
 20
15.88501835845917
 30
0.0
 41
0.9342250861939277
 10
4.825680976213238
 20
16.07297549746599
 30
0.0
 41
0.9999983047728426
  0
SPLINE
  5
FF
330
1F
100
AcDbEntity
  8
MAKE2D VISIBLE LINES
100
AcDbSpline
210
0.0
220
0.0
230
1.0
 70
    24
 71
     2
 72
     6
 73
     3
 74
     0
 42
0.0000000001
 43
0.0000000001
 40
0.0
 40
0.0
 40
0.0
 40
0.40304397363726
 40
0.40304397363726
 40
0.40304397363726
 10
4.825680976213238
 20
16.07297549746599
 30
0.0
 10
4.824585121443207
 20
16.27449748428462
 30
0.0
 10
4.823489266673177
 20
16.47601947110325
 30
0.0
  0
SPLINE
  5
100
330
1F
100
AcDbEntity
  8
MAKE2D VISIBLE LINES
100
AcDbSpline
210
0.0
220
0.0
230
1.0
 70
    12
 71
     2
 72
     6
 73
     3
 74
     0
 42
0.0000000001
 43
0.0000000001
 40
0.0
 40
0.0
 40
0.0
 40
0.8432520414337
 40
0.8432520414337
 40
0.8432520414337
 10
7.945997215972557
 20
16.71615330602826
 30
0.0
 41
1.0
 10
8.216871460339192
 20
17.0393237969914
 30
0.0
 41
0.9998164294059344
 10
8.499928476545097
 20
17.35187898902502
 30
0.0
 41
1.0
  0
SPLINE
  5
101
330
1F
100
AcDbEntity
  8
MAKE2D VISIBLE LINES
100
AcDbSpline
210
0.0
220
0.0
230
1.0
 70
    12
 71
     2
 72
     6
 73
     3
 74
     0
 42
0.0000000001
 43
0.0000000001
 40
-0.1911550554372452
 40
-0.1911550554372452
 40
-0.1911550554372452
 40
0.0
 40
0.0
 40
0.0
 10
8.499928476545097
 20
17.35187898902502
 30
0.0
 41
1.0
 10
8.563464381871034
 20
17.42328108265917
 30
0.0
 41
0.9999994715866598
 10
8.627146958476104
 20
17.49455239300119
 30
0.0
 41
1.0
  0
SPLINE
  5
102
330
1F
100
AcDbEntity
  8
MAKE2D VISIBLE LINES
100
AcDbSpline
210
0.0
220
0.0
230
1.0
 70
    12
 71
     2
 72
     7
 73
     4
 74
     0
 42
0.0000000001
 43
0.0000000001
 40
0.0
 40
0.0
 40
0.0
 40
1.0
 40
2.0
 40
2.0
 40
2.0
 10
8.627146958476104
 20
17.49455239300119
 30
0.0
 41
1.0
 10
8.711984531929108
 20
17.58949963522305
 30
0.0
 41
1.0
 10
8.96512245388052
 20
17.86959127803225
 30
0.0
 41
1.0
 10
9.053785040842598
 20
17.96097693526641
 30
0.0
 41
1.0
  0
SPLINE
  5
103
330
1F
100
AcDbEntity
  8
MAKE2D VISIBLE LINES
100
AcDbSpline
210
0.0
220
0.0
230
1.0
 70
    12
 71
     2
 72
     6
 73
     3
 74
     0
 42
0.0000000001
 43
0.0000000001
 40
0.0
 40
0.0
 40
0.0
 40
0.3527729993252487
 40
0.3527729993252487
 40
0.3527729993252487
 10
3.955001668014495
 20
15.74750534992011
 30
0.0
 41
1.0
 10
3.833305706047376
 20
15.88612317749874
 30
0.0
 41
0.935636063196829
 10
3.833489266673178
 20
16.07058123665371
 30
0.0
 41
1.0
  0
SPLINE
  5
104
330
1F
100
AcDbEntity
  8
MAKE2D VISIBLE LINES
100
AcDbSpline
210
0.0
220
0.0
230
1.0
 70
    24
 71
     2
 72
     6
 73
     3
 74
     0
 42
0.0000000001
 43
0.0000000001
 40
0.0
 40
0.0
 40
0.0
 40
0.35397136597323
 40
0.35397136597323
 40
0.35397136597323
 10
3.833489266673178
 20
16.07058123665371
 30
0.0
 10
3.833489266673179
 20
16.24756691964032
 30
0.0
 10
3.83348926667318
 20
16.42455260262694
 30
0.0
  0
SPLINE
  5
105
330
1F
100
AcDbEntity
  8
MAKE2D VISIBLE LINES
100
AcDbSpline
210
0.0
220
0.0
230
1.0
 70
    12
 71
     2
 72
     8
 73
     5
 74
     0
 42
0.0000000001
 43
0.0000000001
 40
-2.61767884764435
 40
-2.61767884764435
 40
-2.61767884764435
 40
-1.76714586765109
 40
-1.76714586765109
 40
-1.573097948998398
 40
-1.573097948998398
 40
-1.573097948998398
 10
9.811555355401305
 20
17.93127031119547
 30
0.0
 41
0.978914442170177
 10
9.783069306553012
 20
17.80317460656545
 30
0.0
 41
0.7180591067466878
 10
9.249921411901177
 20
17.79544755671427
 30
0.0
 41
1.0
 10
9.15284752879404
 20
17.79394871724068
 30
0.0
 41
0.9990501653435477
 10
9.056011787757964
 20
17.80090749294196
 30
0.0
 41
1.0
  0
SPLINE
  5
106
330
1F
100
AcDbEntity
  8
MAKE2D VISIBLE LINES
100
AcDbSpline
210
0.0
220
0.0
230
1.0
 70
    24
 71
     2
 72
     6
 73
     3
 74
     0
 42
0.0000000001
 43
0.0000000001
 40
0.0
 40
0.0
 40
0.0
 40
16.55517303774998
 40
16.55517303774998
 40
16.55517303774998
 10
7.945994058203715
 20
16.71609073007616
 30
0.0
 10
8.06113384262232
 20
8.439305037096972
 30
0.0
 10
8.176273627040926
 20
0.1625193441177805
 30
0.0
  0
SPLINE
  5
107
330
1F
100
AcDbEntity
  8
MAKE2D VISIBLE LINES
100
AcDbSpline
210
0.0
220
0.0
230
1.0
 70
    24
 71
     2
 72
     6
 73
     3
 74
     0
 42
0.0000000001
 43
0.0000000001
 40
0.0
 40
0.0
 40
0.0
 40
17.66778947039487
 40
17.66778947039487
 40
17.66778947039487
 10
10.08410720374532
 20
0.2669864245367606
 30
0.0
 10
9.94827949264976
 20
9.099836871897875
 30
0.0
 10
9.8124517815542
 20
17.93268731925899
 30
0.0
  0
SPLINE
  5
108
330
1F
100
AcDbEntity
  8
MAKE2D VISIBLE LINES
100
AcDbSpline
210
0.0
220
0.0
230
1.0
 70
    12
 71
     2
 72
     6
 73
     3
 74
     0
 42
0.0000000001
 43
0.0000000001
 40
0.0
 40
0.0
 40
0.0
 40
2.423793056935102
 40
2.423793056935102
 40
2.423793056935102
 10
0.5820347176024754
 20
16.16298067941642
 30
0.0
 41
1.0
 10
1.794150894868707
 20
16.21129736156455
 30
0.0
 41
0.9985387582686867
 10
2.993973009372791
 20
16.39014652290243
 30
0.0
 41
1.0
  0
SPLINE
  5
109
330
1F
100
AcDbEntity
  8
MAKE2D VISIBLE LINES
100
AcDbSpline
210
0.0
220
0.0
230
1.0
 70
     8
 71
     3
 72
    12
 73
     8
 74
     0
 42
0.0000000001
 43
0.0000000001
 40
0.0
 40
0.0
 40
0.0
 40
0.0
 40
0.1289980641857453
 40
0.2562220713897911
 40
0.4615769468258699
 40
0.6420974572341978
 40
0.9090739014683552
 40
0.9090739014683552
 40
0.9090739014683552
 40
0.9090739014683552
 10
9.070186619695663
 20
16.78195481076429
 30
0.0
 10
9.104922508876683
 20
16.80610457632508
 30
0.0
 10
9.170603097129971
 20
16.864743447519
 30
0.0
 10
9.26960651225711
 20
16.9762723768876
 30
0.0
 10
9.344876642721175
 20
17.14766476304774
 30
0.0
 10
9.246418185406176
 20
17.35523665985551
 30
0.0
 10
9.128767910014666
 20
17.44789665741967
 30
0.0
 10
9.06013281301944
 20
17.50466941119394
 30
0.0
  0
ARC
  5
10A
330
1F
100
AcDbEntity
  8
DEFAULT
100
AcDbCircle
 10
17.31739563334625
 20
-24.13552727969294
 30
0.0
 40
41.66759639119658
100
AcDbArc
 50
102.9925821655296
 51
107.628001334452
  0
SPLINE
  5
10B
330
1F
100
AcDbEntity
  8
MAKE2D VISIBLE LINES
100
AcDbSpline
210
0.0
220
0.0
230
1.0
 70
    24
 71
     2
 72
     6
 73
     3
 74
     0
 42
0.0000000001
 43
0.0000000001
 40
0.0
 40
0.0
 40
0.0
 40
0.0001477489785947
 40
0.0001477489785947
 40
0.0001477489785947
 10
8.944336426977953
 20
18.48382681667034
 30
0.0
 10
8.944322050958021
 20
18.4838992788689
 30
0.0
 10
8.94430767493809
 20
18.48397174106745
 30
0.0
  0
SPLINE
  5
10C
330
1F
100
AcDbEntity
  8
MAKE2D VISIBLE LINES
100
AcDbSpline
210
0.0
220
0.0
230
1.0
 70
    24
 71
     2
 72
     6
 73
     3
 74
     0
 42
0.0000000001
 43
0.0000000001
 40
0.0
 40
0.0
 40
0.0
 40
0.0838826130654592
 40
0.0838826130654592
 40
0.0838826130654592
 10
8.176273711244658
 20
0.1625132912173424
 30
0.0
 10
8.176857128553221
 20
0.1205745290701285
 30
0.0
 10
8.177440545861785
 20
0.0786357669229147
 30
0.0
  0
SPLINE
  5
10D
330
1F
100
AcDbEntity
  8
MAKE2D VISIBLE LINES
100
AcDbSpline
210
0.0
220
0.0
230
1.0
 70
    12
 71
     2
 72
     6
 73
     3
 74
     0
 42
0.0000000001
 43
0.0000000001
 40
0.0
 40
0.0
 40
0.0
 40
0.090509536218289
 40
0.090509536218289
 40
0.090509536218289
 10
8.177440545861785
 20
0.0786357669229147
 30
0.0
 41
1.0
 10
8.179483428400843
 20
0.0236752130177383
 30
0.0
 41
0.7543192092771731
 10
8.239204140770985
 20
0.0174618430408754
 30
0.0
 41
1.0
  0
SPLINE
  5
10E
330
1F
100
AcDbEntity
  8
MAKE2D VISIBLE LINES
100
AcDbSpline
210
0.0
220
0.0
230
1.0
 70
    12
 71
     2
 72
     6
 73
     3
 74
     0
 42
0.0000000001
 43
0.0000000001
 40
0.0
 40
0.0
 40
0.0
 40
0.0287637614208012
 40
0.0287637614208012
 40
0.0287637614208012
 10
8.239204140770985
 20
0.0174618430408754
 30
0.0
 41
1.0
 10
8.258526365288494
 20
0.0153923654229804
 30
0.0
 41
0.9996656851759237
 10
8.27289569133678
 20
0.0147189913983923
 30
0.0
 41
1.0
  0
SPLINE
  5
10F
330
1F
100
AcDbEntity
  8
MAKE2D VISIBLE LINES
100
AcDbSpline
210
0.0
220
0.0
230
1.0
 70
    12
 71
     2
 72
     6
 73
     3
 74
     0
 42
0.0000000001
 43
0.0000000001
 40
-0.4678786518234926
 40
-0.4678786518234926
 40
-0.4678786518234926
 40
0.0
 40
0.0
 40
0.0
 10
8.27289569133678
 20
0.0147189913983923
 30
0.0
 41
1.0
 10
8.50677928400907
 20
0.0076662971665803
 30
0.0
 41
0.99967599695013
 10
8.740718728216699
 20
0.0125239883341842
 30
0.0
 41
1.0
  0
SPLINE
  5
110
330
1F
100
AcDbEntity
  8
MAKE2D VISIBLE LINES
100
AcDbSpline
210
0.0
220
0.0
230
1.0
 70
    12
 71
     2
 72
     6
 73
     3
 74
     0
 42
0.0000000001
 43
0.0000000001
 40
-0.4681485405974239
 40
-0.4681485405974239
 40
-0.4681485405974239
 40
0.0
 40
0.0
 40
0.0
 10
8.740718728216699
 20
0.0125239883341842
 30
0.0
 41
1.0
 10
8.974837656164443
 20
0.0141755251168957
 30
0.0
 41
0.9996765963466816
 10
9.208569960241373
 20
0.0277265641162551
 30
0.0
 41
1.0
  0
SPLINE
  5
111
330
1F
100
AcDbEntity
  8
MAKE2D VISIBLE LINES
100
AcDbSpline
210
0.0
220
0.0
230
1.0
 70
    12
 71
     2
 72
     6
 73
     3
 74
     0
 42
0.0000000001
 43
0.0000000001
 40
0.0
 40
0.0
 40
0.0
 40
0.0149504543859661
 40
0.0149504543859661
 40
0.0149504543859661
 10
9.208569960241373
 20
0.0277265641162551
 30
0.0
 41
1.0
 10
9.216022022359459
 20
0.0283174037376151
 30
0.0
 41
0.9999561228672283
 10
9.223462959568014
 20
0.0290616610083865
 30
0.0
 41
1.0
  0
SPLINE
  5
112
330
1F
100
AcDbEntity
  8
MAKE2D VISIBLE LINES
100
AcDbSpline
210
0.0
220
0.0
230
1.0
 70
    12
 71
     2
 72
     6
 73
     3
 74
     0
 42
0.0000000001
 43
0.0000000001
 40
-0.0147217657248775
 40
-0.0147217657248775
 40
-0.0147217657248775
 40
0.0
 40
0.0
 40
0.0
 10
9.223462959568014
 20
0.0290616610083865
 30
0.0
 41
1.0
 10
9.23079312347316
 20
0.0297804231952354
 30
0.0
 41
0.9996253281867565
 10
9.242670870408618
 20
0.0315199591332011
 30
0.0
 41
1.0
  0
SPLINE
  5
113
330
1F
100
AcDbEntity
  8
MAKE2D VISIBLE LINES
100
AcDbSpline
210
0.0
220
0.0
230
1.0
 70
    12
 71
     2
 72
     6
 73
     3
 74
     0
 42
0.0000000001
 43
0.0000000001
 40
0.0
 40
0.0
 40
0.0
 40
0.0905125898444878
 40
0.0905125898444878
 40
0.0905125898444878
 10
9.242670870408618
 20
0.0315199591332011
 30
0.0
 41
1.0
 10
9.301724379002293
 20
0.0393501820355819
 30
0.0
 41
0.7556419620120104
 10
9.302331790319158
 20
0.0942782675344108
 30
0.0
 41
1.0
  0
SPLINE
  5
114
330
1F
100
AcDbEntity
  8
MAKE2D VISIBLE LINES
100
AcDbSpline
210
0.0
220
0.0
230
1.0
 70
    24
 71
     2
 72
     6
 73
     3
 74
     0
 42
0.0000000001
 43
0.0000000001
 40
0.0
 40
0.0
 40
0.0
 40
0.0838826131717245
 40
0.0838826131717245
 40
0.0838826131717245
 10
9.302331790319158
 20
0.0942782675344108
 30
0.0
 10
9.301748373088587
 20
0.1362170297371161
 30
0.0
 10
9.301164955858017
 20
0.1781557919398213
 30
0.0
  0
SPLINE
  5
115
330
1F
100
AcDbEntity
  8
MAKE2D VISIBLE LINES
100
AcDbSpline
210
0.0
220
0.0
230
1.0
 70
    24
 71
     2
 72
     6
 73
     3
 74
     0
 42
0.0000000001
 43
0.0000000001
 40
0.0
 40
0.0
 40
0.0
 40
0.0838826130654592
 40
0.0838826130654592
 40
0.0838826130654592
 10
-8.176273711244658
 20
0.1625132912173424
 30
0.0
 10
-8.176857128553221
 20
0.1205745290701285
 30
0.0
 10
-8.177440545861785
 20
0.0786357669229147
 30
0.0
  0
SPLINE
  5
116
330
1F
100
AcDbEntity
  8
MAKE2D VISIBLE LINES
100
AcDbSpline
210
0.0
220
0.0
230
1.0
 70
    12
 71
     2
 72
     6
 73
     3
 74
     0
 42
0.0000000001
 43
0.0000000001
 40
0.0
 40
0.0
 40
0.0
 40
0.090509536218289
 40
0.090509536218289
 40
0.090509536218289
 10
-8.177440545861785
 20
0.0786357669229147
 30
0.0
 41
1.0
 10
-8.179483428400843
 20
0.0236752130177383
 30
0.0
 41
0.7543192092771731
 10
-8.239204140770985
 20
0.0174618430408754
 30
0.0
 41
1.0
  0
SPLINE
  5
117
330
1F
100
AcDbEntity
  8
MAKE2D VISIBLE LINES
100
AcDbSpline
210
0.0
220
0.0
230
1.0
 70
    12
 71
     2
 72
     6
 73
     3
 74
     0
 42
0.0000000001
 43
0.0000000001
 40
0.0
 40
0.0
 40
0.0
 40
0.0287637614208012
 40
0.0287637614208012
 40
0.0287637614208012
 10
-8.239204140770985
 20
0.0174618430408754
 30
0.0
 41
1.0
 10
-8.258526365288494
 20
0.0153923654229804
 30
0.0
 41
0.9996656851759237
 10
-8.27289569133678
 20
0.0147189913983923
 30
0.0
 41
1.0
  0
SPLINE
  5
118
330
1F
100
AcDbEntity
  8
MAKE2D VISIBLE LINES
100
AcDbSpline
210
0.0
220
0.0
230
1.0
 70
    12
 71
     2
 72
     6
 73
     3
 74
     0
 42
0.0000000001
 43
0.0000000001
 40
-0.4678786518234926
 40
-0.4678786518234926
 40
-0.4678786518234926
 40
0.0
 40
0.0
 40
0.0
 10
-8.27289569133678
 20
0.0147189913983923
 30
0.0
 41
1.0
 10
-8.50677928400907
 20
0.0076662971665803
 30
0.0
 41
0.99967599695013
 10
-8.740718728216699
 20
0.0125239883341842
 30
0.0
 41
1.0
  0
SPLINE
  5
119
330
1F
100
AcDbEntity
  8
MAKE2D VISIBLE LINES
100
AcDbSpline
210
0.0
220
0.0
230
1.0
 70
    12
 71
     2
 72
     6
 73
     3
 74
     0
 42
0.0000000001
 43
0.0000000001
 40
-0.4681485405974239
 40
-0.4681485405974239
 40
-0.4681485405974239
 40
0.0
 40
0.0
 40
0.0
 10
-8.740718728216699
 20
0.0125239883341842
 30
0.0
 41
1.0
 10
-8.974837656164443
 20
0.0141755251168957
 30
0.0
 41
0.9996765963466816
 10
-9.208569960241373
 20
0.0277265641162551
 30
0.0
 41
1.0
  0
SPLINE
  5
11A
330
1F
100
AcDbEntity
  8
MAKE2D VISIBLE LINES
100
AcDbSpline
210
0.0
220
0.0
230
1.0
 70
    12
 71
     2
 72
     6
 73
     3
 74
     0
 42
0.0000000001
 43
0.0000000001
 40
0.0
 40
0.0
 40
0.0
 40
0.0149504543859661
 40
0.0149504543859661
 40
0.0149504543859661
 10
-9.208569960241373
 20
0.0277265641162551
 30
0.0
 41
1.0
 10
-9.216022022359459
 20
0.0283174037376151
 30
0.0
 41
0.9999561228672283
 10
-9.223462959568014
 20
0.0290616610083865
 30
0.0
 41
1.0
  0
SPLINE
  5
11B
330
1F
100
AcDbEntity
  8
MAKE2D VISIBLE LINES
100
AcDbSpline
210
0.0
220
0.0
230
1.0
 70
    12
 71
     2
 72
     6
 73
     3
 74
     0
 42
0.0000000001
 43
0.0000000001
 40
-0.0147217657248775
 40
-0.0147217657248775
 40
-0.0147217657248775
 40
0.0
 40
0.0
 40
0.0
 10
-9.223462959568014
 20
0.0290616610083865
 30
0.0
 41
1.0
 10
-9.23079312347316
 20
0.0297804231952354
 30
0.0
 41
0.9996253281867565
 10
-9.242670870408618
 20
0.0315199591332011
 30
0.0
 41
1.0
  0
SPLINE
  5
11C
330
1F
100
AcDbEntity
  8
MAKE2D VISIBLE LINES
100
AcDbSpline
210
0.0
220
0.0
230
1.0
 70
    12
 71
     2
 72
     6
 73
     3
 74
     0
 42
0.0000000001
 43
0.0000000001
 40
0.0
 40
0.0
 40
0.0
 40
0.0905125898444878
 40
0.0905125898444878
 40
0.0905125898444878
 10
-9.242670870408618
 20
0.0315199591332011
 30
0.0
 41
1.0
 10
-9.301724379002293
 20
0.0393501820355819
 30
0.0
 41
0.7556419620120104
 10
-9.302331790319158
 20
0.0942782675344108
 30
0.0
 41
1.0
  0
SPLINE
  5
11D
330
1F
100
AcDbEntity
  8
MAKE2D VISIBLE LINES
100
AcDbSpline
210
0.0
220
0.0
230
1.0
 70
    24
 71
     2
 72
     6
 73
     3
 74
     0
 42
0.0000000001
 43
0.0000000001
 40
0.0
 40
0.0
 40
0.0
 40
0.0838826131717245
 40
0.0838826131717245
 40
0.0838826131717245
 10
-9.302331790319158
 20
0.0942782675344108
 30
0.0
 10
-9.301748373088587
 20
0.1362170297371161
 30
0.0
 10
-9.301164955858017
 20
0.1781557919398213
 30
0.0
  0
SPLINE
  5
11E
330
1F
100
AcDbEntity
  8
MAKE2D VISIBLE LINES
100
AcDbSpline
210
0.0
220
0.0
230
1.0
 70
    12
 71
     2
 72
     6
 73
     3
 74
     0
 42
0.0000000001
 43
0.0000000001
 40
0.0
 40
0.0
 40
0.0
 40
0.5069875979584633
 40
0.5069875979584633
 40
0.5069875979584633
 10
-8.234431874824388
 20
0.0195711174873248
 30
0.0
 41
1.0
 10
-8.486988453746715
 20
0.0441985981836849
 30
0.0
 41
0.9984597417000961
 10
-8.74072275850097
 20
0.040693489475495
 30
0.0
 41
1.0
  0
SPLINE
  5
11F
330
1F
100
AcDbEntity
  8
MAKE2D VISIBLE LINES
100
AcDbSpline
210
0.0
220
0.0
230
1.0
 70
    12
 71
     2
 72
     6
 73
     3
 74
     0
 42
0.0000000001
 43
0.0000000001
 40
0.0
 40
0.0
 40
0.0
 40
0.5065890987312437
 40
0.5065890987312437
 40
0.5065890987312437
 10
-8.74072275850097
 20
0.040693489475495
 30
0.0
 41
1.0
 10
-8.994062410834788
 20
0.0512669135199976
 30
0.0
 41
0.9984529850107059
 10
-9.247005581609013
 20
0.0336463043006566
 30
0.0
 41
1.0
  0
SPLINE
  5
120
330
1F
100
AcDbEntity
  8
MAKE2D VISIBLE LINES
100
AcDbSpline
210
0.0
220
0.0
230
1.0
 70
     8
 71
     2
 72
    11
 73
     8
 74
     0
 42
0.0000000001
 43
0.0000000001
 40
0.0
 40
0.0
 40
0.0
 40
1.0
 40
2.0
 40
3.0
 40
4.0
 40
5.0
 40
6.0
 40
6.0
 40
6.0
 10
-8.176273669141636
 20
0.1625193447034521
 30
0.0
 10
-8.26968360402873
 20
0.1716136120374464
 30
0.0
 10
-8.457048704637886
 20
0.1829681730595324
 30
0.0
 10
-8.64470355399548
 20
0.1869757944380247
 30
0.0
 10
-8.832389058408115
 20
0.1864483340951451
 30
0.0
 10
-9.020022085220845
 20
0.1908853354190592
 30
0.0
 10
-9.2077228148038
 20
0.1874516050915349
 30
0.0
 10
-9.301164913756498
 20
0.1781557913541398
 30
0.0
  0
SPLINE
  5
121
330
1F
100
AcDbEntity
  8
MAKE2D VISIBLE LINES
100
AcDbSpline
210
0.0
220
0.0
230
1.0
 70
    12
 71
     2
 72
     6
 73
     3
 74
     0
 42
0.0000000001
 43
0.0000000001
 40
0.0
 40
0.0
 40
0.0
 40
0.0437713866611207
 40
0.0437713866611207
 40
0.0437713866611207
 10
-8.974646552743373
 20
0.0173695236833032
 30
0.0
 41
1.0
 10
-8.98989690606149
 20
-0.0003926996203261
 30
0.0
 41
0.9050810086732575
 10
-9.017077161882934
 20
0.0000693463675743
 30
0.0
 41
1.0
  0
SPLINE
  5
122
330
1F
100
AcDbEntity
  8
MAKE2D VISIBLE LINES
100
AcDbSpline
210
0.0
220
0.0
230
1.0
 70
     8
 71
     3
 72
    10
 73
     6
 74
     0
 42
0.0000000001
 43
0.0000000001
 40
0.0
 40
0.0
 40
0.0
 40
0.0
 40
0.0051614376977276
 40
0.0076964859399531
 40
0.5184066067045295
 40
0.5184066067045295
 40
0.5184066067045295
 40
0.5184066067045295
 10
-9.017077161882934
 20
0.0000693463675743
 30
0.0
 10
-9.02396858734003
 20
0.0001816331211356
 30
0.0
 10
-9.010504651860918
 20
-0.0000376096013241
 30
0.0
 10
-9.18138027403392
 20
0.0027402190062556
 30
0.0
 10
-9.35417496077946
 20
0.0055504775875407
 30
0.0
 10
-9.525635883920387
 20
0.0083386225390382
 30
0.0
  0
SPLINE
  5
123
330
1F
100
AcDbEntity
  8
MAKE2D VISIBLE LINES
100
AcDbSpline
210
0.0
220
0.0
230
1.0
 70
    12
 71
     2
 72
     6
 73
     3
 74
     0
 42
0.0000000001
 43
0.0000000001
 40
0.0
 40
0.0
 40
0.0
 40
0.5099198703305488
 40
0.5099198703305488
 40
0.5099198703305488
 10
-9.525635883920387
 20
0.0083386225390382
 30
0.0
 41
1.0
 10
-9.782400896350724
 20
0.0125138069040774
 30
0.0
 41
0.9999999999963927
 10
-10.03764477969748
 20
0.0166656113527158
 30
0.0
 41
1.0
  0
SPLINE
  5
124
330
1F
100
AcDbEntity
  8
MAKE2D VISIBLE LINES
100
AcDbSpline
210
0.0
220
0.0
230
1.0
 70
    12
 71
     2
 72
     6
 73
     3
 74
     0
 42
0.0000000001
 43
0.0000000001
 40
0.0
 40
0.0
 40
0.0
 40
0.0783866764327407
 40
0.0783866764327407
 40
0.0783866764327407
 10
-10.03764477969748
 20
0.0166656113527158
 30
0.0
 41
1.0
 10
-10.08760061829504
 20
0.0178125903701542
 30
0.0
 41
0.7120380762811236
 10
-10.08719999549354
 20
0.067491203621007
 30
0.0
 41
1.0
  0
SPLINE
  5
125
330
1F
100
AcDbEntity
  8
MAKE2D VISIBLE LINES
100
AcDbSpline
210
0.0
220
0.0
230
1.0
 70
    12
 71
     2
 72
     6
 73
     3
 74
     0
 42
0.0000000001
 43
0.0000000001
 40
0.0
 40
0.0
 40
0.0
 40
0.1989932917610396
 40
0.1989932917610396
 40
0.1989932917610396
 10
-10.08719999549354
 20
0.067491203621007
 30
0.0
 41
1.0
 10
-10.08564530482038
 20
0.1670042978800845
 30
0.0
 41
0.9999999374659112
 10
-10.08411464547185
 20
0.2664891733579558
 30
0.0
 41
1.0
  0
SPLINE
  5
126
330
1F
100
AcDbEntity
  8
MAKE2D VISIBLE LINES
100
AcDbSpline
210
0.0
220
0.0
230
1.0
 70
     8
 71
     2
 72
    11
 73
     8
 74
     0
 42
0.0000000001
 43
0.0000000001
 40
0.0
 40
0.0
 40
0.0
 40
1.0
 40
2.0
 40
3.0
 40
4.0
 40
5.0
 40
6.0
 40
6.0
 40
6.0
 10
-9.301821038144984
 20
0.1309935316199082
 30
0.0
 10
-9.370093870807503
 20
0.1250992977041999
 30
0.0
 10
-9.50709115906657
 20
0.1225663137959416
 30
0.0
 10
-9.644069043938398
 20
0.1258280269276552
 30
0.0
 10
-9.780589717216472
 20
0.1401657240497496
 30
0.0
 10
-9.91371290449062
 20
0.1683005061864386
 30
0.0
 10
-10.05184397091273
 20
0.2043146080932381
 30
0.0
 10
-10.08411102699332
 20
0.2664891172410986
 30
0.0
  0
SPLINE
  5
127
330
1F
100
AcDbEntity
  8
MAKE2D VISIBLE LINES
100
AcDbSpline
210
0.0
220
0.0
230
1.0
 70
    24
 71
     2
 72
     6
 73
     3
 74
     0
 42
0.0000000001
 43
0.0000000001
 40
0.0
 40
0.0
 40
0.0
 40
17.78454173258046
 40
17.78454173258046
 40
17.78454173258046
 10
-9.301164913756498
 20
0.1781557913541398
 30
0.0
 10
-9.176022259467778
 20
9.069459244966332
 30
0.0
 10
-9.050879605179057
 20
17.96076269857852
 30
0.0
  0
SPLINE
  5
128
330
1F
100
AcDbEntity
  8
MAKE2D VISIBLE LINES
100
AcDbSpline
210
0.0
220
0.0
230
1.0
 70
    12
 71
     2
 72
     6
 73
     3
 74
     0
 42
0.0000000001
 43
0.0000000001
 40
0.0
 40
0.0
 40
0.0
 40
0.2201162761220194
 40
0.2201162761220194
 40
0.2201162761220194
 10
-9.050879605179057
 20
17.96076269857852
 30
0.0
 41
1.0
 10
-8.938584057508242
 20
17.94844013201167
 30
0.0
 41
0.9999991019444715
 10
-8.829161883549114
 20
17.93662505251639
 30
0.0
 41
1.0
  0
SPLINE
  5
129
330
1F
100
AcDbEntity
  8
MAKE2D VISIBLE LINES
100
AcDbSpline
210
0.0
220
0.0
230
1.0
 70
    12
 71
     2
 72
     6
 73
     3
 74
     0
 42
0.0000000001
 43
0.0000000001
 40
0.0
 40
0.0
 40
0.0
 40
0.8432520414337
 40
0.8432520414337
 40
0.8432520414337
 10
-7.945997215972557
 20
16.71615330602826
 30
0.0
 41
1.0
 10
-8.216871460339192
 20
17.0393237969914
 30
0.0
 41
0.9998164294059344
 10
-8.499928476545097
 20
17.35187898902502
 30
0.0
 41
1.0
  0
SPLINE
  5
12A
330
1F
100
AcDbEntity
  8
MAKE2D VISIBLE LINES
100
AcDbSpline
210
0.0
220
0.0
230
1.0
 70
    12
 71
     2
 72
     6
 73
     3
 74
     0
 42
0.0000000001
 43
0.0000000001
 40
-0.1911550554372452
 40
-0.1911550554372452
 40
-0.1911550554372452
 40
0.0
 40
0.0
 40
0.0
 10
-8.499928476545097
 20
17.35187898902502
 30
0.0
 41
1.0
 10
-8.563464381871034
 20
17.42328108265917
 30
0.0
 41
0.9999994715866598
 10
-8.627146958476104
 20
17.49455239300119
 30
0.0
 41
1.0
  0
SPLINE
  5
12B
330
1F
100
AcDbEntity
  8
MAKE2D VISIBLE LINES
100
AcDbSpline
210
0.0
220
0.0
230
1.0
 70
    12
 71
     2
 72
     7
 73
     4
 74
     0
 42
0.0000000001
 43
0.0000000001
 40
0.0
 40
0.0
 40
0.0
 40
1.0
 40
2.0
 40
2.0
 40
2.0
 10
-8.627146958476104
 20
17.49455239300119
 30
0.0
 41
1.0
 10
-8.711984531929108
 20
17.58949963522305
 30
0.0
 41
1.0
 10
-8.96512245388052
 20
17.86959127803225
 30
0.0
 41
1.0
 10
-9.053785040842598
 20
17.96097693526641
 30
0.0
 41
1.0
  0
SPLINE
  5
12C
330
1F
100
AcDbEntity
  8
MAKE2D VISIBLE LINES
100
AcDbSpline
210
0.0
220
0.0
230
1.0
 70
    12
 71
     2
 72
     6
 73
     3
 74
     0
 42
0.0000000001
 43
0.0000000001
 40
-0.3590936632311201
 40
-0.3590936632311201
 40
-0.3590936632311201
 40
0.0
 40
0.0
 40
0.0
 10
-4.701935526524261
 20
15.74514780786723
 30
0.0
 41
1.0
 10
-4.827484579064138
 20
15.88501835845917
 30
0.0
 41
0.9342250861939277
 10
-4.825680976213238
 20
16.07297549746599
 30
0.0
 41
0.9999983047728426
  0
SPLINE
  5
12D
330
1F
100
AcDbEntity
  8
MAKE2D VISIBLE LINES
100
AcDbSpline
210
0.0
220
0.0
230
1.0
 70
    24
 71
     2
 72
     6
 73
     3
 74
     0
 42
0.0000000001
 43
0.0000000001
 40
0.0
 40
0.0
 40
0.0
 40
0.40304397363726
 40
0.40304397363726
 40
0.40304397363726
 10
-4.825680976213238
 20
16.07297549746599
 30
0.0
 10
-4.824585121443207
 20
16.27449748428462
 30
0.0
 10
-4.823489266673177
 20
16.47601947110325
 30
0.0
  0
SPLINE
  5
12E
330
1F
100
AcDbEntity
  8
MAKE2D VISIBLE LINES
100
AcDbSpline
210
0.0
220
0.0
230
1.0
 70
    12
 71
     2
 72
     6
 73
     3
 74
     0
 42
0.0000000001
 43
0.0000000001
 40
0.0
 40
0.0
 40
0.0
 40
0.3527729993252487
 40
0.3527729993252487
 40
0.3527729993252487
 10
-3.955001668014495
 20
15.74750534992011
 30
0.0
 41
1.0
 10
-3.833305706047376
 20
15.88612317749874
 30
0.0
 41
0.935636063196829
 10
-3.833489266673178
 20
16.07058123665371
 30
0.0
 41
1.0
  0
SPLINE
  5
12F
330
1F
100
AcDbEntity
  8
MAKE2D VISIBLE LINES
100
AcDbSpline
210
0.0
220
0.0
230
1.0
 70
    24
 71
     2
 72
     6
 73
     3
 74
     0
 42
0.0000000001
 43
0.0000000001
 40
0.0
 40
0.0
 40
0.0
 40
0.35397136597323
 40
0.35397136597323
 40
0.35397136597323
 10
-3.833489266673178
 20
16.07058123665371
 30
0.0
 10
-3.833489266673179
 20
16.24756691964032
 30
0.0
 10
-3.83348926667318
 20
16.42455260262694
 30
0.0
  0
SPLINE
  5
130
330
1F
100
AcDbEntity
  8
MAKE2D VISIBLE LINES
100
AcDbSpline
210
0.0
220
0.0
230
1.0
 70
    12
 71
     2
 72
     6
 73
     3
 74
     0
 42
0.0000000001
 43
0.0000000001
 40
0.0
 40
0.0
 40
0.0
 40
2.423793056935102
 40
2.423793056935102
 40
2.423793056935102
 10
-0.5820347176024754
 20
16.16298067941642
 30
0.0
 41
1.0
 10
-1.794150894868707
 20
16.21129736156455
 30
0.0
 41
0.9985387582686867
 10
-2.993973009372791
 20
16.39014652290243
 30
0.0
 41
1.0
  0
SPLINE
  5
131
330
1F
100
AcDbEntity
  8
MAKE2D VISIBLE LINES
100
AcDbSpline
210
0.0
220
0.0
230
1.0
 70
    12
 71
     2
 72
     6
 73
     3
 74
     0
 42
0.0000000001
 43
0.0000000001
 40
0.0
 40
0.0
 40
0.0
 40
0.7473847420755672
 40
0.7473847420755672
 40
0.7473847420755672
 10
-4.001363716688768
 20
16.43735793932769
 30
0.0
 41
1.0
 10
-4.360082953370006
 20
16.18856768343522
 30
0.0
 41
0.7973745102127584
 10
-4.696952909337941
 20
16.46622703400417
 30
0.0
 41
1.0
  0
SPLINE
  5
132
330
1F
100
AcDbEntity
  8
DEFAULT
100
AcDbSpline
210
0.0
220
0.0
230
1.0
 70
    24
 71
     2
 72
     6
 73
     3
 74
     0
 42
0.0000000001
 43
0.0000000001
 40
0.0
 40
0.0
 40
0.0
 40
0.5321440388778741
 40
0.5321440388778741
 40
0.5321440388778741
 10
-4.699882203321968
 20
15.79542700207427
 30
0.0
 10
-4.696685734997558
 20
15.52945819008728
 30
0.0
 10
-4.693489266673148
 20
15.26348937810028
 30
0.0
  0
SPLINE
  5
133
330
1F
100
AcDbEntity
  8
DEFAULT
100
AcDbSpline
210
0.0
220
0.0
230
1.0
 70
    12
 71
     2
 72
     6
 73
     3
 74
     0
 42
0.0000000001
 43
0.0000000001
 40
0.0
 40
0.0
 40
0.0
 40
0.2236524678536994
 40
0.2236524678536994
 40
0.2236524678536994
 10
-4.693489266673148
 20
15.26348937810028
 30
0.0
 41
1.0
 10
-4.658692548517843
 20
15.14866119948251
 30
0.0
 41
0.9010587385208312
 10
-4.547239266673174
 20
15.10422598636154
 30
0.0
 41
1.0
  0
SPLINE
  5
134
330
1F
100
AcDbEntity
  8
DEFAULT
100
AcDbSpline
210
0.0
220
0.0
230
1.0
 70
     8
 71
     3
 72
     8
 73
     4
 74
     0
 42
0.0000000001
 43
0.0000000001
 40
0.0
 40
0.0
 40
0.0
 40
0.0
 40
1.0
 40
1.0
 40
1.0
 40
1.0
 10
-4.547239266673174
 20
15.10422598636154
 30
0.0
 10
-4.411775269937276
 20
15.05021796196287
 30
0.0
 10
-4.245203263409078
 20
15.05021796196287
 30
0.0
 10
-4.109739266673182
 20
15.10422598636154
 30
0.0
  0
SPLINE
  5
135
330
1F
100
AcDbEntity
  8
DEFAULT
100
AcDbSpline
210
0.0
220
0.0
230
1.0
 70
    12
 71
     2
 72
     6
 73
     3
 74
     0
 42
0.0000000001
 43
0.0000000001
 40
0.0
 40
0.0
 40
0.0
 40
0.2236524678536981
 40
0.2236524678536981
 40
0.2236524678536981
 10
-4.109739266673182
 20
15.10422598636154
 30
0.0
 41
1.0
 10
-3.998285984828513
 20
15.14866119948251
 30
0.0
 41
0.9010587385208331
 10
-3.963489266673208
 20
15.26348937810028
 30
0.0
 41
1.0
  0
SPLINE
  5
136
330
1F
100
AcDbEntity
  8
DEFAULT
100
AcDbSpline
210
0.0
220
0.0
230
1.0
 70
    24
 71
     2
 72
     6
 73
     3
 74
     0
 42
0.0000000001
 43
0.0000000001
 40
0.0
 40
0.0
 40
0.0
 40
0.5321440388778741
 40
0.5321440388778741
 40
0.5321440388778741
 10
-3.963489266673208
 20
15.26348937810028
 30
0.0
 10
-3.958824199159674
 20
15.52952049784647
 30
0.0
 10
-3.954159131646138
 20
15.79555161759265
 30
0.0
  0
SPLINE
  5
137
330
1F
100
AcDbEntity
  8
DEFAULT
100
AcDbSpline
210
0.0
220
0.0
230
1.0
 70
     8
 71
     3
 72
    14
 73
    10
 74
     0
 42
0.0000000001
 43
0.0000000001
 40
0.0
 40
0.0
 40
0.0
 40
0.0
 40
0.0011429773882848
 40
0.0041559612549722
 40
0.010740543323966
 40
0.120253821530844
 40
0.2135872029610184
 40
0.4059865476491976
 40
0.8047865810560537
 40
0.8047865810560537
 40
0.8047865810560537
 40
0.8047865810560537
 10
-3.954159131646138
 20
15.79555161759265
 30
0.0
 10
-3.954064698968024
 20
15.79604234793775
 30
0.0
 10
-3.954729804750294
 20
15.79728640809484
 30
0.0
 10
-3.958799138006872
 20
15.79657232931934
 30
0.0
 10
-3.990713770963564
 20
15.77377427350036
 30
0.0
 10
-4.048527104861989
 20
15.7326125322114
 30
0.0
 10
-4.168668647219088
 20
15.68037079668747
 30
0.0
 10
-4.398510030423761
 20
15.63876513456371
 30
0.0
 10
-4.592563028077378
 20
15.71305959995781
 30
0.0
 10
-4.699882203321968
 20
15.79542700207427
 30
0.0
  0
SPLINE
  5
138
330
1F
100
AcDbEntity
  8
DEFAULT
100
AcDbSpline
210
0.0
220
0.0
230
1.0
 70
    24
 71
     2
 72
     6
 73
     3
 74
     0
 42
0.0000000001
 43
0.0000000001
 40
0.0
 40
0.0
 40
0.0
 40
0.5321440388778759
 40
0.5321440388778759
 40
0.5321440388778759
 10
-4.702819401700218
 20
16.46647188523465
 30
0.0
 10
-4.698154334186682
 20
16.20044076548847
 30
0.0
 10
-4.693489266673148
 20
15.93440964574228
 30
0.0
  0
SPLINE
  5
139
330
1F
100
AcDbEntity
  8
DEFAULT
100
AcDbSpline
210
0.0
220
0.0
230
1.0
 70
    12
 71
     2
 72
     6
 73
     3
 74
     0
 42
0.0000000001
 43
0.0000000001
 40
0.0
 40
0.0
 40
0.0
 40
0.223652467853702
 40
0.223652467853702
 40
0.223652467853702
 10
-4.693489266673148
 20
15.93440964574228
 30
0.0
 41
1.0
 10
-4.65869254851784
 20
15.81958146712452
 30
0.0
 41
0.9010587385208453
 10
-4.547239266673174
 20
15.77514625400353
 30
0.0
 41
1.0
  0
SPLINE
  5
13A
330
1F
100
AcDbEntity
  8
DEFAULT
100
AcDbSpline
210
0.0
220
0.0
230
1.0
 70
     8
 71
     3
 72
     8
 73
     4
 74
     0
 42
0.0000000001
 43
0.0000000001
 40
0.0
 40
0.0
 40
0.0
 40
0.0
 40
1.0
 40
1.0
 40
1.0
 40
1.0
 10
-4.547239266673174
 20
15.77514625400353
 30
0.0
 10
-4.411775269937279
 20
15.72113822960486
 30
0.0
 10
-4.245203263409079
 20
15.72113822960487
 30
0.0
 10
-4.109739266673182
 20
15.77514625400354
 30
0.0
  0
SPLINE
  5
13B
330
1F
100
AcDbEntity
  8
DEFAULT
100
AcDbSpline
210
0.0
220
0.0
230
1.0
 70
    12
 71
     2
 72
     6
 73
     3
 74
     0
 42
0.0000000001
 43
0.0000000001
 40
0.0
 40
0.0
 40
0.0
 40
0.2236524678537002
 40
0.2236524678537002
 40
0.2236524678537002
 10
-4.109739266673182
 20
15.77514625400354
 30
0.0
 41
1.0
 10
-3.998285984828513
 20
15.81958146712451
 30
0.0
 41
0.9010587385208325
 10
-3.963489266673208
 20
15.93440964574228
 30
0.0
 41
1.0
  0
SPLINE
  5
13C
330
1F
100
AcDbEntity
  8
DEFAULT
100
AcDbSpline
210
0.0
220
0.0
230
1.0
 70
    24
 71
     2
 72
     6
 73
     3
 74
     0
 42
0.0000000001
 43
0.0000000001
 40
0.0
 40
0.0
 40
0.0
 40
0.4919977399559122
 40
0.4919977399559122
 40
0.4919977399559122
 10
-3.963489266673208
 20
15.93440964574228
 30
0.0
 10
-3.959176143710784
 20
16.18037070160426
 30
0.0
 10
-3.954863020748361
 20
16.42633175746625
 30
0.0
  0
ARC
  5
13D
330
1F
100
AcDbEntity
  8
DEFAULT
100
AcDbCircle
 10
-17.31739563334625
 20
-24.13552727969294
 30
0.0
 40
41.66759639119658
100
AcDbArc
 50
72.37199866554799
 51
77.00741783447043
  0
SPLINE
  5
13E
330
1F
100
AcDbEntity
  8
MAKE2D VISIBLE LINES
100
AcDbSpline
210
0.0
220
0.0
230
1.0
 70
     8
 71
     3
 72
    12
 73
     8
 74
     0
 42
0.0000000001
 43
0.0000000001
 40
0.0
 40
0.0
 40
0.0
 40
0.0
 40
0.1289980641857453
 40
0.2562220713897911
 40
0.4615769468258699
 40
0.6420974572341978
 40
0.9090739014683552
 40
0.9090739014683552
 40
0.9090739014683552
 40
0.9090739014683552
 10
-9.070186619695663
 20
16.78195481076429
 30
0.0
 10
-9.104922508876683
 20
16.80610457632508
 30
0.0
 10
-9.170603097129971
 20
16.864743447519
 30
0.0
 10
-9.26960651225711
 20
16.9762723768876
 30
0.0
 10
-9.344876642721175
 20
17.14766476304774
 30
0.0
 10
-9.246418185406176
 20
17.35523665985551
 30
0.0
 10
-9.128767910014666
 20
17.44789665741967
 30
0.0
 10
-9.06013281301944
 20
17.50466941119394
 30
0.0
  0
SPLINE
  5
13F
330
1F
100
AcDbEntity
  8
MAKE2D VISIBLE LINES
100
AcDbSpline
210
0.0
220
0.0
230
1.0
 70
    24
 71
     2
 72
     6
 73
     3
 74
     0
 42
0.0000000001
 43
0.0000000001
 40
0.0
 40
0.0
 40
0.0
 40
17.66778947039487
 40
17.66778947039487
 40
17.66778947039487
 10
-10.08410720374532
 20
0.2669864245367606
 30
0.0
 10
-9.94827949264976
 20
9.099836871897875
 30
0.0
 10
-9.8124517815542
 20
17.93268731925899
 30
0.0
  0
SPLINE
  5
140
330
1F
100
AcDbEntity
  8
MAKE2D VISIBLE LINES
100
AcDbSpline
210
0.0
220
0.0
230
1.0
 70
    24
 71
     2
 72
     6
 73
     3
 74
     0
 42
0.0000000001
 43
0.0000000001
 40
0.0
 40
0.0
 40
0.0
 40
16.55517303774998
 40
16.55517303774998
 40
16.55517303774998
 10
-7.945994058203715
 20
16.71609073007616
 30
0.0
 10
-8.06113384262232
 20
8.439305037096972
 30
0.0
 10
-8.176273627040926
 20
0.1625193441177805
 30
0.0
  0
SPLINE
  5
141
330
1F
100
AcDbEntity
  8
MAKE2D VISIBLE LINES
100
AcDbSpline
210
0.0
220
0.0
230
1.0
 70
    12
 71
     2
 72
     8
 73
     5
 74
     0
 42
0.0000000001
 43
0.0000000001
 40
-2.61767884764435
 40
-2.61767884764435
 40
-2.61767884764435
 40
-1.76714586765109
 40
-1.76714586765109
 40
-1.573097948998398
 40
-1.573097948998398
 40
-1.573097948998398
 10
-9.811555355401305
 20
17.93127031119547
 30
0.0
 41
0.978914442170177
 10
-9.783069306553012
 20
17.80317460656545
 30
0.0
 41
0.7180591067466878
 10
-9.249921411901177
 20
17.79544755671427
 30
0.0
 41
1.0
 10
-9.15284752879404
 20
17.79394871724068
 30
0.0
 41
0.9990501653435477
 10
-9.056011787757964
 20
17.80090749294196
 30
0.0
 41
1.0
  0
SPLINE
  5
142
330
1F
100
AcDbEntity
  8
MAKE2D VISIBLE LINES
100
AcDbSpline
210
0.0
220
0.0
230
1.0
 70
    24
 71
     2
 72
     6
 73
     3
 74
     0
 42
0.0000000001
 43
0.0000000001
 40
0.0
 40
0.0
 40
0.0
 40
0.0001477489785947
 40
0.0001477489785947
 40
0.0001477489785947
 10
-8.944336426977953
 20
18.48382681667034
 30
0.0
 10
-8.944322050958021
 20
18.4838992788689
 30
0.0
 10
-8.94430767493809
 20
18.48397174106745
 30
0.0
  0
ENDSEC
  0
SECTION
  2
OBJECTS
  0
DICTIONARY
  5
C
330
0
100
AcDbDictionary
281
     1
  3
ACAD_GROUP
350
D
  3
ACAD_LAYOUT
350
1A
  3
ACAD_MLEADERSTYLE
350
144
  3
ACAD_MLINESTYLE
350
17
  3
ACAD_PLOTSETTINGS
350
19
  3
ACAD_PLOTSTYLENAME
350
E
  3
ACAD_TABLESTYLE
350
143
  3
ACAD_VISUALSTYLE
350
2A
  0
DICTIONARY
  5
D
102
{ACAD_REACTORS
330
C
102
}
330
C
100
AcDbDictionary
281
     1
  0
DICTIONARY
  5
1A
102
{ACAD_REACTORS
330
C
102
}
330
C
100
AcDbDictionary
281
     1
  3
Layout1
350
1E
  3
Layout2
350
26
  3
Model
350
22
  0
DICTIONARY
  5
144
102
{ACAD_REACTORS
330
C
102
}
330
C
100
AcDbDictionary
281
     1
  0
DICTIONARY
  5
17
102
{ACAD_REACTORS
330
C
102
}
330
C
100
AcDbDictionary
281
     1
  3
Standard
350
18
  0
DICTIONARY
  5
19
102
{ACAD_REACTORS
330
C
102
}
330
C
100
AcDbDictionary
281
     1
  0
ACDBDICTIONARYWDFLT
  5
E
102
{ACAD_REACTORS
330
C
102
}
330
C
100
AcDbDictionary
281
     1
  3
Normal
350
F
100
AcDbDictionaryWithDefault
340
F
  0
DICTIONARY
  5
143
102
{ACAD_REACTORS
330
C
102
}
330
C
100
AcDbDictionary
281
     1
  0
DICTIONARY
  5
2A
102
{ACAD_REACTORS
330
C
102
}
330
C
100
AcDbDictionary
281
     1
  3
2dWireframe
350
2F
  3
3D Hidden
350
31
  3
3dWireframe
350
30
  3
Basic
350
32
  3
Brighten
350
36
  3
ColorChange
350
3A
  3
Conceptual
350
34
  3
Dim
350
35
  3
Facepattern
350
39
  3
Flat
350
2B
  3
FlatWithEdges
350
2C
  3
Gouraud
350
2D
  3
GouraudWithEdges
350
2E
  3
Linepattern
350
38
  3
Realistic
350
33
  3
Thicken
350
37
  0
LAYOUT
  5
1E
102
{ACAD_REACTORS
330
1A
102
}
330
1A
100
AcDbPlotSettings
  1

  2
none_device
  4

  6

 40
0.0
 41
0.0
 42
0.0
 43
0.0
 44
0.0
 45
0.0
 46
0.0
 47
0.0
 48
0.0
 49
0.0
140
0.0
141
0.0
142
1.0
143
1.0
 70
   688
 72
     0
 73
     0
 74
     5
  7

 75
    16
 76
     0
 77
     2
 78
   300
147
1.0
148
0.0
149
0.0
100
AcDbLayout
  1
Layout1
 70
     1
 71
     1
 10
0.0
 20
0.0
 11
12.0
 21
9.0
 12
0.0
 22
0.0
 32
0.0
 14
1.000000000000000E+20
 24
1.000000000000000E+20
 34
1.000000000000000E+20
 15
-1.000000000000000E+20
 25
-1.000000000000000E+20
 35
-1.000000000000000E+20
146
0.0
 13
0.0
 23
0.0
 33
0.0
 16
1.0
 26
0.0
 36
0.0
 17
0.0
 27
1.0
 37
0.0
 76
     0
330
1B
  0
LAYOUT
  5
26
102
{ACAD_REACTORS
330
1A
102
}
330
1A
100
AcDbPlotSettings
  1

  2
none_device
  4

  6

 40
0.0
 41
0.0
 42
0.0
 43
0.0
 44
0.0
 45
0.0
 46
0.0
 47
0.0
 48
0.0
 49
0.0
140
0.0
141
0.0
142
1.0
143
1.0
 70
   688
 72
     0
 73
     0
 74
     5
  7

 75
    16
 76
     0
 77
     2
 78
   300
147
1.0
148
0.0
149
0.0
100
AcDbLayout
  1
Layout2
 70
     1
 71
     2
 10
0.0
 20
0.0
 11
0.0
 21
0.0
 12
0.0
 22
0.0
 32
0.0
 14
0.0
 24
0.0
 34
0.0
 15
0.0
 25
0.0
 35
0.0
146
0.0
 13
0.0
 23
0.0
 33
0.0
 16
1.0
 26
0.0
 36
0.0
 17
0.0
 27
1.0
 37
0.0
 76
     0
330
23
  0
LAYOUT
  5
22
102
{ACAD_REACTORS
330
1A
102
}
330
1A
100
AcDbPlotSettings
  1

  2
none_device
  4

  6

 40
0.0
 41
0.0
 42
0.0
 43
0.0
 44
0.0
 45
0.0
 46
0.0
 47
0.0
 48
0.0
 49
0.0
140
0.0
141
0.0
142
1.0
143
1.0
 70
  1712
 72
     0
 73
     0
 74
     0
  7

 75
     0
 76
     0
 77
     2
 78
   300
147
1.0
148
0.0
149
0.0
100
AcDbLayout
  1
Model
 70
     1
 71
     0
 10
0.0
 20
0.0
 11
12.0
 21
9.0
 12
0.0
 22
0.0
 32
0.0
 14
-10.08719999549427
 24
0.0000047233536958
 34
0.0
 15
44.7660821612291
 25
66.47486563784624
 35
0.0
146
0.0
 13
0.0
 23
0.0
 33
0.0
 16
1.0
 26
0.0
 36
0.0
 17
0.0
 27
1.0
 37
0.0
 76
     0
330
1F
331
29
  0
MLINESTYLE
  5
18
102
{ACAD_REACTORS
330
17
102
}
330
17
100
AcDbMlineStyle
  2
Standard
 70
     0
  3

 62
   256
 51
90.0
 52
90.0
 71
     2
 49
0.5
 62
   256
  6
BYLAYER
 49
-0.5
 62
   256
  6
BYLAYER
  0
ACDBPLACEHOLDER
  5
F
102
{ACAD_REACTORS
330
E
102
}
330
E
  0
VISUALSTYLE
  5
2F
102
{ACAD_REACTORS
330
2A
102
}
330
2A
100
AcDbVisualStyle
  2
2dWireframe
 70
     4
 71
     0
 72
     2
 73
     0
 90
        0
 40
-0.6
 41
-30.0
 62
     5
 63
     7
421
 16777215
 74
     1
 91
        4
 64
     7
 65
   257
 75
     1
175
     1
 42
1.0
 92
        0
 66
   257
 43
1.0
 76
     1
 77
     6
 78
     2
 67
     7
 79
     5
170
     0
171
     0
290
     0
174
     0
 93
        1
 44
0.0
173
     0
291
     0
 45
0.0
1001
ACAD
1000
AcDbSavedByObjectVersion
1070
     0
  0
VISUALSTYLE
  5
31
102
{ACAD_REACTORS
330
2A
102
}
330
2A
100
AcDbVisualStyle
  2
3D Hidden
 70
     6
 71
     1
 72
     2
 73
     2
 90
        0
 40
-0.6
 41
-30.0
 62
     5
 63
     7
421
 16777215
 74
     2
 91
        2
 64
     7
 65
   257
 75
     2
175
     1
 42
40.0
 92
        0
 66
   257
 43
1.0
 76
     1
 77
     6
 78
     2
 67
     7
 79
     3
170
     0
171
     0
290
     0
174
     0
 93
        1
 44
0.0
173
     0
291
     0
 45
0.0
1001
ACAD
1000
AcDbSavedByObjectVersion
1070
     0
  0
VISUALSTYLE
  5
30
102
{ACAD_REACTORS
330
2A
102
}
330
2A
100
AcDbVisualStyle
  2
3dWireframe
 70
     5
 71
     0
 72
     2
 73
     0
 90
        0
 40
-0.6
 41
-30.0
 62
     5
 63
     7
421
 16777215
 74
     1
 91
        4
 64
     7
 65
   257
 75
     1
175
     1
 42
1.0
 92
        0
 66
   257
 43
1.0
 76
     1
 77
     6
 78
     2
 67
     7
 79
     5
170
     0
171
     0
290
     0
174
     0
 93
        1
 44
0.0
173
     0
291
     0
 45
0.0
1001
ACAD
1000
AcDbSavedByObjectVersion
1070
     0
  0
VISUALSTYLE
  5
32
102
{ACAD_REACTORS
330
2A
102
}
330
2A
100
AcDbVisualStyle
  2
Basic
 70
     7
 71
     1
 72
     0
 73
     1
 90
        0
 40
-0.6
 41
-30.0
 62
     5
 63
     7
421
 16777215
 74
     0
 91
        4
 64
     7
 65
   257
 75
     1
175
     1
 42
1.0
 92
        8
 66
     7
 43
1.0
 76
     1
 77
     6
 78
     2
 67
     7
 79
     5
170
     0
171
     0
290
     0
174
     0
 93
        1
 44
0.0
173
     0
291
     1
 45
0.0
1001
ACAD
1000
AcDbSavedByObjectVersion
1070
     0
  0
VISUALSTYLE
  5
36
102
{ACAD_REACTORS
330
2A
102
}
330
2A
100
AcDbVisualStyle
  2
Brighten
 70
    12
 71
     2
 72
     2
 73
     0
 90
        0
 40
-0.6
 41
-30.0
 62
     5
 63
     7
421
 16777215
 74
     1
 91
        4
 64
     7
 65
   257
 75
     1
175
     1
 42
1.0
 92
        8
 66
     7
 43
1.0
 76
     1
 77
     6
 78
     2
 67
     7
 79
     5
170
     0
171
     0
290
     0
174
     0
 93
        1
 44
50.0
173
     0
291
     1
 45
0.0
1001
ACAD
1000
AcDbSavedByObjectVersion
1070
     0
  0
VISUALSTYLE
  5
3A
102
{ACAD_REACTORS
330
2A
102
}
330
2A
100
AcDbVisualStyle
  2
ColorChange
 70
    16
 71
     2
 72
     2
 73
     3
 90
        0
 40
-0.6
 41
-30.0
 62
     5
 63
     8
421
  8421504
 74
     1
 91
        4
 64
     7
 65
   257
 75
     1
175
     1
 42
1.0
 92
        8
 66
     8
424
  8421504
 43
1.0
 76
     1
 77
     6
 78
     2
 67
     7
 79
     5
170
     0
171
     0
290
     0
174
     0
 93
        1
 44
0.0
173
     0
291
     1
 45
0.0
1001
ACAD
1000
AcDbSavedByObjectVersion
1070
     0
  0
VISUALSTYLE
  5
34
102
{ACAD_REACTORS
330
2A
102
}
330
2A
100
AcDbVisualStyle
  2
Conceptual
 70
     9
 71
     3
 72
     2
 73
     0
 90
        0
 40
-0.6
 41
-30.0
 62
     5
 63
     7
421
 16777215
 74
     2
 91
        2
 64
     7
 65
   257
 75
     1
175
     1
 42
40.0
 92
        8
 66
     7
 43
1.0
 76
     1
 77
     6
 78
     2
 67
     7
 79
     3
170
     0
171
     0
290
     0
174
     0
 93
        1
 44
0.0
173
     0
291
     0
 45
0.0
1001
ACAD
1000
AcDbSavedByObjectVersion
1070
     0
  0
VISUALSTYLE
  5
35
102
{ACAD_REACTORS
330
2A
102
}
330
2A
100
AcDbVisualStyle
  2
Dim
 70
    11
 71
     2
 72
     2
 73
     0
 90
        0
 40
-0.6
 41
-30.0
 62
     5
 63
     7
421
 16777215
 74
     1
 91
        4
 64
     7
 65
   257
 75
     1
175
     1
 42
1.0
 92
        8
 66
     7
 43
1.0
 76
     1
 77
     6
 78
     2
 67
     7
 79
     5
170
     0
171
     0
290
     0
174
     0
 93
        1
 44
-50.0
173
     0
291
     1
 45
0.0
1001
ACAD
1000
AcDbSavedByObjectVersion
1070
     0
  0
VISUALSTYLE
  5
39
102
{ACAD_REACTORS
330
2A
102
}
330
2A
100
AcDbVisualStyle
  2
Facepattern
 70
    15
 71
     2
 72
     2
 73
     0
 90
        0
 40
-0.6
 41
-30.0
 62
     5
 63
     7
421
 16777215
 74
     1
 91
        4
 64
     7
 65
   257
 75
     1
175
     1
 42
1.0
 92
        8
 66
     7
 43
1.0
 76
     1
 77
     6
 78
     2
 67
     7
 79
     5
170
     0
171
     0
290
     0
174
     0
 93
        1
 44
0.0
173
     0
291
     1
 45
0.0
1001
ACAD
1000
AcDbSavedByObjectVersion
1070
     0
  0
VISUALSTYLE
  5
2B
102
{ACAD_REACTORS
330
2A
102
}
330
2A
100
AcDbVisualStyle
  2
Flat
 70
     0
 71
     2
 72
     1
 73
     1
 90
        2
 40
-0.6
 41
30.0
 62
     5
 63
     7
421
 16777215
 74
     0
 91
        4
 64
     7
 65
   257
 75
     1
175
     1
 42
1.0
 92
        8
 66
     7
 43
1.0
 76
     1
 77
     6
 78
     2
 67
     7
 79
     5
170
     0
171
     0
290
     0
174
     0
 93
       13
 44
0.0
173
     0
291
     1
 45
0.0
1001
ACAD
1000
AcDbSavedByObjectVersion
1070
     0
  0
VISUALSTYLE
  5
2C
102
{ACAD_REACTORS
330
2A
102
}
330
2A
100
AcDbVisualStyle
  2
FlatWithEdges
 70
     1
 71
     2
 72
     1
 73
     1
 90
        2
 40
-0.6
 41
30.0
 62
     5
 63
     7
421
 16777215
 74
     1
 91
        4
 64
     7
 65
   257
 75
     1
175
     1
 42
1.0
 92
        0
 66
   257
 43
1.0
 76
     1
 77
     6
 78
     2
 67
     7
 79
     5
170
     0
171
     0
290
     0
174
     0
 93
       13
 44
0.0
173
     0
291
     1
 45
0.0
1001
ACAD
1000
AcDbSavedByObjectVersion
1070
     0
  0
VISUALSTYLE
  5
2D
102
{ACAD_REACTORS
330
2A
102
}
330
2A
100
AcDbVisualStyle
  2
Gouraud
 70
     2
 71
     2
 72
     2
 73
     1
 90
        2
 40
-0.6
 41
30.0
 62
     5
 63
     7
421
 16777215
 74
     0
 91
        4
 64
     7
 65
   257
 75
     1
175
     1
 42
1.0
 92
        0
 66
     7
 43
1.0
 76
     1
 77
     6
 78
     2
 67
     7
 79
     5
170
     0
171
     0
290
     0
174
     0
 93
       13
 44
0.0
173
     0
291
     1
 45
0.0
1001
ACAD
1000
AcDbSavedByObjectVersion
1070
     0
  0
VISUALSTYLE
  5
2E
102
{ACAD_REACTORS
330
2A
102
}
330
2A
100
AcDbVisualStyle
  2
GouraudWithEdges
 70
     3
 71
     2
 72
     2
 73
     1
 90
        2
 40
-0.6
 41
30.0
 62
     5
 63
     7
421
 16777215
 74
     1
 91
        4
 64
     7
 65
   257
 75
     1
175
     1
 42
1.0
 92
        0
 66
   257
 43
1.0
 76
     1
 77
     6
 78
     2
 67
     7
 79
     5
170
     0
171
     0
290
     0
174
     0
 93
       13
 44
0.0
173
     0
291
     1
 45
0.0
1001
ACAD
1000
AcDbSavedByObjectVersion
1070
     0
  0
VISUALSTYLE
  5
38
102
{ACAD_REACTORS
330
2A
102
}
330
2A
100
AcDbVisualStyle
  2
Linepattern
 70
    14
 71
     2
 72
     2
 73
     0
 90
        0
 40
-0.6
 41
-30.0
 62
     5
 63
     7
421
 16777215
 74
     1
 91
        4
 64
     7
 65
   257
 75
     7
175
     7
 42
1.0
 92
        8
 66
     7
 43
1.0
 76
     1
 77
     6
 78
     2
 67
     7
 79
     5
170
     0
171
     0
290
     0
174
     0
 93
        1
 44
0.0
173
     0
291
     1
 45
0.0
1001
ACAD
1000
AcDbSavedByObjectVersion
1070
     0
  0
VISUALSTYLE
  5
33
102
{ACAD_REACTORS
330
2A
102
}
330
2A
100
AcDbVisualStyle
  2
Realistic
 70
     8
 71
     2
 72
     2
 73
     0
 90
        0
 40
-0.6
 41
-30.0
 62
     5
 63
     7
421
 16777215
 74
     1
 91
        0
 64
     7
 65
   257
 75
     1
175
     1
 42
1.0
 92
        8
 66
     8
424
  7895160
 43
1.0
 76
     1
 77
     6
 78
     2
 67
     7
 79
     5
170
     0
171
     0
290
     0
174
     0
 93
       13
 44
0.0
173
     0
291
     0
 45
0.0
1001
ACAD
1000
AcDbSavedByObjectVersion
1070
     0
  0
VISUALSTYLE
  5
37
102
{ACAD_REACTORS
330
2A
102
}
330
2A
100
AcDbVisualStyle
  2
Thicken
 70
    13
 71
     2
 72
     2
 73
     0
 90
        0
 40
-0.6
 41
-30.0
 62
     5
 63
     7
421
 16777215
 74
     1
 91
        4
 64
     7
 65
   257
 75
     1
175
     1
 42
1.0
 92
       12
 66
     7
 43
1.0
 76
     1
 77
     6
 78
     2
 67
     7
 79
     5
170
     0
171
     0
290
     0
174
     0
 93
        1
 44
0.0
173
     0
291
     1
 45
0.0
1001
ACAD
1000
AcDbSavedByObjectVersion
1070
     0
  0
ENDSEC
  0
EOF
