  0
SECTION
  2
HEADER
  9
$ACADVER
  1
AC1018
  9
$ACADMAINTVER
 70
     0
  9
$DWGCODEPAGE
  3
ANSI_1252
  9
$INSBASE
 10
0.0
 20
0.0
 30
0.0
  9
$EXTMIN
 10
-10.20047520061032
 20
0.0006618064113312
 30
0.0
  9
$EXTMAX
 10
49.49749292116412
 20
76.60872711455092
 30
0.0
  9
$LIMMIN
 10
0.0
 20
0.0
  9
$LIMMAX
 10
12.0
 20
9.0
  9
$ORTHOMODE
 70
     0
  9
$REGENMODE
 70
     1
  9
$FILLMODE
 70
     1
  9
$QTEXTMODE
 70
     0
  9
$MIRRTEXT
 70
     1
  9
$LTSCALE
 40
0.0393700787401575
  9
$ATTMODE
 70
     1
  9
$TEXTSIZE
 40
0.2
  9
$TRACEWID
 40
0.05
  9
$TEXTSTYLE
  7
Standard
  9
$CLAYER
  8
DEFAULT
  9
$CELTYPE
  6
ByLayer
  9
$CECOLOR
 62
   256
  9
$CELTSCALE
 40
1.0
  9
$DISPSILH
 70
     0
  9
$DIMSCALE
 40
1.0
  9
$DIMASZ
 40
0.18
  9
$DIMEXO
 40
0.0625
  9
$DIMDLI
 40
0.38
  9
$DIMRND
 40
0.0
  9
$DIMDLE
 40
0.0
  9
$DIMEXE
 40
0.18
  9
$DIMTP
 40
0.0
  9
$DIMTM
 40
0.0
  9
$DIMTXT
 40
0.18
  9
$DIMCEN
 40
0.09
  9
$DIMTSZ
 40
0.0
  9
$DIMTOL
 70
     0
  9
$DIMLIM
 70
     0
  9
$DIMTIH
 70
     1
  9
$DIMTOH
 70
     1
  9
$DIMSE1
 70
     0
  9
$DIMSE2
 70
     0
  9
$DIMTAD
 70
     0
  9
$DIMZIN
 70
     0
  9
$DIMBLK
  1

  9
$DIMASO
 70
     1
  9
$DIMSHO
 70
     1
  9
$DIMPOST
  1

  9
$DIMAPOST
  1

  9
$DIMALT
 70
     0
  9
$DIMALTD
 70
     2
  9
$DIMALTF
 40
25.4
  9
$DIMLFAC
 40
1.0
  9
$DIMTOFL
 70
     0
  9
$DIMTVP
 40
0.0
  9
$DIMTIX
 70
     0
  9
$DIMSOXD
 70
     0
  9
$DIMSAH
 70
     0
  9
$DIMBLK1
  1

  9
$DIMBLK2
  1

  9
$DIMSTYLE
  2
Standard
  9
$DIMCLRD
 70
     0
  9
$DIMCLRE
 70
     0
  9
$DIMCLRT
 70
     0
  9
$DIMTFAC
 40
1.0
  9
$DIMGAP
 40
0.09
  9
$DIMJUST
 70
     0
  9
$DIMSD1
 70
     0
  9
$DIMSD2
 70
     0
  9
$DIMTOLJ
 70
     1
  9
$DIMTZIN
 70
     0
  9
$DIMALTZ
 70
     0
  9
$DIMALTTZ
 70
     0
  9
$DIMUPT
 70
     0
  9
$DIMDEC
 70
     4
  9
$DIMTDEC
 70
     4
  9
$DIMALTU
 70
     2
  9
$DIMALTTD
 70
     2
  9
$DIMTXSTY
  7
Standard
  9
$DIMAUNIT
 70
     0
  9
$DIMADEC
 70
     0
  9
$DIMALTRND
 40
0.0
  9
$DIMAZIN
 70
     0
  9
$DIMDSEP
 70
    46
  9
$DIMATFIT
 70
     3
  9
$DIMFRAC
 70
     0
  9
$DIMLDRBLK
  1

  9
$DIMLUNIT
 70
     2
  9
$DIMLWD
 70
    -2
  9
$DIMLWE
 70
    -2
  9
$DIMTMOVE
 70
     2
  9
$LUNITS
 70
     2
  9
$LUPREC
 70
     3
  9
$SKETCHINC
 40
0.1
  9
$FILLETRAD
 40
0.5
  9
$AUNITS
 70
     0
  9
$AUPREC
 70
     0
  9
$MENU
  1
.
  9
$ELEVATION
 40
0.0
  9
$PELEVATION
 40
0.0
  9
$THICKNESS
 40
0.0
  9
$LIMCHECK
 70
     0
  9
$CHAMFERA
 40
0.5
  9
$CHAMFERB
 40
0.5
  9
$CHAMFERC
 40
1.0
  9
$CHAMFERD
 40
0.0
  9
$SKPOLY
 70
     0
  9
$TDCREATE
 40
2455910.483979259
  9
$TDUCREATE
 40
2455910.692312593
  9
$TDUPDATE
 40
2455910.483979271
  9
$TDUUPDATE
 40
2455910.692312604
  9
$TDINDWG
 40
0.0000000116
  9
$TDUSRTIMER
 40
0.0000000116
  9
$USRTIMER
 70
     1
  9
$ANGBASE
 50
0.0
  9
$ANGDIR
 70
     0
  9
$PDMODE
 70
     0
  9
$PDSIZE
 40
0.0
  9
$PLINEWID
 40
0.0
  9
$SPLFRAME
 70
     0
  9
$SPLINETYPE
 70
     6
  9
$SPLINESEGS
 70
     8
  9
$HANDSEED
  5
135
  9
$SURFTAB1
 70
     6
  9
$SURFTAB2
 70
     6
  9
$SURFTYPE
 70
     6
  9
$SURFU
 70
     6
  9
$SURFV
 70
     6
  9
$UCSBASE
  2

  9
$UCSNAME
  2

  9
$UCSORG
 10
0.0
 20
0.0
 30
0.0
  9
$UCSXDIR
 10
1.0
 20
0.0
 30
0.0
  9
$UCSYDIR
 10
0.0
 20
1.0
 30
0.0
  9
$UCSORTHOREF
  2

  9
$UCSORTHOVIEW
 70
     0
  9
$UCSORGTOP
 10
0.0
 20
0.0
 30
0.0
  9
$UCSORGBOTTOM
 10
0.0
 20
0.0
 30
0.0
  9
$UCSORGLEFT
 10
0.0
 20
0.0
 30
0.0
  9
$UCSORGRIGHT
 10
0.0
 20
0.0
 30
0.0
  9
$UCSORGFRONT
 10
0.0
 20
0.0
 30
0.0
  9
$UCSORGBACK
 10
0.0
 20
0.0
 30
0.0
  9
$PUCSBASE
  2

  9
$PUCSNAME
  2

  9
$PUCSORG
 10
0.0
 20
0.0
 30
0.0
  9
$PUCSXDIR
 10
1.0
 20
0.0
 30
0.0
  9
$PUCSYDIR
 10
0.0
 20
1.0
 30
0.0
  9
$PUCSORTHOREF
  2

  9
$PUCSORTHOVIEW
 70
     0
  9
$PUCSORGTOP
 10
0.0
 20
0.0
 30
0.0
  9
$PUCSORGBOTTOM
 10
0.0
 20
0.0
 30
0.0
  9
$PUCSORGLEFT
 10
0.0
 20
0.0
 30
0.0
  9
$PUCSORGRIGHT
 10
0.0
 20
0.0
 30
0.0
  9
$PUCSORGFRONT
 10
0.0
 20
0.0
 30
0.0
  9
$PUCSORGBACK
 10
0.0
 20
0.0
 30
0.0
  9
$USERI1
 70
     0
  9
$USERI2
 70
     0
  9
$USERI3
 70
     0
  9
$USERI4
 70
     0
  9
$USERI5
 70
     0
  9
$USERR1
 40
0.0
  9
$USERR2
 40
0.0
  9
$USERR3
 40
0.0
  9
$USERR4
 40
0.0
  9
$USERR5
 40
0.0
  9
$WORLDVIEW
 70
     1
  9
$SHADEDGE
 70
     3
  9
$SHADEDIF
 70
    70
  9
$TILEMODE
 70
     1
  9
$MAXACTVP
 70
    64
  9
$PINSBASE
 10
0.0
 20
0.0
 30
0.0
  9
$PLIMCHECK
 70
     0
  9
$PEXTMIN
 10
1.000000000000000E+20
 20
1.000000000000000E+20
 30
1.000000000000000E+20
  9
$PEXTMAX
 10
-1.000000000000000E+20
 20
-1.000000000000000E+20
 30
-1.000000000000000E+20
  9
$PLIMMIN
 10
0.0
 20
0.0
  9
$PLIMMAX
 10
12.0
 20
9.0
  9
$UNITMODE
 70
     0
  9
$VISRETAIN
 70
     1
  9
$PLINEGEN
 70
     0
  9
$PSLTSCALE
 70
     1
  9
$TREEDEPTH
 70
  3020
  9
$CMLSTYLE
  2
Standard
  9
$CMLJUST
 70
     0
  9
$CMLSCALE
 40
1.0
  9
$PROXYGRAPHICS
 70
     1
  9
$MEASUREMENT
 70
     0
  9
$CELWEIGHT
370
    -1
  9
$ENDCAPS
280
     0
  9
$JOINSTYLE
280
     0
  9
$LWDISPLAY
290
     0
  9
$INSUNITS
 70
     1
  9
$HYPERLINKBASE
  1

  9
$STYLESHEET
  1

  9
$XEDIT
290
     1
  9
$CEPSNTYPE
380
     0
  9
$PSTYLEMODE
290
     1
  9
$FINGERPRINTGUID
  2
{5A3766B3-B0D1-4B0D-80BE-FC651D1FA50E}
  9
$VERSIONGUID
  2
{FAEB1C32-E019-11D5-929B-00C0DF256EC4}
  9
$EXTNAMES
290
     1
  9
$PSVPSCALE
 40
0.0
  9
$OLESTARTUP
290
     0
  9
$SORTENTS
280
   127
  9
$INDEXCTL
280
     0
  9
$HIDETEXT
280
     1
  9
$XCLIPFRAME
290
     0
  9
$HALOGAP
280
     0
  9
$OBSCOLOR
 70
   257
  9
$OBSLTYPE
280
     0
  9
$INTERSECTIONDISPLAY
280
     0
  9
$INTERSECTIONCOLOR
 70
   257
  9
$DIMASSOC
280
     2
  9
$PROJECTNAME
  1

  0
ENDSEC
  0
SECTION
  2
CLASSES
  0
CLASS
  1
ACDBDICTIONARYWDFLT
  2
AcDbDictionaryWithDefault
  3
ObjectDBX Classes
 90
        0
 91
        4
280
     0
281
     0
  0
CLASS
  1
VISUALSTYLE
  2
AcDbVisualStyle
  3
ObjectDBX Classes
 90
     4095
 91
        4
280
     0
281
     0
  0
ENDSEC
  0
SECTION
  2
TABLES
  0
TABLE
  2
VPORT
  5
8
330
0
100
AcDbSymbolTable
 70
     1
  0
VPORT
  5
29
330
8
100
AcDbSymbolTableRecord
100
AcDbViewportTableRecord
  2
*Active
 70
     0
 10
0.0
 20
0.0
 11
1.0
 21
1.0
 12
19.6485088602769
 22
38.30469446048112
 13
0.0
 23
0.0
 14
0.5
 24
0.5
 15
0.5
 25
0.5
 16
0.0
 26
0.0
 36
1.0
 17
0.0
 27
0.0
 37
0.0
 40
78.14022661430238
 41
0.7792647925731072
 42
50.0
 43
0.0
 44
0.0
 50
0.0
 51
0.0
 71
     0
 72
   100
 73
     1
 74
     3
 75
     0
 76
     0
 77
     0
 78
     0
281
     0
 65
     1
110
0.0
120
0.0
130
0.0
111
1.0
121
0.0
131
0.0
112
0.0
122
1.0
132
0.0
 79
     0
146
0.0
  0
ENDTAB
  0
TABLE
  2
LTYPE
  5
5
330
0
100
AcDbSymbolTable
 70
     1
  0
LTYPE
  5
14
330
5
100
AcDbSymbolTableRecord
100
AcDbLinetypeTableRecord
  2
ByBlock
 70
     0
  3

 72
    65
 73
     0
 40
0.0
  0
LTYPE
  5
15
330
5
100
AcDbSymbolTableRecord
100
AcDbLinetypeTableRecord
  2
ByLayer
 70
     0
  3

 72
    65
 73
     0
 40
0.0
  0
LTYPE
  5
16
330
5
100
AcDbSymbolTableRecord
100
AcDbLinetypeTableRecord
  2
Continuous
 70
     0
  3
Solid line
 72
    65
 73
     0
 40
0.0
  0
ENDTAB
  0
TABLE
  2
LAYER
  5
2
330
0
100
AcDbSymbolTable
 70
     2
  0
LAYER
  5
10
330
2
100
AcDbSymbolTableRecord
100
AcDbLayerTableRecord
  2
0
 70
     0
 62
     7
  6
Continuous
370
    -3
390
F
  0
LAYER
  5
3B
330
2
100
AcDbSymbolTableRecord
100
AcDbLayerTableRecord
  2
DEFAULT
 70
     0
 62
     7
  6
Continuous
370
    -3
390
F
  0
ENDTAB
  0
TABLE
  2
STYLE
  5
3
330
0
100
AcDbSymbolTable
 70
     1
  0
STYLE
  5
11
330
3
100
AcDbSymbolTableRecord
100
AcDbTextStyleTableRecord
  2
Standard
 70
     0
 40
0.0
 41
1.0
 50
0.0
 71
     0
 42
0.2
  3
txt
  4

  0
ENDTAB
  0
TABLE
  2
VIEW
  5
6
330
0
100
AcDbSymbolTable
 70
     0
  0
ENDTAB
  0
TABLE
  2
UCS
  5
7
330
0
100
AcDbSymbolTable
 70
     0
  0
ENDTAB
  0
TABLE
  2
APPID
  5
9
330
0
100
AcDbSymbolTable
 70
     1
  0
APPID
  5
12
330
9
100
AcDbSymbolTableRecord
100
AcDbRegAppTableRecord
  2
ACAD
 70
     0
  0
ENDTAB
  0
TABLE
  2
DIMSTYLE
  5
A
330
0
100
AcDbSymbolTable
 70
     1
100
AcDbDimStyleTable
  0
DIMSTYLE
105
27
330
A
100
AcDbSymbolTableRecord
100
AcDbDimStyleTableRecord
  2
Standard
 70
     0
340
11
  0
ENDTAB
  0
TABLE
  2
BLOCK_RECORD
  5
1
330
0
100
AcDbSymbolTable
 70
     1
  0
BLOCK_RECORD
  5
1F
330
1
100
AcDbSymbolTableRecord
100
AcDbBlockTableRecord
  2
*Model_Space
340
22
  0
BLOCK_RECORD
  5
1B
330
1
100
AcDbSymbolTableRecord
100
AcDbBlockTableRecord
  2
*Paper_Space
340
1E
  0
BLOCK_RECORD
  5
23
330
1
100
AcDbSymbolTableRecord
100
AcDbBlockTableRecord
  2
*Paper_Space0
340
26
  0
ENDTAB
  0
ENDSEC
  0
SECTION
  2
BLOCKS
  0
BLOCK
  5
20
330
1F
100
AcDbEntity
  8
0
100
AcDbBlockBegin
  2
*Model_Space
 70
     0
 10
0.0
 20
0.0
 30
0.0
  3
*Model_Space
  1

  0
ENDBLK
  5
21
330
1F
100
AcDbEntity
  8
0
100
AcDbBlockEnd
  0
BLOCK
  5
1C
330
1B
100
AcDbEntity
 67
     1
  8
0
100
AcDbBlockBegin
  2
*Paper_Space
 70
     0
 10
0.0
 20
0.0
 30
0.0
  3
*Paper_Space
  1

  0
ENDBLK
  5
1D
330
1B
100
AcDbEntity
 67
     1
  8
0
100
AcDbBlockEnd
  0
BLOCK
  5
24
330
23
100
AcDbEntity
  8
0
100
AcDbBlockBegin
  2
*Paper_Space0
 70
     0
 10
0.0
 20
0.0
 30
0.0
  3
*Paper_Space0
  1

  0
ENDBLK
  5
25
330
23
100
AcDbEntity
  8
0
100
AcDbBlockEnd
  0
ENDSEC
  0
SECTION
  2
ENTITIES
  0
SPLINE
  5
3C
330
1F
100
AcDbEntity
  8
DEFAULT
100
AcDbSpline
210
0.0
220
0.0
230
1.0
 70
    12
 71
     2
 72
     8
 73
     5
 74
     0
 42
0.0000000001
 43
0.0000000001
 40
-0.8898952949257324
 40
-0.8898952949257324
 40
-0.8898952949257324
 40
-0.4217351829039724
 40
-0.4217351829039724
 40
0.0
 40
0.0
 40
0.0
 10
27.86941266747183
 20
0.0186147476953603
 30
0.0
 41
1.0
 10
27.5971523332959
 20
0.0020710573831722
 30
0.0
 41
0.9995634045967902
 10
27.36300411633453
 20
0.0020703980155186
 30
0.0
 41
1.0
 10
27.15208671805638
 20
0.0020715457303836
 30
0.0
 41
0.9996458219849661
 10
26.85659565234703
 20
0.0186179527158765
 30
0.0
 41
1.0
  0
SPLINE
  5
3D
330
1F
100
AcDbEntity
  8
DEFAULT
100
AcDbSpline
210
0.0
220
0.0
230
1.0
 70
    12
 71
     2
 72
     6
 73
     3
 74
     0
 42
0.0000000001
 43
0.0000000001
 40
0.0
 40
0.0
 40
0.0
 40
0.0904493524147892
 40
0.0904493524147892
 40
0.0904493524147892
 10
27.86941266747183
 20
0.0186147476953603
 30
0.0
 41
1.0
 10
27.92491481687025
 20
0.0233738448633592
 30
0.0
 41
0.7402594161839205
 10
27.92550411633452
 20
0.0790765406674373
 30
0.0
 41
1.0
  0
SPLINE
  5
3E
330
1F
100
AcDbEntity
  8
DEFAULT
100
AcDbSpline
210
0.0
220
0.0
230
1.0
 70
    24
 71
     2
 72
     6
 73
     3
 74
     0
 42
0.0000000001
 43
0.0000000001
 40
0.0
 40
0.0
 40
0.0
 40
0.0839112145300478
 40
0.0839112145300478
 40
0.0839112145300478
 10
27.92550411633452
 20
0.0790765406674373
 30
0.0
 10
27.92550411633452
 20
0.121032147932482
 30
0.0
 10
27.92550411633452
 20
0.1629877551975266
 30
0.0
  0
SPLINE
  5
3F
330
1F
100
AcDbEntity
  8
DEFAULT
100
AcDbSpline
210
0.0
220
0.0
230
1.0
 70
    12
 71
     2
 72
     6
 73
     3
 74
     0
 42
0.0000000001
 43
0.0000000001
 40
-0.5626550649758444
 40
-0.5626550649758444
 40
-0.5626550649758444
 40
0.0
 40
0.0
 40
0.0
 10
27.92550411633452
 20
0.1629877551975266
 30
0.0
 41
1.0
 10
27.64438706751275
 20
0.1759589956541445
 30
0.0
 41
0.9995277311970238
 10
27.36300411633452
 20
0.1716366116508808
 30
0.0
 41
1.0
  0
SPLINE
  5
40
330
1F
100
AcDbEntity
  8
DEFAULT
100
AcDbSpline
210
0.0
220
0.0
230
1.0
 70
    12
 71
     2
 72
     6
 73
     3
 74
     0
 42
0.0000000001
 43
0.0000000001
 40
-0.5626550649758444
 40
-0.5626550649758444
 40
-0.5626550649758444
 40
0.0
 40
0.0
 40
0.0
 10
27.36300411633452
 20
0.1716366116508808
 30
0.0
 41
1.0
 10
27.08162116515629
 20
0.1759589956541443
 30
0.0
 41
0.9995277311970242
 10
26.80050411633452
 20
0.1629877551975284
 30
0.0
 41
1.0
  0
SPLINE
  5
41
330
1F
100
AcDbEntity
  8
DEFAULT
100
AcDbSpline
210
0.0
220
0.0
230
1.0
 70
    24
 71
     2
 72
     6
 73
     3
 74
     0
 42
0.0000000001
 43
0.0000000001
 40
0.0
 40
0.0
 40
0.0
 40
0.0839112145300478
 40
0.0839112145300478
 40
0.0839112145300478
 10
26.80050411633452
 20
0.1629877551975284
 30
0.0
 10
26.80050411633453
 20
0.1210321479324833
 30
0.0
 10
26.80050411633453
 20
0.0790765406674383
 30
0.0
  0
SPLINE
  5
42
330
1F
100
AcDbEntity
  8
DEFAULT
100
AcDbSpline
210
0.0
220
0.0
230
1.0
 70
    12
 71
     2
 72
     6
 73
     3
 74
     0
 42
0.0000000001
 43
0.0000000001
 40
0.0
 40
0.0
 40
0.0
 40
0.0903237802530619
 40
0.0903237802530619
 40
0.0903237802530619
 10
26.80050411633453
 20
0.0790765406674383
 30
0.0
 41
1.0
 10
26.80138897715552
 20
0.0236482293951481
 30
0.0
 41
0.7438500827909555
 10
26.85659565234703
 20
0.0186179527158765
 30
0.0
 41
1.0
  0
SPLINE
  5
43
330
1F
100
AcDbEntity
  8
DEFAULT
100
AcDbSpline
210
0.0
220
0.0
230
1.0
 70
    12
 71
     2
 72
     8
 73
     5
 74
     0
 42
0.0000000001
 43
0.0000000001
 40
0.0
 40
0.0
 40
0.0
 40
0.4683147364634115
 40
0.4683147364634115
 40
0.8897132124986529
 40
0.8897132124986529
 40
0.8897132124986529
 10
48.14111221131257
 20
0.0333436205682121
 30
0.0
 41
1.0
 10
47.86955794554246
 20
0.009580574544703
 30
0.0
 41
0.9995630791006821
 10
47.6354229804283
 20
0.0030651312877138
 30
0.0
 41
1.0
 10
47.42475558571712
 20
-0.0027972642549773
 30
0.0
 41
0.999646231579018
 10
47.12883247807149
 20
0.0051741754486312
 30
0.0
 41
1.0
  0
SPLINE
  5
44
330
1F
100
AcDbEntity
  8
DEFAULT
100
AcDbSpline
210
0.0
220
0.0
230
1.0
 70
    12
 71
     2
 72
     6
 73
     3
 74
     0
 42
0.0000000001
 43
0.0000000001
 40
0.0
 40
0.0
 40
0.0
 40
0.0904048108432987
 40
0.0904048108432987
 40
0.0904048108432987
 10
47.12883247807149
 20
0.0051741754486312
 30
0.0
 41
1.0
 10
47.07259249230895
 20
0.0072053574487391
 30
0.0
 41
0.7293564259668366
 10
47.07102457095205
 20
0.0634601645456184
 30
0.0
 41
1.0
  0
SPLINE
  5
45
330
1F
100
AcDbEntity
  8
DEFAULT
100
AcDbSpline
210
0.0
220
0.0
230
1.0
 70
    24
 71
     2
 72
     6
 73
     3
 74
     0
 42
0.0000000001
 43
0.0000000001
 40
0.0
 40
0.0
 40
0.0
 40
0.0839130223841461
 40
0.0839130223841461
 40
0.0839130223841461
 10
47.07102457095205
 20
0.0634601645456184
 30
0.0
 10
47.06985746837341
 20
0.1054004399736783
 30
0.0
 10
47.06869036579477
 20
0.1473407154017381
 30
0.0
  0
SPLINE
  5
46
330
1F
100
AcDbEntity
  8
DEFAULT
100
AcDbSpline
210
0.0
220
0.0
230
1.0
 70
    12
 71
     2
 72
     6
 73
     3
 74
     0
 42
0.0000000001
 43
0.0000000001
 40
-0.0095607264504046
 40
-0.0095607264504046
 40
-0.0095607264504046
 40
0.0
 40
0.0
 40
0.0
 10
47.06869036579477
 20
0.1473407154017381
 30
0.0
 41
1.0
 10
47.07316183067208
 20
0.1491105824969317
 30
0.0
 41
0.9804713528275351
 10
47.07797792040538
 20
0.1494708687905967
 30
0.0
 41
0.9997212034231858
  0
SPLINE
  5
47
330
1F
100
AcDbEntity
  8
DEFAULT
100
AcDbSpline
210
0.0
220
0.0
230
1.0
 70
    12
 71
     2
 72
     6
 73
     3
 74
     0
 42
0.0000000001
 43
0.0000000001
 40
-0.5532852519650923
 40
-0.5532852519650923
 40
-0.5532852519650923
 40
0.0
 40
0.0
 40
0.0
 10
47.07797792040538
 20
0.1494708687905966
 30
0.0
 41
0.9999999748093268
 10
47.35410593844563
 20
0.1667159554092878
 30
0.0
 41
0.9997872064411198
 10
47.63298172398265
 20
0.1721708844611511
 30
0.0
 41
1.0
  0
SPLINE
  5
48
330
1F
100
AcDbEntity
  8
DEFAULT
100
AcDbSpline
210
0.0
220
0.0
230
1.0
 70
    12
 71
     2
 72
     6
 73
     3
 74
     0
 42
0.0000000001
 43
0.0000000001
 40
-0.5185619870506811
 40
-0.5185619870506811
 40
-0.5185619870506811
 40
0.0
 40
0.0
 40
0.0
 10
47.63298172398265
 20
0.1721708844611511
 30
0.0
 41
1.0
 10
47.89441016787286
 20
0.1802757196338292
 30
0.0
 41
0.9999226791243575
 10
48.15369995823819
 20
0.1811420115459519
 30
0.0
 41
0.9999999975285743
  0
SPLINE
  5
49
330
1F
100
AcDbEntity
  8
DEFAULT
100
AcDbSpline
210
0.0
220
0.0
230
1.0
 70
    12
 71
     2
 72
     6
 73
     3
 74
     0
 42
0.0000000001
 43
0.0000000001
 40
-0.0396677367062233
 40
-0.0396677367062233
 40
-0.0396677367062233
 40
0.0
 40
0.0
 40
0.0
 10
48.1536999582382
 20
0.1811420115459519
 30
0.0
 41
0.999988126231597
 10
48.17358931630248
 20
0.1815472981639516
 30
0.0
 41
0.9947997884601657
 10
48.19325502848963
 20
0.1786347950014335
 30
0.0
 41
1.0
  0
SPLINE
  5
4A
330
1F
100
AcDbEntity
  8
DEFAULT
100
AcDbSpline
210
0.0
220
0.0
230
1.0
 70
    24
 71
     2
 72
     6
 73
     3
 74
     0
 42
0.0000000001
 43
0.0000000001
 40
0.0
 40
0.0
 40
0.0
 40
0.0839130223841496
 40
0.0839130223841496
 40
0.0839130223841496
 10
48.19325502848963
 20
0.1786347950014335
 30
0.0
 10
48.19442213106827
 20
0.1366945195733724
 30
0.0
 10
48.19558923364691
 20
0.0947542441453113
 30
0.0
  0
SPLINE
  5
4B
330
1F
100
AcDbEntity
  8
DEFAULT
100
AcDbSpline
210
0.0
220
0.0
230
1.0
 70
    12
 71
     2
 72
     6
 73
     3
 74
     0
 42
0.0000000001
 43
0.0000000001
 40
0.0
 40
0.0
 40
0.0
 40
0.0904048108433082
 40
0.0904048108433082
 40
0.0904048108433082
 10
48.19558923364691
 20
0.0947542441453113
 30
0.0
 41
1.0
 10
48.19715220307066
 20
0.0384992992473749
 30
0.0
 41
0.7293564259667951
 10
48.14111221131257
 20
0.0333436205682121
 30
0.0
 41
1.0
  0
SPLINE
  5
4C
330
1F
100
AcDbEntity
  8
DEFAULT
100
AcDbSpline
210
0.0
220
0.0
230
1.0
 70
    24
 71
     2
 72
     6
 73
     3
 74
     0
 42
0.0000000001
 43
0.0000000001
 40
-24.53139678272294
 40
-24.53139678272294
 40
-24.53139678272294
 40
0.0
 40
0.0
 40
0.0
 10
47.07317991909319
 20
0.1487687213573157
 30
0.0
 10
46.73198563432835
 20
12.40972070205158
 30
0.0
 10
46.39079134956351
 20
24.67067268274585
 30
0.0
  0
SPLINE
  5
4D
330
1F
100
AcDbEntity
  8
DEFAULT
100
AcDbSpline
210
0.0
220
0.0
230
1.0
 70
    12
 71
     3
 72
    10
 73
     6
 74
     0
 42
0.0000000001
 43
0.0000000001
 40
-1.094047586592026
 40
-1.094047586592026
 40
-1.094047586592026
 40
-1.094047586592026
 40
-0.5381012620924772
 40
-0.5381012620924772
 40
0.0
 40
0.0
 40
0.0
 40
0.0
 10
46.39079134956351
 20
24.67067268274585
 30
0.0
 41
1.0
 10
46.38704325257693
 20
24.80537880545009
 30
0.0
 41
1.0
 10
46.42298257441538
 20
24.94954317613834
 30
0.0
 41
1.0
 10
46.59146687298777
 20
25.18996324093786
 30
0.0
 41
1.0
 10
46.73793889466273
 20
25.30546187378726
 30
0.0
 41
1.0
 10
46.93568899149254
 20
25.3110517304159
 30
0.0
 41
1.0
  0
SPLINE
  5
4E
330
1F
100
AcDbEntity
  8
DEFAULT
100
AcDbSpline
210
0.0
220
0.0
230
1.0
 70
    12
 71
     3
 72
    10
 73
     6
 74
     0
 42
0.0000000001
 43
0.0000000001
 40
0.0
 40
0.0
 40
0.0
 40
0.0
 40
0.5385699588464252
 40
0.5385699588464252
 40
1.094039292319471
 40
1.094039292319471
 40
1.094039292319471
 40
1.094039292319471
 10
46.93568899149254
 20
25.3110517304159
 30
0.0
 41
1.0
 10
47.1336334343119
 20
25.3164738489548
 30
0.0
 41
1.0
 10
47.28639705821031
 20
25.20909222677145
 30
0.0
 41
1.0
 10
47.46778330534507
 20
24.97835416771528
 30
0.0
 41
1.0
 10
47.51161115574332
 20
24.83655316111426
 30
0.0
 41
1.0
 10
47.51535601225837
 20
24.70196676234556
 30
0.0
 41
1.0
  0
SPLINE
  5
4F
330
1F
100
AcDbEntity
  8
DEFAULT
100
AcDbSpline
210
0.0
220
0.0
230
1.0
 70
    24
 71
     2
 72
     6
 73
     3
 74
     0
 42
0.0000000001
 43
0.0000000001
 40
-24.53139678272293
 40
-24.53139678272293
 40
-24.53139678272293
 40
0.0
 40
0.0
 40
0.0
 10
47.51535601225837
 20
24.70196676234556
 30
0.0
 10
47.85655029702322
 20
12.4410147816513
 30
0.0
 10
48.19774458178806
 20
0.1800628009570429
 30
0.0
  0
SPLINE
  5
50
330
1F
100
AcDbEntity
  8
DEFAULT
100
AcDbSpline
210
0.0
220
0.0
230
1.0
 70
     8
 71
     3
 72
    13
 73
     9
 74
     0
 42
0.0000000001
 43
0.0000000001
 40
0.0
 40
0.0
 40
0.0
 40
0.0
 40
2.573181444041982
 40
5.146363825740421
 40
10.1790271953643
 40
13.91086206765759
 40
15.2644176150709
 40
24.60606049536534
 40
24.60606049536534
 40
24.60606049536534
 40
24.60606049536534
 10
27.92719638382501
 20
0.1644123685307353
 30
0.0
 10
27.92716311232356
 20
1.022177881591944
 30
0.0
 10
27.9642077769027
 20
2.737526474332693
 30
0.0
 10
28.18007719681554
 20
6.124565978665144
 30
0.0
 10
28.6585152152831
 20
9.87651763958887
 30
0.0
 10
29.32358015478838
 20
13.18473173496788
 30
0.0
 10
30.47570633944686
 20
17.85382974896188
 30
0.0
 10
31.33273024739737
 20
21.31423949470512
 30
0.0
 10
32.0782943886461
 20
24.3375895178345
 30
0.0
  0
SPLINE
  5
51
330
1F
100
AcDbEntity
  8
DEFAULT
100
AcDbSpline
210
0.0
220
0.0
230
1.0
 70
    12
 71
     2
 72
     6
 73
     3
 74
     0
 42
0.0000000001
 43
0.0000000001
 40
-0.3259487401652906
 40
-0.3259487401652906
 40
-0.3259487401652906
 40
0.0
 40
0.0
 40
0.0
 10
32.0782943886461
 20
24.3375895178345
 30
0.0
 41
1.0
 10
32.11392494402939
 20
24.49665254748601
 30
0.0
 41
0.9997629657398175
 10
32.15664724783017
 20
24.65395458513434
 30
0.0
 41
1.0
  0
SPLINE
  5
52
330
1F
100
AcDbEntity
  8
DEFAULT
100
AcDbSpline
210
0.0
220
0.0
230
1.0
 70
    12
 71
     2
 72
     6
 73
     3
 74
     0
 42
0.0000000001
 43
0.0000000001
 40
0.0
 40
0.0
 40
0.0
 40
0.5059202388420065
 40
0.5059202388420065
 40
0.5059202388420065
 10
32.15664724783017
 20
24.65395458513434
 30
0.0
 41
1.0
 10
32.21732994215472
 20
24.89952828547581
 30
0.0
 41
0.9999999998305749
 10
32.27801342674621
 20
25.14511772207855
 30
0.0
 41
1.0
  0
SPLINE
  5
53
330
1F
100
AcDbEntity
  8
DEFAULT
100
AcDbSpline
210
0.0
220
0.0
230
1.0
 70
    12
 71
     2
 72
     6
 73
     3
 74
     0
 42
0.0000000001
 43
0.0000000001
 40
0.0
 40
0.0
 40
0.0
 40
0.5647131262011991
 40
0.5647131262011991
 40
0.5647131262011991
 10
32.27801342674621
 20
25.14511772207855
 30
0.0
 41
1.0
 10
32.0070789612488
 20
25.22491489305411
 30
0.0
 41
0.9995639493881749
 10
31.73190484425053
 20
25.28856410590356
 30
0.0
 41
1.0
  0
SPLINE
  5
54
330
1F
100
AcDbEntity
  8
DEFAULT
100
AcDbSpline
210
0.0
220
0.0
230
1.0
 70
    12
 71
     2
 72
     6
 73
     3
 74
     0
 42
0.0000000001
 43
0.0000000001
 40
0.0
 40
0.0
 40
0.0
 40
0.5605701597067834
 40
0.5605701597067834
 40
0.5605701597067834
 10
31.73190484425053
 20
25.28856410590356
 30
0.0
 41
1.0
 10
31.46075228524365
 20
25.35986675475558
 30
0.0
 41
0.9995454043361723
 10
31.18579402347124
 20
25.41469737912751
 30
0.0
 41
1.0
  0
SPLINE
  5
55
330
1F
100
AcDbEntity
  8
DEFAULT
100
AcDbSpline
210
0.0
220
0.0
230
1.0
 70
     8
 71
     3
 72
    11
 73
     7
 74
     0
 42
0.0000000001
 43
0.0000000001
 40
0.0
 40
0.0
 40
0.0
 40
0.0
 40
10.18141145748611
 40
11.42881579600434
 40
14.99093573564483
 40
25.71014457820393
 40
25.71014457820393
 40
25.71014457820393
 40
25.71014457820393
 10
31.18579402347124
 20
25.41469737912751
 30
0.0
 10
30.37263417378828
 20
22.11971631514198
 30
0.0
 10
29.45752672305771
 20
18.42174378088472
 30
0.0
 10
28.25972817422238
 20
13.57034160764916
 30
0.0
 10
27.21799014606406
 20
8.497712927879844
 30
0.0
 10
26.80228766188773
 20
3.737558650999607
 30
0.0
 10
26.80219638382484
 20
0.164412398026464
 30
0.0
  0
SPLINE
  5
56
330
1F
100
AcDbEntity
  8
DEFAULT
100
AcDbSpline
210
0.0
220
0.0
230
1.0
 70
    12
 71
     2
 72
     8
 73
     5
 74
     0
 42
0.0000000001
 43
0.0000000001
 40
-0.8433053248869731
 40
-0.8433053248869731
 40
-0.8433053248869731
 40
-0.4216333844790081
 40
-0.4216333844790081
 40
0.0
 40
0.0
 40
0.0
 10
9.21761597594515
 20
0.0085127089659066
 30
0.0
 41
1.0
 10
9.42835060849284
 20
0.0005296362392564
 30
0.0
 41
0.9996457039810459
 10
9.639211465054956
 20
0.003772162270628
 30
0.0
 41
1.0
 10
9.850053032266905
 20
0.0070143916788095
 30
0.0
 41
0.9996457687649688
 10
10.14523829911552
 20
0.0277571389145863
 30
0.0
 41
1.0
  0
SPLINE
  5
57
330
1F
100
AcDbEntity
  8
DEFAULT
100
AcDbSpline
210
0.0
220
0.0
230
1.0
 70
    12
 71
     2
 72
     6
 73
     3
 74
     0
 42
0.0000000001
 43
0.0000000001
 40
-0.0904093603292067
 40
-0.0904093603292067
 40
-0.0904093603292067
 40
0.0
 40
0.0
 40
0.0
 10
10.14523829911552
 20
0.0277571389145863
 30
0.0
 41
1.0
 10
10.20134053713727
 20
0.0322182186833529
 30
0.0
 41
0.7293593170846407
 10
10.20047520060892
 20
0.0884908899940779
 30
0.0
 41
1.0
  0
SPLINE
  5
58
330
1F
100
AcDbEntity
  8
DEFAULT
100
AcDbSpline
210
0.0
220
0.0
230
1.0
 70
    24
 71
     2
 72
     6
 73
     3
 74
     0
 42
0.0000000001
 43
0.0000000001
 40
-0.0839211351619186
 40
-0.0839211351619186
 40
-0.0839211351619186
 40
0.0
 40
0.0
 40
0.0
 10
10.20047520060892
 20
0.0884908899940779
 30
0.0
 10
10.19967825798842
 20
0.1308026542844677
 30
0.0
 10
10.19888131536793
 20
0.1731144185748574
 30
0.0
  0
SPLINE
  5
59
330
1F
100
AcDbEntity
  8
DEFAULT
100
AcDbSpline
210
0.0
220
0.0
230
1.0
 70
    24
 71
     2
 72
     6
 73
     3
 74
     0
 42
0.0000000001
 43
0.0000000001
 40
0.0
 40
0.0
 40
0.0
 40
0.7960449348972201
 40
0.7960449348972201
 40
0.7960449348972201
 10
10.19888131536793
 20
0.1731144185748574
 30
0.0
 10
9.800754132006585
 20
0.1673506837140199
 30
0.0
 10
9.402626948645244
 20
0.1615869488531823
 30
0.0
  0
SPLINE
  5
5A
330
1F
100
AcDbEntity
  8
DEFAULT
100
AcDbSpline
210
0.0
220
0.0
230
1.0
 70
    12
 71
     2
 72
    22
 73
    19
 74
     0
 42
0.0000000001
 43
0.0000000001
 40
0.0
 40
0.0
 40
0.0
 40
0.0001374307783543
 40
0.0001374307783543
 40
0.0813038498495856
 40
0.0813038498495856
 40
0.156455223836652
 40
0.156455223836652
 40
0.2249033506938929
 40
0.2249033506938929
 40
0.2865468965471257
 40
0.2865468965471257
 40
0.3416018977803437
 40
0.3416018977803437
 40
0.3904470426976192
 40
0.3904470426976192
 40
0.4336405031341842
 40
0.4336405031341842
 40
0.4478223388934177
 40
0.4478223388934177
 40
0.4478223388934177
 10
9.05580740545396
 20
25.16644226030379
 30
0.0
 41
1.0
 10
9.055875935286675
 20
25.16643721384547
 30
0.0
 41
0.9999999993809698
 10
9.055944465474353
 20
25.16643217220975
 30
0.0
 41
1.0
 10
9.096424645006321
 20
25.16347177351134
 30
0.0
 41
0.9998124319223778
 10
9.13698910590392
 20
25.16208130327398
 30
0.0
 41
1.0
 10
9.174545900371184
 20
25.16078718340423
 30
0.0
 41
0.9998644098243428
 10
9.212124941645198
 20
25.16073049284569
 30
0.0
 41
1.0
 10
9.246351392422628
 20
25.16067552728328
 30
0.0
 41
0.9998934419064764
 10
9.280564860171655
 20
25.16161976169225
 30
0.0
 41
1.0
 10
9.311376779373477
 20
25.16246851936241
 30
0.0
 41
0.9999107443139816
 10
9.342155020852589
 20
25.16414022685348
 30
0.0
 41
1.0
 10
9.369643481005932
 20
25.16563252375014
 30
0.0
 41
0.9999217169299037
 10
9.397085992480942
 20
25.16781219243451
 30
0.0
 41
1.0
 10
9.421433077367704
 20
25.16974558859035
 30
0.0
 41
0.999928940415365
 10
9.445727148740776
 20
25.17225888509071
 30
0.0
 41
1.0
 10
9.467210186024046
 20
25.17448130728053
 30
0.0
 41
0.999933603197915
 10
9.488636301471525
 20
25.17719822246791
 30
0.0
 41
1.0
 10
9.49567078023989
 20
25.17809140565112
 30
0.0
 41
0.9999917758394243
 10
9.502697782790861
 20
25.17904161767481
 30
0.0
 41
1.0
  0
SPLINE
  5
5B
330
1F
100
AcDbEntity
  8
DEFAULT
100
AcDbSpline
210
0.0
220
0.0
230
1.0
 70
    12
 71
     2
 72
    16
 73
    13
 74
     0
 42
0.0000000001
 43
0.0000000001
 40
0.0
 40
0.0
 40
0.0
 40
0.0806504200282762
 40
0.0806504200282762
 40
0.1743258249211015
 40
0.1743258249211015
 40
0.2423600298270026
 40
0.2423600298270026
 40
0.2924131432867252
 40
0.2924131432867252
 40
0.3265614696477811
 40
0.3265614696477811
 40
0.3521808302996258
 40
0.3521808302996258
 40
0.3521808302996258
 10
9.502697782790861
 20
25.17904161767481
 30
0.0
 41
1.0
 10
9.542675126356894
 20
25.18439863312636
 30
0.0
 41
0.9996482269205631
 10
9.582312169237749
 20
25.1918679332814
 30
0.0
 41
1.0
 10
9.628391974588508
 20
25.2004477515344
 30
0.0
 41
0.998910488017883
 10
9.673471149898575
 20
25.21328635331897
 30
0.0
 41
1.0
 10
9.706247757807569
 20
25.22255289868125
 30
0.0
 41
0.9980529921694051
 10
9.737615659833223
 20
25.23582804883032
 30
0.0
 41
1.0
 10
9.76080632082048
 20
25.24547071604457
 30
0.0
 41
0.9946970531954675
 10
9.781533425126216
 20
25.25965433106787
 30
0.0
 41
1.0
 10
9.795918662296849
 20
25.26924277444036
 30
0.0
 41
0.981553260770642
 10
9.805653472021248
 20
25.28352936865985
 30
0.0
 41
1.0
 10
9.81316881381722
 20
25.29456779382417
 30
0.0
 41
0.9399736737485752
 10
9.81185239973968
 20
25.30785667061625
 30
0.0
 41
1.0
  0
SPLINE
  5
5C
330
1F
100
AcDbEntity
  8
DEFAULT
100
AcDbSpline
210
0.0
220
0.0
230
1.0
 70
    12
 71
     2
 72
     6
 73
     3
 74
     0
 42
0.0000000001
 43
0.0000000001
 40
-25.09328416650955
 40
-25.09328416650955
 40
-25.09328416650955
 40
0.0
 40
0.0
 40
0.0
 10
9.81185239973968
 20
25.30785667061625
 30
0.0
 41
1.0
 10
10.00566005916515
 20
12.71898557262817
 30
0.0
 41
0.9999999999999892
 10
10.19857777602182
 20
0.1738267326727509
 30
0.0
 41
1.0
  0
SPLINE
  5
5D
330
1F
100
AcDbEntity
  8
DEFAULT
100
AcDbSpline
210
0.0
220
0.0
230
1.0
 70
    12
 71
     2
 72
     6
 73
     3
 74
     0
 42
0.0000000001
 43
0.0000000001
 40
0.0
 40
0.0
 40
0.0
 40
0.1542817287576956
 40
0.1542817287576956
 40
0.1542817287576956
 10
9.070171804235027
 20
24.13386221376767
 30
0.0
 41
1.0
 10
9.13274014853342
 20
24.17941440259454
 30
0.0
 41
0.9951050385958604
 10
9.185127285735277
 20
24.23638270492974
 30
0.0
 41
1.0
  0
SPLINE
  5
5E
330
1F
100
AcDbEntity
  8
DEFAULT
100
AcDbSpline
210
0.0
220
0.0
230
1.0
 70
    12
 71
     3
 72
    12
 73
     8
 74
     0
 42
0.0000000001
 43
0.0000000001
 40
-1.975272820121479
 40
-1.975272820121479
 40
-1.975272820121479
 40
-1.975272820121479
 40
-1.596863394842357
 40
-1.596863394842357
 40
-1.398298080885066
 40
-1.398298080885066
 40
-1.370981876227486
 40
-1.370981876227486
 40
-1.370981876227486
 40
-1.370981876227486
 10
9.185127285735277
 20
24.23638270492974
 30
0.0
 41
1.0
 10
9.264601146561105
 20
24.3223519876918
 30
0.0
 41
1.0
 10
9.343435498410614
 20
24.44629206311531
 30
0.0
 41
1.0
 10
9.276078832773678
 20
24.64093859837783
 30
0.0
 41
1.0
 10
9.235116078363617
 20
24.69005703773168
 30
0.0
 41
1.0
 10
9.179057238223024
 20
24.74795680373179
 30
0.0
 41
1.0
 10
9.172231910010467
 20
24.75481183615368
 30
0.0
 41
1.0
 10
9.165355447643279
 20
24.7615360430706
 30
0.0
 41
1.0
  0
SPLINE
  5
5F
330
1F
100
AcDbEntity
  8
DEFAULT
100
AcDbSpline
210
0.0
220
0.0
230
1.0
 70
    12
 71
     2
 72
     6
 73
     3
 74
     0
 42
0.0000000001
 43
0.0000000001
 40
0.0
 40
0.0
 40
0.0
 40
0.1393978618929742
 40
0.1393978618929742
 40
0.1393978618929742
 10
9.165355447643279
 20
24.7615360430706
 30
0.0
 41
1.0
 10
9.11537785760529
 20
24.81022686219747
 30
0.0
 41
0.9983647645364654
 10
9.060169216774892
 20
24.8528948988398
 30
0.0
 41
1.0
  0
SPLINE
  5
60
330
1F
100
AcDbEntity
  8
DEFAULT
100
AcDbSpline
210
0.0
220
0.0
230
1.0
 70
    12
 71
     2
 72
     6
 73
     3
 74
     0
 42
0.0000000001
 43
0.0000000001
 40
0.0
 40
0.0
 40
0.0
 40
0.2283815025292124
 40
0.2283815025292124
 40
0.2283815025292124
 10
9.048594814548114
 20
25.31146057492441
 30
0.0
 41
1.0
 10
8.935096907978178
 20
25.29889994423989
 30
0.0
 41
0.9999990472495242
 10
8.821564756630071
 20
25.28665270580745
 30
0.0
 41
1.0
  0
SPLINE
  5
61
330
1F
100
AcDbEntity
  8
DEFAULT
100
AcDbSpline
210
0.0
220
0.0
230
1.0
 70
    12
 71
     2
 72
     6
 73
     3
 74
     0
 42
0.0000000001
 43
0.0000000001
 40
-0.843257195777037
 40
-0.843257195777037
 40
-0.843257195777037
 40
0.0
 40
0.0
 40
0.0
 10
9.053882108261615
 20
25.3048416109746
 30
0.0
 41
1.0
 10
8.216866689109926
 20
24.39017151163837
 30
0.0
 41
0.9998163608990565
 10
7.945997236585255
 20
24.06699361609278
 30
0.0
 41
1.0
  0
SPLINE
  5
62
330
1F
100
AcDbEntity
  8
DEFAULT
100
AcDbSpline
210
0.0
220
0.0
230
1.0
 70
    15
 71
     2
 72
    22
 73
    19
 74
     0
 42
0.0000000001
 43
0.0000000001
 40
0.0
 40
0.0
 40
0.0
 40
0.453779622357851
 40
0.453779622357851
 40
0.9088630421159327
 40
0.9088630421159327
 40
0.9993756319597356
 40
0.9993756319597356
 40
1.083258245025186
 40
1.083258245025186
 40
1.645838517933367
 40
1.645838517933367
 40
2.170467766655575
 40
2.170467766655575
 40
2.209198126140482
 40
2.209198126140482
 40
2.292861130491013
 40
2.292861130491013
 40
2.383370666709242
 40
2.383370666709242
 40
2.383370666709242
 10
8.335520171470174
 20
0.0115303288202942
 30
0.0
 41
1.0
 10
8.615183681266386
 20
-0.0023890054529852
 30
0.0
 41
0.9995895589252186
 10
8.842169095054745
 20
0.0007647233281332
 30
0.0
 41
1.0
 10
9.069806872438749
 20
0.0039282003818307
 30
0.0
 41
0.9995871947377413
 10
9.348592656514114
 20
0.0255683762887222
 30
0.0
 41
1.0
 10
9.403047475373159
 20
0.0327658620256023
 30
0.0
 41
0.7556419620548741
 10
9.40365488669316
 20
0.0876939475217561
 30
0.0
 41
1.0
 10
9.40332332904988
 20
0.1299897110137476
 30
0.0
 41
1.0
 10
9.402991771406597
 20
0.1722854745057392
 30
0.0
 41
1.0
 10
9.122263507773038
 20
0.1925534421731181
 30
0.0
 41
0.9984590545613797
 10
8.841049868272236
 20
0.1808282938299576
 30
0.0
 41
1.000002485846825
 10
8.578795832973036
 20
0.1790229005210272
 30
0.0
 41
0.9996639313696921
 10
8.317030171284708
 20
0.1629100489306548
 30
0.0
 41
1.000002463241312
 10
8.297649295170714
 20
0.1615662235887231
 30
0.0
 41
0.9947968588941647
 10
8.278192748865983
 20
0.1563388776549319
 30
0.0
 41
1.000011529947611
 10
8.278478195550882
 20
0.1141951622826088
 30
0.0
 41
1.000011529947611
 10
8.27876364223578
 20
0.0720514469102856
 30
0.0
 41
1.000011529947611
 10
8.280806524774968
 20
0.0170908930052505
 30
0.0
 41
0.7543279065398946
 10
8.335520171470174
 20
0.0115303288202942
 30
0.0
 41
1.000011529947611
  0
SPLINE
  5
63
330
1F
100
AcDbEntity
  8
DEFAULT
100
AcDbSpline
210
0.0
220
0.0
230
1.0
 70
    24
 71
     2
 72
     6
 73
     3
 74
     0
 42
0.0000000001
 43
0.0000000001
 40
0.0
 40
0.0
 40
0.0
 40
7.005062463356575
 40
7.005062463356575
 40
7.005062463356575
 10
8.181165091264536
 20
7.161741726619514
 30
0.0
 10
8.229884689666209
 20
3.659549351890022
 30
0.0
 10
8.278604288067882
 20
0.1573569771605292
 30
0.0
  0
SPLINE
  5
64
330
1F
100
AcDbEntity
  8
DEFAULT
100
AcDbSpline
210
0.0
220
0.0
230
1.0
 70
    24
 71
     2
 72
     6
 73
     3
 74
     0
 42
0.0000000001
 43
0.0000000001
 40
0.0
 40
0.0
 40
0.0
 40
15.9071138578569
 40
15.9071138578569
 40
15.9071138578569
 10
7.945994105599121
 20
24.06693100927049
 30
0.0
 10
8.056626694949815
 20
16.11414355757286
 30
0.0
 10
8.167259284300508
 20
8.161356105875226
 30
0.0
  0
SPLINE
  5
65
330
1F
100
AcDbEntity
  8
DEFAULT
100
AcDbSpline
210
0.0
220
0.0
230
1.0
 70
     8
 71
     3
 72
    16
 73
    12
 74
     0
 42
0.0000000001
 43
0.0000000001
 40
0.0
 40
0.0
 40
0.0
 40
0.0
 40
0.0051653854898411
 40
0.0098143762486306
 40
0.0246208546667071
 40
0.0690914466071414
 40
0.1950563379128102
 40
0.3716459122982222
 40
0.591698352566269
 40
0.7938632992620289
 40
1.198788354307877
 40
1.198788354307877
 40
1.198788354307877
 40
1.198788354307877
 10
8.169926666297663
 20
8.15697358070862
 30
0.0
 10
8.169017785708158
 20
8.157877454730597
 30
0.0
 10
8.16596152359163
 20
8.162836790777945
 30
0.0
 10
8.174029992320854
 20
8.156999997250491
 30
0.0
 10
8.18908249079949
 20
8.141344813251687
 30
0.0
 10
8.231123777604648
 20
8.09883344684664
 30
0.0
 10
8.308868920746951
 20
8.007953418422503
 30
0.0
 10
8.41503323484643
 20
7.878117767382892
 30
0.0
 10
8.509220228308351
 20
7.684110442293909
 30
0.0
 10
8.400974019144414
 20
7.415593108908133
 30
0.0
 10
8.261734034721623
 20
7.271507031664655
 30
0.0
 10
8.181165049816585
 20
7.161747733238475
 30
0.0
  0
SPLINE
  5
66
330
1F
100
AcDbEntity
  8
DEFAULT
100
AcDbSpline
210
0.0
220
0.0
230
1.0
 70
    24
 71
     2
 72
     6
 73
     3
 74
     0
 42
0.0000000001
 43
0.0000000001
 40
0.0
 40
0.0
 40
0.0
 40
25.13427378211947
 40
25.13427378211947
 40
25.13427378211947
 10
9.403495490579715
 20
0.1729994771905712
 30
0.0
 10
9.228688799420665
 20
12.73892054408259
 30
0.0
 10
9.053882108261615
 20
25.3048416109746
 30
0.0
  0
SPLINE
  5
67
330
1F
100
AcDbEntity
  8
DEFAULT
100
AcDbSpline
210
0.0
220
0.0
230
1.0
 70
    12
 71
     2
 72
     6
 73
     3
 74
     0
 42
0.0000000001
 43
0.0000000001
 40
0.0
 40
0.0
 40
0.0
 40
0.0004258303068065
 40
0.0004258303068065
 40
0.0004258303068065
 10
8.27877266825046
 20
0.1569824818716526
 30
0.0
 41
1.0
 10
8.278614541658317
 20
0.1571400430827636
 30
0.0
 41
0.9321373108086077
 10
8.278604245964871
 20
0.1573630308696172
 30
0.0
 41
1.0
  0
SPLINE
  5
68
330
1F
100
AcDbEntity
  8
DEFAULT
100
AcDbSpline
210
0.0
220
0.0
230
1.0
 70
    12
 71
     3
 72
    27
 73
    23
 74
     0
 42
0.0000000001
 43
0.0000000001
 40
0.0
 40
0.0
 40
0.0
 40
0.0
 40
1.244728433228314
 40
1.244728433228314
 40
1.244728433228314
 40
1.870401398594343
 40
1.870401398594343
 40
1.870401398594343
 40
4.920229152264927
 40
4.920229152264927
 40
4.920229152264927
 40
5.772800495400565
 40
6.586620086222773
 40
8.673929290600562
 40
8.673929290600562
 40
8.673929290600562
 40
9.446987305907031
 40
10.18186587578625
 40
11.72195382020863
 40
14.37741709520271
 40
14.41934725534845
 40
14.5374141795705
 40
14.5374141795705
 40
14.5374141795705
 40
14.5374141795705
 10
-9.812024206979117
 20
25.30785930897609
 30
0.0
 41
1.0
 10
-9.805078233260316
 20
25.72271164806335
 30
0.0
 41
0.9999951491592268
 10
-9.799715950733724
 20
26.13818468274841
 30
0.0
 41
0.9999951491592268
 10
-9.79593743743402
 20
26.55427236685067
 30
0.0
 41
1.0
 10
-9.794564521912566
 20
26.76402120863095
 30
0.0
 41
0.9999875412613548
 10
-9.791884196796369
 20
26.97488374368836
 30
0.0
 41
0.9999875412613548
 10
-9.787896562265871
 20
27.18685209077928
 30
0.0
 41
1.0
 10
-9.768280953900678
 20
28.20671963947298
 30
0.0
 41
0.9999999998608998
 10
-9.74867766833419
 20
29.22487348909701
 30
0.0
 41
0.9999999998608998
 10
-9.729086705574616
 20
30.2413136392265
 30
0.0
 41
1.0
 10
-9.725643444996138
 20
30.52552774249082
 30
0.0
 41
1.0
 10
-9.716479212786112
 20
31.08088679750555
 30
0.0
 41
1.0
 10
-9.67662846026468
 20
32.33161244190725
 30
0.0
 41
1.0
 10
-9.60867538705807
 20
33.29648673160278
 30
0.0
 41
1.0
 10
-9.572498973225379
 20
33.99136802518505
 30
0.0
 41
1.0
 10
-9.557521082863417
 20
34.24869811780761
 30
0.0
 41
1.0
 10
-9.524251207213524
 20
34.75028606386754
 30
0.0
 41
1.0
 10
-9.440331821555219
 20
35.76281317538724
 30
0.0
 41
1.0
 10
-9.26597286477488
 20
37.39728841445265
 30
0.0
 41
1.0
 10
-9.06515953487144
 20
38.7956023035695
 30
0.0
 41
1.0
 10
-8.930197656893597
 20
39.72432338727121
 30
0.0
 41
1.0
 10
-8.878777845048006
 20
39.79932211451095
 30
0.0
 41
1.0
 10
-8.849998081824594
 20
39.82488624899138
 30
0.0
 41
1.0
  0
SPLINE
  5
69
330
1F
100
AcDbEntity
  8
DEFAULT
100
AcDbSpline
210
0.0
220
0.0
230
1.0
 70
     8
 71
     3
 72
    14
 73
    10
 74
     0
 42
0.0000000001
 43
0.0000000001
 40
0.0
 40
0.0
 40
0.0
 40
0.0
 40
0.0559075622214563
 40
0.0815199279409795
 40
0.1553079131419963
 40
0.1666624510078076
 40
2.770559133715509
 40
4.914447712395043
 40
8.877532991886884
 40
8.877532991886884
 40
8.877532991886884
 40
8.877532991886884
 10
-8.849998081824594
 20
39.82488624899138
 30
0.0
 10
-8.836294188102386
 20
39.83705897533734
 30
0.0
 10
-8.783619928427925
 20
39.87106589936729
 30
0.0
 10
-8.733981365018394
 20
39.88323792445544
 30
0.0
 10
-8.696315743605851
 20
39.88853097595396
 30
0.0
 10
-7.810853097720894
 20
39.75018632903983
 30
0.0
 10
-6.244612968252653
 20
39.49472853714852
 30
0.0
 10
-3.356268677821305
 20
39.18865727164862
 30
0.0
 10
-1.321165740089896
 20
39.09785894697116
 30
0.0
 10
0.0
 20
39.09784115251885
 30
0.0
  0
SPLINE
  5
6A
330
1F
100
AcDbEntity
  8
DEFAULT
100
AcDbSpline
210
0.0
220
0.0
230
1.0
 70
     8
 71
     3
 72
    14
 73
    10
 74
     0
 42
0.0000000001
 43
0.0000000001
 40
-8.877532991886884
 40
-8.877532991886884
 40
-8.877532991886884
 40
-8.877532991886884
 40
-4.914447712395043
 40
-2.770559133715509
 40
-0.1666624510078076
 40
-0.1553079131419963
 40
-0.0815199279409795
 40
-0.0559075622214563
 40
0.0
 40
0.0
 40
0.0
 40
0.0
 10
0.0
 20
39.09784115251885
 30
0.0
 10
1.321165740089839
 20
39.09785894697116
 30
0.0
 10
3.356268677821276
 20
39.18865727164862
 30
0.0
 10
6.244612968252625
 20
39.49472853714852
 30
0.0
 10
7.810853097720894
 20
39.75018632903983
 30
0.0
 10
8.696315743605822
 20
39.88853097595396
 30
0.0
 10
8.733981365018394
 20
39.88323792445544
 30
0.0
 10
8.783619928427868
 20
39.87106589936729
 30
0.0
 10
8.836294188102386
 20
39.83705897533734
 30
0.0
 10
8.849998081824594
 20
39.82488624899138
 30
0.0
  0
SPLINE
  5
6B
330
1F
100
AcDbEntity
  8
DEFAULT
100
AcDbSpline
210
0.0
220
0.0
230
1.0
 70
    12
 71
     3
 72
    27
 73
    23
 74
     0
 42
0.0000000001
 43
0.0000000001
 40
-14.5374141795705
 40
-14.5374141795705
 40
-14.5374141795705
 40
-14.5374141795705
 40
-14.41934725534845
 40
-14.37741709520271
 40
-11.72195382020863
 40
-10.18186587578625
 40
-9.446987305907031
 40
-8.673929290600562
 40
-8.673929290600562
 40
-8.673929290600562
 40
-6.586620086222773
 40
-5.772800495400565
 40
-4.920229152264927
 40
-4.920229152264927
 40
-4.920229152264927
 40
-1.870401398594343
 40
-1.870401398594343
 40
-1.870401398594343
 40
-1.244728433228314
 40
-1.244728433228314
 40
-1.244728433228314
 40
0.0
 40
0.0
 40
0.0
 40
0.0
 10
8.849998081824594
 20
39.82488624899138
 30
0.0
 41
1.0
 10
8.878777845047978
 20
39.79932211451095
 30
0.0
 41
1.0
 10
8.93019765689354
 20
39.72432338727121
 30
0.0
 41
1.0
 10
9.06515953487144
 20
38.7956023035695
 30
0.0
 41
1.0
 10
9.26597286477488
 20
37.39728841445265
 30
0.0
 41
1.0
 10
9.440331821555219
 20
35.76281317538724
 30
0.0
 41
1.0
 10
9.524251207213496
 20
34.75028606386754
 30
0.0
 41
1.0
 10
9.557521082863389
 20
34.24869811780761
 30
0.0
 41
1.0
 10
9.572498973225379
 20
33.99136802518505
 30
0.0
 41
1.0
 10
9.608675387058042
 20
33.29648673160278
 30
0.0
 41
1.0
 10
9.67662846026468
 20
32.33161244190725
 30
0.0
 41
1.0
 10
9.716479212786084
 20
31.08088679750555
 30
0.0
 41
1.0
 10
9.725643444996109
 20
30.52552774249082
 30
0.0
 41
1.0
 10
9.72908670557456
 20
30.2413136392265
 30
0.0
 41
1.0
 10
9.748677668334174
 20
29.22487348909701
 30
0.0
 41
0.9999999998608998
 10
9.768280953900662
 20
28.20671963947298
 30
0.0
 41
0.9999999998608998
 10
9.787896562265871
 20
27.18685209077928
 30
0.0
 41
1.0
 10
9.791884196796367
 20
26.97488374368836
 30
0.0
 41
0.9999875412613548
 10
9.794564521912564
 20
26.76402120863095
 30
0.0
 41
0.9999875412613548
 10
9.79593743743402
 20
26.55427236685067
 30
0.0
 41
1.0
 10
9.79971595073371
 20
26.13818468274841
 30
0.0
 41
0.9999951491592268
 10
9.805078233260302
 20
25.72271164806335
 30
0.0
 41
0.9999951491592268
 10
9.81202420697906
 20
25.30785930897609
 30
0.0
 41
1.0
  0
SPLINE
  5
6C
330
1F
100
AcDbEntity
  8
DEFAULT
100
AcDbSpline
210
0.0
220
0.0
230
1.0
 70
    12
 71
     2
 72
     6
 73
     3
 74
     0
 42
0.0000000001
 43
0.0000000001
 40
0.0
 40
0.0
 40
0.0
 40
0.7473847420755672
 40
0.7473847420755672
 40
0.7473847420755672
 10
-4.001363716688786
 20
23.78830453015929
 30
0.0
 41
1.0
 10
-4.360082953370012
 20
23.53951427426681
 30
0.0
 41
0.7973745102127584
 10
-4.696952909337938
 20
23.81717362483577
 30
0.0
 41
1.0
  0
SPLINE
  5
6D
330
1F
100
AcDbEntity
  8
DEFAULT
100
AcDbSpline
210
0.0
220
0.0
230
1.0
 70
    24
 71
     2
 72
     6
 73
     3
 74
     0
 42
0.0000000001
 43
0.0000000001
 40
0.0
 40
0.0
 40
0.0
 40
0.5321440388778759
 40
0.5321440388778759
 40
0.5321440388778759
 10
4.702819401700197
 20
23.81741847606624
 30
0.0
 10
4.698154334186668
 20
23.55138735632006
 30
0.0
 10
4.69348926667314
 20
23.28535623657388
 30
0.0
  0
SPLINE
  5
6E
330
1F
100
AcDbEntity
  8
DEFAULT
100
AcDbSpline
210
0.0
220
0.0
230
1.0
 70
    12
 71
     2
 72
     6
 73
     3
 74
     0
 42
0.0000000001
 43
0.0000000001
 40
0.0
 40
0.0
 40
0.0
 40
0.223652467853702
 40
0.223652467853702
 40
0.223652467853702
 10
4.69348926667314
 20
23.28535623657388
 30
0.0
 41
1.0
 10
4.658692548517814
 20
23.17052805795611
 30
0.0
 41
0.9010587385208453
 10
4.547239266673159
 20
23.12609284483513
 30
0.0
 41
1.0
  0
SPLINE
  5
6F
330
1F
100
AcDbEntity
  8
DEFAULT
100
AcDbSpline
210
0.0
220
0.0
230
1.0
 70
     8
 71
     3
 72
     8
 73
     4
 74
     0
 42
0.0000000001
 43
0.0000000001
 40
0.0
 40
0.0
 40
0.0
 40
0.0
 40
1.0
 40
1.0
 40
1.0
 40
1.0
 10
4.547239266673159
 20
23.12609284483513
 30
0.0
 10
4.411775269937266
 20
23.07208482043645
 30
0.0
 10
4.245203263409053
 20
23.07208482043646
 30
0.0
 10
4.109739266673159
 20
23.12609284483513
 30
0.0
  0
SPLINE
  5
70
330
1F
100
AcDbEntity
  8
DEFAULT
100
AcDbSpline
210
0.0
220
0.0
230
1.0
 70
    12
 71
     2
 72
     6
 73
     3
 74
     0
 42
0.0000000001
 43
0.0000000001
 40
0.0
 40
0.0
 40
0.0
 40
0.2236524678537002
 40
0.2236524678537002
 40
0.2236524678537002
 10
4.109739266673159
 20
23.12609284483513
 30
0.0
 41
1.0
 10
3.998285984828498
 20
23.1705280579561
 30
0.0
 41
0.9010587385208325
 10
3.963489266673207
 20
23.28535623657388
 30
0.0
 41
1.0
  0
SPLINE
  5
71
330
1F
100
AcDbEntity
  8
DEFAULT
100
AcDbSpline
210
0.0
220
0.0
230
1.0
 70
    24
 71
     2
 72
     6
 73
     3
 74
     0
 42
0.0000000001
 43
0.0000000001
 40
0.0
 40
0.0
 40
0.0
 40
0.4919977399559122
 40
0.4919977399559122
 40
0.4919977399559122
 10
3.963489266673207
 20
23.28535623657388
 30
0.0
 10
3.959176143710778
 20
23.53131729243586
 30
0.0
 10
3.954863020748348
 20
23.77727834829785
 30
0.0
  0
SPLINE
  5
72
330
1F
100
AcDbEntity
  8
DEFAULT
100
AcDbSpline
210
0.0
220
0.0
230
1.0
 70
    24
 71
     2
 72
     6
 73
     3
 74
     0
 42
0.0000000001
 43
0.0000000001
 40
0.0
 40
0.0
 40
0.0
 40
0.5321440388778759
 40
0.5321440388778759
 40
0.5321440388778759
 10
-4.702819401700253
 20
23.81741847606624
 30
0.0
 10
-4.698154334186711
 20
23.55138735632006
 30
0.0
 10
-4.693489266673168
 20
23.28535623657388
 30
0.0
  0
SPLINE
  5
73
330
1F
100
AcDbEntity
  8
DEFAULT
100
AcDbSpline
210
0.0
220
0.0
230
1.0
 70
    12
 71
     2
 72
     6
 73
     3
 74
     0
 42
0.0000000001
 43
0.0000000001
 40
0.0
 40
0.0
 40
0.0
 40
0.223652467853702
 40
0.223652467853702
 40
0.223652467853702
 10
-4.693489266673168
 20
23.28535623657388
 30
0.0
 41
1.0
 10
-4.658692548517844
 20
23.17052805795611
 30
0.0
 41
0.9010587385208453
 10
-4.547239266673188
 20
23.12609284483513
 30
0.0
 41
1.0
  0
SPLINE
  5
74
330
1F
100
AcDbEntity
  8
DEFAULT
100
AcDbSpline
210
0.0
220
0.0
230
1.0
 70
     8
 71
     3
 72
     8
 73
     4
 74
     0
 42
0.0000000001
 43
0.0000000001
 40
0.0
 40
0.0
 40
0.0
 40
0.0
 40
1.0
 40
1.0
 40
1.0
 40
1.0
 10
-4.547239266673188
 20
23.12609284483513
 30
0.0
 10
-4.411775269937294
 20
23.07208482043645
 30
0.0
 10
-4.24520326340911
 20
23.07208482043646
 30
0.0
 10
-4.109739266673216
 20
23.12609284483513
 30
0.0
  0
SPLINE
  5
75
330
1F
100
AcDbEntity
  8
DEFAULT
100
AcDbSpline
210
0.0
220
0.0
230
1.0
 70
    12
 71
     2
 72
     6
 73
     3
 74
     0
 42
0.0000000001
 43
0.0000000001
 40
0.0
 40
0.0
 40
0.0
 40
0.2236524678537002
 40
0.2236524678537002
 40
0.2236524678537002
 10
-4.109739266673216
 20
23.12609284483513
 30
0.0
 41
1.0
 10
-3.998285984828515
 20
23.1705280579561
 30
0.0
 41
0.9010587385208325
 10
-3.963489266673207
 20
23.28535623657388
 30
0.0
 41
1.0
  0
SPLINE
  5
76
330
1F
100
AcDbEntity
  8
DEFAULT
100
AcDbSpline
210
0.0
220
0.0
230
1.0
 70
    24
 71
     2
 72
     6
 73
     3
 74
     0
 42
0.0000000001
 43
0.0000000001
 40
0.0
 40
0.0
 40
0.0
 40
0.4919977399559122
 40
0.4919977399559122
 40
0.4919977399559122
 10
-3.963489266673207
 20
23.28535623657388
 30
0.0
 10
-3.959176143710792
 20
23.53131729243586
 30
0.0
 10
-3.954863020748377
 20
23.77727834829785
 30
0.0
  0
SPLINE
  5
77
330
1F
100
AcDbEntity
  8
DEFAULT
100
AcDbSpline
210
0.0
220
0.0
230
1.0
 70
    12
 71
     2
 72
     6
 73
     3
 74
     0
 42
0.0000000001
 43
0.0000000001
 40
0.0
 40
0.0
 40
0.0
 40
0.3527729993252487
 40
0.3527729993252487
 40
0.3527729993252487
 10
3.955001668014461
 20
23.09845194075171
 30
0.0
 41
1.0
 10
3.833305706047359
 20
23.23706976833034
 30
0.0
 41
0.935636063196829
 10
3.833489266673155
 20
23.42152782748531
 30
0.0
 41
1.0
  0
SPLINE
  5
78
330
1F
100
AcDbEntity
  8
DEFAULT
100
AcDbSpline
210
0.0
220
0.0
230
1.0
 70
    24
 71
     2
 72
     6
 73
     3
 74
     0
 42
0.0000000001
 43
0.0000000001
 40
0.0
 40
0.0
 40
0.0
 40
0.35397136597323
 40
0.35397136597323
 40
0.35397136597323
 10
3.833489266673155
 20
23.42152782748531
 30
0.0
 10
3.833489266673155
 20
23.59851351047192
 30
0.0
 10
3.833489266673155
 20
23.77549919345854
 30
0.0
  0
ARC
  5
79
330
1F
100
AcDbEntity
  8
DEFAULT
100
AcDbCircle
 10
17.31739563334622
 20
-16.78458068886134
 30
0.0
 40
41.66759639119658
100
AcDbArc
 50
102.9925821655285
 51
107.6280013344509
  0
SPLINE
  5
7A
330
1F
100
AcDbEntity
  8
DEFAULT
100
AcDbSpline
210
0.0
220
0.0
230
1.0
 70
    12
 71
     2
 72
     6
 73
     3
 74
     0
 42
0.0000000001
 43
0.0000000001
 40
0.0
 40
0.0
 40
0.0
 40
7.680773469173904
 40
7.680773469173904
 40
7.680773469173904
 10
3.834115566132141
 20
23.50256773380323
 30
0.0
 41
1.0
 10
0.0000785880988026
 20
23.11932764399647
 30
0.0
 41
0.9950413933731445
 10
-3.833958389934566
 20
23.50256773380323
 30
0.0
 41
1.0
  0
SPLINE
  5
7B
330
1F
100
AcDbEntity
  8
DEFAULT
100
AcDbSpline
210
0.0
220
0.0
230
1.0
 70
     8
 71
     3
 72
    12
 73
     8
 74
     0
 42
0.0000000001
 43
0.0000000001
 40
0.0
 40
0.0
 40
0.0
 40
0.0
 40
1.45186367659028
 40
2.488811453363902
 40
4.456822206700376
 40
6.316482208258889
 40
8.273460492208956
 40
8.273460492208956
 40
8.273460492208956
 40
8.273460492208956
 10
0.0
 20
24.02748945625554
 30
0.0
 10
0.4839459175036609
 20
24.0275888307885
 30
0.0
 10
1.313566582974545
 20
24.02799882135703
 30
0.0
 10
2.798964872517359
 20
24.056277039809
 30
0.0
 10
4.418714451993196
 20
24.14110798655522
 30
0.0
 10
6.33707472851242
 20
24.34405355105261
 30
0.0
 10
7.591564885943399
 20
24.55941333453307
 30
0.0
 10
8.233148946578837
 20
24.67666545814647
 30
0.0
  0
SPLINE
  5
7C
330
1F
100
AcDbEntity
  8
DEFAULT
100
AcDbSpline
210
0.0
220
0.0
230
1.0
 70
     8
 71
     3
 72
    11
 73
     7
 74
     0
 42
0.0000000001
 43
0.0000000001
 40
-0.6678296448444616
 40
-0.6678296448444616
 40
-0.6678296448444616
 40
-0.6678296448444616
 40
-0.3055450446207338
 40
-0.1449430031713405
 40
-0.0723027297364637
 40
0.0
 40
0.0
 40
0.0
 40
0.0
 10
8.233148946578837
 20
24.67666545814647
 30
0.0
 10
8.351543239031741
 20
24.69885803292015
 30
0.0
 10
8.519117267601786
 20
24.75964497335591
 30
0.0
 10
8.672781955570713
 20
24.88824718247725
 30
0.0
 10
8.733903635365266
 20
24.97024179290339
 30
0.0
 10
8.75532944131561
 20
25.01377872134
 30
0.0
 10
8.763609142001968
 20
25.03642516263346
 30
0.0
  0
SPLINE
  5
7D
330
1F
100
AcDbEntity
  8
DEFAULT
100
AcDbSpline
210
0.0
220
0.0
230
1.0
 70
    12
 71
     5
 72
    42
 73
    36
 74
     0
 42
0.0000000001
 43
0.0000000001
 40
0.0
 40
0.0
 40
0.0
 40
0.0
 40
0.0
 40
0.0
 40
0.2855995164709133
 40
0.2855995164709133
 40
0.2855995164709133
 40
0.2855995164709133
 40
0.2855995164709133
 40
0.6563088386039608
 40
0.6563088386039608
 40
0.6563088386039608
 40
0.6563088386039608
 40
0.6563088386039608
 40
1.656308838603961
 40
1.656308838603961
 40
1.656308838603961
 40
1.656308838603961
 40
1.656308838603961
 40
2.019952292718224
 40
2.019952292718224
 40
2.019952292718224
 40
2.790692718633749
 40
2.790692718633749
 40
2.790692718633749
 40
3.93495942312767
 40
3.93495942312767
 40
3.93495942312767
 40
5.747266165788471
 40
5.747266165788471
 40
5.747266165788471
 40
8.068508251492666
 40
8.068508251492666
 40
8.068508251492666
 40
10.53337729089963
 40
10.53337729089963
 40
10.53337729089963
 40
10.53337729089963
 40
10.53337729089963
 40
10.53337729089963
 10
8.763609142001968
 20
25.03642516263346
 30
0.0
 41
1.0
 10
8.783222865465554
 20
25.09007215469132
 30
0.0
 41
0.9999866190723671
 10
8.814582317511194
 20
25.23135094443271
 30
0.0
 41
0.9999799286085507
 10
8.828769190222904
 20
25.2866816705235
 30
0.0
 41
0.9999799286085507
 10
8.843177705574387
 20
25.34195500437325
 30
0.0
 41
0.9999866190723672
 10
8.857807569918066
 20
25.3971698377212
 30
0.0
 41
1.0
 10
8.879467321616286
 20
25.46808363997003
 30
0.0
 41
0.9994874743699717
 10
8.899334071700714
 20
25.53953566758953
 30
0.0
 41
0.9992312125689933
 10
8.917391155538011
 20
25.6114713607041
 30
0.0
 41
0.9992312145970651
 10
8.933624683888311
 20
25.68383538740362
 30
0.0
 41
0.9994874804541871
 10
8.94802357849841
 20
25.75657178553915
 30
0.0
 41
1.000000010140359
 10
8.956408182833844
 20
25.79892683678908
 30
0.0
 41
1.000000010140359
 10
8.964169939855804
 20
25.84140518686951
 30
0.0
 41
1.000000010140359
 10
8.888890904059553
 20
25.94059721448338
 30
0.0
 41
1.000000010140359
 10
8.847192429845418
 20
25.92938563918213
 30
0.0
 41
1.000000010140359
 10
8.805379615553703
 20
25.91861807133916
 30
0.0
 41
1.000000010140359
 10
8.734953966414608
 20
25.90048217286317
 30
0.0
 41
1.000000010140359
 10
8.664212857394451
 20
25.88360817058703
 30
0.0
 41
1.000000010140359
 10
8.593251289055374
 20
25.86763369312411
 30
0.0
 41
1.000000010140359
 10
8.3714956745807
 20
25.81947704039311
 30
0.0
 41
1.000000010140359
 10
8.1494436638578
 20
25.77302123505193
 30
0.0
 41
1.000000010140359
 10
7.998467356537442
 20
25.74202677810957
 30
0.0
 41
1.000000010140359
 10
7.623158175948233
 20
25.66589486132361
 30
0.0
 41
1.000000010140359
 10
7.24756896084503
 20
25.59061139171319
 30
0.0
 41
1.000000010140359
 10
7.022929151164291
 20
25.54669412185826
 30
0.0
 41
1.000000010140359
 10
6.441646375835029
 20
25.43794893580137
 30
0.0
 41
1.000000010140359
 10
5.857383330354806
 20
25.34652051921279
 30
0.0
 41
1.000000010140359
 10
5.498316336436152
 20
25.29657441212873
 30
0.0
 41
1.000000010140359
 10
4.677668764260278
 20
25.19562941901959
 30
0.0
 41
1.000000010140359
 10
3.854187154057318
 20
25.12214458931777
 30
0.0
 41
1.000000010140359
 10
3.391090542119905
 20
25.08832670654541
 30
0.0
 41
1.000000010140359
 10
2.435360119608285
 20
25.03145866936216
 30
0.0
 41
1.000000010140359
 10
1.478798252914019
 20
24.9959574517667
 30
0.0
 41
1.000000010140359
 10
0.9859866139149447
 20
24.98365493664773
 30
0.0
 41
1.000000010140359
 10
0.4930396612702633
 20
24.97764685395352
 30
0.0
 41
1.000000010140359
 10
-0.0000000000000171
 20
24.97824686238961
 30
0.0
 41
1.000000010140359
  0
SPLINE
  5
7E
330
1F
100
AcDbEntity
  8
DEFAULT
100
AcDbSpline
210
0.0
220
0.0
230
1.0
 70
    12
 71
     5
 72
    42
 73
    36
 74
     0
 42
0.0000000001
 43
0.0000000001
 40
-10.53337729089963
 40
-10.53337729089963
 40
-10.53337729089963
 40
-10.53337729089963
 40
-10.53337729089963
 40
-10.53337729089963
 40
-8.068508251492666
 40
-8.068508251492666
 40
-8.068508251492666
 40
-5.747266165788471
 40
-5.747266165788471
 40
-5.747266165788471
 40
-3.93495942312767
 40
-3.93495942312767
 40
-3.93495942312767
 40
-2.790692718633749
 40
-2.790692718633749
 40
-2.790692718633749
 40
-2.019952292718224
 40
-2.019952292718224
 40
-2.019952292718224
 40
-1.656308838603961
 40
-1.656308838603961
 40
-1.656308838603961
 40
-1.656308838603961
 40
-1.656308838603961
 40
-0.6563088386039608
 40
-0.6563088386039608
 40
-0.6563088386039608
 40
-0.6563088386039608
 40
-0.6563088386039608
 40
-0.2855995164709133
 40
-0.2855995164709133
 40
-0.2855995164709133
 40
-0.2855995164709133
 40
-0.2855995164709133
 40
0.0
 40
0.0
 40
0.0
 40
0.0
 40
0.0
 40
0.0
 10
-0.0000000000000171
 20
24.97824686238961
 30
0.0
 41
1.000000010140359
 10
-0.4930396612702691
 20
24.97764685395352
 30
0.0
 41
1.000000010140359
 10
-0.9859866139149789
 20
24.98365493664773
 30
0.0
 41
1.000000010140359
 10
-1.478798252914025
 20
24.9959574517667
 30
0.0
 41
1.000000010140359
 10
-2.435360119608291
 20
25.03145866936216
 30
0.0
 41
1.000000010140359
 10
-3.391090542119911
 20
25.08832670654541
 30
0.0
 41
1.000000010140359
 10
-3.854187154057324
 20
25.12214458931777
 30
0.0
 41
1.000000010140359
 10
-4.677668764260283
 20
25.19562941901959
 30
0.0
 41
1.000000010140359
 10
-5.498316336436157
 20
25.29657441212873
 30
0.0
 41
1.000000010140359
 10
-5.857383330354812
 20
25.34652051921279
 30
0.0
 41
1.000000010140359
 10
-6.441646375835063
 20
25.43794893580137
 30
0.0
 41
1.000000010140359
 10
-7.022929151164297
 20
25.54669412185826
 30
0.0
 41
1.000000010140359
 10
-7.247568960845035
 20
25.59061139171319
 30
0.0
 41
1.000000010140359
 10
-7.623158175948238
 20
25.66589486132361
 30
0.0
 41
1.000000010140359
 10
-7.998467356537447
 20
25.74202677810957
 30
0.0
 41
1.000000010140359
 10
-8.149443663857808
 20
25.77302123505193
 30
0.0
 41
1.000000010140359
 10
-8.371495674580707
 20
25.81947704039311
 30
0.0
 41
1.000000010140359
 10
-8.593251289055381
 20
25.86763369312411
 30
0.0
 41
1.000000010140359
 10
-8.664212857394459
 20
25.88360817058703
 30
0.0
 41
1.000000010140359
 10
-8.734953966414615
 20
25.90048217286317
 30
0.0
 41
1.000000010140359
 10
-8.80537961555371
 20
25.91861807133916
 30
0.0
 41
1.000000010140359
 10
-8.847192429845425
 20
25.92938563918213
 30
0.0
 41
1.000000010140359
 10
-8.88889090405956
 20
25.94059721448338
 30
0.0
 41
1.000000010140359
 10
-8.964169939855811
 20
25.84140518686951
 30
0.0
 41
1.000000010140359
 10
-8.95640818283388
 20
25.79892683678908
 30
0.0
 41
1.000000010140359
 10
-8.948023578498416
 20
25.75657178553915
 30
0.0
 41
1.000000010140359
 10
-8.933624683888324
 20
25.68383538740362
 30
0.0
 41
0.9994874804541871
 10
-8.917391155538006
 20
25.6114713607041
 30
0.0
 41
0.9992312145970651
 10
-8.899334071700729
 20
25.53953566758953
 30
0.0
 41
0.9992312125689933
 10
-8.87946732161633
 20
25.46808363997003
 30
0.0
 41
0.9994874743699717
 10
-8.857807569918123
 20
25.3971698377212
 30
0.0
 41
1.0
 10
-8.843177705574423
 20
25.34195500437325
 30
0.0
 41
0.9999866190723672
 10
-8.828769190222927
 20
25.2866816705235
 30
0.0
 41
0.9999799286085507
 10
-8.814582317511245
 20
25.23135094443271
 30
0.0
 41
0.9999799286085507
 10
-8.783222865465545
 20
25.09007215469132
 30
0.0
 41
0.9999866190723671
 10
-8.763609142001997
 20
25.03642516263346
 30
0.0
 41
1.0
  0
SPLINE
  5
7F
330
1F
100
AcDbEntity
  8
DEFAULT
100
AcDbSpline
210
0.0
220
0.0
230
1.0
 70
     8
 71
     3
 72
    11
 73
     7
 74
     0
 42
0.0000000001
 43
0.0000000001
 40
0.0
 40
0.0
 40
0.0
 40
0.0
 40
0.0723027297364637
 40
0.1449430031713405
 40
0.3055450446207338
 40
0.6678296448444616
 40
0.6678296448444616
 40
0.6678296448444616
 40
0.6678296448444616
 10
-8.763609142001997
 20
25.03642516263346
 30
0.0
 10
-8.75532944131561
 20
25.01377872134
 30
0.0
 10
-8.733903635365323
 20
24.97024179290339
 30
0.0
 10
-8.672781955570713
 20
24.88824718247725
 30
0.0
 10
-8.519117267601814
 20
24.75964497335591
 30
0.0
 10
-8.351543239031741
 20
24.69885803292015
 30
0.0
 10
-8.233148946578865
 20
24.67666545814647
 30
0.0
  0
SPLINE
  5
80
330
1F
100
AcDbEntity
  8
DEFAULT
100
AcDbSpline
210
0.0
220
0.0
230
1.0
 70
     8
 71
     3
 72
    12
 73
     8
 74
     0
 42
0.0000000001
 43
0.0000000001
 40
-8.273460492208956
 40
-8.273460492208956
 40
-8.273460492208956
 40
-8.273460492208956
 40
-6.316482208258889
 40
-4.456822206700376
 40
-2.488811453363902
 40
-1.45186367659028
 40
0.0
 40
0.0
 40
0.0
 40
0.0
 10
-8.233148946578865
 20
24.67666545814647
 30
0.0
 10
-7.591564885943455
 20
24.55941333453307
 30
0.0
 10
-6.337074728512448
 20
24.34405355105261
 30
0.0
 10
-4.418714451993225
 20
24.14110798655522
 30
0.0
 10
-2.798964872517388
 20
24.056277039809
 30
0.0
 10
-1.313566582974573
 20
24.02799882135703
 30
0.0
 10
-0.4839459175036893
 20
24.0275888307885
 30
0.0
 10
0.0
 20
24.02748945625554
 30
0.0
  0
ARC
  5
81
330
1F
100
AcDbEntity
  8
DEFAULT
100
AcDbCircle
 10
-17.31739563334628
 20
-16.78458068886134
 30
0.0
 40
41.66759639119658
100
AcDbArc
 50
72.3719986655474
 51
77.00741783446982
  0
SPLINE
  5
82
330
1F
100
AcDbEntity
  8
DEFAULT
100
AcDbSpline
210
0.0
220
0.0
230
1.0
 70
    12
 71
     2
 72
     6
 73
     3
 74
     0
 42
0.0000000001
 43
0.0000000001
 40
-1.159140194503718
 40
-1.159140194503718
 40
-1.159140194503718
 40
0.0
 40
0.0
 40
0.0
 10
-8.501339865335126
 20
25.84784186347183
 30
0.0
 41
1.0
 10
-8.200331524944117
 20
26.3583292565968
 30
0.0
 41
0.9672838163369827
 10
-7.687292469273189
 20
26.65551605764681
 30
0.0
 41
1.0
  0
SPLINE
  5
83
330
1F
100
AcDbEntity
  8
DEFAULT
100
AcDbSpline
210
0.0
220
0.0
230
1.0
 70
     8
 71
     3
 72
    12
 73
     8
 74
     0
 42
0.0000000001
 43
0.0000000001
 40
-7.894681883043148
 40
-7.894681883043148
 40
-7.894681883043148
 40
-7.894681883043148
 40
-4.89328680666405
 40
-3.607507320650333
 40
-2.584983022344898
 40
-1.409468345024047
 40
0.0
 40
0.0
 40
0.0
 40
0.0
 10
-7.687292469273189
 20
26.65551605764681
 30
0.0
 10
-6.830430157696924
 20
27.18139412334776
 30
0.0
 10
-5.44317163554598
 20
27.60320434956823
 30
0.0
 10
-3.689544780288202
 20
27.82297362787673
 30
0.0
 10
-2.532892209525698
 20
27.93896913712291
 30
0.0
 10
-1.331581759571804
 20
27.99192952236091
 30
0.0
 10
-0.4697858141703648
 20
28.00258938769137
 30
0.0
 10
0.0
 20
28.001848549388
 30
0.0
  0
SPLINE
  5
84
330
1F
100
AcDbEntity
  8
DEFAULT
100
AcDbSpline
210
0.0
220
0.0
230
1.0
 70
     8
 71
     3
 72
    12
 73
     8
 74
     0
 42
0.0000000001
 43
0.0000000001
 40
0.0
 40
0.0
 40
0.0
 40
0.0
 40
1.409468345024047
 40
2.584983022344898
 40
3.607507320650333
 40
4.89328680666405
 40
7.894681883043148
 40
7.894681883043148
 40
7.894681883043148
 40
7.894681883043148
 10
0.0
 20
28.001848549388
 30
0.0
 10
0.4697858141703364
 20
28.00258938769137
 30
0.0
 10
1.331581759571776
 20
27.99192952236091
 30
0.0
 10
2.532892209525698
 20
27.93896913712291
 30
0.0
 10
3.689544780288145
 20
27.82297362787673
 30
0.0
 10
5.44317163554598
 20
27.60320434956823
 30
0.0
 10
6.830430157696867
 20
27.18139412334776
 30
0.0
 10
7.687292469273132
 20
26.65551605764681
 30
0.0
  0
SPLINE
  5
85
330
1F
100
AcDbEntity
  8
DEFAULT
100
AcDbSpline
210
0.0
220
0.0
230
1.0
 70
    12
 71
     2
 72
     6
 73
     3
 74
     0
 42
0.0000000001
 43
0.0000000001
 40
0.0
 40
0.0
 40
0.0
 40
1.159140194503718
 40
1.159140194503718
 40
1.159140194503718
 10
7.687292469273132
 20
26.65551605764681
 30
0.0
 41
1.0
 10
8.200331524944119
 20
26.3583292565968
 30
0.0
 41
0.9672838163369827
 10
8.50133986533507
 20
25.84784186347183
 30
0.0
 41
1.0
  0
SPLINE
  5
86
330
1F
100
AcDbEntity
  8
DEFAULT
100
AcDbSpline
210
0.0
220
0.0
230
1.0
 70
    12
 71
     2
 72
     6
 73
     3
 74
     0
 42
0.0000000001
 43
0.0000000001
 40
0.0
 40
0.0
 40
0.0
 40
7.679978169176025
 40
7.679978169176025
 40
7.679978169176025
 10
3.833646442870815
 20
23.69144466590365
 30
0.0
 41
1.0
 10
0.0000785880988062
 20
23.30606528126814
 30
0.0
 41
0.9949850785804287
 10
-3.833489266673212
 20
23.69144466590365
 30
0.0
 41
1.0
  0
SPLINE
  5
87
330
1F
100
AcDbEntity
  8
DEFAULT
100
AcDbSpline
210
0.0
220
0.0
230
1.0
 70
    12
 71
     2
 72
     6
 73
     3
 74
     0
 42
0.0000000001
 43
0.0000000001
 40
0.0
 40
0.0
 40
0.0
 40
2.423793056935102
 40
2.423793056935102
 40
2.423793056935102
 10
0.5820347176024825
 20
23.51392727024802
 30
0.0
 41
1.0
 10
1.794150894868706
 20
23.56224395239615
 30
0.0
 41
0.9985387582686867
 10
2.99397300937278
 20
23.74109311373402
 30
0.0
 41
1.0
  0
SPLINE
  5
88
330
1F
100
AcDbEntity
  8
DEFAULT
100
AcDbSpline
210
0.0
220
0.0
230
1.0
 70
    12
 71
     2
 72
     6
 73
     3
 74
     0
 42
0.0000000001
 43
0.0000000001
 40
-0.3590936632311201
 40
-0.3590936632311201
 40
-0.3590936632311201
 40
0.0
 40
0.0
 40
0.0
 10
4.701935526524267
 20
23.09609439869882
 30
0.0
 41
1.0
 10
4.82748457906413
 20
23.23596494929077
 30
0.0
 41
0.9342250861939277
 10
4.825680976213227
 20
23.42392208829758
 30
0.0
 41
0.9999983047728426
  0
SPLINE
  5
89
330
1F
100
AcDbEntity
  8
DEFAULT
100
AcDbSpline
210
0.0
220
0.0
230
1.0
 70
    24
 71
     2
 72
     6
 73
     3
 74
     0
 42
0.0000000001
 43
0.0000000001
 40
0.0
 40
0.0
 40
0.0
 40
0.40304397363726
 40
0.40304397363726
 40
0.40304397363726
 10
4.825680976213221
 20
23.42392208829759
 30
0.0
 10
4.824585121443192
 20
23.62544407511622
 30
0.0
 10
4.823489266673164
 20
23.82696606193485
 30
0.0
  0
SPLINE
  5
8A
330
1F
100
AcDbEntity
  8
DEFAULT
100
AcDbSpline
210
0.0
220
0.0
230
1.0
 70
    24
 71
     2
 72
     6
 73
     3
 74
     0
 42
0.0000000001
 43
0.0000000001
 40
0.0
 40
0.0
 40
0.0
 40
0.5321440388778741
 40
0.5321440388778741
 40
0.5321440388778741
 10
4.699882203321948
 20
23.14637359290587
 30
0.0
 10
4.696685734997544
 20
22.88040478091887
 30
0.0
 10
4.69348926667314
 20
22.61443596893188
 30
0.0
  0
SPLINE
  5
8B
330
1F
100
AcDbEntity
  8
DEFAULT
100
AcDbSpline
210
0.0
220
0.0
230
1.0
 70
    12
 71
     2
 72
     6
 73
     3
 74
     0
 42
0.0000000001
 43
0.0000000001
 40
0.0
 40
0.0
 40
0.0
 40
0.2236524678536994
 40
0.2236524678536994
 40
0.2236524678536994
 10
4.69348926667314
 20
22.61443596893188
 30
0.0
 41
1.0
 10
4.65869254851782
 20
22.49960779031411
 30
0.0
 41
0.9010587385208312
 10
4.547239266673159
 20
22.45517257719313
 30
0.0
 41
1.0
  0
SPLINE
  5
8C
330
1F
100
AcDbEntity
  8
DEFAULT
100
AcDbSpline
210
0.0
220
0.0
230
1.0
 70
     8
 71
     3
 72
     8
 73
     4
 74
     0
 42
0.0000000001
 43
0.0000000001
 40
0.0
 40
0.0
 40
0.0
 40
0.0
 40
1.0
 40
1.0
 40
1.0
 40
1.0
 10
4.547239266673159
 20
22.45517257719313
 30
0.0
 10
4.411775269937266
 20
22.40116455279447
 30
0.0
 10
4.245203263409053
 20
22.40116455279446
 30
0.0
 10
4.109739266673159
 20
22.45517257719313
 30
0.0
  0
SPLINE
  5
8D
330
1F
100
AcDbEntity
  8
DEFAULT
100
AcDbSpline
210
0.0
220
0.0
230
1.0
 70
    12
 71
     2
 72
     6
 73
     3
 74
     0
 42
0.0000000001
 43
0.0000000001
 40
0.0
 40
0.0
 40
0.0
 40
0.2236524678536981
 40
0.2236524678536981
 40
0.2236524678536981
 10
4.109739266673159
 20
22.45517257719313
 30
0.0
 41
1.0
 10
3.99828598482849
 20
22.49960779031411
 30
0.0
 41
0.9010587385208331
 10
3.963489266673207
 20
22.61443596893188
 30
0.0
 41
1.0
  0
SPLINE
  5
8E
330
1F
100
AcDbEntity
  8
DEFAULT
100
AcDbSpline
210
0.0
220
0.0
230
1.0
 70
    24
 71
     2
 72
     6
 73
     3
 74
     0
 42
0.0000000001
 43
0.0000000001
 40
0.0
 40
0.0
 40
0.0
 40
0.5321440388778741
 40
0.5321440388778741
 40
0.5321440388778741
 10
3.963489266673207
 20
22.61443596893188
 30
0.0
 10
3.958824199159665
 20
22.88046708867806
 30
0.0
 10
3.954159131646122
 20
23.14649820842424
 30
0.0
  0
SPLINE
  5
8F
330
1F
100
AcDbEntity
  8
DEFAULT
100
AcDbSpline
210
0.0
220
0.0
230
1.0
 70
     8
 71
     3
 72
    14
 73
    10
 74
     0
 42
0.0000000001
 43
0.0000000001
 40
0.0
 40
0.0
 40
0.0
 40
0.0
 40
0.0011429773882848
 40
0.0041559612549722
 40
0.010740543323966
 40
0.120253821530844
 40
0.2135872029610184
 40
0.4059865476491976
 40
0.8047865810560537
 40
0.8047865810560537
 40
0.8047865810560537
 40
0.8047865810560537
 10
3.954159131646122
 20
23.14649820842424
 30
0.0
 10
3.954064698968011
 20
23.14698893876935
 30
0.0
 10
3.954729804750286
 20
23.14823299892643
 30
0.0
 10
3.958799138006839
 20
23.14751892015094
 30
0.0
 10
3.990713770963566
 20
23.12472086433196
 30
0.0
 10
4.048527104861989
 20
23.083559123043
 30
0.0
 10
4.168668647219079
 20
23.03131738751907
 30
0.0
 10
4.398510030423751
 20
22.98971172539531
 30
0.0
 10
4.592563028077365
 20
23.06400619078941
 30
0.0
 10
4.699882203321948
 20
23.14637359290587
 30
0.0
  0
SPLINE
  5
90
330
1F
100
AcDbEntity
  8
DEFAULT
100
AcDbSpline
210
0.0
220
0.0
230
1.0
 70
    12
 71
     2
 72
     6
 73
     3
 74
     0
 42
0.0000000001
 43
0.0000000001
 40
0.0
 40
0.0
 40
0.0
 40
2.423793056935102
 40
2.423793056935102
 40
2.423793056935102
 10
-0.5820347176024825
 20
23.51392727024802
 30
0.0
 41
1.0
 10
-1.794150894868721
 20
23.56224395239615
 30
0.0
 41
0.9985387582686867
 10
-2.993973009372809
 20
23.74109311373402
 30
0.0
 41
1.0
  0
SPLINE
  5
91
330
1F
100
AcDbEntity
  8
DEFAULT
100
AcDbSpline
210
0.0
220
0.0
230
1.0
 70
    12
 71
     2
 72
     6
 73
     3
 74
     0
 42
0.0000000001
 43
0.0000000001
 40
0.0
 40
0.0
 40
0.0
 40
0.7473847420755672
 40
0.7473847420755672
 40
0.7473847420755672
 10
4.001363716688758
 20
23.78830453015929
 30
0.0
 41
1.0
 10
4.360082953370006
 20
23.53951427426681
 30
0.0
 41
0.7973745102127584
 10
4.696952909337938
 20
23.81717362483577
 30
0.0
 41
1.0
  0
SPLINE
  5
92
330
1F
100
AcDbEntity
  8
DEFAULT
100
AcDbSpline
210
0.0
220
0.0
230
1.0
 70
    12
 71
     2
 72
     6
 73
     3
 74
     0
 42
0.0000000001
 43
0.0000000001
 40
-0.3590936632311201
 40
-0.3590936632311201
 40
-0.3590936632311201
 40
0.0
 40
0.0
 40
0.0
 10
-4.701935526524267
 20
23.09609439869882
 30
0.0
 41
1.0
 10
-4.827484579064135
 20
23.23596494929077
 30
0.0
 41
0.9342250861939277
 10
-4.825680976213245
 20
23.42392208829758
 30
0.0
 41
0.9999983047728426
  0
SPLINE
  5
93
330
1F
100
AcDbEntity
  8
DEFAULT
100
AcDbSpline
210
0.0
220
0.0
230
1.0
 70
    24
 71
     2
 72
     6
 73
     3
 74
     0
 42
0.0000000001
 43
0.0000000001
 40
0.0
 40
0.0
 40
0.0
 40
0.40304397363726
 40
0.40304397363726
 40
0.40304397363726
 10
-4.825680976213249
 20
23.42392208829759
 30
0.0
 10
-4.824585121443221
 20
23.62544407511622
 30
0.0
 10
-4.823489266673192
 20
23.82696606193485
 30
0.0
  0
SPLINE
  5
94
330
1F
100
AcDbEntity
  8
DEFAULT
100
AcDbSpline
210
0.0
220
0.0
230
1.0
 70
    24
 71
     2
 72
     6
 73
     3
 74
     0
 42
0.0000000001
 43
0.0000000001
 40
0.0
 40
0.0
 40
0.0
 40
0.5321440388778741
 40
0.5321440388778741
 40
0.5321440388778741
 10
-4.699882203321977
 20
23.14637359290587
 30
0.0
 10
-4.696685734997573
 20
22.88040478091887
 30
0.0
 10
-4.693489266673168
 20
22.61443596893188
 30
0.0
  0
SPLINE
  5
95
330
1F
100
AcDbEntity
  8
DEFAULT
100
AcDbSpline
210
0.0
220
0.0
230
1.0
 70
    12
 71
     2
 72
     6
 73
     3
 74
     0
 42
0.0000000001
 43
0.0000000001
 40
0.0
 40
0.0
 40
0.0
 40
0.2236524678536994
 40
0.2236524678536994
 40
0.2236524678536994
 10
-4.693489266673168
 20
22.61443596893188
 30
0.0
 41
1.0
 10
-4.658692548517857
 20
22.49960779031411
 30
0.0
 41
0.9010587385208312
 10
-4.547239266673188
 20
22.45517257719313
 30
0.0
 41
1.0
  0
SPLINE
  5
96
330
1F
100
AcDbEntity
  8
DEFAULT
100
AcDbSpline
210
0.0
220
0.0
230
1.0
 70
     8
 71
     3
 72
     8
 73
     4
 74
     0
 42
0.0000000001
 43
0.0000000001
 40
0.0
 40
0.0
 40
0.0
 40
0.0
 40
1.0
 40
1.0
 40
1.0
 40
1.0
 10
-4.547239266673188
 20
22.45517257719313
 30
0.0
 10
-4.411775269937294
 20
22.40116455279447
 30
0.0
 10
-4.24520326340911
 20
22.40116455279446
 30
0.0
 10
-4.109739266673216
 20
22.45517257719313
 30
0.0
  0
SPLINE
  5
97
330
1F
100
AcDbEntity
  8
DEFAULT
100
AcDbSpline
210
0.0
220
0.0
230
1.0
 70
    12
 71
     2
 72
     6
 73
     3
 74
     0
 42
0.0000000001
 43
0.0000000001
 40
0.0
 40
0.0
 40
0.0
 40
0.2236524678536981
 40
0.2236524678536981
 40
0.2236524678536981
 10
-4.109739266673216
 20
22.45517257719313
 30
0.0
 41
1.0
 10
-3.998285984828519
 20
22.49960779031411
 30
0.0
 41
0.9010587385208331
 10
-3.963489266673207
 20
22.61443596893188
 30
0.0
 41
1.0
  0
SPLINE
  5
98
330
1F
100
AcDbEntity
  8
DEFAULT
100
AcDbSpline
210
0.0
220
0.0
230
1.0
 70
    24
 71
     2
 72
     6
 73
     3
 74
     0
 42
0.0000000001
 43
0.0000000001
 40
0.0
 40
0.0
 40
0.0
 40
0.5321440388778741
 40
0.5321440388778741
 40
0.5321440388778741
 10
-3.963489266673207
 20
22.61443596893188
 30
0.0
 10
-3.958824199159679
 20
22.88046708867806
 30
0.0
 10
-3.954159131646151
 20
23.14649820842424
 30
0.0
  0
SPLINE
  5
99
330
1F
100
AcDbEntity
  8
DEFAULT
100
AcDbSpline
210
0.0
220
0.0
230
1.0
 70
     8
 71
     3
 72
    14
 73
    10
 74
     0
 42
0.0000000001
 43
0.0000000001
 40
0.0
 40
0.0
 40
0.0
 40
0.0
 40
0.0011429773882848
 40
0.0041559612549722
 40
0.010740543323966
 40
0.120253821530844
 40
0.2135872029610184
 40
0.4059865476491976
 40
0.8047865810560537
 40
0.8047865810560537
 40
0.8047865810560537
 40
0.8047865810560537
 10
-3.954159131646151
 20
23.14649820842424
 30
0.0
 10
-3.95406469896804
 20
23.14698893876935
 30
0.0
 10
-3.954729804750315
 20
23.14823299892643
 30
0.0
 10
-3.958799138006896
 20
23.14751892015094
 30
0.0
 10
-3.990713770963566
 20
23.12472086433196
 30
0.0
 10
-4.048527104861989
 20
23.083559123043
 30
0.0
 10
-4.168668647219107
 20
23.03131738751907
 30
0.0
 10
-4.398510030423779
 20
22.98971172539531
 30
0.0
 10
-4.592563028077393
 20
23.06400619078941
 30
0.0
 10
-4.699882203321977
 20
23.14637359290587
 30
0.0
  0
SPLINE
  5
9A
330
1F
100
AcDbEntity
  8
DEFAULT
100
AcDbSpline
210
0.0
220
0.0
230
1.0
 70
    12
 71
     2
 72
     6
 73
     3
 74
     0
 42
0.0000000001
 43
0.0000000001
 40
0.0
 40
0.0
 40
0.0
 40
0.3527729993252487
 40
0.3527729993252487
 40
0.3527729993252487
 10
-3.955001668014518
 20
23.09845194075171
 30
0.0
 41
1.0
 10
-3.8333057060474
 20
23.23706976833034
 30
0.0
 41
0.935636063196829
 10
-3.833489266673212
 20
23.42152782748531
 30
0.0
 41
1.0
  0
SPLINE
  5
9B
330
1F
100
AcDbEntity
  8
DEFAULT
100
AcDbSpline
210
0.0
220
0.0
230
1.0
 70
    24
 71
     2
 72
     6
 73
     3
 74
     0
 42
0.0000000001
 43
0.0000000001
 40
0.0
 40
0.0
 40
0.0
 40
0.35397136597323
 40
0.35397136597323
 40
0.35397136597323
 10
-3.833489266673212
 20
23.42152782748531
 30
0.0
 10
-3.833489266673212
 20
23.59851351047192
 30
0.0
 10
-3.833489266673212
 20
23.77549919345854
 30
0.0
  0
SPLINE
  5
9C
330
1F
100
AcDbEntity
  8
DEFAULT
100
AcDbSpline
210
0.0
220
0.0
230
1.0
 70
    12
 71
     2
 72
     6
 73
     3
 74
     0
 42
0.0000000001
 43
0.0000000001
 40
-0.843257195777037
 40
-0.843257195777037
 40
-0.843257195777037
 40
0.0
 40
0.0
 40
0.0
 10
-9.053882108261615
 20
25.3048416109746
 30
0.0
 41
1.0
 10
-8.216866689109926
 20
24.39017151163837
 30
0.0
 41
0.9998163608990565
 10
-7.945997236585255
 20
24.06699361609278
 30
0.0
 41
1.0
  0
SPLINE
  5
9D
330
1F
100
AcDbEntity
  8
DEFAULT
100
AcDbSpline
210
0.0
220
0.0
230
1.0
 70
    12
 71
     2
 72
    22
 73
    19
 74
     0
 42
0.0000000001
 43
0.0000000001
 40
0.0
 40
0.0
 40
0.0
 40
0.0001374307783543
 40
0.0001374307783543
 40
0.0813038498495856
 40
0.0813038498495856
 40
0.156455223836652
 40
0.156455223836652
 40
0.2249033506938929
 40
0.2249033506938929
 40
0.2865468965471257
 40
0.2865468965471257
 40
0.3416018977803437
 40
0.3416018977803437
 40
0.3904470426976192
 40
0.3904470426976192
 40
0.4336405031341842
 40
0.4336405031341842
 40
0.4478223388934177
 40
0.4478223388934177
 40
0.4478223388934177
 10
-9.05580740545396
 20
25.16644226030379
 30
0.0
 41
1.0
 10
-9.055875935286675
 20
25.16643721384547
 30
0.0
 41
0.9999999993809698
 10
-9.055944465474353
 20
25.16643217220975
 30
0.0
 41
1.0
 10
-9.096424645006321
 20
25.16347177351134
 30
0.0
 41
0.9998124319223778
 10
-9.13698910590392
 20
25.16208130327398
 30
0.0
 41
1.0
 10
-9.174545900371184
 20
25.16078718340423
 30
0.0
 41
0.9998644098243428
 10
-9.212124941645198
 20
25.16073049284569
 30
0.0
 41
1.0
 10
-9.246351392422628
 20
25.16067552728328
 30
0.0
 41
0.9998934419064764
 10
-9.280564860171655
 20
25.16161976169225
 30
0.0
 41
1.0
 10
-9.311376779373477
 20
25.16246851936241
 30
0.0
 41
0.9999107443139816
 10
-9.342155020852589
 20
25.16414022685348
 30
0.0
 41
1.0
 10
-9.369643481005932
 20
25.16563252375014
 30
0.0
 41
0.9999217169299037
 10
-9.397085992480942
 20
25.16781219243451
 30
0.0
 41
1.0
 10
-9.421433077367704
 20
25.16974558859035
 30
0.0
 41
0.999928940415365
 10
-9.445727148740776
 20
25.17225888509071
 30
0.0
 41
1.0
 10
-9.467210186024046
 20
25.17448130728053
 30
0.0
 41
0.999933603197915
 10
-9.488636301471525
 20
25.17719822246791
 30
0.0
 41
1.0
 10
-9.49567078023989
 20
25.17809140565112
 30
0.0
 41
0.9999917758394243
 10
-9.502697782790861
 20
25.17904161767481
 30
0.0
 41
1.0
  0
SPLINE
  5
9E
330
1F
100
AcDbEntity
  8
DEFAULT
100
AcDbSpline
210
0.0
220
0.0
230
1.0
 70
    12
 71
     2
 72
    16
 73
    13
 74
     0
 42
0.0000000001
 43
0.0000000001
 40
0.0
 40
0.0
 40
0.0
 40
0.0806504200282762
 40
0.0806504200282762
 40
0.1743258249211015
 40
0.1743258249211015
 40
0.2423600298270026
 40
0.2423600298270026
 40
0.2924131432867252
 40
0.2924131432867252
 40
0.3265614696477811
 40
0.3265614696477811
 40
0.3521808302996258
 40
0.3521808302996258
 40
0.3521808302996258
 10
-9.502697782790861
 20
25.17904161767481
 30
0.0
 41
1.0
 10
-9.542675126356894
 20
25.18439863312636
 30
0.0
 41
0.9996482269205631
 10
-9.582312169237749
 20
25.1918679332814
 30
0.0
 41
1.0
 10
-9.628391974588508
 20
25.2004477515344
 30
0.0
 41
0.998910488017883
 10
-9.673471149898575
 20
25.21328635331897
 30
0.0
 41
1.0
 10
-9.706247757807569
 20
25.22255289868125
 30
0.0
 41
0.9980529921694051
 10
-9.737615659833223
 20
25.23582804883032
 30
0.0
 41
1.0
 10
-9.76080632082048
 20
25.24547071604457
 30
0.0
 41
0.9946970531954675
 10
-9.781533425126216
 20
25.25965433106787
 30
0.0
 41
1.0
 10
-9.795918662296849
 20
25.26924277444036
 30
0.0
 41
0.981553260770642
 10
-9.805653472021248
 20
25.28352936865985
 30
0.0
 41
1.0
 10
-9.81316881381722
 20
25.29456779382417
 30
0.0
 41
0.9399736737485752
 10
-9.81185239973968
 20
25.30785667061625
 30
0.0
 41
1.0
  0
SPLINE
  5
9F
330
1F
100
AcDbEntity
  8
DEFAULT
100
AcDbSpline
210
0.0
220
0.0
230
1.0
 70
    12
 71
     2
 72
     6
 73
     3
 74
     0
 42
0.0000000001
 43
0.0000000001
 40
-25.09328416650955
 40
-25.09328416650955
 40
-25.09328416650955
 40
0.0
 40
0.0
 40
0.0
 10
-9.81185239973968
 20
25.30785667061625
 30
0.0
 41
1.0
 10
-10.00566005916515
 20
12.71898557262817
 30
0.0
 41
0.9999999999999892
 10
-10.19857777602182
 20
0.1738267326727509
 30
0.0
 41
1.0
  0
SPLINE
  5
A0
330
1F
100
AcDbEntity
  8
DEFAULT
100
AcDbSpline
210
0.0
220
0.0
230
1.0
 70
    12
 71
     2
 72
     6
 73
     3
 74
     0
 42
0.0000000001
 43
0.0000000001
 40
0.0
 40
0.0
 40
0.0
 40
0.1542817287576956
 40
0.1542817287576956
 40
0.1542817287576956
 10
-9.070171804235027
 20
24.13386221376767
 30
0.0
 41
1.0
 10
-9.13274014853342
 20
24.17941440259454
 30
0.0
 41
0.9951050385958604
 10
-9.185127285735277
 20
24.23638270492974
 30
0.0
 41
1.0
  0
SPLINE
  5
A1
330
1F
100
AcDbEntity
  8
DEFAULT
100
AcDbSpline
210
0.0
220
0.0
230
1.0
 70
    12
 71
     3
 72
    12
 73
     8
 74
     0
 42
0.0000000001
 43
0.0000000001
 40
-1.975272820121479
 40
-1.975272820121479
 40
-1.975272820121479
 40
-1.975272820121479
 40
-1.596863394842357
 40
-1.596863394842357
 40
-1.398298080885066
 40
-1.398298080885066
 40
-1.370981876227486
 40
-1.370981876227486
 40
-1.370981876227486
 40
-1.370981876227486
 10
-9.185127285735277
 20
24.23638270492974
 30
0.0
 41
1.0
 10
-9.264601146561105
 20
24.3223519876918
 30
0.0
 41
1.0
 10
-9.343435498410614
 20
24.44629206311531
 30
0.0
 41
1.0
 10
-9.276078832773678
 20
24.64093859837783
 30
0.0
 41
1.0
 10
-9.235116078363617
 20
24.69005703773168
 30
0.0
 41
1.0
 10
-9.179057238223024
 20
24.74795680373179
 30
0.0
 41
1.0
 10
-9.172231910010467
 20
24.75481183615368
 30
0.0
 41
1.0
 10
-9.165355447643279
 20
24.7615360430706
 30
0.0
 41
1.0
  0
SPLINE
  5
A2
330
1F
100
AcDbEntity
  8
DEFAULT
100
AcDbSpline
210
0.0
220
0.0
230
1.0
 70
    12
 71
     2
 72
     6
 73
     3
 74
     0
 42
0.0000000001
 43
0.0000000001
 40
0.0
 40
0.0
 40
0.0
 40
0.1393978618929742
 40
0.1393978618929742
 40
0.1393978618929742
 10
-9.165355447643279
 20
24.7615360430706
 30
0.0
 41
1.0
 10
-9.11537785760529
 20
24.81022686219747
 30
0.0
 41
0.9983647645364654
 10
-9.060169216774892
 20
24.8528948988398
 30
0.0
 41
1.0
  0
SPLINE
  5
A3
330
1F
100
AcDbEntity
  8
DEFAULT
100
AcDbSpline
210
0.0
220
0.0
230
1.0
 70
    15
 71
     2
 72
    22
 73
    19
 74
     0
 42
0.0000000001
 43
0.0000000001
 40
0.0
 40
0.0
 40
0.0
 40
0.453779622357851
 40
0.453779622357851
 40
0.9088630421159327
 40
0.9088630421159327
 40
0.9993756319597356
 40
0.9993756319597356
 40
1.083258245025186
 40
1.083258245025186
 40
1.645838517933367
 40
1.645838517933367
 40
2.170467766655575
 40
2.170467766655575
 40
2.209198126140482
 40
2.209198126140482
 40
2.292861130491013
 40
2.292861130491013
 40
2.383370666709242
 40
2.383370666709242
 40
2.383370666709242
 10
-8.335520171470174
 20
0.0115303288202942
 30
0.0
 41
1.0
 10
-8.615183681266386
 20
-0.0023890054529852
 30
0.0
 41
0.9995895589252186
 10
-8.842169095054745
 20
0.0007647233281332
 30
0.0
 41
1.0
 10
-9.069806872438749
 20
0.0039282003818307
 30
0.0
 41
0.9995871947377413
 10
-9.348592656514114
 20
0.0255683762887222
 30
0.0
 41
1.0
 10
-9.403047475373159
 20
0.0327658620256023
 30
0.0
 41
0.7556419620548741
 10
-9.40365488669316
 20
0.0876939475217561
 30
0.0
 41
1.0
 10
-9.40332332904988
 20
0.1299897110137476
 30
0.0
 41
1.0
 10
-9.402991771406597
 20
0.1722854745057392
 30
0.0
 41
1.0
 10
-9.122263507773038
 20
0.1925534421731181
 30
0.0
 41
0.9984590545613797
 10
-8.841049868272236
 20
0.1808282938299576
 30
0.0
 41
1.000002485846825
 10
-8.578795832973036
 20
0.1790229005210272
 30
0.0
 41
0.9996639313696921
 10
-8.317030171284708
 20
0.1629100489306548
 30
0.0
 41
1.000002463241312
 10
-8.297649295170714
 20
0.1615662235887231
 30
0.0
 41
0.9947968588941647
 10
-8.278192748865983
 20
0.1563388776549319
 30
0.0
 41
1.000011529947611
 10
-8.278478195550882
 20
0.1141951622826088
 30
0.0
 41
1.000011529947611
 10
-8.27876364223578
 20
0.0720514469102856
 30
0.0
 41
1.000011529947611
 10
-8.280806524774968
 20
0.0170908930052505
 30
0.0
 41
0.7543279065398946
 10
-8.335520171470174
 20
0.0115303288202942
 30
0.0
 41
1.000011529947611
  0
SPLINE
  5
A4
330
1F
100
AcDbEntity
  8
DEFAULT
100
AcDbSpline
210
0.0
220
0.0
230
1.0
 70
    12
 71
     2
 72
     8
 73
     5
 74
     0
 42
0.0000000001
 43
0.0000000001
 40
-0.8433053248869731
 40
-0.8433053248869731
 40
-0.8433053248869731
 40
-0.4216333844790081
 40
-0.4216333844790081
 40
0.0
 40
0.0
 40
0.0
 10
-9.21761597594515
 20
0.0085127089659066
 30
0.0
 41
1.0
 10
-9.42835060849284
 20
0.0005296362392564
 30
0.0
 41
0.9996457039810459
 10
-9.639211465054956
 20
0.003772162270628
 30
0.0
 41
1.0
 10
-9.850053032266905
 20
0.0070143916788095
 30
0.0
 41
0.9996457687649688
 10
-10.14523829911552
 20
0.0277571389145863
 30
0.0
 41
1.0
  0
SPLINE
  5
A5
330
1F
100
AcDbEntity
  8
DEFAULT
100
AcDbSpline
210
0.0
220
0.0
230
1.0
 70
    12
 71
     2
 72
     6
 73
     3
 74
     0
 42
0.0000000001
 43
0.0000000001
 40
-0.0904093603292067
 40
-0.0904093603292067
 40
-0.0904093603292067
 40
0.0
 40
0.0
 40
0.0
 10
-10.14523829911552
 20
0.0277571389145863
 30
0.0
 41
1.0
 10
-10.20134053713727
 20
0.0322182186833529
 30
0.0
 41
0.7293593170846407
 10
-10.20047520060892
 20
0.0884908899940779
 30
0.0
 41
1.0
  0
SPLINE
  5
A6
330
1F
100
AcDbEntity
  8
DEFAULT
100
AcDbSpline
210
0.0
220
0.0
230
1.0
 70
    24
 71
     2
 72
     6
 73
     3
 74
     0
 42
0.0000000001
 43
0.0000000001
 40
-0.0839211351619186
 40
-0.0839211351619186
 40
-0.0839211351619186
 40
0.0
 40
0.0
 40
0.0
 10
-10.20047520060892
 20
0.0884908899940779
 30
0.0
 10
-10.19967825798842
 20
0.1308026542844677
 30
0.0
 10
-10.19888131536793
 20
0.1731144185748574
 30
0.0
  0
SPLINE
  5
A7
330
1F
100
AcDbEntity
  8
DEFAULT
100
AcDbSpline
210
0.0
220
0.0
230
1.0
 70
    24
 71
     2
 72
     6
 73
     3
 74
     0
 42
0.0000000001
 43
0.0000000001
 40
0.0
 40
0.0
 40
0.0
 40
0.7960449348972201
 40
0.7960449348972201
 40
0.7960449348972201
 10
-10.19888131536793
 20
0.1731144185748574
 30
0.0
 10
-9.800754132006585
 20
0.1673506837140199
 30
0.0
 10
-9.402626948645244
 20
0.1615869488531823
 30
0.0
  0
SPLINE
  5
A8
330
1F
100
AcDbEntity
  8
DEFAULT
100
AcDbSpline
210
0.0
220
0.0
230
1.0
 70
    12
 71
     2
 72
     6
 73
     3
 74
     0
 42
0.0000000001
 43
0.0000000001
 40
0.0
 40
0.0
 40
0.0
 40
2.011907681528288
 40
2.011907681528288
 40
2.011907681528288
 10
7.006245521903726
 20
74.38564212717708
 30
0.0
 41
1.0
 10
7.968810391996187
 20
74.67994838053617
 30
0.0
 41
0.9991085654434491
 10
8.903118632466631
 20
75.05440186455174
 30
0.0
 41
1.0
  0
SPLINE
  5
A9
330
1F
100
AcDbEntity
  8
DEFAULT
100
AcDbSpline
210
0.0
220
0.0
230
1.0
 70
    12
 71
     2
 72
     6
 73
     3
 74
     0
 42
0.0000000001
 43
0.0000000001
 40
0.0
 40
0.0
 40
0.0
 40
3.017273700568131
 40
3.017273700568131
 40
3.017273700568131
 10
8.95932161139531
 20
75.61721483280937
 30
0.0
 41
1.0
 10
7.563377774093521
 20
75.03957370775494
 30
0.0
 41
0.9979153646721282
 10
6.104659804026337
 20
74.64654654576985
 30
0.0
 41
1.0
  0
SPLINE
  5
AA
330
1F
100
AcDbEntity
  8
DEFAULT
100
AcDbSpline
210
0.0
220
0.0
230
1.0
 70
    12
 71
     3
 72
    13
 73
     9
 74
     0
 42
0.0000000001
 43
0.0000000001
 40
0.0
 40
0.0
 40
0.0
 40
0.0
 40
8.643112293667128
 40
12.96459165181825
 40
14.04495275024958
 40
14.58513194373151
 40
16.16168011784191
 40
25.52706692808933
 40
25.52706692808933
 40
25.52706692808933
 40
25.52706692808933
 10
10.19857778008442
 20
76.04623590282478
 30
0.0
 41
1.0
 10
10.15427936692349
 20
76.04591747411689
 30
0.0
 41
1.0
 10
10.08783335638846
 20
75.73953975972115
 30
0.0
 41
1.0
 10
10.01692530796348
 20
74.91580350168114
 30
0.0
 41
0.9999999999999999
 10
9.987206353692734
 20
74.4823867656263
 30
0.0
 41
0.9999999999999999
 10
9.971275428113422
 20
74.23295861395586
 30
0.0
 41
0.9999999999999999
 10
9.914150204715064
 20
73.31331003241948
 30
0.0
 41
0.9999999999999999
 10
9.859703427558319
 20
72.43979797744204
 30
0.0
 41
1.0
 10
9.813103826643
 20
71.69099947058534
 30
0.0
 41
1.0
  0
SPLINE
  5
AB
330
1F
100
AcDbEntity
  8
DEFAULT
100
AcDbSpline
210
0.0
220
0.0
230
1.0
 70
    12
 71
     2
 72
     6
 73
     3
 74
     0
 42
0.0000000001
 43
0.0000000001
 40
0.0
 40
0.0
 40
0.0
 40
0.3556666141877665
 40
0.3556666141877665
 40
0.3556666141877665
 10
8.94430990587489
 20
56.8071021637508
 30
0.0
 41
1.0
 10
9.054901987820866
 20
56.6595982745263
 30
0.0
 41
0.9477458297023692
 10
9.053785069317868
 20
56.47524329515618
 30
0.0
 41
1.0
  0
SPLINE
  5
AC
330
1F
100
AcDbEntity
  8
DEFAULT
100
AcDbSpline
210
0.0
220
0.0
230
1.0
 70
    12
 71
     2
 72
     6
 73
     3
 74
     0
 42
0.0000000001
 43
0.0000000001
 40
0.0
 40
0.0
 40
0.0
 40
0.3902407584359435
 40
0.3902407584359435
 40
0.3902407584359435
 10
9.053785069317868
 20
56.47524329515618
 30
0.0
 41
1.0
 10
9.053692448420668
 20
56.2724177745391
 30
0.0
 41
0.9439784289241253
 10
8.927251734681427
 20
56.11382727576527
 30
0.0
 41
1.0
  0
SPLINE
  5
AD
330
1F
100
AcDbEntity
  8
DEFAULT
100
AcDbSpline
210
0.0
220
0.0
230
1.0
 70
    12
 71
     2
 72
     8
 73
     5
 74
     0
 42
0.0000000001
 43
0.0000000001
 40
0.0
 40
0.0
 40
0.0
 40
0.011920443213767
 40
0.011920443213767
 40
0.8953845740655059
 40
0.8953845740655059
 40
0.8953845740655059
 10
8.829130268991888
 20
55.21330937441229
 30
0.0
 41
1.0
 10
8.835089424122732
 20
55.2131853989998
 30
0.0
 41
0.9999438838275645
 10
8.841049868272236
 20
55.21318770486068
 30
0.0
 41
1.0
 10
9.403368822653501
 20
55.21336863037499
 30
0.0
 41
0.7073001515603747
 10
9.403493425693407
 20
55.77676496027135
 30
0.0
 41
1.0
  0
SPLINE
  5
AE
330
1F
100
AcDbEntity
  8
DEFAULT
100
AcDbSpline
210
0.0
220
0.0
230
1.0
 70
    12
 71
     2
 72
     6
 73
     3
 74
     0
 42
0.0000000001
 43
0.0000000001
 40
0.0
 40
0.0
 40
0.0
 40
0.260214335201275
 40
0.260214335201275
 40
0.260214335201275
 10
9.403493425693407
 20
55.77676496027135
 30
0.0
 41
1.0
 10
9.402985315927687
 20
55.91032354826549
 30
0.0
 41
0.9733221754645992
 10
9.343362088524009
 20
56.02863079013026
 30
0.0
 41
0.9999998993186666
  0
SPLINE
  5
AF
330
1F
100
AcDbEntity
  8
DEFAULT
100
AcDbSpline
210
0.0
220
0.0
230
1.0
 70
    24
 71
     2
 72
     6
 73
     3
 74
     0
 42
0.0000000001
 43
0.0000000001
 40
0.0
 40
0.0
 40
0.0
 40
0.724376615333608
 40
0.724376615333608
 40
0.724376615333608
 10
9.34336208852401
 20
56.02863079013026
 30
0.0
 10
9.181412410301162
 20
56.35259451873017
 30
0.0
 10
9.019462732078313
 20
56.67655824733009
 30
0.0
  0
SPLINE
  5
B0
330
1F
100
AcDbEntity
  8
DEFAULT
100
AcDbSpline
210
0.0
220
0.0
230
1.0
 70
     8
 71
     3
 72
    13
 73
     9
 74
     0
 42
0.0000000001
 43
0.0000000001
 40
-3.219240749456699
 40
-3.219240749456699
 40
-3.219240749456699
 40
-3.219240749456699
 40
-1.608780363830926
 40
-1.137367279769164
 40
-0.8321297490398771
 40
-0.4053393049321962
 40
-0.2006690731634779
 40
0.0
 40
0.0
 40
0.0
 40
0.0
 10
8.81436804209588
 20
73.73591953649266
 30
0.0
 10
8.849484854439838
 20
74.27152687935649
 30
0.0
 10
8.883715989351302
 20
74.96495425518863
 30
0.0
 10
8.973782545977883
 20
75.75594245891875
 30
0.0
 10
9.0361055200443
 20
76.15197841054992
 30
0.0
 10
9.181970624830115
 20
76.4410712760162
 30
0.0
 10
9.433373456107875
 20
76.58341117761071
 30
0.0
 10
9.563749150235918
 20
76.60831597346679
 30
0.0
 10
9.635078285943067
 20
76.60872711455092
 30
0.0
  0
SPLINE
  5
B1
330
1F
100
AcDbEntity
  8
DEFAULT
100
AcDbSpline
210
0.0
220
0.0
230
1.0
 70
    12
 71
     2
 72
     6
 73
     3
 74
     0
 42
0.0000000001
 43
0.0000000001
 40
0.0
 40
0.0
 40
0.0
 40
0.8799424134398891
 40
0.8799424134398891
 40
0.8799424134398891
 10
9.635078285943067
 20
76.60872711455092
 30
0.0
 41
1.0
 10
10.19693249144289
 20
76.60681983236995
 30
0.0
 41
0.7093524655190331
 10
10.1985765159985
 20
76.04707918853971
 30
0.0
 41
1.0
  0
SPLINE
  5
B2
330
1F
100
AcDbEntity
  8
DEFAULT
100
AcDbSpline
210
0.0
220
0.0
230
1.0
 70
    12
 71
     2
 72
     6
 73
     3
 74
     0
 42
0.0000000001
 43
0.0000000001
 40
0.0
 40
0.0
 40
0.0
 40
0.331445418919184
 40
0.331445418919184
 40
0.331445418919184
 10
10.1985765159985
 20
76.04707918853971
 30
0.0
 41
1.0
 10
10.19857847999861
 20
75.87554662255123
 30
0.0
 41
0.9569203431311061
 10
10.10372963265807
 20
75.73363634611235
 30
0.0
 41
1.0
  0
SPLINE
  5
B3
330
1F
100
AcDbEntity
  8
DEFAULT
100
AcDbSpline
210
0.0
220
0.0
230
1.0
 70
     8
 71
     3
 72
    16
 73
    12
 74
     0
 42
0.0000000001
 43
0.0000000001
 40
0.0
 40
0.0
 40
0.0
 40
0.0
 40
0.0051653854898411
 40
0.0098143762486306
 40
0.0246208546667071
 40
0.0690914466071414
 40
0.1950563379128102
 40
0.3716459122982222
 40
0.591698352566269
 40
0.7938632992620289
 40
1.198788354307877
 40
1.198788354307877
 40
1.198788354307877
 40
1.198788354307877
 10
-8.169926666297663
 20
8.15697358070862
 30
0.0
 10
-8.169017785708158
 20
8.157877454730597
 30
0.0
 10
-8.16596152359163
 20
8.162836790777945
 30
0.0
 10
-8.174029992320854
 20
8.156999997250491
 30
0.0
 10
-8.18908249079949
 20
8.141344813251687
 30
0.0
 10
-8.231123777604648
 20
8.09883344684664
 30
0.0
 10
-8.308868920746951
 20
8.007953418422503
 30
0.0
 10
-8.41503323484643
 20
7.878117767382892
 30
0.0
 10
-8.509220228308351
 20
7.684110442293909
 30
0.0
 10
-8.400974019144414
 20
7.415593108908133
 30
0.0
 10
-8.261734034721623
 20
7.271507031664655
 30
0.0
 10
-8.181165049816585
 20
7.161747733238475
 30
0.0
  0
SPLINE
  5
B4
330
1F
100
AcDbEntity
  8
DEFAULT
100
AcDbSpline
210
0.0
220
0.0
230
1.0
 70
    24
 71
     2
 72
     6
 73
     3
 74
     0
 42
0.0000000001
 43
0.0000000001
 40
0.0
 40
0.0
 40
0.0
 40
16.36248727582998
 40
16.36248727582998
 40
16.36248727582998
 10
8.181322226013393
 20
7.161554249991758
 30
0.0
 10
0.000078588098404
 20
7.161554249991755
 30
0.0
 10
-8.181165049816585
 20
7.161554249991752
 30
0.0
  0
SPLINE
  5
B5
330
1F
100
AcDbEntity
  8
DEFAULT
100
AcDbSpline
210
0.0
220
0.0
230
1.0
 70
    24
 71
     2
 72
     6
 73
     3
 74
     0
 42
0.0000000001
 43
0.0000000001
 40
0.0
 40
0.0
 40
0.0
 40
16.33503425540365
 40
16.33503425540365
 40
16.33503425540365
 10
-8.167438350600493
 20
8.161554249994388
 30
0.0
 10
0.0000787771013337
 20
8.161554249994392
 30
0.0
 10
8.16759590480316
 20
8.161554249994396
 30
0.0
  0
SPLINE
  5
B6
330
1F
100
AcDbEntity
  8
DEFAULT
100
AcDbSpline
210
0.0
220
0.0
230
1.0
 70
    12
 71
     2
 72
     6
 73
     3
 74
     0
 42
0.0000000001
 43
0.0000000001
 40
0.0
 40
0.0
 40
0.0
 40
0.2283815025292124
 40
0.2283815025292124
 40
0.2283815025292124
 10
-9.048594814548114
 20
25.31146057492441
 30
0.0
 41
1.0
 10
-8.935096907978178
 20
25.29889994423989
 30
0.0
 41
0.9999990472495242
 10
-8.821564756630071
 20
25.28665270580745
 30
0.0
 41
1.0
  0
SPLINE
  5
B7
330
1F
100
AcDbEntity
  8
DEFAULT
100
AcDbSpline
210
0.0
220
0.0
230
1.0
 70
    12
 71
     2
 72
     6
 73
     3
 74
     0
 42
0.0000000001
 43
0.0000000001
 40
0.0
 40
0.0
 40
0.0
 40
15.9165558348646
 40
15.9165558348646
 40
15.9165558348646
 10
7.946375130923666
 20
24.06673925499703
 30
0.0
 41
1.0
 10
0.0001767748511167
 20
23.30596313969037
 30
0.0
 41
0.9954482648980743
 10
-7.946024052582901
 20
24.06671344153592
 30
0.0
 41
1.0
  0
SPLINE
  5
B8
330
1F
100
AcDbEntity
  8
DEFAULT
100
AcDbSpline
210
0.0
220
0.0
230
1.0
 70
    12
 71
     3
 72
    13
 73
     9
 74
     0
 42
0.0000000001
 43
0.0000000001
 40
0.0
 40
0.0
 40
0.0
 40
0.0
 40
8.643112293667128
 40
12.96459165181825
 40
14.04495275024958
 40
14.58513194373151
 40
16.16168011784191
 40
25.52706692808933
 40
25.52706692808933
 40
25.52706692808933
 40
25.52706692808933
 10
-10.19857778008442
 20
76.04623590282478
 30
0.0
 41
1.0
 10
-10.15427936692349
 20
76.04591747411689
 30
0.0
 41
1.0
 10
-10.08783335638846
 20
75.73953975972115
 30
0.0
 41
1.0
 10
-10.01692530796348
 20
74.91580350168114
 30
0.0
 41
0.9999999999999999
 10
-9.987206353692734
 20
74.4823867656263
 30
0.0
 41
0.9999999999999999
 10
-9.971275428113422
 20
74.23295861395586
 30
0.0
 41
0.9999999999999999
 10
-9.914150204715064
 20
73.31331003241948
 30
0.0
 41
0.9999999999999999
 10
-9.859703427558319
 20
72.43979797744204
 30
0.0
 41
1.0
 10
-9.813103826643
 20
71.69099947058534
 30
0.0
 41
1.0
  0
SPLINE
  5
B9
330
1F
100
AcDbEntity
  8
DEFAULT
100
AcDbSpline
210
0.0
220
0.0
230
1.0
 70
    12
 71
     2
 72
     6
 73
     3
 74
     0
 42
0.0000000001
 43
0.0000000001
 40
0.0
 40
0.0
 40
0.0
 40
3.017273700568131
 40
3.017273700568131
 40
3.017273700568131
 10
-8.95932161139531
 20
75.61721483280937
 30
0.0
 41
1.0
 10
-7.563377774093521
 20
75.03957370775494
 30
0.0
 41
0.9979153646721282
 10
-6.104659804026337
 20
74.64654654576985
 30
0.0
 41
1.0
  0
SPLINE
  5
BA
330
1F
100
AcDbEntity
  8
DEFAULT
100
AcDbSpline
210
0.0
220
0.0
230
1.0
 70
    24
 71
     2
 72
     6
 73
     3
 74
     0
 42
0.0000000001
 43
0.0000000001
 40
0.0
 40
0.0
 40
0.0
 40
15.9071138578569
 40
15.9071138578569
 40
15.9071138578569
 10
-7.945994105599121
 20
24.06693100927049
 30
0.0
 10
-8.056626694949815
 20
16.11414355757286
 30
0.0
 10
-8.167259284300508
 20
8.161356105875226
 30
0.0
  0
SPLINE
  5
BB
330
1F
100
AcDbEntity
  8
DEFAULT
100
AcDbSpline
210
0.0
220
0.0
230
1.0
 70
    24
 71
     2
 72
     6
 73
     3
 74
     0
 42
0.0000000001
 43
0.0000000001
 40
0.0
 40
0.0
 40
0.0
 40
7.005062463356575
 40
7.005062463356575
 40
7.005062463356575
 10
-8.181165091264536
 20
7.161741726619514
 30
0.0
 10
-8.229884689666209
 20
3.659549351890022
 30
0.0
 10
-8.278604288067882
 20
0.1573569771605292
 30
0.0
  0
SPLINE
  5
BC
330
1F
100
AcDbEntity
  8
DEFAULT
100
AcDbSpline
210
0.0
220
0.0
230
1.0
 70
    12
 71
     2
 72
     6
 73
     3
 74
     0
 42
0.0000000001
 43
0.0000000001
 40
0.0
 40
0.0
 40
0.0
 40
0.3556666141877665
 40
0.3556666141877665
 40
0.3556666141877665
 10
-8.94430990587489
 20
56.8071021637508
 30
0.0
 41
1.0
 10
-9.054901987820866
 20
56.6595982745263
 30
0.0
 41
0.9477458297023692
 10
-9.053785069317868
 20
56.47524329515618
 30
0.0
 41
1.0
  0
SPLINE
  5
BD
330
1F
100
AcDbEntity
  8
DEFAULT
100
AcDbSpline
210
0.0
220
0.0
230
1.0
 70
    12
 71
     2
 72
     6
 73
     3
 74
     0
 42
0.0000000001
 43
0.0000000001
 40
0.0
 40
0.0
 40
0.0
 40
0.3902407584359435
 40
0.3902407584359435
 40
0.3902407584359435
 10
-9.053785069317868
 20
56.47524329515618
 30
0.0
 41
1.0
 10
-9.053692448420668
 20
56.2724177745391
 30
0.0
 41
0.9439784289241253
 10
-8.927251734681427
 20
56.11382727576527
 30
0.0
 41
1.0
  0
SPLINE
  5
BE
330
1F
100
AcDbEntity
  8
DEFAULT
100
AcDbSpline
210
0.0
220
0.0
230
1.0
 70
    12
 71
     2
 72
     8
 73
     5
 74
     0
 42
0.0000000001
 43
0.0000000001
 40
0.0
 40
0.0
 40
0.0
 40
0.011920443213767
 40
0.011920443213767
 40
0.8953845740655059
 40
0.8953845740655059
 40
0.8953845740655059
 10
-8.829130268991888
 20
55.21330937441229
 30
0.0
 41
1.0
 10
-8.835089424122732
 20
55.2131853989998
 30
0.0
 41
0.9999438838275645
 10
-8.841049868272236
 20
55.21318770486068
 30
0.0
 41
1.0
 10
-9.403368822653501
 20
55.21336863037499
 30
0.0
 41
0.7073001515603747
 10
-9.403493425693407
 20
55.77676496027135
 30
0.0
 41
1.0
  0
SPLINE
  5
BF
330
1F
100
AcDbEntity
  8
DEFAULT
100
AcDbSpline
210
0.0
220
0.0
230
1.0
 70
    12
 71
     2
 72
     6
 73
     3
 74
     0
 42
0.0000000001
 43
0.0000000001
 40
0.0
 40
0.0
 40
0.0
 40
0.260214335201275
 40
0.260214335201275
 40
0.260214335201275
 10
-9.403493425693407
 20
55.77676496027135
 30
0.0
 41
1.0
 10
-9.402985315927687
 20
55.91032354826549
 30
0.0
 41
0.9733221754645992
 10
-9.343362088524009
 20
56.02863079013026
 30
0.0
 41
0.9999998993186666
  0
SPLINE
  5
C0
330
1F
100
AcDbEntity
  8
DEFAULT
100
AcDbSpline
210
0.0
220
0.0
230
1.0
 70
    24
 71
     2
 72
     6
 73
     3
 74
     0
 42
0.0000000001
 43
0.0000000001
 40
0.0
 40
0.0
 40
0.0
 40
0.724376615333608
 40
0.724376615333608
 40
0.724376615333608
 10
-9.34336208852401
 20
56.02863079013026
 30
0.0
 10
-9.181412410301162
 20
56.35259451873017
 30
0.0
 10
-9.019462732078313
 20
56.67655824733009
 30
0.0
  0
SPLINE
  5
C1
330
1F
100
AcDbEntity
  8
DEFAULT
100
AcDbSpline
210
0.0
220
0.0
230
1.0
 70
    24
 71
     2
 72
     6
 73
     3
 74
     0
 42
0.0000000001
 43
0.0000000001
 40
0.0
 40
0.0
 40
0.0
 40
6.257223026633629
 40
6.257223026633629
 40
6.257223026633629
 10
38.17180298888654
 20
23.01855847463663
 30
0.0
 10
41.28601099540988
 20
23.31842259947391
 30
0.0
 10
44.40021900193322
 20
23.61828672431118
 30
0.0
  0
SPLINE
  5
C2
330
1F
100
AcDbEntity
  8
DEFAULT
100
AcDbSpline
210
0.0
220
0.0
230
1.0
 70
    24
 71
     2
 72
     6
 73
     3
 74
     0
 42
0.0000000001
 43
0.0000000001
 40
-0.0992958139205835
 40
-0.0992958139205835
 40
-0.0992958139205835
 40
0.0
 40
0.0
 40
0.0
 10
37.68184335122577
 20
23.71412341613684
 30
0.0
 10
37.73129651260017
 20
23.71888852763683
 30
0.0
 10
37.78074967397457
 20
23.72365363913681
 30
0.0
  0
SPLINE
  5
C3
330
1F
100
AcDbEntity
  8
DEFAULT
100
AcDbSpline
210
0.0
220
0.0
230
1.0
 70
    12
 71
     3
 72
    12
 73
     8
 74
     0
 42
0.0000000001
 43
0.0000000001
 40
2.266806351395972
 40
2.266806351395972
 40
2.266806351395972
 40
2.266806351395972
 40
2.411132418285951
 40
2.411132418285951
 40
2.598945532857947
 40
2.598945532857947
 40
2.9565629204786
 40
2.9565629204786
 40
2.9565629204786
 40
2.9565629204786
 10
37.78074967397457
 20
23.72365363913681
 30
0.0
 41
1.0
 10
37.82502446247121
 20
23.73617517926334
 30
0.0
 41
1.0
 10
37.86102333450957
 20
23.75867926924784
 30
0.0
 41
1.0
 10
37.94706045927914
 20
23.81955889407378
 30
0.0
 41
1.0
 10
37.98638753731966
 20
23.85530483396024
 30
0.0
 41
1.0
 10
38.09253529023731
 20
23.95564561689656
 30
0.0
 41
1.0
 10
38.14263596939024
 20
24.01032885379519
 30
0.0
 41
1.0
 10
38.14263596939024
 20
24.01032885379519
 30
0.0
 41
1.0
  0
SPLINE
  5
C4
330
1F
100
AcDbEntity
  8
DEFAULT
100
AcDbSpline
210
0.0
220
0.0
230
1.0
 70
    24
 71
     2
 72
     6
 73
     3
 74
     0
 42
0.0000000001
 43
0.0000000001
 40
0.0
 40
0.0
 40
0.0
 40
0.0795454859458744
 40
0.0795454859458744
 40
0.0795454859458744
 10
38.14263596939024
 20
24.01032885379519
 30
0.0
 10
38.13951543594196
 20
24.04997899067502
 30
0.0
 10
38.13639490249368
 20
24.08962912755485
 30
0.0
  0
SPLINE
  5
C5
330
1F
100
AcDbEntity
  8
DEFAULT
100
AcDbSpline
210
0.0
220
0.0
230
1.0
 70
    12
 71
     3
 72
    10
 73
     6
 74
     0
 42
0.0000000001
 43
0.0000000001
 40
-2.791708356059433
 40
-2.791708356059433
 40
-2.791708356059433
 40
-2.791708356059433
 40
-2.093725516925132
 40
-2.093725516925132
 40
-1.39319396481126
 40
-1.39319396481126
 40
-1.39319396481126
 40
-1.39319396481126
 10
38.13639490249368
 20
24.08962912755485
 30
0.0
 41
1.0
 10
38.13241286520785
 20
24.1402257085761
 30
0.0
 41
1.0
 10
37.93594859492281
 20
24.1767262153934
 30
0.0
 41
1.0
 10
37.44073934926347
 20
24.14960474347059
 30
0.0
 41
1.0
 10
37.25319896117712
 20
24.0902840022236
 30
0.0
 41
1.0
 10
37.2591130940135
 20
24.03816600269748
 30
0.0
 41
1.0
  0
SPLINE
  5
C6
330
1F
100
AcDbEntity
  8
DEFAULT
100
AcDbSpline
210
0.0
220
0.0
230
1.0
 70
    24
 71
     2
 72
     6
 73
     3
 74
     0
 42
0.0000000001
 43
0.0000000001
 40
0.0
 40
0.0
 40
0.0
 40
0.1124025976139652
 40
0.1124025976139652
 40
0.1124025976139652
 10
37.2591130940135
 20
24.03816600269748
 30
0.0
 10
37.26547557161591
 20
23.98232324863596
 30
0.0
 10
37.27183804921832
 20
23.92648049457445
 30
0.0
  0
SPLINE
  5
C7
330
1F
100
AcDbEntity
  8
DEFAULT
100
AcDbSpline
210
0.0
220
0.0
230
1.0
 70
    12
 71
     3
 72
    12
 73
     8
 74
     0
 42
0.0000000001
 43
0.0000000001
 40
1.478228585790528
 40
1.478228585790528
 40
1.478228585790528
 40
1.478228585790528
 40
1.835108898878118
 40
1.835108898878118
 40
2.024274150184068
 40
2.024274150184068
 40
2.167373199071931
 40
2.167373199071931
 40
2.167373199071931
 40
2.167373199071931
 10
37.27183811970473
 20
23.9264804355959
 30
0.0
 41
1.0
 10
37.27191405426736
 20
23.92642147866622
 30
0.0
 41
1.0
 10
37.33139439870364
 20
23.88241147147407
 30
0.0
 41
1.0
 10
37.45488979814148
 20
23.80405174792102
 30
0.0
 41
1.0
 10
37.5006410931458
 20
23.77624335141053
 30
0.0
 41
1.0
 10
37.59694299177401
 20
23.73297296541388
 30
0.0
 41
1.0
 10
37.63634164771166
 20
23.71794630875162
 30
0.0
 41
1.0
 10
37.68184335122577
 20
23.71412341613684
 30
0.0
 41
1.0
  0
ARC
  5
C8
330
1F
100
AcDbEntity
  8
DEFAULT
100
AcDbCircle
 10
30.62752481235587
 20
26.68522637786893
 30
0.0
 40
0.7812392972202519
100
AcDbArc
 50
335.4266311420735
 51
8.42064028772187
  0
SPLINE
  5
C9
330
1F
100
AcDbEntity
  8
DEFAULT
100
AcDbSpline
210
0.0
220
0.0
230
1.0
 70
     8
 71
     3
 72
    11
 73
     7
 74
     0
 42
0.0000000001
 43
0.0000000001
 40
-1.932317162159845
 40
-1.932317162159845
 40
-1.932317162159845
 40
-1.932317162159845
 40
-1.114321231087402
 40
-0.6074116793840068
 40
-0.2699890469078568
 40
0.0000000000000001
 40
0.0000000000000001
 40
0.0000000000000001
 40
0.0000000000000001
 10
31.40034207158102
 20
26.79963058830242
 30
0.0
 10
31.3603255210998
 20
27.06994826935065
 30
0.0
 10
31.12884573696736
 20
27.47787481886484
 30
0.0
 10
30.63645173527509
 20
27.75171478064705
 30
0.0
 10
30.30346907552847
 20
27.90852312306359
 30
0.0
 10
30.11133013117238
 20
27.97862726883148
 30
0.0
 10
30.0250906884748
 20
28.00263857086236
 30
0.0
  0
SPLINE
  5
CA
330
1F
100
AcDbEntity
  8
DEFAULT
100
AcDbSpline
210
0.0
220
0.0
230
1.0
 70
    12
 71
     2
 72
     6
 73
     3
 74
     0
 42
0.0000000001
 43
0.0000000001
 40
-0.1016264246854027
 40
-0.1016264246854027
 40
-0.1016264246854027
 40
0.0
 40
0.0
 40
0.0
 10
30.0250906884748
 20
28.00263857086236
 30
0.0
 41
1.0
 10
29.97120412709735
 20
28.01889465206058
 30
0.0
 41
0.8603657572054948
 10
29.95955951007768
 20
28.07396151261834
 30
0.0
 41
1.0
  0
SPLINE
  5
CB
330
1F
100
AcDbEntity
  8
DEFAULT
100
AcDbSpline
210
0.0
220
0.0
230
1.0
 70
    12
 71
     2
 72
     6
 73
     3
 74
     0
 42
0.0000000001
 43
0.0000000001
 40
0.0
 40
0.0
 40
0.0
 40
0.0168225849784347
 40
0.0168225849784347
 40
0.0168225849784347
 10
29.95955951007768
 20
28.07396151261834
 30
0.0
 41
1.0
 10
29.95682809969029
 20
28.08215719766156
 30
0.0
 41
0.9609513453654801
 10
29.95887365230537
 20
28.09055038361988
 30
0.0
 41
1.0
  0
SPLINE
  5
CC
330
1F
100
AcDbEntity
  8
DEFAULT
100
AcDbSpline
210
0.0
220
0.0
230
1.0
 70
    12
 71
     3
 72
    30
 73
    26
 74
     0
 42
0.0000000001
 43
0.0000000001
 40
0.0
 40
0.0
 40
0.0
 40
0.0
 40
0.998777893850345
 40
2.039580217844248
 40
4.189912437327197
 40
6.986695890956174
 40
11.26981331091288
 40
11.26981331091288
 40
11.26981331091288
 40
11.3042122140525
 40
11.3042122140525
 40
11.3042122140525
 40
11.8678701670312
 40
12.41264512907092
 40
13.13074674650946
 40
13.16058978273658
 40
13.19762092784838
 40
13.24788819881942
 40
13.30844704110376
 40
13.35134589188302
 40
13.42219038585663
 40
13.76419401457089
 40
14.4210863406999
 40
15.94007407868409
 40
19.48616492399376
 40
19.48616492399376
 40
19.48616492399376
 40
19.48616492399376
 10
29.95887365230537
 20
28.09055038361988
 30
0.0
 41
1.0
 10
30.04055720071135
 20
28.41444235979026
 30
0.0
 41
1.0
 10
30.15595822469452
 20
29.08312245276643
 30
0.0
 41
1.0
 10
30.26234554220666
 20
30.48020772589193
 30
0.0
 41
1.0
 10
30.05594869110872
 20
32.47511946235323
 30
0.0
 41
1.0
 10
29.21270219559726
 20
35.44068019573706
 30
0.0
 41
1.0
 10
28.44158650806075
 20
37.6687079228694
 30
0.0
 41
1.0
 10
27.95084920446082
 20
39.0103371464011
 30
0.0
 41
1.0
 10
27.94668956022813
 20
39.02174521148099
 30
0.0
 41
0.8934048983870025
 10
27.94938297718404
 20
39.03358548572238
 30
0.0
 41
0.8934048983870025
 10
27.95806814016622
 20
39.0420716234176
 30
0.0
 41
1.0
 10
28.12725333252511
 20
39.12373040678997
 30
0.0
 41
1.0
 10
28.46144056812291
 20
39.28153344492446
 30
0.0
 41
1.0
 10
29.01577577992286
 20
39.5329933410499
 30
0.0
 41
1.0
 10
29.4058180498689
 20
39.71679567451305
 30
0.0
 41
1.0
 10
29.64583800649974
 20
39.82031694927399
 30
0.0
 41
1.0
 10
29.6861259702561
 20
39.8019143664373
 30
0.0
 41
1.0
 10
29.72417034743215
 20
39.77494142275964
 30
0.0
 41
1.0
 10
29.75952991063666
 20
39.73546369241912
 30
0.0
 41
1.0
 10
29.79406471487879
 20
39.68934885281904
 30
0.0
 41
1.0
 10
29.86888721671873
 20
39.55688676320429
 30
0.0
 41
1.0
 10
30.03974286559678
 20
39.24390074593562
 30
0.0
 41
1.0
 10
30.40685098504615
 20
38.48887690695706
 30
0.0
 41
1.0
 10
31.13962110863012
 20
36.72682174179614
 30
0.0
 41
1.0
 10
31.67203764883344
 20
35.12313828376475
 30
0.0
 41
1.0
 10
32.0223458568483
 20
33.94926444993438
 30
0.0
 41
1.0
  0
SPLINE
  5
CD
330
1F
100
AcDbEntity
  8
DEFAULT
100
AcDbSpline
210
0.0
220
0.0
230
1.0
 70
    12
 71
     3
 72
    12
 73
     8
 74
     0
 42
0.0000000001
 43
0.0000000001
 40
-0.9785015012744535
 40
-0.9785015012744535
 40
-0.9785015012744535
 40
-0.9785015012744535
 40
-0.4942537595695717
 40
-0.4942537595695717
 40
-0.2506663683008745
 40
-0.2506663683008745
 40
0.0
 40
0.0
 40
0.0
 40
0.0
 10
32.0223458568483
 20
33.94926444993438
 30
0.0
 41
1.0
 10
32.24798057430176
 20
33.18945359720948
 30
0.0
 41
1.0
 10
32.41014258557037
 20
32.54942011567147
 30
0.0
 41
1.0
 10
32.56043776376377
 20
31.70854149566723
 30
0.0
 41
1.0
 10
32.59924537918631
 20
31.45041575531554
 30
0.0
 41
1.0
 10
32.66886004607129
 20
30.72473542169459
 30
0.0
 41
1.0
 10
32.67611462591508
 20
30.43934542276788
 30
0.0
 41
1.0
 10
32.67722732901136
 20
30.24051863071628
 30
0.0
 41
1.0
  0
SPLINE
  5
CE
330
1F
100
AcDbEntity
  8
DEFAULT
100
AcDbSpline
210
0.0
220
0.0
230
1.0
 70
    12
 71
     2
 72
     6
 73
     3
 74
     0
 42
0.0000000001
 43
0.0000000001
 40
0.0
 40
0.0
 40
0.0
 40
0.4616602041699219
 40
0.4616602041699219
 40
0.4616602041699219
 10
32.67722732901136
 20
30.24051863071628
 30
0.0
 41
1.0
 10
32.67815523030968
 20
30.00951454017007
 30
0.0
 41
0.9988585240063492
 10
32.65703552350475
 20
29.77947604592536
 30
0.0
 41
1.0
  0
SPLINE
  5
CF
330
1F
100
AcDbEntity
  8
DEFAULT
100
AcDbSpline
210
0.0
220
0.0
230
1.0
 70
     8
 71
     3
 72
    11
 73
     7
 74
     0
 42
0.0000000001
 43
0.0000000001
 40
0.0
 40
0.0
 40
0.0
 40
0.0
 40
0.2874736741838422
 40
0.6007707123945327
 40
1.295211947608686
 40
2.682234006193673
 40
2.682234006193673
 40
2.682234006193673
 40
2.682234006193673
 10
32.65703552350475
 20
29.77947604592536
 30
0.0
 10
32.64851323870055
 20
29.68402371101127
 30
0.0
 10
32.62549264246648
 20
29.48502150784981
 30
0.0
 10
32.54936731305513
 20
29.05984591802939
 30
0.0
 10
32.34623615435994
 20
28.28674726451542
 30
0.0
 10
32.0727710299514
 20
27.64584070817828
 30
0.0
 10
31.85802115432453
 20
27.23492707916332
 30
0.0
  0
SPLINE
  5
D0
330
1F
100
AcDbEntity
  8
DEFAULT
100
AcDbSpline
210
0.0
220
0.0
230
1.0
 70
    12
 71
     2
 72
     6
 73
     3
 74
     0
 42
0.0000000001
 43
0.0000000001
 40
0.0
 40
0.0
 40
0.0
 40
0.6504522985104759
 40
0.6504522985104759
 40
0.6504522985104759
 10
31.85802115432453
 20
27.23492707916332
 30
0.0
 41
1.0
 10
31.70507661207935
 20
26.94600703731687
 30
0.0
 41
0.9991283073103383
 10
31.52821555728404
 20
26.67029931798269
 30
0.0
 41
1.0
  0
SPLINE
  5
D1
330
1F
100
AcDbEntity
  8
DEFAULT
100
AcDbSpline
210
0.0
220
0.0
230
1.0
 70
     8
 71
     3
 72
     9
 73
     5
 74
     0
 42
0.0000000001
 43
0.0000000001
 40
0.0
 40
0.0
 40
0.0
 40
0.0
 40
0.3651881675984961
 40
0.369218707017257
 40
0.369218707017257
 40
0.369218707017257
 40
0.369218707017257
 10
31.52821555728404
 20
26.67029931798269
 30
0.0
 10
31.45981480827059
 20
26.56775031399826
 30
0.0
 10
31.39901540980806
 20
26.45853879487207
 30
0.0
 10
31.33713504108452
 20
26.35418875799094
 30
0.0
 10
31.33800687471337
 20
26.36034166202435
 30
0.0
  0
SPLINE
  5
D2
330
1F
100
AcDbEntity
  8
DEFAULT
100
AcDbSpline
210
0.0
220
0.0
230
1.0
 70
     8
 71
     2
 72
    11
 73
     8
 74
     0
 42
0.0000000001
 43
0.0000000001
 40
0.0
 40
0.0
 40
0.0
 40
1.0
 40
2.0
 40
3.0
 40
4.0
 40
5.0
 40
6.0
 40
6.0
 40
6.0
 10
32.73582419052978
 20
27.19006375025469
 30
0.0
 10
32.97558199534676
 20
28.28194079955923
 30
0.0
 10
33.09942963445341
 20
30.51422001369716
 30
0.0
 10
32.68550768451841
 20
32.71465193322349
 30
0.0
 10
32.04197414703445
 20
34.85166287576777
 30
0.0
 10
31.23533099736152
 20
36.92812421000687
 30
0.0
 10
30.38668182017362
 20
39.01275669071359
 30
0.0
 10
29.7429651698604
 20
39.88461087754325
 30
0.0
  0
SPLINE
  5
D3
330
1F
100
AcDbEntity
  8
DEFAULT
100
AcDbSpline
210
0.0
220
0.0
230
1.0
 70
     8
 71
     5
 72
    12
 73
     6
 74
     0
 42
0.0000000001
 43
0.0000000001
 40
0.0
 40
0.0
 40
0.0
 40
0.0
 40
0.0
 40
0.0
 40
1.0
 40
1.0
 40
1.0
 40
1.0
 40
1.0
 40
1.0
 10
29.7429651698604
 20
39.88461087754325
 30
0.0
 10
29.73609520830944
 20
39.89482602301408
 30
0.0
 10
29.70914965070192
 20
39.92888706450492
 30
0.0
 10
29.55311642972565
 20
39.81797906411107
 30
0.0
 10
29.4922857005066
 20
39.79001893705551
 30
0.0
 10
29.4315013847331
 20
39.76195827035268
 30
0.0
  0
ARC
  5
D4
330
1F
100
AcDbEntity
  8
DEFAULT
100
AcDbCircle
 10
50.63766820460482
 20
-6.174310955719699
 30
0.0
 40
50.59488453986661
100
AcDbArc
 50
114.7800881090411
 51
116.5741649610457
  0
ARC
  5
D5
330
1F
100
AcDbEntity
  8
DEFAULT
100
AcDbCircle
 10
28.0793417204885
 20
38.92440645658078
 30
0.0
 40
0.1689744737258318
100
AcDbArc
 50
116.5741649610422
 51
135.8652056261003
  0
SPLINE
  5
D6
330
1F
100
AcDbEntity
  8
DEFAULT
100
AcDbSpline
210
0.0
220
0.0
230
1.0
 70
    24
 71
     2
 72
     6
 73
     3
 74
     0
 42
0.0000000001
 43
0.0000000001
 40
0.0
 40
0.0
 40
0.0
 40
1.315706620815528
 40
1.315706620815528
 40
1.315706620815528
 10
31.98304677915205
 20
23.95972069222231
 30
0.0
 10
32.59583553891507
 20
23.72042489972376
 30
0.0
 10
33.20862429867809
 20
23.48112910722521
 30
0.0
  0
SPLINE
  5
D7
330
1F
100
AcDbEntity
  8
DEFAULT
100
AcDbSpline
210
0.0
220
0.0
230
1.0
 70
    12
 71
     2
 72
     6
 73
     3
 74
     0
 42
0.0000000001
 43
0.0000000001
 40
0.0
 40
0.0
 40
0.0
 40
4.099774915109466
 40
4.099774915109466
 40
4.099774915109466
 10
33.20862429867809
 20
23.48112910722521
 30
0.0
 41
1.0
 10
35.1539515906729
 20
22.72282667728812
 30
0.0
 41
0.9729153703086446
 10
37.23198493408829
 20
22.9255527259246
 30
0.0
 41
1.0
  0
SPLINE
  5
D8
330
1F
100
AcDbEntity
  8
DEFAULT
100
AcDbSpline
210
0.0
220
0.0
230
1.0
 70
    24
 71
     2
 72
     6
 73
     3
 74
     0
 42
0.0000000001
 43
0.0000000001
 40
0.0
 40
0.0
 40
0.0
 40
0.2016285515089675
 40
0.2016285515089675
 40
0.2016285515089675
 10
37.23198493408829
 20
22.9255527259246
 30
0.0
 10
37.33221527372525
 20
22.93645959129708
 30
0.0
 10
37.43244561336222
 20
22.94736645666957
 30
0.0
  0
SPLINE
  5
D9
330
1F
100
AcDbEntity
  8
DEFAULT
100
AcDbSpline
210
0.0
220
0.0
230
1.0
 70
    12
 71
     2
 72
     6
 73
     3
 74
     0
 42
0.0000000001
 43
0.0000000001
 40
0.0
 40
0.0
 40
0.0
 40
0.8188583327906658
 40
0.8188583327906658
 40
0.8188583327906658
 10
31.93086315719684
 20
23.74846121046296
 30
0.0
 41
1.0
 10
32.33796261334902
 20
23.70483395823696
 30
0.0
 41
0.999995248373231
 10
32.74532331287627
 20
23.66371747958297
 30
0.0
 41
1.0
  0
SPLINE
  5
DA
330
1F
100
AcDbEntity
  8
DEFAULT
100
AcDbSpline
210
0.0
220
0.0
230
1.0
 70
    24
 71
     2
 72
     6
 73
     3
 74
     0
 42
0.0000000001
 43
0.0000000001
 40
0.0
 40
0.0
 40
0.0
 40
0.1356043790062872
 40
0.1356043790062872
 40
0.1356043790062872
 10
37.27183810805768
 20
23.92648055655503
 30
0.0
 10
37.20422771546713
 20
23.92122619733262
 30
0.0
 10
37.13661732287657
 20
23.9159718381102
 30
0.0
  0
SPLINE
  5
DB
330
1F
100
AcDbEntity
  8
DEFAULT
100
AcDbSpline
210
0.0
220
0.0
230
1.0
 70
    12
 71
     2
 72
     6
 73
     3
 74
     0
 42
0.0000000001
 43
0.0000000001
 40
0.0
 40
0.0
 40
0.0
 40
3.577868569146716
 40
3.577868569146716
 40
3.577868569146716
 10
37.13661732287657
 20
23.9159718381102
 30
0.0
 41
1.0
 10
35.32369197353009
 20
23.74368025974582
 30
0.0
 41
0.9737220710303375
 10
33.62152160491512
 20
24.39097439939855
 30
0.0
 41
1.0
  0
SPLINE
  5
DC
330
1F
100
AcDbEntity
  8
DEFAULT
100
AcDbSpline
210
0.0
220
0.0
230
1.0
 70
     8
 71
     3
 72
     8
 73
     4
 74
     0
 42
0.0000000001
 43
0.0000000001
 40
0.0
 40
0.0
 40
0.0
 40
0.0
 40
1.443706964781046
 40
1.443706964781046
 40
1.443706964781046
 40
1.443706964781046
 10
33.62152160491512
 20
24.39097439939855
 30
0.0
 10
33.17171161771488
 20
24.56202623653567
 30
0.0
 10
32.67101925817563
 20
24.75459138885298
 30
0.0
 10
32.22241842978012
 20
24.92878970209363
 30
0.0
  0
SPLINE
  5
DD
330
1F
100
AcDbEntity
  8
DEFAULT
100
AcDbSpline
210
0.0
220
0.0
230
1.0
 70
    12
 71
     2
 72
     6
 73
     3
 74
     0
 42
0.0000000001
 43
0.0000000001
 40
0.0
 40
0.0
 40
0.0
 40
0.0004258303068065
 40
0.0004258303068065
 40
0.0004258303068065
 10
-8.27877266825046
 20
0.1569824818716526
 30
0.0
 41
1.0
 10
-8.278614541658317
 20
0.1571400430827636
 30
0.0
 41
0.9321373108086077
 10
-8.278604245964871
 20
0.1573630308696172
 30
0.0
 41
1.0
  0
SPLINE
  5
DE
330
1F
100
AcDbEntity
  8
DEFAULT
100
AcDbSpline
210
0.0
220
0.0
230
1.0
 70
    24
 71
     2
 72
     6
 73
     3
 74
     0
 42
0.0000000001
 43
0.0000000001
 40
0.0
 40
0.0
 40
0.0
 40
25.13427378211947
 40
25.13427378211947
 40
25.13427378211947
 10
-9.403495490579715
 20
0.1729994771905712
 30
0.0
 10
-9.228688799420665
 20
12.73892054408259
 30
0.0
 10
-9.053882108261615
 20
25.3048416109746
 30
0.0
  0
SPLINE
  5
DF
330
1F
100
AcDbEntity
  8
DEFAULT
100
AcDbSpline
210
0.0
220
0.0
230
1.0
 70
    24
 71
     2
 72
     6
 73
     3
 74
     0
 42
0.0000000001
 43
0.0000000001
 40
0.0
 40
0.0
 40
0.0
 40
17.00374765470831
 40
17.00374765470831
 40
17.00374765470831
 10
29.86734683913643
 20
7.410785402687031
 30
0.0
 10
38.36922066649058
 20
7.410785402687031
 30
0.0
 10
46.87109449384474
 20
7.410785402687031
 30
0.0
  0
SPLINE
  5
E0
330
1F
100
AcDbEntity
  8
DEFAULT
100
AcDbSpline
210
0.0
220
0.0
230
1.0
 70
    12
 71
     2
 72
     6
 73
     3
 74
     0
 42
0.0000000001
 43
0.0000000001
 40
0.0
 40
0.0
 40
0.0
 40
1.462716062453282
 40
1.462716062453282
 40
1.462716062453282
 10
28.36297297076803
 20
7.410785347223282
 30
0.0
 41
1.0
 10
29.09433100199466
 20
7.410785356791918
 30
0.0
 41
0.9999999999999999
 10
29.82568903322131
 20
7.410785385191634
 30
0.0
 41
1.0
  0
SPLINE
  5
E1
330
1F
100
AcDbEntity
  8
DEFAULT
100
AcDbSpline
210
0.0
220
0.0
230
1.0
 70
    12
 71
     2
 72
     6
 73
     3
 74
     0
 42
0.0000000001
 43
0.0000000001
 40
0.0
 40
0.0
 40
0.0
 40
1.400318287699478
 40
1.400318287699478
 40
1.400318287699478
 10
29.82568903284005
 20
7.910785369575024
 30
0.0
 41
1.0
 10
29.12552988899031
 20
7.910785351344336
 30
0.0
 41
0.9999999999999999
 10
28.42537074514058
 20
7.910785329387765
 30
0.0
 41
1.0
  0
SPLINE
  5
E2
330
1F
100
AcDbEntity
  8
DEFAULT
100
AcDbSpline
210
0.0
220
0.0
230
1.0
 70
    24
 71
     2
 72
     6
 73
     3
 74
     0
 42
0.0000000001
 43
0.0000000001
 40
0.0
 40
0.0
 40
0.0
 40
16.98983124350199
 40
16.98983124350199
 40
16.98983124350199
 10
46.8571806297983
 20
7.91078540359169
 30
0.0
 10
38.3622650080473
 20
7.91078540359169
 30
0.0
 10
29.86734938629631
 20
7.91078540359169
 30
0.0
  0
SPLINE
  5
E3
330
1F
100
AcDbEntity
  8
DEFAULT
100
AcDbSpline
210
0.0
220
0.0
230
1.0
 70
    12
 71
     2
 72
     8
 73
     5
 74
     0
 42
0.0000000001
 43
0.0000000001
 40
0.0
 40
0.0
 40
0.0
 40
0.1959663969465106
 40
0.1959663969465106
 40
0.3919327938930212
 40
0.3919327938930212
 40
0.3919327938930212
 10
29.82568903322138
 20
7.410785394119817
 30
0.0
 41
1.0
 10
29.92907338882788
 20
7.410818056780895
 30
0.0
 41
0.923445856362263
 10
30.00198836865628
 20
7.484110155725063
 30
0.0
 41
1.0
 10
30.0749033484847
 20
7.557402254669234
 30
0.0
 41
0.923445856362263
 10
30.07440268554376
 20
7.660785403139567
 30
0.0
 41
1.0
  0
SPLINE
  5
E4
330
1F
100
AcDbEntity
  8
DEFAULT
100
AcDbSpline
210
0.0
220
0.0
230
1.0
 70
    24
 71
     2
 72
     6
 73
     3
 74
     0
 42
0.0000000001
 43
0.0000000001
 40
0.0
 40
0.0
 40
0.0
 40
1.281609588325501
 40
1.281609588325501
 40
1.281609588325501
 10
45.13897365125489
 20
23.68942070634586
 30
0.0
 10
45.77682830725998
 20
23.75083912406096
 30
0.0
 10
46.41468296326507
 20
23.81225754177605
 30
0.0
  0
SPLINE
  5
E5
330
1F
100
AcDbEntity
  8
DEFAULT
100
AcDbSpline
210
0.0
220
0.0
230
1.0
 70
    12
 71
     2
 72
     6
 73
     3
 74
     0
 42
0.0000000001
 43
0.0000000001
 40
-0.3996431962499557
 40
-0.3996431962499557
 40
-0.3996431962499557
 40
0.0
 40
0.0
 40
0.0
 10
32.43472311468706
 20
24.84634866395255
 30
0.0
 41
1.0
 10
32.59623798630837
 20
24.96426811090414
 30
0.0
 41
0.9988113668901045
 10
32.76846715344173
 20
25.06590060429461
 30
0.0
 41
1.0
  0
SPLINE
  5
E6
330
1F
100
AcDbEntity
  8
DEFAULT
100
AcDbSpline
210
0.0
220
0.0
230
1.0
 70
    12
 71
     2
 72
     6
 73
     3
 74
     0
 42
0.0000000001
 43
0.0000000001
 40
-0.1602767204255962
 40
-0.1602767204255962
 40
-0.1602767204255962
 40
0.0
 40
0.0
 40
0.0
 10
32.76846715344173
 20
25.06590060429461
 30
0.0
 41
1.0
 10
32.84104692156178
 20
25.10244045850239
 30
0.0
 41
0.9794459357424379
 10
32.92215847623821
 20
25.10732915810972
 30
0.0
 41
1.0
  0
SPLINE
  5
E7
330
1F
100
AcDbEntity
  8
DEFAULT
100
AcDbSpline
210
0.0
220
0.0
230
1.0
 70
     8
 71
     3
 72
    15
 73
    11
 74
     0
 42
0.0000000001
 43
0.0000000001
 40
-15.65359896050636
 40
-15.65359896050636
 40
-15.65359896050636
 40
-15.65359896050636
 40
-10.58742135048161
 40
-6.912338381831451
 40
-4.741124145587254
 40
-4.078959884244495
 40
-2.884298681508266
 40
-1.256080944522508
 40
-0.6345414576259943
 40
0.0
 40
0.0
 40
0.0
 40
0.0
 10
32.92215847623821
 20
25.10732915810972
 30
0.0
 10
34.60200368088378
 20
25.28185072965366
 30
0.0
 10
37.50873052754001
 20
25.49246713340949
 30
0.0
 10
41.144827403821
 20
25.61879759709722
 30
0.0
 10
43.31233959598937
 20
25.6859324177671
 30
0.0
 10
44.6561798308537
 20
25.72810082928565
 30
0.0
 10
45.81288603000398
 20
25.74377377844448
 30
0.0
 10
46.97167313279185
 20
25.72128415878455
 30
0.0
 10
47.89006933784007
 20
25.40627134591194
 30
0.0
 10
48.24016043197854
 20
25.17175761066391
 30
0.0
 10
48.409262822446
 20
25.04541275737827
 30
0.0
  0
SPLINE
  5
E8
330
1F
100
AcDbEntity
  8
DEFAULT
100
AcDbSpline
210
0.0
220
0.0
230
1.0
 70
    12
 71
     2
 72
     6
 73
     3
 74
     0
 42
0.0000000001
 43
0.0000000001
 40
-0.5311035778685866
 40
-0.5311035778685866
 40
-0.5311035778685866
 40
0.0
 40
0.0
 40
0.0
 10
48.409262822446
 20
25.04541275737827
 30
0.0
 41
1.0
 10
48.62658547706964
 20
24.89010074860711
 30
0.0
 41
0.9912392283435499
 10
48.79565843401802
 20
24.68330304187431
 30
0.0
 41
1.0
  0
SPLINE
  5
E9
330
1F
100
AcDbEntity
  8
DEFAULT
100
AcDbSpline
210
0.0
220
0.0
230
1.0
 70
    12
 71
     2
 72
     6
 73
     3
 74
     0
 42
0.0000000001
 43
0.0000000001
 40
-0.6951027209318128
 40
-0.6951027209318128
 40
-0.6951027209318128
 40
0.0
 40
0.0
 40
0.0
 10
48.79565843401802
 20
24.68330304187431
 30
0.0
 41
1.0
 10
48.98977976567566
 20
24.3941699169363
 30
0.0
 41
0.9969743058485598
 10
49.22638082938582
 20
24.13862932866115
 30
0.0
 41
0.9999999969405681
  0
SPLINE
  5
EA
330
1F
100
AcDbEntity
  8
DEFAULT
100
AcDbSpline
210
0.0
220
0.0
230
1.0
 70
     8
 71
     2
 72
    11
 73
     8
 74
     0
 42
0.0000000001
 43
0.0000000001
 40
0.0
 40
0.0
 40
0.0
 40
1.0
 40
2.0
 40
3.0
 40
4.0
 40
5.0
 40
6.0
 40
6.0
 40
6.0
 10
49.22638082938583
 20
24.13862932866115
 30
0.0
 10
49.25230546298955
 20
24.11197995166365
 30
0.0
 10
49.30668851561948
 20
24.06277042009072
 30
0.0
 10
49.36991689740954
 20
24.0160890648588
 30
0.0
 10
49.44209025326232
 20
24.04481551038567
 30
0.0
 10
49.49628694233182
 20
24.09747659888693
 30
0.0
 10
49.49869889999643
 20
24.17532089116829
 30
0.0
 10
49.47376670870476
 20
24.20488321002495
 30
0.0
  0
SPLINE
  5
EB
330
1F
100
AcDbEntity
  8
DEFAULT
100
AcDbSpline
210
0.0
220
0.0
230
1.0
 70
    12
 71
     2
 72
     6
 73
     3
 74
     0
 42
0.0000000001
 43
0.0000000001
 40
0.0
 40
0.0
 40
0.0
 40
0.1536154254458133
 40
0.1536154254458133
 40
0.1536154254458133
 10
49.47376670870476
 20
24.20488321002495
 30
0.0
 41
1.0
 10
49.40277988931814
 20
24.23720704511066
 30
0.0
 41
0.9772332537707474
 10
49.35083231721931
 20
24.29687934319606
 30
0.0
 41
1.0
  0
SPLINE
  5
EC
330
1F
100
AcDbEntity
  8
DEFAULT
100
AcDbSpline
210
0.0
220
0.0
230
1.0
 70
     8
 71
     3
 72
    10
 73
     6
 74
     0
 42
0.0000000001
 43
0.0000000001
 40
0.0
 40
0.0
 40
0.0
 40
0.0
 40
0.1152498341348094
 40
0.2403205425210536
 40
0.6787755723814768
 40
0.6787755723814768
 40
0.6787755723814768
 40
0.6787755723814768
 10
49.35083231721931
 20
24.29687934319606
 30
0.0
 10
49.32278617876806
 20
24.32472511408927
 30
0.0
 10
49.26750479534307
 20
24.38279273337759
 30
0.0
 10
49.12335902399984
 20
24.55731281071496
 30
0.0
 10
49.01514148022891
 20
24.71105012019103
 30
0.0
 10
48.92073989598497
 20
24.83772274862249
 30
0.0
  0
SPLINE
  5
ED
330
1F
100
AcDbEntity
  8
DEFAULT
100
AcDbSpline
210
0.0
220
0.0
230
1.0
 70
    12
 71
     2
 72
     6
 73
     3
 74
     0
 42
0.0000000001
 43
0.0000000001
 40
0.0
 40
0.0
 40
0.0
 40
0.5322559643862634
 40
0.5322559643862634
 40
0.5322559643862634
 10
48.92073989598497
 20
24.83772274862249
 30
0.0
 41
1.0
 10
48.7402741330116
 20
25.05077114360434
 30
0.0
 41
0.9929971765553433
 10
48.52382366869976
 20
25.20805080224817
 30
0.0
 41
1.0
  0
SPLINE
  5
EE
330
1F
100
AcDbEntity
  8
DEFAULT
100
AcDbSpline
210
0.0
220
0.0
230
1.0
 70
     8
 71
     3
 72
    14
 73
    10
 74
     0
 42
0.0000000001
 43
0.0000000001
 40
0.0
 40
0.0
 40
0.0
 40
0.0
 40
0.652191737395391
 40
1.280718439150231
 40
1.951238196747561
 40
2.863422602058994
 40
4.698367840212491
 40
10.21696999528845
 40
15.7709804310952
 40
15.7709804310952
 40
15.7709804310952
 40
15.7709804310952
 10
48.52382366869976
 20
25.20805080224817
 30
0.0
 10
48.35086609752402
 20
25.33998297066801
 30
0.0
 10
47.98864559719259
 20
25.56984450874061
 30
0.0
 10
47.37457556861618
 20
25.79591443453122
 30
0.0
 10
46.64366255034643
 20
25.90791817247051
 30
0.0
 10
45.50375172639865
 20
25.93551456937816
 30
0.0
 10
42.75023140502144
 20
25.84047063451639
 30
0.0
 10
38.44904572381346
 20
25.71457763311937
 30
0.0
 10
34.76636263711616
 20
25.4547706159942
 30
0.0
 10
32.92300195142461
 20
25.28307825442838
 30
0.0
  0
SPLINE
  5
EF
330
1F
100
AcDbEntity
  8
DEFAULT
100
AcDbSpline
210
0.0
220
0.0
230
1.0
 70
    12
 71
     2
 72
     6
 73
     3
 74
     0
 42
0.0000000001
 43
0.0000000001
 40
0.0
 40
0.0
 40
0.0
 40
0.1700326451009857
 40
0.1700326451009857
 40
0.1700326451009857
 10
32.92300195142461
 20
25.28307825442838
 30
0.0
 41
1.0
 10
32.83671009243918
 20
25.27815520814624
 30
0.0
 41
0.9757167984688314
 10
32.75582883943012
 20
25.23372185845899
 30
0.0
 41
1.0
  0
SPLINE
  5
F0
330
1F
100
AcDbEntity
  8
DEFAULT
100
AcDbSpline
210
0.0
220
0.0
230
1.0
 70
    12
 71
     2
 72
     6
 73
     3
 74
     0
 42
0.0000000001
 43
0.0000000001
 40
0.0
 40
0.0
 40
0.0
 40
0.1423721098865516
 40
0.1423721098865516
 40
0.1423721098865516
 10
32.75582883943012
 20
25.23372185845899
 30
0.0
 41
1.0
 10
32.69050231040409
 20
25.19284561749707
 30
0.0
 41
0.9998152309905386
 10
32.63165186621708
 20
25.15277906908162
 30
0.0
 41
0.9999999999981415
  0
SPLINE
  5
F1
330
1F
100
AcDbEntity
  8
DEFAULT
100
AcDbSpline
210
0.0
220
0.0
230
1.0
 70
    12
 71
     2
 72
     6
 73
     3
 74
     0
 42
0.0000000001
 43
0.0000000001
 40
0.0
 40
0.0
 40
0.0
 40
0.0149839129831681
 40
0.0149839129831681
 40
0.0149839129831681
 10
32.63165186621706
 20
25.15277906908162
 30
0.0
 41
0.9999999999998306
 10
32.62545579159311
 20
25.14856739749849
 30
0.0
 41
0.9999984935037622
 10
32.61927402044772
 20
25.14433475955481
 30
0.0
 41
0.9999999999999929
  0
SPLINE
  5
F2
330
1F
100
AcDbEntity
  8
DEFAULT
100
AcDbSpline
210
0.0
220
0.0
230
1.0
 70
    12
 71
     2
 72
     6
 73
     3
 74
     0
 42
0.0000000001
 43
0.0000000001
 40
0.0
 40
0.0
 40
0.0
 40
0.2199143347734641
 40
0.2199143347734641
 40
0.2199143347734641
 10
32.61927402044773
 20
25.14433475955481
 30
0.0
 41
0.9999999999987874
 10
32.52860197148574
 20
25.08209997614642
 30
0.0
 41
0.9997513250470668
 10
32.44079545643871
 20
25.01588362889017
 30
0.0
 41
0.9999999999999885
  0
SPLINE
  5
F3
330
1F
100
AcDbEntity
  8
DEFAULT
100
AcDbSpline
210
0.0
220
0.0
230
1.0
 70
    12
 71
     2
 72
     6
 73
     3
 74
     0
 42
0.0000000001
 43
0.0000000001
 40
0.0
 40
0.0
 40
0.0
 40
0.1630509499976804
 40
0.1630509499976804
 40
0.1630509499976804
 10
32.4407954564387
 20
25.01588362889017
 30
0.0
 41
0.9999999999999778
 10
32.37569562146632
 20
24.96679955029477
 30
0.0
 41
0.9999060755755675
 10
32.31196532281466
 20
24.91594992572609
 30
0.0
 41
0.9999999999966795
  0
SPLINE
  5
F4
330
1F
100
AcDbEntity
  8
DEFAULT
100
AcDbSpline
210
0.0
220
0.0
230
1.0
 70
    12
 71
     2
 72
     6
 73
     3
 74
     0
 42
0.0000000001
 43
0.0000000001
 40
0.0
 40
0.0
 40
0.0
 40
0.0239581891640136
 40
0.0239581891640136
 40
0.0239581891640136
 10
32.31196532281465
 20
24.91594992572609
 30
0.0
 41
0.9999999999995819
 10
32.30259931676008
 20
24.90848152940997
 30
0.0
 41
0.9999982245823352
 10
32.29326165643822
 20
24.90097772286811
 30
0.0
 41
1.0
  0
SPLINE
  5
F5
330
1F
100
AcDbEntity
  8
DEFAULT
100
AcDbSpline
210
0.0
220
0.0
230
1.0
 70
    24
 71
     2
 72
     6
 73
     3
 74
     0
 42
0.0000000001
 43
0.0000000001
 40
-0.0539779438293136
 40
-0.0539779438293136
 40
-0.0539779438293136
 40
0.0
 40
0.0
 40
0.0
 10
44.67247174429592
 20
24.38410499875816
 30
0.0
 10
44.69937340254081
 20
24.38669809597693
 30
0.0
 10
44.72627506078571
 20
24.3892911931957
 30
0.0
  0
SPLINE
  5
F6
330
1F
100
AcDbEntity
  8
DEFAULT
100
AcDbSpline
210
0.0
220
0.0
230
1.0
 70
    12
 71
     3
 72
    12
 73
     8
 74
     0
 42
0.0000000001
 43
0.0000000001
 40
2.243370895977966
 40
2.243370895977966
 40
2.243370895977966
 40
2.243370895977966
 40
2.411132418445384
 40
2.411132418445384
 40
2.598945533022796
 40
2.598945533022796
 40
2.956562920478512
 40
2.956562920478512
 40
2.956562920478512
 40
2.956562920478512
 10
44.72627506078571
 20
24.3892911931957
 30
0.0
 41
1.0
 10
44.78114354033453
 20
24.39989123942566
 30
0.0
 41
1.0
 10
44.8227260174002
 20
24.42530392281396
 30
0.0
 41
1.0
 10
44.91483384784884
 20
24.4904791617153
 30
0.0
 41
1.0
 10
44.95416092588935
 20
24.52622510160178
 30
0.0
 41
1.0
 10
45.06030867877284
 20
24.6265658845058
 30
0.0
 41
1.0
 10
45.11040935795988
 20
24.68124912143665
 30
0.0
 41
1.0
 10
45.11040935795988
 20
24.68124912143665
 30
0.0
 41
1.0
  0
SPLINE
  5
F7
330
1F
100
AcDbEntity
  8
DEFAULT
100
AcDbSpline
210
0.0
220
0.0
230
1.0
 70
    24
 71
     2
 72
     6
 73
     3
 74
     0
 42
0.0000000001
 43
0.0000000001
 40
0.0
 40
0.0
 40
0.0
 40
0.1838299925808962
 40
0.1838299925808962
 40
0.1838299925808962
 10
45.11040935795988
 20
24.68124912143665
 30
0.0
 10
45.10319779046709
 20
24.77288077446861
 30
0.0
 10
45.0959862229743
 20
24.86451242750058
 30
0.0
  0
SPLINE
  5
F8
330
1F
100
AcDbEntity
  8
DEFAULT
100
AcDbSpline
210
0.0
220
0.0
230
1.0
 70
    12
 71
     3
 72
    10
 73
     6
 74
     0
 42
0.0000000001
 43
0.0000000001
 40
-2.775250769275885
 40
-2.775250769275885
 40
-2.775250769275885
 40
-2.775250769275885
 40
-2.081012583142561
 40
-2.081012583142561
 40
-1.386692026910074
 40
-1.386692026910074
 40
-1.386692026910074
 40
-1.386692026910074
 10
45.0959862229743
 20
24.86451242750058
 30
0.0
 41
1.0
 10
45.09409988146
 20
24.88848066898351
 30
0.0
 41
1.0
 10
44.89641617834381
 20
24.89356001964721
 30
0.0
 41
1.0
 10
44.40943085272151
 20
24.84301501501165
 30
0.0
 41
1.0
 10
44.21695834156661
 20
24.79659333014137
 30
0.0
 41
1.0
 10
44.21980145362043
 20
24.77127079066987
 30
0.0
 41
1.0
  0
SPLINE
  5
F9
330
1F
100
AcDbEntity
  8
DEFAULT
100
AcDbSpline
210
0.0
220
0.0
230
1.0
 70
    24
 71
     2
 72
     6
 73
     3
 74
     0
 42
0.0000000001
 43
0.0000000001
 40
0.0
 40
0.0
 40
0.0
 40
0.1749908903973856
 40
0.1749908903973856
 40
0.1749908903973856
 10
44.21980145362043
 20
24.77127079066987
 30
0.0
 10
44.22970644570235
 20
24.68433577645899
 30
0.0
 10
44.23961143778426
 20
24.59740076224812
 30
0.0
  0
SPLINE
  5
FA
330
1F
100
AcDbEntity
  8
DEFAULT
100
AcDbSpline
210
0.0
220
0.0
230
1.0
 70
    12
 71
     3
 72
    12
 73
     8
 74
     0
 42
0.0000000001
 43
0.0000000001
 40
1.478228585923088
 40
1.478228585923088
 40
1.478228585923088
 40
1.478228585923088
 40
1.83510889902099
 40
1.83510889902099
 40
2.024274150332355
 40
2.024274150332355
 40
2.190798913240323
 40
2.190798913240323
 40
2.190798913240323
 40
2.190798913240323
 10
44.23961150827436
 20
24.59740070323737
 30
0.0
 41
1.0
 10
44.239687442837
 20
24.59734174630764
 30
0.0
 41
1.0
 10
44.29916778727328
 20
24.55333173911556
 30
0.0
 41
1.0
 10
44.42266318671118
 20
24.47497201556244
 30
0.0
 41
1.0
 10
44.4684144817155
 20
24.447163619052
 30
0.0
 41
1.0
 10
44.57150597746589
 20
24.40084253008452
 30
0.0
 41
1.0
 10
44.61695872932158
 20
24.38404348022381
 30
0.0
 41
1.0
 10
44.67247174429592
 20
24.38410499875816
 30
0.0
 41
1.0
  0
SPLINE
  5
FB
330
1F
100
AcDbEntity
  8
DEFAULT
100
AcDbSpline
210
0.0
220
0.0
230
1.0
 70
    24
 71
     2
 72
     6
 73
     3
 74
     0
 42
0.0000000001
 43
0.0000000001
 40
0.0
 40
0.0
 40
0.0
 40
1.29585246190359
 40
1.29585246190359
 40
1.29585246190359
 10
46.40029597218346
 20
24.805451075803
 30
0.0
 10
45.75535266507164
 20
24.74335009861983
 30
0.0
 10
45.11040935795982
 20
24.68124912143666
 30
0.0
  0
SPLINE
  5
FC
330
1F
100
AcDbEntity
  8
DEFAULT
100
AcDbSpline
210
0.0
220
0.0
230
1.0
 70
    24
 71
     2
 72
     6
 73
     3
 74
     0
 42
0.0000000001
 43
0.0000000001
 40
0.0
 40
0.0
 40
0.0
 40
0.3660519085076657
 40
0.3660519085076657
 40
0.3660519085076657
 10
37.43292521045724
 20
22.94238565039901
 30
0.0
 10
37.45379257585203
 20
22.76017689414243
 30
0.0
 10
37.47465994124683
 20
22.57796813788585
 30
0.0
  0
SPLINE
  5
FD
330
1F
100
AcDbEntity
  8
DEFAULT
100
AcDbSpline
210
0.0
220
0.0
230
1.0
 70
    12
 71
     2
 72
     6
 73
     3
 74
     0
 42
0.0000000001
 43
0.0000000001
 40
0.0
 40
0.0
 40
0.0
 40
0.2226359711497572
 40
0.2226359711497572
 40
0.2226359711497572
 10
37.47465994124683
 20
22.57796813788585
 30
0.0
 41
1.0
 10
37.52084355600697
 20
22.46713802583652
 30
0.0
 41
0.9027033858658244
 10
37.63527547732058
 20
22.43344082595641
 30
0.0
 41
1.0
  0
SPLINE
  5
FE
330
1F
100
AcDbEntity
  8
DEFAULT
100
AcDbSpline
210
0.0
220
0.0
230
1.0
 70
    28
 71
     3
 72
     8
 73
     4
 74
     0
 42
0.0000000001
 43
0.0000000001
 40
-0.3436117278563864
 40
-0.3436117278563864
 40
-0.3436117278563864
 40
-0.3436117278563864
 40
0.0
 40
0.0
 40
0.0
 40
0.0
 10
37.63527547732057
 20
22.43344082595641
 30
0.0
 41
1.249004411490993
 10
37.63527546217716
 20
22.43344082449827
 30
0.0
 41
0.9343217557452168
 10
37.72478072943186
 20
22.44205920149089
 30
0.0
 41
0.8657533669198912
 10
37.85301839571336
 20
22.45440708432021
 30
0.0
 41
1.0
  0
SPLINE
  5
FF
330
1F
100
AcDbEntity
  8
DEFAULT
100
AcDbSpline
210
0.0
220
0.0
230
1.0
 70
    24
 71
     2
 72
     6
 73
     3
 74
     0
 42
0.0000000001
 43
0.0000000001
 40
0.0
 40
0.0
 40
0.0
 40
0.2187499999999946
 40
0.2187499999999946
 40
0.2187499999999946
 10
37.85301839571336
 20
22.45440708432021
 30
0.0
 10
37.96188985490976
 20
22.46489021350211
 30
0.0
 10
38.07076131410615
 20
22.475373342684
 30
0.0
  0
SPLINE
  5
100
330
1F
100
AcDbEntity
  8
DEFAULT
100
AcDbSpline
210
0.0
220
0.0
230
1.0
 70
    12
 71
     2
 72
     6
 73
     3
 74
     0
 42
0.0000000001
 43
0.0000000001
 40
0.0
 40
0.0
 40
0.0
 40
0.2226303472499221
 40
0.2226303472499221
 40
0.2226303472499221
 10
38.07076131410615
 20
22.475373342684
 30
0.0
 41
1.0
 10
38.1766434438454
 20
22.53029938032948
 30
0.0
 41
0.9027752838226327
 10
38.20084877328001
 20
22.64789215367207
 30
0.0
 41
1.0
  0
SPLINE
  5
101
330
1F
100
AcDbEntity
  8
DEFAULT
100
AcDbSpline
210
0.0
220
0.0
230
1.0
 70
    24
 71
     2
 72
     6
 73
     3
 74
     0
 42
0.0000000001
 43
0.0000000001
 40
0.0
 40
0.0
 40
0.0
 40
0.3660519085099928
 40
0.3660519085099928
 40
0.3660519085099928
 10
38.20084877328001
 20
22.64789215367207
 30
0.0
 10
38.1865656796315
 20
22.8307349110203
 30
0.0
 10
38.17228258598298
 20
23.01357766836853
 30
0.0
  0
SPLINE
  5
102
330
1F
100
AcDbEntity
  8
DEFAULT
100
AcDbSpline
210
0.0
220
0.0
230
1.0
 70
     8
 71
     3
 72
    11
 73
     7
 74
     0
 42
0.0000000001
 43
0.0000000001
 40
0.0
 40
0.0
 40
0.0
 40
0.0
 40
0.1377635348129177
 40
0.2455013291633975
 40
0.3335348622749909
 40
0.414857364690363
 40
0.414857364690363
 40
0.414857364690363
 40
0.414857364690363
 10
38.17228258598128
 20
23.01357766836959
 30
0.0
 10
38.13313065221625
 20
23.037569237822
 30
0.0
 10
38.06203725502699
 20
23.07825080321359
 30
0.0
 10
37.96008218157827
 20
23.12312935181803
 30
0.0
 10
37.87025634176199
 20
23.14637248446412
 30
0.0
 10
37.81343895113365
 20
23.14836275314267
 30
0.0
 10
37.78645130868755
 20
23.14573271555132
 30
0.0
  0
SPLINE
  5
103
330
1F
100
AcDbEntity
  8
DEFAULT
100
AcDbSpline
210
0.0
220
0.0
230
1.0
 70
     8
 71
     3
 72
    11
 73
     7
 74
     0
 42
0.0000000001
 43
0.0000000001
 40
0.0
 40
0.0
 40
0.0
 40
0.0
 40
0.081214295674898
 40
0.1691805052559474
 40
0.277025183898425
 40
0.4148573631455907
 40
0.4148573631455907
 40
0.4148573631455907
 40
0.4148573631455907
 10
37.78645130868755
 20
23.14573271555132
 30
0.0
 10
37.75949370886796
 20
23.14316810160855
 30
0.0
 10
37.70415575764882
 20
23.13039712816979
 30
0.0
 10
37.62042358765056
 20
23.09047713315343
 30
0.0
 10
37.52886665938654
 20
23.0269592079713
 30
0.0
 10
37.46679694651992
 20
22.97342244356257
 30
0.0
 10
37.43292521045724
 20
22.94238565039901
 30
0.0
  0
SPLINE
  5
104
330
1F
100
AcDbEntity
  8
DEFAULT
100
AcDbSpline
210
0.0
220
0.0
230
1.0
 70
    12
 71
     2
 72
     6
 73
     3
 74
     0
 42
0.0000000001
 43
0.0000000001
 40
0.0
 40
0.0
 40
0.0
 40
1.139711099716156
 40
1.139711099716156
 40
1.139711099716156
 10
47.51256924597378
 20
24.7476127137704
 30
0.0
 41
1.0
 10
48.08424872248972
 20
24.70785184261319
 30
0.0
 41
0.9916320061266115
 10
48.62673192678425
 20
24.52312753242802
 30
0.0
 41
1.0
  0
SPLINE
  5
105
330
1F
100
AcDbEntity
  8
DEFAULT
100
AcDbSpline
210
0.0
220
0.0
230
1.0
 70
    12
 71
     2
 72
     6
 73
     3
 74
     0
 42
0.0000000001
 43
0.0000000001
 40
0.0
 40
0.0
 40
0.0
 40
0.6200990255108542
 40
0.6200990255108542
 40
0.6200990255108542
 10
48.62673192678425
 20
24.52312753242802
 30
0.0
 41
1.0
 10
48.92460661970423
 20
24.42144829687837
 30
0.0
 41
0.9777967244108859
 10
49.15458275073904
 20
24.20657153510642
 30
0.0
 41
1.0
  0
SPLINE
  5
106
330
1F
100
AcDbEntity
  8
DEFAULT
100
AcDbSpline
210
0.0
220
0.0
230
1.0
 70
    12
 71
     2
 72
     6
 73
     3
 74
     0
 42
0.0000000001
 43
0.0000000001
 40
0.0
 40
0.0
 40
0.0
 40
2.061631574185771
 40
2.061631574185771
 40
2.061631574185771
 10
32.27954669200248
 20
25.16010138853141
 30
0.0
 41
1.0
 10
32.52330121783218
 20
26.16178983407048
 30
0.0
 41
0.9998484010904932
 10
32.73203060017464
 20
27.17135808621387
 30
0.0
 41
1.0
  0
SPLINE
  5
107
330
1F
100
AcDbEntity
  8
DEFAULT
100
AcDbSpline
210
0.0
220
0.0
230
1.0
 70
    24
 71
     2
 72
     6
 73
     3
 74
     0
 42
0.0000000001
 43
0.0000000001
 40
0.0
 40
0.0
 40
0.0
 40
6.125174616136164
 40
6.125174616136164
 40
6.125174616136164
 10
44.23961149662732
 20
24.59740082419651
 30
0.0
 10
41.19112373300878
 20
24.30386483899585
 30
0.0
 10
38.14263596939024
 20
24.01032885379519
 30
0.0
  0
SPLINE
  5
108
330
1F
100
AcDbEntity
  8
DEFAULT
100
AcDbSpline
210
0.0
220
0.0
230
1.0
 70
    12
 71
     2
 72
     6
 73
     3
 74
     0
 42
0.0000000001
 43
0.0000000001
 40
0.0
 40
0.0
 40
0.0
 40
0.3221738804473611
 40
0.3221738804473611
 40
0.3221738804473611
 10
49.22803598335246
 20
24.43096235334388
 30
0.0
 41
1.0
 10
49.35860317587915
 20
24.33554064724096
 30
0.0
 41
0.9941460496295335
 10
49.46562309081808
 20
24.21429778532175
 30
0.0
 41
1.0
  0
SPLINE
  5
109
330
1F
100
AcDbEntity
  8
DEFAULT
100
AcDbSpline
210
0.0
220
0.0
230
1.0
 70
    12
 71
     2
 72
     6
 73
     3
 74
     0
 42
0.0000000001
 43
0.0000000001
 40
0.0
 40
0.0
 40
0.0
 40
0.1598633113070148
 40
0.1598633113070148
 40
0.1598633113070148
 10
31.3375516039021
 20
26.35800803519729
 30
0.0
 41
1.0
 10
31.32574048246493
 20
26.27890175816633
 30
0.0
 41
0.9990343967449803
 10
31.32091929447897
 20
26.1990640068386
 30
0.0
 41
1.0
  0
SPLINE
  5
10A
330
1F
100
AcDbEntity
  8
DEFAULT
100
AcDbSpline
210
0.0
220
0.0
230
1.0
 70
    12
 71
     2
 72
     6
 73
     3
 74
     0
 42
0.0000000001
 43
0.0000000001
 40
0.0
 40
0.0
 40
0.0
 40
0.7816405396757449
 40
0.7816405396757449
 40
0.7816405396757449
 10
31.32091929447897
 20
26.1990640068386
 30
0.0
 41
1.0
 10
31.28750928696158
 20
25.80869283110633
 30
0.0
 41
0.996260045340734
 10
31.1873899732564
 20
25.42990267380581
 30
0.0
 41
1.0
  0
SPLINE
  5
10B
330
1F
100
AcDbEntity
  8
DEFAULT
100
AcDbSpline
210
0.0
220
0.0
230
1.0
 70
     8
 71
     3
 72
    11
 73
     7
 74
     0
 42
0.0000000001
 43
0.0000000001
 40
0.0
 40
0.0
 40
0.0
 40
0.0
 40
0.0812142956748983
 40
0.1691805052559531
 40
0.2770251838984233
 40
0.414857363145586
 40
0.414857363145586
 40
0.414857363145586
 40
0.414857363145586
 10
44.75422469725855
 20
23.81665298319332
 30
0.0
 10
44.72726709743903
 20
23.81408836925053
 30
0.0
 10
44.67192914621988
 20
23.80131739581178
 30
0.0
 10
44.58819697622157
 20
23.76139740079543
 30
0.0
 10
44.4966400479576
 20
23.69787947561326
 30
0.0
 10
44.43457033509098
 20
23.64434271120456
 30
0.0
 10
44.40069859902825
 20
23.61330591804101
 30
0.0
  0
SPLINE
  5
10C
330
1F
100
AcDbEntity
  8
DEFAULT
100
AcDbSpline
210
0.0
220
0.0
230
1.0
 70
    24
 71
     2
 72
     6
 73
     3
 74
     0
 42
0.0000000001
 43
0.0000000001
 40
0.0
 40
0.0
 40
0.0
 40
0.3660519085076586
 40
0.3660519085076586
 40
0.3660519085076586
 10
44.40069859902825
 20
23.61330591804101
 30
0.0
 10
44.42156596442304
 20
23.43109716178443
 30
0.0
 10
44.44243332981783
 20
23.24888840552785
 30
0.0
  0
SPLINE
  5
10D
330
1F
100
AcDbEntity
  8
DEFAULT
100
AcDbSpline
210
0.0
220
0.0
230
1.0
 70
    12
 71
     2
 72
     6
 73
     3
 74
     0
 42
0.0000000001
 43
0.0000000001
 40
0.0
 40
0.0
 40
0.0
 40
0.2226359711496808
 40
0.2226359711496808
 40
0.2226359711496808
 10
44.44243332981783
 20
23.24888840552785
 30
0.0
 41
1.0
 10
44.48861694457818
 20
23.13805829347872
 30
0.0
 41
0.9027033858667041
 10
44.60304886589152
 20
23.10436109359841
 30
0.0
 41
1.0
  0
SPLINE
  5
10E
330
1F
100
AcDbEntity
  8
DEFAULT
100
AcDbSpline
210
0.0
220
0.0
230
1.0
 70
    24
 71
     2
 72
     6
 73
     3
 74
     0
 42
0.0000000001
 43
0.0000000001
 40
0.0
 40
0.0
 40
0.0
 40
0.2187499999999951
 40
0.2187499999999951
 40
0.2187499999999951
 10
44.60304886589152
 20
23.10436109359841
 30
0.0
 10
44.71192032508795
 20
23.11484422278031
 30
0.0
 10
44.82079178428437
 20
23.12532735196221
 30
0.0
  0
SPLINE
  5
10F
330
1F
100
AcDbEntity
  8
DEFAULT
100
AcDbSpline
210
0.0
220
0.0
230
1.0
 70
    24
 71
     2
 72
     6
 73
     3
 74
     0
 42
0.0000000001
 43
0.0000000001
 40
0.0
 40
0.0
 40
0.0
 40
0.2187500000000019
 40
0.2187500000000019
 40
0.2187500000000019
 10
44.82079178428437
 20
23.12532735196221
 30
0.0
 10
44.92966324348076
 20
23.13581048114411
 30
0.0
 10
45.03853470267715
 20
23.146293610326
 30
0.0
  0
SPLINE
  5
110
330
1F
100
AcDbEntity
  8
DEFAULT
100
AcDbSpline
210
0.0
220
0.0
230
1.0
 70
    12
 71
     2
 72
     6
 73
     3
 74
     0
 42
0.0000000001
 43
0.0000000001
 40
0.0
 40
0.0
 40
0.0
 40
0.2226303472499437
 40
0.2226303472499437
 40
0.2226303472499437
 10
45.03853470267715
 20
23.146293610326
 30
0.0
 41
1.0
 10
45.14441683241643
 20
23.20121964797143
 30
0.0
 41
0.9027752838223648
 10
45.16862216185102
 20
23.31881242131408
 30
0.0
 41
1.0
  0
SPLINE
  5
111
330
1F
100
AcDbEntity
  8
DEFAULT
100
AcDbSpline
210
0.0
220
0.0
230
1.0
 70
    24
 71
     2
 72
     6
 73
     3
 74
     0
 42
0.0000000001
 43
0.0000000001
 40
0.0
 40
0.0
 40
0.0
 40
0.3660519085099956
 40
0.3660519085099956
 40
0.3660519085099956
 10
45.16862216185102
 20
23.31881242131408
 30
0.0
 10
45.15390446300434
 20
23.50192361178593
 30
0.0
 10
45.13918676415766
 20
23.68503480225779
 30
0.0
  0
SPLINE
  5
112
330
1F
100
AcDbEntity
  8
DEFAULT
100
AcDbSpline
210
0.0
220
0.0
230
1.0
 70
     8
 71
     3
 72
    11
 73
     7
 74
     0
 42
0.0000000001
 43
0.0000000001
 40
0.0
 40
0.0
 40
0.0
 40
0.0
 40
0.0017540549121738
 40
0.1396136358089379
 40
0.2474265428751539
 40
0.4169006501691559
 40
0.4169006501691559
 40
0.4169006501691559
 40
0.4169006501691559
 10
45.13918676415766
 20
23.68503480225779
 30
0.0
 10
45.14060331772451
 20
23.68416111060296
 30
0.0
 10
45.1018947776323
 20
23.70794820403782
 30
0.0
 10
45.02944329046117
 20
23.74929177598937
 30
0.0
 10
44.90334522502978
 20
23.80496735243367
 30
0.0
 10
44.81066116553914
 20
23.8223177802729
 30
0.0
 10
44.75422469725855
 20
23.81665298319332
 30
0.0
  0
SPLINE
  5
113
330
1F
100
AcDbEntity
  8
DEFAULT
100
AcDbSpline
210
0.0
220
0.0
230
1.0
 70
     8
 71
     2
 72
    11
 73
     8
 74
     0
 42
0.0000000001
 43
0.0000000001
 40
0.0
 40
0.0
 40
0.0
 40
1.0
 40
2.0
 40
3.0
 40
4.0
 40
5.0
 40
6.0
 40
6.0
 40
6.0
 10
-9.322837044893163
 20
72.21335544837606
 30
0.0
 10
-9.388125944112858
 20
72.20091413709292
 30
0.0
 10
-9.509284109132125
 20
72.14623301314137
 30
0.0
 10
-9.614294695897712
 20
72.06473044951531
 30
0.0
 10
-9.697347773691206
 20
71.96094754347652
 30
0.0
 10
-9.753782913159256
 20
71.8405536639836
 30
0.0
 10
-9.778368473022027
 20
71.70982586591222
 30
0.0
 10
-9.774284971954273
 20
71.64346233769666
 30
0.0
  0
SPLINE
  5
114
330
1F
100
AcDbEntity
  8
DEFAULT
100
AcDbSpline
210
0.0
220
0.0
230
1.0
 70
     8
 71
     2
 72
    11
 73
     8
 74
     0
 42
0.0000000001
 43
0.0000000001
 40
0.0
 40
0.0
 40
0.0
 40
1.0
 40
2.0
 40
3.0
 40
4.0
 40
5.0
 40
6.0
 40
6.0
 40
6.0
 10
9.72174703037058
 20
70.80890890277354
 30
0.0
 10
9.721466786075695
 20
70.90475018062398
 30
0.0
 10
9.709957700229609
 20
71.09608232854083
 30
0.0
 10
9.694144349217083
 20
71.28708335393318
 30
0.0
 10
9.666797278644566
 20
71.47690103286806
 30
0.0
 10
9.616982992080835
 20
71.66226264809461
 30
0.0
 10
9.536094154969163
 20
71.83681264836363
 30
0.0
 10
9.47823825071859
 20
71.91344469665319
 30
0.0
  0
SPLINE
  5
115
330
1F
100
AcDbEntity
  8
DEFAULT
100
AcDbSpline
210
0.0
220
0.0
230
1.0
 70
    12
 71
     2
 72
     8
 73
     5
 74
     0
 42
0.0000000001
 43
0.0000000001
 40
-3.0
 40
-3.0
 40
-3.0
 40
-2.0
 40
-1.0
 40
0.0
 40
0.0
 40
0.0
 10
-9.7742677321678
 20
71.64345558942199
 30
0.0
 41
1.0
 10
-9.771598123451696
 20
71.60338614394743
 30
0.0
 41
1.0
 10
-9.766650477670112
 20
71.52322116471387
 30
0.0
 41
1.0
 10
-9.752720605297952
 20
71.23537396552092
 30
0.0
 41
1.0
 10
-9.750178899058113
 20
71.1952962035983
 30
0.0
 41
1.0
  0
SPLINE
  5
116
330
1F
100
AcDbEntity
  8
DEFAULT
100
AcDbSpline
210
0.0
220
0.0
230
1.0
 70
     8
 71
     3
 72
    11
 73
     7
 74
     0
 42
0.0000000001
 43
0.0000000001
 40
0.0000000000000001
 40
0.0000000000000001
 40
0.0000000000000001
 40
0.0000000000000001
 40
0.3781335773925084
 40
0.5640830755754028
 40
0.63666157123833
 40
0.705388731348004
 40
0.705388731348004
 40
0.705388731348004
 40
0.705388731348004
 10
-9.750178899058113
 20
71.1952962035983
 30
0.0
 10
-9.742212724596271
 20
71.0696851323774
 30
0.0
 10
-9.730319038042893
 20
70.88150223787588
 30
0.0
 10
-9.712335594668161
 20
70.67071881590863
 30
0.0
 10
-9.689416865295868
 20
70.56278324558437
 30
0.0
 10
-9.652133238504717
 20
70.52824223184064
 30
0.0
 10
-9.633936217803495
 20
70.51595195457386
 30
0.0
  0
ARC
  5
117
330
1F
100
AcDbEntity
  8
DEFAULT
100
AcDbCircle
 10
-9.494994503978859
 20
70.72166946507866
 30
0.0
 40
0.2482428125219768
100
AcDbArc
 50
235.9648877670548
 51
254.0561959307384
  0
SPLINE
  5
118
330
1F
100
AcDbEntity
  8
DEFAULT
100
AcDbSpline
210
0.0
220
0.0
230
1.0
 70
    12
 71
     2
 72
     8
 73
     5
 74
     0
 42
0.0000000001
 43
0.0000000001
 40
-3.0
 40
-3.0
 40
-3.0
 40
-2.0
 40
-1.0
 40
0.0
 40
0.0
 40
0.0
 10
9.84185560264055
 20
71.64345558942199
 30
0.0
 41
1.0
 10
9.839185993924417
 20
71.60338614394743
 30
0.0
 41
1.0
 10
9.834238348142833
 20
71.52322116471387
 30
0.0
 41
1.0
 10
9.820308475770673
 20
71.23537396552092
 30
0.0
 41
1.0
 10
9.817766769530834
 20
71.1952962035983
 30
0.0
 41
1.0
  0
SPLINE
  5
119
330
1F
100
AcDbEntity
  8
DEFAULT
100
AcDbSpline
210
0.0
220
0.0
230
1.0
 70
     8
 71
     3
 72
    11
 73
     7
 74
     0
 42
0.0000000001
 43
0.0000000001
 40
0.0000000000000001
 40
0.0000000000000001
 40
0.0000000000000001
 40
0.0000000000000001
 40
0.3781335773925084
 40
0.5640830755754028
 40
0.63666157123833
 40
0.705388731348004
 40
0.705388731348004
 40
0.705388731348004
 40
0.705388731348004
 10
9.817766769530834
 20
71.1952962035983
 30
0.0
 10
9.809800595068992
 20
71.0696851323774
 30
0.0
 10
9.797906908515614
 20
70.88150223787588
 30
0.0
 10
9.779923465140882
 20
70.67071881590863
 30
0.0
 10
9.75700473576859
 20
70.56278324558437
 30
0.0
 10
9.719721108977467
 20
70.52824223184064
 30
0.0
 10
9.701524088276216
 20
70.51595195457386
 30
0.0
  0
ARC
  5
11A
330
1F
100
AcDbEntity
  8
DEFAULT
100
AcDbCircle
 10
9.56258237445158
 20
70.72166946507866
 30
0.0
 40
0.2482428125219768
100
AcDbArc
 50
285.943804069262
 51
304.0351122329452
  0
LINE
  5
11B
330
1F
100
AcDbEntity
  8
DEFAULT
100
AcDbLine
 10
7.958300064712802
 20
70.40239922160777
 30
0.0
 11
7.542445196936853
 21
70.13747045253567
 31
0.0
  0
SPLINE
  5
11C
330
1F
100
AcDbEntity
  8
DEFAULT
100
AcDbSpline
210
0.0
220
0.0
230
1.0
 70
    12
 71
     2
 72
     6
 73
     3
 74
     0
 42
0.0000000001
 43
0.0000000001
 40
0.0
 40
0.0
 40
0.0
 40
0.0742368075508645
 40
0.0742368075508645
 40
0.0742368075508645
 10
-9.30216169063496
 20
72.28387187533272
 30
0.0
 41
1.0
 10
-9.313109624326554
 20
72.24840467927216
 30
0.0
 41
0.9999981765885326
 10
-9.323922017503861
 20
72.2128959282058
 30
0.0
 41
1.0
  0
SPLINE
  5
11D
330
1F
100
AcDbEntity
  8
DEFAULT
100
AcDbSpline
210
0.0
220
0.0
230
1.0
 70
     8
 71
     2
 72
    11
 73
     8
 74
     0
 42
0.0000000001
 43
0.0000000001
 40
0.0
 40
0.0
 40
0.0
 40
1.0
 40
2.0
 40
3.0
 40
4.0
 40
5.0
 40
6.0
 40
6.0
 40
6.0
 10
9.390424915365884
 20
72.21335544837606
 30
0.0
 10
9.455713814585579
 20
72.20091413709292
 30
0.0
 10
9.576871979604874
 20
72.14623301314137
 30
0.0
 10
9.681882566370433
 20
72.06473044951531
 30
0.0
 10
9.764935644163955
 20
71.96094754347652
 30
0.0
 10
9.821370783631977
 20
71.8405536639836
 30
0.0
 10
9.845956343494748
 20
71.70982586591222
 30
0.0
 10
9.841872842427023
 20
71.64346233769666
 30
0.0
  0
SPLINE
  5
11E
330
1F
100
AcDbEntity
  8
DEFAULT
100
AcDbSpline
210
0.0
220
0.0
230
1.0
 70
     8
 71
     2
 72
    13
 73
    10
 74
     0
 42
0.0000000001
 43
0.0000000001
 40
0.0
 40
0.0
 40
0.0
 40
1.0
 40
2.0
 40
3.0
 40
4.0
 40
5.0
 40
6.0
 40
7.0
 40
8.0
 40
8.0
 40
8.0
 10
-7.398383709414645
 20
70.50336978827971
 30
0.0
 10
-7.601364905595091
 20
69.54437329327027
 30
0.0
 10
-7.951508036942329
 20
67.61537641404777
 30
0.0
 10
-8.240805705252285
 20
65.676326686001
 30
0.0
 10
-8.469448820833719
 20
63.72921313291283
 30
0.0
 10
-8.65163617182688
 20
61.77728128451047
 30
0.0
 10
-8.797835886987144
 20
59.82227144106611
 30
0.0
 10
-8.904564258871943
 20
57.86502745348319
 30
0.0
 10
-8.915427134621865
 20
55.90158428793656
 30
0.0
 10
-8.744756802697196
 20
54.93350897184644
 30
0.0
  0
SPLINE
  5
11F
330
1F
100
AcDbEntity
  8
DEFAULT
100
AcDbSpline
210
0.0
220
0.0
230
1.0
 70
    12
 71
     3
 72
    11
 73
     7
 74
     0
 42
0.0000000001
 43
0.0000000001
 40
0.0285067606237307
 40
0.0285067606237307
 40
0.0285067606237307
 40
0.0285067606237307
 40
0.2036422705824251
 40
0.3529649579604772
 40
0.5498106380855059
 40
0.8536425016506567
 40
0.8536425016506567
 40
0.8536425016506567
 40
0.8536425016506567
 10
-8.744756802697196
 20
54.93350897184644
 30
0.0
 41
1.0
 10
-8.73606630371961
 20
54.88421477144369
 30
0.0
 41
1.0
 10
-8.695795002653114
 20
54.77749933106237
 30
0.0
 41
1.0
 10
-8.602831681327189
 20
54.65644815619102
 30
0.0
 41
1.0
 10
-8.44341739170008
 20
54.53981546004031
 30
0.0
 41
1.0
 10
-8.287012034402068
 20
54.49299397800137
 30
0.0
 41
1.0
 10
-8.187896493751822
 20
54.47945862446948
 30
0.0
 41
1.0
  0
SPLINE
  5
120
330
1F
100
AcDbEntity
  8
DEFAULT
100
AcDbSpline
210
0.0
220
0.0
230
1.0
 70
    12
 71
     2
 72
     6
 73
     3
 74
     0
 42
0.0000000001
 43
0.0000000001
 40
0.0
 40
0.0
 40
0.0
 40
8.250474918043878
 40
8.250474918043878
 40
8.250474918043878
 10
-8.187896493751822
 20
54.47945862446948
 30
0.0
 41
1.0
 10
-4.09661219504315
 20
53.91178028977366
 30
0.0
 41
0.9976037974956197
 10
0.0337939352363721
 20
53.91419946623537
 30
0.0
 41
0.9999983358919136
  0
SPLINE
  5
121
330
1F
100
AcDbEntity
  8
DEFAULT
100
AcDbSpline
210
0.0
220
0.0
230
1.0
 70
    12
 71
     2
 72
     6
 73
     3
 74
     0
 42
0.0000000001
 43
0.0000000001
 40
-8.250474918043878
 40
-8.250474918043878
 40
-8.250474918043878
 40
0.0
 40
0.0
 40
0.0
 10
0.0337939352363721
 20
53.91419946623537
 30
0.0
 41
0.9999983358919136
 10
4.164200065515887
 20
53.91178028977366
 30
0.0
 41
0.9976037974956197
 10
8.255484364224571
 20
54.47945862446948
 30
0.0
 41
1.0
  0
SPLINE
  5
122
330
1F
100
AcDbEntity
  8
DEFAULT
100
AcDbSpline
210
0.0
220
0.0
230
1.0
 70
    12
 71
     3
 72
    11
 73
     7
 74
     0
 42
0.0000000001
 43
0.0000000001
 40
-0.8536425016506567
 40
-0.8536425016506567
 40
-0.8536425016506567
 40
-0.8536425016506567
 40
-0.5498106380855059
 40
-0.3529649579604772
 40
-0.2036422705824251
 40
-0.0285067606237307
 40
-0.0285067606237307
 40
-0.0285067606237307
 40
-0.0285067606237307
 10
8.255484364224571
 20
54.47945862446948
 30
0.0
 41
1.0
 10
8.354599904874789
 20
54.49299397800137
 30
0.0
 41
1.0
 10
8.51100526217283
 20
54.53981546004031
 30
0.0
 41
1.0
 10
8.67041955179991
 20
54.65644815619102
 30
0.0
 41
1.0
 10
8.763382873125835
 20
54.77749933106237
 30
0.0
 41
1.0
 10
8.80365417419236
 20
54.88421477144369
 30
0.0
 41
1.0
 10
8.812344673169918
 20
54.93350897184644
 30
0.0
 41
1.0
  0
SPLINE
  5
123
330
1F
100
AcDbEntity
  8
DEFAULT
100
AcDbSpline
210
0.0
220
0.0
230
1.0
 70
     8
 71
     2
 72
    13
 73
    10
 74
     0
 42
0.0000000001
 43
0.0000000001
 40
-8.0
 40
-8.0
 40
-8.0
 40
-7.0
 40
-6.0
 40
-5.0
 40
-4.0
 40
-3.0
 40
-2.0
 40
-1.0
 40
0.0
 40
0.0
 40
0.0
 10
8.812344673169918
 20
54.93350897184644
 30
0.0
 10
8.983015005094586
 20
55.90158428793656
 30
0.0
 10
8.972152129344693
 20
57.86502745348319
 30
0.0
 10
8.865423757459894
 20
59.82227144106611
 30
0.0
 10
8.7192240422996
 20
61.77728128451047
 30
0.0
 10
8.53703669130644
 20
63.72921313291283
 30
0.0
 10
8.308393575725006
 20
65.676326686001
 30
0.0
 10
8.01909590741505
 20
67.61537641404777
 30
0.0
 10
7.668952776067812
 20
69.54437329327027
 30
0.0
 10
7.465971579887395
 20
70.50336978827971
 30
0.0
  0
SPLINE
  5
124
330
1F
100
AcDbEntity
  8
DEFAULT
100
AcDbSpline
210
0.0
220
0.0
230
1.0
 70
    12
 71
     2
 72
     6
 73
     3
 74
     0
 42
0.0000000001
 43
0.0000000001
 40
-4.878290109995292
 40
-4.878290109995292
 40
-4.878290109995292
 40
0.0
 40
0.0
 40
0.0
 10
4.864005911992848
 20
71.59201413744802
 30
0.0
 41
1.0
 10
2.482044739966064
 20
72.1579912122162
 30
0.0
 41
0.9934760685754098
 10
0.0337939352363718
 20
72.16969896834443
 30
0.0
 41
0.9999918043754388
  0
SPLINE
  5
125
330
1F
100
AcDbEntity
  8
DEFAULT
100
AcDbSpline
210
0.0
220
0.0
230
1.0
 70
    12
 71
     2
 72
     6
 73
     3
 74
     0
 42
0.0000000001
 43
0.0000000001
 40
0.0
 40
0.0
 40
0.0
 40
4.878290109995292
 40
4.878290109995292
 40
4.878290109995292
 10
0.0337939352363718
 20
72.16969896834443
 30
0.0
 41
0.9999918043754388
 10
-2.414456869493356
 20
72.1579912122162
 30
0.0
 41
0.9934760685754098
 10
-4.796418041520099
 20
71.59201413744802
 30
0.0
 41
1.0
  0
SPLINE
  5
126
330
1F
100
AcDbEntity
  8
DEFAULT
100
AcDbSpline
210
0.0
220
0.0
230
1.0
 70
     8
 71
     2
 72
    11
 73
     8
 74
     0
 42
0.0000000001
 43
0.0000000001
 40
0.0
 40
0.0
 40
0.0
 40
1.0
 40
2.0
 40
3.0
 40
4.0
 40
5.0
 40
6.0
 40
6.0
 40
6.0
 10
-9.65415915989783
 20
70.80890890277354
 30
0.0
 10
-9.653878915602945
 20
70.90475018062398
 30
0.0
 10
-9.642369829756888
 20
71.09608232854083
 30
0.0
 10
-9.626556478744334
 20
71.28708335393318
 30
0.0
 10
-9.599209408171845
 20
71.47690103286806
 30
0.0
 10
-9.549395121608114
 20
71.66226264809461
 30
0.0
 10
-9.468506284496414
 20
71.83681264836363
 30
0.0
 10
-9.41065038024584
 20
71.91344469665319
 30
0.0
  0
SPLINE
  5
127
330
1F
100
AcDbEntity
  8
DEFAULT
100
AcDbSpline
210
0.0
220
0.0
230
1.0
 70
    12
 71
     2
 72
    10
 73
     7
 74
     0
 42
0.0000000001
 43
0.0000000001
 40
-0.7644817079169229
 40
-0.7644817079169229
 40
-0.7644817079169229
 40
-0.1060175460643373
 40
-0.1060175460643373
 40
0.0
 40
0.0
 40
0.1282201628013348
 40
0.1282201628013348
 40
0.1282201628013348
 10
9.609589287313241
 20
71.35225980532552
 30
0.0
 41
0.9999992040962243
 10
9.669701128413768
 20
71.0284274307181
 30
0.0
 41
0.9993961059510184
 10
9.756328102373423
 20
70.6587119171073
 30
0.0
 41
0.9999992032399301
 10
9.770012009929784
 20
70.60400113165035
 30
0.0
 41
0.912286974915978
 10
9.738222456252544
 20
70.55741847770858
 30
0.0
 41
1.0
 10
9.693543645570994
 20
70.50487945172033
 30
0.0
 41
0.9473303484341768
 10
9.63077328838105
 20
70.48297616138902
 30
0.0
 41
1.0
  0
SPLINE
  5
128
330
1F
100
AcDbEntity
  8
DEFAULT
100
AcDbSpline
210
0.0
220
0.0
230
1.0
 70
     8
 71
     3
 72
    14
 73
    10
 74
     0
 42
0.0000000001
 43
0.0000000001
 40
0.0
 40
0.0
 40
0.0
 40
0.0
 40
0.4769411130260029
 40
1.094312261690871
 40
2.259118278458852
 40
3.620449295513177
 40
6.166555932487759
 40
7.352656220994111
 40
10.1118640375627
 40
10.1118640375627
 40
10.1118640375627
 40
10.1118640375627
 10
9.63077328838105
 20
70.48297616138902
 30
0.0
 10
9.479172071227026
 20
70.43007594506784
 30
0.0
 10
9.12134241810341
 20
70.36954062041104
 30
0.0
 10
8.364738630141801
 20
70.31985306181534
 30
0.0
 10
7.327547448885923
 20
70.502060510685
 30
0.0
 10
5.733797615535508
 20
71.08281967647568
 30
0.0
 10
4.267017647809951
 20
71.94927759379777
 30
0.0
 10
2.265161733060665
 20
72.77686178742181
 30
0.0
 10
0.953960879358732
 20
73.01019911436035
 30
0.0
 10
0.0337939352363605
 20
73.00812156378674
 30
0.0
  0
SPLINE
  5
129
330
1F
100
AcDbEntity
  8
DEFAULT
100
AcDbSpline
210
0.0
220
0.0
230
1.0
 70
     8
 71
     3
 72
    14
 73
    10
 74
     0
 42
0.0000000001
 43
0.0000000001
 40
-10.1118640375627
 40
-10.1118640375627
 40
-10.1118640375627
 40
-10.1118640375627
 40
-7.352656220994111
 40
-6.166555932487759
 40
-3.620449295513177
 40
-2.259118278458852
 40
-1.094312261690871
 40
-0.4769411130260029
 40
0.0
 40
0.0
 40
0.0
 40
0.0
 10
0.0337939352363605
 20
73.00812156378674
 30
0.0
 10
-0.8863730088859825
 20
73.01019911436035
 30
0.0
 10
-2.197573862587916
 20
72.77686178742181
 30
0.0
 10
-4.199429777337201
 20
71.94927759379777
 30
0.0
 10
-5.666209745062787
 20
71.08281967647568
 30
0.0
 10
-7.259959578413174
 20
70.502060510685
 30
0.0
 10
-8.297150759669051
 20
70.31985306181534
 30
0.0
 10
-9.05375454763066
 20
70.36954062041104
 30
0.0
 10
-9.411584200754277
 20
70.43007594506784
 30
0.0
 10
-9.563185417908329
 20
70.48297616138902
 30
0.0
  0
SPLINE
  5
12A
330
1F
100
AcDbEntity
  8
DEFAULT
100
AcDbSpline
210
0.0
220
0.0
230
1.0
 70
    12
 71
     2
 72
    10
 73
     7
 74
     0
 42
0.0000000001
 43
0.0000000001
 40
-0.1282201628013348
 40
-0.1282201628013348
 40
-0.1282201628013348
 40
0.0
 40
0.0
 40
0.1060175460643373
 40
0.1060175460643373
 40
0.7644817079169229
 40
0.7644817079169229
 40
0.7644817079169229
 10
-9.563185417908329
 20
70.48297616138902
 30
0.0
 41
1.0
 10
-9.625955775098246
 20
70.50487945172033
 30
0.0
 41
0.9473303484341768
 10
-9.670634585779823
 20
70.55741847770858
 30
0.0
 41
1.0
 10
-9.702424139457053
 20
70.60400113165035
 30
0.0
 41
0.912286974915978
 10
-9.68874023190069
 20
70.6587119171073
 30
0.0
 41
0.9999992032399301
 10
-9.602113257941017
 20
71.0284274307181
 30
0.0
 41
0.9993961059510184
 10
-9.542001416840513
 20
71.35225980532552
 30
0.0
 41
0.9999992040962243
  0
SPLINE
  5
12B
330
1F
100
AcDbEntity
  8
DEFAULT
100
AcDbSpline
210
0.0
220
0.0
230
1.0
 70
     8
 71
     3
 72
    19
 73
    15
 74
     0
 42
0.0000000001
 43
0.0000000001
 40
-11.51386883183247
 40
-11.51386883183247
 40
-11.51386883183247
 40
-11.51386883183247
 40
-10.86335533494464
 40
-9.710123961932329
 40
-9.470060216773138
 40
-9.238659435547545
 40
-9.218595657282524
 40
-9.090866166954358
 40
-9.019515739888016
 40
-8.91937015223986
 40
-6.899475607671127
 40
-4.462819732511551
 40
-2.232247940101095
 40
0.0
 40
0.0
 40
0.0
 40
0.0
 10
-9.542001416840492
 20
71.35225980532553
 30
0.0
 10
-9.502443966093182
 20
71.56536229851818
 30
0.0
 10
-9.340310320844083
 20
72.19739177064025
 30
0.0
 10
-9.119917188930373
 20
72.84171461012468
 30
0.0
 10
-8.965859768995642
 20
73.36124491490719
 30
0.0
 10
-8.92444795598297
 20
73.51889066114583
 30
0.0
 10
-8.891112041775472
 20
73.64243762731209
 30
0.0
 10
-8.836476797999325
 20
73.69428081871823
 30
0.0
 10
-8.757192062628093
 20
73.755538470522
 30
0.0
 10
-8.07854357386418
 20
74.02638152349633
 30
0.0
 10
-6.641449949180497
 20
74.51963716604888
 30
0.0
 10
-4.476200788025864
 20
75.05886802651321
 30
0.0
 10
-2.197259527434369
 20
75.38434418809857
 30
0.0
 10
-0.7101286652712133
 20
75.45385610347748
 30
0.0
 10
0.0337939352363605
 20
75.45395109712823
 30
0.0
  0
SPLINE
  5
12C
330
1F
100
AcDbEntity
  8
DEFAULT
100
AcDbSpline
210
0.0
220
0.0
230
1.0
 70
     8
 71
     3
 72
    19
 73
    15
 74
     0
 42
0.0000000001
 43
0.0000000001
 40
0.0
 40
0.0
 40
0.0
 40
0.0
 40
2.232247940101095
 40
4.462819732511551
 40
6.899475607671127
 40
8.91937015223986
 40
9.019515739888016
 40
9.090866166954358
 40
9.218595657282524
 40
9.238659435547545
 40
9.470060216773138
 40
9.710123961932329
 40
10.86335533494464
 40
11.51386883183247
 40
11.51386883183247
 40
11.51386883183247
 40
11.51386883183247
 10
0.0337939352363605
 20
75.45395109712823
 30
0.0
 10
0.7777165357439344
 20
75.45385610347748
 30
0.0
 10
2.26484739790709
 20
75.38434418809857
 30
0.0
 10
4.543788658498613
 20
75.05886802651321
 30
0.0
 10
6.709037819653219
 20
74.51963716604888
 30
0.0
 10
8.146131444336902
 20
74.02638152349633
 30
0.0
 10
8.824779933100814
 20
73.755538470522
 30
0.0
 10
8.904064668472046
 20
73.69428081871823
 30
0.0
 10
8.958699912248193
 20
73.64243762731209
 30
0.0
 10
8.992035826455691
 20
73.51889066114583
 30
0.0
 10
9.033447639468392
 20
73.36124491490719
 30
0.0
 10
9.187505059403094
 20
72.84171461012468
 30
0.0
 10
9.407898191316832
 20
72.19739177064025
 30
0.0
 10
9.570031836565903
 20
71.56536229851818
 30
0.0
 10
9.609589287313241
 20
71.35225980532553
 30
0.0
  0
LINE
  5
12D
330
1F
100
AcDbEntity
  8
DEFAULT
100
AcDbLine
 10
-7.890712194240081
 20
70.40239922160777
 30
0.0
 11
-7.474857326464132
 21
70.13747045253567
 31
0.0
  0
SPLINE
  5
12E
330
1F
100
AcDbEntity
  8
DEFAULT
100
AcDbSpline
210
0.0
220
0.0
230
1.0
 70
     8
 71
     3
 72
    13
 73
     9
 74
     0
 42
0.0000000001
 43
0.0000000001
 40
-3.219240749456699
 40
-3.219240749456699
 40
-3.219240749456699
 40
-3.219240749456699
 40
-1.608780363830926
 40
-1.137367279769164
 40
-0.8321297490398771
 40
-0.4053393049321962
 40
-0.2006690731634779
 40
0.0
 40
0.0
 40
0.0
 40
0.0
 10
-8.81436804209588
 20
73.73591953649266
 30
0.0
 10
-8.849484854439838
 20
74.27152687935649
 30
0.0
 10
-8.883715989351302
 20
74.96495425518863
 30
0.0
 10
-8.973782545977883
 20
75.75594245891875
 30
0.0
 10
-9.0361055200443
 20
76.15197841054992
 30
0.0
 10
-9.181970624830115
 20
76.4410712760162
 30
0.0
 10
-9.433373456107875
 20
76.58341117761071
 30
0.0
 10
-9.563749150235918
 20
76.60831597346679
 30
0.0
 10
-9.635078285943067
 20
76.60872711455092
 30
0.0
  0
SPLINE
  5
12F
330
1F
100
AcDbEntity
  8
DEFAULT
100
AcDbSpline
210
0.0
220
0.0
230
1.0
 70
    12
 71
     2
 72
     6
 73
     3
 74
     0
 42
0.0000000001
 43
0.0000000001
 40
0.0
 40
0.0
 40
0.0
 40
0.8799424134398891
 40
0.8799424134398891
 40
0.8799424134398891
 10
-9.635078285943067
 20
76.60872711455092
 30
0.0
 41
1.0
 10
-10.19693249144289
 20
76.60681983236995
 30
0.0
 41
0.7093524655190331
 10
-10.1985765159985
 20
76.04707918853971
 30
0.0
 41
1.0
  0
SPLINE
  5
130
330
1F
100
AcDbEntity
  8
DEFAULT
100
AcDbSpline
210
0.0
220
0.0
230
1.0
 70
    12
 71
     2
 72
     6
 73
     3
 74
     0
 42
0.0000000001
 43
0.0000000001
 40
0.0
 40
0.0
 40
0.0
 40
0.331445418919184
 40
0.331445418919184
 40
0.331445418919184
 10
-10.1985765159985
 20
76.04707918853971
 30
0.0
 41
1.0
 10
-10.19857847999861
 20
75.87554662255123
 30
0.0
 41
0.9569203431311061
 10
-10.10372963265807
 20
75.73363634611235
 30
0.0
 41
1.0
  0
SPLINE
  5
131
330
1F
100
AcDbEntity
  8
DEFAULT
100
AcDbSpline
210
0.0
220
0.0
230
1.0
 70
    12
 71
     2
 72
     8
 73
     5
 74
     0
 42
0.0000000001
 43
0.0000000001
 40
0.0
 40
0.0
 40
0.0
 40
0.1959645976220034
 40
0.1959645976220034
 40
0.3919291952440067
 40
0.3919291952440067
 40
0.3919291952440067
 10
30.07440268554376
 20
7.660785403139567
 30
0.0
 41
1.0
 10
30.07489990054886
 20
7.764167133490337
 30
0.0
 41
0.9234522264417051
 10
30.00198592655702
 20
7.837458209275845
 30
0.0
 41
1.0
 10
29.92907195256517
 20
7.910749285061356
 30
0.0
 41
0.9234522264417051
 10
29.82568903284015
 20
7.910785371200968
 30
0.0
 41
1.0
  0
SPLINE
  5
132
330
1F
100
AcDbEntity
  8
DEFAULT
100
AcDbSpline
210
0.0
220
0.0
230
1.0
 70
    12
 71
     2
 72
     6
 73
     3
 74
     0
 42
0.0000000001
 43
0.0000000001
 40
0.0
 40
0.0
 40
0.0
 40
2.011907681528288
 40
2.011907681528288
 40
2.011907681528288
 10
-7.006245521903726
 20
74.38564212717708
 30
0.0
 41
1.0
 10
-7.968810391996187
 20
74.67994838053617
 30
0.0
 41
0.9991085654434491
 10
-8.903118632466631
 20
75.05440186455174
 30
0.0
 41
1.0
  0
ENDSEC
  0
SECTION
  2
OBJECTS
  0
DICTIONARY
  5
C
330
0
100
AcDbDictionary
281
     1
  3
ACAD_GROUP
350
D
  3
ACAD_LAYOUT
350
1A
  3
ACAD_MLEADERSTYLE
350
134
  3
ACAD_MLINESTYLE
350
17
  3
ACAD_PLOTSETTINGS
350
19
  3
ACAD_PLOTSTYLENAME
350
E
  3
ACAD_TABLESTYLE
350
133
  3
ACAD_VISUALSTYLE
350
2A
  0
DICTIONARY
  5
D
102
{ACAD_REACTORS
330
C
102
}
330
C
100
AcDbDictionary
281
     1
  0
DICTIONARY
  5
1A
102
{ACAD_REACTORS
330
C
102
}
330
C
100
AcDbDictionary
281
     1
  3
Layout1
350
1E
  3
Layout2
350
26
  3
Model
350
22
  0
DICTIONARY
  5
134
102
{ACAD_REACTORS
330
C
102
}
330
C
100
AcDbDictionary
281
     1
  0
DICTIONARY
  5
17
102
{ACAD_REACTORS
330
C
102
}
330
C
100
AcDbDictionary
281
     1
  3
Standard
350
18
  0
DICTIONARY
  5
19
102
{ACAD_REACTORS
330
C
102
}
330
C
100
AcDbDictionary
281
     1
  0
ACDBDICTIONARYWDFLT
  5
E
102
{ACAD_REACTORS
330
C
102
}
330
C
100
AcDbDictionary
281
     1
  3
Normal
350
F
100
AcDbDictionaryWithDefault
340
F
  0
DICTIONARY
  5
133
102
{ACAD_REACTORS
330
C
102
}
330
C
100
AcDbDictionary
281
     1
  0
DICTIONARY
  5
2A
102
{ACAD_REACTORS
330
C
102
}
330
C
100
AcDbDictionary
281
     1
  3
2dWireframe
350
2F
  3
3D Hidden
350
31
  3
3dWireframe
350
30
  3
Basic
350
32
  3
Brighten
350
36
  3
ColorChange
350
3A
  3
Conceptual
350
34
  3
Dim
350
35
  3
Facepattern
350
39
  3
Flat
350
2B
  3
FlatWithEdges
350
2C
  3
Gouraud
350
2D
  3
GouraudWithEdges
350
2E
  3
Linepattern
350
38
  3
Realistic
350
33
  3
Thicken
350
37
  0
LAYOUT
  5
1E
102
{ACAD_REACTORS
330
1A
102
}
330
1A
100
AcDbPlotSettings
  1

  2
none_device
  4

  6

 40
0.0
 41
0.0
 42
0.0
 43
0.0
 44
0.0
 45
0.0
 46
0.0
 47
0.0
 48
0.0
 49
0.0
140
0.0
141
0.0
142
1.0
143
1.0
 70
   688
 72
     0
 73
     0
 74
     5
  7

 75
    16
 76
     0
 77
     2
 78
   300
147
1.0
148
0.0
149
0.0
100
AcDbLayout
  1
Layout1
 70
     1
 71
     1
 10
0.0
 20
0.0
 11
12.0
 21
9.0
 12
0.0
 22
0.0
 32
0.0
 14
1.000000000000000E+20
 24
1.000000000000000E+20
 34
1.000000000000000E+20
 15
-1.000000000000000E+20
 25
-1.000000000000000E+20
 35
-1.000000000000000E+20
146
0.0
 13
0.0
 23
0.0
 33
0.0
 16
1.0
 26
0.0
 36
0.0
 17
0.0
 27
1.0
 37
0.0
 76
     0
330
1B
  0
LAYOUT
  5
26
102
{ACAD_REACTORS
330
1A
102
}
330
1A
100
AcDbPlotSettings
  1

  2
none_device
  4

  6

 40
0.0
 41
0.0
 42
0.0
 43
0.0
 44
0.0
 45
0.0
 46
0.0
 47
0.0
 48
0.0
 49
0.0
140
0.0
141
0.0
142
1.0
143
1.0
 70
   688
 72
     0
 73
     0
 74
     5
  7

 75
    16
 76
     0
 77
     2
 78
   300
147
1.0
148
0.0
149
0.0
100
AcDbLayout
  1
Layout2
 70
     1
 71
     2
 10
0.0
 20
0.0
 11
0.0
 21
0.0
 12
0.0
 22
0.0
 32
0.0
 14
0.0
 24
0.0
 34
0.0
 15
0.0
 25
0.0
 35
0.0
146
0.0
 13
0.0
 23
0.0
 33
0.0
 16
1.0
 26
0.0
 36
0.0
 17
0.0
 27
1.0
 37
0.0
 76
     0
330
23
  0
LAYOUT
  5
22
102
{ACAD_REACTORS
330
1A
102
}
330
1A
100
AcDbPlotSettings
  1

  2
none_device
  4

  6

 40
0.0
 41
0.0
 42
0.0
 43
0.0
 44
0.0
 45
0.0
 46
0.0
 47
0.0
 48
0.0
 49
0.0
140
0.0
141
0.0
142
1.0
143
1.0
 70
  1712
 72
     0
 73
     0
 74
     0
  7

 75
     0
 76
     0
 77
     2
 78
   300
147
1.0
148
0.0
149
0.0
100
AcDbLayout
  1
Model
 70
     1
 71
     0
 10
0.0
 20
0.0
 11
12.0
 21
9.0
 12
0.0
 22
0.0
 32
0.0
 14
-10.20047520061032
 24
0.0006618064113312
 34
0.0
 15
49.49749292116412
 25
76.60872711455092
 35
0.0
146
0.0
 13
0.0
 23
0.0
 33
0.0
 16
1.0
 26
0.0
 36
0.0
 17
0.0
 27
1.0
 37
0.0
 76
     0
330
1F
331
29
  0
MLINESTYLE
  5
18
102
{ACAD_REACTORS
330
17
102
}
330
17
100
AcDbMlineStyle
  2
Standard
 70
     0
  3

 62
   256
 51
90.0
 52
90.0
 71
     2
 49
0.5
 62
   256
  6
BYLAYER
 49
-0.5
 62
   256
  6
BYLAYER
  0
ACDBPLACEHOLDER
  5
F
102
{ACAD_REACTORS
330
E
102
}
330
E
  0
VISUALSTYLE
  5
2F
102
{ACAD_REACTORS
330
2A
102
}
330
2A
100
AcDbVisualStyle
  2
2dWireframe
 70
     4
 71
     0
 72
     2
 73
     0
 90
        0
 40
-0.6
 41
-30.0
 62
     5
 63
     7
421
 16777215
 74
     1
 91
        4
 64
     7
 65
   257
 75
     1
175
     1
 42
1.0
 92
        0
 66
   257
 43
1.0
 76
     1
 77
     6
 78
     2
 67
     7
 79
     5
170
     0
171
     0
290
     0
174
     0
 93
        1
 44
0.0
173
     0
291
     0
 45
0.0
1001
ACAD
1000
AcDbSavedByObjectVersion
1070
     0
  0
VISUALSTYLE
  5
31
102
{ACAD_REACTORS
330
2A
102
}
330
2A
100
AcDbVisualStyle
  2
3D Hidden
 70
     6
 71
     1
 72
     2
 73
     2
 90
        0
 40
-0.6
 41
-30.0
 62
     5
 63
     7
421
 16777215
 74
     2
 91
        2
 64
     7
 65
   257
 75
     2
175
     1
 42
40.0
 92
        0
 66
   257
 43
1.0
 76
     1
 77
     6
 78
     2
 67
     7
 79
     3
170
     0
171
     0
290
     0
174
     0
 93
        1
 44
0.0
173
     0
291
     0
 45
0.0
1001
ACAD
1000
AcDbSavedByObjectVersion
1070
     0
  0
VISUALSTYLE
  5
30
102
{ACAD_REACTORS
330
2A
102
}
330
2A
100
AcDbVisualStyle
  2
3dWireframe
 70
     5
 71
     0
 72
     2
 73
     0
 90
        0
 40
-0.6
 41
-30.0
 62
     5
 63
     7
421
 16777215
 74
     1
 91
        4
 64
     7
 65
   257
 75
     1
175
     1
 42
1.0
 92
        0
 66
   257
 43
1.0
 76
     1
 77
     6
 78
     2
 67
     7
 79
     5
170
     0
171
     0
290
     0
174
     0
 93
        1
 44
0.0
173
     0
291
     0
 45
0.0
1001
ACAD
1000
AcDbSavedByObjectVersion
1070
     0
  0
VISUALSTYLE
  5
32
102
{ACAD_REACTORS
330
2A
102
}
330
2A
100
AcDbVisualStyle
  2
Basic
 70
     7
 71
     1
 72
     0
 73
     1
 90
        0
 40
-0.6
 41
-30.0
 62
     5
 63
     7
421
 16777215
 74
     0
 91
        4
 64
     7
 65
   257
 75
     1
175
     1
 42
1.0
 92
        8
 66
     7
 43
1.0
 76
     1
 77
     6
 78
     2
 67
     7
 79
     5
170
     0
171
     0
290
     0
174
     0
 93
        1
 44
0.0
173
     0
291
     1
 45
0.0
1001
ACAD
1000
AcDbSavedByObjectVersion
1070
     0
  0
VISUALSTYLE
  5
36
102
{ACAD_REACTORS
330
2A
102
}
330
2A
100
AcDbVisualStyle
  2
Brighten
 70
    12
 71
     2
 72
     2
 73
     0
 90
        0
 40
-0.6
 41
-30.0
 62
     5
 63
     7
421
 16777215
 74
     1
 91
        4
 64
     7
 65
   257
 75
     1
175
     1
 42
1.0
 92
        8
 66
     7
 43
1.0
 76
     1
 77
     6
 78
     2
 67
     7
 79
     5
170
     0
171
     0
290
     0
174
     0
 93
        1
 44
50.0
173
     0
291
     1
 45
0.0
1001
ACAD
1000
AcDbSavedByObjectVersion
1070
     0
  0
VISUALSTYLE
  5
3A
102
{ACAD_REACTORS
330
2A
102
}
330
2A
100
AcDbVisualStyle
  2
ColorChange
 70
    16
 71
     2
 72
     2
 73
     3
 90
        0
 40
-0.6
 41
-30.0
 62
     5
 63
     8
421
  8421504
 74
     1
 91
        4
 64
     7
 65
   257
 75
     1
175
     1
 42
1.0
 92
        8
 66
     8
424
  8421504
 43
1.0
 76
     1
 77
     6
 78
     2
 67
     7
 79
     5
170
     0
171
     0
290
     0
174
     0
 93
        1
 44
0.0
173
     0
291
     1
 45
0.0
1001
ACAD
1000
AcDbSavedByObjectVersion
1070
     0
  0
VISUALSTYLE
  5
34
102
{ACAD_REACTORS
330
2A
102
}
330
2A
100
AcDbVisualStyle
  2
Conceptual
 70
     9
 71
     3
 72
     2
 73
     0
 90
        0
 40
-0.6
 41
-30.0
 62
     5
 63
     7
421
 16777215
 74
     2
 91
        2
 64
     7
 65
   257
 75
     1
175
     1
 42
40.0
 92
        8
 66
     7
 43
1.0
 76
     1
 77
     6
 78
     2
 67
     7
 79
     3
170
     0
171
     0
290
     0
174
     0
 93
        1
 44
0.0
173
     0
291
     0
 45
0.0
1001
ACAD
1000
AcDbSavedByObjectVersion
1070
     0
  0
VISUALSTYLE
  5
35
102
{ACAD_REACTORS
330
2A
102
}
330
2A
100
AcDbVisualStyle
  2
Dim
 70
    11
 71
     2
 72
     2
 73
     0
 90
        0
 40
-0.6
 41
-30.0
 62
     5
 63
     7
421
 16777215
 74
     1
 91
        4
 64
     7
 65
   257
 75
     1
175
     1
 42
1.0
 92
        8
 66
     7
 43
1.0
 76
     1
 77
     6
 78
     2
 67
     7
 79
     5
170
     0
171
     0
290
     0
174
     0
 93
        1
 44
-50.0
173
     0
291
     1
 45
0.0
1001
ACAD
1000
AcDbSavedByObjectVersion
1070
     0
  0
VISUALSTYLE
  5
39
102
{ACAD_REACTORS
330
2A
102
}
330
2A
100
AcDbVisualStyle
  2
Facepattern
 70
    15
 71
     2
 72
     2
 73
     0
 90
        0
 40
-0.6
 41
-30.0
 62
     5
 63
     7
421
 16777215
 74
     1
 91
        4
 64
     7
 65
   257
 75
     1
175
     1
 42
1.0
 92
        8
 66
     7
 43
1.0
 76
     1
 77
     6
 78
     2
 67
     7
 79
     5
170
     0
171
     0
290
     0
174
     0
 93
        1
 44
0.0
173
     0
291
     1
 45
0.0
1001
ACAD
1000
AcDbSavedByObjectVersion
1070
     0
  0
VISUALSTYLE
  5
2B
102
{ACAD_REACTORS
330
2A
102
}
330
2A
100
AcDbVisualStyle
  2
Flat
 70
     0
 71
     2
 72
     1
 73
     1
 90
        2
 40
-0.6
 41
30.0
 62
     5
 63
     7
421
 16777215
 74
     0
 91
        4
 64
     7
 65
   257
 75
     1
175
     1
 42
1.0
 92
        8
 66
     7
 43
1.0
 76
     1
 77
     6
 78
     2
 67
     7
 79
     5
170
     0
171
     0
290
     0
174
     0
 93
       13
 44
0.0
173
     0
291
     1
 45
0.0
1001
ACAD
1000
AcDbSavedByObjectVersion
1070
     0
  0
VISUALSTYLE
  5
2C
102
{ACAD_REACTORS
330
2A
102
}
330
2A
100
AcDbVisualStyle
  2
FlatWithEdges
 70
     1
 71
     2
 72
     1
 73
     1
 90
        2
 40
-0.6
 41
30.0
 62
     5
 63
     7
421
 16777215
 74
     1
 91
        4
 64
     7
 65
   257
 75
     1
175
     1
 42
1.0
 92
        0
 66
   257
 43
1.0
 76
     1
 77
     6
 78
     2
 67
     7
 79
     5
170
     0
171
     0
290
     0
174
     0
 93
       13
 44
0.0
173
     0
291
     1
 45
0.0
1001
ACAD
1000
AcDbSavedByObjectVersion
1070
     0
  0
VISUALSTYLE
  5
2D
102
{ACAD_REACTORS
330
2A
102
}
330
2A
100
AcDbVisualStyle
  2
Gouraud
 70
     2
 71
     2
 72
     2
 73
     1
 90
        2
 40
-0.6
 41
30.0
 62
     5
 63
     7
421
 16777215
 74
     0
 91
        4
 64
     7
 65
   257
 75
     1
175
     1
 42
1.0
 92
        0
 66
     7
 43
1.0
 76
     1
 77
     6
 78
     2
 67
     7
 79
     5
170
     0
171
     0
290
     0
174
     0
 93
       13
 44
0.0
173
     0
291
     1
 45
0.0
1001
ACAD
1000
AcDbSavedByObjectVersion
1070
     0
  0
VISUALSTYLE
  5
2E
102
{ACAD_REACTORS
330
2A
102
}
330
2A
100
AcDbVisualStyle
  2
GouraudWithEdges
 70
     3
 71
     2
 72
     2
 73
     1
 90
        2
 40
-0.6
 41
30.0
 62
     5
 63
     7
421
 16777215
 74
     1
 91
        4
 64
     7
 65
   257
 75
     1
175
     1
 42
1.0
 92
        0
 66
   257
 43
1.0
 76
     1
 77
     6
 78
     2
 67
     7
 79
     5
170
     0
171
     0
290
     0
174
     0
 93
       13
 44
0.0
173
     0
291
     1
 45
0.0
1001
ACAD
1000
AcDbSavedByObjectVersion
1070
     0
  0
VISUALSTYLE
  5
38
102
{ACAD_REACTORS
330
2A
102
}
330
2A
100
AcDbVisualStyle
  2
Linepattern
 70
    14
 71
     2
 72
     2
 73
     0
 90
        0
 40
-0.6
 41
-30.0
 62
     5
 63
     7
421
 16777215
 74
     1
 91
        4
 64
     7
 65
   257
 75
     7
175
     7
 42
1.0
 92
        8
 66
     7
 43
1.0
 76
     1
 77
     6
 78
     2
 67
     7
 79
     5
170
     0
171
     0
290
     0
174
     0
 93
        1
 44
0.0
173
     0
291
     1
 45
0.0
1001
ACAD
1000
AcDbSavedByObjectVersion
1070
     0
  0
VISUALSTYLE
  5
33
102
{ACAD_REACTORS
330
2A
102
}
330
2A
100
AcDbVisualStyle
  2
Realistic
 70
     8
 71
     2
 72
     2
 73
     0
 90
        0
 40
-0.6
 41
-30.0
 62
     5
 63
     7
421
 16777215
 74
     1
 91
        0
 64
     7
 65
   257
 75
     1
175
     1
 42
1.0
 92
        8
 66
     8
424
  7895160
 43
1.0
 76
     1
 77
     6
 78
     2
 67
     7
 79
     5
170
     0
171
     0
290
     0
174
     0
 93
       13
 44
0.0
173
     0
291
     0
 45
0.0
1001
ACAD
1000
AcDbSavedByObjectVersion
1070
     0
  0
VISUALSTYLE
  5
37
102
{ACAD_REACTORS
330
2A
102
}
330
2A
100
AcDbVisualStyle
  2
Thicken
 70
    13
 71
     2
 72
     2
 73
     0
 90
        0
 40
-0.6
 41
-30.0
 62
     5
 63
     7
421
 16777215
 74
     1
 91
        4
 64
     7
 65
   257
 75
     1
175
     1
 42
1.0
 92
       12
 66
     7
 43
1.0
 76
     1
 77
     6
 78
     2
 67
     7
 79
     5
170
     0
171
     0
290
     0
174
     0
 93
        1
 44
0.0
173
     0
291
     1
 45
0.0
1001
ACAD
1000
AcDbSavedByObjectVersion
1070
     0
  0
ENDSEC
  0
EOF
