  0
SECTION
  2
HEADER
  9
$ACADVER
  1
AC1018
  9
$ACADMAINTVER
 70
     0
  9
$DWGCODEPAGE
  3
ANSI_1252
  9
$INSBASE
 10
0.0
 20
0.0
 30
0.0
  9
$EXTMIN
 10
-10.27776551203658
 20
0.0008208563719239
 30
0.0
  9
$EXTMAX
 10
48.52723728496859
 20
81.65770515434426
 30
0.0
  9
$LIMMIN
 10
0.0
 20
0.0
  9
$LIMMAX
 10
12.0
 20
9.0
  9
$ORTHOMODE
 70
     0
  9
$REGENMODE
 70
     1
  9
$FILLMODE
 70
     1
  9
$QTEXTMODE
 70
     0
  9
$MIRRTEXT
 70
     1
  9
$LTSCALE
 40
0.0393700787401575
  9
$ATTMODE
 70
     1
  9
$TEXTSIZE
 40
0.2
  9
$TRACEWID
 40
0.05
  9
$TEXTSTYLE
  7
Standard
  9
$CLAYER
  8
DEFAULT
  9
$CELTYPE
  6
ByLayer
  9
$CECOLOR
 62
   256
  9
$CELTSCALE
 40
1.0
  9
$DISPSILH
 70
     0
  9
$DIMSCALE
 40
1.0
  9
$DIMASZ
 40
0.18
  9
$DIMEXO
 40
0.0625
  9
$DIMDLI
 40
0.38
  9
$DIMRND
 40
0.0
  9
$DIMDLE
 40
0.0
  9
$DIMEXE
 40
0.18
  9
$DIMTP
 40
0.0
  9
$DIMTM
 40
0.0
  9
$DIMTXT
 40
0.18
  9
$DIMCEN
 40
0.09
  9
$DIMTSZ
 40
0.0
  9
$DIMTOL
 70
     0
  9
$DIMLIM
 70
     0
  9
$DIMTIH
 70
     1
  9
$DIMTOH
 70
     1
  9
$DIMSE1
 70
     0
  9
$DIMSE2
 70
     0
  9
$DIMTAD
 70
     0
  9
$DIMZIN
 70
     0
  9
$DIMBLK
  1

  9
$DIMASO
 70
     1
  9
$DIMSHO
 70
     1
  9
$DIMPOST
  1

  9
$DIMAPOST
  1

  9
$DIMALT
 70
     0
  9
$DIMALTD
 70
     2
  9
$DIMALTF
 40
25.4
  9
$DIMLFAC
 40
1.0
  9
$DIMTOFL
 70
     0
  9
$DIMTVP
 40
0.0
  9
$DIMTIX
 70
     0
  9
$DIMSOXD
 70
     0
  9
$DIMSAH
 70
     0
  9
$DIMBLK1
  1

  9
$DIMBLK2
  1

  9
$DIMSTYLE
  2
Standard
  9
$DIMCLRD
 70
     0
  9
$DIMCLRE
 70
     0
  9
$DIMCLRT
 70
     0
  9
$DIMTFAC
 40
1.0
  9
$DIMGAP
 40
0.09
  9
$DIMJUST
 70
     0
  9
$DIMSD1
 70
     0
  9
$DIMSD2
 70
     0
  9
$DIMTOLJ
 70
     1
  9
$DIMTZIN
 70
     0
  9
$DIMALTZ
 70
     0
  9
$DIMALTTZ
 70
     0
  9
$DIMUPT
 70
     0
  9
$DIMDEC
 70
     4
  9
$DIMTDEC
 70
     4
  9
$DIMALTU
 70
     2
  9
$DIMALTTD
 70
     2
  9
$DIMTXSTY
  7
Standard
  9
$DIMAUNIT
 70
     0
  9
$DIMADEC
 70
     0
  9
$DIMALTRND
 40
0.0
  9
$DIMAZIN
 70
     0
  9
$DIMDSEP
 70
    46
  9
$DIMATFIT
 70
     3
  9
$DIMFRAC
 70
     0
  9
$DIMLDRBLK
  1

  9
$DIMLUNIT
 70
     2
  9
$DIMLWD
 70
    -2
  9
$DIMLWE
 70
    -2
  9
$DIMTMOVE
 70
     2
  9
$LUNITS
 70
     2
  9
$LUPREC
 70
     3
  9
$SKETCHINC
 40
0.1
  9
$FILLETRAD
 40
0.5
  9
$AUNITS
 70
     0
  9
$AUPREC
 70
     0
  9
$MENU
  1
.
  9
$ELEVATION
 40
0.0
  9
$PELEVATION
 40
0.0
  9
$THICKNESS
 40
0.0
  9
$LIMCHECK
 70
     0
  9
$CHAMFERA
 40
0.5
  9
$CHAMFERB
 40
0.5
  9
$CHAMFERC
 40
1.0
  9
$CHAMFERD
 40
0.0
  9
$SKPOLY
 70
     0
  9
$TDCREATE
 40
2455910.466496539
  9
$TDUCREATE
 40
2455910.674829873
  9
$TDUPDATE
 40
2455910.466496551
  9
$TDUUPDATE
 40
2455910.674829884
  9
$TDINDWG
 40
0.0000000116
  9
$TDUSRTIMER
 40
0.0000000116
  9
$USRTIMER
 70
     1
  9
$ANGBASE
 50
0.0
  9
$ANGDIR
 70
     0
  9
$PDMODE
 70
     0
  9
$PDSIZE
 40
0.0
  9
$PLINEWID
 40
0.0
  9
$SPLFRAME
 70
     0
  9
$SPLINETYPE
 70
     6
  9
$SPLINESEGS
 70
     8
  9
$HANDSEED
  5
127
  9
$SURFTAB1
 70
     6
  9
$SURFTAB2
 70
     6
  9
$SURFTYPE
 70
     6
  9
$SURFU
 70
     6
  9
$SURFV
 70
     6
  9
$UCSBASE
  2

  9
$UCSNAME
  2

  9
$UCSORG
 10
0.0
 20
0.0
 30
0.0
  9
$UCSXDIR
 10
1.0
 20
0.0
 30
0.0
  9
$UCSYDIR
 10
0.0
 20
1.0
 30
0.0
  9
$UCSORTHOREF
  2

  9
$UCSORTHOVIEW
 70
     0
  9
$UCSORGTOP
 10
0.0
 20
0.0
 30
0.0
  9
$UCSORGBOTTOM
 10
0.0
 20
0.0
 30
0.0
  9
$UCSORGLEFT
 10
0.0
 20
0.0
 30
0.0
  9
$UCSORGRIGHT
 10
0.0
 20
0.0
 30
0.0
  9
$UCSORGFRONT
 10
0.0
 20
0.0
 30
0.0
  9
$UCSORGBACK
 10
0.0
 20
0.0
 30
0.0
  9
$PUCSBASE
  2

  9
$PUCSNAME
  2

  9
$PUCSORG
 10
0.0
 20
0.0
 30
0.0
  9
$PUCSXDIR
 10
1.0
 20
0.0
 30
0.0
  9
$PUCSYDIR
 10
0.0
 20
1.0
 30
0.0
  9
$PUCSORTHOREF
  2

  9
$PUCSORTHOVIEW
 70
     0
  9
$PUCSORGTOP
 10
0.0
 20
0.0
 30
0.0
  9
$PUCSORGBOTTOM
 10
0.0
 20
0.0
 30
0.0
  9
$PUCSORGLEFT
 10
0.0
 20
0.0
 30
0.0
  9
$PUCSORGRIGHT
 10
0.0
 20
0.0
 30
0.0
  9
$PUCSORGFRONT
 10
0.0
 20
0.0
 30
0.0
  9
$PUCSORGBACK
 10
0.0
 20
0.0
 30
0.0
  9
$USERI1
 70
     0
  9
$USERI2
 70
     0
  9
$USERI3
 70
     0
  9
$USERI4
 70
     0
  9
$USERI5
 70
     0
  9
$USERR1
 40
0.0
  9
$USERR2
 40
0.0
  9
$USERR3
 40
0.0
  9
$USERR4
 40
0.0
  9
$USERR5
 40
0.0
  9
$WORLDVIEW
 70
     1
  9
$SHADEDGE
 70
     3
  9
$SHADEDIF
 70
    70
  9
$TILEMODE
 70
     1
  9
$MAXACTVP
 70
    64
  9
$PINSBASE
 10
0.0
 20
0.0
 30
0.0
  9
$PLIMCHECK
 70
     0
  9
$PEXTMIN
 10
1.000000000000000E+20
 20
1.000000000000000E+20
 30
1.000000000000000E+20
  9
$PEXTMAX
 10
-1.000000000000000E+20
 20
-1.000000000000000E+20
 30
-1.000000000000000E+20
  9
$PLIMMIN
 10
0.0
 20
0.0
  9
$PLIMMAX
 10
12.0
 20
9.0
  9
$UNITMODE
 70
     0
  9
$VISRETAIN
 70
     1
  9
$PLINEGEN
 70
     0
  9
$PSLTSCALE
 70
     1
  9
$TREEDEPTH
 70
  3020
  9
$CMLSTYLE
  2
Standard
  9
$CMLJUST
 70
     0
  9
$CMLSCALE
 40
1.0
  9
$PROXYGRAPHICS
 70
     1
  9
$MEASUREMENT
 70
     0
  9
$CELWEIGHT
370
    -1
  9
$ENDCAPS
280
     0
  9
$JOINSTYLE
280
     0
  9
$LWDISPLAY
290
     0
  9
$INSUNITS
 70
     1
  9
$HYPERLINKBASE
  1

  9
$STYLESHEET
  1

  9
$XEDIT
290
     1
  9
$CEPSNTYPE
380
     0
  9
$PSTYLEMODE
290
     1
  9
$FINGERPRINTGUID
  2
{F85295D0-15B3-4C80-B229-AF0D07138812}
  9
$VERSIONGUID
  2
{FAEB1C32-E019-11D5-929B-00C0DF256EC4}
  9
$EXTNAMES
290
     1
  9
$PSVPSCALE
 40
0.0
  9
$OLESTARTUP
290
     0
  9
$SORTENTS
280
   127
  9
$INDEXCTL
280
     0
  9
$HIDETEXT
280
     1
  9
$XCLIPFRAME
290
     0
  9
$HALOGAP
280
     0
  9
$OBSCOLOR
 70
   257
  9
$OBSLTYPE
280
     0
  9
$INTERSECTIONDISPLAY
280
     0
  9
$INTERSECTIONCOLOR
 70
   257
  9
$DIMASSOC
280
     2
  9
$PROJECTNAME
  1

  0
ENDSEC
  0
SECTION
  2
CLASSES
  0
CLASS
  1
ACDBDICTIONARYWDFLT
  2
AcDbDictionaryWithDefault
  3
ObjectDBX Classes
 90
        0
 91
        4
280
     0
281
     0
  0
CLASS
  1
VISUALSTYLE
  2
AcDbVisualStyle
  3
ObjectDBX Classes
 90
     4095
 91
        4
280
     0
281
     0
  0
ENDSEC
  0
SECTION
  2
TABLES
  0
TABLE
  2
VPORT
  5
8
330
0
100
AcDbSymbolTable
 70
     1
  0
VPORT
  5
29
330
8
100
AcDbSymbolTableRecord
100
AcDbViewportTableRecord
  2
*Active
 70
     0
 10
0.0
 20
0.0
 11
1.0
 21
1.0
 12
19.12473588646601
 22
40.82926300535809
 13
0.0
 23
0.0
 14
0.5
 24
0.5
 15
0.5
 25
0.5
 16
0.0
 26
0.0
 36
1.0
 17
0.0
 27
0.0
 37
0.0
 40
83.29002198393178
 41
0.7201475209661581
 42
50.0
 43
0.0
 44
0.0
 50
0.0
 51
0.0
 71
     0
 72
   100
 73
     1
 74
     3
 75
     0
 76
     0
 77
     0
 78
     0
281
     0
 65
     1
110
0.0
120
0.0
130
0.0
111
1.0
121
0.0
131
0.0
112
0.0
122
1.0
132
0.0
 79
     0
146
0.0
  0
ENDTAB
  0
TABLE
  2
LTYPE
  5
5
330
0
100
AcDbSymbolTable
 70
     1
  0
LTYPE
  5
14
330
5
100
AcDbSymbolTableRecord
100
AcDbLinetypeTableRecord
  2
ByBlock
 70
     0
  3

 72
    65
 73
     0
 40
0.0
  0
LTYPE
  5
15
330
5
100
AcDbSymbolTableRecord
100
AcDbLinetypeTableRecord
  2
ByLayer
 70
     0
  3

 72
    65
 73
     0
 40
0.0
  0
LTYPE
  5
16
330
5
100
AcDbSymbolTableRecord
100
AcDbLinetypeTableRecord
  2
Continuous
 70
     0
  3
Solid line
 72
    65
 73
     0
 40
0.0
  0
ENDTAB
  0
TABLE
  2
LAYER
  5
2
330
0
100
AcDbSymbolTable
 70
     3
  0
LAYER
  5
10
330
2
100
AcDbSymbolTableRecord
100
AcDbLayerTableRecord
  2
0
 70
     0
 62
     7
  6
Continuous
370
    -3
390
F
  0
LAYER
  5
3B
330
2
100
AcDbSymbolTableRecord
100
AcDbLayerTableRecord
  2
MAKE2D VISIBLE LINES
 70
     0
 62
     7
  6
Continuous
370
    -3
390
F
  0
LAYER
  5
76
330
2
100
AcDbSymbolTableRecord
100
AcDbLayerTableRecord
  2
DEFAULT
 70
     0
 62
     7
  6
Continuous
370
    -3
390
F
  0
ENDTAB
  0
TABLE
  2
STYLE
  5
3
330
0
100
AcDbSymbolTable
 70
     1
  0
STYLE
  5
11
330
3
100
AcDbSymbolTableRecord
100
AcDbTextStyleTableRecord
  2
Standard
 70
     0
 40
0.0
 41
1.0
 50
0.0
 71
     0
 42
0.2
  3
txt
  4

  0
ENDTAB
  0
TABLE
  2
VIEW
  5
6
330
0
100
AcDbSymbolTable
 70
     0
  0
ENDTAB
  0
TABLE
  2
UCS
  5
7
330
0
100
AcDbSymbolTable
 70
     0
  0
ENDTAB
  0
TABLE
  2
APPID
  5
9
330
0
100
AcDbSymbolTable
 70
     1
  0
APPID
  5
12
330
9
100
AcDbSymbolTableRecord
100
AcDbRegAppTableRecord
  2
ACAD
 70
     0
  0
ENDTAB
  0
TABLE
  2
DIMSTYLE
  5
A
330
0
100
AcDbSymbolTable
 70
     1
100
AcDbDimStyleTable
  0
DIMSTYLE
105
27
330
A
100
AcDbSymbolTableRecord
100
AcDbDimStyleTableRecord
  2
Standard
 70
     0
340
11
  0
ENDTAB
  0
TABLE
  2
BLOCK_RECORD
  5
1
330
0
100
AcDbSymbolTable
 70
     1
  0
BLOCK_RECORD
  5
1F
330
1
100
AcDbSymbolTableRecord
100
AcDbBlockTableRecord
  2
*Model_Space
340
22
  0
BLOCK_RECORD
  5
1B
330
1
100
AcDbSymbolTableRecord
100
AcDbBlockTableRecord
  2
*Paper_Space
340
1E
  0
BLOCK_RECORD
  5
23
330
1
100
AcDbSymbolTableRecord
100
AcDbBlockTableRecord
  2
*Paper_Space0
340
26
  0
ENDTAB
  0
ENDSEC
  0
SECTION
  2
BLOCKS
  0
BLOCK
  5
20
330
1F
100
AcDbEntity
  8
0
100
AcDbBlockBegin
  2
*Model_Space
 70
     0
 10
0.0
 20
0.0
 30
0.0
  3
*Model_Space
  1

  0
ENDBLK
  5
21
330
1F
100
AcDbEntity
  8
0
100
AcDbBlockEnd
  0
BLOCK
  5
1C
330
1B
100
AcDbEntity
 67
     1
  8
0
100
AcDbBlockBegin
  2
*Paper_Space
 70
     0
 10
0.0
 20
0.0
 30
0.0
  3
*Paper_Space
  1

  0
ENDBLK
  5
1D
330
1B
100
AcDbEntity
 67
     1
  8
0
100
AcDbBlockEnd
  0
BLOCK
  5
24
330
23
100
AcDbEntity
  8
0
100
AcDbBlockBegin
  2
*Paper_Space0
 70
     0
 10
0.0
 20
0.0
 30
0.0
  3
*Paper_Space0
  1

  0
ENDBLK
  5
25
330
23
100
AcDbEntity
  8
0
100
AcDbBlockEnd
  0
ENDSEC
  0
SECTION
  2
ENTITIES
  0
SPLINE
  5
3C
330
1F
100
AcDbEntity
  8
MAKE2D VISIBLE LINES
100
AcDbSpline
210
0.0
220
0.0
230
1.0
 70
    12
 71
     2
 72
     8
 73
     5
 74
     0
 42
0.0000000001
 43
0.0000000001
 40
0.0
 40
0.0
 40
0.0
 40
0.3670684445243085
 40
0.3670684445243085
 40
0.3678000097614414
 40
0.3678000097614414
 40
0.3678000097614414
 10
10.16201023225639
 20
80.75352118396879
 30
0.0
 41
1.0
 10
10.27757895405363
 20
80.9047550118247
 30
0.0
 41
0.9472483774171215
 10
10.27757790779869
 20
81.09509103086656
 30
0.0
 41
1.0
 10
10.27757790779869
 20
81.09545681353669
 30
0.0
 41
0.9999997886178166
 10
10.27767417422364
 20
81.09582292040682
 30
0.0
 41
1.0
  0
SPLINE
  5
3D
330
1F
100
AcDbEntity
  8
MAKE2D VISIBLE LINES
100
AcDbSpline
210
0.0
220
0.0
230
1.0
 70
    12
 71
     2
 72
     6
 73
     3
 74
     0
 42
0.0000000001
 43
0.0000000001
 40
-0.8818383843788322
 40
-0.8818383843788322
 40
-0.8818383843788322
 40
0.0
 40
0.0
 40
0.0
 10
10.27767417422364
 20
81.09582292040682
 30
0.0
 41
1.0
 10
10.27724210137023
 20
81.65657522209911
 30
0.0
 41
0.7082238011118341
 10
9.715595105444333
 20
81.65770515434426
 30
0.0
 41
1.0
  0
SPLINE
  5
3E
330
1F
100
AcDbEntity
  8
MAKE2D VISIBLE LINES
100
AcDbSpline
210
0.0
220
0.0
230
1.0
 70
     8
 71
     3
 72
    13
 73
     9
 74
     0
 42
0.0000000001
 43
0.0000000001
 40
0.0
 40
0.0
 40
0.0
 40
0.0
 40
0.2067584192797316
 40
0.4192453923779486
 40
0.865275026023634
 40
1.203943889513886
 40
1.700608404510488
 40
3.24129182343059
 40
3.24129182343059
 40
3.24129182343059
 40
3.24129182343059
 10
9.715595105444333
 20
81.65770515434426
 30
0.0
 10
9.644028518648474
 20
81.65720638854624
 30
0.0
 10
9.50895369293662
 20
81.63277745981023
 30
0.0
 10
9.248326623133204
 20
81.48342998410271
 30
0.0
 10
9.093614992777564
 20
81.17674133121345
 30
0.0
 10
9.01265249289589
 20
80.75809775861639
 30
0.0
 10
8.90485195595666
 20
79.97265380959735
 30
0.0
 10
8.855942054227839
 20
79.29529198629228
 30
0.0
 10
8.818188156890518
 20
78.78308472774023
 30
0.0
  0
SPLINE
  5
3F
330
1F
100
AcDbEntity
  8
MAKE2D VISIBLE LINES
100
AcDbSpline
210
0.0
220
0.0
230
1.0
 70
     8
 71
     3
 72
    12
 73
     8
 74
     0
 42
0.0000000001
 43
0.0000000001
 40
0.0
 40
0.0
 40
0.0
 40
0.0
 40
1.802513261316641
 40
2.830644998100385
 40
3.638444201131116
 40
3.913925955063766
 40
4.09105482492869
 40
4.09105482492869
 40
4.09105482492869
 40
4.09105482492869
 10
9.81550094831196
 20
76.73978467613108
 30
0.0
 10
9.853863955744753
 20
77.33938145341443
 30
0.0
 10
9.907590900917674
 20
78.28146676099374
 30
0.0
 10
9.99791810960164
 20
79.49089638939417
 30
0.0
 10
10.06803643508468
 20
80.19139175155992
 30
0.0
 10
10.1294484198098
 20
80.60707295024486
 30
0.0
 10
10.15990536532273
 20
80.7550025930238
 30
0.0
 10
10.177285360678
 20
80.81146072673957
 30
0.0
  0
ARC
  5
40
330
1F
100
AcDbEntity
  8
MAKE2D VISIBLE LINES
100
AcDbCircle
 10
8.507687653015815
 20
61.52752828144318
 30
0.0
 40
0.5473593014172327
100
AcDbArc
 50
359.6410309783676
 51
42.6598130160982
  0
ARC
  5
41
330
1F
100
AcDbEntity
  8
MAKE2D VISIBLE LINES
100
AcDbCircle
 10
8.475147587454073
 20
61.52426079981644
 30
0.0
 40
0.5798886469446076
100
AcDbArc
 50
314.796461916554
 51
359.9840127224279
  0
SPLINE
  5
42
330
1F
100
AcDbEntity
  8
MAKE2D VISIBLE LINES
100
AcDbSpline
210
0.0
220
0.0
230
1.0
 70
    12
 71
     2
 72
     6
 73
     3
 74
     0
 42
0.0000000001
 43
0.0000000001
 40
0.0
 40
0.0
 40
0.0
 40
0.0277033917528687
 40
0.0277033917528687
 40
0.0277033917528687
 10
8.971313860392135
 20
80.437261360628
 30
0.0
 41
1.0
 10
8.97088041011172
 20
80.42341627826808
 30
0.0
 41
0.9999816049464368
 10
8.970614942138589
 20
80.40956695657158
 30
0.0
 41
1.0
  0
SPLINE
  5
43
330
1F
100
AcDbEntity
  8
MAKE2D VISIBLE LINES
100
AcDbSpline
210
0.0
220
0.0
230
1.0
 70
    12
 71
     2
 72
     6
 73
     3
 74
     0
 42
0.0000000001
 43
0.0000000001
 40
0.0
 40
0.0
 40
0.0
 40
2.637119918663169
 40
2.637119918663169
 40
2.637119918663169
 10
8.972404681379107
 20
80.45888212121402
 30
0.0
 41
1.0
 10
7.752655992797135
 20
79.95437738041034
 30
0.0
 41
0.9984022397453695
 10
6.483772193839568
 20
79.59072122202191
 30
0.0
 41
1.0
  0
SPLINE
  5
44
330
1F
100
AcDbEntity
  8
MAKE2D VISIBLE LINES
100
AcDbSpline
210
0.0
220
0.0
230
1.0
 70
    12
 71
     2
 72
     6
 73
     3
 74
     0
 42
0.0000000001
 43
0.0000000001
 40
0.0
 40
0.0
 40
0.0
 40
1.671523865440103
 40
1.671523865440103
 40
1.671523865440103
 10
7.336886142953337
 20
79.32946025911464
 30
0.0
 41
1.0
 10
8.133029843528426
 20
79.58485926453825
 30
0.0
 41
0.9993826318049557
 10
8.909273108283013
 20
79.89553568440287
 30
0.0
 41
1.0
  0
SPLINE
  5
45
330
1F
100
AcDbEntity
  8
MAKE2D VISIBLE LINES
100
AcDbSpline
210
0.0
220
0.0
230
1.0
 70
    12
 71
     2
 72
     6
 73
     3
 74
     0
 42
0.0000000001
 43
0.0000000001
 40
0.0
 40
0.0
 40
0.0
 40
0.1535129193051557
 40
0.1535129193051557
 40
0.1535129193051557
 10
8.97068717137463
 20
80.40988096307395
 30
0.0
 41
1.0
 10
8.96062558575454
 20
80.33378580295921
 30
0.0
 41
0.9999802943697026
 10
8.951520195976716
 20
80.25757031388335
 30
0.0
 41
1.0
  0
ARC
  5
46
330
1F
100
AcDbEntity
  8
MAKE2D VISIBLE LINES
100
AcDbCircle
 10
-8.507687653015815
 20
61.52752828144318
 30
0.0
 40
0.5473593014172327
100
AcDbArc
 50
137.3401869839018
 51
180.3589690216324
  0
ARC
  5
47
330
1F
100
AcDbEntity
  8
MAKE2D VISIBLE LINES
100
AcDbCircle
 10
-8.475147587454073
 20
61.52426079981644
 30
0.0
 40
0.5798886469446076
100
AcDbArc
 50
180.0159872775721
 51
225.2035380834461
  0
SPLINE
  5
48
330
1F
100
AcDbEntity
  8
MAKE2D VISIBLE LINES
100
AcDbSpline
210
0.0
220
0.0
230
1.0
 70
    12
 71
     2
 72
     8
 73
     5
 74
     0
 42
0.0000000001
 43
0.0000000001
 40
0.0
 40
0.0
 40
0.0
 40
0.3670684445243085
 40
0.3670684445243085
 40
0.3678000097614414
 40
0.3678000097614414
 40
0.3678000097614414
 10
-10.16201023225639
 20
80.75352118396879
 30
0.0
 41
1.0
 10
-10.27757895405363
 20
80.9047550118247
 30
0.0
 41
0.9472483774171215
 10
-10.27757790779869
 20
81.09509103086656
 30
0.0
 41
1.0
 10
-10.27757790779869
 20
81.09545681353669
 30
0.0
 41
0.9999997886178166
 10
-10.27767417422364
 20
81.09582292040682
 30
0.0
 41
1.0
  0
SPLINE
  5
49
330
1F
100
AcDbEntity
  8
MAKE2D VISIBLE LINES
100
AcDbSpline
210
0.0
220
0.0
230
1.0
 70
    12
 71
     2
 72
     6
 73
     3
 74
     0
 42
0.0000000001
 43
0.0000000001
 40
-0.8818383843788322
 40
-0.8818383843788322
 40
-0.8818383843788322
 40
0.0
 40
0.0
 40
0.0
 10
-10.27767417422364
 20
81.09582292040682
 30
0.0
 41
1.0
 10
-10.27724210137023
 20
81.65657522209911
 30
0.0
 41
0.7082238011118341
 10
-9.715595105444333
 20
81.65770515434426
 30
0.0
 41
1.0
  0
SPLINE
  5
4A
330
1F
100
AcDbEntity
  8
MAKE2D VISIBLE LINES
100
AcDbSpline
210
0.0
220
0.0
230
1.0
 70
     8
 71
     3
 72
    13
 73
     9
 74
     0
 42
0.0000000001
 43
0.0000000001
 40
0.0
 40
0.0
 40
0.0
 40
0.0
 40
0.2067584192797316
 40
0.4192453923779486
 40
0.865275026023634
 40
1.203943889513886
 40
1.700608404510488
 40
3.24129182343059
 40
3.24129182343059
 40
3.24129182343059
 40
3.24129182343059
 10
-9.715595105444333
 20
81.65770515434426
 30
0.0
 10
-9.644028518648474
 20
81.65720638854624
 30
0.0
 10
-9.50895369293662
 20
81.63277745981023
 30
0.0
 10
-9.248326623133204
 20
81.48342998410271
 30
0.0
 10
-9.093614992777564
 20
81.17674133121345
 30
0.0
 10
-9.01265249289589
 20
80.75809775861639
 30
0.0
 10
-8.90485195595666
 20
79.97265380959735
 30
0.0
 10
-8.855942054227839
 20
79.29529198629228
 30
0.0
 10
-8.818188156890518
 20
78.78308472774023
 30
0.0
  0
SPLINE
  5
4B
330
1F
100
AcDbEntity
  8
MAKE2D VISIBLE LINES
100
AcDbSpline
210
0.0
220
0.0
230
1.0
 70
    12
 71
     2
 72
     6
 73
     3
 74
     0
 42
0.0000000001
 43
0.0000000001
 40
0.0
 40
0.0
 40
0.0
 40
0.2284141118063499
 40
0.2284141118063499
 40
0.2284141118063499
 10
-8.821641720161097
 20
30.33607100149779
 30
0.0
 41
1.0
 10
-8.935190004855155
 20
30.3483207147391
 30
0.0
 41
0.9999990332147088
 10
-9.048703783323134
 20
30.36088616456708
 30
0.0
 41
1.0
  0
SPLINE
  5
4C
330
1F
100
AcDbEntity
  8
MAKE2D VISIBLE LINES
100
AcDbSpline
210
0.0
220
0.0
230
1.0
 70
    24
 71
     2
 72
     6
 73
     3
 74
     0
 42
0.0000000001
 43
0.0000000001
 40
0.0
 40
0.0
 40
0.0
 40
16.76904379744363
 40
16.76904379744363
 40
16.76904379744363
 10
-8.179327161566388
 20
12.34893471286017
 30
0.0
 10
-8.062699924669536
 20
20.7326454400835
 30
0.0
 10
-7.946072687772684
 20
29.11635616730683
 30
0.0
  0
SPLINE
  5
4D
330
1F
100
AcDbEntity
  8
MAKE2D VISIBLE LINES
100
AcDbSpline
210
0.0
220
0.0
230
1.0
 70
    24
 71
     2
 72
     6
 73
     3
 74
     0
 42
0.0000000001
 43
0.0000000001
 40
0.0
 40
0.0
 40
0.0
 40
11.19858422692651
 40
11.19858422692651
 40
11.19858422692651
 10
-8.349005840446832
 20
0.1516384537606148
 30
0.0
 10
-8.271120663968123
 20
5.750388856410895
 30
0.0
 10
-8.193235487489414
 20
11.34913925906118
 30
0.0
  0
SPLINE
  5
4E
330
1F
100
AcDbEntity
  8
MAKE2D VISIBLE LINES
100
AcDbSpline
210
0.0
220
0.0
230
1.0
 70
     8
 71
     3
 72
    12
 73
     8
 74
     0
 42
0.0000000001
 43
0.0000000001
 40
0.0
 40
0.0
 40
0.0
 40
0.0
 40
0.1340381984017992
 40
0.26123221353169
 40
0.4613717576740069
 40
0.6425263264191151
 40
0.9012720204707741
 40
0.9012720204707741
 40
0.9012720204707741
 40
0.9012720204707741
 10
-9.070244703897686
 20
29.18369700464941
 30
0.0
 10
-9.10632393617778
 20
29.20887086373729
 30
0.0
 10
-9.172788674495674
 20
29.26911272664667
 30
0.0
 10
-9.270076555256242
 20
29.38260688380782
 30
0.0
 10
-9.341590031718866
 20
29.55287424454335
 30
0.0
 10
-9.24002450220043
 20
29.75503815205957
 30
0.0
 10
-9.12720801069273
 20
29.84700544031513
 30
0.0
 10
-9.060249395869977
 20
29.90220658557865
 30
0.0
  0
SPLINE
  5
4F
330
1F
100
AcDbEntity
  8
MAKE2D VISIBLE LINES
100
AcDbSpline
210
0.0
220
0.0
230
1.0
 70
     8
 71
     3
 72
    16
 73
    12
 74
     0
 42
0.0000000001
 43
0.0000000001
 40
0.0
 40
0.0
 40
0.0
 40
0.0
 40
0.0048943814559885
 40
0.3998145956759581
 40
0.6093643102546916
 40
0.827151623906513
 40
1.010536402295179
 40
1.125829395863809
 40
1.174340553723367
 40
1.191619902304069
 40
1.198485555255068
 40
1.198485555255068
 40
1.198485555255068
 40
1.198485555255068
 10
-8.197302399075408
 20
11.35183283752628
 30
0.0
 10
-8.192431819404778
 20
11.34723593911013
 30
0.0
 10
-8.269874932090804
 20
11.45407353627774
 30
0.0
 10
-8.409511280891511
 20
11.60031675481681
 30
0.0
 10
-8.521621846819237
 20
11.86485268802311
 30
0.0
 10
-8.429173630631329
 20
12.06441511302053
 30
0.0
 10
-8.32306275580143
 20
12.19185909092356
 30
0.0
 10
-8.246100410359556
 20
12.28341922949344
 30
0.0
 10
-8.204966260082056
 20
12.32465646422218
 30
0.0
 10
-8.187500066983802
 20
12.34302692253441
 30
0.0
 10
-8.181573009862309
 20
12.34769115528761
 30
0.0
 10
-8.17948768998879
 20
12.34893694599857
 30
0.0
  0
SPLINE
  5
50
330
1F
100
AcDbEntity
  8
MAKE2D VISIBLE LINES
100
AcDbSpline
210
0.0
220
0.0
230
1.0
 70
    24
 71
     2
 72
     6
 73
     3
 74
     0
 42
0.0000000001
 43
0.0000000001
 40
0.0
 40
0.0
 40
0.0
 40
30.1899448026857
 40
30.1899448026857
 40
30.1899448026857
 10
-9.473897127164669
 20
0.1672749006677505
 30
0.0
 10
-9.263928694442063
 20
15.26078691923263
 30
0.0
 10
-9.053960261719457
 20
30.35429893779751
 30
0.0
  0
SPLINE
  5
51
330
1F
100
AcDbEntity
  8
MAKE2D VISIBLE LINES
100
AcDbSpline
210
0.0
220
0.0
230
1.0
 70
    12
 71
     2
 72
    16
 73
    13
 74
     0
 42
0.0000000001
 43
0.0000000001
 40
-2.214773605981371
 40
-2.214773605981371
 40
-2.214773605981371
 40
-1.660484431630388
 40
-1.660484431630388
 40
-1.098538968595709
 40
-1.098538968595709
 40
-1.014656355530252
 40
-1.014656355530252
 40
-0.9241415837742845
 40
-0.9241415837742845
 40
-0.4681485405974217
 40
-0.4681485405974217
 40
0.0
 40
0.0
 40
0.0
 10
-9.46558306176819
 20
0.1689878133418916
 30
0.0
 41
1.000000103610334
 10
-9.18862262678768
 20
0.1820864738399861
 30
0.0
 41
0.9992871719574524
 10
-8.911463380435176
 20
0.1742500452689888
 30
0.0
 41
1.000000103610334
 10
-8.630293133044054
 20
0.1763851430366265
 30
0.0
 41
0.998868969273511
 10
-8.350198263834471
 20
0.1517247099772598
 30
0.0
 41
1.0
 10
-8.350797897452539
 20
0.1097483121652538
 30
0.0
 41
1.0
 10
-8.351397531070607
 20
0.0677719143532478
 30
0.0
 41
1.0
 10
-8.35353581818605
 20
0.012885688119276
 30
0.0
 41
0.7557362780887492
 10
-8.408164921196214
 20
0.0071936935387414
 30
0.0
 41
1.0
 10
-8.686682118548479
 20
-0.0027861609685559
 30
0.0
 41
0.9997341125134014
 10
-8.91467571342552
 20
0.0016601357645164
 30
0.0
 41
1.0
 10
-9.148794641373263
 20
0.0033116725472247
 30
0.0
 41
0.9996765963466815
 10
-9.421235769506275
 20
0.021343616095259
 30
0.0
 41
1.0
  0
SPLINE
  5
52
330
1F
100
AcDbEntity
  8
MAKE2D VISIBLE LINES
100
AcDbSpline
210
0.0
220
0.0
230
1.0
 70
    12
 71
     2
 72
     6
 73
     3
 74
     0
 42
0.0000000001
 43
0.0000000001
 40
-0.0905053209521182
 40
-0.0905053209521182
 40
-0.0905053209521182
 40
0.0
 40
0.0
 40
0.0
 10
-9.421235769506275
 20
0.021343616095259
 30
0.0
 41
1.0
 10
-9.475769671497742
 20
0.0284224218270832
 30
0.0
 41
0.7543480160102284
 10
-9.47628877552152
 20
0.0834144149642935
 30
0.0
 41
1.0
  0
SPLINE
  5
53
330
1F
100
AcDbEntity
  8
MAKE2D VISIBLE LINES
100
AcDbSpline
210
0.0
220
0.0
230
1.0
 70
    24
 71
     2
 72
     6
 73
     3
 74
     0
 42
0.0000000001
 43
0.0000000001
 40
-0.0838826130654557
 40
-0.0838826130654557
 40
-0.0838826130654557
 40
0.0
 40
0.0
 40
0.0
 10
-9.47628877552152
 20
0.0834144149642935
 30
0.0
 10
-9.47570535829492
 20
0.1253531771140955
 30
0.0
 10
-9.475121941068323
 20
0.1672919392638976
 30
0.0
  0
SPLINE
  5
54
330
1F
100
AcDbEntity
  8
MAKE2D VISIBLE LINES
100
AcDbSpline
210
0.0
220
0.0
230
1.0
 70
    12
 71
     2
 72
     6
 73
     3
 74
     0
 42
0.0000000001
 43
0.0000000001
 40
-30.14988097534397
 40
-30.14988097534397
 40
-30.14988097534397
 40
0.0
 40
0.0
 40
0.0
 10
-10.276405344255
 20
0.1672518617340728
 30
0.0
 41
1.0
 10
-10.04461599742736
 20
15.24041027006438
 30
0.0
 41
0.9999999999999979
 10
-9.811931029300695
 20
30.35728179991154
 30
0.0
 41
1.0
  0
SPLINE
  5
55
330
1F
100
AcDbEntity
  8
MAKE2D VISIBLE LINES
100
AcDbSpline
210
0.0
220
0.0
230
1.0
 70
    12
 71
     2
 72
    16
 73
    13
 74
     0
 42
0.0000000001
 43
0.0000000001
 40
0.0
 40
0.0
 40
0.0
 40
0.0256193606518451
 40
0.0256193606518451
 40
0.0597676870129098
 40
0.0597676870129098
 40
0.1098208004726134
 40
0.1098208004726134
 40
0.1778550053785159
 40
0.1778550053785159
 40
0.2715304102713095
 40
0.2715304102713095
 40
0.3521808302996111
 40
0.3521808302996111
 40
0.3521808302996111
 10
-9.811931029300695
 20
30.35728179991154
 30
0.0
 41
1.0
 10
-9.813247443378199
 20
30.34399292311947
 30
0.0
 41
0.9399736737492735
 10
-9.805732101582251
 20
30.33295449795514
 30
0.0
 41
1.0
 10
-9.795997291857857
 20
30.31866790373563
 30
0.0
 41
0.9815532607704681
 10
-9.781612054687212
 20
30.30907946036317
 30
0.0
 41
1.0
 10
-9.760884950381488
 20
30.29489584533984
 30
0.0
 41
0.9946970531954401
 10
-9.737694289394238
 20
30.28525317812561
 30
0.0
 41
1.0
 10
-9.706326387368582
 20
30.27197802797654
 30
0.0
 41
0.99805299216939
 10
-9.673549779459588
 20
30.26271148261427
 30
0.0
 41
1.0
 10
-9.628470604149538
 20
30.2498728808297
 30
0.0
 41
0.9989104880178763
 10
-9.582390798798794
 20
30.2412930625767
 30
0.0
 41
1.0
 10
-9.542753755917929
 20
30.23382376242164
 30
0.0
 41
0.9996482269205506
 10
-9.502776412351878
 20
30.2284667469701
 30
0.0
 41
1.0
  0
SPLINE
  5
56
330
1F
100
AcDbEntity
  8
MAKE2D VISIBLE LINES
100
AcDbSpline
210
0.0
220
0.0
230
1.0
 70
    12
 71
     2
 72
     6
 73
     3
 74
     0
 42
0.0000000001
 43
0.0000000001
 40
0.0
 40
0.0
 40
0.0
 40
0.4478187281420624
 40
0.4478187281420624
 40
0.4478187281420624
 10
-9.502776412351878
 20
30.2284667469701
 30
0.0
 41
1.0
 10
-9.279966574591564
 20
30.19966889329176
 30
0.0
 41
0.9949746801232122
 10
-9.055886349749017
 20
30.21584273061535
 30
0.0
 41
1.0
  0
SPLINE
  5
57
330
1F
100
AcDbEntity
  8
MAKE2D VISIBLE LINES
100
AcDbSpline
210
0.0
220
0.0
230
1.0
 70
    12
 71
     2
 72
     6
 73
     3
 74
     0
 42
0.0000000001
 43
0.0000000001
 40
-0.8432572339889038
 40
-0.8432572339889038
 40
-0.8432572339889038
 40
0.0
 40
0.0
 40
0.0
 10
-9.053960261719457
 20
30.35429893779751
 30
0.0
 41
1.0
 10
-8.216943655446393
 20
29.43959807691484
 30
0.0
 41
0.9998162619952388
 10
-7.946075845531958
 20
29.11641874341448
 30
0.0
 41
1.0
  0
SPLINE
  5
58
330
1F
100
AcDbEntity
  8
MAKE2D VISIBLE LINES
100
AcDbSpline
210
0.0
220
0.0
230
1.0
 70
    24
 71
     2
 72
     6
 73
     3
 74
     0
 42
0.0000000001
 43
0.0000000001
 40
0.0
 40
0.0
 40
0.0
 40
0.8012062076846513
 40
0.8012062076846513
 40
0.8012062076846513
 10
-9.475293872289964
 20
0.1549327197381241
 30
0.0
 10
-9.875897937138031
 20
0.1610853587530914
 30
0.0
 10
-10.2765020019861
 20
0.1672379977680588
 30
0.0
  0
SPLINE
  5
59
330
1F
100
AcDbEntity
  8
MAKE2D VISIBLE LINES
100
AcDbSpline
210
0.0
220
0.0
230
1.0
 70
    24
 71
     2
 72
     6
 73
     3
 74
     0
 42
0.0000000001
 43
0.0000000001
 40
0.0
 40
0.0
 40
0.0
 40
0.0839190555371661
 40
0.0839190555371661
 40
0.0839190555371661
 10
-10.2765020019861
 20
0.1672379977680588
 30
0.0
 10
-10.27713375701134
 20
0.1252755127101097
 30
0.0
 10
-10.27776551203658
 20
0.0833130276521606
 30
0.0
  0
SPLINE
  5
5A
330
1F
100
AcDbEntity
  8
MAKE2D VISIBLE LINES
100
AcDbSpline
210
0.0
220
0.0
230
1.0
 70
    12
 71
     2
 72
     6
 73
     3
 74
     0
 42
0.0000000001
 43
0.0000000001
 40
0.0
 40
0.0
 40
0.0
 40
0.0904184490542389
 40
0.0904184490542389
 40
0.0904184490542389
 10
-10.27776551203658
 20
0.0833130276521606
 30
0.0
 41
1.0
 10
-10.27839261898323
 20
0.0271834079923504
 30
0.0
 41
0.7320995322254283
 10
-10.22244650537904
 20
0.0225908653524315
 30
0.0
 41
1.0
  0
SPLINE
  5
5B
330
1F
100
AcDbEntity
  8
MAKE2D VISIBLE LINES
100
AcDbSpline
210
0.0
220
0.0
230
1.0
 70
    12
 71
     2
 72
     6
 73
     3
 74
     0
 42
0.0000000001
 43
0.0000000001
 40
0.0
 40
0.0
 40
0.0
 40
0.5064059952311961
 40
0.5064059952311961
 40
0.5064059952311961
 10
-10.22244650537904
 20
0.0225908653524315
 30
0.0
 41
1.0
 10
-9.969362562920319
 20
0.0142314352179153
 30
0.0
 41
0.9999163867220515
 10
-9.716152449777464
 20
0.0123486607531277
 30
0.0
 41
1.0
  0
SPLINE
  5
5C
330
1F
100
AcDbEntity
  8
MAKE2D VISIBLE LINES
100
AcDbSpline
210
0.0
220
0.0
230
1.0
 70
    12
 71
     2
 72
     6
 73
     3
 74
     0
 42
0.0000000001
 43
0.0000000001
 40
0.0
 40
0.0
 40
0.0
 40
0.3581630989211183
 40
0.3581630989211183
 40
0.3581630989211183
 10
-9.716152449777464
 20
0.0123486607531277
 30
0.0
 41
1.0
 10
-9.537088559719534
 20
0.009794930179521
 30
0.0
 41
0.9999953951611111
 10
-9.358012468142036
 20
0.0083280669113277
 30
0.0
 41
1.0
  0
SPLINE
  5
5D
330
1F
100
AcDbEntity
  8
MAKE2D VISIBLE LINES
100
AcDbSpline
210
0.0
220
0.0
230
1.0
 70
    12
 71
     2
 72
    16
 73
    13
 74
     0
 42
0.0000000001
 43
0.0000000001
 40
-2.214773605981371
 40
-2.214773605981371
 40
-2.214773605981371
 40
-1.660484431630388
 40
-1.660484431630388
 40
-1.098538968595709
 40
-1.098538968595709
 40
-1.014656355530252
 40
-1.014656355530252
 40
-0.9241415837742845
 40
-0.9241415837742845
 40
-0.4681485405974217
 40
-0.4681485405974217
 40
0.0
 40
0.0
 40
0.0
 10
9.46558306176819
 20
0.1689878133418916
 30
0.0
 41
1.000000103610334
 10
9.18862262678768
 20
0.1820864738399861
 30
0.0
 41
0.9992871719574524
 10
8.911463380435176
 20
0.1742500452689888
 30
0.0
 41
1.000000103610334
 10
8.630293133044054
 20
0.1763851430366265
 30
0.0
 41
0.998868969273511
 10
8.350198263834471
 20
0.1517247099772598
 30
0.0
 41
1.0
 10
8.350797897452539
 20
0.1097483121652538
 30
0.0
 41
1.0
 10
8.351397531070607
 20
0.0677719143532478
 30
0.0
 41
1.0
 10
8.35353581818605
 20
0.012885688119276
 30
0.0
 41
0.7557362780887492
 10
8.408164921196214
 20
0.0071936935387414
 30
0.0
 41
1.0
 10
8.686682118548479
 20
-0.0027861609685559
 30
0.0
 41
0.9997341125134014
 10
8.91467571342552
 20
0.0016601357645164
 30
0.0
 41
1.0
 10
9.148794641373263
 20
0.0033116725472247
 30
0.0
 41
0.9996765963466815
 10
9.421235769506275
 20
0.021343616095259
 30
0.0
 41
1.0
  0
SPLINE
  5
5E
330
1F
100
AcDbEntity
  8
MAKE2D VISIBLE LINES
100
AcDbSpline
210
0.0
220
0.0
230
1.0
 70
    12
 71
     2
 72
     6
 73
     3
 74
     0
 42
0.0000000001
 43
0.0000000001
 40
-0.0905053209521182
 40
-0.0905053209521182
 40
-0.0905053209521182
 40
0.0
 40
0.0
 40
0.0
 10
9.421235769506275
 20
0.021343616095259
 30
0.0
 41
1.0
 10
9.475769671497742
 20
0.0284224218270832
 30
0.0
 41
0.7543480160102284
 10
9.47628877552152
 20
0.0834144149642935
 30
0.0
 41
1.0
  0
SPLINE
  5
5F
330
1F
100
AcDbEntity
  8
MAKE2D VISIBLE LINES
100
AcDbSpline
210
0.0
220
0.0
230
1.0
 70
    24
 71
     2
 72
     6
 73
     3
 74
     0
 42
0.0000000001
 43
0.0000000001
 40
-0.0838826130654557
 40
-0.0838826130654557
 40
-0.0838826130654557
 40
0.0
 40
0.0
 40
0.0
 10
9.47628877552152
 20
0.0834144149642935
 30
0.0
 10
9.47570535829492
 20
0.1253531771140955
 30
0.0
 10
9.475121941068323
 20
0.1672919392638976
 30
0.0
  0
SPLINE
  5
60
330
1F
100
AcDbEntity
  8
MAKE2D VISIBLE LINES
100
AcDbSpline
210
0.0
220
0.0
230
1.0
 70
    24
 71
     2
 72
     6
 73
     3
 74
     0
 42
0.0000000001
 43
0.0000000001
 40
0.0
 40
0.0
 40
0.0
 40
0.8012062076846513
 40
0.8012062076846513
 40
0.8012062076846513
 10
9.475293872289964
 20
0.1549327197381241
 30
0.0
 10
9.875897937138031
 20
0.1610853587530914
 30
0.0
 10
10.2765020019861
 20
0.1672379977680588
 30
0.0
  0
SPLINE
  5
61
330
1F
100
AcDbEntity
  8
MAKE2D VISIBLE LINES
100
AcDbSpline
210
0.0
220
0.0
230
1.0
 70
    24
 71
     2
 72
     6
 73
     3
 74
     0
 42
0.0000000001
 43
0.0000000001
 40
0.0
 40
0.0
 40
0.0
 40
0.0839190555371661
 40
0.0839190555371661
 40
0.0839190555371661
 10
10.2765020019861
 20
0.1672379977680588
 30
0.0
 10
10.27713375701134
 20
0.1252755127101097
 30
0.0
 10
10.27776551203658
 20
0.0833130276521606
 30
0.0
  0
SPLINE
  5
62
330
1F
100
AcDbEntity
  8
MAKE2D VISIBLE LINES
100
AcDbSpline
210
0.0
220
0.0
230
1.0
 70
    12
 71
     2
 72
     6
 73
     3
 74
     0
 42
0.0000000001
 43
0.0000000001
 40
0.0
 40
0.0
 40
0.0
 40
0.0904184490542389
 40
0.0904184490542389
 40
0.0904184490542389
 10
10.27776551203658
 20
0.0833130276521606
 30
0.0
 41
1.0
 10
10.27839261898323
 20
0.0271834079923504
 30
0.0
 41
0.7320995322254283
 10
10.22244650537904
 20
0.0225908653524315
 30
0.0
 41
1.0
  0
SPLINE
  5
63
330
1F
100
AcDbEntity
  8
MAKE2D VISIBLE LINES
100
AcDbSpline
210
0.0
220
0.0
230
1.0
 70
    12
 71
     2
 72
     6
 73
     3
 74
     0
 42
0.0000000001
 43
0.0000000001
 40
0.0
 40
0.0
 40
0.0
 40
0.5064059952311961
 40
0.5064059952311961
 40
0.5064059952311961
 10
10.22244650537904
 20
0.0225908653524315
 30
0.0
 41
1.0
 10
9.969362562920319
 20
0.0142314352179153
 30
0.0
 41
0.9999163867220515
 10
9.716152449777464
 20
0.0123486607531277
 30
0.0
 41
1.0
  0
SPLINE
  5
64
330
1F
100
AcDbEntity
  8
MAKE2D VISIBLE LINES
100
AcDbSpline
210
0.0
220
0.0
230
1.0
 70
    12
 71
     2
 72
     6
 73
     3
 74
     0
 42
0.0000000001
 43
0.0000000001
 40
0.0
 40
0.0
 40
0.0
 40
0.3581630989211183
 40
0.3581630989211183
 40
0.3581630989211183
 10
9.716152449777464
 20
0.0123486607531277
 30
0.0
 41
1.0
 10
9.537088559719534
 20
0.009794930179521
 30
0.0
 41
0.9999953951611111
 10
9.358012468142036
 20
0.0083280669113277
 30
0.0
 41
1.0
  0
SPLINE
  5
65
330
1F
100
AcDbEntity
  8
MAKE2D VISIBLE LINES
100
AcDbSpline
210
0.0
220
0.0
230
1.0
 70
    12
 71
     2
 72
     6
 73
     3
 74
     0
 42
0.0000000001
 43
0.0000000001
 40
-0.8432572339889038
 40
-0.8432572339889038
 40
-0.8432572339889038
 40
0.0
 40
0.0
 40
0.0
 10
9.053960261719457
 20
30.35429893779751
 30
0.0
 41
1.0
 10
8.216943655446393
 20
29.43959807691484
 30
0.0
 41
0.9998162619952388
 10
7.946075845531958
 20
29.11641874341448
 30
0.0
 41
1.0
  0
SPLINE
  5
66
330
1F
100
AcDbEntity
  8
MAKE2D VISIBLE LINES
100
AcDbSpline
210
0.0
220
0.0
230
1.0
 70
    12
 71
     2
 72
     6
 73
     3
 74
     0
 42
0.0000000001
 43
0.0000000001
 40
-30.14988097534397
 40
-30.14988097534397
 40
-30.14988097534397
 40
0.0
 40
0.0
 40
0.0
 10
10.276405344255
 20
0.1672518617340728
 30
0.0
 41
1.0
 10
10.04461599742736
 20
15.24041027006438
 30
0.0
 41
0.9999999999999979
 10
9.811931029300695
 20
30.35728179991154
 30
0.0
 41
1.0
  0
SPLINE
  5
67
330
1F
100
AcDbEntity
  8
MAKE2D VISIBLE LINES
100
AcDbSpline
210
0.0
220
0.0
230
1.0
 70
    12
 71
     2
 72
    16
 73
    13
 74
     0
 42
0.0000000001
 43
0.0000000001
 40
0.0
 40
0.0
 40
0.0
 40
0.0256193606518451
 40
0.0256193606518451
 40
0.0597676870129098
 40
0.0597676870129098
 40
0.1098208004726134
 40
0.1098208004726134
 40
0.1778550053785159
 40
0.1778550053785159
 40
0.2715304102713095
 40
0.2715304102713095
 40
0.3521808302996111
 40
0.3521808302996111
 40
0.3521808302996111
 10
9.811931029300695
 20
30.35728179991154
 30
0.0
 41
1.0
 10
9.813247443378199
 20
30.34399292311947
 30
0.0
 41
0.9399736737492735
 10
9.805732101582251
 20
30.33295449795514
 30
0.0
 41
1.0
 10
9.795997291857857
 20
30.31866790373563
 30
0.0
 41
0.9815532607704681
 10
9.781612054687212
 20
30.30907946036317
 30
0.0
 41
1.0
 10
9.760884950381488
 20
30.29489584533984
 30
0.0
 41
0.9946970531954401
 10
9.737694289394238
 20
30.28525317812561
 30
0.0
 41
1.0
 10
9.706326387368582
 20
30.27197802797654
 30
0.0
 41
0.99805299216939
 10
9.673549779459588
 20
30.26271148261427
 30
0.0
 41
1.0
 10
9.628470604149538
 20
30.2498728808297
 30
0.0
 41
0.9989104880178763
 10
9.582390798798794
 20
30.2412930625767
 30
0.0
 41
1.0
 10
9.542753755917929
 20
30.23382376242164
 30
0.0
 41
0.9996482269205506
 10
9.502776412351878
 20
30.2284667469701
 30
0.0
 41
1.0
  0
SPLINE
  5
68
330
1F
100
AcDbEntity
  8
MAKE2D VISIBLE LINES
100
AcDbSpline
210
0.0
220
0.0
230
1.0
 70
    12
 71
     2
 72
     6
 73
     3
 74
     0
 42
0.0000000001
 43
0.0000000001
 40
0.0
 40
0.0
 40
0.0
 40
0.4478187281420624
 40
0.4478187281420624
 40
0.4478187281420624
 10
9.502776412351878
 20
30.2284667469701
 30
0.0
 41
1.0
 10
9.279966574591564
 20
30.19966889329176
 30
0.0
 41
0.9949746801232122
 10
9.055886349749017
 20
30.21584273061535
 30
0.0
 41
1.0
  0
SPLINE
  5
69
330
1F
100
AcDbEntity
  8
MAKE2D VISIBLE LINES
100
AcDbSpline
210
0.0
220
0.0
230
1.0
 70
     8
 71
     3
 72
    14
 73
    10
 74
     0
 42
0.0000000001
 43
0.0000000001
 40
-29.61249063286822
 40
-29.61249063286822
 40
-29.61249063286822
 40
-29.61249063286822
 40
-25.46929908936273
 40
-24.22812600268948
 40
-21.17696221667365
 40
-14.39108908695449
 40
-7.417604482609248
 40
-3.371644092444409
 40
0.0
 40
0.0
 40
0.0
 40
0.0
 10
31.30929105580695
 20
30.21029201069962
 30
0.0
 10
30.77941951040474
 20
28.04629582848626
 30
0.0
 10
30.34179226633911
 20
26.30563279703358
 30
0.0
 10
29.67280468605551
 20
23.57457301720421
 30
0.0
 10
28.85579508676193
 20
19.97290166480668
 30
0.0
 10
27.88417344423682
 20
14.45110317200315
 30
0.0
 10
27.25220031372152
 20
8.546228758409622
 30
0.0
 10
26.99778117229596
 20
3.755059714642098
 30
0.0
 10
26.95710128791005
 20
1.282466496560848
 30
0.0
 10
26.95694204897866
 20
0.1586030010180774
 30
0.0
  0
SPLINE
  5
6A
330
1F
100
AcDbEntity
  8
MAKE2D VISIBLE LINES
100
AcDbSpline
210
0.0
220
0.0
230
1.0
 70
    24
 71
     2
 72
     6
 73
     3
 74
     0
 42
0.0000000001
 43
0.0000000001
 40
-29.58843151096517
 40
-29.58843151096517
 40
-29.58843151096517
 40
0.0
 40
0.0
 40
0.0
 10
46.24359683301773
 20
0.1438815473122257
 30
0.0
 10
45.83206673037977
 20
14.93237243700046
 30
0.0
 10
45.42053662774181
 20
29.7208633266887
 30
0.0
  0
SPLINE
  5
6B
330
1F
100
AcDbEntity
  8
MAKE2D VISIBLE LINES
100
AcDbSpline
210
0.0
220
0.0
230
1.0
 70
    12
 71
     3
 72
    10
 73
     6
 74
     0
 42
0.0000000001
 43
0.0000000001
 40
-1.094049485730651
 40
-1.094049485730651
 40
-1.094049485730651
 40
-1.094049485730651
 40
-0.5380030632188038
 40
-0.5380030632188038
 40
0.0
 40
0.0
 40
0.0
 40
0.0
 10
45.42053662774181
 20
29.7208633266887
 30
0.0
 41
1.0
 10
45.4167866359374
 20
29.85562070963117
 30
0.0
 41
1.0
 10
45.45275507662384
 20
29.99985022290302
 30
0.0
 41
1.0
 10
45.62136049751625
 20
30.24029249045535
 30
0.0
 41
1.0
 10
45.76789199812929
 20
30.3557451002976
 30
0.0
 41
1.0
 10
45.96543408672549
 20
30.36124237254337
 30
0.0
 41
1.0
  0
SPLINE
  5
6C
330
1F
100
AcDbEntity
  8
MAKE2D VISIBLE LINES
100
AcDbSpline
210
0.0
220
0.0
230
1.0
 70
    12
 71
     3
 72
    10
 73
     6
 74
     0
 42
0.0000000001
 43
0.0000000001
 40
0.0
 40
0.0
 40
0.0
 40
0.0
 40
0.538468863386672
 40
0.538468863386672
 40
1.094042527383084
 40
1.094042527383084
 40
1.094042527383084
 40
1.094042527383084
 10
45.96543408672549
 20
30.36124237254337
 30
0.0
 41
1.0
 10
46.1631665807992
 20
30.36674469277462
 30
0.0
 41
1.0
 10
46.31599028207501
 20
30.25940900121135
 30
0.0
 41
1.0
 10
46.49749813348819
 20
30.02865174843752
 30
0.0
 41
1.0
 10
46.5413545887352
 20
29.88679655812852
 30
0.0
 41
1.0
 10
46.54510129043666
 20
29.75215740628839
 30
0.0
 41
1.0
  0
SPLINE
  5
6D
330
1F
100
AcDbEntity
  8
MAKE2D VISIBLE LINES
100
AcDbSpline
210
0.0
220
0.0
230
1.0
 70
    24
 71
     2
 72
     6
 73
     3
 74
     0
 42
0.0000000001
 43
0.0000000001
 40
-29.58843151096515
 40
-29.58843151096515
 40
-29.58843151096515
 40
0.0
 40
0.0
 40
0.0
 10
46.54510129043666
 20
29.75215740628839
 30
0.0
 10
46.95663139307462
 20
14.96366651660017
 30
0.0
 10
47.36816149571258
 20
0.1751756269119491
 30
0.0
  0
SPLINE
  5
6E
330
1F
100
AcDbEntity
  8
MAKE2D VISIBLE LINES
100
AcDbSpline
210
0.0
220
0.0
230
1.0
 70
    15
 71
     2
 72
    19
 73
    16
 74
     0
 42
0.0000000001
 43
0.0000000001
 40
-3.434306260239156
 40
-3.434306260239156
 40
-3.434306260239156
 40
-2.911262487156899
 40
-2.911262487156899
 40
-2.348635666454915
 40
-2.348635666454915
 40
-2.264722644070767
 40
-2.264722644070767
 40
-2.174317833227452
 40
-2.174317833227452
 40
-1.174317833227452
 40
-0.1743178332274522
 40
-0.1743178332274522
 40
-0.0839130223841461
 40
-0.0839130223841461
 40
0.0
 40
0.0
 40
0.0
 10
47.36618966407319
 20
0.1751207553173426
 30
0.0
 41
1.0
 10
47.06509830900374
 20
0.1754686584539821
 30
0.0
 41
0.9999168191314707
 10
46.80368976933786
 20
0.1672919386781964
 30
0.0
 41
1.0
 10
46.5223311769915
 20
0.1633729946126753
 30
0.0
 41
0.9996137062945416
 10
46.24162500137832
 20
0.143826675717618
 30
0.0
 41
1.0
 10
46.24279210395697
 20
0.1018864002895576
 30
0.0
 41
1.0
 10
46.24395920653561
 20
0.0599461248614972
 30
0.0
 41
1.0
 10
46.2455271278925
 20
0.0036913177645949
 30
0.0
 41
0.7293564259666073
 10
46.30176711365506
 20
0.001660135764519
 30
0.0
 41
1.0
 10
46.53571362371764
 20
-0.0012351027283613
 30
0.0
 41
1.0
 10
47.08062339574705
 20
0.0139284982153119
 30
0.0
 41
1.0
 10
47.31404684689613
 20
0.0298295808841268
 30
0.0
 41
1.0
 10
47.37008683865422
 20
0.0349852595632894
 30
0.0
 41
0.7293564259668062
 10
47.36852386923047
 20
0.0912402044612239
 30
0.0
 41
1.0
 10
47.36735676665183
 20
0.1331804798892833
 30
0.0
 41
1.0
 10
47.36618966407319
 20
0.1751207553173426
 30
0.0
 41
1.0
  0
SPLINE
  5
6F
330
1F
100
AcDbEntity
  8
MAKE2D VISIBLE LINES
100
AcDbSpline
210
0.0
220
0.0
230
1.0
 70
    12
 71
     2
 72
     9
 73
     6
 74
     0
 42
0.0000000001
 43
0.0000000001
 40
-0.0904048108433102
 40
-0.0904048108433102
 40
-0.0904048108433102
 40
0.0
 40
0.0
 40
1.0
 40
2.0
 40
2.0
 40
2.0
 10
25.83116990912941
 20
0.07912770982478
 30
0.0
 41
1.0
 10
25.83080862052777
 20
0.0228522163179524
 30
0.0
 41
0.7293564259666196
 10
25.88694593222274
 20
0.0188944474323449
 30
0.0
 41
1.0
 10
26.12065572018065
 20
0.0079817489089489
 30
0.0
 41
1.0
 10
26.66576504749924
 20
0.0044581545801625
 30
0.0
 41
1.0
 10
26.89959637963572
 20
0.0123486607531262
 30
0.0
 41
1.0
  0
SPLINE
  5
70
330
1F
100
AcDbEntity
  8
MAKE2D VISIBLE LINES
100
AcDbSpline
210
0.0
220
0.0
230
1.0
 70
    12
 71
     2
 72
     6
 73
     3
 74
     0
 42
0.0000000001
 43
0.0000000001
 40
0.0
 40
0.0
 40
0.0
 40
0.0904048108433017
 40
0.0904048108433017
 40
0.0904048108433017
 10
26.89959637963572
 20
0.0123486607531262
 30
0.0
 41
1.0
 10
26.95578016431178
 20
0.0155803844981987
 30
0.0
 41
0.7293564259667261
 10
26.95614640666004
 20
0.0718558459839276
 30
0.0
 41
1.0
  0
SPLINE
  5
71
330
1F
100
AcDbEntity
  8
MAKE2D VISIBLE LINES
100
AcDbSpline
210
0.0
220
0.0
230
1.0
 70
    24
 71
     2
 72
     6
 73
     3
 74
     0
 42
0.0000000001
 43
0.0000000001
 40
0.0
 40
0.0
 40
0.0
 40
0.0839130223841467
 40
0.0839130223841467
 40
0.0839130223841467
 10
26.95614640666004
 20
0.0718558459839276
 30
0.0
 10
26.95641760847037
 20
0.1138114806590059
 30
0.0
 10
26.95668881028071
 20
0.1557671153340843
 30
0.0
  0
SPLINE
  5
72
330
1F
100
AcDbEntity
  8
MAKE2D VISIBLE LINES
100
AcDbSpline
210
0.0
220
0.0
230
1.0
 70
    12
 71
     2
 72
     8
 73
     5
 74
     0
 42
0.0000000001
 43
0.0000000001
 40
-1.125253641403958
 40
-1.125253641403958
 40
-1.125253641403958
 40
-0.5626268207019698
 40
-0.5626268207019698
 40
0.0
 40
0.0
 40
0.0
 10
26.95668881028071
 20
0.1557671153340843
 30
0.0
 41
1.0
 10
26.67562923637918
 20
0.1693144961881767
 30
0.0
 41
0.9996137062945417
 10
26.39425111712698
 20
0.1672241335824227
 30
0.0
 41
1.0
 10
26.112923533942
 20
0.1729518337321862
 30
0.0
 41
0.9996137062945415
 10
25.83171231275008
 20
0.163038979174936
 30
0.0
 41
1.0
  0
SPLINE
  5
73
330
1F
100
AcDbEntity
  8
MAKE2D VISIBLE LINES
100
AcDbSpline
210
0.0
220
0.0
230
1.0
 70
    24
 71
     2
 72
     6
 73
     3
 74
     0
 42
0.0000000001
 43
0.0000000001
 40
0.0
 40
0.0
 40
0.0
 40
0.0839130223841449
 40
0.0839130223841449
 40
0.0839130223841449
 10
25.83171231275008
 20
0.163038979174936
 30
0.0
 10
25.83144111093975
 20
0.121083344499858
 30
0.0
 10
25.83116990912941
 20
0.07912770982478
 30
0.0
  0
SPLINE
  5
74
330
1F
100
AcDbEntity
  8
MAKE2D VISIBLE LINES
100
AcDbSpline
210
0.0
220
0.0
230
1.0
 70
     8
 71
     3
 72
    12
 73
     8
 74
     0
 42
0.0000000001
 43
0.0000000001
 40
-30.71228672741064
 40
-30.71228672741064
 40
-30.71228672741064
 40
-30.71228672741064
 40
-15.83661619618178
 40
-9.051852068190692
 40
-6.109599801964782
 40
-4.976244890207441
 40
0.0
 40
0.0
 40
0.0
 40
0.0
 10
25.83194219871558
 20
0.1630389664551423
 30
0.0
 10
25.83287364344186
 20
5.121522896155619
 30
0.0
 10
26.35355252842402
 20
12.34177915028427
 30
0.0
 10
27.79904790807632
 20
20.41875780427191
 30
0.0
 10
28.60558546034663
 20
23.94831483947106
 30
0.0
 10
29.32513063357263
 20
26.87849394652661
 30
0.0
 10
29.82129425039435
 20
28.85371493076787
 30
0.0
 10
30.21554737601976
 20
30.46491922835217
 30
0.0
  0
SPLINE
  5
75
330
1F
100
AcDbEntity
  8
MAKE2D VISIBLE LINES
100
AcDbSpline
210
0.0
220
0.0
230
1.0
 70
    12
 71
     2
 72
     8
 73
     5
 74
     0
 42
0.0000000001
 43
0.0000000001
 40
0.0
 40
0.0
 40
0.0
 40
0.5605711386892483
 40
0.5605711386892483
 40
1.125284724561671
 40
1.125284724561671
 40
1.125284724561671
 10
30.21554737601976
 20
30.46491922835217
 30
0.0
 41
1.0
 10
30.49050295415853
 20
30.41007261177873
 30
0.0
 41
0.9995454162833313
 10
30.76165121488619
 20
30.33875455395718
 30
0.0
 41
1.0
 10
31.03682119309468
 20
30.27508965966976
 30
0.0
 41
0.9995639637041813
 10
31.30775322874841
 20
30.19529261881969
 30
0.0
 41
1.0
  0
SPLINE
  5
77
330
1F
100
AcDbEntity
  8
DEFAULT
100
AcDbSpline
210
0.0
220
0.0
230
1.0
 70
    24
 71
     2
 72
     6
 73
     3
 74
     0
 42
0.0000000001
 43
0.0000000001
 40
0.0
 40
0.0
 40
0.0
 40
1.281609588325501
 40
1.281609588325501
 40
1.281609588325501
 10
44.16871801505938
 20
28.73961132851408
 30
0.0
 10
44.80657267106446
 20
28.80102974622917
 30
0.0
 10
45.44442732706953
 20
28.86244816394426
 30
0.0
  0
SPLINE
  5
78
330
1F
100
AcDbEntity
  8
DEFAULT
100
AcDbSpline
210
0.0
220
0.0
230
1.0
 70
    24
 71
     2
 72
     6
 73
     3
 74
     0
 42
0.0000000001
 43
0.0000000001
 40
-0.0992958139205835
 40
-0.0992958139205835
 40
-0.0992958139205835
 40
0.0
 40
0.0
 40
0.0
 10
36.71158771503026
 20
28.76431403830506
 30
0.0
 10
36.76104087640466
 20
28.76907914980504
 30
0.0
 10
36.81049403777907
 20
28.77384426130503
 30
0.0
  0
SPLINE
  5
79
330
1F
100
AcDbEntity
  8
DEFAULT
100
AcDbSpline
210
0.0
220
0.0
230
1.0
 70
    12
 71
     3
 72
    12
 73
     8
 74
     0
 42
0.0000000001
 43
0.0000000001
 40
2.266806351395972
 40
2.266806351395972
 40
2.266806351395972
 40
2.266806351395972
 40
2.411132418285951
 40
2.411132418285951
 40
2.598945532857947
 40
2.598945532857947
 40
2.9565629204786
 40
2.9565629204786
 40
2.9565629204786
 40
2.9565629204786
 10
36.81049403777907
 20
28.77384426130503
 30
0.0
 41
1.0
 10
36.85476882627567
 20
28.78636580143155
 30
0.0
 41
1.0
 10
36.89076769831406
 20
28.80886989141606
 30
0.0
 41
1.0
 10
36.97680482308361
 20
28.86974951624199
 30
0.0
 41
1.0
 10
37.01613190112415
 20
28.90549545612845
 30
0.0
 41
1.0
 10
37.12227965404178
 20
29.00583623906478
 30
0.0
 41
1.0
 10
37.17238033319471
 20
29.0605194759634
 30
0.0
 41
1.0
 10
37.17238033319471
 20
29.0605194759634
 30
0.0
 41
1.0
  0
SPLINE
  5
7A
330
1F
100
AcDbEntity
  8
DEFAULT
100
AcDbSpline
210
0.0
220
0.0
230
1.0
 70
    24
 71
     2
 72
     6
 73
     3
 74
     0
 42
0.0000000001
 43
0.0000000001
 40
0.0
 40
0.0
 40
0.0
 40
0.0795454859458744
 40
0.0795454859458744
 40
0.0795454859458744
 10
37.17238033319471
 20
29.0605194759634
 30
0.0
 10
37.16925979974644
 20
29.10016961284323
 30
0.0
 10
37.16613926629817
 20
29.13981974972307
 30
0.0
  0
SPLINE
  5
7B
330
1F
100
AcDbEntity
  8
DEFAULT
100
AcDbSpline
210
0.0
220
0.0
230
1.0
 70
    12
 71
     3
 72
    10
 73
     6
 74
     0
 42
0.0000000001
 43
0.0000000001
 40
-2.791708356059433
 40
-2.791708356059433
 40
-2.791708356059433
 40
-2.791708356059433
 40
-2.093725516925132
 40
-2.093725516925132
 40
-1.39319396481126
 40
-1.39319396481126
 40
-1.39319396481126
 40
-1.39319396481126
 10
37.16613926629817
 20
29.13981974972307
 30
0.0
 41
1.0
 10
37.16215722901232
 20
29.19041633074432
 30
0.0
 41
1.0
 10
36.96569295872727
 20
29.22691683756161
 30
0.0
 41
1.0
 10
36.47048371306794
 20
29.1997953656388
 30
0.0
 41
1.0
 10
36.28294332498162
 20
29.14047462439181
 30
0.0
 41
1.0
 10
36.28885745781797
 20
29.08835662486569
 30
0.0
 41
1.0
  0
SPLINE
  5
7C
330
1F
100
AcDbEntity
  8
DEFAULT
100
AcDbSpline
210
0.0
220
0.0
230
1.0
 70
    24
 71
     2
 72
     6
 73
     3
 74
     0
 42
0.0000000001
 43
0.0000000001
 40
0.0
 40
0.0
 40
0.0
 40
0.1124025976139652
 40
0.1124025976139652
 40
0.1124025976139652
 10
36.28885745781797
 20
29.08835662486569
 30
0.0
 10
36.29521993542038
 20
29.03251387080418
 30
0.0
 10
36.30158241302279
 20
28.97667111674266
 30
0.0
  0
SPLINE
  5
7D
330
1F
100
AcDbEntity
  8
DEFAULT
100
AcDbSpline
210
0.0
220
0.0
230
1.0
 70
    12
 71
     3
 72
    12
 73
     8
 74
     0
 42
0.0000000001
 43
0.0000000001
 40
1.478228585790528
 40
1.478228585790528
 40
1.478228585790528
 40
1.478228585790528
 40
1.835108898878118
 40
1.835108898878118
 40
2.024274150184068
 40
2.024274150184068
 40
2.167373199071931
 40
2.167373199071931
 40
2.167373199071931
 40
2.167373199071931
 10
36.30158248350919
 20
28.97667105776411
 30
0.0
 41
1.0
 10
36.30165841807182
 20
28.97661210083443
 30
0.0
 41
1.0
 10
36.36113876250813
 20
28.93260209364228
 30
0.0
 41
1.0
 10
36.48463416194598
 20
28.85424237008923
 30
0.0
 41
1.0
 10
36.5303854569503
 20
28.82643397357874
 30
0.0
 41
1.0
 10
36.62668735557848
 20
28.7831635875821
 30
0.0
 41
1.0
 10
36.66608601151616
 20
28.76813693091983
 30
0.0
 41
1.0
 10
36.71158771503026
 20
28.76431403830506
 30
0.0
 41
1.0
  0
ARC
  5
7E
330
1F
100
AcDbEntity
  8
DEFAULT
100
AcDbCircle
 10
29.65726917616034
 20
31.73541700003715
 30
0.0
 40
0.7812392972202519
100
AcDbArc
 50
335.4266311420732
 51
8.420640287721612
  0
SPLINE
  5
7F
330
1F
100
AcDbEntity
  8
DEFAULT
100
AcDbSpline
210
0.0
220
0.0
230
1.0
 70
     8
 71
     3
 72
    11
 73
     7
 74
     0
 42
0.0000000001
 43
0.0000000001
 40
-1.932317162159845
 40
-1.932317162159845
 40
-1.932317162159845
 40
-1.932317162159845
 40
-1.114321231087402
 40
-0.6074116793840068
 40
-0.2699890469078568
 40
0.0000000000000001
 40
0.0000000000000001
 40
0.0000000000000001
 40
0.0000000000000001
 10
30.4300864353855
 20
31.84982121047063
 30
0.0
 10
30.39006988490429
 20
32.12013889151886
 30
0.0
 10
30.15859010077183
 20
32.52806544103305
 30
0.0
 10
29.66619609907958
 20
32.80190540281527
 30
0.0
 10
29.33321343933297
 20
32.9587137452318
 30
0.0
 10
29.14107449497685
 20
33.0288178909997
 30
0.0
 10
29.05483505227929
 20
33.05282919303058
 30
0.0
  0
SPLINE
  5
80
330
1F
100
AcDbEntity
  8
DEFAULT
100
AcDbSpline
210
0.0
220
0.0
230
1.0
 70
    12
 71
     2
 72
     6
 73
     3
 74
     0
 42
0.0000000001
 43
0.0000000001
 40
-0.1016264246854027
 40
-0.1016264246854027
 40
-0.1016264246854027
 40
0.0
 40
0.0
 40
0.0
 10
29.05483505227929
 20
33.05282919303058
 30
0.0
 41
1.0
 10
29.00094849090183
 20
33.06908527422879
 30
0.0
 41
0.8603657572054948
 10
28.98930387388216
 20
33.12415213478656
 30
0.0
 41
1.0
  0
SPLINE
  5
81
330
1F
100
AcDbEntity
  8
DEFAULT
100
AcDbSpline
210
0.0
220
0.0
230
1.0
 70
    12
 71
     2
 72
     6
 73
     3
 74
     0
 42
0.0000000001
 43
0.0000000001
 40
0.0
 40
0.0
 40
0.0
 40
0.0168225849784347
 40
0.0168225849784347
 40
0.0168225849784347
 10
28.98930387388216
 20
33.12415213478656
 30
0.0
 41
1.0
 10
28.98657246349475
 20
33.13234781982977
 30
0.0
 41
0.9609513453654801
 10
28.98861801610984
 20
33.14074100578809
 30
0.0
 41
1.0
  0
SPLINE
  5
82
330
1F
100
AcDbEntity
  8
DEFAULT
100
AcDbSpline
210
0.0
220
0.0
230
1.0
 70
    12
 71
     3
 72
    30
 73
    26
 74
     0
 42
0.0000000001
 43
0.0000000001
 40
0.0
 40
0.0
 40
0.0
 40
0.0
 40
0.998777893850345
 40
2.039580217844248
 40
4.189912437327197
 40
6.986695890956174
 40
11.26981331091288
 40
11.26981331091288
 40
11.26981331091288
 40
11.3042122140525
 40
11.3042122140525
 40
11.3042122140525
 40
11.8678701670312
 40
12.41264512907092
 40
13.13074674650946
 40
13.16058978273658
 40
13.19762092784838
 40
13.24788819881942
 40
13.30844704110376
 40
13.35134589188302
 40
13.42219038585663
 40
13.76419401457089
 40
14.4210863406999
 40
15.94007407868409
 40
19.48616492399376
 40
19.48616492399376
 40
19.48616492399376
 40
19.48616492399376
 10
28.98861801610984
 20
33.14074100578809
 30
0.0
 41
1.0
 10
29.07030156451583
 20
33.46463298195847
 30
0.0
 41
1.0
 10
29.185702588499
 20
34.13331307493464
 30
0.0
 41
1.0
 10
29.29208990601116
 20
35.53039834806015
 30
0.0
 41
1.0
 10
29.08569305491321
 20
37.52531008452145
 30
0.0
 41
1.0
 10
28.24244655940176
 20
40.49087081790528
 30
0.0
 41
1.0
 10
27.47133087186525
 20
42.71889854503761
 30
0.0
 41
1.0
 10
26.98059356826532
 20
44.06052776856932
 30
0.0
 41
1.0
 10
26.97643392403262
 20
44.07193583364921
 30
0.0
 41
0.8934048983870025
 10
26.97912734098851
 20
44.0837761078906
 30
0.0
 41
0.8934048983870025
 10
26.9878125039707
 20
44.09226224558581
 30
0.0
 41
1.0
 10
27.15699769632961
 20
44.17392102895818
 30
0.0
 41
1.0
 10
27.49118493192739
 20
44.33172406709268
 30
0.0
 41
1.0
 10
28.04552014372736
 20
44.58318396321812
 30
0.0
 41
1.0
 10
28.43556241367337
 20
44.76698629668127
 30
0.0
 41
1.0
 10
28.67558237030423
 20
44.8705075714422
 30
0.0
 41
1.0
 10
28.71587033406057
 20
44.85210498860552
 30
0.0
 41
1.0
 10
28.75391471123665
 20
44.82513204492786
 30
0.0
 41
1.0
 10
28.78927427444115
 20
44.78565431458733
 30
0.0
 41
1.0
 10
28.82380907868325
 20
44.73953947498725
 30
0.0
 41
1.0
 10
28.8986315805232
 20
44.60707738537251
 30
0.0
 41
1.0
 10
29.06948722940128
 20
44.29409136810383
 30
0.0
 41
1.0
 10
29.43659534885064
 20
43.53906752912528
 30
0.0
 41
1.0
 10
30.16936547243459
 20
41.77701236396436
 30
0.0
 41
1.0
 10
30.70178201263793
 20
40.17332890593296
 30
0.0
 41
1.0
 10
31.05209022065279
 20
38.99945507210259
 30
0.0
 41
1.0
  0
SPLINE
  5
83
330
1F
100
AcDbEntity
  8
DEFAULT
100
AcDbSpline
210
0.0
220
0.0
230
1.0
 70
    12
 71
     3
 72
    12
 73
     8
 74
     0
 42
0.0000000001
 43
0.0000000001
 40
-0.9785015012744535
 40
-0.9785015012744535
 40
-0.9785015012744535
 40
-0.9785015012744535
 40
-0.4942537595695717
 40
-0.4942537595695717
 40
-0.2506663683008745
 40
-0.2506663683008745
 40
0.0
 40
0.0
 40
0.0
 40
0.0
 10
31.05209022065279
 20
38.99945507210259
 30
0.0
 41
1.0
 10
31.27772493810626
 20
38.23964421937769
 30
0.0
 41
1.0
 10
31.43988694937487
 20
37.59961073783968
 30
0.0
 41
1.0
 10
31.59018212756826
 20
36.75873211783544
 30
0.0
 41
1.0
 10
31.6289897429908
 20
36.50060637748375
 30
0.0
 41
1.0
 10
31.69860440987576
 20
35.77492604386281
 30
0.0
 41
1.0
 10
31.70585898971957
 20
35.48953604493609
 30
0.0
 41
1.0
 10
31.70697169281583
 20
35.2907092528845
 30
0.0
 41
1.0
  0
SPLINE
  5
84
330
1F
100
AcDbEntity
  8
DEFAULT
100
AcDbSpline
210
0.0
220
0.0
230
1.0
 70
    12
 71
     2
 72
     6
 73
     3
 74
     0
 42
0.0000000001
 43
0.0000000001
 40
0.0
 40
0.0
 40
0.0
 40
0.4616602041699219
 40
0.4616602041699219
 40
0.4616602041699219
 10
31.70697169281583
 20
35.2907092528845
 30
0.0
 41
1.0
 10
31.70789959411414
 20
35.05970516233828
 30
0.0
 41
0.9988585240063492
 10
31.68677988730924
 20
34.82966666809357
 30
0.0
 41
1.0
  0
SPLINE
  5
85
330
1F
100
AcDbEntity
  8
DEFAULT
100
AcDbSpline
210
0.0
220
0.0
230
1.0
 70
     8
 71
     3
 72
    11
 73
     7
 74
     0
 42
0.0000000001
 43
0.0000000001
 40
0.0
 40
0.0
 40
0.0
 40
0.0
 40
0.2874736741838422
 40
0.6007707123945327
 40
1.295211947608686
 40
2.682234006193673
 40
2.682234006193673
 40
2.682234006193673
 40
2.682234006193673
 10
31.68677988730924
 20
34.82966666809357
 30
0.0
 10
31.67825760250503
 20
34.73421433317948
 30
0.0
 10
31.65523700627097
 20
34.53521213001802
 30
0.0
 10
31.5791116768596
 20
34.1100365401976
 30
0.0
 10
31.37598051816443
 20
33.33693788668363
 30
0.0
 10
31.10251539375587
 20
32.69603133034649
 30
0.0
 10
30.88776551812903
 20
32.28511770133153
 30
0.0
  0
SPLINE
  5
86
330
1F
100
AcDbEntity
  8
DEFAULT
100
AcDbSpline
210
0.0
220
0.0
230
1.0
 70
    12
 71
     2
 72
     6
 73
     3
 74
     0
 42
0.0000000001
 43
0.0000000001
 40
0.0
 40
0.0
 40
0.0
 40
0.6504522985104759
 40
0.6504522985104759
 40
0.6504522985104759
 10
30.88776551812903
 20
32.28511770133153
 30
0.0
 41
1.0
 10
30.73482097588382
 20
31.99619765948508
 30
0.0
 41
0.9991283073103383
 10
30.55795992108851
 20
31.72048994015091
 30
0.0
 41
1.0
  0
SPLINE
  5
87
330
1F
100
AcDbEntity
  8
DEFAULT
100
AcDbSpline
210
0.0
220
0.0
230
1.0
 70
     8
 71
     3
 72
     9
 73
     5
 74
     0
 42
0.0000000001
 43
0.0000000001
 40
0.0
 40
0.0
 40
0.0
 40
0.0
 40
0.3651881675984961
 40
0.369218707017257
 40
0.369218707017257
 40
0.369218707017257
 40
0.369218707017257
 10
30.55795992108851
 20
31.72048994015091
 30
0.0
 10
30.48955917207508
 20
31.61794093616647
 30
0.0
 10
30.42875977361254
 20
31.50872941704028
 30
0.0
 10
30.36687940488902
 20
31.40437938015915
 30
0.0
 10
30.36775123851785
 20
31.41053228419256
 30
0.0
  0
SPLINE
  5
88
330
1F
100
AcDbEntity
  8
DEFAULT
100
AcDbSpline
210
0.0
220
0.0
230
1.0
 70
    24
 71
     2
 72
     6
 73
     3
 74
     0
 42
0.0000000001
 43
0.0000000001
 40
0.0
 40
0.0
 40
0.0
 40
6.257223026633629
 40
6.257223026633629
 40
6.257223026633629
 10
37.20154735269104
 20
28.06874909680484
 30
0.0
 10
40.31575535921438
 20
28.36861322164212
 30
0.0
 10
43.42996336573772
 20
28.66847734647939
 30
0.0
  0
SPLINE
  5
89
330
1F
100
AcDbEntity
  8
DEFAULT
100
AcDbSpline
210
0.0
220
0.0
230
1.0
 70
    24
 71
     2
 72
     6
 73
     3
 74
     0
 42
0.0000000001
 43
0.0000000001
 40
0.0
 40
0.0
 40
0.0
 40
0.3660519085076657
 40
0.3660519085076657
 40
0.3660519085076657
 10
36.46266957426171
 20
27.99257627256723
 30
0.0
 10
36.48353693965652
 20
27.81036751631065
 30
0.0
 10
36.50440430505132
 20
27.62815876005406
 30
0.0
  0
SPLINE
  5
8A
330
1F
100
AcDbEntity
  8
DEFAULT
100
AcDbSpline
210
0.0
220
0.0
230
1.0
 70
    12
 71
     2
 72
     6
 73
     3
 74
     0
 42
0.0000000001
 43
0.0000000001
 40
0.0
 40
0.0
 40
0.0
 40
0.2226359711497572
 40
0.2226359711497572
 40
0.2226359711497572
 10
36.50440430505132
 20
27.62815876005406
 30
0.0
 41
1.0
 10
36.55058791981147
 20
27.51732864800473
 30
0.0
 41
0.9027033858658244
 10
36.66501984112504
 20
27.48363144812462
 30
0.0
 41
1.0
  0
SPLINE
  5
8B
330
1F
100
AcDbEntity
  8
DEFAULT
100
AcDbSpline
210
0.0
220
0.0
230
1.0
 70
    28
 71
     3
 72
     8
 73
     4
 74
     0
 42
0.0000000001
 43
0.0000000001
 40
-0.3436117278563864
 40
-0.3436117278563864
 40
-0.3436117278563864
 40
-0.3436117278563864
 40
0.0
 40
0.0
 40
0.0
 40
0.0
 10
36.66501984112504
 20
27.48363144812462
 30
0.0
 41
1.249004411490993
 10
36.66501982598164
 20
27.48363144666648
 30
0.0
 41
0.9343217557452168
 10
36.75452509323632
 20
27.4922498236591
 30
0.0
 41
0.8657533669198912
 10
36.88276275951783
 20
27.50459770648842
 30
0.0
 41
1.0
  0
SPLINE
  5
8C
330
1F
100
AcDbEntity
  8
DEFAULT
100
AcDbSpline
210
0.0
220
0.0
230
1.0
 70
    24
 71
     2
 72
     6
 73
     3
 74
     0
 42
0.0000000001
 43
0.0000000001
 40
0.0
 40
0.0
 40
0.0
 40
0.2187499999999946
 40
0.2187499999999946
 40
0.2187499999999946
 10
36.88276275951783
 20
27.50459770648842
 30
0.0
 10
36.99163421871424
 20
27.51508083567032
 30
0.0
 10
37.10050567791065
 20
27.52556396485222
 30
0.0
  0
SPLINE
  5
8D
330
1F
100
AcDbEntity
  8
DEFAULT
100
AcDbSpline
210
0.0
220
0.0
230
1.0
 70
    12
 71
     2
 72
     6
 73
     3
 74
     0
 42
0.0000000001
 43
0.0000000001
 40
0.0
 40
0.0
 40
0.0
 40
0.2226303472499221
 40
0.2226303472499221
 40
0.2226303472499221
 10
37.10050567791065
 20
27.52556396485222
 30
0.0
 41
1.0
 10
37.20638780764985
 20
27.58049000249769
 30
0.0
 41
0.9027752838226327
 10
37.23059313708448
 20
27.69808277584028
 30
0.0
 41
1.0
  0
SPLINE
  5
8E
330
1F
100
AcDbEntity
  8
DEFAULT
100
AcDbSpline
210
0.0
220
0.0
230
1.0
 70
    24
 71
     2
 72
     6
 73
     3
 74
     0
 42
0.0000000001
 43
0.0000000001
 40
0.0
 40
0.0
 40
0.0
 40
0.3660519085099928
 40
0.3660519085099928
 40
0.3660519085099928
 10
37.23059313708448
 20
27.69808277584028
 30
0.0
 10
37.21631004343597
 20
27.88092553318851
 30
0.0
 10
37.20202694978745
 20
28.06376829053674
 30
0.0
  0
SPLINE
  5
8F
330
1F
100
AcDbEntity
  8
DEFAULT
100
AcDbSpline
210
0.0
220
0.0
230
1.0
 70
     8
 71
     3
 72
    11
 73
     7
 74
     0
 42
0.0000000001
 43
0.0000000001
 40
0.0
 40
0.0
 40
0.0
 40
0.0
 40
0.1377635348129177
 40
0.2455013291633975
 40
0.3335348622749909
 40
0.414857364690363
 40
0.414857364690363
 40
0.414857364690363
 40
0.414857364690363
 10
37.20202694978575
 20
28.0637682905378
 30
0.0
 10
37.16287501602072
 20
28.08775985999021
 30
0.0
 10
37.09178161883146
 20
28.1284414253818
 30
0.0
 10
36.98982654538277
 20
28.17331997398624
 30
0.0
 10
36.90000070556648
 20
28.19656310663233
 30
0.0
 10
36.84318331493812
 20
28.19855337531089
 30
0.0
 10
36.81619567249204
 20
28.19592333771953
 30
0.0
  0
SPLINE
  5
90
330
1F
100
AcDbEntity
  8
DEFAULT
100
AcDbSpline
210
0.0
220
0.0
230
1.0
 70
     8
 71
     3
 72
    11
 73
     7
 74
     0
 42
0.0000000001
 43
0.0000000001
 40
0.0
 40
0.0
 40
0.0
 40
0.0
 40
0.081214295674898
 40
0.1691805052559474
 40
0.277025183898425
 40
0.4148573631455907
 40
0.4148573631455907
 40
0.4148573631455907
 40
0.4148573631455907
 10
36.81619567249204
 20
28.19592333771953
 30
0.0
 10
36.78923807267246
 20
28.19335872377676
 30
0.0
 10
36.73390012145332
 20
28.18058775033801
 30
0.0
 10
36.65016795145503
 20
28.14066775532164
 30
0.0
 10
36.55861102319101
 20
28.07714983013951
 30
0.0
 10
36.49654131032442
 20
28.02361306573078
 30
0.0
 10
36.46266957426171
 20
27.99257627256723
 30
0.0
  0
SPLINE
  5
91
330
1F
100
AcDbEntity
  8
DEFAULT
100
AcDbSpline
210
0.0
220
0.0
230
1.0
 70
    12
 71
     2
 72
     6
 73
     3
 74
     0
 42
0.0000000001
 43
0.0000000001
 40
0.0
 40
0.0
 40
0.0
 40
1.139711099716156
 40
1.139711099716156
 40
1.139711099716156
 10
46.54231360977828
 20
29.79780333593861
 30
0.0
 41
1.0
 10
47.11399308629419
 20
29.7580424647814
 30
0.0
 41
0.9916320061266115
 10
47.65647629058874
 20
29.57331815459623
 30
0.0
 41
1.0
  0
SPLINE
  5
92
330
1F
100
AcDbEntity
  8
DEFAULT
100
AcDbSpline
210
0.0
220
0.0
230
1.0
 70
    12
 71
     2
 72
     6
 73
     3
 74
     0
 42
0.0000000001
 43
0.0000000001
 40
0.0
 40
0.0
 40
0.0
 40
0.6200990255108542
 40
0.6200990255108542
 40
0.6200990255108542
 10
47.65647629058874
 20
29.57331815459623
 30
0.0
 41
1.0
 10
47.95435098350873
 20
29.47163891904658
 30
0.0
 41
0.9777967244108859
 10
48.18432711454351
 20
29.25676215727463
 30
0.0
 41
1.0
  0
SPLINE
  5
93
330
1F
100
AcDbEntity
  8
DEFAULT
100
AcDbSpline
210
0.0
220
0.0
230
1.0
 70
     8
 71
     2
 72
    11
 73
     8
 74
     0
 42
0.0000000001
 43
0.0000000001
 40
0.0
 40
0.0
 40
0.0
 40
1.0
 40
2.0
 40
3.0
 40
4.0
 40
5.0
 40
6.0
 40
6.0
 40
6.0
 10
31.76556855433428
 20
32.2402543724229
 30
0.0
 10
32.00532635915123
 20
33.33213142172744
 30
0.0
 10
32.12917399825791
 20
35.56441063586537
 30
0.0
 10
31.7152520483229
 20
37.76484255539171
 30
0.0
 10
31.07171851083895
 20
39.90185349793599
 30
0.0
 10
30.26507536116598
 20
41.97831483217508
 30
0.0
 10
29.41642618397812
 20
44.0629473128818
 30
0.0
 10
28.77270953366488
 20
44.93480149971147
 30
0.0
  0
SPLINE
  5
94
330
1F
100
AcDbEntity
  8
DEFAULT
100
AcDbSpline
210
0.0
220
0.0
230
1.0
 70
     8
 71
     5
 72
    12
 73
     6
 74
     0
 42
0.0000000001
 43
0.0000000001
 40
0.0
 40
0.0
 40
0.0
 40
0.0
 40
0.0
 40
0.0
 40
1.0
 40
1.0
 40
1.0
 40
1.0
 40
1.0
 40
1.0
 10
28.77270953366488
 20
44.93480149971147
 30
0.0
 10
28.7658395721139
 20
44.94501664518229
 30
0.0
 10
28.73889401450641
 20
44.97907768667314
 30
0.0
 10
28.58286079353014
 20
44.86816968627929
 30
0.0
 10
28.52203006431107
 20
44.84020955922372
 30
0.0
 10
28.46124574853756
 20
44.8121488925209
 30
0.0
  0
ARC
  5
95
330
1F
100
AcDbEntity
  8
DEFAULT
100
AcDbCircle
 10
49.66741256840929
 20
-1.124120333551486
 30
0.0
 40
50.59488453986661
100
AcDbArc
 50
114.7800881090393
 51
116.5741649610439
  0
ARC
  5
96
330
1F
100
AcDbEntity
  8
DEFAULT
100
AcDbCircle
 10
27.10908608429298
 20
43.974597078749
 30
0.0
 40
0.1689744737258318
100
AcDbArc
 50
116.5741649610433
 51
135.8652056261011
  0
SPLINE
  5
97
330
1F
100
AcDbEntity
  8
DEFAULT
100
AcDbSpline
210
0.0
220
0.0
230
1.0
 70
    12
 71
     2
 72
     6
 73
     3
 74
     0
 42
0.0000000001
 43
0.0000000001
 40
0.0
 40
0.0
 40
0.0
 40
2.061631574185771
 40
2.061631574185771
 40
2.061631574185771
 10
31.30929105580695
 20
30.21029201069962
 30
0.0
 41
1.0
 10
31.55304558163666
 20
31.21198045623869
 30
0.0
 41
0.9998484010904932
 10
31.76177496397914
 20
32.22154870838209
 30
0.0
 41
1.0
  0
SPLINE
  5
98
330
1F
100
AcDbEntity
  8
DEFAULT
100
AcDbSpline
210
0.0
220
0.0
230
1.0
 70
    12
 71
     2
 72
     6
 73
     3
 74
     0
 42
0.0000000001
 43
0.0000000001
 40
0.0
 40
0.0
 40
0.0
 40
0.1598633113070148
 40
0.1598633113070148
 40
0.1598633113070148
 10
30.36729596770658
 20
31.4081986573655
 30
0.0
 41
1.0
 10
30.35548484626941
 20
31.32909238033454
 30
0.0
 41
0.9990343967449803
 10
30.35066365828344
 20
31.24925462900681
 30
0.0
 41
1.0
  0
SPLINE
  5
99
330
1F
100
AcDbEntity
  8
DEFAULT
100
AcDbSpline
210
0.0
220
0.0
230
1.0
 70
    12
 71
     2
 72
     6
 73
     3
 74
     0
 42
0.0000000001
 43
0.0000000001
 40
0.0
 40
0.0
 40
0.0
 40
0.7816405396757449
 40
0.7816405396757449
 40
0.7816405396757449
 10
30.35066365828344
 20
31.24925462900681
 30
0.0
 41
1.0
 10
30.31725365076607
 20
30.85888345327455
 30
0.0
 41
0.996260045340734
 10
30.2171343370609
 20
30.48009329597402
 30
0.0
 41
1.0
  0
SPLINE
  5
9A
330
1F
100
AcDbEntity
  8
DEFAULT
100
AcDbSpline
210
0.0
220
0.0
230
1.0
 70
     8
 71
     3
 72
    11
 73
     7
 74
     0
 42
0.0000000001
 43
0.0000000001
 40
0.0
 40
0.0
 40
0.0
 40
0.0
 40
0.0812142956748983
 40
0.1691805052559531
 40
0.2770251838984233
 40
0.414857363145586
 40
0.414857363145586
 40
0.414857363145586
 40
0.414857363145586
 10
43.78396906106305
 20
28.86684360536153
 30
0.0
 10
43.75701146124349
 20
28.86427899141875
 30
0.0
 10
43.70167351002435
 20
28.85150801797999
 30
0.0
 10
43.61794134002606
 20
28.81158802296364
 30
0.0
 10
43.52638441176207
 20
28.74807009778148
 30
0.0
 10
43.46431469889545
 20
28.69453333337277
 30
0.0
 10
43.43044296283271
 20
28.66349654020922
 30
0.0
  0
SPLINE
  5
9B
330
1F
100
AcDbEntity
  8
DEFAULT
100
AcDbSpline
210
0.0
220
0.0
230
1.0
 70
    24
 71
     2
 72
     6
 73
     3
 74
     0
 42
0.0000000001
 43
0.0000000001
 40
0.0
 40
0.0
 40
0.0
 40
0.3660519085076586
 40
0.3660519085076586
 40
0.3660519085076586
 10
43.43044296283271
 20
28.66349654020922
 30
0.0
 10
43.45131032822751
 20
28.48128778395264
 30
0.0
 10
43.4721776936223
 20
28.29907902769606
 30
0.0
  0
SPLINE
  5
9C
330
1F
100
AcDbEntity
  8
DEFAULT
100
AcDbSpline
210
0.0
220
0.0
230
1.0
 70
    12
 71
     2
 72
     6
 73
     3
 74
     0
 42
0.0000000001
 43
0.0000000001
 40
0.0
 40
0.0
 40
0.0
 40
0.2226359711496808
 40
0.2226359711496808
 40
0.2226359711496808
 10
43.4721776936223
 20
28.29907902769606
 30
0.0
 41
1.0
 10
43.51836130838266
 20
28.18824891564693
 30
0.0
 41
0.9027033858667041
 10
43.63279322969602
 20
28.15455171576662
 30
0.0
 41
1.0
  0
SPLINE
  5
9D
330
1F
100
AcDbEntity
  8
DEFAULT
100
AcDbSpline
210
0.0
220
0.0
230
1.0
 70
    24
 71
     2
 72
     6
 73
     3
 74
     0
 42
0.0000000001
 43
0.0000000001
 40
0.0
 40
0.0
 40
0.0
 40
0.2187499999999951
 40
0.2187499999999951
 40
0.2187499999999951
 10
43.63279322969602
 20
28.15455171576662
 30
0.0
 10
43.74166468889243
 20
28.16503484494852
 30
0.0
 10
43.85053614808884
 20
28.17551797413042
 30
0.0
  0
SPLINE
  5
9E
330
1F
100
AcDbEntity
  8
DEFAULT
100
AcDbSpline
210
0.0
220
0.0
230
1.0
 70
    24
 71
     2
 72
     6
 73
     3
 74
     0
 42
0.0000000001
 43
0.0000000001
 40
0.0
 40
0.0
 40
0.0
 40
0.2187500000000019
 40
0.2187500000000019
 40
0.2187500000000019
 10
43.85053614808884
 20
28.17551797413042
 30
0.0
 10
43.95940760728524
 20
28.18600110331232
 30
0.0
 10
44.06827906648165
 20
28.19648423249422
 30
0.0
  0
SPLINE
  5
9F
330
1F
100
AcDbEntity
  8
DEFAULT
100
AcDbSpline
210
0.0
220
0.0
230
1.0
 70
    12
 71
     2
 72
     6
 73
     3
 74
     0
 42
0.0000000001
 43
0.0000000001
 40
0.0
 40
0.0
 40
0.0
 40
0.2226303472499437
 40
0.2226303472499437
 40
0.2226303472499437
 10
44.06827906648165
 20
28.19648423249422
 30
0.0
 41
1.0
 10
44.17416119622091
 20
28.25141027013964
 30
0.0
 41
0.9027752838223648
 10
44.19836652565549
 20
28.36900304348229
 30
0.0
 41
1.0
  0
SPLINE
  5
A0
330
1F
100
AcDbEntity
  8
DEFAULT
100
AcDbSpline
210
0.0
220
0.0
230
1.0
 70
    24
 71
     2
 72
     6
 73
     3
 74
     0
 42
0.0000000001
 43
0.0000000001
 40
0.0
 40
0.0
 40
0.0
 40
0.3660519085099956
 40
0.3660519085099956
 40
0.3660519085099956
 10
44.19836652565549
 20
28.36900304348229
 30
0.0
 10
44.18364882680881
 20
28.55211423395415
 30
0.0
 10
44.16893112796213
 20
28.735225424426
 30
0.0
  0
SPLINE
  5
A1
330
1F
100
AcDbEntity
  8
DEFAULT
100
AcDbSpline
210
0.0
220
0.0
230
1.0
 70
     8
 71
     3
 72
    11
 73
     7
 74
     0
 42
0.0000000001
 43
0.0000000001
 40
0.0
 40
0.0
 40
0.0
 40
0.0
 40
0.0017540549121738
 40
0.1396136358089379
 40
0.2474265428751539
 40
0.4169006501691559
 40
0.4169006501691559
 40
0.4169006501691559
 40
0.4169006501691559
 10
44.16893112796213
 20
28.735225424426
 30
0.0
 10
44.17034768152901
 20
28.73435173277117
 30
0.0
 10
44.13163914143679
 20
28.75813882620603
 30
0.0
 10
44.05918765426567
 20
28.79948239815759
 30
0.0
 10
43.93308958883428
 20
28.85515797460188
 30
0.0
 10
43.84040552934364
 20
28.87250840244111
 30
0.0
 10
43.78396906106305
 20
28.86684360536153
 30
0.0
  0
SPLINE
  5
A2
330
1F
100
AcDbEntity
  8
DEFAULT
100
AcDbSpline
210
0.0
220
0.0
230
1.0
 70
    24
 71
     2
 72
     6
 73
     3
 74
     0
 42
0.0000000001
 43
0.0000000001
 40
-0.0539779438293136
 40
-0.0539779438293136
 40
-0.0539779438293136
 40
0.0
 40
0.0
 40
0.0
 10
43.70221610810039
 20
29.43429562092637
 30
0.0
 10
43.7291177663453
 20
29.43688871814514
 30
0.0
 10
43.75601942459021
 20
29.43948181536391
 30
0.0
  0
SPLINE
  5
A3
330
1F
100
AcDbEntity
  8
DEFAULT
100
AcDbSpline
210
0.0
220
0.0
230
1.0
 70
    12
 71
     3
 72
    12
 73
     8
 74
     0
 42
0.0000000001
 43
0.0000000001
 40
2.243370895977966
 40
2.243370895977966
 40
2.243370895977966
 40
2.243370895977966
 40
2.411132418445384
 40
2.411132418445384
 40
2.598945533022796
 40
2.598945533022796
 40
2.956562920478512
 40
2.956562920478512
 40
2.956562920478512
 40
2.956562920478512
 10
43.75601942459021
 20
29.43948181536391
 30
0.0
 41
1.0
 10
43.81088790413899
 20
29.45008186159387
 30
0.0
 41
1.0
 10
43.8524703812047
 20
29.47549454498217
 30
0.0
 41
1.0
 10
43.94457821165331
 20
29.54066978388351
 30
0.0
 41
1.0
 10
43.98390528969382
 20
29.57641572376999
 30
0.0
 41
1.0
 10
44.09005304257734
 20
29.67675650667401
 30
0.0
 41
1.0
 10
44.14015372176435
 20
29.73143974360486
 30
0.0
 41
1.0
 10
44.14015372176435
 20
29.73143974360486
 30
0.0
 41
1.0
  0
SPLINE
  5
A4
330
1F
100
AcDbEntity
  8
DEFAULT
100
AcDbSpline
210
0.0
220
0.0
230
1.0
 70
    24
 71
     2
 72
     6
 73
     3
 74
     0
 42
0.0000000001
 43
0.0000000001
 40
0.0
 40
0.0
 40
0.0
 40
0.1838299925808962
 40
0.1838299925808962
 40
0.1838299925808962
 10
44.14015372176435
 20
29.73143974360486
 30
0.0
 10
44.13294215427156
 20
29.82307139663683
 30
0.0
 10
44.12573058677877
 20
29.91470304966879
 30
0.0
  0
SPLINE
  5
A5
330
1F
100
AcDbEntity
  8
DEFAULT
100
AcDbSpline
210
0.0
220
0.0
230
1.0
 70
    12
 71
     3
 72
    10
 73
     6
 74
     0
 42
0.0000000001
 43
0.0000000001
 40
-2.775250769275885
 40
-2.775250769275885
 40
-2.775250769275885
 40
-2.775250769275885
 40
-2.081012583142561
 40
-2.081012583142561
 40
-1.386692026910074
 40
-1.386692026910074
 40
-1.386692026910074
 40
-1.386692026910074
 10
44.12573058677877
 20
29.91470304966879
 30
0.0
 41
1.0
 10
44.12384424526449
 20
29.93867129115172
 30
0.0
 41
1.0
 10
43.92616054214828
 20
29.94375064181542
 30
0.0
 41
1.0
 10
43.43917521652598
 20
29.89320563717986
 30
0.0
 41
1.0
 10
43.24670270537108
 20
29.84678395230959
 30
0.0
 41
1.0
 10
43.24954581742493
 20
29.82146141283808
 30
0.0
 41
1.0
  0
SPLINE
  5
A6
330
1F
100
AcDbEntity
  8
DEFAULT
100
AcDbSpline
210
0.0
220
0.0
230
1.0
 70
    24
 71
     2
 72
     6
 73
     3
 74
     0
 42
0.0000000001
 43
0.0000000001
 40
0.0
 40
0.0
 40
0.0
 40
0.1749908903973856
 40
0.1749908903973856
 40
0.1749908903973856
 10
43.24954581742493
 20
29.82146141283808
 30
0.0
 10
43.25945080950683
 20
29.73452639862721
 30
0.0
 10
43.26935580158873
 20
29.64759138441633
 30
0.0
  0
SPLINE
  5
A7
330
1F
100
AcDbEntity
  8
DEFAULT
100
AcDbSpline
210
0.0
220
0.0
230
1.0
 70
    12
 71
     3
 72
    12
 73
     8
 74
     0
 42
0.0000000001
 43
0.0000000001
 40
1.478228585923088
 40
1.478228585923088
 40
1.478228585923088
 40
1.478228585923088
 40
1.83510889902099
 40
1.83510889902099
 40
2.024274150332355
 40
2.024274150332355
 40
2.190798913240323
 40
2.190798913240323
 40
2.190798913240323
 40
2.190798913240323
 10
43.26935587207883
 20
29.64759132540558
 30
0.0
 41
1.0
 10
43.26943180664149
 20
29.64753236847585
 30
0.0
 41
1.0
 10
43.32891215107777
 20
29.60352236128377
 30
0.0
 41
1.0
 10
43.45240755051564
 20
29.52516263773066
 30
0.0
 41
1.0
 10
43.49815884552
 20
29.49735424122021
 30
0.0
 41
1.0
 10
43.60125034127036
 20
29.45103315225273
 30
0.0
 41
1.0
 10
43.64670309312608
 20
29.43423410239202
 30
0.0
 41
1.0
 10
43.70221610810039
 20
29.43429562092637
 30
0.0
 41
1.0
  0
SPLINE
  5
A8
330
1F
100
AcDbEntity
  8
DEFAULT
100
AcDbSpline
210
0.0
220
0.0
230
1.0
 70
    24
 71
     2
 72
     6
 73
     3
 74
     0
 42
0.0000000001
 43
0.0000000001
 40
0.0
 40
0.0
 40
0.0
 40
1.29585246190359
 40
1.29585246190359
 40
1.29585246190359
 10
45.43004033598793
 20
29.85564169797121
 30
0.0
 10
44.78509702887612
 20
29.79354072078804
 30
0.0
 10
44.14015372176432
 20
29.73143974360488
 30
0.0
  0
SPLINE
  5
A9
330
1F
100
AcDbEntity
  8
DEFAULT
100
AcDbSpline
210
0.0
220
0.0
230
1.0
 70
    12
 71
     2
 72
     6
 73
     3
 74
     0
 42
0.0000000001
 43
0.0000000001
 40
0.0
 40
0.0
 40
0.0
 40
0.3221738804473611
 40
0.3221738804473611
 40
0.3221738804473611
 10
48.25778034715692
 20
29.48115297551209
 30
0.0
 41
1.0
 10
48.38834753968362
 20
29.38573126940918
 30
0.0
 41
0.9941460496295335
 10
48.49536745462255
 20
29.26448840748997
 30
0.0
 41
1.0
  0
SPLINE
  5
AA
330
1F
100
AcDbEntity
  8
DEFAULT
100
AcDbSpline
210
0.0
220
0.0
230
1.0
 70
    24
 71
     2
 72
     6
 73
     3
 74
     0
 42
0.0000000001
 43
0.0000000001
 40
0.0
 40
0.0
 40
0.0
 40
1.315706620815528
 40
1.315706620815528
 40
1.315706620815528
 10
31.01279114295652
 20
29.00991131439052
 30
0.0
 10
31.62557990271954
 20
28.77061552189198
 30
0.0
 10
32.23836866248256
 20
28.53131972939343
 30
0.0
  0
SPLINE
  5
AB
330
1F
100
AcDbEntity
  8
DEFAULT
100
AcDbSpline
210
0.0
220
0.0
230
1.0
 70
    12
 71
     2
 72
     6
 73
     3
 74
     0
 42
0.0000000001
 43
0.0000000001
 40
0.0
 40
0.0
 40
0.0
 40
4.099774915109466
 40
4.099774915109466
 40
4.099774915109466
 10
32.23836866248256
 20
28.53131972939343
 30
0.0
 41
1.0
 10
34.18369595447736
 20
27.77301729945633
 30
0.0
 41
0.9729153703086446
 10
36.26172929789276
 20
27.97574334809281
 30
0.0
 41
1.0
  0
SPLINE
  5
AC
330
1F
100
AcDbEntity
  8
DEFAULT
100
AcDbSpline
210
0.0
220
0.0
230
1.0
 70
    24
 71
     2
 72
     6
 73
     3
 74
     0
 42
0.0000000001
 43
0.0000000001
 40
0.0
 40
0.0
 40
0.0
 40
0.2016285515089675
 40
0.2016285515089675
 40
0.2016285515089675
 10
36.26172929789276
 20
27.97574334809281
 30
0.0
 10
36.36195963752972
 20
27.9866502134653
 30
0.0
 10
36.46218997716669
 20
27.99755707883778
 30
0.0
  0
SPLINE
  5
AD
330
1F
100
AcDbEntity
  8
DEFAULT
100
AcDbSpline
210
0.0
220
0.0
230
1.0
 70
    12
 71
     2
 72
     6
 73
     3
 74
     0
 42
0.0000000001
 43
0.0000000001
 40
-0.3996431962499557
 40
-0.3996431962499557
 40
-0.3996431962499557
 40
0.0
 40
0.0
 40
0.0
 10
31.46446747849156
 20
29.89653928612076
 30
0.0
 41
1.0
 10
31.62598235011286
 20
30.01445873307235
 30
0.0
 41
0.9988113668901045
 10
31.79821151724623
 20
30.11609122646282
 30
0.0
 41
1.0
  0
SPLINE
  5
AE
330
1F
100
AcDbEntity
  8
DEFAULT
100
AcDbSpline
210
0.0
220
0.0
230
1.0
 70
    12
 71
     2
 72
     6
 73
     3
 74
     0
 42
0.0000000001
 43
0.0000000001
 40
-0.1602767204255962
 40
-0.1602767204255962
 40
-0.1602767204255962
 40
0.0
 40
0.0
 40
0.0
 10
31.79821151724623
 20
30.11609122646282
 30
0.0
 41
1.0
 10
31.87079128536626
 20
30.15263108067061
 30
0.0
 41
0.9794459357424379
 10
31.95190284004271
 20
30.15751978027794
 30
0.0
 41
1.0
  0
SPLINE
  5
AF
330
1F
100
AcDbEntity
  8
DEFAULT
100
AcDbSpline
210
0.0
220
0.0
230
1.0
 70
     8
 71
     3
 72
    15
 73
    11
 74
     0
 42
0.0000000001
 43
0.0000000001
 40
-15.65359896050636
 40
-15.65359896050636
 40
-15.65359896050636
 40
-15.65359896050636
 40
-10.58742135048161
 40
-6.912338381831451
 40
-4.741124145587254
 40
-4.078959884244495
 40
-2.884298681508266
 40
-1.256080944522508
 40
-0.6345414576259943
 40
0.0
 40
0.0
 40
0.0
 40
0.0
 10
31.95190284004271
 20
30.15751978027794
 30
0.0
 10
33.63174804468825
 20
30.33204135182187
 30
0.0
 10
36.53847489134448
 20
30.5426577555777
 30
0.0
 10
40.17457176762547
 20
30.66898821926543
 30
0.0
 10
42.34208395979384
 20
30.73612303993531
 30
0.0
 10
43.68592419465817
 20
30.77829145145387
 30
0.0
 10
44.84263039380845
 20
30.79396440061269
 30
0.0
 10
46.00141749659632
 20
30.77147478095276
 30
0.0
 10
46.91981370164454
 20
30.45646196808015
 30
0.0
 10
47.26990479578303
 20
30.22194823283212
 30
0.0
 10
47.43900718625046
 20
30.09560337954649
 30
0.0
  0
SPLINE
  5
B0
330
1F
100
AcDbEntity
  8
DEFAULT
100
AcDbSpline
210
0.0
220
0.0
230
1.0
 70
    12
 71
     2
 72
     6
 73
     3
 74
     0
 42
0.0000000001
 43
0.0000000001
 40
-0.5311035778685866
 40
-0.5311035778685866
 40
-0.5311035778685866
 40
0.0
 40
0.0
 40
0.0
 10
47.43900718625046
 20
30.09560337954649
 30
0.0
 41
1.0
 10
47.65632984087414
 20
29.94029137077532
 30
0.0
 41
0.9912392283435499
 10
47.82540279782252
 20
29.73349366404252
 30
0.0
 41
1.0
  0
SPLINE
  5
B1
330
1F
100
AcDbEntity
  8
DEFAULT
100
AcDbSpline
210
0.0
220
0.0
230
1.0
 70
    12
 71
     2
 72
     6
 73
     3
 74
     0
 42
0.0000000001
 43
0.0000000001
 40
-0.6951027209318128
 40
-0.6951027209318128
 40
-0.6951027209318128
 40
0.0
 40
0.0
 40
0.0
 10
47.82540279782252
 20
29.73349366404252
 30
0.0
 41
1.0
 10
48.01952412948013
 20
29.44436053910451
 30
0.0
 41
0.9969743058485598
 10
48.25612519319031
 20
29.18881995082936
 30
0.0
 41
0.9999999969405681
  0
SPLINE
  5
B2
330
1F
100
AcDbEntity
  8
DEFAULT
100
AcDbSpline
210
0.0
220
0.0
230
1.0
 70
     8
 71
     2
 72
    11
 73
     8
 74
     0
 42
0.0000000001
 43
0.0000000001
 40
0.0
 40
0.0
 40
0.0
 40
1.0
 40
2.0
 40
3.0
 40
4.0
 40
5.0
 40
6.0
 40
6.0
 40
6.0
 10
48.2561251931903
 20
29.18881995082936
 30
0.0
 10
48.28204982679402
 20
29.16217057383186
 30
0.0
 10
48.33643287942398
 20
29.11296104225893
 30
0.0
 10
48.39966126121401
 20
29.06627968702701
 30
0.0
 10
48.47183461706679
 20
29.09500613255389
 30
0.0
 10
48.52603130613629
 20
29.14766722105514
 30
0.0
 10
48.5284432638009
 20
29.2255115133365
 30
0.0
 10
48.50351107250926
 20
29.25507383219317
 30
0.0
  0
SPLINE
  5
B3
330
1F
100
AcDbEntity
  8
DEFAULT
100
AcDbSpline
210
0.0
220
0.0
230
1.0
 70
    12
 71
     2
 72
     6
 73
     3
 74
     0
 42
0.0000000001
 43
0.0000000001
 40
0.0
 40
0.0
 40
0.0
 40
0.1536154254458133
 40
0.1536154254458133
 40
0.1536154254458133
 10
48.50351107250926
 20
29.25507383219317
 30
0.0
 41
1.0
 10
48.4325242531226
 20
29.28739766727887
 30
0.0
 41
0.9772332537707474
 10
48.38057668102378
 20
29.34706996536428
 30
0.0
 41
1.0
  0
SPLINE
  5
B4
330
1F
100
AcDbEntity
  8
DEFAULT
100
AcDbSpline
210
0.0
220
0.0
230
1.0
 70
     8
 71
     3
 72
    10
 73
     6
 74
     0
 42
0.0000000001
 43
0.0000000001
 40
0.0
 40
0.0
 40
0.0
 40
0.0
 40
0.1152498341348094
 40
0.2403205425210536
 40
0.6787755723814768
 40
0.6787755723814768
 40
0.6787755723814768
 40
0.6787755723814768
 10
48.38057668102378
 20
29.34706996536428
 30
0.0
 10
48.35253054257255
 20
29.37491573625748
 30
0.0
 10
48.29724915914754
 20
29.4329833555458
 30
0.0
 10
48.15310338780431
 20
29.60750343288317
 30
0.0
 10
48.04488584403337
 20
29.76124074235924
 30
0.0
 10
47.95048425978943
 20
29.8879133707907
 30
0.0
  0
SPLINE
  5
B5
330
1F
100
AcDbEntity
  8
DEFAULT
100
AcDbSpline
210
0.0
220
0.0
230
1.0
 70
    12
 71
     2
 72
     6
 73
     3
 74
     0
 42
0.0000000001
 43
0.0000000001
 40
0.0
 40
0.0
 40
0.0
 40
0.5322559643862634
 40
0.5322559643862634
 40
0.5322559643862634
 10
47.95048425978943
 20
29.8879133707907
 30
0.0
 41
1.0
 10
47.77001849681607
 20
30.10096176577255
 30
0.0
 41
0.9929971765553433
 10
47.55356803250423
 20
30.25824142441639
 30
0.0
 41
1.0
  0
SPLINE
  5
B6
330
1F
100
AcDbEntity
  8
DEFAULT
100
AcDbSpline
210
0.0
220
0.0
230
1.0
 70
     8
 71
     3
 72
    14
 73
    10
 74
     0
 42
0.0000000001
 43
0.0000000001
 40
0.0
 40
0.0
 40
0.0
 40
0.0
 40
0.652191737395391
 40
1.280718439150231
 40
1.951238196747561
 40
2.863422602058994
 40
4.698367840212491
 40
10.21696999528845
 40
15.7709804310952
 40
15.7709804310952
 40
15.7709804310952
 40
15.7709804310952
 10
47.55356803250423
 20
30.25824142441639
 30
0.0
 10
47.38061046132849
 20
30.39017359283622
 30
0.0
 10
47.01838996099706
 20
30.62003513090882
 30
0.0
 10
46.40431993242065
 20
30.84610505669944
 30
0.0
 10
45.67340691415093
 20
30.95810879463873
 30
0.0
 10
44.53349609020312
 20
30.98570519154637
 30
0.0
 10
41.77997576882593
 20
30.89066125668461
 30
0.0
 10
37.47879008761792
 20
30.76476825528758
 30
0.0
 10
33.79610700092063
 20
30.50496123816241
 30
0.0
 10
31.95274631522911
 20
30.33326887659659
 30
0.0
  0
SPLINE
  5
B7
330
1F
100
AcDbEntity
  8
DEFAULT
100
AcDbSpline
210
0.0
220
0.0
230
1.0
 70
    12
 71
     2
 72
     6
 73
     3
 74
     0
 42
0.0000000001
 43
0.0000000001
 40
0.0
 40
0.0
 40
0.0
 40
0.1700326451009857
 40
0.1700326451009857
 40
0.1700326451009857
 10
31.95274631522911
 20
30.33326887659659
 30
0.0
 41
1.0
 10
31.86645445624367
 20
30.32834583031445
 30
0.0
 41
0.9757167984688314
 10
31.78557320323459
 20
30.2839124806272
 30
0.0
 41
1.0
  0
SPLINE
  5
B8
330
1F
100
AcDbEntity
  8
DEFAULT
100
AcDbSpline
210
0.0
220
0.0
230
1.0
 70
    12
 71
     2
 72
     6
 73
     3
 74
     0
 42
0.0000000001
 43
0.0000000001
 40
0.0
 40
0.0
 40
0.0
 40
0.1423721098865516
 40
0.1423721098865516
 40
0.1423721098865516
 10
31.78557320323459
 20
30.2839124806272
 30
0.0
 41
1.0
 10
31.72024667420858
 20
30.24303623966528
 30
0.0
 41
0.9998152309905386
 10
31.66139623002156
 20
30.20296969124984
 30
0.0
 41
0.9999999999981415
  0
SPLINE
  5
B9
330
1F
100
AcDbEntity
  8
DEFAULT
100
AcDbSpline
210
0.0
220
0.0
230
1.0
 70
    12
 71
     2
 72
     6
 73
     3
 74
     0
 42
0.0000000001
 43
0.0000000001
 40
0.0
 40
0.0
 40
0.0
 40
0.0149839129831681
 40
0.0149839129831681
 40
0.0149839129831681
 10
31.66139623002155
 20
30.20296969124984
 30
0.0
 41
0.9999999999998306
 10
31.6552001553976
 20
30.1987580196667
 30
0.0
 41
0.9999984935037622
 10
31.64901838425221
 20
30.19452538172302
 30
0.0
 41
0.9999999999999929
  0
SPLINE
  5
BA
330
1F
100
AcDbEntity
  8
DEFAULT
100
AcDbSpline
210
0.0
220
0.0
230
1.0
 70
    12
 71
     2
 72
     6
 73
     3
 74
     0
 42
0.0000000001
 43
0.0000000001
 40
0.0
 40
0.0
 40
0.0
 40
0.2199143347734641
 40
0.2199143347734641
 40
0.2199143347734641
 10
31.64901838425221
 20
30.19452538172303
 30
0.0
 41
0.9999999999987874
 10
31.55834633529023
 20
30.13229059831463
 30
0.0
 41
0.9997513250470668
 10
31.47053982024319
 20
30.06607425105838
 30
0.0
 41
0.9999999999999885
  0
SPLINE
  5
BB
330
1F
100
AcDbEntity
  8
DEFAULT
100
AcDbSpline
210
0.0
220
0.0
230
1.0
 70
    12
 71
     2
 72
     6
 73
     3
 74
     0
 42
0.0000000001
 43
0.0000000001
 40
0.0
 40
0.0
 40
0.0
 40
0.1630509499976804
 40
0.1630509499976804
 40
0.1630509499976804
 10
31.47053982024318
 20
30.06607425105838
 30
0.0
 41
0.9999999999999778
 10
31.40543998527081
 20
30.01699017246299
 30
0.0
 41
0.9999060755755675
 10
31.34170968661915
 20
29.9661405478943
 30
0.0
 41
0.9999999999966795
  0
SPLINE
  5
BC
330
1F
100
AcDbEntity
  8
DEFAULT
100
AcDbSpline
210
0.0
220
0.0
230
1.0
 70
    12
 71
     2
 72
     6
 73
     3
 74
     0
 42
0.0000000001
 43
0.0000000001
 40
0.0
 40
0.0
 40
0.0
 40
0.0239581891640136
 40
0.0239581891640136
 40
0.0239581891640136
 10
31.34170968661914
 20
29.96614054789431
 30
0.0
 41
0.9999999999995819
 10
31.33234368056456
 20
29.95867215157818
 30
0.0
 41
0.9999982245823352
 10
31.32300602024272
 20
29.95116834503632
 30
0.0
 41
1.0
  0
SPLINE
  5
BD
330
1F
100
AcDbEntity
  8
DEFAULT
100
AcDbSpline
210
0.0
220
0.0
230
1.0
 70
    12
 71
     2
 72
     6
 73
     3
 74
     0
 42
0.0000000001
 43
0.0000000001
 40
0.0
 40
0.0
 40
0.0
 40
0.8188583327906658
 40
0.8188583327906658
 40
0.8188583327906658
 10
30.96060752100132
 20
28.79865183263118
 30
0.0
 41
1.0
 10
31.36770697715351
 20
28.75502458040517
 30
0.0
 41
0.999995248373231
 10
31.77506767668073
 20
28.71390810175118
 30
0.0
 41
1.0
  0
SPLINE
  5
BE
330
1F
100
AcDbEntity
  8
DEFAULT
100
AcDbSpline
210
0.0
220
0.0
230
1.0
 70
    24
 71
     2
 72
     6
 73
     3
 74
     0
 42
0.0000000001
 43
0.0000000001
 40
0.0
 40
0.0
 40
0.0
 40
0.1356043790062872
 40
0.1356043790062872
 40
0.1356043790062872
 10
36.30158247186215
 20
28.97667117872324
 30
0.0
 10
36.2339720792716
 20
28.97141681950083
 30
0.0
 10
36.16636168668104
 20
28.96616246027841
 30
0.0
  0
SPLINE
  5
BF
330
1F
100
AcDbEntity
  8
DEFAULT
100
AcDbSpline
210
0.0
220
0.0
230
1.0
 70
    12
 71
     2
 72
     6
 73
     3
 74
     0
 42
0.0000000001
 43
0.0000000001
 40
0.0
 40
0.0
 40
0.0
 40
3.577868569146716
 40
3.577868569146716
 40
3.577868569146716
 10
36.16636168668104
 20
28.96616246027841
 30
0.0
 41
1.0
 10
34.35343633733456
 20
28.79387088191403
 30
0.0
 41
0.9737220710303375
 10
32.65126596871958
 20
29.44116502156676
 30
0.0
 41
1.0
  0
SPLINE
  5
C0
330
1F
100
AcDbEntity
  8
DEFAULT
100
AcDbSpline
210
0.0
220
0.0
230
1.0
 70
     8
 71
     3
 72
     8
 73
     4
 74
     0
 42
0.0000000001
 43
0.0000000001
 40
0.0
 40
0.0
 40
0.0
 40
0.0
 40
1.443706964781046
 40
1.443706964781046
 40
1.443706964781046
 40
1.443706964781046
 10
32.65126596871958
 20
29.44116502156676
 30
0.0
 10
32.20145598151937
 20
29.61221685870388
 30
0.0
 10
31.70076362198013
 20
29.80478201102119
 30
0.0
 10
31.25216279358462
 20
29.97898032426185
 30
0.0
  0
SPLINE
  5
C1
330
1F
100
AcDbEntity
  8
DEFAULT
100
AcDbSpline
210
0.0
220
0.0
230
1.0
 70
    24
 71
     2
 72
     6
 73
     3
 74
     0
 42
0.0000000001
 43
0.0000000001
 40
0.0
 40
0.0
 40
0.0
 40
6.125174616136164
 40
6.125174616136164
 40
6.125174616136164
 10
43.26935586043182
 20
29.64759144636472
 30
0.0
 10
40.22086809681326
 20
29.35405546116406
 30
0.0
 10
37.17238033319471
 20
29.0605194759634
 30
0.0
  0
SPLINE
  5
C2
330
1F
100
AcDbEntity
  8
MAKE2D VISIBLE LINES
100
AcDbSpline
210
0.0
220
0.0
230
1.0
 70
    12
 71
     2
 72
     6
 73
     3
 74
     0
 42
0.0000000001
 43
0.0000000001
 40
0.0
 40
0.0
 40
0.0
 40
0.3646706623648148
 40
0.3646706623648148
 40
0.3646706623648148
 10
29.08630778524345
 20
11.60139855082419
 30
0.0
 41
1.0
 10
29.30952755792999
 20
11.62453384806657
 30
0.0
 41
0.7410732163700272
 10
29.3084646329865
 20
11.84894681357278
 30
0.0
 41
1.0
  0
SPLINE
  5
C3
330
1F
100
AcDbEntity
  8
MAKE2D VISIBLE LINES
100
AcDbSpline
210
0.0
220
0.0
230
1.0
 70
    12
 71
     2
 72
     6
 73
     3
 74
     0
 42
0.0000000001
 43
0.0000000001
 40
0.0
 40
0.0
 40
0.0
 40
1.403859247050119
 40
1.403859247050119
 40
1.403859247050119
 10
29.06180215563816
 20
12.09792910516262
 30
0.0
 41
1.0
 10
28.35987253211313
 20
12.09792930647501
 30
0.0
 41
0.9999999999999891
 10
27.65794290858807
 20
12.09792930159858
 30
0.0
 41
1.0
  0
SPLINE
  5
C4
330
1F
100
AcDbEntity
  8
MAKE2D VISIBLE LINES
100
AcDbSpline
210
0.0
220
0.0
230
1.0
 70
    12
 71
     2
 72
     6
 73
     3
 74
     0
 42
0.0000000001
 43
0.0000000001
 40
0.0
 40
0.0
 40
0.0
 40
0.3834636067290872
 40
0.3834636067290872
 40
0.3834636067290872
 10
29.30839954291142
 20
11.8547821833071
 30
0.0
 41
1.0
 10
29.30392586674042
 20
12.09686688642781
 30
0.0
 41
0.7151443091044377
 10
29.06180216084972
 20
12.09792910546278
 30
0.0
 41
1.0
  0
SPLINE
  5
C5
330
1F
100
AcDbEntity
  8
MAKE2D VISIBLE LINES
100
AcDbSpline
210
0.0
220
0.0
230
1.0
 70
    24
 71
     2
 72
     6
 73
     3
 74
     0
 42
0.0000000001
 43
0.0000000001
 40
0.0
 40
0.0
 40
0.0
 40
16.83855038982411
 40
16.83855038982411
 40
16.83855038982411
 10
29.08630643819006
 20
11.59792495740457
 30
0.0
 10
37.50558163310212
 20
11.59792495740457
 30
0.0
 10
45.92485682801417
 20
11.59792495740457
 30
0.0
  0
SPLINE
  5
C6
330
1F
100
AcDbEntity
  8
MAKE2D VISIBLE LINES
100
AcDbSpline
210
0.0
220
0.0
230
1.0
 70
    24
 71
     2
 72
     6
 73
     3
 74
     0
 42
0.0000000001
 43
0.0000000001
 40
0.0
 40
0.0
 40
0.0
 40
16.79543345617235
 40
16.79543345617235
 40
16.79543345617235
 10
45.9109428482363
 20
12.09792911716199
 30
0.0
 10
37.51322612015013
 20
12.09792911716199
 30
0.0
 10
29.11550939206396
 20
12.09792911716199
 30
0.0
  0
SPLINE
  5
C7
330
1F
100
AcDbEntity
  8
MAKE2D VISIBLE LINES
100
AcDbSpline
210
0.0
220
0.0
230
1.0
 70
    12
 71
     2
 72
     6
 73
     3
 74
     0
 42
0.0000000001
 43
0.0000000001
 40
0.0
 40
0.0
 40
0.0
 40
1.460206311535241
 40
1.460206311535241
 40
1.460206311535241
 10
27.60057897819711
 20
11.59996261913329
 30
0.0
 41
1.0
 10
28.33068213396472
 20
11.59996262030742
 30
0.0
 41
0.999999999999991
 10
29.06078528973232
 20
11.59996242407034
 30
0.0
 41
1.0
  0
SPLINE
  5
C8
330
1F
100
AcDbEntity
  8
DEFAULT
100
AcDbSpline
210
0.0
220
0.0
230
1.0
 70
    12
 71
     2
 72
     8
 73
     5
 74
     0
 42
0.0000000001
 43
0.0000000001
 40
-3.0
 40
-3.0
 40
-3.0
 40
-2.0
 40
-1.0
 40
0.0
 40
0.0
 40
0.0
 10
9.84177705600401
 20
76.69288071871728
 30
0.0
 41
1.0
 10
9.839107447287892
 20
76.65281127324272
 30
0.0
 41
1.0
 10
9.834159801506308
 20
76.57264629400916
 30
0.0
 41
1.0
 10
9.820229929134149
 20
76.28479909481621
 30
0.0
 41
1.0
 10
9.81768822289431
 20
76.24472133289359
 30
0.0
 41
1.0
  0
SPLINE
  5
C9
330
1F
100
AcDbEntity
  8
DEFAULT
100
AcDbSpline
210
0.0
220
0.0
230
1.0
 70
     8
 71
     3
 72
    11
 73
     7
 74
     0
 42
0.0000000001
 43
0.0000000001
 40
0.0000000000000001
 40
0.0000000000000001
 40
0.0000000000000001
 40
0.0000000000000001
 40
0.3781335773925084
 40
0.5640830755754028
 40
0.63666157123833
 40
0.705388731348004
 40
0.705388731348004
 40
0.705388731348004
 40
0.705388731348004
 10
9.81768822289431
 20
76.24472133289359
 30
0.0
 10
9.809722048432468
 20
76.11911026167269
 30
0.0
 10
9.79782836187909
 20
75.93092736717117
 30
0.0
 10
9.779844918504358
 20
75.72014394520392
 30
0.0
 10
9.756926189132065
 20
75.61220837487966
 30
0.0
 10
9.719642562340928
 20
75.57766736113592
 30
0.0
 10
9.701445541639691
 20
75.56537708386915
 30
0.0
  0
ARC
  5
CA
330
1F
100
AcDbEntity
  8
DEFAULT
100
AcDbCircle
 10
9.562503827815055
 20
75.77109459437395
 30
0.0
 40
0.2482428125219768
100
AcDbArc
 50
285.943804069262
 51
304.0351122329452
  0
LINE
  5
CB
330
1F
100
AcDbEntity
  8
DEFAULT
100
AcDbLine
 10
7.958221518076277
 20
75.45182435090305
 30
0.0
 11
7.542366650300329
 21
75.18689558183095
 31
0.0
  0
SPLINE
  5
CC
330
1F
100
AcDbEntity
  8
DEFAULT
100
AcDbSpline
210
0.0
220
0.0
230
1.0
 70
     8
 71
     2
 72
    11
 73
     8
 74
     0
 42
0.0000000001
 43
0.0000000001
 40
0.0
 40
0.0
 40
0.0
 40
1.0
 40
2.0
 40
3.0
 40
4.0
 40
5.0
 40
6.0
 40
6.0
 40
6.0
 10
9.39034636872936
 20
77.26278057767135
 30
0.0
 10
9.455635267949054
 20
77.25033926638821
 30
0.0
 10
9.576793432968335
 20
77.19565814243666
 30
0.0
 10
9.681804019733908
 20
77.1141555788106
 30
0.0
 10
9.764857097527416
 20
77.01037267277181
 30
0.0
 10
9.821292236995452
 20
76.88997879327889
 30
0.0
 10
9.845877796858224
 20
76.75925099520751
 30
0.0
 10
9.841794295790484
 20
76.69288746699195
 30
0.0
  0
SPLINE
  5
CD
330
1F
100
AcDbEntity
  8
DEFAULT
100
AcDbSpline
210
0.0
220
0.0
230
1.0
 70
    12
 71
     2
 72
     8
 73
     5
 74
     0
 42
0.0000000001
 43
0.0000000001
 40
-3.0
 40
-3.0
 40
-3.0
 40
-2.0
 40
-1.0
 40
0.0
 40
0.0
 40
0.0
 10
-9.77434627880434
 20
76.69288071871728
 30
0.0
 41
1.0
 10
-9.77167667008822
 20
76.65281127324272
 30
0.0
 41
1.0
 10
-9.766729024306636
 20
76.57264629400916
 30
0.0
 41
1.0
 10
-9.752799151934477
 20
76.28479909481621
 30
0.0
 41
1.0
 10
-9.750257445694638
 20
76.24472133289359
 30
0.0
 41
1.0
  0
SPLINE
  5
CE
330
1F
100
AcDbEntity
  8
DEFAULT
100
AcDbSpline
210
0.0
220
0.0
230
1.0
 70
     8
 71
     3
 72
    11
 73
     7
 74
     0
 42
0.0000000001
 43
0.0000000001
 40
0.0000000000000001
 40
0.0000000000000001
 40
0.0000000000000001
 40
0.0000000000000001
 40
0.3781335773925084
 40
0.5640830755754028
 40
0.63666157123833
 40
0.705388731348004
 40
0.705388731348004
 40
0.705388731348004
 40
0.705388731348004
 10
-9.750257445694638
 20
76.24472133289359
 30
0.0
 10
-9.742291271232796
 20
76.11911026167269
 30
0.0
 10
-9.730397584679418
 20
75.93092736717117
 30
0.0
 10
-9.712414141304686
 20
75.72014394520392
 30
0.0
 10
-9.689495411932393
 20
75.61220837487966
 30
0.0
 10
-9.652211785141256
 20
75.57766736113592
 30
0.0
 10
-9.63401476444002
 20
75.56537708386915
 30
0.0
  0
ARC
  5
CF
330
1F
100
AcDbEntity
  8
DEFAULT
100
AcDbCircle
 10
-9.495073050615384
 20
75.77109459437395
 30
0.0
 40
0.2482428125219768
100
AcDbArc
 50
235.9648877670548
 51
254.056195930738
  0
SPLINE
  5
D0
330
1F
100
AcDbEntity
  8
DEFAULT
100
AcDbSpline
210
0.0
220
0.0
230
1.0
 70
     8
 71
     2
 72
    11
 73
     8
 74
     0
 42
0.0000000001
 43
0.0000000001
 40
0.0
 40
0.0
 40
0.0
 40
1.0
 40
2.0
 40
3.0
 40
4.0
 40
5.0
 40
6.0
 40
6.0
 40
6.0
 10
-9.654237706534369
 20
75.85833403206883
 30
0.0
 10
-9.653957462239484
 20
75.95417530991926
 30
0.0
 10
-9.642448376393412
 20
76.14550745783612
 30
0.0
 10
-9.626635025380873
 20
76.33650848322847
 30
0.0
 10
-9.59928795480837
 20
76.52632616216334
 30
0.0
 10
-9.549473668244639
 20
76.7116877773899
 30
0.0
 10
-9.468584831132953
 20
76.88623777765892
 30
0.0
 10
-9.41072892688238
 20
76.96286982594847
 30
0.0
  0
SPLINE
  5
D1
330
1F
100
AcDbEntity
  8
DEFAULT
100
AcDbSpline
210
0.0
220
0.0
230
1.0
 70
    12
 71
     2
 72
     6
 73
     3
 74
     0
 42
0.0000000001
 43
0.0000000001
 40
0.0
 40
0.0
 40
0.0
 40
0.0742368075508645
 40
0.0742368075508645
 40
0.0742368075508645
 10
-9.302240237271485
 20
77.33329700462801
 30
0.0
 41
1.0
 10
-9.313188170963082
 20
77.29782980856746
 30
0.0
 41
0.9999981765885326
 10
-9.324000564140386
 20
77.26232105750108
 30
0.0
 41
1.0
  0
SPLINE
  5
D2
330
1F
100
AcDbEntity
  8
DEFAULT
100
AcDbSpline
210
0.0
220
0.0
230
1.0
 70
     8
 71
     2
 72
    11
 73
     8
 74
     0
 42
0.0000000001
 43
0.0000000001
 40
0.0
 40
0.0
 40
0.0
 40
1.0
 40
2.0
 40
3.0
 40
4.0
 40
5.0
 40
6.0
 40
6.0
 40
6.0
 10
9.72166848373404
 20
75.85833403206883
 30
0.0
 10
9.721388239439156
 20
75.95417530991926
 30
0.0
 10
9.709879153593084
 20
76.14550745783612
 30
0.0
 10
9.694065802580544
 20
76.33650848322847
 30
0.0
 10
9.666718732008041
 20
76.52632616216334
 30
0.0
 10
9.61690444544431
 20
76.7116877773899
 30
0.0
 10
9.536015608332624
 20
76.88623777765892
 30
0.0
 10
9.478159704082051
 20
76.96286982594847
 30
0.0
  0
SPLINE
  5
D3
330
1F
100
AcDbEntity
  8
DEFAULT
100
AcDbSpline
210
0.0
220
0.0
230
1.0
 70
    12
 71
     2
 72
     6
 73
     3
 74
     0
 42
0.0000000001
 43
0.0000000001
 40
-4.878290109995292
 40
-4.878290109995292
 40
-4.878290109995292
 40
0.0
 40
0.0
 40
0.0
 10
4.863927365356309
 20
76.6414392667433
 30
0.0
 41
1.0
 10
2.481966193329545
 20
77.20741634151149
 30
0.0
 41
0.9934760685754098
 10
0.033715388599848
 20
77.21912409763972
 30
0.0
 41
0.9999918043754388
  0
SPLINE
  5
D4
330
1F
100
AcDbEntity
  8
DEFAULT
100
AcDbSpline
210
0.0
220
0.0
230
1.0
 70
    12
 71
     2
 72
     6
 73
     3
 74
     0
 42
0.0000000001
 43
0.0000000001
 40
0.0
 40
0.0
 40
0.0
 40
4.878290109995292
 40
4.878290109995292
 40
4.878290109995292
 10
0.033715388599848
 20
77.21912409763972
 30
0.0
 41
0.9999918043754388
 10
-2.414535416129876
 20
77.20741634151149
 30
0.0
 41
0.9934760685754098
 10
-4.796496588156637
 20
76.6414392667433
 30
0.0
 41
1.0
  0
SPLINE
  5
D5
330
1F
100
AcDbEntity
  8
DEFAULT
100
AcDbSpline
210
0.0
220
0.0
230
1.0
 70
     8
 71
     2
 72
    11
 73
     8
 74
     0
 42
0.0000000001
 43
0.0000000001
 40
0.0
 40
0.0
 40
0.0
 40
1.0
 40
2.0
 40
3.0
 40
4.0
 40
5.0
 40
6.0
 40
6.0
 40
6.0
 10
-9.322915591529688
 20
77.26278057767135
 30
0.0
 10
-9.388204490749382
 20
77.25033926638821
 30
0.0
 10
-9.509362655768664
 20
77.19565814243666
 30
0.0
 10
-9.614373242534237
 20
77.1141555788106
 30
0.0
 10
-9.697426320327745
 20
77.01037267277181
 30
0.0
 10
-9.75386145979578
 20
76.88997879327889
 30
0.0
 10
-9.778447019658552
 20
76.75925099520751
 30
0.0
 10
-9.774363518590812
 20
76.69288746699195
 30
0.0
  0
SPLINE
  5
D6
330
1F
100
AcDbEntity
  8
DEFAULT
100
AcDbSpline
210
0.0
220
0.0
230
1.0
 70
    12
 71
     2
 72
    10
 73
     7
 74
     0
 42
0.0000000001
 43
0.0000000001
 40
-0.7644817079169229
 40
-0.7644817079169229
 40
-0.7644817079169229
 40
-0.1060175460643373
 40
-0.1060175460643373
 40
0.0
 40
0.0
 40
0.1282201628013348
 40
0.1282201628013348
 40
0.1282201628013348
 10
9.609510740676706
 20
76.40168493462082
 30
0.0
 41
0.9999992040962243
 10
9.669622581777233
 20
76.0778525600134
 30
0.0
 41
0.9993961059510184
 10
9.756249555736888
 20
75.7081370464026
 30
0.0
 41
0.9999992032399301
 10
9.76993346329325
 20
75.65342626094565
 30
0.0
 41
0.912286974915978
 10
9.738143909616019
 20
75.60684360700387
 30
0.0
 41
1.0
 10
9.693465098934455
 20
75.55430458101561
 30
0.0
 41
0.9473303484341768
 10
9.630694741744525
 20
75.5324012906843
 30
0.0
 41
1.0
  0
SPLINE
  5
D7
330
1F
100
AcDbEntity
  8
DEFAULT
100
AcDbSpline
210
0.0
220
0.0
230
1.0
 70
     8
 71
     3
 72
    14
 73
    10
 74
     0
 42
0.0000000001
 43
0.0000000001
 40
0.0
 40
0.0
 40
0.0
 40
0.0
 40
0.4769411130260029
 40
1.094312261690871
 40
2.259118278458852
 40
3.620449295513177
 40
6.166555932487759
 40
7.352656220994111
 40
10.1118640375627
 40
10.1118640375627
 40
10.1118640375627
 40
10.1118640375627
 10
9.630694741744525
 20
75.5324012906843
 30
0.0
 10
9.479093524590487
 20
75.47950107436313
 30
0.0
 10
9.121263871466871
 20
75.41896574970633
 30
0.0
 10
8.364660083505262
 20
75.36927819111062
 30
0.0
 10
7.327468902249384
 20
75.55148563998029
 30
0.0
 10
5.733719068898983
 20
76.13224480577097
 30
0.0
 10
4.266939101173412
 20
76.99870272309306
 30
0.0
 10
2.265083186424127
 20
77.8262869167171
 30
0.0
 10
0.9538823327221928
 20
78.05962424365563
 30
0.0
 10
0.0337153885998356
 20
78.05754669308203
 30
0.0
  0
SPLINE
  5
D8
330
1F
100
AcDbEntity
  8
DEFAULT
100
AcDbSpline
210
0.0
220
0.0
230
1.0
 70
     8
 71
     3
 72
    14
 73
    10
 74
     0
 42
0.0000000001
 43
0.0000000001
 40
-10.1118640375627
 40
-10.1118640375627
 40
-10.1118640375627
 40
-10.1118640375627
 40
-7.352656220994111
 40
-6.166555932487759
 40
-3.620449295513177
 40
-2.259118278458852
 40
-1.094312261690871
 40
-0.4769411130260029
 40
0.0
 40
0.0
 40
0.0
 40
0.0
 10
0.0337153885998356
 20
78.05754669308203
 30
0.0
 10
-0.8864515555225216
 20
78.05962424365563
 30
0.0
 10
-2.197652409224455
 20
77.8262869167171
 30
0.0
 10
-4.19950832397374
 20
76.99870272309306
 30
0.0
 10
-5.666288291699312
 20
76.13224480577097
 30
0.0
 10
-7.260038125049713
 20
75.55148563998029
 30
0.0
 10
-8.29722930630559
 20
75.36927819111062
 30
0.0
 10
-9.0538330942672
 20
75.41896574970633
 30
0.0
 10
-9.411662747390816
 20
75.47950107436313
 30
0.0
 10
-9.563263964544854
 20
75.5324012906843
 30
0.0
  0
SPLINE
  5
D9
330
1F
100
AcDbEntity
  8
DEFAULT
100
AcDbSpline
210
0.0
220
0.0
230
1.0
 70
    12
 71
     2
 72
    10
 73
     7
 74
     0
 42
0.0000000001
 43
0.0000000001
 40
-0.1282201628013348
 40
-0.1282201628013348
 40
-0.1282201628013348
 40
0.0
 40
0.0
 40
0.1060175460643373
 40
0.1060175460643373
 40
0.7644817079169229
 40
0.7644817079169229
 40
0.7644817079169229
 10
-9.563263964544854
 20
75.5324012906843
 30
0.0
 41
1.0
 10
-9.626034321734778
 20
75.55430458101561
 30
0.0
 41
0.9473303484341768
 10
-9.670713132416347
 20
75.60684360700387
 30
0.0
 41
1.0
 10
-9.702502686093586
 20
75.65342626094565
 30
0.0
 41
0.912286974915978
 10
-9.68881877853722
 20
75.7081370464026
 30
0.0
 41
0.9999992032399301
 10
-9.602191804577558
 20
76.0778525600134
 30
0.0
 41
0.9993961059510184
 10
-9.542079963477025
 20
76.40168493462082
 30
0.0
 41
0.9999992040962243
  0
SPLINE
  5
DA
330
1F
100
AcDbEntity
  8
DEFAULT
100
AcDbSpline
210
0.0
220
0.0
230
1.0
 70
     8
 71
     3
 72
    19
 73
    15
 74
     0
 42
0.0000000001
 43
0.0000000001
 40
-11.51386883183247
 40
-11.51386883183247
 40
-11.51386883183247
 40
-11.51386883183247
 40
-10.86335533494464
 40
-9.710123961932329
 40
-9.470060216773138
 40
-9.238659435547545
 40
-9.218595657282524
 40
-9.090866166954358
 40
-9.019515739888016
 40
-8.91937015223986
 40
-6.899475607671127
 40
-4.462819732511551
 40
-2.232247940101095
 40
0.0
 40
0.0
 40
0.0
 40
0.0
 10
-9.54207996347703
 20
76.40168493462082
 30
0.0
 10
-9.502522512729707
 20
76.61478742781347
 30
0.0
 10
-9.340388867480621
 20
77.24681689993554
 30
0.0
 10
-9.119995735566897
 20
77.89113973941997
 30
0.0
 10
-8.965938315632181
 20
78.41067004420248
 30
0.0
 10
-8.924526502619495
 20
78.56831579044112
 30
0.0
 10
-8.891190588411996
 20
78.69186275660738
 30
0.0
 10
-8.83655534463585
 20
78.74370594801351
 30
0.0
 10
-8.757270609264618
 20
78.80496359981728
 30
0.0
 10
-8.078622120500706
 20
79.07580665279161
 30
0.0
 10
-6.641528495817022
 20
79.56906229534417
 30
0.0
 10
-4.476279334662403
 20
80.1082931558085
 30
0.0
 10
-2.197338074070894
 20
80.43376931739385
 30
0.0
 10
-0.7102072119077383
 20
80.50328123277276
 30
0.0
 10
0.0337153885998356
 20
80.50337622642351
 30
0.0
  0
SPLINE
  5
DB
330
1F
100
AcDbEntity
  8
DEFAULT
100
AcDbSpline
210
0.0
220
0.0
230
1.0
 70
     8
 71
     3
 72
    19
 73
    15
 74
     0
 42
0.0000000001
 43
0.0000000001
 40
0.0
 40
0.0
 40
0.0
 40
0.0
 40
2.232247940101095
 40
4.462819732511551
 40
6.899475607671127
 40
8.91937015223986
 40
9.019515739888016
 40
9.090866166954358
 40
9.218595657282524
 40
9.238659435547545
 40
9.470060216773138
 40
9.710123961932329
 40
10.86335533494464
 40
11.51386883183247
 40
11.51386883183247
 40
11.51386883183247
 40
11.51386883183247
 10
0.0337153885998356
 20
80.50337622642351
 30
0.0
 10
0.7776379891074094
 20
80.50328123277276
 30
0.0
 10
2.264768851270565
 20
80.43376931739385
 30
0.0
 10
4.543710111862074
 20
80.1082931558085
 30
0.0
 10
6.708959273016694
 20
79.56906229534417
 30
0.0
 10
8.146052897700377
 20
79.07580665279161
 30
0.0
 10
8.82470138646429
 20
78.80496359981728
 30
0.0
 10
8.903986121835521
 20
78.74370594801351
 30
0.0
 10
8.958621365611668
 20
78.69186275660738
 30
0.0
 10
8.991957279819166
 20
78.56831579044112
 30
0.0
 10
9.033369092831853
 20
78.41067004420248
 30
0.0
 10
9.187426512766569
 20
77.89113973941997
 30
0.0
 10
9.407819644680293
 20
77.24681689993554
 30
0.0
 10
9.569953289929378
 20
76.61478742781347
 30
0.0
 10
9.609510740676702
 20
76.40168493462082
 30
0.0
  0
SPLINE
  5
DC
330
1F
100
AcDbEntity
  8
DEFAULT
100
AcDbSpline
210
0.0
220
0.0
230
1.0
 70
     8
 71
     2
 72
    13
 73
    10
 74
     0
 42
0.0000000001
 43
0.0000000001
 40
0.0
 40
0.0
 40
0.0
 40
1.0
 40
2.0
 40
3.0
 40
4.0
 40
5.0
 40
6.0
 40
7.0
 40
8.0
 40
8.0
 40
8.0
 10
-7.398462256051184
 20
75.552794917575
 30
0.0
 10
-7.601443452231615
 20
74.59379842256556
 30
0.0
 10
-7.951586583578854
 20
72.66480154334306
 30
0.0
 10
-8.24088425188881
 20
70.72575181529629
 30
0.0
 10
-8.469527367470244
 20
68.77863826220812
 30
0.0
 10
-8.651714718463404
 20
66.82670641380577
 30
0.0
 10
-8.797914433623683
 20
64.87169657036141
 30
0.0
 10
-8.904642805508482
 20
62.91445258277848
 30
0.0
 10
-8.91550568125839
 20
60.95100941723186
 30
0.0
 10
-8.744835349333721
 20
59.98293410114173
 30
0.0
  0
SPLINE
  5
DD
330
1F
100
AcDbEntity
  8
DEFAULT
100
AcDbSpline
210
0.0
220
0.0
230
1.0
 70
    12
 71
     3
 72
    11
 73
     7
 74
     0
 42
0.0000000001
 43
0.0000000001
 40
0.0285067606237307
 40
0.0285067606237307
 40
0.0285067606237307
 40
0.0285067606237307
 40
0.2036422705824251
 40
0.3529649579604772
 40
0.5498106380855059
 40
0.8536425016506567
 40
0.8536425016506567
 40
0.8536425016506567
 40
0.8536425016506567
 10
-8.744835349333721
 20
59.98293410114173
 30
0.0
 41
1.0
 10
-8.73614485035615
 20
59.93363990073898
 30
0.0
 41
1.0
 10
-8.695873549289638
 20
59.82692446035767
 30
0.0
 41
1.0
 10
-8.602910227963713
 20
59.70587328548631
 30
0.0
 41
1.0
 10
-8.44349593833662
 20
59.5892405893356
 30
0.0
 41
1.0
 10
-8.287090581038592
 20
59.54241910729667
 30
0.0
 41
1.0
 10
-8.18797504038836
 20
59.52888375376477
 30
0.0
 41
1.0
  0
SPLINE
  5
DE
330
1F
100
AcDbEntity
  8
DEFAULT
100
AcDbSpline
210
0.0
220
0.0
230
1.0
 70
    12
 71
     2
 72
     6
 73
     3
 74
     0
 42
0.0000000001
 43
0.0000000001
 40
0.0
 40
0.0
 40
0.0
 40
8.250474918043878
 40
8.250474918043878
 40
8.250474918043878
 10
-8.18797504038836
 20
59.52888375376477
 30
0.0
 41
1.0
 10
-4.096690741679682
 20
58.96120541906895
 30
0.0
 41
0.9976037974956197
 10
0.0337153885998299
 20
58.96362459553067
 30
0.0
 41
0.9999983358919136
  0
SPLINE
  5
DF
330
1F
100
AcDbEntity
  8
DEFAULT
100
AcDbSpline
210
0.0
220
0.0
230
1.0
 70
    12
 71
     2
 72
     6
 73
     3
 74
     0
 42
0.0000000001
 43
0.0000000001
 40
-8.250474918043878
 40
-8.250474918043878
 40
-8.250474918043878
 40
0.0
 40
0.0
 40
0.0
 10
0.0337153885998299
 20
58.96362459553067
 30
0.0
 41
0.9999983358919136
 10
4.164121518879356
 20
58.96120541906895
 30
0.0
 41
0.9976037974956197
 10
8.255405817588032
 20
59.52888375376477
 30
0.0
 41
1.0
  0
SPLINE
  5
E0
330
1F
100
AcDbEntity
  8
DEFAULT
100
AcDbSpline
210
0.0
220
0.0
230
1.0
 70
    12
 71
     3
 72
    11
 73
     7
 74
     0
 42
0.0000000001
 43
0.0000000001
 40
-0.8536425016506567
 40
-0.8536425016506567
 40
-0.8536425016506567
 40
-0.8536425016506567
 40
-0.5498106380855059
 40
-0.3529649579604772
 40
-0.2036422705824251
 40
-0.0285067606237307
 40
-0.0285067606237307
 40
-0.0285067606237307
 40
-0.0285067606237307
 10
8.255405817588032
 20
59.52888375376477
 30
0.0
 41
1.0
 10
8.354521358238264
 20
59.54241910729667
 30
0.0
 41
1.0
 10
8.510926715536291
 20
59.5892405893356
 30
0.0
 41
1.0
 10
8.670341005163385
 20
59.70587328548631
 30
0.0
 41
1.0
 10
8.76330432648931
 20
59.82692446035767
 30
0.0
 41
1.0
 10
8.803575627555821
 20
59.93363990073898
 30
0.0
 41
1.0
 10
8.812266126533393
 20
59.98293410114173
 30
0.0
 41
1.0
  0
SPLINE
  5
E1
330
1F
100
AcDbEntity
  8
DEFAULT
100
AcDbSpline
210
0.0
220
0.0
230
1.0
 70
     8
 71
     2
 72
    13
 73
    10
 74
     0
 42
0.0000000001
 43
0.0000000001
 40
-8.0
 40
-8.0
 40
-8.0
 40
-7.0
 40
-6.0
 40
-5.0
 40
-4.0
 40
-3.0
 40
-2.0
 40
-1.0
 40
0.0
 40
0.0
 40
0.0
 10
8.812266126533393
 20
59.98293410114173
 30
0.0
 10
8.982936458458061
 20
60.95100941723186
 30
0.0
 10
8.972073582708154
 20
62.91445258277848
 30
0.0
 10
8.865345210823355
 20
64.87169657036141
 30
0.0
 10
8.719145495663076
 20
66.82670641380577
 30
0.0
 10
8.536958144669915
 20
68.77863826220812
 30
0.0
 10
8.308315029088481
 20
70.72575181529629
 30
0.0
 10
8.019017360778525
 20
72.66480154334306
 30
0.0
 10
7.668874229431287
 20
74.59379842256556
 30
0.0
 10
7.465893033250856
 20
75.552794917575
 30
0.0
  0
LINE
  5
E2
330
1F
100
AcDbEntity
  8
DEFAULT
100
AcDbLine
 10
-7.890790740876605
 20
75.45182435090305
 30
0.0
 11
-7.474935873100657
 21
75.18689558183095
 31
0.0
  0
SPLINE
  5
E3
330
1F
100
AcDbEntity
  8
DEFAULT
100
AcDbSpline
210
0.0
220
0.0
230
1.0
 70
    12
 71
     2
 72
     6
 73
     3
 74
     0
 42
0.0000000001
 43
0.0000000001
 40
-0.3590936632311201
 40
-0.3590936632311201
 40
-0.3590936632311201
 40
0.0
 40
0.0
 40
0.0
 10
-4.702014073160811
 20
28.14551952799412
 30
0.0
 41
1.0
 10
-4.827563125700678
 20
28.28539007858606
 30
0.0
 41
0.9342250861939277
 10
-4.825759522849784
 20
28.47334721759288
 30
0.0
 41
0.9999983047728426
  0
SPLINE
  5
E4
330
1F
100
AcDbEntity
  8
DEFAULT
100
AcDbSpline
210
0.0
220
0.0
230
1.0
 70
    24
 71
     2
 72
     6
 73
     3
 74
     0
 42
0.0000000001
 43
0.0000000001
 40
0.0
 40
0.0
 40
0.0
 40
0.40304397363726
 40
0.40304397363726
 40
0.40304397363726
 10
-4.825759522849779
 20
28.47334721759288
 30
0.0
 10
-4.824663668079751
 20
28.67486920441151
 30
0.0
 10
-4.823567813309722
 20
28.87639119123014
 30
0.0
  0
SPLINE
  5
E5
330
1F
100
AcDbEntity
  8
DEFAULT
100
AcDbSpline
210
0.0
220
0.0
230
1.0
 70
    12
 71
     2
 72
     6
 73
     3
 74
     0
 42
0.0000000001
 43
0.0000000001
 40
0.0
 40
0.0
 40
0.0
 40
0.3527729993252487
 40
0.3527729993252487
 40
0.3527729993252487
 10
-3.955080214651034
 20
28.147877070047
 30
0.0
 41
1.0
 10
-3.833384252683917
 20
28.28649489762563
 30
0.0
 41
0.935636063196829
 10
-3.833567813309728
 20
28.4709529567806
 30
0.0
 41
1.0
  0
SPLINE
  5
E6
330
1F
100
AcDbEntity
  8
DEFAULT
100
AcDbSpline
210
0.0
220
0.0
230
1.0
 70
    24
 71
     2
 72
     6
 73
     3
 74
     0
 42
0.0000000001
 43
0.0000000001
 40
0.0
 40
0.0
 40
0.0
 40
0.35397136597323
 40
0.35397136597323
 40
0.35397136597323
 10
-3.833567813309728
 20
28.4709529567806
 30
0.0
 10
-3.833567813309728
 20
28.64793863976722
 30
0.0
 10
-3.833567813309728
 20
28.82492432275383
 30
0.0
  0
SPLINE
  5
E7
330
1F
100
AcDbEntity
  8
DEFAULT
100
AcDbSpline
210
0.0
220
0.0
230
1.0
 70
    12
 71
     2
 72
     6
 73
     3
 74
     0
 42
0.0000000001
 43
0.0000000001
 40
-0.3590936632311201
 40
-0.3590936632311201
 40
-0.3590936632311201
 40
0.0
 40
0.0
 40
0.0
 10
4.701856979887722
 20
28.14551952799412
 30
0.0
 41
1.0
 10
4.827406032427603
 20
28.28539007858606
 30
0.0
 41
0.9342250861939277
 10
4.825602429576702
 20
28.47334721759288
 30
0.0
 41
0.9999983047728426
  0
SPLINE
  5
E8
330
1F
100
AcDbEntity
  8
DEFAULT
100
AcDbSpline
210
0.0
220
0.0
230
1.0
 70
    24
 71
     2
 72
     6
 73
     3
 74
     0
 42
0.0000000001
 43
0.0000000001
 40
0.0
 40
0.0
 40
0.0
 40
0.40304397363726
 40
0.40304397363726
 40
0.40304397363726
 10
4.825602429576691
 20
28.47334721759288
 30
0.0
 10
4.824506574806662
 20
28.67486920441151
 30
0.0
 10
4.823410720036634
 20
28.87639119123014
 30
0.0
  0
SPLINE
  5
E9
330
1F
100
AcDbEntity
  8
DEFAULT
100
AcDbSpline
210
0.0
220
0.0
230
1.0
 70
    12
 71
     2
 72
     6
 73
     3
 74
     0
 42
0.0000000001
 43
0.0000000001
 40
0.0
 40
0.0
 40
0.0
 40
0.7473847420755672
 40
0.7473847420755672
 40
0.7473847420755672
 10
4.001285170052228
 20
28.83772965945458
 30
0.0
 41
1.0
 10
4.360004406733467
 20
28.58893940356211
 30
0.0
 41
0.7973745102127584
 10
4.696874362701394
 20
28.86659875413106
 30
0.0
 41
1.0
  0
SPLINE
  5
EA
330
1F
100
AcDbEntity
  8
DEFAULT
100
AcDbSpline
210
0.0
220
0.0
230
1.0
 70
    24
 71
     2
 72
     6
 73
     3
 74
     0
 42
0.0000000001
 43
0.0000000001
 40
0.0
 40
0.0
 40
0.0
 40
0.5321440388778741
 40
0.5321440388778741
 40
0.5321440388778741
 10
4.699803656685418
 20
28.19579872220116
 30
0.0
 10
4.696607188361014
 20
27.92982991021417
 30
0.0
 10
4.69341072003661
 20
27.66386109822717
 30
0.0
  0
SPLINE
  5
EB
330
1F
100
AcDbEntity
  8
DEFAULT
100
AcDbSpline
210
0.0
220
0.0
230
1.0
 70
    12
 71
     2
 72
     6
 73
     3
 74
     0
 42
0.0000000001
 43
0.0000000001
 40
0.0
 40
0.0
 40
0.0
 40
0.2236524678536994
 40
0.2236524678536994
 40
0.2236524678536994
 10
4.69341072003661
 20
27.66386109822717
 30
0.0
 41
1.0
 10
4.6586140018813
 20
27.5490329196094
 30
0.0
 41
0.9010587385208312
 10
4.547160720036629
 20
27.50459770648843
 30
0.0
 41
1.0
  0
SPLINE
  5
EC
330
1F
100
AcDbEntity
  8
DEFAULT
100
AcDbSpline
210
0.0
220
0.0
230
1.0
 70
     8
 71
     3
 72
     8
 73
     4
 74
     0
 42
0.0000000001
 43
0.0000000001
 40
0.0
 40
0.0
 40
0.0
 40
0.0
 40
1.0
 40
1.0
 40
1.0
 40
1.0
 10
4.547160720036629
 20
27.50459770648843
 30
0.0
 10
4.411696723300736
 20
27.45058968208976
 30
0.0
 10
4.245124716772537
 20
27.45058968208976
 30
0.0
 10
4.109660720036644
 20
27.50459770648843
 30
0.0
  0
SPLINE
  5
ED
330
1F
100
AcDbEntity
  8
DEFAULT
100
AcDbSpline
210
0.0
220
0.0
230
1.0
 70
    12
 71
     2
 72
     6
 73
     3
 74
     0
 42
0.0000000001
 43
0.0000000001
 40
0.0
 40
0.0
 40
0.0
 40
0.2236524678536981
 40
0.2236524678536981
 40
0.2236524678536981
 10
4.109660720036644
 20
27.50459770648843
 30
0.0
 41
1.0
 10
3.998207438191973
 20
27.5490329196094
 30
0.0
 41
0.9010587385208331
 10
3.963410720036663
 20
27.66386109822717
 30
0.0
 41
1.0
  0
SPLINE
  5
EE
330
1F
100
AcDbEntity
  8
DEFAULT
100
AcDbSpline
210
0.0
220
0.0
230
1.0
 70
    24
 71
     2
 72
     6
 73
     3
 74
     0
 42
0.0000000001
 43
0.0000000001
 40
0.0
 40
0.0
 40
0.0
 40
0.5321440388778741
 40
0.5321440388778741
 40
0.5321440388778741
 10
3.963410720036663
 20
27.66386109822717
 30
0.0
 10
3.958745652523127
 20
27.92989221797335
 30
0.0
 10
3.954080585009592
 20
28.19592333771954
 30
0.0
  0
SPLINE
  5
EF
330
1F
100
AcDbEntity
  8
DEFAULT
100
AcDbSpline
210
0.0
220
0.0
230
1.0
 70
     8
 71
     3
 72
    14
 73
    10
 74
     0
 42
0.0000000001
 43
0.0000000001
 40
0.0
 40
0.0
 40
0.0
 40
0.0
 40
0.0011429773882848
 40
0.0041559612549722
 40
0.010740543323966
 40
0.120253821530844
 40
0.2135872029610184
 40
0.4059865476491976
 40
0.8047865810560537
 40
0.8047865810560537
 40
0.8047865810560537
 40
0.8047865810560537
 10
3.954080585009592
 20
28.19592333771954
 30
0.0
 10
3.953986152331481
 20
28.19641406806464
 30
0.0
 10
3.954651258113756
 20
28.19765812822173
 30
0.0
 10
3.958720591370323
 20
28.19694404944623
 30
0.0
 10
3.990635224327022
 20
28.17414599362725
 30
0.0
 10
4.048448558225445
 20
28.13298425233829
 30
0.0
 10
4.168590100582549
 20
28.08074251681436
 30
0.0
 10
4.39843148378722
 20
28.0391368546906
 30
0.0
 10
4.592484481440835
 20
28.1134313200847
 30
0.0
 10
4.699803656685418
 20
28.19579872220116
 30
0.0
  0
SPLINE
  5
F0
330
1F
100
AcDbEntity
  8
DEFAULT
100
AcDbSpline
210
0.0
220
0.0
230
1.0
 70
     8
 71
     3
 72
    12
 73
     8
 74
     0
 42
0.0000000001
 43
0.0000000001
 40
0.0
 40
0.0
 40
0.0
 40
0.0
 40
1.45186367659028
 40
2.488811453363902
 40
4.456822206700376
 40
6.316482208258889
 40
8.273460492208956
 40
8.273460492208956
 40
8.273460492208956
 40
8.273460492208956
 10
-0.0000785466365443
 20
29.07691458555084
 30
0.0
 10
0.4838673708671308
 20
29.0770139600838
 30
0.0
 10
1.313488036338015
 20
29.07742395065232
 30
0.0
 10
2.798886325880829
 20
29.1057021691043
 30
0.0
 10
4.418635905356666
 20
29.19053311585051
 30
0.0
 10
6.33699618187589
 20
29.3934786803479
 30
0.0
 10
7.591486339306883
 20
29.60883846382836
 30
0.0
 10
8.233070399942306
 20
29.72609058744177
 30
0.0
  0
SPLINE
  5
F1
330
1F
100
AcDbEntity
  8
DEFAULT
100
AcDbSpline
210
0.0
220
0.0
230
1.0
 70
     8
 71
     3
 72
    11
 73
     7
 74
     0
 42
0.0000000001
 43
0.0000000001
 40
-0.6678296448444616
 40
-0.6678296448444616
 40
-0.6678296448444616
 40
-0.6678296448444616
 40
-0.3055450446207338
 40
-0.1449430031713405
 40
-0.0723027297364637
 40
0.0
 40
0.0
 40
0.0
 40
0.0
 10
8.233070399942306
 20
29.72609058744177
 30
0.0
 10
8.351464692395197
 20
29.74828316221544
 30
0.0
 10
8.519038720965256
 20
29.80907010265121
 30
0.0
 10
8.672703408934169
 20
29.93767231177254
 30
0.0
 10
8.73382508872875
 20
30.01966692219868
 30
0.0
 10
8.755250894679065
 20
30.0632038506353
 30
0.0
 10
8.763530595365438
 20
30.08585029192875
 30
0.0
  0
SPLINE
  5
F2
330
1F
100
AcDbEntity
  8
DEFAULT
100
AcDbSpline
210
0.0
220
0.0
230
1.0
 70
    12
 71
     5
 72
    42
 73
    36
 74
     0
 42
0.0000000001
 43
0.0000000001
 40
0.0
 40
0.0
 40
0.0
 40
0.0
 40
0.0
 40
0.0
 40
0.2855995164709133
 40
0.2855995164709133
 40
0.2855995164709133
 40
0.2855995164709133
 40
0.2855995164709133
 40
0.6563088386039608
 40
0.6563088386039608
 40
0.6563088386039608
 40
0.6563088386039608
 40
0.6563088386039608
 40
1.656308838603961
 40
1.656308838603961
 40
1.656308838603961
 40
1.656308838603961
 40
1.656308838603961
 40
2.019952292718224
 40
2.019952292718224
 40
2.019952292718224
 40
2.790692718633749
 40
2.790692718633749
 40
2.790692718633749
 40
3.93495942312767
 40
3.93495942312767
 40
3.93495942312767
 40
5.747266165788471
 40
5.747266165788471
 40
5.747266165788471
 40
8.068508251492666
 40
8.068508251492666
 40
8.068508251492666
 40
10.53337729089963
 40
10.53337729089963
 40
10.53337729089963
 40
10.53337729089963
 40
10.53337729089963
 40
10.53337729089963
 10
8.763530595365438
 20
30.08585029192875
 30
0.0
 41
1.0
 10
8.78314431882901
 20
30.13949728398662
 30
0.0
 41
0.9999866190723671
 10
8.814503770874675
 20
30.28077607372801
 30
0.0
 41
0.9999799286085507
 10
8.828690643586368
 20
30.33610679981879
 30
0.0
 41
0.9999799286085507
 10
8.84309915893786
 20
30.39138013366854
 30
0.0
 41
0.9999866190723672
 10
8.85772902328155
 20
30.44659496701649
 30
0.0
 41
1.0
 10
8.879388774979766
 20
30.51750876926533
 30
0.0
 41
0.9994874743699717
 10
8.899255525064174
 20
30.58896079688482
 30
0.0
 41
0.9992312125689933
 10
8.917312608901469
 20
30.66089648999939
 30
0.0
 41
0.9992312145970651
 10
8.93354613725177
 20
30.73326051669892
 30
0.0
 41
0.9994874804541871
 10
8.94794503186187
 20
30.80599691483444
 30
0.0
 41
1.000000010140359
 10
8.956329636197317
 20
30.84835196608437
 30
0.0
 41
1.000000010140359
 10
8.964091393219263
 20
30.8908303161648
 30
0.0
 41
1.000000010140359
 10
8.888812357423014
 20
30.99002234377868
 30
0.0
 41
1.000000010140359
 10
8.847113883208877
 20
30.97881076847743
 30
0.0
 41
1.000000010140359
 10
8.805301068917176
 20
30.96804320063445
 30
0.0
 41
1.000000010140359
 10
8.734875419778083
 20
30.94990730215846
 30
0.0
 41
1.000000010140359
 10
8.664134310757927
 20
30.93303329988233
 30
0.0
 41
1.000000010140359
 10
8.593172742418835
 20
30.9170588224194
 30
0.0
 41
1.000000010140359
 10
8.37141712794416
 20
30.8689021696884
 30
0.0
 41
1.000000010140359
 10
8.14936511722126
 20
30.82244636434723
 30
0.0
 41
1.000000010140359
 10
7.998388809900901
 20
30.79145190740487
 30
0.0
 41
1.000000010140359
 10
7.623079629311706
 20
30.71531999061891
 30
0.0
 41
1.000000010140359
 10
7.247490414208503
 20
30.64003652100848
 30
0.0
 41
1.000000010140359
 10
7.022850604527765
 20
30.59611925115356
 30
0.0
 41
1.000000010140359
 10
6.441567829198503
 20
30.48737406509666
 30
0.0
 41
1.000000010140359
 10
5.857304783718265
 20
30.39594564850808
 30
0.0
 41
1.000000010140359
 10
5.498237789799611
 20
30.34599954142403
 30
0.0
 41
1.000000010140359
 10
4.677590217623751
 20
30.24505454831489
 30
0.0
 41
1.000000010140359
 10
3.854108607420777
 20
30.17156971861306
 30
0.0
 41
1.000000010140359
 10
3.391011995483364
 20
30.1377518358407
 30
0.0
 41
1.000000010140359
 10
2.435281572971745
 20
30.08088379865745
 30
0.0
 41
1.000000010140359
 10
1.478719706277479
 20
30.045382581062
 30
0.0
 41
1.000000010140359
 10
0.9859080672784183
 20
30.03308006594303
 30
0.0
 41
1.000000010140359
 10
0.4929611146337228
 20
30.02707198324882
 30
0.0
 41
1.000000010140359
 10
-0.0000785466365435
 20
30.02767199168491
 30
0.0
 41
1.000000010140359
  0
SPLINE
  5
F3
330
1F
100
AcDbEntity
  8
DEFAULT
100
AcDbSpline
210
0.0
220
0.0
230
1.0
 70
    12
 71
     5
 72
    42
 73
    36
 74
     0
 42
0.0000000001
 43
0.0000000001
 40
-10.53337729089963
 40
-10.53337729089963
 40
-10.53337729089963
 40
-10.53337729089963
 40
-10.53337729089963
 40
-10.53337729089963
 40
-8.068508251492666
 40
-8.068508251492666
 40
-8.068508251492666
 40
-5.747266165788471
 40
-5.747266165788471
 40
-5.747266165788471
 40
-3.93495942312767
 40
-3.93495942312767
 40
-3.93495942312767
 40
-2.790692718633749
 40
-2.790692718633749
 40
-2.790692718633749
 40
-2.019952292718224
 40
-2.019952292718224
 40
-2.019952292718224
 40
-1.656308838603961
 40
-1.656308838603961
 40
-1.656308838603961
 40
-1.656308838603961
 40
-1.656308838603961
 40
-0.6563088386039608
 40
-0.6563088386039608
 40
-0.6563088386039608
 40
-0.6563088386039608
 40
-0.6563088386039608
 40
-0.2855995164709133
 40
-0.2855995164709133
 40
-0.2855995164709133
 40
-0.2855995164709133
 40
-0.2855995164709133
 40
0.0
 40
0.0
 40
0.0
 40
0.0
 40
0.0
 40
0.0
 10
-0.0000785466365435
 20
30.02767199168491
 30
0.0
 41
1.000000010140359
 10
-0.4931182079067955
 20
30.02707198324882
 30
0.0
 41
1.000000010140359
 10
-0.9860651605515053
 20
30.03308006594303
 30
0.0
 41
1.000000010140359
 10
-1.478876799550552
 20
30.045382581062
 30
0.0
 41
1.000000010140359
 10
-2.435438666244832
 20
30.08088379865745
 30
0.0
 41
1.000000010140359
 10
-3.391169088756437
 20
30.1377518358407
 30
0.0
 41
1.000000010140359
 10
-3.854265700693865
 20
30.17156971861306
 30
0.0
 41
1.000000010140359
 10
-4.677747310896824
 20
30.24505454831489
 30
0.0
 41
1.000000010140359
 10
-5.498394883072684
 20
30.34599954142403
 30
0.0
 41
1.000000010140359
 10
-5.857461876991352
 20
30.39594564850808
 30
0.0
 41
1.000000010140359
 10
-6.44172492247159
 20
30.48737406509666
 30
0.0
 41
1.000000010140359
 10
-7.023007697800837
 20
30.59611925115356
 30
0.0
 41
1.000000010140359
 10
-7.247647507481576
 20
30.64003652100848
 30
0.0
 41
1.000000010140359
 10
-7.62323672258478
 20
30.71531999061891
 30
0.0
 41
1.000000010140359
 10
-7.998545903173989
 20
30.79145190740487
 30
0.0
 41
1.000000010140359
 10
-8.149522210494332
 20
30.82244636434723
 30
0.0
 41
1.000000010140359
 10
-8.371574221217232
 20
30.8689021696884
 30
0.0
 41
1.000000010140359
 10
-8.593329835691907
 20
30.9170588224194
 30
0.0
 41
1.000000010140359
 10
-8.664291404031
 20
30.93303329988233
 30
0.0
 41
1.000000010140359
 10
-8.735032513051156
 20
30.94990730215846
 30
0.0
 41
1.000000010140359
 10
-8.805458162190249
 20
30.96804320063445
 30
0.0
 41
1.000000010140359
 10
-8.847270976481964
 20
30.97881076847743
 30
0.0
 41
1.000000010140359
 10
-8.888969450696086
 20
30.99002234377868
 30
0.0
 41
1.000000010140359
 10
-8.964248486492336
 20
30.8908303161648
 30
0.0
 41
1.000000010140359
 10
-8.956486729470404
 20
30.84835196608437
 30
0.0
 41
1.000000010140359
 10
-8.948102125134943
 20
30.80599691483444
 30
0.0
 41
1.000000010140359
 10
-8.933703230524868
 20
30.73326051669892
 30
0.0
 41
0.9994874804541871
 10
-8.917469702174532
 20
30.66089648999939
 30
0.0
 41
0.9992312145970651
 10
-8.899412618337267
 20
30.58896079688482
 30
0.0
 41
0.9992312125689933
 10
-8.879545868252851
 20
30.51750876926533
 30
0.0
 41
0.9994874743699717
 10
-8.857886116554639
 20
30.44659496701649
 30
0.0
 41
1.0
 10
-8.843256252210962
 20
30.39138013366854
 30
0.0
 41
0.9999866190723672
 10
-8.828847736859444
 20
30.33610679981879
 30
0.0
 41
0.9999799286085507
 10
-8.814660864147763
 20
30.28077607372801
 30
0.0
 41
0.9999799286085507
 10
-8.783301412102086
 20
30.13949728398662
 30
0.0
 41
0.9999866190723671
 10
-8.763687688638527
 20
30.08585029192875
 30
0.0
 41
1.0
  0
SPLINE
  5
F4
330
1F
100
AcDbEntity
  8
DEFAULT
100
AcDbSpline
210
0.0
220
0.0
230
1.0
 70
     8
 71
     3
 72
    11
 73
     7
 74
     0
 42
0.0000000001
 43
0.0000000001
 40
0.0
 40
0.0
 40
0.0
 40
0.0
 40
0.0723027297364637
 40
0.1449430031713405
 40
0.3055450446207338
 40
0.6678296448444616
 40
0.6678296448444616
 40
0.6678296448444616
 40
0.6678296448444616
 10
-8.763687688638527
 20
30.08585029192875
 30
0.0
 10
-8.755407987952154
 20
30.0632038506353
 30
0.0
 10
-8.733982182001839
 20
30.01966692219868
 30
0.0
 10
-8.672860502207257
 20
29.93767231177254
 30
0.0
 10
-8.519195814238344
 20
29.80907010265121
 30
0.0
 10
-8.351621785668286
 20
29.74828316221544
 30
0.0
 10
-8.233227493215395
 20
29.72609058744177
 30
0.0
  0
SPLINE
  5
F5
330
1F
100
AcDbEntity
  8
DEFAULT
100
AcDbSpline
210
0.0
220
0.0
230
1.0
 70
     8
 71
     3
 72
    12
 73
     8
 74
     0
 42
0.0000000001
 43
0.0000000001
 40
-8.273460492208956
 40
-8.273460492208956
 40
-8.273460492208956
 40
-8.273460492208956
 40
-6.316482208258889
 40
-4.456822206700376
 40
-2.488811453363902
 40
-1.45186367659028
 40
0.0
 40
0.0
 40
0.0
 40
0.0
 10
-8.233227493215395
 20
29.72609058744177
 30
0.0
 10
-7.591643432579971
 20
29.60883846382836
 30
0.0
 10
-6.337153275148978
 20
29.3934786803479
 30
0.0
 10
-4.418792998629755
 20
29.19053311585051
 30
0.0
 10
-2.799043419153918
 20
29.1057021691043
 30
0.0
 10
-1.313645129611103
 20
29.07742395065232
 30
0.0
 10
-0.4840244641402194
 20
29.0770139600838
 30
0.0
 10
-0.0000785466365443
 20
29.07691458555084
 30
0.0
  0
SPLINE
  5
F6
330
1F
100
AcDbEntity
  8
DEFAULT
100
AcDbSpline
210
0.0
220
0.0
230
1.0
 70
    12
 71
     3
 72
    27
 73
    23
 74
     0
 42
0.0000000001
 43
0.0000000001
 40
0.0
 40
0.0
 40
0.0
 40
0.0
 40
1.244728433228314
 40
1.244728433228314
 40
1.244728433228314
 40
1.870401398594343
 40
1.870401398594343
 40
1.870401398594343
 40
4.920229152264927
 40
4.920229152264927
 40
4.920229152264927
 40
5.772800495400565
 40
6.586620086222773
 40
8.673929290600562
 40
8.673929290600562
 40
8.673929290600562
 40
9.446987305907031
 40
10.18186587578625
 40
11.72195382020863
 40
14.37741709520271
 40
14.41934725534845
 40
14.5374141795705
 40
14.5374141795705
 40
14.5374141795705
 40
14.5374141795705
 10
-9.812102753615633
 20
30.35728443827139
 30
0.0
 41
1.0
 10
-9.805156779896853
 20
30.77213677735864
 30
0.0
 41
0.9999951491592268
 10
-9.799794497370245
 20
31.1876098120437
 30
0.0
 41
0.9999951491592268
 10
-9.796015984070564
 20
31.60369749614596
 30
0.0
 41
1.0
 10
-9.794643068549108
 20
31.81344633792624
 30
0.0
 41
0.9999875412613548
 10
-9.791962743432913
 20
32.02430887298365
 30
0.0
 41
0.9999875412613548
 10
-9.787975108902415
 20
32.23627722007457
 30
0.0
 41
1.0
 10
-9.768359500537208
 20
33.25614476876827
 30
0.0
 41
0.9999999998608998
 10
-9.74875621497072
 20
34.27429861839231
 30
0.0
 41
0.9999999998608998
 10
-9.729165252211132
 20
35.2907387685218
 30
0.0
 41
1.0
 10
-9.725721991632668
 20
35.57495287178611
 30
0.0
 41
1.0
 10
-9.716557759422642
 20
36.13031192680084
 30
0.0
 41
1.0
 10
-9.676707006901225
 20
37.38103757120254
 30
0.0
 41
1.0
 10
-9.6087539336946
 20
38.34591186089808
 30
0.0
 41
1.0
 10
-9.572577519861923
 20
39.04079315448034
 30
0.0
 41
1.0
 10
-9.557599629499947
 20
39.29812324710291
 30
0.0
 41
1.0
 10
-9.524329753850054
 20
39.79971119316284
 30
0.0
 41
1.0
 10
-9.440410368191763
 20
40.81223830468253
 30
0.0
 41
1.0
 10
-9.266051411411425
 20
42.44671354374795
 30
0.0
 41
1.0
 10
-9.065238081507985
 20
43.84502743286479
 30
0.0
 41
1.0
 10
-8.930276203530113
 20
44.77374851656651
 30
0.0
 41
1.0
 10
-8.878856391684536
 20
44.84874724380624
 30
0.0
 41
1.0
 10
-8.850076628461139
 20
44.87431137828667
 30
0.0
 41
1.0
  0
SPLINE
  5
F7
330
1F
100
AcDbEntity
  8
DEFAULT
100
AcDbSpline
210
0.0
220
0.0
230
1.0
 70
     8
 71
     3
 72
    14
 73
    10
 74
     0
 42
0.0000000001
 43
0.0000000001
 40
0.0
 40
0.0
 40
0.0
 40
0.0
 40
0.0559075622214563
 40
0.0815199279409795
 40
0.1553079131419963
 40
0.1666624510078076
 40
2.770559133715509
 40
4.914447712395043
 40
8.877532991886884
 40
8.877532991886884
 40
8.877532991886884
 40
8.877532991886884
 10
-8.850076628461139
 20
44.87431137828667
 30
0.0
 10
-8.83637273473893
 20
44.88648410463264
 30
0.0
 10
-8.78369847506444
 20
44.92049102866258
 30
0.0
 10
-8.734059911654938
 20
44.93266305375073
 30
0.0
 10
-8.696394290242381
 20
44.93795610524926
 30
0.0
 10
-7.810931644357439
 20
44.79961145833512
 30
0.0
 10
-6.244691514889183
 20
44.54415366644381
 30
0.0
 10
-3.356347224457835
 20
44.23808240094391
 30
0.0
 10
-1.321244286726412
 20
44.14728407626645
 30
0.0
 10
-0.0000785466365443
 20
44.14726628181414
 30
0.0
  0
SPLINE
  5
F8
330
1F
100
AcDbEntity
  8
DEFAULT
100
AcDbSpline
210
0.0
220
0.0
230
1.0
 70
     8
 71
     3
 72
    14
 73
    10
 74
     0
 42
0.0000000001
 43
0.0000000001
 40
-8.877532991886884
 40
-8.877532991886884
 40
-8.877532991886884
 40
-8.877532991886884
 40
-4.914447712395043
 40
-2.770559133715509
 40
-0.1666624510078076
 40
-0.1553079131419963
 40
-0.0815199279409795
 40
-0.0559075622214563
 40
0.0
 40
0.0
 40
0.0
 40
0.0
 10
-0.0000785466365443
 20
44.14726628181414
 30
0.0
 10
1.321087193453323
 20
44.14728407626645
 30
0.0
 10
3.356190131184746
 20
44.23808240094391
 30
0.0
 10
6.244534421616095
 20
44.54415366644381
 30
0.0
 10
7.81077455108435
 20
44.79961145833512
 30
0.0
 10
8.696237196969292
 20
44.93795610524926
 30
0.0
 10
8.73390281838185
 20
44.93266305375073
 30
0.0
 10
8.783541381791352
 20
44.92049102866258
 30
0.0
 10
8.836215641465841
 20
44.88648410463264
 30
0.0
 10
8.84991953518805
 20
44.87431137828667
 30
0.0
  0
SPLINE
  5
F9
330
1F
100
AcDbEntity
  8
DEFAULT
100
AcDbSpline
210
0.0
220
0.0
230
1.0
 70
    12
 71
     3
 72
    27
 73
    23
 74
     0
 42
0.0000000001
 43
0.0000000001
 40
-14.5374141795705
 40
-14.5374141795705
 40
-14.5374141795705
 40
-14.5374141795705
 40
-14.41934725534845
 40
-14.37741709520271
 40
-11.72195382020863
 40
-10.18186587578625
 40
-9.446987305907031
 40
-8.673929290600562
 40
-8.673929290600562
 40
-8.673929290600562
 40
-6.586620086222773
 40
-5.772800495400565
 40
-4.920229152264927
 40
-4.920229152264927
 40
-4.920229152264927
 40
-1.870401398594343
 40
-1.870401398594343
 40
-1.870401398594343
 40
-1.244728433228314
 40
-1.244728433228314
 40
-1.244728433228314
 40
0.0
 40
0.0
 40
0.0
 40
0.0
 10
8.84991953518805
 20
44.87431137828667
 30
0.0
 41
1.0
 10
8.878699298411448
 20
44.84874724380624
 30
0.0
 41
1.0
 10
8.930119110257024
 20
44.77374851656651
 30
0.0
 41
1.0
 10
9.065080988234897
 20
43.84502743286479
 30
0.0
 41
1.0
 10
9.265894318138336
 20
42.44671354374795
 30
0.0
 41
1.0
 10
9.440253274918675
 20
40.81223830468253
 30
0.0
 41
1.0
 10
9.524172660576966
 20
39.79971119316284
 30
0.0
 41
1.0
 10
9.557442536226858
 20
39.29812324710291
 30
0.0
 41
1.0
 10
9.572420426588835
 20
39.04079315448034
 30
0.0
 41
1.0
 10
9.608596840421512
 20
38.34591186089808
 30
0.0
 41
1.0
 10
9.676549913628136
 20
37.38103757120254
 30
0.0
 41
1.0
 10
9.716400666149553
 20
36.13031192680084
 30
0.0
 41
1.0
 10
9.725564898359579
 20
35.57495287178611
 30
0.0
 41
1.0
 10
9.729008158938043
 20
35.2907387685218
 30
0.0
 41
1.0
 10
9.748599121697632
 20
34.27429861839231
 30
0.0
 41
0.9999999998608998
 10
9.76820240726412
 20
33.25614476876827
 30
0.0
 41
0.9999999998608998
 10
9.787818015629327
 20
32.23627722007457
 30
0.0
 41
1.0
 10
9.79180565015983
 20
32.02430887298365
 30
0.0
 41
0.9999875412613548
 10
9.794485975276025
 20
31.81344633792624
 30
0.0
 41
0.9999875412613548
 10
9.795858890797476
 20
31.60369749614596
 30
0.0
 41
1.0
 10
9.799637404097165
 20
31.1876098120437
 30
0.0
 41
0.9999951491592268
 10
9.804999686623772
 20
30.77213677735864
 30
0.0
 41
0.9999951491592268
 10
9.811945660342545
 20
30.35728443827139
 30
0.0
 41
1.0
  0
SPLINE
  5
FA
330
1F
100
AcDbEntity
  8
DEFAULT
100
AcDbSpline
210
0.0
220
0.0
230
1.0
 70
    12
 71
     2
 72
     6
 73
     3
 74
     0
 42
0.0000000001
 43
0.0000000001
 40
-1.159140194503718
 40
-1.159140194503718
 40
-1.159140194503718
 40
0.0
 40
0.0
 40
0.0
 10
-8.501418411971642
 20
30.89726699276712
 30
0.0
 41
1.0
 10
-8.200410071580661
 20
31.40775438589209
 30
0.0
 41
0.9672838163369827
 10
-7.687371015909704
 20
31.7049411869421
 30
0.0
 41
1.0
  0
SPLINE
  5
FB
330
1F
100
AcDbEntity
  8
DEFAULT
100
AcDbSpline
210
0.0
220
0.0
230
1.0
 70
     8
 71
     3
 72
    12
 73
     8
 74
     0
 42
0.0000000001
 43
0.0000000001
 40
-7.894681883043148
 40
-7.894681883043148
 40
-7.894681883043148
 40
-7.894681883043148
 40
-4.89328680666405
 40
-3.607507320650333
 40
-2.584983022344898
 40
-1.409468345024047
 40
0.0
 40
0.0
 40
0.0
 40
0.0
 10
-7.687371015909704
 20
31.7049411869421
 30
0.0
 10
-6.83050870433344
 20
32.23081925264306
 30
0.0
 10
-5.443250182182524
 20
32.65262947886352
 30
0.0
 10
-3.689623326924718
 20
32.87239875717203
 30
0.0
 10
-2.532970756162243
 20
32.9883942664182
 30
0.0
 10
-1.331660306208335
 20
33.0413546516562
 30
0.0
 10
-0.4698643608068949
 20
33.05201451698667
 30
0.0
 10
-0.0000785466365443
 20
33.05127367868329
 30
0.0
  0
SPLINE
  5
FC
330
1F
100
AcDbEntity
  8
DEFAULT
100
AcDbSpline
210
0.0
220
0.0
230
1.0
 70
     8
 71
     3
 72
    12
 73
     8
 74
     0
 42
0.0000000001
 43
0.0000000001
 40
0.0
 40
0.0
 40
0.0
 40
0.0
 40
1.409468345024047
 40
2.584983022344898
 40
3.607507320650333
 40
4.89328680666405
 40
7.894681883043148
 40
7.894681883043148
 40
7.894681883043148
 40
7.894681883043148
 10
-0.0000785466365443
 20
33.05127367868329
 30
0.0
 10
0.4697072675338063
 20
33.05201451698667
 30
0.0
 10
1.331503212935246
 20
33.0413546516562
 30
0.0
 10
2.532813662889154
 20
32.9883942664182
 30
0.0
 10
3.689466233651629
 20
32.87239875717203
 30
0.0
 10
5.443093088909436
 20
32.65262947886352
 30
0.0
 10
6.830351611060351
 20
32.23081925264306
 30
0.0
 10
7.687213922636616
 20
31.7049411869421
 30
0.0
  0
SPLINE
  5
FD
330
1F
100
AcDbEntity
  8
DEFAULT
100
AcDbSpline
210
0.0
220
0.0
230
1.0
 70
    12
 71
     2
 72
     6
 73
     3
 74
     0
 42
0.0000000001
 43
0.0000000001
 40
0.0
 40
0.0
 40
0.0
 40
1.159140194503718
 40
1.159140194503718
 40
1.159140194503718
 10
7.687213922636616
 20
31.7049411869421
 30
0.0
 41
1.0
 10
8.200252978307589
 20
31.40775438589209
 30
0.0
 41
0.9672838163369827
 10
8.501261318698553
 20
30.89726699276712
 30
0.0
 41
1.0
  0
SPLINE
  5
FE
330
1F
100
AcDbEntity
  8
DEFAULT
100
AcDbSpline
210
0.0
220
0.0
230
1.0
 70
    12
 71
     2
 72
     6
 73
     3
 74
     0
 42
0.0000000001
 43
0.0000000001
 40
0.0
 40
0.0
 40
0.0
 40
7.680773469173904
 40
7.680773469173904
 40
7.680773469173904
 10
3.834037019495611
 20
28.55199286309853
 30
0.0
 41
1.0
 10
0.0000000414622605
 20
28.16875277329176
 30
0.0
 41
0.9950413933731445
 10
-3.834036936571096
 20
28.55199286309852
 30
0.0
 41
1.0
  0
ARC
  5
FF
330
1F
100
AcDbEntity
  8
DEFAULT
100
AcDbCircle
 10
17.31731708670971
 20
-11.73515555956605
 30
0.0
 40
41.66759639119658
100
AcDbArc
 50
102.9925821655294
 51
107.6280013344518
  0
SPLINE
  5
100
330
1F
100
AcDbEntity
  8
DEFAULT
100
AcDbSpline
210
0.0
220
0.0
230
1.0
 70
    12
 71
     2
 72
     6
 73
     3
 74
     0
 42
0.0000000001
 43
0.0000000001
 40
0.0
 40
0.0
 40
0.0
 40
0.3527729993252487
 40
0.3527729993252487
 40
0.3527729993252487
 10
3.954923121377945
 20
28.147877070047
 30
0.0
 41
1.0
 10
3.833227159410843
 20
28.28649489762563
 30
0.0
 41
0.935636063196829
 10
3.833410720036639
 20
28.4709529567806
 30
0.0
 41
1.0
  0
SPLINE
  5
101
330
1F
100
AcDbEntity
  8
DEFAULT
100
AcDbSpline
210
0.0
220
0.0
230
1.0
 70
    24
 71
     2
 72
     6
 73
     3
 74
     0
 42
0.0000000001
 43
0.0000000001
 40
0.0
 40
0.0
 40
0.0
 40
0.35397136597323
 40
0.35397136597323
 40
0.35397136597323
 10
3.833410720036639
 20
28.4709529567806
 30
0.0
 10
3.833410720036639
 20
28.64793863976722
 30
0.0
 10
3.833410720036639
 20
28.82492432275383
 30
0.0
  0
SPLINE
  5
102
330
1F
100
AcDbEntity
  8
DEFAULT
100
AcDbSpline
210
0.0
220
0.0
230
1.0
 70
    24
 71
     2
 72
     6
 73
     3
 74
     0
 42
0.0000000001
 43
0.0000000001
 40
0.0
 40
0.0
 40
0.0
 40
0.5321440388778759
 40
0.5321440388778759
 40
0.5321440388778759
 10
4.702740855063681
 20
28.86684360536154
 30
0.0
 10
4.698075787550145
 20
28.60081248561535
 30
0.0
 10
4.69341072003661
 20
28.33478136586917
 30
0.0
  0
SPLINE
  5
103
330
1F
100
AcDbEntity
  8
DEFAULT
100
AcDbSpline
210
0.0
220
0.0
230
1.0
 70
    12
 71
     2
 72
     6
 73
     3
 74
     0
 42
0.0000000001
 43
0.0000000001
 40
0.0
 40
0.0
 40
0.0
 40
0.223652467853702
 40
0.223652467853702
 40
0.223652467853702
 10
4.69341072003661
 20
28.33478136586917
 30
0.0
 41
1.0
 10
4.658614001881298
 20
28.21995318725141
 30
0.0
 41
0.9010587385208453
 10
4.547160720036629
 20
28.17551797413042
 30
0.0
 41
1.0
  0
SPLINE
  5
104
330
1F
100
AcDbEntity
  8
DEFAULT
100
AcDbSpline
210
0.0
220
0.0
230
1.0
 70
     8
 71
     3
 72
     8
 73
     4
 74
     0
 42
0.0000000001
 43
0.0000000001
 40
0.0
 40
0.0
 40
0.0
 40
0.0
 40
1.0
 40
1.0
 40
1.0
 40
1.0
 10
4.547160720036629
 20
28.17551797413042
 30
0.0
 10
4.411696723300736
 20
28.12150994973175
 30
0.0
 10
4.245124716772537
 20
28.12150994973176
 30
0.0
 10
4.109660720036644
 20
28.17551797413043
 30
0.0
  0
SPLINE
  5
105
330
1F
100
AcDbEntity
  8
DEFAULT
100
AcDbSpline
210
0.0
220
0.0
230
1.0
 70
    12
 71
     2
 72
     6
 73
     3
 74
     0
 42
0.0000000001
 43
0.0000000001
 40
0.0
 40
0.0
 40
0.0
 40
0.2236524678537002
 40
0.2236524678537002
 40
0.2236524678537002
 10
4.109660720036644
 20
28.17551797413043
 30
0.0
 41
1.0
 10
3.998207438191976
 20
28.2199531872514
 30
0.0
 41
0.9010587385208325
 10
3.963410720036663
 20
28.33478136586917
 30
0.0
 41
1.0
  0
SPLINE
  5
106
330
1F
100
AcDbEntity
  8
DEFAULT
100
AcDbSpline
210
0.0
220
0.0
230
1.0
 70
    24
 71
     2
 72
     6
 73
     3
 74
     0
 42
0.0000000001
 43
0.0000000001
 40
0.0
 40
0.0
 40
0.0
 40
0.4919977399559122
 40
0.4919977399559122
 40
0.4919977399559122
 10
3.963410720036663
 20
28.33478136586917
 30
0.0
 10
3.959097597074241
 20
28.58074242173116
 30
0.0
 10
3.954784474111818
 20
28.82670347759314
 30
0.0
  0
SPLINE
  5
107
330
1F
100
AcDbEntity
  8
DEFAULT
100
AcDbSpline
210
0.0
220
0.0
230
1.0
 70
    24
 71
     2
 72
     6
 73
     3
 74
     0
 42
0.0000000001
 43
0.0000000001
 40
0.0
 40
0.0
 40
0.0
 40
0.5321440388778759
 40
0.5321440388778759
 40
0.5321440388778759
 10
-4.702897948336769
 20
28.86684360536154
 30
0.0
 10
-4.698232880823234
 20
28.60081248561535
 30
0.0
 10
-4.693567813309699
 20
28.33478136586917
 30
0.0
  0
SPLINE
  5
108
330
1F
100
AcDbEntity
  8
DEFAULT
100
AcDbSpline
210
0.0
220
0.0
230
1.0
 70
    12
 71
     2
 72
     6
 73
     3
 74
     0
 42
0.0000000001
 43
0.0000000001
 40
0.0
 40
0.0
 40
0.0
 40
0.223652467853702
 40
0.223652467853702
 40
0.223652467853702
 10
-4.693567813309699
 20
28.33478136586917
 30
0.0
 41
1.0
 10
-4.658771095154384
 20
28.21995318725141
 30
0.0
 41
0.9010587385208453
 10
-4.547317813309718
 20
28.17551797413042
 30
0.0
 41
1.0
  0
SPLINE
  5
109
330
1F
100
AcDbEntity
  8
DEFAULT
100
AcDbSpline
210
0.0
220
0.0
230
1.0
 70
     8
 71
     3
 72
     8
 73
     4
 74
     0
 42
0.0000000001
 43
0.0000000001
 40
0.0
 40
0.0
 40
0.0
 40
0.0
 40
1.0
 40
1.0
 40
1.0
 40
1.0
 10
-4.547317813309718
 20
28.17551797413042
 30
0.0
 10
-4.411853816573824
 20
28.12150994973175
 30
0.0
 10
-4.245281810045626
 20
28.12150994973176
 30
0.0
 10
-4.109817813309732
 20
28.17551797413043
 30
0.0
  0
SPLINE
  5
10A
330
1F
100
AcDbEntity
  8
DEFAULT
100
AcDbSpline
210
0.0
220
0.0
230
1.0
 70
    12
 71
     2
 72
     6
 73
     3
 74
     0
 42
0.0000000001
 43
0.0000000001
 40
0.0
 40
0.0
 40
0.0
 40
0.2236524678537002
 40
0.2236524678537002
 40
0.2236524678537002
 10
-4.109817813309732
 20
28.17551797413043
 30
0.0
 41
1.0
 10
-3.99836453146506
 20
28.2199531872514
 30
0.0
 41
0.9010587385208325
 10
-3.963567813309751
 20
28.33478136586917
 30
0.0
 41
1.0
  0
SPLINE
  5
10B
330
1F
100
AcDbEntity
  8
DEFAULT
100
AcDbSpline
210
0.0
220
0.0
230
1.0
 70
    24
 71
     2
 72
     6
 73
     3
 74
     0
 42
0.0000000001
 43
0.0000000001
 40
0.0
 40
0.0
 40
0.0
 40
0.4919977399559122
 40
0.4919977399559122
 40
0.4919977399559122
 10
-3.963567813309751
 20
28.33478136586917
 30
0.0
 10
-3.959254690347329
 20
28.58074242173116
 30
0.0
 10
-3.954941567384907
 20
28.82670347759314
 30
0.0
  0
SPLINE
  5
10C
330
1F
100
AcDbEntity
  8
DEFAULT
100
AcDbSpline
210
0.0
220
0.0
230
1.0
 70
    12
 71
     2
 72
     6
 73
     3
 74
     0
 42
0.0000000001
 43
0.0000000001
 40
0.0
 40
0.0
 40
0.0
 40
2.423793056935102
 40
2.423793056935102
 40
2.423793056935102
 10
0.5819561709659382
 20
28.56335239954331
 30
0.0
 41
1.0
 10
1.794072348232168
 20
28.61166908169144
 30
0.0
 41
0.9985387582686867
 10
2.99389446273625
 20
28.79051824302932
 30
0.0
 41
1.0
  0
SPLINE
  5
10D
330
1F
100
AcDbEntity
  8
DEFAULT
100
AcDbSpline
210
0.0
220
0.0
230
1.0
 70
    12
 71
     2
 72
     6
 73
     3
 74
     0
 42
0.0000000001
 43
0.0000000001
 40
0.0
 40
0.0
 40
0.0
 40
2.423793056935102
 40
2.423793056935102
 40
2.423793056935102
 10
-0.5821132642390268
 20
28.56335239954331
 30
0.0
 41
1.0
 10
-1.794229441505245
 20
28.61166908169144
 30
0.0
 41
0.9985387582686867
 10
-2.994051556009339
 20
28.79051824302932
 30
0.0
 41
1.0
  0
SPLINE
  5
10E
330
1F
100
AcDbEntity
  8
DEFAULT
100
AcDbSpline
210
0.0
220
0.0
230
1.0
 70
    12
 71
     2
 72
     6
 73
     3
 74
     0
 42
0.0000000001
 43
0.0000000001
 40
0.0
 40
0.0
 40
0.0
 40
0.7473847420755672
 40
0.7473847420755672
 40
0.7473847420755672
 10
-4.001442263325316
 20
28.83772965945458
 30
0.0
 41
1.0
 10
-4.36016150000655
 20
28.58893940356211
 30
0.0
 41
0.7973745102127584
 10
-4.697031455974482
 20
28.86659875413106
 30
0.0
 41
1.0
  0
ARC
  5
10F
330
1F
100
AcDbEntity
  8
DEFAULT
100
AcDbCircle
 10
-17.3174741799828
 20
-11.73515555956605
 30
0.0
 40
41.66759639119658
100
AcDbArc
 50
72.3719986655482
 51
77.00741783447066
  0
SPLINE
  5
110
330
1F
100
AcDbEntity
  8
DEFAULT
100
AcDbSpline
210
0.0
220
0.0
230
1.0
 70
    24
 71
     2
 72
     6
 73
     3
 74
     0
 42
0.0000000001
 43
0.0000000001
 40
0.0
 40
0.0
 40
0.0
 40
0.5321440388778741
 40
0.5321440388778741
 40
0.5321440388778741
 10
-4.699960749958507
 20
28.19579872220116
 30
0.0
 10
-4.696764281634103
 20
27.92982991021417
 30
0.0
 10
-4.693567813309699
 20
27.66386109822717
 30
0.0
  0
SPLINE
  5
111
330
1F
100
AcDbEntity
  8
DEFAULT
100
AcDbSpline
210
0.0
220
0.0
230
1.0
 70
    12
 71
     2
 72
     6
 73
     3
 74
     0
 42
0.0000000001
 43
0.0000000001
 40
0.0
 40
0.0
 40
0.0
 40
0.2236524678536994
 40
0.2236524678536994
 40
0.2236524678536994
 10
-4.693567813309699
 20
27.66386109822717
 30
0.0
 41
1.0
 10
-4.658771095154393
 20
27.5490329196094
 30
0.0
 41
0.9010587385208312
 10
-4.547317813309718
 20
27.50459770648843
 30
0.0
 41
1.0
  0
SPLINE
  5
112
330
1F
100
AcDbEntity
  8
DEFAULT
100
AcDbSpline
210
0.0
220
0.0
230
1.0
 70
     8
 71
     3
 72
     8
 73
     4
 74
     0
 42
0.0000000001
 43
0.0000000001
 40
0.0
 40
0.0
 40
0.0
 40
0.0
 40
1.0
 40
1.0
 40
1.0
 40
1.0
 10
-4.547317813309718
 20
27.50459770648843
 30
0.0
 10
-4.411853816573824
 20
27.45058968208976
 30
0.0
 10
-4.245281810045626
 20
27.45058968208976
 30
0.0
 10
-4.109817813309732
 20
27.50459770648843
 30
0.0
  0
SPLINE
  5
113
330
1F
100
AcDbEntity
  8
DEFAULT
100
AcDbSpline
210
0.0
220
0.0
230
1.0
 70
    12
 71
     2
 72
     6
 73
     3
 74
     0
 42
0.0000000001
 43
0.0000000001
 40
0.0
 40
0.0
 40
0.0
 40
0.2236524678536981
 40
0.2236524678536981
 40
0.2236524678536981
 10
-4.109817813309732
 20
27.50459770648843
 30
0.0
 41
1.0
 10
-3.99836453146506
 20
27.5490329196094
 30
0.0
 41
0.9010587385208331
 10
-3.963567813309751
 20
27.66386109822717
 30
0.0
 41
1.0
  0
SPLINE
  5
114
330
1F
100
AcDbEntity
  8
DEFAULT
100
AcDbSpline
210
0.0
220
0.0
230
1.0
 70
    24
 71
     2
 72
     6
 73
     3
 74
     0
 42
0.0000000001
 43
0.0000000001
 40
0.0
 40
0.0
 40
0.0
 40
0.5321440388778741
 40
0.5321440388778741
 40
0.5321440388778741
 10
-3.963567813309751
 20
27.66386109822717
 30
0.0
 10
-3.958902745796216
 20
27.92989221797335
 30
0.0
 10
-3.954237678282681
 20
28.19592333771954
 30
0.0
  0
SPLINE
  5
115
330
1F
100
AcDbEntity
  8
DEFAULT
100
AcDbSpline
210
0.0
220
0.0
230
1.0
 70
     8
 71
     3
 72
    14
 73
    10
 74
     0
 42
0.0000000001
 43
0.0000000001
 40
0.0
 40
0.0
 40
0.0
 40
0.0
 40
0.0011429773882848
 40
0.0041559612549722
 40
0.010740543323966
 40
0.120253821530844
 40
0.2135872029610184
 40
0.4059865476491976
 40
0.8047865810560537
 40
0.8047865810560537
 40
0.8047865810560537
 40
0.8047865810560537
 10
-3.954237678282681
 20
28.19592333771954
 30
0.0
 10
-3.95414324560457
 20
28.19641406806464
 30
0.0
 10
-3.954808351386845
 20
28.19765812822173
 30
0.0
 10
-3.958877684643411
 20
28.19694404944623
 30
0.0
 10
-3.990792317600111
 20
28.17414599362725
 30
0.0
 10
-4.048605651498534
 20
28.13298425233829
 30
0.0
 10
-4.168747193855637
 20
28.08074251681436
 30
0.0
 10
-4.398588577060309
 20
28.0391368546906
 30
0.0
 10
-4.592641574713923
 20
28.1134313200847
 30
0.0
 10
-4.699960749958507
 20
28.19579872220116
 30
0.0
  0
SPLINE
  5
116
330
1F
100
AcDbEntity
  8
DEFAULT
100
AcDbSpline
210
0.0
220
0.0
230
1.0
 70
    12
 71
     2
 72
     6
 73
     3
 74
     0
 42
0.0000000001
 43
0.0000000001
 40
0.0
 40
0.0
 40
0.0
 40
7.679978169176025
 40
7.679978169176025
 40
7.679978169176025
 10
3.833567896234271
 20
28.74086979519895
 30
0.0
 41
1.0
 10
0.000000041462274
 20
28.35549041056344
 30
0.0
 41
0.9949850785804287
 10
-3.833567813309728
 20
28.74086979519895
 30
0.0
 41
1.0
  0
SPLINE
  5
117
330
1F
100
AcDbEntity
  8
MAKE2D VISIBLE LINES
100
AcDbSpline
210
0.0
220
0.0
230
1.0
 70
    24
 71
     2
 72
     6
 73
     3
 74
     0
 42
0.0000000001
 43
0.0000000001
 40
0.0
 40
0.0
 40
0.0
 40
11.19858422692651
 40
11.19858422692651
 40
11.19858422692651
 10
8.349005840446832
 20
0.1516384537606148
 30
0.0
 10
8.271120663968123
 20
5.750388856410895
 30
0.0
 10
8.193235487489414
 20
11.34913925906118
 30
0.0
  0
SPLINE
  5
118
330
1F
100
AcDbEntity
  8
MAKE2D VISIBLE LINES
100
AcDbSpline
210
0.0
220
0.0
230
1.0
 70
    24
 71
     2
 72
     6
 73
     3
 74
     0
 42
0.0000000001
 43
0.0000000001
 40
0.0
 40
0.0
 40
0.0
 40
16.76904379744363
 40
16.76904379744363
 40
16.76904379744363
 10
8.179327161566388
 20
12.34893471286017
 30
0.0
 10
8.062699924669536
 20
20.7326454400835
 30
0.0
 10
7.946072687772684
 20
29.11635616730683
 30
0.0
  0
SPLINE
  5
119
330
1F
100
AcDbEntity
  8
MAKE2D VISIBLE LINES
100
AcDbSpline
210
0.0
220
0.0
230
1.0
 70
    24
 71
     2
 72
     6
 73
     3
 74
     0
 42
0.0000000001
 43
0.0000000001
 40
0.0
 40
0.0
 40
0.0
 40
16.38681270649467
 40
16.38681270649467
 40
16.38681270649467
 10
8.193406353247333
 20
11.34895620803811
 30
0.0
 10
-0.0000000000000018
 20
11.34895620803811
 30
0.0
 10
-8.193406353247337
 20
11.34895620803811
 30
0.0
  0
SPLINE
  5
11A
330
1F
100
AcDbEntity
  8
MAKE2D VISIBLE LINES
100
AcDbSpline
210
0.0
220
0.0
230
1.0
 70
    12
 71
     2
 72
     6
 73
     3
 74
     0
 42
0.0000000001
 43
0.0000000001
 40
0.0
 40
0.0
 40
0.0
 40
0.0277033917528687
 40
0.0277033917528687
 40
0.0277033917528687
 10
-8.971313860392135
 20
80.437261360628
 30
0.0
 41
1.0
 10
-8.97088041011172
 20
80.42341627826808
 30
0.0
 41
0.9999816049464368
 10
-8.970614942138589
 20
80.40956695657158
 30
0.0
 41
1.0
  0
SPLINE
  5
11B
330
1F
100
AcDbEntity
  8
MAKE2D VISIBLE LINES
100
AcDbSpline
210
0.0
220
0.0
230
1.0
 70
    12
 71
     2
 72
     6
 73
     3
 74
     0
 42
0.0000000001
 43
0.0000000001
 40
0.0
 40
0.0
 40
0.0
 40
0.1535129193051557
 40
0.1535129193051557
 40
0.1535129193051557
 10
-8.97068717137463
 20
80.40988096307395
 30
0.0
 41
1.0
 10
-8.96062558575454
 20
80.33378580295921
 30
0.0
 41
0.9999802943697026
 10
-8.951520195976716
 20
80.25757031388335
 30
0.0
 41
1.0
  0
SPLINE
  5
11C
330
1F
100
AcDbEntity
  8
MAKE2D VISIBLE LINES
100
AcDbSpline
210
0.0
220
0.0
230
1.0
 70
    12
 71
     2
 72
     6
 73
     3
 74
     0
 42
0.0000000001
 43
0.0000000001
 40
0.0
 40
0.0
 40
0.0
 40
1.671523865440103
 40
1.671523865440103
 40
1.671523865440103
 10
-7.336886142953337
 20
79.32946025911464
 30
0.0
 41
1.0
 10
-8.133029843528426
 20
79.58485926453825
 30
0.0
 41
0.9993826318049557
 10
-8.909273108283013
 20
79.89553568440287
 30
0.0
 41
1.0
  0
SPLINE
  5
11D
330
1F
100
AcDbEntity
  8
MAKE2D VISIBLE LINES
100
AcDbSpline
210
0.0
220
0.0
230
1.0
 70
    12
 71
     2
 72
     6
 73
     3
 74
     0
 42
0.0000000001
 43
0.0000000001
 40
0.0
 40
0.0
 40
0.0
 40
2.637119918663169
 40
2.637119918663169
 40
2.637119918663169
 10
-8.972404681379107
 20
80.45888212121402
 30
0.0
 41
1.0
 10
-7.752655992797135
 20
79.95437738041034
 30
0.0
 41
0.9984022397453695
 10
-6.483772193839568
 20
79.59072122202191
 30
0.0
 41
1.0
  0
SPLINE
  5
11E
330
1F
100
AcDbEntity
  8
MAKE2D VISIBLE LINES
100
AcDbSpline
210
0.0
220
0.0
230
1.0
 70
    24
 71
     2
 72
     6
 73
     3
 74
     0
 42
0.0000000001
 43
0.0000000001
 40
0.0
 40
0.0
 40
0.0
 40
30.1899448026857
 40
30.1899448026857
 40
30.1899448026857
 10
9.473897127164669
 20
0.1672749006677505
 30
0.0
 10
9.263928694442063
 20
15.26078691923263
 30
0.0
 10
9.053960261719457
 20
30.35429893779751
 30
0.0
  0
SPLINE
  5
11F
330
1F
100
AcDbEntity
  8
MAKE2D VISIBLE LINES
100
AcDbSpline
210
0.0
220
0.0
230
1.0
 70
     8
 71
     3
 72
    16
 73
    12
 74
     0
 42
0.0000000001
 43
0.0000000001
 40
0.0
 40
0.0
 40
0.0
 40
0.0
 40
0.0048943814559885
 40
0.3998145956759581
 40
0.6093643102546916
 40
0.827151623906513
 40
1.010536402295179
 40
1.125829395863809
 40
1.174340553723367
 40
1.191619902304069
 40
1.198485555255068
 40
1.198485555255068
 40
1.198485555255068
 40
1.198485555255068
 10
8.197302399075408
 20
11.35183283752628
 30
0.0
 10
8.192431819404778
 20
11.34723593911013
 30
0.0
 10
8.269874932090804
 20
11.45407353627774
 30
0.0
 10
8.409511280891511
 20
11.60031675481681
 30
0.0
 10
8.521621846819237
 20
11.86485268802311
 30
0.0
 10
8.429173630631329
 20
12.06441511302053
 30
0.0
 10
8.32306275580143
 20
12.19185909092356
 30
0.0
 10
8.246100410359556
 20
12.28341922949344
 30
0.0
 10
8.204966260082056
 20
12.32465646422218
 30
0.0
 10
8.187500066983802
 20
12.34302692253441
 30
0.0
 10
8.181573009862309
 20
12.34769115528761
 30
0.0
 10
8.17948768998879
 20
12.34893694599857
 30
0.0
  0
SPLINE
  5
120
330
1F
100
AcDbEntity
  8
MAKE2D VISIBLE LINES
100
AcDbSpline
210
0.0
220
0.0
230
1.0
 70
    24
 71
     2
 72
     6
 73
     3
 74
     0
 42
0.0000000001
 43
0.0000000001
 40
0.0
 40
0.0
 40
0.0
 40
16.35897529705303
 40
16.35897529705303
 40
16.35897529705303
 10
-8.179487607064242
 20
12.34893694599857
 30
0.0
 10
0.0000000414622718
 20
12.34893694599857
 30
0.0
 10
8.179487689988786
 20
12.34893694599857
 30
0.0
  0
SPLINE
  5
121
330
1F
100
AcDbEntity
  8
MAKE2D VISIBLE LINES
100
AcDbSpline
210
0.0
220
0.0
230
1.0
 70
     8
 71
     3
 72
    12
 73
     8
 74
     0
 42
0.0000000001
 43
0.0000000001
 40
0.0
 40
0.0
 40
0.0
 40
0.0
 40
0.1340381984017992
 40
0.26123221353169
 40
0.4613717576740069
 40
0.6425263264191151
 40
0.9012720204707741
 40
0.9012720204707741
 40
0.9012720204707741
 40
0.9012720204707741
 10
9.070244703897686
 20
29.18369700464941
 30
0.0
 10
9.10632393617778
 20
29.20887086373729
 30
0.0
 10
9.172788674495674
 20
29.26911272664667
 30
0.0
 10
9.270076555256242
 20
29.38260688380782
 30
0.0
 10
9.341590031718866
 20
29.55287424454335
 30
0.0
 10
9.24002450220043
 20
29.75503815205957
 30
0.0
 10
9.12720801069273
 20
29.84700544031513
 30
0.0
 10
9.060249395869977
 20
29.90220658557865
 30
0.0
  0
SPLINE
  5
122
330
1F
100
AcDbEntity
  8
MAKE2D VISIBLE LINES
100
AcDbSpline
210
0.0
220
0.0
230
1.0
 70
     8
 71
     3
 72
    12
 73
     8
 74
     0
 42
0.0000000001
 43
0.0000000001
 40
0.0
 40
0.0
 40
0.0
 40
0.0
 40
1.802513261316641
 40
2.830644998100385
 40
3.638444201131116
 40
3.913925955063766
 40
4.09105482492869
 40
4.09105482492869
 40
4.09105482492869
 40
4.09105482492869
 10
-9.81550094831196
 20
76.73978467613108
 30
0.0
 10
-9.853863955744753
 20
77.33938145341443
 30
0.0
 10
-9.907590900917674
 20
78.28146676099374
 30
0.0
 10
-9.99791810960164
 20
79.49089638939417
 30
0.0
 10
-10.06803643508468
 20
80.19139175155992
 30
0.0
 10
-10.1294484198098
 20
80.60707295024486
 30
0.0
 10
-10.15990536532273
 20
80.7550025930238
 30
0.0
 10
-10.177285360678
 20
80.81146072673957
 30
0.0
  0
SPLINE
  5
123
330
1F
100
AcDbEntity
  8
MAKE2D VISIBLE LINES
100
AcDbSpline
210
0.0
220
0.0
230
1.0
 70
    12
 71
     2
 72
     6
 73
     3
 74
     0
 42
0.0000000001
 43
0.0000000001
 40
0.0
 40
0.0
 40
0.0
 40
0.2284141118063499
 40
0.2284141118063499
 40
0.2284141118063499
 10
8.821641720161097
 20
30.33607100149779
 30
0.0
 41
1.0
 10
8.935190004855155
 20
30.3483207147391
 30
0.0
 41
0.9999990332147088
 10
9.048703783323134
 20
30.36088616456708
 30
0.0
 41
1.0
  0
SPLINE
  5
124
330
1F
100
AcDbEntity
  8
MAKE2D VISIBLE LINES
100
AcDbSpline
210
0.0
220
0.0
230
1.0
 70
    12
 71
     2
 72
     6
 73
     3
 74
     0
 42
0.0000000001
 43
0.0000000001
 40
0.0
 40
0.0
 40
0.0
 40
15.91655746647908
 40
15.91655746647908
 40
15.91655746647908
 10
7.946101984281036
 20
29.11614575128429
 30
0.0
 41
1.0
 10
-0.0000989750032578
 20
28.35538819018197
 30
0.0
 41
0.9954482640049797
 10
-7.946298823639214
 20
29.11615735204576
 30
0.0
 41
1.0
  0
ENDSEC
  0
SECTION
  2
OBJECTS
  0
DICTIONARY
  5
C
330
0
100
AcDbDictionary
281
     1
  3
ACAD_GROUP
350
D
  3
ACAD_LAYOUT
350
1A
  3
ACAD_MLEADERSTYLE
350
126
  3
ACAD_MLINESTYLE
350
17
  3
ACAD_PLOTSETTINGS
350
19
  3
ACAD_PLOTSTYLENAME
350
E
  3
ACAD_TABLESTYLE
350
125
  3
ACAD_VISUALSTYLE
350
2A
  0
DICTIONARY
  5
D
102
{ACAD_REACTORS
330
C
102
}
330
C
100
AcDbDictionary
281
     1
  0
DICTIONARY
  5
1A
102
{ACAD_REACTORS
330
C
102
}
330
C
100
AcDbDictionary
281
     1
  3
Layout1
350
1E
  3
Layout2
350
26
  3
Model
350
22
  0
DICTIONARY
  5
126
102
{ACAD_REACTORS
330
C
102
}
330
C
100
AcDbDictionary
281
     1
  0
DICTIONARY
  5
17
102
{ACAD_REACTORS
330
C
102
}
330
C
100
AcDbDictionary
281
     1
  3
Standard
350
18
  0
DICTIONARY
  5
19
102
{ACAD_REACTORS
330
C
102
}
330
C
100
AcDbDictionary
281
     1
  0
ACDBDICTIONARYWDFLT
  5
E
102
{ACAD_REACTORS
330
C
102
}
330
C
100
AcDbDictionary
281
     1
  3
Normal
350
F
100
AcDbDictionaryWithDefault
340
F
  0
DICTIONARY
  5
125
102
{ACAD_REACTORS
330
C
102
}
330
C
100
AcDbDictionary
281
     1
  0
DICTIONARY
  5
2A
102
{ACAD_REACTORS
330
C
102
}
330
C
100
AcDbDictionary
281
     1
  3
2dWireframe
350
2F
  3
3D Hidden
350
31
  3
3dWireframe
350
30
  3
Basic
350
32
  3
Brighten
350
36
  3
ColorChange
350
3A
  3
Conceptual
350
34
  3
Dim
350
35
  3
Facepattern
350
39
  3
Flat
350
2B
  3
FlatWithEdges
350
2C
  3
Gouraud
350
2D
  3
GouraudWithEdges
350
2E
  3
Linepattern
350
38
  3
Realistic
350
33
  3
Thicken
350
37
  0
LAYOUT
  5
1E
102
{ACAD_REACTORS
330
1A
102
}
330
1A
100
AcDbPlotSettings
  1

  2
none_device
  4

  6

 40
0.0
 41
0.0
 42
0.0
 43
0.0
 44
0.0
 45
0.0
 46
0.0
 47
0.0
 48
0.0
 49
0.0
140
0.0
141
0.0
142
1.0
143
1.0
 70
   688
 72
     0
 73
     0
 74
     5
  7

 75
    16
 76
     0
 77
     2
 78
   300
147
1.0
148
0.0
149
0.0
100
AcDbLayout
  1
Layout1
 70
     1
 71
     1
 10
0.0
 20
0.0
 11
12.0
 21
9.0
 12
0.0
 22
0.0
 32
0.0
 14
1.000000000000000E+20
 24
1.000000000000000E+20
 34
1.000000000000000E+20
 15
-1.000000000000000E+20
 25
-1.000000000000000E+20
 35
-1.000000000000000E+20
146
0.0
 13
0.0
 23
0.0
 33
0.0
 16
1.0
 26
0.0
 36
0.0
 17
0.0
 27
1.0
 37
0.0
 76
     0
330
1B
  0
LAYOUT
  5
26
102
{ACAD_REACTORS
330
1A
102
}
330
1A
100
AcDbPlotSettings
  1

  2
none_device
  4

  6

 40
0.0
 41
0.0
 42
0.0
 43
0.0
 44
0.0
 45
0.0
 46
0.0
 47
0.0
 48
0.0
 49
0.0
140
0.0
141
0.0
142
1.0
143
1.0
 70
   688
 72
     0
 73
     0
 74
     5
  7

 75
    16
 76
     0
 77
     2
 78
   300
147
1.0
148
0.0
149
0.0
100
AcDbLayout
  1
Layout2
 70
     1
 71
     2
 10
0.0
 20
0.0
 11
0.0
 21
0.0
 12
0.0
 22
0.0
 32
0.0
 14
0.0
 24
0.0
 34
0.0
 15
0.0
 25
0.0
 35
0.0
146
0.0
 13
0.0
 23
0.0
 33
0.0
 16
1.0
 26
0.0
 36
0.0
 17
0.0
 27
1.0
 37
0.0
 76
     0
330
23
  0
LAYOUT
  5
22
102
{ACAD_REACTORS
330
1A
102
}
330
1A
100
AcDbPlotSettings
  1

  2
none_device
  4

  6

 40
0.0
 41
0.0
 42
0.0
 43
0.0
 44
0.0
 45
0.0
 46
0.0
 47
0.0
 48
0.0
 49
0.0
140
0.0
141
0.0
142
1.0
143
1.0
 70
  1712
 72
     0
 73
     0
 74
     0
  7

 75
     0
 76
     0
 77
     2
 78
   300
147
1.0
148
0.0
149
0.0
100
AcDbLayout
  1
Model
 70
     1
 71
     0
 10
0.0
 20
0.0
 11
12.0
 21
9.0
 12
0.0
 22
0.0
 32
0.0
 14
-10.27776551203658
 24
0.0008208563719239
 34
0.0
 15
48.52723728496859
 25
81.65770515434426
 35
0.0
146
0.0
 13
0.0
 23
0.0
 33
0.0
 16
1.0
 26
0.0
 36
0.0
 17
0.0
 27
1.0
 37
0.0
 76
     0
330
1F
331
29
  0
MLINESTYLE
  5
18
102
{ACAD_REACTORS
330
17
102
}
330
17
100
AcDbMlineStyle
  2
Standard
 70
     0
  3

 62
   256
 51
90.0
 52
90.0
 71
     2
 49
0.5
 62
   256
  6
BYLAYER
 49
-0.5
 62
   256
  6
BYLAYER
  0
ACDBPLACEHOLDER
  5
F
102
{ACAD_REACTORS
330
E
102
}
330
E
  0
VISUALSTYLE
  5
2F
102
{ACAD_REACTORS
330
2A
102
}
330
2A
100
AcDbVisualStyle
  2
2dWireframe
 70
     4
 71
     0
 72
     2
 73
     0
 90
        0
 40
-0.6
 41
-30.0
 62
     5
 63
     7
421
 16777215
 74
     1
 91
        4
 64
     7
 65
   257
 75
     1
175
     1
 42
1.0
 92
        0
 66
   257
 43
1.0
 76
     1
 77
     6
 78
     2
 67
     7
 79
     5
170
     0
171
     0
290
     0
174
     0
 93
        1
 44
0.0
173
     0
291
     0
 45
0.0
1001
ACAD
1000
AcDbSavedByObjectVersion
1070
     0
  0
VISUALSTYLE
  5
31
102
{ACAD_REACTORS
330
2A
102
}
330
2A
100
AcDbVisualStyle
  2
3D Hidden
 70
     6
 71
     1
 72
     2
 73
     2
 90
        0
 40
-0.6
 41
-30.0
 62
     5
 63
     7
421
 16777215
 74
     2
 91
        2
 64
     7
 65
   257
 75
     2
175
     1
 42
40.0
 92
        0
 66
   257
 43
1.0
 76
     1
 77
     6
 78
     2
 67
     7
 79
     3
170
     0
171
     0
290
     0
174
     0
 93
        1
 44
0.0
173
     0
291
     0
 45
0.0
1001
ACAD
1000
AcDbSavedByObjectVersion
1070
     0
  0
VISUALSTYLE
  5
30
102
{ACAD_REACTORS
330
2A
102
}
330
2A
100
AcDbVisualStyle
  2
3dWireframe
 70
     5
 71
     0
 72
     2
 73
     0
 90
        0
 40
-0.6
 41
-30.0
 62
     5
 63
     7
421
 16777215
 74
     1
 91
        4
 64
     7
 65
   257
 75
     1
175
     1
 42
1.0
 92
        0
 66
   257
 43
1.0
 76
     1
 77
     6
 78
     2
 67
     7
 79
     5
170
     0
171
     0
290
     0
174
     0
 93
        1
 44
0.0
173
     0
291
     0
 45
0.0
1001
ACAD
1000
AcDbSavedByObjectVersion
1070
     0
  0
VISUALSTYLE
  5
32
102
{ACAD_REACTORS
330
2A
102
}
330
2A
100
AcDbVisualStyle
  2
Basic
 70
     7
 71
     1
 72
     0
 73
     1
 90
        0
 40
-0.6
 41
-30.0
 62
     5
 63
     7
421
 16777215
 74
     0
 91
        4
 64
     7
 65
   257
 75
     1
175
     1
 42
1.0
 92
        8
 66
     7
 43
1.0
 76
     1
 77
     6
 78
     2
 67
     7
 79
     5
170
     0
171
     0
290
     0
174
     0
 93
        1
 44
0.0
173
     0
291
     1
 45
0.0
1001
ACAD
1000
AcDbSavedByObjectVersion
1070
     0
  0
VISUALSTYLE
  5
36
102
{ACAD_REACTORS
330
2A
102
}
330
2A
100
AcDbVisualStyle
  2
Brighten
 70
    12
 71
     2
 72
     2
 73
     0
 90
        0
 40
-0.6
 41
-30.0
 62
     5
 63
     7
421
 16777215
 74
     1
 91
        4
 64
     7
 65
   257
 75
     1
175
     1
 42
1.0
 92
        8
 66
     7
 43
1.0
 76
     1
 77
     6
 78
     2
 67
     7
 79
     5
170
     0
171
     0
290
     0
174
     0
 93
        1
 44
50.0
173
     0
291
     1
 45
0.0
1001
ACAD
1000
AcDbSavedByObjectVersion
1070
     0
  0
VISUALSTYLE
  5
3A
102
{ACAD_REACTORS
330
2A
102
}
330
2A
100
AcDbVisualStyle
  2
ColorChange
 70
    16
 71
     2
 72
     2
 73
     3
 90
        0
 40
-0.6
 41
-30.0
 62
     5
 63
     8
421
  8421504
 74
     1
 91
        4
 64
     7
 65
   257
 75
     1
175
     1
 42
1.0
 92
        8
 66
     8
424
  8421504
 43
1.0
 76
     1
 77
     6
 78
     2
 67
     7
 79
     5
170
     0
171
     0
290
     0
174
     0
 93
        1
 44
0.0
173
     0
291
     1
 45
0.0
1001
ACAD
1000
AcDbSavedByObjectVersion
1070
     0
  0
VISUALSTYLE
  5
34
102
{ACAD_REACTORS
330
2A
102
}
330
2A
100
AcDbVisualStyle
  2
Conceptual
 70
     9
 71
     3
 72
     2
 73
     0
 90
        0
 40
-0.6
 41
-30.0
 62
     5
 63
     7
421
 16777215
 74
     2
 91
        2
 64
     7
 65
   257
 75
     1
175
     1
 42
40.0
 92
        8
 66
     7
 43
1.0
 76
     1
 77
     6
 78
     2
 67
     7
 79
     3
170
     0
171
     0
290
     0
174
     0
 93
        1
 44
0.0
173
     0
291
     0
 45
0.0
1001
ACAD
1000
AcDbSavedByObjectVersion
1070
     0
  0
VISUALSTYLE
  5
35
102
{ACAD_REACTORS
330
2A
102
}
330
2A
100
AcDbVisualStyle
  2
Dim
 70
    11
 71
     2
 72
     2
 73
     0
 90
        0
 40
-0.6
 41
-30.0
 62
     5
 63
     7
421
 16777215
 74
     1
 91
        4
 64
     7
 65
   257
 75
     1
175
     1
 42
1.0
 92
        8
 66
     7
 43
1.0
 76
     1
 77
     6
 78
     2
 67
     7
 79
     5
170
     0
171
     0
290
     0
174
     0
 93
        1
 44
-50.0
173
     0
291
     1
 45
0.0
1001
ACAD
1000
AcDbSavedByObjectVersion
1070
     0
  0
VISUALSTYLE
  5
39
102
{ACAD_REACTORS
330
2A
102
}
330
2A
100
AcDbVisualStyle
  2
Facepattern
 70
    15
 71
     2
 72
     2
 73
     0
 90
        0
 40
-0.6
 41
-30.0
 62
     5
 63
     7
421
 16777215
 74
     1
 91
        4
 64
     7
 65
   257
 75
     1
175
     1
 42
1.0
 92
        8
 66
     7
 43
1.0
 76
     1
 77
     6
 78
     2
 67
     7
 79
     5
170
     0
171
     0
290
     0
174
     0
 93
        1
 44
0.0
173
     0
291
     1
 45
0.0
1001
ACAD
1000
AcDbSavedByObjectVersion
1070
     0
  0
VISUALSTYLE
  5
2B
102
{ACAD_REACTORS
330
2A
102
}
330
2A
100
AcDbVisualStyle
  2
Flat
 70
     0
 71
     2
 72
     1
 73
     1
 90
        2
 40
-0.6
 41
30.0
 62
     5
 63
     7
421
 16777215
 74
     0
 91
        4
 64
     7
 65
   257
 75
     1
175
     1
 42
1.0
 92
        8
 66
     7
 43
1.0
 76
     1
 77
     6
 78
     2
 67
     7
 79
     5
170
     0
171
     0
290
     0
174
     0
 93
       13
 44
0.0
173
     0
291
     1
 45
0.0
1001
ACAD
1000
AcDbSavedByObjectVersion
1070
     0
  0
VISUALSTYLE
  5
2C
102
{ACAD_REACTORS
330
2A
102
}
330
2A
100
AcDbVisualStyle
  2
FlatWithEdges
 70
     1
 71
     2
 72
     1
 73
     1
 90
        2
 40
-0.6
 41
30.0
 62
     5
 63
     7
421
 16777215
 74
     1
 91
        4
 64
     7
 65
   257
 75
     1
175
     1
 42
1.0
 92
        0
 66
   257
 43
1.0
 76
     1
 77
     6
 78
     2
 67
     7
 79
     5
170
     0
171
     0
290
     0
174
     0
 93
       13
 44
0.0
173
     0
291
     1
 45
0.0
1001
ACAD
1000
AcDbSavedByObjectVersion
1070
     0
  0
VISUALSTYLE
  5
2D
102
{ACAD_REACTORS
330
2A
102
}
330
2A
100
AcDbVisualStyle
  2
Gouraud
 70
     2
 71
     2
 72
     2
 73
     1
 90
        2
 40
-0.6
 41
30.0
 62
     5
 63
     7
421
 16777215
 74
     0
 91
        4
 64
     7
 65
   257
 75
     1
175
     1
 42
1.0
 92
        0
 66
     7
 43
1.0
 76
     1
 77
     6
 78
     2
 67
     7
 79
     5
170
     0
171
     0
290
     0
174
     0
 93
       13
 44
0.0
173
     0
291
     1
 45
0.0
1001
ACAD
1000
AcDbSavedByObjectVersion
1070
     0
  0
VISUALSTYLE
  5
2E
102
{ACAD_REACTORS
330
2A
102
}
330
2A
100
AcDbVisualStyle
  2
GouraudWithEdges
 70
     3
 71
     2
 72
     2
 73
     1
 90
        2
 40
-0.6
 41
30.0
 62
     5
 63
     7
421
 16777215
 74
     1
 91
        4
 64
     7
 65
   257
 75
     1
175
     1
 42
1.0
 92
        0
 66
   257
 43
1.0
 76
     1
 77
     6
 78
     2
 67
     7
 79
     5
170
     0
171
     0
290
     0
174
     0
 93
       13
 44
0.0
173
     0
291
     1
 45
0.0
1001
ACAD
1000
AcDbSavedByObjectVersion
1070
     0
  0
VISUALSTYLE
  5
38
102
{ACAD_REACTORS
330
2A
102
}
330
2A
100
AcDbVisualStyle
  2
Linepattern
 70
    14
 71
     2
 72
     2
 73
     0
 90
        0
 40
-0.6
 41
-30.0
 62
     5
 63
     7
421
 16777215
 74
     1
 91
        4
 64
     7
 65
   257
 75
     7
175
     7
 42
1.0
 92
        8
 66
     7
 43
1.0
 76
     1
 77
     6
 78
     2
 67
     7
 79
     5
170
     0
171
     0
290
     0
174
     0
 93
        1
 44
0.0
173
     0
291
     1
 45
0.0
1001
ACAD
1000
AcDbSavedByObjectVersion
1070
     0
  0
VISUALSTYLE
  5
33
102
{ACAD_REACTORS
330
2A
102
}
330
2A
100
AcDbVisualStyle
  2
Realistic
 70
     8
 71
     2
 72
     2
 73
     0
 90
        0
 40
-0.6
 41
-30.0
 62
     5
 63
     7
421
 16777215
 74
     1
 91
        0
 64
     7
 65
   257
 75
     1
175
     1
 42
1.0
 92
        8
 66
     8
424
  7895160
 43
1.0
 76
     1
 77
     6
 78
     2
 67
     7
 79
     5
170
     0
171
     0
290
     0
174
     0
 93
       13
 44
0.0
173
     0
291
     0
 45
0.0
1001
ACAD
1000
AcDbSavedByObjectVersion
1070
     0
  0
VISUALSTYLE
  5
37
102
{ACAD_REACTORS
330
2A
102
}
330
2A
100
AcDbVisualStyle
  2
Thicken
 70
    13
 71
     2
 72
     2
 73
     0
 90
        0
 40
-0.6
 41
-30.0
 62
     5
 63
     7
421
 16777215
 74
     1
 91
        4
 64
     7
 65
   257
 75
     1
175
     1
 42
1.0
 92
       12
 66
     7
 43
1.0
 76
     1
 77
     6
 78
     2
 67
     7
 79
     5
170
     0
171
     0
290
     0
174
     0
 93
        1
 44
0.0
173
     0
291
     1
 45
0.0
1001
ACAD
1000
AcDbSavedByObjectVersion
1070
     0
  0
ENDSEC
  0
EOF
