  0
SECTION
  2
HEADER
  9
$ACADVER
  1
AC1018
  9
$ACADMAINTVER
 70
     0
  9
$DWGCODEPAGE
  3
ANSI_1252
  9
$INSBASE
 10
0.0
 20
0.0
 30
0.0
  9
$EXTMIN
 10
-12.34249379374232
 20
0.0000047233536771
 30
0.0
  9
$EXTMAX
 10
44.76608216122909
 20
66.47486563784624
 30
0.0
  9
$LIMMIN
 10
0.0
 20
0.0
  9
$LIMMAX
 10
12.0
 20
9.0
  9
$ORTHOMODE
 70
     0
  9
$REGENMODE
 70
     1
  9
$FILLMODE
 70
     1
  9
$QTEXTMODE
 70
     0
  9
$MIRRTEXT
 70
     1
  9
$LTSCALE
 40
0.0393700787401575
  9
$ATTMODE
 70
     1
  9
$TEXTSIZE
 40
0.2
  9
$TRACEWID
 40
0.05
  9
$TEXTSTYLE
  7
Standard
  9
$CLAYER
  8
DEFAULT
  9
$CELTYPE
  6
ByLayer
  9
$CECOLOR
 62
   256
  9
$CELTSCALE
 40
1.0
  9
$DISPSILH
 70
     0
  9
$DIMSCALE
 40
1.0
  9
$DIMASZ
 40
0.18
  9
$DIMEXO
 40
0.0625
  9
$DIMDLI
 40
0.38
  9
$DIMRND
 40
0.0
  9
$DIMDLE
 40
0.0
  9
$DIMEXE
 40
0.18
  9
$DIMTP
 40
0.0
  9
$DIMTM
 40
0.0
  9
$DIMTXT
 40
0.18
  9
$DIMCEN
 40
0.09
  9
$DIMTSZ
 40
0.0
  9
$DIMTOL
 70
     0
  9
$DIMLIM
 70
     0
  9
$DIMTIH
 70
     1
  9
$DIMTOH
 70
     1
  9
$DIMSE1
 70
     0
  9
$DIMSE2
 70
     0
  9
$DIMTAD
 70
     0
  9
$DIMZIN
 70
     0
  9
$DIMBLK
  1

  9
$DIMASO
 70
     1
  9
$DIMSHO
 70
     1
  9
$DIMPOST
  1

  9
$DIMAPOST
  1

  9
$DIMALT
 70
     0
  9
$DIMALTD
 70
     2
  9
$DIMALTF
 40
25.4
  9
$DIMLFAC
 40
1.0
  9
$DIMTOFL
 70
     0
  9
$DIMTVP
 40
0.0
  9
$DIMTIX
 70
     0
  9
$DIMSOXD
 70
     0
  9
$DIMSAH
 70
     0
  9
$DIMBLK1
  1

  9
$DIMBLK2
  1

  9
$DIMSTYLE
  2
Standard
  9
$DIMCLRD
 70
     0
  9
$DIMCLRE
 70
     0
  9
$DIMCLRT
 70
     0
  9
$DIMTFAC
 40
1.0
  9
$DIMGAP
 40
0.09
  9
$DIMJUST
 70
     0
  9
$DIMSD1
 70
     0
  9
$DIMSD2
 70
     0
  9
$DIMTOLJ
 70
     1
  9
$DIMTZIN
 70
     0
  9
$DIMALTZ
 70
     0
  9
$DIMALTTZ
 70
     0
  9
$DIMUPT
 70
     0
  9
$DIMDEC
 70
     4
  9
$DIMTDEC
 70
     4
  9
$DIMALTU
 70
     2
  9
$DIMALTTD
 70
     2
  9
$DIMTXSTY
  7
Standard
  9
$DIMAUNIT
 70
     0
  9
$DIMADEC
 70
     0
  9
$DIMALTRND
 40
0.0
  9
$DIMAZIN
 70
     0
  9
$DIMDSEP
 70
    46
  9
$DIMATFIT
 70
     3
  9
$DIMFRAC
 70
     0
  9
$DIMLDRBLK
  1

  9
$DIMLUNIT
 70
     2
  9
$DIMLWD
 70
    -2
  9
$DIMLWE
 70
    -2
  9
$DIMTMOVE
 70
     2
  9
$LUNITS
 70
     2
  9
$LUPREC
 70
     3
  9
$SKETCHINC
 40
0.1
  9
$FILLETRAD
 40
0.5
  9
$AUNITS
 70
     0
  9
$AUPREC
 70
     0
  9
$MENU
  1
.
  9
$ELEVATION
 40
0.0
  9
$PELEVATION
 40
0.0
  9
$THICKNESS
 40
0.0
  9
$LIMCHECK
 70
     0
  9
$CHAMFERA
 40
0.5
  9
$CHAMFERB
 40
0.5
  9
$CHAMFERC
 40
1.0
  9
$CHAMFERD
 40
0.0
  9
$SKPOLY
 70
     0
  9
$TDCREATE
 40
2455909.659613102
  9
$TDUCREATE
 40
2455909.867946435
  9
$TDUPDATE
 40
2455909.659613113
  9
$TDUUPDATE
 40
2455909.867946447
  9
$TDINDWG
 40
0.0000000116
  9
$TDUSRTIMER
 40
0.0000000116
  9
$USRTIMER
 70
     1
  9
$ANGBASE
 50
0.0
  9
$ANGDIR
 70
     0
  9
$PDMODE
 70
     0
  9
$PDSIZE
 40
0.0
  9
$PLINEWID
 40
0.0
  9
$SPLFRAME
 70
     0
  9
$SPLINETYPE
 70
     6
  9
$SPLINESEGS
 70
     8
  9
$HANDSEED
  5
171
  9
$SURFTAB1
 70
     6
  9
$SURFTAB2
 70
     6
  9
$SURFTYPE
 70
     6
  9
$SURFU
 70
     6
  9
$SURFV
 70
     6
  9
$UCSBASE
  2

  9
$UCSNAME
  2

  9
$UCSORG
 10
0.0
 20
0.0
 30
0.0
  9
$UCSXDIR
 10
1.0
 20
0.0
 30
0.0
  9
$UCSYDIR
 10
0.0
 20
1.0
 30
0.0
  9
$UCSORTHOREF
  2

  9
$UCSORTHOVIEW
 70
     0
  9
$UCSORGTOP
 10
0.0
 20
0.0
 30
0.0
  9
$UCSORGBOTTOM
 10
0.0
 20
0.0
 30
0.0
  9
$UCSORGLEFT
 10
0.0
 20
0.0
 30
0.0
  9
$UCSORGRIGHT
 10
0.0
 20
0.0
 30
0.0
  9
$UCSORGFRONT
 10
0.0
 20
0.0
 30
0.0
  9
$UCSORGBACK
 10
0.0
 20
0.0
 30
0.0
  9
$PUCSBASE
  2

  9
$PUCSNAME
  2

  9
$PUCSORG
 10
0.0
 20
0.0
 30
0.0
  9
$PUCSXDIR
 10
1.0
 20
0.0
 30
0.0
  9
$PUCSYDIR
 10
0.0
 20
1.0
 30
0.0
  9
$PUCSORTHOREF
  2

  9
$PUCSORTHOVIEW
 70
     0
  9
$PUCSORGTOP
 10
0.0
 20
0.0
 30
0.0
  9
$PUCSORGBOTTOM
 10
0.0
 20
0.0
 30
0.0
  9
$PUCSORGLEFT
 10
0.0
 20
0.0
 30
0.0
  9
$PUCSORGRIGHT
 10
0.0
 20
0.0
 30
0.0
  9
$PUCSORGFRONT
 10
0.0
 20
0.0
 30
0.0
  9
$PUCSORGBACK
 10
0.0
 20
0.0
 30
0.0
  9
$USERI1
 70
     0
  9
$USERI2
 70
     0
  9
$USERI3
 70
     0
  9
$USERI4
 70
     0
  9
$USERI5
 70
     0
  9
$USERR1
 40
0.0
  9
$USERR2
 40
0.0
  9
$USERR3
 40
0.0
  9
$USERR4
 40
0.0
  9
$USERR5
 40
0.0
  9
$WORLDVIEW
 70
     1
  9
$SHADEDGE
 70
     3
  9
$SHADEDIF
 70
    70
  9
$TILEMODE
 70
     1
  9
$MAXACTVP
 70
    64
  9
$PINSBASE
 10
0.0
 20
0.0
 30
0.0
  9
$PLIMCHECK
 70
     0
  9
$PEXTMIN
 10
1.000000000000000E+20
 20
1.000000000000000E+20
 30
1.000000000000000E+20
  9
$PEXTMAX
 10
-1.000000000000000E+20
 20
-1.000000000000000E+20
 30
-1.000000000000000E+20
  9
$PLIMMIN
 10
0.0
 20
0.0
  9
$PLIMMAX
 10
12.0
 20
9.0
  9
$UNITMODE
 70
     0
  9
$VISRETAIN
 70
     1
  9
$PLINEGEN
 70
     0
  9
$PSLTSCALE
 70
     1
  9
$TREEDEPTH
 70
  3020
  9
$CMLSTYLE
  2
Standard
  9
$CMLJUST
 70
     0
  9
$CMLSCALE
 40
1.0
  9
$PROXYGRAPHICS
 70
     1
  9
$MEASUREMENT
 70
     0
  9
$CELWEIGHT
370
    -1
  9
$ENDCAPS
280
     0
  9
$JOINSTYLE
280
     0
  9
$LWDISPLAY
290
     0
  9
$INSUNITS
 70
     1
  9
$HYPERLINKBASE
  1

  9
$STYLESHEET
  1

  9
$XEDIT
290
     1
  9
$CEPSNTYPE
380
     0
  9
$PSTYLEMODE
290
     1
  9
$FINGERPRINTGUID
  2
{E211873C-4022-4C45-A53E-83D81FE8B03D}
  9
$VERSIONGUID
  2
{FAEB1C32-E019-11D5-929B-00C0DF256EC4}
  9
$EXTNAMES
290
     1
  9
$PSVPSCALE
 40
0.0
  9
$OLESTARTUP
290
     0
  9
$SORTENTS
280
   127
  9
$INDEXCTL
280
     0
  9
$HIDETEXT
280
     1
  9
$XCLIPFRAME
290
     0
  9
$HALOGAP
280
     0
  9
$OBSCOLOR
 70
   257
  9
$OBSLTYPE
280
     0
  9
$INTERSECTIONDISPLAY
280
     0
  9
$INTERSECTIONCOLOR
 70
   257
  9
$DIMASSOC
280
     2
  9
$PROJECTNAME
  1

  0
ENDSEC
  0
SECTION
  2
CLASSES
  0
CLASS
  1
ACDBDICTIONARYWDFLT
  2
AcDbDictionaryWithDefault
  3
ObjectDBX Classes
 90
        0
 91
        4
280
     0
281
     0
  0
CLASS
  1
VISUALSTYLE
  2
AcDbVisualStyle
  3
ObjectDBX Classes
 90
     4095
 91
        4
280
     0
281
     0
  0
ENDSEC
  0
SECTION
  2
TABLES
  0
TABLE
  2
VPORT
  5
8
330
0
100
AcDbSymbolTable
 70
     1
  0
VPORT
  5
29
330
8
100
AcDbSymbolTableRecord
100
AcDbViewportTableRecord
  2
*Active
 70
     0
 10
0.0
 20
0.0
 11
1.0
 21
1.0
 12
16.21179418374339
 22
33.23743518059996
 13
0.0
 23
0.0
 14
0.5
 24
0.5
 15
0.5
 25
0.5
 16
0.0
 26
0.0
 36
1.0
 17
0.0
 27
0.0
 37
0.0
 40
67.80435813278241
 41
0.859100345142969
 42
50.0
 43
0.0
 44
0.0
 50
0.0
 51
0.0
 71
     0
 72
   100
 73
     1
 74
     3
 75
     0
 76
     0
 77
     0
 78
     0
281
     0
 65
     1
110
0.0
120
0.0
130
0.0
111
1.0
121
0.0
131
0.0
112
0.0
122
1.0
132
0.0
 79
     0
146
0.0
  0
ENDTAB
  0
TABLE
  2
LTYPE
  5
5
330
0
100
AcDbSymbolTable
 70
     1
  0
LTYPE
  5
14
330
5
100
AcDbSymbolTableRecord
100
AcDbLinetypeTableRecord
  2
ByBlock
 70
     0
  3

 72
    65
 73
     0
 40
0.0
  0
LTYPE
  5
15
330
5
100
AcDbSymbolTableRecord
100
AcDbLinetypeTableRecord
  2
ByLayer
 70
     0
  3

 72
    65
 73
     0
 40
0.0
  0
LTYPE
  5
16
330
5
100
AcDbSymbolTableRecord
100
AcDbLinetypeTableRecord
  2
Continuous
 70
     0
  3
Solid line
 72
    65
 73
     0
 40
0.0
  0
ENDTAB
  0
TABLE
  2
LAYER
  5
2
330
0
100
AcDbSymbolTable
 70
     2
  0
LAYER
  5
10
330
2
100
AcDbSymbolTableRecord
100
AcDbLayerTableRecord
  2
0
 70
     0
 62
     7
  6
Continuous
370
    -3
390
F
  0
LAYER
  5
3B
330
2
100
AcDbSymbolTableRecord
100
AcDbLayerTableRecord
  2
DEFAULT
 70
     0
 62
     7
  6
Continuous
370
    -3
390
F
  0
ENDTAB
  0
TABLE
  2
STYLE
  5
3
330
0
100
AcDbSymbolTable
 70
     1
  0
STYLE
  5
11
330
3
100
AcDbSymbolTableRecord
100
AcDbTextStyleTableRecord
  2
Standard
 70
     0
 40
0.0
 41
1.0
 50
0.0
 71
     0
 42
0.2
  3
txt
  4

  0
ENDTAB
  0
TABLE
  2
VIEW
  5
6
330
0
100
AcDbSymbolTable
 70
     0
  0
ENDTAB
  0
TABLE
  2
UCS
  5
7
330
0
100
AcDbSymbolTable
 70
     0
  0
ENDTAB
  0
TABLE
  2
APPID
  5
9
330
0
100
AcDbSymbolTable
 70
     1
  0
APPID
  5
12
330
9
100
AcDbSymbolTableRecord
100
AcDbRegAppTableRecord
  2
ACAD
 70
     0
  0
ENDTAB
  0
TABLE
  2
DIMSTYLE
  5
A
330
0
100
AcDbSymbolTable
 70
     1
100
AcDbDimStyleTable
  0
DIMSTYLE
105
27
330
A
100
AcDbSymbolTableRecord
100
AcDbDimStyleTableRecord
  2
Standard
 70
     0
340
11
  0
ENDTAB
  0
TABLE
  2
BLOCK_RECORD
  5
1
330
0
100
AcDbSymbolTable
 70
     1
  0
BLOCK_RECORD
  5
1F
330
1
100
AcDbSymbolTableRecord
100
AcDbBlockTableRecord
  2
*Model_Space
340
22
  0
BLOCK_RECORD
  5
1B
330
1
100
AcDbSymbolTableRecord
100
AcDbBlockTableRecord
  2
*Paper_Space
340
1E
  0
BLOCK_RECORD
  5
23
330
1
100
AcDbSymbolTableRecord
100
AcDbBlockTableRecord
  2
*Paper_Space0
340
26
  0
ENDTAB
  0
ENDSEC
  0
SECTION
  2
BLOCKS
  0
BLOCK
  5
20
330
1F
100
AcDbEntity
  8
0
100
AcDbBlockBegin
  2
*Model_Space
 70
     0
 10
0.0
 20
0.0
 30
0.0
  3
*Model_Space
  1

  0
ENDBLK
  5
21
330
1F
100
AcDbEntity
  8
0
100
AcDbBlockEnd
  0
BLOCK
  5
1C
330
1B
100
AcDbEntity
 67
     1
  8
0
100
AcDbBlockBegin
  2
*Paper_Space
 70
     0
 10
0.0
 20
0.0
 30
0.0
  3
*Paper_Space
  1

  0
ENDBLK
  5
1D
330
1B
100
AcDbEntity
 67
     1
  8
0
100
AcDbBlockEnd
  0
BLOCK
  5
24
330
23
100
AcDbEntity
  8
0
100
AcDbBlockBegin
  2
*Paper_Space0
 70
     0
 10
0.0
 20
0.0
 30
0.0
  3
*Paper_Space0
  1

  0
ENDBLK
  5
25
330
23
100
AcDbEntity
  8
0
100
AcDbBlockEnd
  0
ENDSEC
  0
SECTION
  2
ENTITIES
  0
SPLINE
  5
3C
330
1F
100
AcDbEntity
  8
DEFAULT
100
AcDbSpline
210
0.0
220
0.0
230
1.0
 70
    12
 71
     3
 72
    27
 73
    23
 74
     0
 42
0.0000000001
 43
0.0000000001
 40
-0.9919158107346908
 40
-0.9919158107346908
 40
-0.9919158107346908
 40
-0.9919158107346908
 40
-0.8216157204351209
 40
-0.8216157204351209
 40
-0.5716157204351209
 40
-0.5716157204351209
 40
-0.3742235676346553
 40
-0.3742235676346553
 40
-0.3742235676346553
 40
-0.3079763156920016
 40
-0.2183975914342078
 40
-0.1161245821545688
 40
0.0
 40
0.0
 40
0.0
 40
0.7088876801336855
 40
1.690111099355139
 40
4.234632274820855
 40
5.715077383816216
 40
7.632928227407522
 40
11.07487045093276
 40
12.34794305444288
 40
12.34794305444288
 40
12.34794305444288
 40
12.34794305444288
 10
9.551423293903268
 20
46.58898483878258
 30
0.0
 41
1.0
 10
9.545467271994026
 20
46.57384354906621
 30
0.0
 41
1.0
 10
9.541982137012893
 20
46.5388680113593
 30
0.0
 41
1.0
 10
9.579453531063733
 20
46.45874372060797
 30
0.0
 41
1.0
 10
9.630875514386444
 20
46.42858256680171
 30
0.0
 41
1.0
 10
9.736227092866612
 20
46.44110910079442
 30
0.0
 41
1.0
 10
9.789088519068939
 20
46.46593626038779
 30
0.0
 41
1.0
 10
9.845625930449968
 20
46.51445139558129
 30
0.0
 41
1.0
 10
9.861682385958344
 20
46.5296827078476
 30
0.0
 41
1.0
 10
9.893435433988286
 20
46.57104067292943
 30
0.0
 41
1.0
 10
9.93763462905727
 20
46.64490671430602
 30
0.0
 41
1.0
 10
9.982217264595503
 20
46.7375209981403
 30
0.0
 41
1.0
 10
10.00939576259509
 20
46.80504786783595
 30
0.0
 41
1.0
 10
10.02899323846424
 20
46.85821801189466
 30
0.0
 41
1.0
 10
10.1135668391677
 20
47.09825939746956
 30
0.0
 41
1.0
 10
10.24211438805736
 20
47.6478084655221
 30
0.0
 41
1.0
 10
10.43035250816038
 20
49.04768349003753
 30
0.0
 41
1.0
 10
10.51130530990289
 20
50.71641742659584
 30
0.0
 41
1.0
 10
10.4919398658543
 20
52.69722402323114
 30
0.0
 41
1.0
 10
10.41978250373088
 20
54.97640579171983
 30
0.0
 41
1.0
 10
10.30207445599532
 20
57.18422256605305
 30
0.0
 41
1.0
 10
10.21946170233639
 20
58.75378146884029
 30
0.0
 41
1.0
 10
10.16661103686101
 20
59.25097853043819
 30
0.0
 41
1.0
  0
SPLINE
  5
3D
330
1F
100
AcDbEntity
  8
DEFAULT
100
AcDbSpline
210
0.0
220
0.0
230
1.0
 70
    12
 71
     2
 72
     6
 73
     3
 74
     0
 42
0.0000000001
 43
0.0000000001
 40
0.0
 40
0.0
 40
0.0
 40
0.7847090864605429
 40
0.7847090864605429
 40
0.7847090864605429
 10
10.16661103686101
 20
59.25097853043819
 30
0.0
 41
1.0
 10
10.11594332845192
 20
59.71611574384866
 30
0.0
 41
0.9996199172071438
 10
10.05050333569959
 20
60.11099539649367
 30
0.0
 41
1.0
  0
SPLINE
  5
3E
330
1F
100
AcDbEntity
  8
DEFAULT
100
AcDbSpline
210
0.0
220
0.0
230
1.0
 70
     8
 71
     3
 72
    12
 73
     8
 74
     0
 42
0.0000000001
 43
0.0000000001
 40
0.0
 40
0.0
 40
0.0
 40
0.0
 40
0.1527348915727592
 40
0.2012912027849215
 40
0.2475491133605145
 40
0.3814322183297587
 40
0.5076009082732449
 40
0.5076009082732449
 40
0.5076009082732449
 40
0.5076009082732449
 10
10.05050333569959
 20
60.11099539649367
 30
0.0
 10
10.03948260056441
 20
60.16846770719064
 30
0.0
 10
10.03016425590667
 20
60.23583214508593
 30
0.0
 10
9.996332539960717
 20
60.31142879477837
 30
0.0
 10
9.94616720774283
 20
60.37089380203292
 30
0.0
 10
9.84971637515079
 20
60.4109095078235
 30
0.0
 10
9.766095742776086
 20
60.43295120169235
 30
0.0
 10
9.722830997064495
 20
60.42906209374006
 30
0.0
  0
SPLINE
  5
3F
330
1F
100
AcDbEntity
  8
DEFAULT
100
AcDbSpline
210
0.0
220
0.0
230
1.0
 70
    12
 71
     2
 72
     8
 73
     5
 74
     0
 42
0.0000000001
 43
0.0000000001
 40
-0.0433187423010104
 40
-0.0433187423010104
 40
-0.0433187423010104
 40
0.0
 40
0.0
 40
0.1282201628013348
 40
0.1282201628013348
 40
0.1282201628013348
 10
9.722830997064495
 20
60.42906209374006
 30
0.0
 41
0.9576088648151766
 10
9.716718882877336
 20
60.40812318975369
 30
0.0
 41
0.9641604803062411
 10
9.704428521016183
 20
60.39011357316044
 30
0.0
 41
1.0
 10
9.65974971033462
 20
60.33757454717219
 30
0.0
 41
0.9473303484341768
 10
9.59697935314469
 20
60.31567125684088
 30
0.0
 41
1.0
  0
SPLINE
  5
40
330
1F
100
AcDbEntity
  8
DEFAULT
100
AcDbSpline
210
0.0
220
0.0
230
1.0
 70
     8
 71
     3
 72
    14
 73
    10
 74
     0
 42
0.0000000001
 43
0.0000000001
 40
0.0
 40
0.0
 40
0.0
 40
0.0
 40
0.4769411130260029
 40
1.094312261690871
 40
2.259118278458852
 40
3.620449295513177
 40
6.166555932487759
 40
7.352656220994111
 40
10.1118640375627
 40
10.1118640375627
 40
10.1118640375627
 40
10.1118640375627
 10
9.59697935314469
 20
60.31567125684088
 30
0.0
 10
9.445378135990651
 20
60.26277104051972
 30
0.0
 10
9.087548482867035
 20
60.20223571586292
 30
0.0
 10
8.330944694905426
 20
60.15254815726722
 30
0.0
 10
7.293753513649548
 20
60.33475560613686
 30
0.0
 10
5.700003680299147
 20
60.91551477192756
 30
0.0
 10
4.233223712573576
 20
61.78197268924964
 30
0.0
 10
2.231367797824291
 20
62.60955688287368
 30
0.0
 10
0.9201669441223572
 20
62.84289420981223
 30
0.0
 10
0.0
 20
62.84081665923863
 30
0.0
  0
SPLINE
  5
41
330
1F
100
AcDbEntity
  8
DEFAULT
100
AcDbSpline
210
0.0
220
0.0
230
1.0
 70
     8
 71
     3
 72
    14
 73
    10
 74
     0
 42
0.0000000001
 43
0.0000000001
 40
-10.1118640375627
 40
-10.1118640375627
 40
-10.1118640375627
 40
-10.1118640375627
 40
-7.352656220994111
 40
-6.166555932487759
 40
-3.620449295513177
 40
-2.259118278458852
 40
-1.094312261690871
 40
-0.4769411130260029
 40
0.0
 40
0.0
 40
0.0
 40
0.0
 10
0.0
 20
62.84081665923863
 30
0.0
 10
-0.9201669441223572
 20
62.84289420981223
 30
0.0
 10
-2.231367797824291
 20
62.60955688287368
 30
0.0
 10
-4.233223712573576
 20
61.78197268924964
 30
0.0
 10
-5.700003680299147
 20
60.91551477192756
 30
0.0
 10
-7.293753513649548
 20
60.33475560613686
 30
0.0
 10
-8.330944694905426
 20
60.15254815726722
 30
0.0
 10
-9.087548482867035
 20
60.20223571586292
 30
0.0
 10
-9.445378135990651
 20
60.26277104051972
 30
0.0
 10
-9.59697935314469
 20
60.31567125684088
 30
0.0
  0
SPLINE
  5
42
330
1F
100
AcDbEntity
  8
DEFAULT
100
AcDbSpline
210
0.0
220
0.0
230
1.0
 70
    12
 71
     2
 72
     8
 73
     5
 74
     0
 42
0.0000000001
 43
0.0000000001
 40
-0.1282201628013348
 40
-0.1282201628013348
 40
-0.1282201628013348
 40
0.0
 40
0.0
 40
0.043318742301032
 40
0.043318742301032
 40
0.043318742301032
 10
-9.59697935314469
 20
60.31567125684088
 30
0.0
 41
1.0
 10
-9.65974971033462
 20
60.33757454717219
 30
0.0
 41
0.9473303484341768
 10
-9.704428521016183
 20
60.39011357316044
 30
0.0
 41
1.0
 10
-9.716718882877345
 20
60.4081231897537
 30
0.0
 41
0.9641604803062233
 10
-9.722830997064497
 20
60.42906209374007
 30
0.0
 41
0.9576088648151702
  0
SPLINE
  5
43
330
1F
100
AcDbEntity
  8
DEFAULT
100
AcDbSpline
210
0.0
220
0.0
230
1.0
 70
     8
 71
     3
 72
    12
 73
     8
 74
     0
 42
0.0000000001
 43
0.0000000001
 40
-0.5076009082732449
 40
-0.5076009082732449
 40
-0.5076009082732449
 40
-0.5076009082732449
 40
-0.3814322183297587
 40
-0.2475491133605145
 40
-0.2012912027849215
 40
-0.1527348915727592
 40
0.0
 40
0.0
 40
0.0
 40
0.0
 10
-9.722830997064497
 20
60.42906209374007
 30
0.0
 10
-9.766095742776086
 20
60.43295120169235
 30
0.0
 10
-9.84971637515079
 20
60.4109095078235
 30
0.0
 10
-9.94616720774283
 20
60.37089380203292
 30
0.0
 10
-9.996332539960717
 20
60.31142879477837
 30
0.0
 10
-10.03016425590667
 20
60.23583214508593
 30
0.0
 10
-10.03948260056441
 20
60.16846770719064
 30
0.0
 10
-10.05050333569959
 20
60.11099539649367
 30
0.0
  0
SPLINE
  5
44
330
1F
100
AcDbEntity
  8
DEFAULT
100
AcDbSpline
210
0.0
220
0.0
230
1.0
 70
    12
 71
     2
 72
     6
 73
     3
 74
     0
 42
0.0000000001
 43
0.0000000001
 40
-0.7847090864605429
 40
-0.7847090864605429
 40
-0.7847090864605429
 40
0.0
 40
0.0
 40
0.0
 10
-10.05050333569959
 20
60.11099539649367
 30
0.0
 41
1.0
 10
-10.11594332845192
 20
59.71611574384866
 30
0.0
 41
0.9996199172071438
 10
-10.16661103686101
 20
59.25097853043819
 30
0.0
 41
1.0
  0
SPLINE
  5
45
330
1F
100
AcDbEntity
  8
DEFAULT
100
AcDbSpline
210
0.0
220
0.0
230
1.0
 70
    12
 71
     3
 72
    27
 73
    23
 74
     0
 42
0.0000000001
 43
0.0000000001
 40
-12.34794305444288
 40
-12.34794305444288
 40
-12.34794305444288
 40
-12.34794305444288
 40
-11.07487045093276
 40
-7.632928227407522
 40
-5.715077383816216
 40
-4.234632274820855
 40
-1.690111099355139
 40
-0.7088876801336855
 40
0.0
 40
0.0
 40
0.0
 40
0.1161245821545688
 40
0.2183975914342078
 40
0.3079763156920016
 40
0.3742235676346553
 40
0.3742235676346553
 40
0.3742235676346553
 40
0.5716157204351209
 40
0.5716157204351209
 40
0.8216157204351209
 40
0.8216157204351209
 40
0.9919158107346908
 40
0.9919158107346908
 40
0.9919158107346908
 40
0.9919158107346908
 10
-10.16661103686101
 20
59.25097853043819
 30
0.0
 41
1.0
 10
-10.21946170233639
 20
58.75378146884029
 30
0.0
 41
1.0
 10
-10.30207445599532
 20
57.18422256605305
 30
0.0
 41
1.0
 10
-10.41978250373088
 20
54.97640579171983
 30
0.0
 41
1.0
 10
-10.4919398658543
 20
52.69722402323114
 30
0.0
 41
1.0
 10
-10.51130530990289
 20
50.71641742659584
 30
0.0
 41
1.0
 10
-10.43035250816038
 20
49.04768349003753
 30
0.0
 41
1.0
 10
-10.24211438805736
 20
47.6478084655221
 30
0.0
 41
1.0
 10
-10.1135668391677
 20
47.09825939746956
 30
0.0
 41
1.0
 10
-10.02899323846424
 20
46.85821801189466
 30
0.0
 41
1.0
 10
-10.00939576259509
 20
46.80504786783595
 30
0.0
 41
1.0
 10
-9.982217264595503
 20
46.7375209981403
 30
0.0
 41
1.0
 10
-9.93763462905727
 20
46.64490671430602
 30
0.0
 41
1.0
 10
-9.893435433988286
 20
46.57104067292943
 30
0.0
 41
1.0
 10
-9.861682385958344
 20
46.5296827078476
 30
0.0
 41
1.0
 10
-9.845625930449968
 20
46.51445139558129
 30
0.0
 41
1.0
 10
-9.789088519068939
 20
46.46593626038779
 30
0.0
 41
1.0
 10
-9.736227092866612
 20
46.44110910079442
 30
0.0
 41
1.0
 10
-9.630875514386444
 20
46.42858256680171
 30
0.0
 41
1.0
 10
-9.579453531063733
 20
46.45874372060797
 30
0.0
 41
1.0
 10
-9.541982137012893
 20
46.5388680113593
 30
0.0
 41
1.0
 10
-9.545467271994026
 20
46.57384354906621
 30
0.0
 41
1.0
 10
-9.551423293903268
 20
46.58898483878258
 30
0.0
 41
1.0
  0
SPLINE
  5
46
330
1F
100
AcDbEntity
  8
DEFAULT
100
AcDbSpline
210
0.0
220
0.0
230
1.0
 70
    12
 71
     3
 72
    46
 73
    42
 74
     0
 42
0.0000000001
 43
0.0000000001
 40
-2.645534879113056
 40
-2.645534879113056
 40
-2.645534879113056
 40
-2.645534879113056
 40
-2.283280389040947
 40
-2.116080232193494
 40
-2.033873203993569
 40
-1.948993809521346
 40
-1.948993809521346
 40
-1.948993809521346
 40
-1.578338617390344
 40
-1.397384519522803
 40
-1.079181098748561
 40
-0.5001275768196121
 40
-0.2509462701711973
 40
0.0
 40
0.0
 40
0.0
 40
0.4241005593510128
 40
0.4241005593510128
 40
0.4241005593510128
 40
1.162859745537729
 40
2.109921547423667
 40
3.270804401605309
 40
4.7034210821857
 40
8.465949136993554
 40
10.47859678300101
 40
12.67736369473384
 40
12.67736369473384
 40
12.67736369473384
 40
13.89564517931405
 40
13.89564517931405
 40
13.89564517931405
 40
14.27824802498169
 40
14.4915656808773
 40
14.65980449474063
 40
14.78954328516126
 40
14.948121183493
 40
14.948121183493
 40
14.948121183493
 40
15.448121183493
 40
15.448121183493
 40
15.86148237398441
 40
15.86148237398441
 40
15.86148237398441
 40
15.86148237398441
 10
-9.54352962031703
 20
46.57526938006528
 30
0.0
 41
1.0
 10
-9.487467334648498
 20
46.46863772976458
 30
0.0
 41
1.0
 10
-9.447626988991912
 20
46.28883330589355
 30
0.0
 41
1.0
 10
-9.495625973477472
 20
46.08796387795398
 30
0.0
 41
1.0
 10
-9.549128808696848
 20
45.98951711563062
 30
0.0
 41
1.0
 10
-9.582838126227783
 20
45.94519658189037
 30
0.0
 41
1.0
 10
-9.608202474190277
 20
45.91793497992798
 30
0.0
 41
1.0
 10
-9.700602821264964
 20
45.82519157944132
 30
0.0
 41
1.0
 10
-9.874841300245945
 20
45.73579789031454
 30
0.0
 41
1.0
 10
-10.16619275577855
 20
45.73766939108668
 30
0.0
 41
1.0
 10
-10.52186389170779
 20
45.78701259855005
 30
0.0
 41
1.0
 10
-10.89871632020723
 20
45.86278593147256
 30
0.0
 41
1.0
 10
-11.22098280548178
 20
46.03078770269643
 30
0.0
 41
1.0
 10
-11.35438733352012
 20
46.12915173944856
 30
0.0
 41
1.0
 10
-11.48781348579474
 20
46.25630342942419
 30
0.0
 41
1.0
 10
-11.65024729684316
 20
46.43543416737695
 30
0.0
 41
0.9938480587755496
 10
-11.7268680467375
 20
46.5551855985792
 30
0.0
 41
0.9938480587755496
 10
-11.78675008900994
 20
46.68452253383265
 30
0.0
 41
1.0
 10
-11.89450112142853
 20
46.90757399002375
 30
0.0
 41
1.0
 10
-12.07434967179085
 20
47.44217875718698
 30
0.0
 41
1.0
 10
-12.2322645299397
 20
48.37981858708896
 30
0.0
 41
1.0
 10
-12.32921534213915
 20
49.5563554947414
 30
0.0
 41
1.0
 10
-12.36399376201783
 20
51.67593770520109
 30
0.0
 41
1.0
 10
-12.2437660669253
 20
54.07671766864482
 30
0.0
 41
1.0
 10
-12.02196366282558
 20
56.72544165477669
 30
0.0
 41
1.0
 10
-11.85307966361853
 20
58.11946360169773
 30
0.0
 41
1.0
 10
-11.76180917230753
 20
58.88108101135519
 30
0.0
 41
1.0
 10
-11.71423676328108
 20
59.30736860505453
 30
0.0
 41
0.999988716404561
 10
-11.66545467523942
 20
59.72334803331133
 30
0.0
 41
0.999988716404561
 10
-11.61546455949461
 20
60.12900521489487
 30
0.0
 41
1.0
 10
-11.59760385073585
 20
60.26000496988285
 30
0.0
 41
1.0
 10
-11.57052156740852
 20
60.45448266860225
 30
0.0
 41
1.0
 10
-11.5002485929491
 20
60.7041393465088
 30
0.0
 41
1.0
 10
-11.37795194831432
 20
60.83025658213358
 30
0.0
 41
1.0
 10
-11.24248018195422
 20
60.89987065617677
 30
0.0
 41
1.0
 10
-11.15842205573136
 20
60.94645787785375
 30
0.0
 41
1.0
 10
-11.10917989692898
 20
60.96614027149848
 30
0.0
 41
1.0
 10
-10.96343055204309
 20
61.03123609073977
 30
0.0
 41
1.0
 10
-10.81093315891226
 20
61.08550246677856
 30
0.0
 41
1.0
 10
-10.52345580867765
 20
61.17052102512064
 30
0.0
 41
1.0
 10
-10.33975129712658
 20
61.25022233662931
 30
0.0
 41
1.0
 10
-10.20614723244775
 20
61.21456890418826
 30
0.0
 41
1.0
  0
SPLINE
  5
47
330
1F
100
AcDbEntity
  8
DEFAULT
100
AcDbSpline
210
0.0
220
0.0
230
1.0
 70
     8
 71
     3
 72
    12
 73
     8
 74
     0
 42
0.0000000001
 43
0.0000000001
 40
-0.6046057894628148
 40
-0.6046057894628148
 40
-0.6046057894628148
 40
-0.6046057894628148
 40
-0.346423130085688
 40
-0.2185210975122434
 40
-0.1074375238630979
 40
-0.052417229037855
 40
0.0
 40
0.0
 40
0.0
 40
0.0
 10
-10.20614723244774
 20
61.21456890418825
 30
0.0
 10
-10.12316015813949
 20
61.19242306562832
 30
0.0
 10
-9.994268988248164
 20
61.08047400320338
 30
0.0
 10
-9.84577240088444
 20
61.0040318586295
 30
0.0
 10
-9.746452872171515
 20
60.98968778105179
 30
0.0
 10
-9.676321186170894
 20
61.01826894150243
 30
0.0
 10
-9.650491023886756
 20
61.04250614248073
 30
0.0
 10
-9.639053344701805
 20
61.0560830118176
 30
0.0
  0
LINE
  5
48
330
1F
100
AcDbEntity
  8
DEFAULT
100
AcDbLine
 10
-9.639053344701805
 20
61.0560830118176
 30
0.0
 11
-9.588860907561672
 21
61.11566294492562
 31
0.0
  0
SPLINE
  5
49
330
1F
100
AcDbEntity
  8
DEFAULT
100
AcDbSpline
210
0.0
220
0.0
230
1.0
 70
    12
 71
     2
 72
     6
 73
     3
 74
     0
 42
0.0000000001
 43
0.0000000001
 40
0.6945311587242328
 40
0.6945311587242328
 40
0.6945311587242328
 40
0.7644817079169229
 40
0.7644817079169229
 40
0.7644817079169229
 10
-9.588860907561672
 20
61.11566294492563
 30
0.0
 41
0.9998846788112339
 10
-9.582177764140742
 20
61.15057179727349
 30
0.0
 41
0.9999351352388464
 10
-9.575795352076858
 20
61.1849549007774
 30
0.0
 41
0.9999992040962243
  0
SPLINE
  5
4A
330
1F
100
AcDbEntity
  8
DEFAULT
100
AcDbSpline
210
0.0
220
0.0
230
1.0
 70
     8
 71
     3
 72
    19
 73
    15
 74
     0
 42
0.0000000001
 43
0.0000000001
 40
-11.51386883183247
 40
-11.51386883183247
 40
-11.51386883183247
 40
-11.51386883183247
 40
-10.86335533494464
 40
-9.710123961932329
 40
-9.470060216773138
 40
-9.238659435547545
 40
-9.218595657282524
 40
-9.090866166954358
 40
-9.019515739888016
 40
-8.91937015223986
 40
-6.899475607671127
 40
-4.462819732511551
 40
-2.232247940101095
 40
0.0
 40
0.0
 40
0.0
 40
0.0
 10
-9.575795352076867
 20
61.1849549007774
 30
0.0
 10
-9.536237901329542
 20
61.39805739397005
 30
0.0
 10
-9.374104256080457
 20
62.03008686609212
 30
0.0
 10
-9.153711124166733
 20
62.67440970557656
 30
0.0
 10
-8.999653704232017
 20
63.19394001035906
 30
0.0
 10
-8.95824189121933
 20
63.3515857565977
 30
0.0
 10
-8.924905977011832
 20
63.47513272276396
 30
0.0
 10
-8.870270733235685
 20
63.52697591417011
 30
0.0
 10
-8.790985997864453
 20
63.58823356597388
 30
0.0
 10
-8.112337509100541
 20
63.85907661894821
 30
0.0
 10
-6.675243884416858
 20
64.35233226150076
 30
0.0
 10
-4.509994723262238
 20
64.89156312196508
 30
0.0
 10
-2.231053462670729
 20
65.21703928355045
 30
0.0
 10
-0.7439226005075739
 20
65.28655119892935
 30
0.0
 10
0.0
 20
65.28664619258011
 30
0.0
  0
SPLINE
  5
4B
330
1F
100
AcDbEntity
  8
DEFAULT
100
AcDbSpline
210
0.0
220
0.0
230
1.0
 70
     8
 71
     3
 72
    19
 73
    15
 74
     0
 42
0.0000000001
 43
0.0000000001
 40
0.0
 40
0.0
 40
0.0
 40
0.0
 40
2.232247940101095
 40
4.462819732511551
 40
6.899475607671127
 40
8.91937015223986
 40
9.019515739888016
 40
9.090866166954358
 40
9.218595657282524
 40
9.238659435547545
 40
9.470060216773138
 40
9.710123961932329
 40
10.86335533494464
 40
11.51386883183247
 40
11.51386883183247
 40
11.51386883183247
 40
11.51386883183247
 10
0.0
 20
65.28664619258011
 30
0.0
 10
0.7439226005075739
 20
65.28655119892935
 30
0.0
 10
2.231053462670729
 20
65.21703928355045
 30
0.0
 10
4.509994723262238
 20
64.89156312196508
 30
0.0
 10
6.675243884416858
 20
64.35233226150076
 30
0.0
 10
8.112337509100541
 20
63.85907661894821
 30
0.0
 10
8.790985997864453
 20
63.58823356597388
 30
0.0
 10
8.870270733235685
 20
63.52697591417011
 30
0.0
 10
8.924905977011832
 20
63.47513272276396
 30
0.0
 10
8.95824189121933
 20
63.3515857565977
 30
0.0
 10
8.999653704232017
 20
63.19394001035906
 30
0.0
 10
9.153711124166733
 20
62.67440970557656
 30
0.0
 10
9.374104256080457
 20
62.03008686609212
 30
0.0
 10
9.536237901329542
 20
61.39805739397005
 30
0.0
 10
9.575795352076867
 20
61.1849549007774
 30
0.0
  0
SPLINE
  5
4C
330
1F
100
AcDbEntity
  8
DEFAULT
100
AcDbSpline
210
0.0
220
0.0
230
1.0
 70
    12
 71
     2
 72
     6
 73
     3
 74
     0
 42
0.0000000001
 43
0.0000000001
 40
-0.7644817079169229
 40
-0.7644817079169229
 40
-0.7644817079169229
 40
-0.6945311587242259
 40
-0.6945311587242259
 40
-0.6945311587242259
 10
9.575795352076872
 20
61.1849549007774
 30
0.0
 41
0.9999992040962243
 10
9.582177764140756
 20
61.15057179727349
 30
0.0
 41
0.9999351352388464
 10
9.58886090756168
 20
61.11566294492562
 30
0.0
 41
0.9998846788112339
  0
LINE
  5
4D
330
1F
100
AcDbEntity
  8
DEFAULT
100
AcDbLine
 10
9.58886090756168
 20
61.11566294492562
 30
0.0
 11
9.639053344701805
 21
61.0560830118176
 31
0.0
  0
SPLINE
  5
4E
330
1F
100
AcDbEntity
  8
DEFAULT
100
AcDbSpline
210
0.0
220
0.0
230
1.0
 70
     8
 71
     3
 72
    12
 73
     8
 74
     0
 42
0.0000000001
 43
0.0000000001
 40
0.0
 40
0.0
 40
0.0
 40
0.0
 40
0.052417229037855
 40
0.1074375238630979
 40
0.2185210975122434
 40
0.346423130085688
 40
0.6046057894628148
 40
0.6046057894628148
 40
0.6046057894628148
 40
0.6046057894628148
 10
9.639053344701805
 20
61.0560830118176
 30
0.0
 10
9.650491023886756
 20
61.04250614248073
 30
0.0
 10
9.676321186170894
 20
61.01826894150243
 30
0.0
 10
9.746452872171515
 20
60.98968778105179
 30
0.0
 10
9.84577240088444
 20
61.0040318586295
 30
0.0
 10
9.994268988248164
 20
61.08047400320338
 30
0.0
 10
10.12316015813949
 20
61.19242306562832
 30
0.0
 10
10.20614723244774
 20
61.21456890418825
 30
0.0
  0
SPLINE
  5
4F
330
1F
100
AcDbEntity
  8
DEFAULT
100
AcDbSpline
210
0.0
220
0.0
230
1.0
 70
    12
 71
     3
 72
    46
 73
    42
 74
     0
 42
0.0000000001
 43
0.0000000001
 40
-15.86148237398441
 40
-15.86148237398441
 40
-15.86148237398441
 40
-15.86148237398441
 40
-15.448121183493
 40
-15.448121183493
 40
-14.948121183493
 40
-14.948121183493
 40
-14.948121183493
 40
-14.78954328516126
 40
-14.65980449474063
 40
-14.4915656808773
 40
-14.27824802498169
 40
-13.89564517931405
 40
-13.89564517931405
 40
-13.89564517931405
 40
-12.67736369473384
 40
-12.67736369473384
 40
-12.67736369473384
 40
-10.47859678300101
 40
-8.465949136993554
 40
-4.7034210821857
 40
-3.270804401605309
 40
-2.109921547423667
 40
-1.162859745537729
 40
-0.4241005593510128
 40
-0.4241005593510128
 40
-0.4241005593510128
 40
0.0
 40
0.0
 40
0.0
 40
0.2509462701711973
 40
0.5001275768196121
 40
1.079181098748561
 40
1.397384519522803
 40
1.578338617390344
 40
1.948993809521346
 40
1.948993809521346
 40
1.948993809521346
 40
2.033873203993569
 40
2.116080232193494
 40
2.283280389040947
 40
2.645534879113056
 40
2.645534879113056
 40
2.645534879113056
 40
2.645534879113056
 10
10.20614723244775
 20
61.21456890418826
 30
0.0
 41
1.0
 10
10.33975129712658
 20
61.25022233662931
 30
0.0
 41
1.0
 10
10.52345580867765
 20
61.17052102512064
 30
0.0
 41
1.0
 10
10.81093315891226
 20
61.08550246677856
 30
0.0
 41
1.0
 10
10.96343055204309
 20
61.03123609073977
 30
0.0
 41
1.0
 10
11.10917989692898
 20
60.96614027149848
 30
0.0
 41
1.0
 10
11.15842205573136
 20
60.94645787785375
 30
0.0
 41
1.0
 10
11.24248018195422
 20
60.89987065617677
 30
0.0
 41
1.0
 10
11.37795194831432
 20
60.83025658213358
 30
0.0
 41
1.0
 10
11.5002485929491
 20
60.7041393465088
 30
0.0
 41
1.0
 10
11.57052156740852
 20
60.45448266860225
 30
0.0
 41
1.0
 10
11.59760385073585
 20
60.26000496988285
 30
0.0
 41
1.0
 10
11.61546455949461
 20
60.12900521489487
 30
0.0
 41
1.0
 10
11.66545467523942
 20
59.72334803331133
 30
0.0
 41
0.999988716404561
 10
11.71423676328108
 20
59.30736860505453
 30
0.0
 41
0.999988716404561
 10
11.76180917230753
 20
58.88108101135519
 30
0.0
 41
1.0
 10
11.85307966361853
 20
58.11946360169773
 30
0.0
 41
1.0
 10
12.02196366282558
 20
56.72544165477669
 30
0.0
 41
1.0
 10
12.2437660669253
 20
54.07671766864482
 30
0.0
 41
1.0
 10
12.36399376201783
 20
51.67593770520109
 30
0.0
 41
1.0
 10
12.32921534213915
 20
49.5563554947414
 30
0.0
 41
1.0
 10
12.2322645299397
 20
48.37981858708896
 30
0.0
 41
1.0
 10
12.07434967179085
 20
47.44217875718698
 30
0.0
 41
1.0
 10
11.89450112142853
 20
46.90757399002375
 30
0.0
 41
1.0
 10
11.78675008900994
 20
46.68452253383265
 30
0.0
 41
1.0
 10
11.7268680467375
 20
46.5551855985792
 30
0.0
 41
0.9938480587755496
 10
11.65024729684316
 20
46.43543416737695
 30
0.0
 41
0.9938480587755496
 10
11.48781348579474
 20
46.25630342942419
 30
0.0
 41
1.0
 10
11.35438733352012
 20
46.12915173944856
 30
0.0
 41
1.0
 10
11.22098280548178
 20
46.03078770269643
 30
0.0
 41
1.0
 10
10.89871632020723
 20
45.86278593147256
 30
0.0
 41
1.0
 10
10.52186389170779
 20
45.78701259855005
 30
0.0
 41
1.0
 10
10.16619275577855
 20
45.73766939108668
 30
0.0
 41
1.0
 10
9.874841300245945
 20
45.73579789031454
 30
0.0
 41
1.0
 10
9.700602821264964
 20
45.82519157944132
 30
0.0
 41
1.0
 10
9.608202474190277
 20
45.91793497992798
 30
0.0
 41
1.0
 10
9.582838126227783
 20
45.94519658189037
 30
0.0
 41
1.0
 10
9.549128808696848
 20
45.98951711563062
 30
0.0
 41
1.0
 10
9.495625973477472
 20
46.08796387795398
 30
0.0
 41
1.0
 10
9.447626988991912
 20
46.28883330589355
 30
0.0
 41
1.0
 10
9.487467334648498
 20
46.46863772976458
 30
0.0
 41
1.0
 10
9.54352962031703
 20
46.57526938006528
 30
0.0
 41
1.0
  0
SPLINE
  5
50
330
1F
100
AcDbEntity
  8
DEFAULT
100
AcDbSpline
210
0.0
220
0.0
230
1.0
 70
    12
 71
     2
 72
     8
 73
     5
 74
     0
 42
0.0000000001
 43
0.0000000001
 40
0.0
 40
0.0
 40
0.0
 40
1.570796326794897
 40
1.570796326794897
 40
3.141592653589793
 40
3.141592653589793
 40
3.141592653589793
 10
-10.08007788435725
 20
65.84508627010612
 30
0.0
 41
1.0
 10
-10.11708377637188
 20
66.43994101946241
 30
0.0
 41
0.7071067811865475
 10
-9.55568465898645
 20
66.47486563784624
 30
0.0
 41
1.0
 10
-8.994285541601034
 20
66.50979025623006
 30
0.0
 41
0.7071067811865475
 10
-8.957279649586397
 20
65.91493550687377
 30
0.0
 41
1.0
  0
SPLINE
  5
51
330
1F
100
AcDbEntity
  8
DEFAULT
100
AcDbSpline
210
0.0
220
0.0
230
1.0
 70
     8
 71
     2
 72
    11
 73
     8
 74
     0
 42
0.0000000001
 43
0.0000000001
 40
0.0
 40
0.0
 40
0.0
 40
1.0
 40
2.0
 40
3.0
 40
4.0
 40
5.0
 40
6.0
 40
6.0
 40
6.0
 10
-9.356630980129523
 20
62.04605054382793
 30
0.0
 10
-9.421919879349218
 20
62.03360923254479
 30
0.0
 10
-9.5430780443685
 20
61.97892810859325
 30
0.0
 10
-9.648088631134073
 20
61.89742554496718
 30
0.0
 10
-9.73114170892758
 20
61.7936426389284
 30
0.0
 10
-9.787576848395616
 20
61.67324875943548
 30
0.0
 10
-9.812162408258388
 20
61.5425209613641
 30
0.0
 10
-9.808078907190648
 20
61.47615743314853
 30
0.0
  0
LINE
  5
52
330
1F
100
AcDbEntity
  8
DEFAULT
100
AcDbLine
 10
-7.924506129476441
 20
60.23509431705963
 30
0.0
 11
-7.508651261700493
 21
59.97016554798754
 31
0.0
  0
SPLINE
  5
53
330
1F
100
AcDbEntity
  8
DEFAULT
100
AcDbSpline
210
0.0
220
0.0
230
1.0
 70
    12
 71
     2
 72
     6
 73
     3
 74
     0
 42
0.0000000001
 43
0.0000000001
 40
0.0
 40
0.0
 40
0.0
 40
0.0742368075508645
 40
0.0742368075508645
 40
0.0742368075508645
 10
-9.335955625871321
 20
62.11656697078459
 30
0.0
 41
1.0
 10
-9.34690355956293
 20
62.08109977472404
 30
0.0
 41
0.9999981765885326
 10
-9.357715952740222
 20
62.04559102365766
 30
0.0
 41
1.0
  0
SPLINE
  5
54
330
1F
100
AcDbEntity
  8
DEFAULT
100
AcDbSpline
210
0.0
220
0.0
230
1.0
 70
    24
 71
     2
 72
     6
 73
     3
 74
     0
 42
0.0000000001
 43
0.0000000001
 40
0.0
 40
0.0
 40
0.0
 40
2.34975482514205
 40
2.34975482514205
 40
2.34975482514205
 10
-8.811279904834919
 20
63.56972084445781
 30
0.0
 10
-8.884279777210658
 20
64.74232817566579
 30
0.0
 10
-8.957279649586397
 20
65.91493550687377
 30
0.0
  0
SPLINE
  5
55
330
1F
100
AcDbEntity
  8
DEFAULT
100
AcDbSpline
210
0.0
220
0.0
230
1.0
 70
    12
 71
     2
 72
     8
 73
     5
 74
     0
 42
0.0000000001
 43
0.0000000001
 40
-3.141592653589793
 40
-3.141592653589793
 40
-3.141592653589793
 40
-1.570796326794897
 40
-1.570796326794897
 40
0.0
 40
0.0
 40
0.0
 10
-8.957279649586397
 20
65.91493550687377
 30
0.0
 41
1.0
 10
-8.99106639024709
 20
66.45765672688385
 30
0.0
 41
0.7071067811865475
 10
-9.553639161221142
 20
66.42385621572359
 30
0.0
 41
1.0
 10
-10.11494709068074
 20
66.38775710465293
 30
0.0
 41
0.7071067811865475
 10
-10.08007788435725
 20
65.84508627010612
 30
0.0
 41
1.0
  0
SPLINE
  5
56
330
1F
100
AcDbEntity
  8
DEFAULT
100
AcDbSpline
210
0.0
220
0.0
230
1.0
 70
    24
 71
     2
 72
     6
 73
     3
 74
     0
 42
0.0000000001
 43
0.0000000001
 40
0.0
 40
0.0
 40
0.0
 40
4.328712305731482
 40
4.328712305731482
 40
4.328712305731482
 10
-10.08007788435725
 20
65.84508627010612
 30
0.0
 10
-9.945612716624808
 20
63.68490204714418
 30
0.0
 10
-9.811147548892365
 20
61.52471782418223
 30
0.0
  0
SPLINE
  5
57
330
1F
100
AcDbEntity
  8
DEFAULT
100
AcDbSpline
210
0.0
220
0.0
230
1.0
 70
    12
 71
     2
 72
     6
 73
     3
 74
     0
 42
0.0000000001
 43
0.0000000001
 40
0.0
 40
0.0
 40
0.0
 40
0.8053367947165757
 40
0.8053367947165757
 40
0.8053367947165757
 10
-8.945419045396788
 20
46.79295427950913
 30
0.0
 41
1.0
 10
-9.34808560454315
 20
46.79417183390316
 30
0.0
 41
0.9999999904602095
 10
-9.750751811965328
 20
46.79550062799319
 30
0.0
 41
1.0
  0
SPLINE
  5
58
330
1F
100
AcDbEntity
  8
DEFAULT
 62
    15
100
AcDbSpline
210
0.0
220
0.0
230
1.0
 70
    12
 71
     2
 72
     6
 73
     3
 74
     0
 42
0.0000000001
 43
0.0000000001
 40
0.0
 40
0.0
 40
0.0
 40
0.0039883534300923
 40
0.0039883534300923
 40
0.0039883534300923
 10
-9.551486962441599
 20
46.5897083893566
 30
0.0
 41
1.0
 10
-9.55247328633882
 20
46.59144157601914
 30
0.0
 41
0.9999943295923494
 10
-9.553471261184738
 20
46.5931680803036
 30
0.0
 41
1.0
  0
SPLINE
  5
59
330
1F
100
AcDbEntity
  8
DEFAULT
100
AcDbSpline
210
0.0
220
0.0
230
1.0
 70
    12
 71
     2
 72
     6
 73
     3
 74
     0
 42
0.0000000001
 43
0.0000000001
 40
0.0
 40
0.0
 40
0.0
 40
0.8667631261804846
 40
0.8667631261804846
 40
0.8667631261804846
 10
-9.779416074620398
 20
45.79558988956663
 30
0.0
 41
1.0
 10
-9.346036880513104
 20
45.79415597683605
 30
0.0
 41
0.9999999889617855
 10
-8.912657279435278
 20
45.79285084833133
 30
0.0
 41
1.0
  0
SPLINE
  5
5A
330
1F
100
AcDbEntity
  8
DEFAULT
100
AcDbSpline
210
0.0
220
0.0
230
1.0
 70
    24
 71
     2
 72
     6
 73
     3
 74
     0
 42
0.0000000001
 43
0.0000000001
 40
-0.2602720793271335
 40
-0.2602720793271335
 40
-0.2602720793271335
 40
0.0
 40
0.0
 40
0.0
 10
-9.677558164298118
 20
45.79525463694716
 30
0.0
 10
-9.735747754204416
 20
45.67885293120681
 30
0.0
 10
-9.793937344110715
 20
45.56245122546645
 30
0.0
  0
SPLINE
  5
5B
330
1F
100
AcDbEntity
  8
DEFAULT
100
AcDbSpline
210
0.0
220
0.0
230
1.0
 70
    12
 71
     2
 72
    10
 73
     7
 74
     0
 42
0.0000000001
 43
0.0000000001
 40
0.0
 40
0.0
 40
0.0
 40
0.6227389772555622
 40
0.6227389772555622
 40
1.506203123415036
 40
1.506203123415036
 40
1.562847357700877
 40
1.562847357700877
 40
1.562847357700877
 10
-9.793937344110713
 20
45.56245122546645
 30
0.0
 41
0.9999999869992794
 10
-9.949415892970732
 20
45.25148870157215
 30
0.0
 41
0.8505124624616743
 10
-10.29708130373379
 20
45.25166920446759
 30
0.0
 41
1.0
 10
-10.85940025811505
 20
45.25185012998195
 30
0.0
 41
0.7073001515603876
 10
-10.85952692604121
 20
45.8141690992029
 30
0.0
 41
1.0
 10
-10.85952695195967
 20
45.8425152090869
 30
0.0
 41
0.9987308260895954
 10
-10.85667523963332
 20
45.87071750832587
 30
0.0
 41
1.0
  0
SPLINE
  5
5C
330
1F
100
AcDbEntity
  8
DEFAULT
100
AcDbSpline
210
0.0
220
0.0
230
1.0
 70
     8
 71
     2
 72
     9
 73
     6
 74
     0
 42
0.0000000001
 43
0.0000000001
 40
2.020322663502027
 40
2.020322663502027
 40
2.020322663502027
 40
3.0
 40
4.0
 40
5.0
 40
6.0
 40
6.0
 40
6.0
 10
-9.667933338300996
 20
61.02815934188911
 30
0.0
 10
-9.660072531324204
 20
61.12170724979291
 30
0.0
 10
-9.633003343408205
 20
61.30959612831992
 30
0.0
 10
-9.583189056844475
 20
61.49495774354649
 30
0.0
 10
-9.502300219732788
 20
61.66950774381552
 30
0.0
 10
-9.444444315482215
 20
61.74613979210507
 30
0.0
  0
SPLINE
  5
5D
330
1F
100
AcDbEntity
  8
DEFAULT
100
AcDbSpline
210
0.0
220
0.0
230
1.0
 70
    12
 71
     2
 72
     8
 73
     5
 74
     0
 42
0.0000000001
 43
0.0000000001
 40
-3.0
 40
-3.0
 40
-3.0
 40
-2.0
 40
-1.0
 40
0.0
 40
0.0
 40
0.0
 10
-9.808061667404175
 20
61.47615068487386
 30
0.0
 41
1.0
 10
-9.805392058688057
 20
61.43608123939931
 30
0.0
 41
1.0
 10
-9.800444412906472
 20
61.35591626016576
 30
0.0
 41
1.0
 10
-9.786514540534313
 20
61.0680690609728
 30
0.0
 41
1.0
 10
-9.783972834294474
 20
61.02799129905018
 30
0.0
 41
1.0
  0
SPLINE
  5
5E
330
1F
100
AcDbEntity
  8
DEFAULT
100
AcDbSpline
210
0.0
220
0.0
230
1.0
 70
     8
 71
     3
 72
     8
 73
     4
 74
     0
 42
0.0000000001
 43
0.0000000001
 40
0.0000000000000001
 40
0.0000000000000001
 40
0.0000000000000001
 40
0.0000000000000001
 40
0.0308111800759202
 40
0.0308111800759202
 40
0.0308111800759202
 40
0.0308111800759202
 10
-9.783972834294474
 20
61.02799129905018
 30
0.0
 10
-9.783323732361891
 20
61.01775622455189
 30
0.0
 10
-9.782674585490128
 20
61.00751758143244
 30
0.0
 10
-9.782024415277492
 20
60.99727600774082
 30
0.0
  0
SPLINE
  5
5F
330
1F
100
AcDbEntity
  8
DEFAULT
100
AcDbSpline
210
0.0
220
0.0
230
1.0
 70
    12
 71
     2
 72
     6
 73
     3
 74
     0
 42
0.0000000001
 43
0.0000000001
 40
0.0
 40
0.0
 40
0.0
 40
0.5806136477528836
 40
0.5806136477528836
 40
0.5806136477528836
 10
-9.555838015382049
 20
46.59722469940958
 30
0.0
 41
1.0
 10
-9.716810214766275
 20
46.8719994308032
 30
0.0
 41
0.8725415371224636
 10
-10.03520074697334
 20
46.87837681176455
 30
0.0
 41
1.0
  0
SPLINE
  5
60
330
1F
100
AcDbEntity
  8
DEFAULT
100
AcDbSpline
210
0.0
220
0.0
230
1.0
 70
    24
 71
     2
 72
     6
 73
     3
 74
     0
 42
0.0000000001
 43
0.0000000001
 40
-0.2602720793271335
 40
-0.2602720793271335
 40
-0.2602720793271335
 40
0.0
 40
0.0
 40
0.0
 10
9.677558164298118
 20
45.79525463694716
 30
0.0
 10
9.735747754204416
 20
45.67885293120681
 30
0.0
 10
9.793937344110715
 20
45.56245122546645
 30
0.0
  0
SPLINE
  5
61
330
1F
100
AcDbEntity
  8
DEFAULT
100
AcDbSpline
210
0.0
220
0.0
230
1.0
 70
    12
 71
     2
 72
    10
 73
     7
 74
     0
 42
0.0000000001
 43
0.0000000001
 40
0.0
 40
0.0
 40
0.0
 40
0.6227389772555622
 40
0.6227389772555622
 40
1.506203123415036
 40
1.506203123415036
 40
1.562847357700877
 40
1.562847357700877
 40
1.562847357700877
 10
9.793937344110713
 20
45.56245122546645
 30
0.0
 41
0.9999999869992794
 10
9.949415892970732
 20
45.25148870157215
 30
0.0
 41
0.8505124624616743
 10
10.29708130373379
 20
45.25166920446759
 30
0.0
 41
1.0
 10
10.85940025811505
 20
45.25185012998195
 30
0.0
 41
0.7073001515603876
 10
10.85952692604121
 20
45.8141690992029
 30
0.0
 41
1.0
 10
10.85952695195967
 20
45.8425152090869
 30
0.0
 41
0.9987308260895954
 10
10.85667523963332
 20
45.87071750832587
 30
0.0
 41
1.0
  0
SPLINE
  5
62
330
1F
100
AcDbEntity
  8
DEFAULT
100
AcDbSpline
210
0.0
220
0.0
230
1.0
 70
    12
 71
     3
 72
    25
 73
    21
 74
     0
 42
0.0000000001
 43
0.0000000001
 40
0.0
 40
0.0
 40
0.0
 40
0.0
 40
1.473337225222238
 40
2.180778529516569
 40
3.691154581659405
 40
4.86162751763762
 40
5.929158539635224
 40
5.929158539635224
 40
5.929158539635224
 40
7.08447714822221
 40
8.255675214010646
 40
9.53711295372142
 40
11.01938668735557
 40
12.83465240124909
 40
14.97084977560966
 40
17.30949843945334
 40
19.62645110586711
 40
19.62645110586711
 40
19.62645110586711
 40
20.9293810752833
 40
20.9293810752833
 40
20.9293810752833
 40
20.9293810752833
 10
42.76135142700016
 20
18.16421546414344
 30
0.0
 41
1.0
 10
42.74937341941947
 20
18.65503163265035
 30
0.0
 41
1.0
 10
42.78639485223735
 20
19.38243610949174
 30
0.0
 41
1.0
 10
42.76232323434999
 20
20.61185757170372
 30
0.0
 41
1.0
 10
42.71855154313459
 20
21.74270806494484
 30
0.0
 41
1.0
 10
42.46545327259187
 20
22.97138762105554
 30
0.0
 41
1.0
 10
42.17572481173812
 20
23.66330304740195
 30
0.0
 41
1.0
 10
42.00118056519537
 20
23.97335674265489
 30
0.0
 41
1.0
 10
41.8100340912554
 20
24.30771269071094
 30
0.0
 41
1.0
 10
41.33576737011009
 20
24.92996434579439
 30
0.0
 41
1.0
 10
40.36674101575315
 20
25.66167335821454
 30
0.0
 41
1.0
 10
39.14532921303999
 20
26.16087331718157
 30
0.0
 41
1.0
 10
37.64710361451793
 20
26.47668586006009
 30
0.0
 41
1.0
 10
35.83651538672032
 20
26.58895610238658
 30
0.0
 41
1.0
 10
33.73847616061494
 20
26.53159227462859
 30
0.0
 41
1.0
 10
31.48987182797015
 20
26.25009456265953
 30
0.0
 41
1.0
 10
29.96257785091993
 20
25.97494276527625
 30
0.0
 41
1.0
 10
29.15804263893438
 20
25.78679012712289
 30
0.0
 41
1.0
 10
28.70265483540246
 20
25.67053872901997
 30
0.0
 41
0.9999903277390821
 10
28.26520109564641
 20
25.55619552952116
 30
0.0
 41
0.9999903277390821
 10
27.84414093779154
 20
25.44334272219858
 30
0.0
 41
1.0
  0
SPLINE
  5
63
330
1F
100
AcDbEntity
  8
DEFAULT
100
AcDbSpline
210
0.0
220
0.0
230
1.0
 70
    12
 71
     2
 72
     8
 73
     5
 74
     0
 42
0.0000000001
 43
0.0000000001
 40
-0.6177731832905559
 40
-0.6177731832905559
 40
-0.6177731832905559
 40
-0.4600410774079766
 40
-0.4600410774079766
 40
0.0
 40
0.0
 40
0.0
 10
27.84414093779154
 20
25.44334272219858
 30
0.0
 41
1.0
 10
27.76656076967392
 20
25.4217626990161
 30
0.0
 41
0.9990427713074699
 10
27.69267411797475
 20
25.39403968821041
 30
0.0
 41
1.0
 10
27.45984986318243
 20
25.32556128721771
 30
0.0
 41
0.9235251450677496
 10
27.344034153671
 20
25.11229350612437
 30
0.0
 41
1.0
  0
SPLINE
  5
64
330
1F
100
AcDbEntity
  8
DEFAULT
100
AcDbSpline
210
0.0
220
0.0
230
1.0
 70
     8
 71
     5
 72
    12
 73
     6
 74
     0
 42
0.0000000001
 43
0.0000000001
 40
0.0
 40
0.0
 40
0.0
 40
0.0
 40
0.0
 40
0.0
 40
1.0
 40
1.0
 40
1.0
 40
1.0
 40
1.0
 40
1.0
 10
27.344034153671
 20
25.11229350612437
 30
0.0
 10
27.31885958249348
 20
25.06593602182751
 30
0.0
 10
27.29891600291577
 20
25.01673783182033
 30
0.0
 10
27.29920923946252
 20
24.95757773098211
 30
0.0
 10
27.29669060102685
 20
24.90417645808287
 30
0.0
 10
27.30278927896848
 20
24.85177816124347
 30
0.0
  0
SPLINE
  5
65
330
1F
100
AcDbEntity
  8
DEFAULT
100
AcDbSpline
210
0.0
220
0.0
230
1.0
 70
     8
 71
     3
 72
    18
 73
    14
 74
     0
 42
0.0000000001
 43
0.0000000001
 40
0.0
 40
0.0
 40
0.0
 40
0.0
 40
0.0593836568210491
 40
0.1135642017618635
 40
0.2352849768150596
 40
0.6154804948049609
 40
0.7612091161103206
 40
0.7612091161103206
 40
0.7612091161103206
 40
0.8523739615905102
 40
0.9344918554712651
 40
1.11979452643305
 40
1.68470910305339
 40
1.68470910305339
 40
1.68470910305339
 40
1.68470910305339
 10
27.30278927896848
 20
24.85177816124347
 30
0.0
 10
27.30508252363268
 20
24.83207518368174
 30
0.0
 10
27.31224071125081
 20
24.79492292281513
 30
0.0
 10
27.33538372685908
 20
24.71973463292711
 30
0.0
 10
27.42649902988822
 20
24.55650941288252
 30
0.0
 10
27.58777702026978
 20
24.40868938805373
 30
0.0
 10
27.68791341546819
 20
24.26467623652742
 30
0.0
 10
27.71431835290849
 20
24.22223326954294
 30
0.0
 10
27.73094820666211
 20
24.195080418662
 30
0.0
 10
27.75776566926825
 20
24.14407674774267
 30
0.0
 10
27.806667429275
 20
24.0346635606458
 30
0.0
 10
27.88578923026651
 20
23.76834515434372
 30
0.0
 10
27.92316618944662
 20
23.52012962767466
 30
0.0
 10
27.94404804639419
 20
23.11158929028294
 30
0.0
  0
SPLINE
  5
66
330
1F
100
AcDbEntity
  8
DEFAULT
100
AcDbSpline
210
0.0
220
0.0
230
1.0
 70
    12
 71
     3
 72
    64
 73
    60
 74
     0
 42
0.0000000001
 43
0.0000000001
 40
20.58321454143402
 40
20.58321454143402
 40
20.58321454143402
 40
20.58321454143402
 40
21.04477563910197
 40
21.04477563910197
 40
21.04477563910197
 40
21.33224931328581
 40
21.6455463514965
 40
22.33998758671066
 40
23.72700964529565
 40
23.72700964529565
 40
23.72700964529565
 40
24.37746194380612
 40
24.37746194380612
 40
24.37746194380612
 40
24.74265011140462
 40
24.74668065082338
 40
24.74668065082338
 40
24.74668065082338
 40
25.19656049775939
 40
25.19656049775939
 40
25.19656049775939
 40
26.01455642883183
 40
26.52146598053523
 40
26.85888861301138
 40
27.12887765991923
 40
27.12887765991923
 40
27.12887765991923
 40
27.23050408460464
 40
27.23050408460464
 40
27.23050408460464
 40
27.24732666958307
 40
27.24732666958307
 40
27.24732666958307
 40
28.24610456343342
 40
29.28690688742732
 40
31.43723910691027
 40
34.23402256053924
 40
38.51713998049595
 40
38.51713998049595
 40
38.51713998049595
 40
38.55153888363557
 40
38.55153888363557
 40
38.55153888363557
 40
39.11519683661427
 40
39.65997179865398
 40
40.37807341609253
 40
40.40791645231965
 40
40.44494759743145
 40
40.49521486840248
 40
40.55577371068683
 40
40.59867256146609
 40
40.66951705543971
 40
41.01152068415396
 40
41.66841301028297
 40
43.18740074826716
 40
46.73349159357683
 40
46.73349159357683
 40
46.73349159357683
 40
47.01966925118212
 40
47.01966925118212
 40
47.01966925118212
 40
47.01966925118212
 10
27.94404804639418
 20
23.11158929028294
 30
0.0
 41
0.9999995100144816
 10
27.94643204207809
 20
22.73632193889405
 30
0.0
 41
0.9992390160393029
 10
27.93969618305416
 20
22.58255713767487
 30
0.0
 41
0.9992391793678088
 10
27.92562476356974
 20
22.42928947255131
 30
0.0
 41
1.0
 10
27.91710247876553
 20
22.33383713763722
 30
0.0
 41
1.0
 10
27.89408188253147
 20
22.13483493447577
 30
0.0
 41
1.0
 10
27.8179565531201
 20
21.70965934465534
 30
0.0
 41
1.0
 10
27.61482539442493
 20
20.93656069114137
 30
0.0
 41
1.0
 10
27.34136027001637
 20
20.29565413480423
 30
0.0
 41
1.0
 10
27.12661039438953
 20
19.88474050578927
 30
0.0
 41
1.0
 10
27.0246770102618
 20
19.69218314365395
 30
0.0
 41
0.9994188715402256
 10
26.91467788762759
 20
19.50386445257617
 30
0.0
 41
0.9994188715402256
 10
26.79680479734901
 20
19.32011274460865
 30
0.0
 41
1.0
 10
26.72840404833558
 20
19.21756374062421
 30
0.0
 41
1.0
 10
26.66760464987304
 20
19.10835222149802
 30
0.0
 41
1.0
 10
26.60572428114952
 20
19.00400218461689
 30
0.0
 41
1.0
 10
26.60659611477836
 20
19.0101550886503
 30
0.0
 41
1.0
 10
26.66983560747355
 20
19.1484519151899
 30
0.0
 41
0.9725563879326877
 10
26.69120033163114
 20
19.29901351131899
 30
0.0
 41
0.9725563879326877
 10
26.668931311646
 20
19.44944401492837
 30
0.0
 41
1.0
 10
26.62891476116479
 20
19.7197616959766
 30
0.0
 41
1.0
 10
26.39743497703233
 20
20.12768824549079
 30
0.0
 41
1.0
 10
25.90504097534009
 20
20.401528207273
 30
0.0
 41
1.0
 10
25.57205831559347
 20
20.55833654968955
 30
0.0
 41
1.0
 10
25.37991937123735
 20
20.62844069545744
 30
0.0
 41
1.0
 10
25.29367992853979
 20
20.65245199748832
 30
0.0
 41
1.0
 10
25.25959927637904
 20
20.66273318512864
 30
0.0
 41
0.9069105048036632
 10
25.23551340901211
 20
20.68894780475509
 30
0.0
 41
0.9069105048036632
 10
25.22814875014267
 20
20.7237749392443
 30
0.0
 41
1.0
 10
25.2263521451463
 20
20.72916571053415
 30
0.0
 41
0.9739675635769868
 10
25.22611741529903
 20
20.73484313129637
 30
0.0
 41
0.9739675635769868
 10
25.22746289237034
 20
20.74036381024584
 30
0.0
 41
1.0
 10
25.30914644077633
 20
21.06425578641621
 30
0.0
 41
1.0
 10
25.4245474647595
 20
21.73293587939238
 30
0.0
 41
1.0
 10
25.53093478227166
 20
23.13002115251788
 30
0.0
 41
1.0
 10
25.32453793117371
 20
25.12493288897919
 30
0.0
 41
1.0
 10
24.48129143566226
 20
28.09049362236302
 30
0.0
 41
1.0
 10
23.71017574812575
 20
30.31852134949535
 30
0.0
 41
1.0
 10
23.21943844452582
 20
31.66015057302705
 30
0.0
 41
1.0
 10
23.21527880029311
 20
31.67155863810694
 30
0.0
 41
0.8934048983870025
 10
23.21797221724901
 20
31.68339891234833
 30
0.0
 41
0.8934048983870025
 10
23.2266573802312
 20
31.69188505004356
 30
0.0
 41
1.0
 10
23.39584257259011
 20
31.77354383341592
 30
0.0
 41
1.0
 10
23.73002980818789
 20
31.93134687155042
 30
0.0
 41
1.0
 10
24.28436501998786
 20
32.18280676767586
 30
0.0
 41
1.0
 10
24.67440728993387
 20
32.36660910113901
 30
0.0
 41
1.0
 10
24.91442724656473
 20
32.47013037589994
 30
0.0
 41
1.0
 10
24.95471521032107
 20
32.45172779306326
 30
0.0
 41
1.0
 10
24.99275958749715
 20
32.42475484938559
 30
0.0
 41
1.0
 10
25.02811915070166
 20
32.38527711904508
 30
0.0
 41
1.0
 10
25.06265395494376
 20
32.33916227944499
 30
0.0
 41
1.0
 10
25.1374764567837
 20
32.20670018983024
 30
0.0
 41
1.0
 10
25.30833210566178
 20
31.89371417256157
 30
0.0
 41
1.0
 10
25.67544022511115
 20
31.13869033358302
 30
0.0
 41
1.0
 10
26.40821034869509
 20
29.3766351684221
 30
0.0
 41
1.0
 10
26.94062688889844
 20
27.7729517103907
 30
0.0
 41
1.0
 10
27.29093509691329
 20
26.59907787656033
 30
0.0
 41
1.0
 10
27.42427927047191
 20
26.15004968018642
 30
0.0
 41
1.0
 10
27.53545561026075
 20
25.74285371397011
 30
0.0
 41
1.0
 10
27.62473367263468
 20
25.36939869804742
 30
0.0
 41
1.0
  0
SPLINE
  5
67
330
1F
100
AcDbEntity
  8
DEFAULT
100
AcDbSpline
210
0.0
220
0.0
230
1.0
 70
     8
 71
     2
 72
     9
 73
     6
 74
     0
 42
0.0000000001
 43
0.0000000001
 40
2.546990271718815
 40
2.546990271718815
 40
2.546990271718815
 40
3.0
 40
4.0
 40
5.0
 40
6.0
 40
6.0
 40
6.0
 10
27.90029691477341
 20
25.45837652757931
 30
0.0
 10
27.77809363231914
 20
25.94892745791364
 30
0.0
 10
27.31056338709945
 20
27.50147630239373
 30
0.0
 10
26.50392023742648
 20
29.57793763663282
 30
0.0
 10
25.65527106023862
 20
31.66257011733954
 30
0.0
 10
25.01155440992538
 20
32.53442430416921
 30
0.0
  0
SPLINE
  5
68
330
1F
100
AcDbEntity
  8
DEFAULT
100
AcDbSpline
210
0.0
220
0.0
230
1.0
 70
     8
 71
     5
 72
    12
 73
     6
 74
     0
 42
0.0000000001
 43
0.0000000001
 40
0.0
 40
0.0
 40
0.0
 40
0.0
 40
0.0
 40
0.0
 40
1.0
 40
1.0
 40
1.0
 40
1.0
 40
1.0
 40
1.0
 10
25.01155440992538
 20
32.53442430416921
 30
0.0
 10
25.00468444837441
 20
32.54463944964004
 30
0.0
 10
24.97773889076691
 20
32.57870049113087
 30
0.0
 10
24.82170566979065
 20
32.46779249073703
 30
0.0
 10
24.76087494057157
 20
32.43983236368147
 30
0.0
 10
24.70009062479807
 20
32.41177169697863
 30
0.0
  0
ARC
  5
69
330
1F
100
AcDbEntity
  8
DEFAULT
100
AcDbCircle
 10
45.90625744466979
 20
-13.52449752909375
 30
0.0
 40
50.59488453986661
100
AcDbArc
 50
114.7800881090393
 51
116.5741649610439
  0
ARC
  5
6A
330
1F
100
AcDbEntity
  8
DEFAULT
100
AcDbCircle
 10
23.34793096055348
 20
31.57421988320674
 30
0.0
 40
0.1689744737258318
100
AcDbArc
 50
116.5741649610433
 51
135.8652056261011
  0
SPLINE
  5
6B
330
1F
100
AcDbEntity
  8
DEFAULT
100
AcDbSpline
210
0.0
220
0.0
230
1.0
 70
     8
 71
     2
 72
     8
 73
     5
 74
     0
 42
0.0000000001
 43
0.0000000001
 40
0.0
 40
0.0
 40
0.0
 40
1.0
 40
2.0
 40
2.082380386027239
 40
2.082380386027239
 40
2.082380386027239
 10
28.00441343059478
 20
19.83987717688064
 30
0.0
 10
28.24417123541173
 20
20.93175422618518
 30
0.0
 10
28.36801887451841
 20
23.16403344032311
 30
0.0
 10
28.14400837454051
 20
24.3548856155649
 30
0.0
 10
28.12617971679587
 20
24.44530662692542
 30
0.0
  0
SPLINE
  5
6C
330
1F
100
AcDbEntity
  8
DEFAULT
100
AcDbSpline
210
0.0
220
0.0
230
1.0
 70
    12
 71
     3
 72
    27
 73
    23
 74
     0
 42
0.0000000001
 43
0.0000000001
 40
-17.84751507560201
 40
-17.84751507560201
 40
-17.84751507560201
 40
-17.84751507560201
 40
-16.95129587884805
 40
-15.65269240854135
 40
-15.21017777281098
 40
-14.39303538772804
 40
-13.19416178627385
 40
-12.67283013748999
 40
-12.17771109150672
 40
-12.17771109150672
 40
-12.17771109150672
 40
-11.17017766051491
 40
-10.10746988013587
 40
-8.93276930188814
 40
-7.617032957020962
 40
-5.997738481901326
 40
-3.794423638278215
 40
-2.023441253887982
 40
0.0
 40
0.0
 40
0.0
 40
1.343161462371087
 40
1.343161462371087
 40
1.343161462371087
 40
1.343161462371087
 10
41.63678688742968
 20
18.13333236758227
 30
0.0
 41
1.0
 10
41.62944245603998
 20
18.43182640170724
 30
0.0
 41
1.0
 10
41.66458634091904
 20
19.16487616327073
 30
0.0
 41
1.0
 10
41.83393289878802
 20
20.02868486393363
 30
0.0
 41
1.0
 10
41.93754380090334
 20
20.87573584380027
 30
0.0
 41
1.0
 10
41.96164032215739
 20
21.69566053339562
 30
0.0
 41
1.0
 10
41.87715448743589
 20
22.54055450549275
 30
0.0
 41
1.0
 10
41.69777040903276
 20
23.25807186758544
 30
0.0
 41
1.0
 10
41.57356564475404
 20
23.57423798859033
 30
0.0
 41
1.0
 10
41.50408044621142
 20
23.72385838379352
 30
0.0
 41
1.0
 10
41.36360768511207
 20
24.02891576402106
 30
0.0
 41
1.0
 10
40.97876028148391
 20
24.61201428197721
 30
0.0
 41
1.0
 10
40.12116248676844
 20
25.29151779709613
 30
0.0
 41
1.0
 10
39.0309652832866
 20
25.76944679055596
 30
0.0
 41
1.0
 10
37.68413893398909
 20
26.06012530393635
 30
0.0
 41
1.0
 10
35.96808690111502
 20
26.0992241809892
 30
0.0
 41
1.0
 10
34.10693736034011
 20
25.97176122219588
 30
0.0
 41
1.0
 10
32.12650617816573
 20
25.68319296335264
 30
0.0
 41
1.0
 10
30.90356035298109
 20
25.34893009553763
 30
0.0
 41
1.0
 10
30.23435791827688
 20
25.17214431307617
 30
0.0
 41
1.0
 10
29.7895364687225
 20
25.05478301141147
 30
0.0
 41
0.9998764356020825
 10
29.35293082482238
 20
24.93069741730047
 30
0.0
 41
0.9998764356020825
 10
28.9245942687902
 20
24.80025922381299
 30
0.0
 41
1.0
  0
SPLINE
  5
6D
330
1F
100
AcDbEntity
  8
DEFAULT
100
AcDbSpline
210
0.0
220
0.0
230
1.0
 70
    12
 71
     2
 72
     6
 73
     3
 74
     0
 42
0.0000000001
 43
0.0000000001
 40
-0.3818374946388466
 40
-0.3818374946388466
 40
-0.3818374946388466
 40
0.0
 40
0.0
 40
0.0
 10
28.9245942687902
 20
24.80025922381299
 30
0.0
 41
1.0
 10
28.74324829701747
 20
24.74053984327403
 30
0.0
 41
0.9999497799871767
 10
28.56325076104116
 20
24.67687434264523
 30
0.0
 41
1.0
  0
SPLINE
  5
6E
330
1F
100
AcDbEntity
  8
DEFAULT
100
AcDbSpline
210
0.0
220
0.0
230
1.0
 70
     8
 71
     3
 72
    14
 73
    10
 74
     0
 42
0.0000000001
 43
0.0000000001
 40
0.0
 40
0.0
 40
0.0
 40
0.0
 40
0.2518026097524419
 40
0.3993978094503035
 40
0.6408038471311446
 40
0.8299381435286958
 40
1.34429103653412
 40
1.503771313972345
 40
2.081296446122036
 40
2.081296446122036
 40
2.081296446122036
 40
2.081296446122036
 10
28.56325076104116
 20
24.67687434264523
 30
0.0
 10
28.48270502367396
 20
24.65034172421998
 30
0.0
 10
28.36144155519557
 20
24.60097075244146
 30
0.0
 10
28.16305174101126
 20
24.51251975544837
 30
0.0
 10
28.04741798455206
 20
24.34244540122468
 30
0.0
 10
28.06817482520182
 20
24.02066433066744
 30
0.0
 10
28.12815280594214
 20
23.74284573695712
 30
0.0
 10
28.18102523515347
 20
23.32670715907059
 30
0.0
 10
28.19975846376221
 20
23.08314342408276
 30
0.0
 10
28.20636801739741
 20
22.8901499126914
 30
0.0
  0
SPLINE
  5
6F
330
1F
100
AcDbEntity
  8
DEFAULT
100
AcDbSpline
210
0.0
220
0.0
230
1.0
 70
     8
 71
     3
 72
    11
 73
     7
 74
     0
 42
0.0000000001
 43
0.0000000001
 40
2.302956763502856
 40
2.302956763502856
 40
2.302956763502856
 40
2.302956763502856
 40
2.863422602058994
 40
4.698367840212491
 40
10.21696999528845
 40
15.7709804310952
 40
15.7709804310952
 40
15.7709804310952
 40
15.7709804310952
 10
41.64056527401323
 20
18.55876829201197
 30
0.0
 10
41.4540055549337
 20
18.56794444847355
 30
0.0
 10
40.6551747863152
 20
18.58128374228731
 30
0.0
 10
38.01882064508644
 20
18.49028406114235
 30
0.0
 10
33.71763496387842
 20
18.36439105974532
 30
0.0
 10
30.03495187718113
 20
18.10458404262015
 30
0.0
 10
28.19159119148961
 20
17.93289168105434
 30
0.0
  0
SPLINE
  5
70
330
1F
100
AcDbEntity
  8
DEFAULT
100
AcDbSpline
210
0.0
220
0.0
230
1.0
 70
    12
 71
     2
 72
     6
 73
     3
 74
     0
 42
0.0000000001
 43
0.0000000001
 40
0.0
 40
0.0
 40
0.0
 40
0.1700326451009857
 40
0.1700326451009857
 40
0.1700326451009857
 10
28.19159119148961
 20
17.93289168105434
 30
0.0
 41
1.0
 10
28.10529933250416
 20
17.9279686347722
 30
0.0
 41
0.9757167984688314
 10
28.02441807949509
 20
17.88353528508495
 30
0.0
 41
1.0
  0
SPLINE
  5
71
330
1F
100
AcDbEntity
  8
DEFAULT
100
AcDbSpline
210
0.0
220
0.0
230
1.0
 70
    12
 71
     2
 72
     6
 73
     3
 74
     0
 42
0.0000000001
 43
0.0000000001
 40
0.0
 40
0.0
 40
0.0
 40
0.1423721098865516
 40
0.1423721098865516
 40
0.1423721098865516
 10
28.02441807949509
 20
17.88353528508495
 30
0.0
 41
1.0
 10
27.95909155046909
 20
17.84265904412302
 30
0.0
 41
0.9998152309905386
 10
27.90024110628205
 20
17.80259249570758
 30
0.0
 41
0.9999999999981415
  0
SPLINE
  5
72
330
1F
100
AcDbEntity
  8
DEFAULT
100
AcDbSpline
210
0.0
220
0.0
230
1.0
 70
    12
 71
     2
 72
     6
 73
     3
 74
     0
 42
0.0000000001
 43
0.0000000001
 40
0.0
 40
0.0
 40
0.0
 40
0.0149839129831681
 40
0.0149839129831681
 40
0.0149839129831681
 10
27.90024110628205
 20
17.80259249570758
 30
0.0
 41
0.9999999999998306
 10
27.8940450316581
 20
17.79838082412444
 30
0.0
 41
0.9999984935037622
 10
27.88786326051272
 20
17.79414818618076
 30
0.0
 41
0.9999999999999929
  0
SPLINE
  5
73
330
1F
100
AcDbEntity
  8
DEFAULT
100
AcDbSpline
210
0.0
220
0.0
230
1.0
 70
    12
 71
     2
 72
     6
 73
     3
 74
     0
 42
0.0000000001
 43
0.0000000001
 40
0.0
 40
0.0
 40
0.0
 40
0.2199143347734641
 40
0.2199143347734641
 40
0.2199143347734641
 10
27.88786326051271
 20
17.79414818618076
 30
0.0
 41
0.9999999999987874
 10
27.79719121155074
 20
17.73191340277237
 30
0.0
 41
0.9997513250470668
 10
27.70938469650369
 20
17.66569705551612
 30
0.0
 41
0.9999999999999885
  0
SPLINE
  5
74
330
1F
100
AcDbEntity
  8
DEFAULT
100
AcDbSpline
210
0.0
220
0.0
230
1.0
 70
    12
 71
     2
 72
     6
 73
     3
 74
     0
 42
0.0000000001
 43
0.0000000001
 40
0.0
 40
0.0
 40
0.0
 40
0.1630509499976804
 40
0.1630509499976804
 40
0.1630509499976804
 10
27.70938469650368
 20
17.66569705551612
 30
0.0
 41
0.9999999999999778
 10
27.64428486153132
 20
17.61661297692072
 30
0.0
 41
0.9999060755755675
 10
27.58055456287964
 20
17.56576335235204
 30
0.0
 41
0.9999999999966795
  0
SPLINE
  5
75
330
1F
100
AcDbEntity
  8
DEFAULT
100
AcDbSpline
210
0.0
220
0.0
230
1.0
 70
    12
 71
     2
 72
     6
 73
     3
 74
     0
 42
0.0000000001
 43
0.0000000001
 40
0.0
 40
0.0
 40
0.0
 40
0.0239581891640136
 40
0.0239581891640136
 40
0.0239581891640136
 10
27.58055456287964
 20
17.56576335235204
 30
0.0
 41
0.9999999999995819
 10
27.57118855682506
 20
17.55829495603592
 30
0.0
 41
0.9999982245823352
 10
27.56185089650322
 20
17.55079114949406
 30
0.0
 41
1.0
  0
SPLINE
  5
76
330
1F
100
AcDbEntity
  8
DEFAULT
100
AcDbSpline
210
0.0
220
0.0
230
1.0
 70
     8
 71
     3
 72
     9
 73
     5
 74
     0
 42
0.0000000001
 43
0.0000000001
 40
-1.045232129410486
 40
-1.045232129410486
 40
-1.045232129410486
 40
-1.045232129410486
 40
-0.6345414576259943
 40
0.0
 40
0.0
 40
0.0
 40
0.0
 10
42.76084278414748
 20
18.18605001461599
 30
0.0
 10
42.89157569930518
 20
18.14447062303083
 30
0.0
 10
43.2174257240052
 20
18.01671872417917
 30
0.0
 10
43.50874967204354
 20
17.82157103728986
 30
0.0
 10
43.67785206251096
 20
17.69522618400423
 30
0.0
  0
SPLINE
  5
77
330
1F
100
AcDbEntity
  8
DEFAULT
100
AcDbSpline
210
0.0
220
0.0
230
1.0
 70
    12
 71
     2
 72
     6
 73
     3
 74
     0
 42
0.0000000001
 43
0.0000000001
 40
-0.5311035778685866
 40
-0.5311035778685866
 40
-0.5311035778685866
 40
0.0
 40
0.0
 40
0.0
 10
43.67785206251096
 20
17.69522618400423
 30
0.0
 41
1.0
 10
43.89517471713464
 20
17.53991417523306
 30
0.0
 41
0.9912392283435499
 10
44.06424767408302
 20
17.33311646850026
 30
0.0
 41
1.0
  0
SPLINE
  5
78
330
1F
100
AcDbEntity
  8
DEFAULT
100
AcDbSpline
210
0.0
220
0.0
230
1.0
 70
    12
 71
     2
 72
     6
 73
     3
 74
     0
 42
0.0000000001
 43
0.0000000001
 40
-0.6951027209318128
 40
-0.6951027209318128
 40
-0.6951027209318128
 40
0.0
 40
0.0
 40
0.0
 10
44.06424767408302
 20
17.33311646850026
 30
0.0
 41
1.0
 10
44.25836900574063
 20
17.04398334356225
 30
0.0
 41
0.9969743058485598
 10
44.49497006945082
 20
16.7884427552871
 30
0.0
 41
0.9999999969405681
  0
SPLINE
  5
79
330
1F
100
AcDbEntity
  8
DEFAULT
100
AcDbSpline
210
0.0
220
0.0
230
1.0
 70
     8
 71
     2
 72
    11
 73
     8
 74
     0
 42
0.0000000001
 43
0.0000000001
 40
0.0
 40
0.0
 40
0.0
 40
1.0
 40
2.0
 40
3.0
 40
4.0
 40
5.0
 40
6.0
 40
6.0
 40
6.0
 10
44.4949700694508
 20
16.7884427552871
 30
0.0
 10
44.52089470305452
 20
16.7617933782896
 30
0.0
 10
44.57527775568448
 20
16.71258384671667
 30
0.0
 10
44.63850613747451
 20
16.66590249148475
 30
0.0
 10
44.71067949332729
 20
16.69462893701163
 30
0.0
 10
44.76487618239679
 20
16.74729002551288
 30
0.0
 10
44.7672881400614
 20
16.82513431779424
 30
0.0
 10
44.74235594876976
 20
16.85469663665091
 30
0.0
  0
SPLINE
  5
7A
330
1F
100
AcDbEntity
  8
DEFAULT
100
AcDbSpline
210
0.0
220
0.0
230
1.0
 70
    12
 71
     2
 72
     6
 73
     3
 74
     0
 42
0.0000000001
 43
0.0000000001
 40
0.0
 40
0.0
 40
0.0
 40
0.1536154254458133
 40
0.1536154254458133
 40
0.1536154254458133
 10
44.74235594876976
 20
16.85469663665091
 30
0.0
 41
1.0
 10
44.6713691293831
 20
16.88702047173661
 30
0.0
 41
0.9772332537707474
 10
44.61942155728428
 20
16.94669276982202
 30
0.0
 41
1.0
  0
SPLINE
  5
7B
330
1F
100
AcDbEntity
  8
DEFAULT
100
AcDbSpline
210
0.0
220
0.0
230
1.0
 70
     8
 71
     3
 72
    10
 73
     6
 74
     0
 42
0.0000000001
 43
0.0000000001
 40
0.0
 40
0.0
 40
0.0
 40
0.0
 40
0.1152498341348094
 40
0.2403205425210536
 40
0.6787755723814768
 40
0.6787755723814768
 40
0.6787755723814768
 40
0.6787755723814768
 10
44.61942155728428
 20
16.94669276982202
 30
0.0
 10
44.59137541883305
 20
16.97453854071522
 30
0.0
 10
44.53609403540804
 20
17.03260616000355
 30
0.0
 10
44.39194826406481
 20
17.20712623734091
 30
0.0
 10
44.28373072029387
 20
17.36086354681698
 30
0.0
 10
44.18932913604993
 20
17.48753617524844
 30
0.0
  0
SPLINE
  5
7C
330
1F
100
AcDbEntity
  8
DEFAULT
100
AcDbSpline
210
0.0
220
0.0
230
1.0
 70
    12
 71
     2
 72
     6
 73
     3
 74
     0
 42
0.0000000001
 43
0.0000000001
 40
0.0
 40
0.0
 40
0.0
 40
0.5322559643862634
 40
0.5322559643862634
 40
0.5322559643862634
 10
44.18932913604993
 20
17.48753617524844
 30
0.0
 41
1.0
 10
44.00886337307658
 20
17.70058457023029
 30
0.0
 41
0.9929971765553433
 10
43.79241290876473
 20
17.85786422887413
 30
0.0
 41
1.0
  0
SPLINE
  5
7D
330
1F
100
AcDbEntity
  8
DEFAULT
100
AcDbSpline
210
0.0
220
0.0
230
1.0
 70
     8
 71
     3
 72
     9
 73
     5
 74
     0
 42
0.0000000001
 43
0.0000000001
 40
0.0
 40
0.0
 40
0.0
 40
0.0
 40
0.652191737395391
 40
1.169934446697919
 40
1.169934446697919
 40
1.169934446697919
 40
1.169934446697919
 10
43.79241290876473
 20
17.85786422887413
 30
0.0
 10
43.61945533758899
 20
17.98979639729396
 30
0.0
 10
43.28856743304763
 20
18.19977458074273
 30
0.0
 10
42.92360632435523
 20
18.34176116042522
 30
0.0
 10
42.75822818806135
 20
18.39116502504619
 30
0.0
  0
SPLINE
  5
7E
330
1F
100
AcDbEntity
  8
DEFAULT
100
AcDbSpline
210
0.0
220
0.0
230
1.0
 70
    12
 71
     2
 72
     6
 73
     3
 74
     0
 42
0.0000000001
 43
0.0000000001
 40
-0.3996431962499557
 40
-0.3996431962499557
 40
-0.3996431962499557
 40
0.0
 40
0.0
 40
0.0
 10
27.70331235475206
 20
17.4961620905785
 30
0.0
 41
1.0
 10
27.86482722637336
 20
17.61408153753009
 30
0.0
 41
0.9988113668901045
 10
28.03705639350673
 20
17.71571403092057
 30
0.0
 41
1.0
  0
SPLINE
  5
7F
330
1F
100
AcDbEntity
  8
DEFAULT
100
AcDbSpline
210
0.0
220
0.0
230
1.0
 70
    12
 71
     2
 72
     6
 73
     3
 74
     0
 42
0.0000000001
 43
0.0000000001
 40
-0.1602767204255962
 40
-0.1602767204255962
 40
-0.1602767204255962
 40
0.0
 40
0.0
 40
0.0
 10
28.03705639350673
 20
17.71571403092057
 30
0.0
 41
1.0
 10
28.10963616162676
 20
17.75225388512835
 30
0.0
 41
0.9794459357424379
 10
28.19074771630321
 20
17.75714258473568
 30
0.0
 41
1.0
  0
SPLINE
  5
80
330
1F
100
AcDbEntity
  8
DEFAULT
100
AcDbSpline
210
0.0
220
0.0
230
1.0
 70
     8
 71
     3
 72
    13
 73
     9
 74
     0
 42
0.0000000001
 43
0.0000000001
 40
-15.65359896050636
 40
-15.65359896050636
 40
-15.65359896050636
 40
-15.65359896050636
 40
-10.58742135048161
 40
-6.912338381831451
 40
-4.741124145587254
 40
-4.078959884244495
 40
-2.884298681508266
 40
-2.190056098001733
 40
-2.190056098001733
 40
-2.190056098001733
 40
-2.190056098001733
 10
28.19074771630321
 20
17.75714258473568
 30
0.0
 10
29.87059292094875
 20
17.93166415627961
 30
0.0
 10
32.77731976760498
 20
18.14228056003545
 30
0.0
 10
36.41341664388597
 20
18.26861102372317
 30
0.0
 10
38.58092883605434
 20
18.33574584439306
 30
0.0
 10
39.92476907091867
 20
18.37791425591161
 30
0.0
 10
40.77148346005303
 20
18.38938692855977
 30
0.0
 10
41.40413311769829
 20
18.38394485159823
 30
0.0
 10
41.63545268420889
 20
18.37148479300629
 30
0.0
  0
LINE
  5
81
330
1F
100
AcDbEntity
  8
DEFAULT
100
AcDbLine
 10
42.1370697036715
 20
0.1546850528959354
 30
0.0
 11
41.63720170375051
 21
18.11757881122212
 31
0.0
  0
SPLINE
  5
82
330
1F
100
AcDbEntity
  8
DEFAULT
100
AcDbSpline
210
0.0
220
0.0
230
1.0
 70
    12
 71
     2
 72
     8
 73
     5
 74
     0
 42
0.0000000001
 43
0.0000000001
 40
0.0
 40
0.0
 40
0.0
 40
0.5626260824973863
 40
0.5626260824973863
 40
1.125253641403958
 40
1.125253641403958
 40
1.125253641403958
 10
41.63720170375051
 20
18.11757881122212
 30
0.0
 41
0.9999999979726337
 10
41.91790714104139
 20
18.13712509930529
 30
0.0
 41
0.9996137073082292
 10
42.19926499478024
 20
18.14104403308302
 30
0.0
 41
1.0
 10
42.48040610784707
 20
18.15277817784374
 30
0.0
 41
0.9996137062945434
 10
42.76176636635886
 20
18.14887289081948
 30
0.0
 41
1.0
  0
LINE
  5
83
330
1F
100
AcDbEntity
  8
DEFAULT
100
AcDbLine
 10
42.76176636635886
 20
18.14887289081948
 30
0.0
 11
43.26163436637094
 21
0.1859791323309068
 31
0.0
  0
SPLINE
  5
84
330
1F
100
AcDbEntity
  8
DEFAULT
100
AcDbSpline
210
0.0
220
0.0
230
1.0
 70
    12
 71
     3
 72
    38
 73
    34
 74
     0
 42
0.0000000001
 43
0.0000000001
 40
-11.25916574905244
 40
-11.25916574905244
 40
-11.25916574905244
 40
-11.25916574905244
 40
-9.96909391054309
 40
-8.82618390544533
 40
-8.049530532595302
 40
-6.425446975909134
 40
-5.400384133660618
 40
-5.400384133660618
 40
-5.400384133660618
 40
-4.27205496857778
 40
-3.736307219618227
 40
-3.403015736046659
 40
-3.122128236811944
 40
-2.934935236086079
 40
-2.825356720675527
 40
-2.733863559036053
 40
-2.733863559036053
 40
-2.733863559036053
 40
-2.357737372802939
 40
-1.901106448483389
 40
-1.41138727799838
 40
-1.184372815048584
 40
-1.030679174350167
 40
-1.030679174350167
 40
-1.030679174350167
 40
-0.9327735793276459
 40
-0.7890373634091792
 40
-0.617048848387215
 40
-0.2175483925551074
 40
-0.1109898140483419
 40
-0.1109898140483419
 40
-0.1109898140483419
 40
0.0
 40
0.0
 40
0.0
 40
0.0
 10
-10.60929765771542
 20
18.15808790281412
 30
0.0
 41
1.0
 10
-10.60330005376338
 20
18.58846372856568
 30
0.0
 41
1.0
 10
-10.63206160776986
 20
19.39878304820622
 30
0.0
 41
1.0
 10
-10.76793940789963
 20
20.4627684087756
 30
0.0
 41
1.0
 10
-11.07269382665552
 20
21.60538608196027
 30
0.0
 41
1.0
 10
-11.4657439108999
 20
22.67846503803492
 30
0.0
 41
1.0
 10
-11.70440710949515
 20
23.52923151747995
 30
0.0
 41
1.0
 10
-11.79661717597584
 20
23.86112157808859
 30
0.0
 41
1.0
 10
-11.89878010449823
 20
24.22607423112317
 30
0.0
 41
1.0
 10
-12.05435939547203
 20
24.75861914336375
 30
0.0
 41
1.0
 10
-12.21027754583491
 20
25.40607940432346
 30
0.0
 41
1.0
 10
-12.29359162479116
 20
25.78016470059175
 30
0.0
 41
1.0
 10
-12.33211135634841
 20
26.04497692980647
 30
0.0
 41
1.0
 10
-12.34833232933201
 20
26.23661041723515
 30
0.0
 41
1.0
 10
-12.33043393864767
 20
26.36715724803319
 30
0.0
 41
1.0
 10
-12.28477588989927
 20
26.42099809350587
 30
0.0
 41
1.0
 10
-12.24254444657737
 20
26.44514020651359
 30
0.0
 41
1.0
 10
-12.10886196109811
 20
26.49896840483397
 30
0.0
 41
1.0
 10
-11.8351989675447
 20
26.54963356234223
 30
0.0
 41
1.0
 10
-11.39368273796151
 20
26.57480539292948
 30
0.0
 41
1.0
 10
-11.00402683812757
 20
26.52955002064791
 30
0.0
 41
1.0
 10
-10.71918078077286
 20
26.47427103757312
 30
0.0
 41
1.0
 10
-10.59815709123623
 20
26.43472108528399
 30
0.0
 41
1.0
 10
-10.54528261634327
 20
26.40848372058936
 30
0.0
 41
1.0
 10
-10.50876777568348
 20
26.39065949555606
 30
0.0
 41
1.0
 10
-10.45102426673279
 20
26.33223538847688
 30
0.0
 41
1.0
 10
-10.39050491198199
 20
26.20742830055762
 30
0.0
 41
1.0
 10
-10.30956317454547
 20
25.98331386883421
 30
0.0
 41
1.0
 10
-10.25193821310927
 20
25.76425849358609
 30
0.0
 41
1.0
 10
-10.19378100997963
 20
25.60586773255444
 30
0.0
 41
1.0
 10
-10.1695918046054
 20
25.55743905909891
 30
0.0
 41
1.0
 10
-10.14693284108524
 20
25.51354898647928
 30
0.0
 41
0.9968343937410573
 10
-10.12395143043183
 20
25.47693741359178
 30
0.0
 41
0.9968343937410573
 10
-10.09667209982197
 20
25.444113333407
 30
0.0
 41
1.0
  0
SPLINE
  5
85
330
1F
100
AcDbEntity
  8
DEFAULT
100
AcDbSpline
210
0.0
220
0.0
230
1.0
 70
    12
 71
     3
 72
    38
 73
    34
 74
     0
 42
0.0000000001
 43
0.0000000001
 40
-44.15615167230342
 40
-44.15615167230342
 40
-44.15615167230342
 40
-44.15615167230342
 40
-43.15615167230342
 40
-43.15615167230342
 40
-42.15615167230342
 40
-42.15615167230342
 40
-41.15615167230342
 40
-41.15615167230342
 40
-40.15615167230342
 40
-40.15615167230342
 40
-39.15615167230342
 40
-39.15615167230342
 40
-38.15615167230342
 40
-38.15615167230342
 40
-38.15615167230342
 40
-38.1559650523142
 40
-38.1559650523142
 40
-38.1559650523142
 40
-37.38290703700773
 40
-36.64802846712851
 40
-35.10794052270614
 40
-32.45247724771205
 40
-32.41054708756631
 40
-32.29248016334427
 40
-32.29248016334427
 40
-32.29248016334427
 40
-32.23657260112281
 40
-32.21096023540328
 40
-32.13717225020227
 40
-32.12581771233646
 40
-29.52192102962876
 40
-27.37803245094922
 40
-23.41494717145738
 40
-23.41494717145738
 40
-23.41494717145738
 40
-23.41494717145738
 10
-10.09667209982197
 20
25.444113333407
 30
0.0
 41
1.0
 10
-10.00850344837672
 20
25.43102683008196
 30
0.0
 41
1.0
 10
-9.930148324127051
 20
25.45350351468116
 30
0.0
 41
1.0
 10
-9.784677683788027
 20
25.56190585872347
 30
0.0
 41
1.0
 10
-9.735705808096926
 20
25.62697622117708
 30
0.0
 41
1.0
 10
-9.685288945671545
 20
25.77885532694919
 30
0.0
 41
1.0
 10
-9.665028560602567
 20
25.85560134509795
 30
0.0
 41
1.0
 10
-9.634403882752045
 20
26.01070631192085
 30
0.0
 41
1.0
 10
-9.621809910352107
 20
26.08875103720312
 30
0.0
 41
1.0
 10
-9.602058698602887
 20
26.24582497150932
 30
0.0
 41
1.0
 10
-9.593869654426415
 20
26.3245204826001
 30
0.0
 41
1.0
 10
-9.580864689469754
 20
26.48222859265705
 30
0.0
 41
1.0
 10
-9.575911857753988
 20
26.56118209767381
 30
0.0
 41
1.0
 10
-9.572508676800787
 20
26.64023505267885
 30
0.0
 41
1.0
 10
-9.57250544217403
 20
26.64029717989834
 30
0.0
 41
1.0
 10
-9.572502207648887
 20
26.64035930712321
 30
0.0
 41
1.0
 10
-9.572498973225379
 20
26.64042143435345
 30
0.0
 41
1.0
 10
-9.557521082863403
 20
26.89775152697602
 30
0.0
 41
1.0
 10
-9.52425120721351
 20
27.39933947303594
 30
0.0
 41
1.0
 10
-9.440331821555219
 20
28.41186658455564
 30
0.0
 41
1.0
 10
-9.26597286477488
 20
30.04634182362106
 30
0.0
 41
1.0
 10
-9.06515953487144
 20
31.4446557127379
 30
0.0
 41
1.0
 10
-8.930197656893569
 20
32.37337679643962
 30
0.0
 41
1.0
 10
-8.878777845047992
 20
32.44837552367935
 30
0.0
 41
1.0
 10
-8.849998081824594
 20
32.47393965815978
 30
0.0
 41
1.0
 10
-8.836294188102386
 20
32.48611238450574
 30
0.0
 41
1.0
 10
-8.783619928427896
 20
32.52011930853569
 30
0.0
 41
1.0
 10
-8.733981365018394
 20
32.53229133362384
 30
0.0
 41
1.0
 10
-8.696315743605837
 20
32.53758438512236
 30
0.0
 41
1.0
 10
-7.810853097720894
 20
32.39923973820823
 30
0.0
 41
1.0
 10
-6.244612968252639
 20
32.14378194631692
 30
0.0
 41
1.0
 10
-3.356268677821291
 20
31.83771068081702
 30
0.0
 41
1.0
 10
-1.321165740089867
 20
31.74691235613956
 30
0.0
 41
1.0
 10
0.0
 20
31.74689456168725
 30
0.0
 41
1.0
  0
SPLINE
  5
86
330
1F
100
AcDbEntity
  8
DEFAULT
100
AcDbSpline
210
0.0
220
0.0
230
1.0
 70
    12
 71
     3
 72
    38
 73
    34
 74
     0
 42
0.0000000001
 43
0.0000000001
 40
23.41494717145738
 40
23.41494717145738
 40
23.41494717145738
 40
23.41494717145738
 40
27.37803245094922
 40
29.52192102962876
 40
32.12581771233646
 40
32.13717225020227
 40
32.21096023540328
 40
32.23657260112281
 40
32.29248016334427
 40
32.29248016334427
 40
32.29248016334427
 40
32.41054708756631
 40
32.45247724771205
 40
35.10794052270614
 40
36.64802846712851
 40
37.38290703700773
 40
38.1559650523142
 40
38.1559650523142
 40
38.1559650523142
 40
38.15615167230342
 40
38.15615167230342
 40
38.15615167230342
 40
39.15615167230342
 40
39.15615167230342
 40
40.15615167230342
 40
40.15615167230342
 40
41.15615167230342
 40
41.15615167230342
 40
42.15615167230342
 40
42.15615167230342
 40
43.15615167230342
 40
43.15615167230342
 40
44.15615167230342
 40
44.15615167230342
 40
44.15615167230342
 40
44.15615167230342
 10
0.0
 20
31.74689456168725
 30
0.0
 41
1.0
 10
1.321165740089867
 20
31.74691235613956
 30
0.0
 41
1.0
 10
3.356268677821291
 20
31.83771068081702
 30
0.0
 41
1.0
 10
6.244612968252639
 20
32.14378194631692
 30
0.0
 41
1.0
 10
7.810853097720894
 20
32.39923973820823
 30
0.0
 41
1.0
 10
8.696315743605837
 20
32.53758438512236
 30
0.0
 41
1.0
 10
8.733981365018394
 20
32.53229133362384
 30
0.0
 41
1.0
 10
8.783619928427896
 20
32.52011930853569
 30
0.0
 41
1.0
 10
8.836294188102386
 20
32.48611238450574
 30
0.0
 41
1.0
 10
8.849998081824594
 20
32.47393965815978
 30
0.0
 41
1.0
 10
8.878777845047992
 20
32.44837552367935
 30
0.0
 41
1.0
 10
8.930197656893569
 20
32.37337679643962
 30
0.0
 41
1.0
 10
9.06515953487144
 20
31.4446557127379
 30
0.0
 41
1.0
 10
9.26597286477488
 20
30.04634182362106
 30
0.0
 41
1.0
 10
9.440331821555219
 20
28.41186658455564
 30
0.0
 41
1.0
 10
9.52425120721351
 20
27.39933947303594
 30
0.0
 41
1.0
 10
9.557521082863403
 20
26.89775152697602
 30
0.0
 41
1.0
 10
9.572498973225379
 20
26.64042143435345
 30
0.0
 41
1.0
 10
9.572502207648887
 20
26.64035930712321
 30
0.0
 41
1.0
 10
9.57250544217403
 20
26.64029717989834
 30
0.0
 41
1.0
 10
9.572508676800787
 20
26.64023505267885
 30
0.0
 41
1.0
 10
9.575911857753988
 20
26.56118209767381
 30
0.0
 41
1.0
 10
9.580864689469754
 20
26.48222859265705
 30
0.0
 41
1.0
 10
9.593869654426415
 20
26.3245204826001
 30
0.0
 41
1.0
 10
9.602058698602887
 20
26.24582497150932
 30
0.0
 41
1.0
 10
9.621809910352107
 20
26.08875103720312
 30
0.0
 41
1.0
 10
9.634403882752045
 20
26.01070631192085
 30
0.0
 41
1.0
 10
9.665028560602567
 20
25.85560134509795
 30
0.0
 41
1.0
 10
9.685288945671545
 20
25.77885532694919
 30
0.0
 41
1.0
 10
9.735705808096926
 20
25.62697622117708
 30
0.0
 41
1.0
 10
9.784677683788027
 20
25.56190585872347
 30
0.0
 41
1.0
 10
9.930148324127051
 20
25.45350351468116
 30
0.0
 41
1.0
 10
10.00850344837672
 20
25.43102683008196
 30
0.0
 41
1.0
 10
10.09667209982197
 20
25.444113333407
 30
0.0
 41
1.0
  0
SPLINE
  5
87
330
1F
100
AcDbEntity
  8
DEFAULT
100
AcDbSpline
210
0.0
220
0.0
230
1.0
 70
    12
 71
     3
 72
    38
 73
    34
 74
     0
 42
0.0000000001
 43
0.0000000001
 40
0.0
 40
0.0
 40
0.0
 40
0.0
 40
0.1109898140483419
 40
0.1109898140483419
 40
0.1109898140483419
 40
0.2175483925551074
 40
0.617048848387215
 40
0.7890373634091792
 40
0.9327735793276459
 40
1.030679174350167
 40
1.030679174350167
 40
1.030679174350167
 40
1.184372815048584
 40
1.41138727799838
 40
1.901106448483389
 40
2.357737372802939
 40
2.733863559036053
 40
2.733863559036053
 40
2.733863559036053
 40
2.825356720675527
 40
2.934935236086079
 40
3.122128236811944
 40
3.403015736046659
 40
3.736307219618227
 40
4.27205496857778
 40
5.400384133660618
 40
5.400384133660618
 40
5.400384133660618
 40
6.425446975909134
 40
8.049530532595302
 40
8.82618390544533
 40
9.96909391054309
 40
11.25916574905244
 40
11.25916574905244
 40
11.25916574905244
 40
11.25916574905244
 10
10.09667209982197
 20
25.444113333407
 30
0.0
 41
1.0
 10
10.12395143043183
 20
25.47693741359178
 30
0.0
 41
0.9968343937410573
 10
10.14693284108524
 20
25.51354898647928
 30
0.0
 41
0.9968343937410573
 10
10.1695918046054
 20
25.55743905909891
 30
0.0
 41
1.0
 10
10.19378100997963
 20
25.60586773255444
 30
0.0
 41
1.0
 10
10.25193821310927
 20
25.76425849358609
 30
0.0
 41
1.0
 10
10.30956317454547
 20
25.98331386883421
 30
0.0
 41
1.0
 10
10.39050491198199
 20
26.20742830055762
 30
0.0
 41
1.0
 10
10.45102426673279
 20
26.33223538847688
 30
0.0
 41
1.0
 10
10.50876777568348
 20
26.39065949555606
 30
0.0
 41
1.0
 10
10.54528261634327
 20
26.40848372058936
 30
0.0
 41
1.0
 10
10.59815709123623
 20
26.43472108528399
 30
0.0
 41
1.0
 10
10.71918078077286
 20
26.47427103757312
 30
0.0
 41
1.0
 10
11.00402683812757
 20
26.52955002064791
 30
0.0
 41
1.0
 10
11.39368273796151
 20
26.57480539292948
 30
0.0
 41
1.0
 10
11.8351989675447
 20
26.54963356234223
 30
0.0
 41
1.0
 10
12.10886196109811
 20
26.49896840483397
 30
0.0
 41
1.0
 10
12.24254444657737
 20
26.44514020651359
 30
0.0
 41
1.0
 10
12.28477588989927
 20
26.42099809350587
 30
0.0
 41
1.0
 10
12.33043393864767
 20
26.36715724803319
 30
0.0
 41
1.0
 10
12.34833232933201
 20
26.23661041723515
 30
0.0
 41
1.0
 10
12.33211135634841
 20
26.04497692980647
 30
0.0
 41
1.0
 10
12.29359162479116
 20
25.78016470059175
 30
0.0
 41
1.0
 10
12.21027754583491
 20
25.40607940432346
 30
0.0
 41
1.0
 10
12.05435939547203
 20
24.75861914336375
 30
0.0
 41
1.0
 10
11.89878010449823
 20
24.22607423112317
 30
0.0
 41
1.0
 10
11.79661717597584
 20
23.86112157808859
 30
0.0
 41
1.0
 10
11.70440710949515
 20
23.52923151747995
 30
0.0
 41
1.0
 10
11.4657439108999
 20
22.67846503803492
 30
0.0
 41
1.0
 10
11.07269382665552
 20
21.60538608196027
 30
0.0
 41
1.0
 10
10.76793940789963
 20
20.4627684087756
 30
0.0
 41
1.0
 10
10.63206160776986
 20
19.39878304820622
 30
0.0
 41
1.0
 10
10.60330005376338
 20
18.58846372856568
 30
0.0
 41
1.0
 10
10.60929765771542
 20
18.15808790281412
 30
0.0
 41
1.0
  0
SPLINE
  5
88
330
1F
100
AcDbEntity
  8
DEFAULT
100
AcDbSpline
210
0.0
220
0.0
230
1.0
 70
    12
 71
     2
 72
     6
 73
     3
 74
     0
 42
0.0000000001
 43
0.0000000001
 40
0.0
 40
0.0
 40
0.0
 40
2.423793056935102
 40
2.423793056935102
 40
2.423793056935102
 10
-0.5820347176024825
 20
16.16298067941642
 30
0.0
 41
1.0
 10
-1.794150894868708
 20
16.21129736156455
 30
0.0
 41
0.9985387582686867
 10
-2.993973009372795
 20
16.39014652290243
 30
0.0
 41
1.0
  0
SPLINE
  5
89
330
1F
100
AcDbEntity
  8
DEFAULT
100
AcDbSpline
210
0.0
220
0.0
230
1.0
 70
    24
 71
     2
 72
     6
 73
     3
 74
     0
 42
0.0000000001
 43
0.0000000001
 40
0.0
 40
0.0
 40
0.0
 40
0.0001477489785947
 40
0.0001477489785947
 40
0.0001477489785947
 10
-8.944336426977955
 20
18.48382681667034
 30
0.0
 10
-8.944322050958021
 20
18.4838992788689
 30
0.0
 10
-8.944307674938088
 20
18.48397174106745
 30
0.0
  0
SPLINE
  5
8A
330
1F
100
AcDbEntity
  8
DEFAULT
100
AcDbSpline
210
0.0
220
0.0
230
1.0
 70
    24
 71
     2
 72
     6
 73
     3
 74
     0
 42
0.0000000001
 43
0.0000000001
 40
0.0
 40
0.0
 40
0.0
 40
0.5321440388778759
 40
0.5321440388778759
 40
0.5321440388778759
 10
-4.702819401700225
 20
16.46647188523465
 30
0.0
 10
-4.69815433418669
 20
16.20044076548847
 30
0.0
 10
-4.693489266673154
 20
15.93440964574228
 30
0.0
  0
SPLINE
  5
8B
330
1F
100
AcDbEntity
  8
DEFAULT
100
AcDbSpline
210
0.0
220
0.0
230
1.0
 70
    12
 71
     2
 72
     6
 73
     3
 74
     0
 42
0.0000000001
 43
0.0000000001
 40
0.0
 40
0.0
 40
0.0
 40
0.223652467853702
 40
0.223652467853702
 40
0.223652467853702
 10
-4.693489266673154
 20
15.93440964574228
 30
0.0
 41
1.0
 10
-4.658692548517845
 20
15.81958146712452
 30
0.0
 41
0.9010587385208453
 10
-4.547239266673174
 20
15.77514625400353
 30
0.0
 41
1.0
  0
SPLINE
  5
8C
330
1F
100
AcDbEntity
  8
DEFAULT
100
AcDbSpline
210
0.0
220
0.0
230
1.0
 70
     8
 71
     3
 72
     8
 73
     4
 74
     0
 42
0.0000000001
 43
0.0000000001
 40
0.0
 40
0.0
 40
0.0
 40
0.0
 40
1.0
 40
1.0
 40
1.0
 40
1.0
 10
-4.547239266673174
 20
15.77514625400353
 30
0.0
 10
-4.41177526993728
 20
15.72113822960486
 30
0.0
 10
-4.245203263409081
 20
15.72113822960487
 30
0.0
 10
-4.109739266673188
 20
15.77514625400354
 30
0.0
  0
SPLINE
  5
8D
330
1F
100
AcDbEntity
  8
DEFAULT
100
AcDbSpline
210
0.0
220
0.0
230
1.0
 70
    12
 71
     2
 72
     6
 73
     3
 74
     0
 42
0.0000000001
 43
0.0000000001
 40
0.0
 40
0.0
 40
0.0
 40
0.2236524678537002
 40
0.2236524678537002
 40
0.2236524678537002
 10
-4.109739266673188
 20
15.77514625400354
 30
0.0
 41
1.0
 10
-3.99828598482852
 20
15.81958146712451
 30
0.0
 41
0.9010587385208325
 10
-3.963489266673207
 20
15.93440964574228
 30
0.0
 41
1.0
  0
SPLINE
  5
8E
330
1F
100
AcDbEntity
  8
DEFAULT
100
AcDbSpline
210
0.0
220
0.0
230
1.0
 70
    24
 71
     2
 72
     6
 73
     3
 74
     0
 42
0.0000000001
 43
0.0000000001
 40
0.0
 40
0.0
 40
0.0
 40
0.4919977399559122
 40
0.4919977399559122
 40
0.4919977399559122
 10
-3.963489266673207
 20
15.93440964574228
 30
0.0
 10
-3.959176143710785
 20
16.18037070160426
 30
0.0
 10
-3.954863020748363
 20
16.42633175746625
 30
0.0
  0
SPLINE
  5
8F
330
1F
100
AcDbEntity
  8
DEFAULT
100
AcDbSpline
210
0.0
220
0.0
230
1.0
 70
    24
 71
     2
 72
     6
 73
     3
 74
     0
 42
0.0000000001
 43
0.0000000001
 40
0.0
 40
0.0
 40
0.0
 40
0.5321440388778741
 40
0.5321440388778741
 40
0.5321440388778741
 10
-4.699882203321962
 20
15.79542700207427
 30
0.0
 10
-4.696685734997558
 20
15.52945819008728
 30
0.0
 10
-4.693489266673154
 20
15.26348937810028
 30
0.0
  0
SPLINE
  5
90
330
1F
100
AcDbEntity
  8
DEFAULT
100
AcDbSpline
210
0.0
220
0.0
230
1.0
 70
    12
 71
     2
 72
     6
 73
     3
 74
     0
 42
0.0000000001
 43
0.0000000001
 40
0.0
 40
0.0
 40
0.0
 40
0.2236524678536994
 40
0.2236524678536994
 40
0.2236524678536994
 10
-4.693489266673154
 20
15.26348937810028
 30
0.0
 41
1.0
 10
-4.658692548517842
 20
15.14866119948251
 30
0.0
 41
0.9010587385208312
 10
-4.547239266673174
 20
15.10422598636154
 30
0.0
 41
1.0
  0
SPLINE
  5
91
330
1F
100
AcDbEntity
  8
DEFAULT
100
AcDbSpline
210
0.0
220
0.0
230
1.0
 70
     8
 71
     3
 72
     8
 73
     4
 74
     0
 42
0.0000000001
 43
0.0000000001
 40
0.0
 40
0.0
 40
0.0
 40
0.0
 40
1.0
 40
1.0
 40
1.0
 40
1.0
 10
-4.547239266673174
 20
15.10422598636154
 30
0.0
 10
-4.41177526993728
 20
15.05021796196287
 30
0.0
 10
-4.245203263409081
 20
15.05021796196287
 30
0.0
 10
-4.109739266673188
 20
15.10422598636154
 30
0.0
  0
SPLINE
  5
92
330
1F
100
AcDbEntity
  8
DEFAULT
100
AcDbSpline
210
0.0
220
0.0
230
1.0
 70
    12
 71
     2
 72
     6
 73
     3
 74
     0
 42
0.0000000001
 43
0.0000000001
 40
0.0
 40
0.0
 40
0.0
 40
0.2236524678536981
 40
0.2236524678536981
 40
0.2236524678536981
 10
-4.109739266673188
 20
15.10422598636154
 30
0.0
 41
1.0
 10
-3.998285984828519
 20
15.14866119948251
 30
0.0
 41
0.9010587385208331
 10
-3.963489266673207
 20
15.26348937810028
 30
0.0
 41
1.0
  0
SPLINE
  5
93
330
1F
100
AcDbEntity
  8
DEFAULT
100
AcDbSpline
210
0.0
220
0.0
230
1.0
 70
    24
 71
     2
 72
     6
 73
     3
 74
     0
 42
0.0000000001
 43
0.0000000001
 40
0.0
 40
0.0
 40
0.0
 40
0.5321440388778741
 40
0.5321440388778741
 40
0.5321440388778741
 10
-3.963489266673207
 20
15.26348937810028
 30
0.0
 10
-3.958824199159672
 20
15.52952049784647
 30
0.0
 10
-3.954159131646136
 20
15.79555161759265
 30
0.0
  0
SPLINE
  5
94
330
1F
100
AcDbEntity
  8
DEFAULT
100
AcDbSpline
210
0.0
220
0.0
230
1.0
 70
     8
 71
     3
 72
    14
 73
    10
 74
     0
 42
0.0000000001
 43
0.0000000001
 40
0.0
 40
0.0
 40
0.0
 40
0.0
 40
0.0011429773882848
 40
0.0041559612549722
 40
0.010740543323966
 40
0.120253821530844
 40
0.2135872029610184
 40
0.4059865476491976
 40
0.8047865810560537
 40
0.8047865810560537
 40
0.8047865810560537
 40
0.8047865810560537
 10
-3.954159131646136
 20
15.79555161759265
 30
0.0
 10
-3.954064698968025
 20
15.79604234793775
 30
0.0
 10
-3.954729804750301
 20
15.79728640809484
 30
0.0
 10
-3.958799138006867
 20
15.79657232931934
 30
0.0
 10
-3.990713770963566
 20
15.77377427350036
 30
0.0
 10
-4.048527104861989
 20
15.7326125322114
 30
0.0
 10
-4.168668647219093
 20
15.68037079668747
 30
0.0
 10
-4.398510030423765
 20
15.63876513456371
 30
0.0
 10
-4.592563028077379
 20
15.71305959995781
 30
0.0
 10
-4.699882203321962
 20
15.79542700207427
 30
0.0
  0
SPLINE
  5
95
330
1F
100
AcDbEntity
  8
DEFAULT
100
AcDbSpline
210
0.0
220
0.0
230
1.0
 70
    12
 71
     2
 72
     6
 73
     3
 74
     0
 42
0.0000000001
 43
0.0000000001
 40
0.0
 40
0.0
 40
0.0
 40
0.7473847420755672
 40
0.7473847420755672
 40
0.7473847420755672
 10
-4.001363716688772
 20
16.43735793932769
 30
0.0
 41
1.0
 10
-4.360082953370015
 20
16.18856768343522
 30
0.0
 41
0.7973745102127584
 10
-4.696952909337938
 20
16.46622703400417
 30
0.0
 41
1.0
  0
SPLINE
  5
96
330
1F
100
AcDbEntity
  8
DEFAULT
100
AcDbSpline
210
0.0
220
0.0
230
1.0
 70
    12
 71
     2
 72
     6
 73
     3
 74
     0
 42
0.0000000001
 43
0.0000000001
 40
-0.3590936632311201
 40
-0.3590936632311201
 40
-0.3590936632311201
 40
0.0
 40
0.0
 40
0.0
 10
-4.701935526524267
 20
15.74514780786723
 30
0.0
 41
1.0
 10
-4.827484579064146
 20
15.88501835845917
 30
0.0
 41
0.9342250861939277
 10
-4.825680976213241
 20
16.07297549746599
 30
0.0
 41
0.9999983047728426
  0
SPLINE
  5
97
330
1F
100
AcDbEntity
  8
DEFAULT
100
AcDbSpline
210
0.0
220
0.0
230
1.0
 70
    24
 71
     2
 72
     6
 73
     3
 74
     0
 42
0.0000000001
 43
0.0000000001
 40
0.0
 40
0.0
 40
0.0
 40
0.40304397363726
 40
0.40304397363726
 40
0.40304397363726
 10
-4.825680976213235
 20
16.07297549746599
 30
0.0
 10
-4.824585121443207
 20
16.27449748428462
 30
0.0
 10
-4.823489266673178
 20
16.47601947110325
 30
0.0
  0
SPLINE
  5
98
330
1F
100
AcDbEntity
  8
DEFAULT
100
AcDbSpline
210
0.0
220
0.0
230
1.0
 70
    12
 71
     2
 72
     6
 73
     3
 74
     0
 42
0.0000000001
 43
0.0000000001
 40
0.0
 40
0.0
 40
0.0
 40
0.3527729993252487
 40
0.3527729993252487
 40
0.3527729993252487
 10
-3.955001668014489
 20
15.74750534992011
 30
0.0
 41
1.0
 10
-3.833305706047383
 20
15.88612317749874
 30
0.0
 41
0.935636063196829
 10
-3.833489266673183
 20
16.07058123665371
 30
0.0
 41
1.0
  0
SPLINE
  5
99
330
1F
100
AcDbEntity
  8
DEFAULT
100
AcDbSpline
210
0.0
220
0.0
230
1.0
 70
    24
 71
     2
 72
     6
 73
     3
 74
     0
 42
0.0000000001
 43
0.0000000001
 40
0.0
 40
0.0
 40
0.0
 40
0.35397136597323
 40
0.35397136597323
 40
0.35397136597323
 10
-3.833489266673183
 20
16.07058123665371
 30
0.0
 10
-3.833489266673183
 20
16.24756691964032
 30
0.0
 10
-3.833489266673183
 20
16.42455260262694
 30
0.0
  0
SPLINE
  5
9A
330
1F
100
AcDbEntity
  8
DEFAULT
100
AcDbSpline
210
0.0
220
0.0
230
1.0
 70
    24
 71
     2
 72
     6
 73
     3
 74
     0
 42
0.0000000001
 43
0.0000000001
 40
0.0
 40
0.0
 40
0.0
 40
0.0884283344012462
 40
0.0884283344012462
 40
0.0884283344012462
 10
-8.542435390055033
 20
16.83785239393251
 30
0.0
 10
-8.545395548856703
 20
16.79373743001874
 30
0.0
 10
-8.548355707658374
 20
16.74962246610496
 30
0.0
  0
SPLINE
  5
9B
330
1F
100
AcDbEntity
  8
DEFAULT
100
AcDbSpline
210
0.0
220
0.0
230
1.0
 70
    12
 71
     2
 72
     8
 73
     5
 74
     0
 42
0.0000000001
 43
0.0000000001
 40
0.0
 40
0.0
 40
0.0
 40
0.0471552986655018
 40
0.0471552986655018
 40
0.0943105973310035
 40
0.0943105973310035
 40
0.0943105973310035
 10
-8.548355707658374
 20
16.74962246610496
 30
0.0
 41
1.0
 10
-8.547180909631777
 20
16.72428511790164
 30
0.0
 41
0.8975997738324872
 10
-8.566513239509618
 20
16.70786493562877
 30
0.0
 41
1.0
 10
-8.585845569387455
 20
16.69144475335589
 30
0.0
 41
0.8975997738324872
 10
-8.610658807822176
 20
16.69670446463693
 30
0.0
 41
1.0
  0
SPLINE
  5
9C
330
1F
100
AcDbEntity
  8
DEFAULT
100
AcDbSpline
210
0.0
220
0.0
230
1.0
 70
    24
 71
     2
 72
     6
 73
     3
 74
     0
 42
0.0000000001
 43
0.0000000001
 40
0.0
 40
0.0
 40
0.0
 40
0.3614629263831907
 40
0.3614629263831907
 40
0.3614629263831907
 10
-8.610658807822176
 20
16.69670446463693
 30
0.0
 10
-8.786101548786888
 20
16.74010615158766
 30
0.0
 10
-8.9615442897516
 20
16.78350783853839
 30
0.0
  0
SPLINE
  5
9D
330
1F
100
AcDbEntity
  8
DEFAULT
100
AcDbSpline
210
0.0
220
0.0
230
1.0
 70
    12
 71
     2
 72
     8
 73
     5
 74
     0
 42
0.0000000001
 43
0.0000000001
 40
-0.1050980495387224
 40
-0.1050980495387224
 40
-0.1050980495387224
 40
-0.0544259658729994
 40
-0.0544259658729994
 40
0.0
 40
0.0
 40
0.0
 10
-8.9615442897516
 20
16.78350783853839
 30
0.0
 41
1.0
 10
-8.987123080137074
 20
16.79069992644949
 30
0.0
 41
0.9317365067511197
 10
-9.001089038318213
 20
16.81330418839692
 30
0.0
 41
1.0
 10
-9.016489703057525
 20
16.83689565095228
 30
0.0
 41
0.9496440122272175
 10
-9.014826996882675
 20
16.86501989295255
 30
0.0
 41
1.0
  0
SPLINE
  5
9E
330
1F
100
AcDbEntity
  8
DEFAULT
100
AcDbSpline
210
0.0
220
0.0
230
1.0
 70
    24
 71
     2
 72
     6
 73
     3
 74
     0
 42
0.0000000001
 43
0.0000000001
 40
-0.0227731244339891
 40
-0.0227731244339891
 40
-0.0227731244339891
 40
0.0
 40
0.0
 40
0.0
 10
-9.014826996882675
 20
16.86501989295255
 30
0.0
 10
-9.01406466131239
 20
16.87638090715023
 30
0.0
 10
-9.013302325742103
 20
16.8877419213479
 30
0.0
  0
SPLINE
  5
9F
330
1F
100
AcDbEntity
  8
DEFAULT
100
AcDbSpline
210
0.0
220
0.0
230
1.0
 70
     8
 71
     3
 72
    11
 73
     7
 74
     0
 42
0.0000000001
 43
0.0000000001
 40
0.0
 40
0.0
 40
0.0
 40
0.0
 40
0.13566170168807
 40
0.2744464145988897
 40
0.5613280325995922
 40
1.564089556579592
 40
1.564089556579592
 40
1.564089556579592
 40
1.564089556579592
 10
-10.11870802928561
 20
24.33923106355051
 30
0.0
 10
-10.0812735093196
 20
24.31261946531644
 30
0.0
 10
-10.01537265682171
 20
24.25183171557425
 30
0.0
 10
-9.89133621511968
 20
24.10653876775199
 30
0.0
 10
-9.725075014480012
 20
23.65726871101041
 30
0.0
 10
-9.686169526095426
 20
23.22359773697455
 30
0.0
 10
-9.683477085294413
 20
22.89019874410215
 30
0.0
  0
SPLINE
  5
A0
330
1F
100
AcDbEntity
  8
DEFAULT
100
AcDbSpline
210
0.0
220
0.0
230
1.0
 70
    12
 71
     2
 72
     6
 73
     3
 74
     0
 42
0.0000000001
 43
0.0000000001
 40
0.0
 40
0.0
 40
0.0
 40
1.102793144367181
 40
1.102793144367181
 40
1.102793144367181
 10
-9.683477085294413
 20
22.89019874410215
 30
0.0
 41
1.0
 10
-9.684230532307652
 20
22.33870294159324
 30
0.0
 41
0.9997455309739954
 10
-9.709858725376819
 20
21.78780860743762
 30
0.0
 41
1.0
  0
SPLINE
  5
A1
330
1F
100
AcDbEntity
  8
DEFAULT
100
AcDbSpline
210
0.0
220
0.0
230
1.0
 70
     8
 71
     3
 72
    12
 73
     8
 74
     0
 42
0.0000000001
 43
0.0000000001
 40
0.0
 40
0.0
 40
0.0
 40
0.0
 40
0.7878562625600279
 40
1.184000317423179
 40
2.191858947532162
 40
3.962869177404546
 40
5.720430333429824
 40
5.720430333429824
 40
5.720430333429824
 40
5.720430333429824
 10
-9.484427598291376
 20
18.14038495636949
 30
0.0
 10
-9.481057658041152
 20
18.40304122541963
 30
0.0
 10
-9.467913641100239
 20
18.79733007922703
 30
0.0
 10
-9.468396805501186
 20
19.52840397258525
 30
0.0
 10
-9.54884974828866
 20
20.58427281879843
 30
0.0
 10
-9.744669089600137
 20
22.0839399048547
 30
0.0
 10
-9.921084926061098
 20
23.24684454644656
 30
0.0
 10
-10.02578705925708
 20
23.82336143708664
 30
0.0
  0
SPLINE
  5
A2
330
1F
100
AcDbEntity
  8
DEFAULT
100
AcDbSpline
210
0.0
220
0.0
230
1.0
 70
     8
 71
     3
 72
    12
 73
     8
 74
     0
 42
0.0000000001
 43
0.0000000001
 40
0.0
 40
0.0
 40
0.0
 40
0.0
 40
1.287016841321923
 40
1.769127044398118
 40
2.327701460882205
 40
2.420853988570939
 40
2.474227538685975
 40
2.474227538685975
 40
2.474227538685975
 40
2.474227538685975
 10
-10.02915648678683
 20
23.84230333578919
 30
0.0
 10
-10.10470801795242
 20
24.26461512505207
 30
0.0
 10
-10.2093322296723
 20
24.8449457169238
 30
0.0
 10
-10.35919090478856
 20
25.60631269779527
 30
0.0
 10
-10.44653289280024
 20
25.97411525382275
 30
0.0
 10
-10.49467543657698
 20
26.20413945237028
 30
0.0
 10
-10.49944026656689
 20
26.25296582565955
 30
0.0
 10
-10.49944569650904
 20
26.27069372529657
 30
0.0
  0
SPLINE
  5
A3
330
1F
100
AcDbEntity
  8
DEFAULT
100
AcDbSpline
210
0.0
220
0.0
230
1.0
 70
    12
 71
     2
 72
     8
 73
     5
 74
     0
 42
0.0000000001
 43
0.0000000001
 40
0.0
 40
0.0
 40
0.0
 40
0.0165110924637132
 40
0.0165110924637132
 40
0.1543477838612571
 40
0.1543477838612571
 40
0.1543477838612571
 10
-9.026837876693975
 20
16.88921605425202
 30
0.0
 41
1.0
 10
-9.027415417966608
 20
16.88055801109368
 30
0.0
 41
1.0
 10
-9.027992959239242
 20
16.87189996793534
 30
0.0
 41
1.0
 10
-9.032872452580857
 20
16.79159003149826
 30
0.0
 41
0.8101392455592907
 10
-8.952968464604027
 20
16.76052263476886
 30
0.0
 41
1.0
  0
SPLINE
  5
A4
330
1F
100
AcDbEntity
  8
DEFAULT
100
AcDbSpline
210
0.0
220
0.0
230
1.0
 70
    12
 71
     5
 72
    32
 73
    26
 74
     0
 42
0.0000000001
 43
0.0000000001
 40
-1.349413554296205
 40
-1.349413554296205
 40
-1.349413554296205
 40
-1.349413554296205
 40
-1.349413554296205
 40
-1.349413554296205
 40
-1.0
 40
-1.0
 40
-1.0
 40
-1.0
 40
-1.0
 40
0.0
 40
0.0
 40
0.0
 40
0.0
 40
0.0
 40
0.0500800887229542
 40
0.0500800887229542
 40
0.0500800887229542
 40
0.0500800887229542
 40
0.0500800887229542
 40
0.1338010880470246
 40
0.1338010880470246
 40
0.1338010880470246
 40
0.1338010880470246
 40
0.1338010880470246
 40
0.1964928401470981
 40
0.1964928401470981
 40
0.1964928401470981
 40
0.1964928401470981
 40
0.1964928401470981
 40
0.1964928401470981
 10
-8.952968464604027
 20
16.76052263476886
 30
0.0
 41
1.0
 10
-8.879200693422893
 20
16.7421067211354
 30
0.0
 41
1.0
 10
-8.811362951600426
 20
16.72532476471
 30
0.0
 41
1.0
 10
-8.74352520977796
 20
16.70854280828459
 30
0.0
 41
1.0
 10
-8.675687467955493
 20
16.69176085185919
 30
0.0
 41
1.0
 10
-8.607849726133026
 20
16.67497889543379
 30
0.0
 41
1.0
 10
-8.59342930718981
 20
16.6714115178083
 30
0.0
 41
1.0
 10
-8.579008888246594
 20
16.66784414018282
 30
0.0
 41
1.0
 10
-8.562101280720167
 20
16.67320866920164
 30
0.0
 41
1.0
 10
-8.548045336709242
 20
16.67801544604089
 30
0.0
 41
1.0
 10
-8.533989392698317
 20
16.68282222288014
 30
0.0
 41
1.0
 10
-8.524512199871486
 20
16.68606318278619
 30
0.0
 41
1.0
 10
-8.515035007044656
 20
16.68930414269225
 30
0.0
 41
1.0
 10
-8.505557814217827
 20
16.6925451025983
 30
0.0
 41
1.0
 10
-8.496080621390997
 20
16.69578606250436
 30
0.0
 41
1.0
 10
-8.486603428564166
 20
16.69902702241041
 30
0.0
 41
1.0
 10
-8.470568130457064
 20
16.70487025691554
 30
0.0
 41
0.886189080138356
 10
-8.456939738075782
 20
16.71661649989304
 30
0.0
 41
0.8292836202075341
 10
-8.449019278927718
 20
16.73306286270907
 30
0.0
 41
0.8292836202075341
 10
-8.448332558444639
 20
16.75104110104235
 30
0.0
 41
0.8861890801383561
 10
-8.453761893384097
 20
16.76722051888701
 30
0.0
 41
1.0
 10
-8.455789164598746
 20
16.77959490796492
 30
0.0
 41
0.9995210355482312
 10
-8.457513429332066
 20
16.79201741904423
 30
0.0
 41
0.9992815533223467
 10
-8.458933230050633
 20
16.80447915539436
 30
0.0
 41
0.9992815533223469
 10
-8.460047546214543
 20
16.81697115963199
 30
0.0
 41
0.9995210355482312
 10
-8.460855796721404
 20
16.8294844351723
 30
0.0
 41
1.0
  0
SPLINE
  5
A5
330
1F
100
AcDbEntity
  8
DEFAULT
100
AcDbSpline
210
0.0
220
0.0
230
1.0
 70
    12
 71
     3
 72
    13
 73
     9
 74
     0
 42
0.0000000001
 43
0.0000000001
 40
-0.316572622776446
 40
-0.316572622776446
 40
-0.316572622776446
 40
-0.316572622776446
 40
-0.3141558423604641
 40
-0.0573429062699113
 40
0.0
 40
0.0
 40
0.0
 40
0.1902251592942832
 40
0.1902251592942832
 40
0.1902251592942832
 40
0.1902251592942832
 10
-8.959394407179758
 20
0.2501860175645376
 30
0.0
 41
1.0
 10
-8.959393838972659
 20
0.2498544345145746
 30
0.0
 41
1.0
 10
-8.959909362228416
 20
0.214296486031202
 30
0.0
 41
1.0
 10
-9.036255434741975
 20
0.1721042356648113
 30
0.0
 41
1.0
 10
-9.175932250783319
 20
0.1467166346114865
 30
0.0
 41
1.0
 10
-9.246014971205781
 20
0.1374249029789318
 30
0.0
 41
1.0
 10
-9.337792887069726
 20
0.1281058720048054
 30
0.0
 41
0.9993313691336558
 10
-9.415474467343264
 20
0.1233673563041122
 30
0.0
 41
0.9993313691336558
 10
-9.523898228511271
 20
0.123910767859428
 30
0.0
 41
1.0
  0
SPLINE
  5
A6
330
1F
100
AcDbEntity
  8
DEFAULT
100
AcDbSpline
210
0.0
220
0.0
230
1.0
 70
    12
 71
     2
 72
     6
 73
     3
 74
     0
 42
0.0000000001
 43
0.0000000001
 40
0.0
 40
0.0
 40
0.0
 40
0.1664592237014624
 40
0.1664592237014624
 40
0.1664592237014624
 10
-9.523898228511271
 20
0.123910767859428
 30
0.0
 41
1.0
 10
-9.652116431703186
 20
0.1273973942237912
 30
0.0
 41
0.999258636387584
 10
-9.734878563802198
 20
0.136587159471155
 30
0.0
 41
1.0
  0
SPLINE
  5
A7
330
1F
100
AcDbEntity
  8
DEFAULT
100
AcDbSpline
210
0.0
220
0.0
230
1.0
 70
    24
 71
     2
 72
     6
 73
     3
 74
     0
 42
0.0000000001
 43
0.0000000001
 40
0.0
 40
0.0
 40
0.0
 40
16.40449565683652
 40
16.40449565683652
 40
16.40449565683652
 10
-8.959389723938813
 20
0.2501859601332512
 30
0.0
 10
-8.833274054489678
 20
8.451464170065616
 30
0.0
 10
-8.707158385040543
 20
16.65274237999798
 30
0.0
  0
SPLINE
  5
A8
330
1F
100
AcDbEntity
  8
DEFAULT
100
AcDbSpline
210
0.0
220
0.0
230
1.0
 70
     8
 71
     3
 72
    17
 73
    13
 74
     0
 42
0.0000000001
 43
0.0000000001
 40
0.0
 40
0.0
 40
0.0
 40
0.0
 40
0.0047195487793021
 40
0.0094332170594017
 40
0.0238655807282687
 40
0.0671615523774499
 40
0.1755398295510834
 40
0.3480399467799769
 40
0.4715619212285612
 40
0.5666415614261937
 40
0.7713350354149381
 40
1.204786480809649
 40
1.204786480809649
 40
1.204786480809649
 40
1.204786480809649
 10
-9.489630343496543
 20
17.94321234491473
 30
0.0
 10
-9.488661866399895
 20
17.94399136731202
 30
0.0
 10
-9.485856025737093
 20
17.94866678844254
 30
0.0
 10
-9.494224874253575
 20
17.9428057155701
 30
0.0
 10
-9.509528264681308
 20
17.92986987020993
 30
0.0
 10
-9.549626926241473
 20
17.89104666530367
 30
0.0
 10
-9.625716506268219
 20
17.81489638776856
 30
0.0
 10
-9.713454634722495
 20
17.71151313782854
 30
0.0
 10
-9.782898677825045
 20
17.60149910190646
 30
0.0
 10
-9.812613587711922
 20
17.45772820420689
 30
0.0
 10
-9.71909580410042
 20
17.22540394127058
 30
0.0
 10
-9.582616395393927
 20
17.06193564061262
 30
0.0
 10
-9.501091075614681
 20
16.94243092575727
 30
0.0
  0
SPLINE
  5
A9
330
1F
100
AcDbEntity
  8
DEFAULT
100
AcDbSpline
210
0.0
220
0.0
230
1.0
 70
    24
 71
     2
 72
     6
 73
     3
 74
     0
 42
0.0000000001
 43
0.0000000001
 40
0.0
 40
0.0
 40
0.0
 40
0.182246548959419
 40
0.182246548959419
 40
0.182246548959419
 10
-9.4871680255971
 20
17.94317809118839
 30
0.0
 10
-9.48590050622012
 20
18.03429406325542
 30
0.0
 10
-9.484632986843138
 20
18.12541003532245
 30
0.0
  0
SPLINE
  5
AA
330
1F
100
AcDbEntity
  8
DEFAULT
100
AcDbSpline
210
0.0
220
0.0
230
1.0
 70
    12
 71
     2
 72
     8
 73
     5
 74
     0
 42
0.0000000001
 43
0.0000000001
 40
-1.126013572061999
 40
-1.126013572061999
 40
-1.126013572061999
 40
-0.562789910270183
 40
-0.562789910270183
 40
0.0
 40
0.0
 40
0.0
 10
-9.484632986843138
 20
18.12541003532245
 30
0.0
 41
1.0
 10
-9.765204324157615
 20
18.15276055248944
 30
0.0
 41
0.9984620498676386
 10
-10.04707858809905
 20
18.14887832513757
 30
0.0
 41
1.0
 10
-10.32851922176258
 20
18.16061293795858
 30
0.0
 41
0.9984553286292258
 10
-10.60952423145797
 20
18.14104950879124
 30
0.0
 41
1.0
  0
POLYLINE
  5
AB
330
1F
100
AcDbEntity
  8
DEFAULT
100
AcDb2dPolyline
 66
     1
 10
0.0
 20
0.0
 30
0.0
  0
VERTEX
  5
AC
330
AB
100
AcDbEntity
  8
DEFAULT
100
AcDbVertex
100
AcDb2dVertex
 10
-10.60952423145797
 20
18.14104950879124
 30
0.0
  0
VERTEX
  5
AD
330
AB
100
AcDbEntity
  8
DEFAULT
100
AcDbVertex
100
AcDb2dVertex
 10
-10.85941062438013
 20
0.1780495090836354
 30
0.0
  0
SEQEND
  5
AE
330
AB
100
AcDbEntity
  8
DEFAULT
  0
SPLINE
  5
AF
330
1F
100
AcDbEntity
  8
DEFAULT
100
AcDbSpline
210
0.0
220
0.0
230
1.0
 70
    12
 71
     2
 72
     6
 73
     3
 74
     0
 42
0.0000000001
 43
0.0000000001
 40
0.0
 40
0.0
 40
0.0
 40
0.6756478290434975
 40
0.6756478290434975
 40
0.6756478290434975
 10
-8.81583010973091
 20
17.87220512915811
 30
0.0
 41
1.0
 10
-9.151712884282391
 20
17.90838576697233
 30
0.0
 41
0.999991591086868
 10
-9.48728761407898
 20
17.94732003870025
 30
0.0
 41
1.0
  0
SPLINE
  5
B0
330
1F
100
AcDbEntity
  8
DEFAULT
100
AcDbSpline
210
0.0
220
0.0
230
1.0
 70
    12
 71
     2
 72
     6
 73
     3
 74
     0
 42
0.0000000001
 43
0.0000000001
 40
-0.3687350703256946
 40
-0.3687350703256946
 40
-0.3687350703256946
 40
0.0
 40
0.0
 40
0.0
 10
-9.208758175659284
 20
16.90924475555264
 30
0.0
 41
1.0
 10
-9.089615493493165
 20
16.76173510362477
 30
0.0
 41
0.958996314771429
 10
-8.909427877367534
 20
16.70268851929861
 30
0.0
 41
1.0
  0
ARC
  5
B1
330
1F
100
AcDbEntity
  8
DEFAULT
100
AcDbCircle
 10
-0.8340655899287375
 20
47.30381471572219
 30
0.0
 40
31.6487029838954
100
AcDbArc
 50
255.217160009172
 51
257.0074178344712
  0
ARC
  5
B2
330
1F
100
AcDbEntity
  8
DEFAULT
100
AcDbCircle
 10
-17.31739563334625
 20
-24.13552727969294
 30
0.0
 40
41.66759639119658
100
AcDbArc
 50
72.3719986655482
 51
77.00741783447066
  0
SPLINE
  5
B3
330
1F
100
AcDbEntity
  8
DEFAULT
100
AcDbSpline
210
0.0
220
0.0
230
1.0
 70
    12
 71
     2
 72
     6
 73
     3
 74
     0
 42
0.0000000001
 43
0.0000000001
 40
-0.2004902742673454
 40
-0.2004902742673454
 40
-0.2004902742673454
 40
0.0
 40
0.0
 40
0.0
 10
-8.95939798461336
 20
0.2496621210540582
 30
0.0
 41
1.0
 10
-8.960939963646075
 20
0.1494288398350443
 30
0.0
 41
0.9999999369853753
 10
-8.962597969212297
 20
0.0491856068599787
 30
0.0
 41
1.0
  0
SPLINE
  5
B4
330
1F
100
AcDbEntity
  8
DEFAULT
100
AcDbSpline
210
0.0
220
0.0
230
1.0
 70
    12
 71
     2
 72
     6
 73
     3
 74
     0
 42
0.0000000001
 43
0.0000000001
 40
-0.0784805824544201
 40
-0.0784805824544201
 40
-0.0784805824544201
 40
0.0
 40
0.0
 40
0.0
 10
-8.962597969212297
 20
0.0491856068599787
 30
0.0
 41
1.0
 10
-8.96360272976867
 20
-0.0006797836398309
 30
0.0
 41
0.7090345959967733
 10
-9.017234338080058
 20
0.0000693463675532
 30
0.0
 41
1.0
  0
SPLINE
  5
B5
330
1F
100
AcDbEntity
  8
DEFAULT
100
AcDbSpline
210
0.0
220
0.0
230
1.0
 70
     8
 71
     3
 72
    10
 73
     6
 74
     0
 42
0.0000000001
 43
0.0000000001
 40
0.0
 40
0.0
 40
0.0
 40
0.0
 40
0.0051614376977289
 40
0.0076964859399476
 40
0.5184066067045128
 40
0.5184066067045128
 40
0.5184066067045128
 40
0.5184066067045128
 10
-9.017234338080058
 20
0.0000693463675532
 30
0.0
 10
-9.02412576353754
 20
0.000181633121116
 30
0.0
 10
-9.010661828058431
 20
-0.0000376096013426
 30
0.0
 10
-9.181537450231417
 20
0.0027402190062418
 30
0.0
 10
-9.35433213697695
 20
0.0055504775875264
 30
0.0
 10
-9.52579306011799
 20
0.0083386225463222
 30
0.0
  0
SPLINE
  5
B6
330
1F
100
AcDbEntity
  8
DEFAULT
100
AcDbSpline
210
0.0
220
0.0
230
1.0
 70
    12
 71
     2
 72
     6
 73
     3
 74
     0
 42
0.0000000001
 43
0.0000000001
 40
0.0
 40
0.0
 40
0.0
 40
0.2651910966065845
 40
0.2651910966065845
 40
0.2651910966065845
 10
-9.52579306011799
 20
0.0083386225463222
 30
0.0
 41
1.0
 10
-9.660209857204935
 20
0.0105244918593709
 30
0.0
 41
0.9999999999998926
 10
-9.792787874633035
 20
0.0126805820282385
 30
0.0
 41
1.0
  0
POLYLINE
  5
B7
330
1F
100
AcDbEntity
  8
DEFAULT
100
AcDb2dPolyline
 66
     1
 10
0.0
 20
0.0
 30
0.0
  0
VERTEX
  5
B8
330
B7
100
AcDbEntity
  8
DEFAULT
100
AcDbVertex
100
AcDb2dVertex
 10
-9.734519379765274
 20
0.1624130624329476
 30
0.0
  0
VERTEX
  5
B9
330
B7
100
AcDbEntity
  8
DEFAULT
100
AcDbVertex
100
AcDb2dVertex
 10
-9.501108632818244
 20
16.94227796715696
 30
0.0
  0
SEQEND
  5
BA
330
B7
100
AcDbEntity
  8
DEFAULT
  0
SPLINE
  5
BB
330
1F
100
AcDbEntity
  8
DEFAULT
100
AcDbSpline
210
0.0
220
0.0
230
1.0
 70
    24
 71
     2
 72
     6
 73
     3
 74
     0
 42
0.0000000001
 43
0.0000000001
 40
0.0
 40
0.0
 40
0.0
 40
0.0838826130654592
 40
0.0838826130654592
 40
0.0838826130654592
 10
-9.734519421868299
 20
0.1624070089468379
 30
0.0
 10
-9.73510283917686
 20
0.1204682467996241
 30
0.0
 10
-9.735686256485423
 20
0.0785294846524102
 30
0.0
  0
SPLINE
  5
BC
330
1F
100
AcDbEntity
  8
DEFAULT
100
AcDbSpline
210
0.0
220
0.0
230
1.0
 70
    12
 71
     2
 72
     6
 73
     3
 74
     0
 42
0.0000000001
 43
0.0000000001
 40
0.0
 40
0.0
 40
0.0
 40
0.090509536218289
 40
0.090509536218289
 40
0.090509536218289
 10
-9.735686256485423
 20
0.0785294846524102
 30
0.0
 41
1.0
 10
-9.73772913902449
 20
0.0235689307472339
 30
0.0
 41
0.7543192092771731
 10
-9.797449851394617
 20
0.017355560770371
 30
0.0
 41
1.0
  0
SPLINE
  5
BD
330
1F
100
AcDbEntity
  8
DEFAULT
100
AcDbSpline
210
0.0
220
0.0
230
1.0
 70
    12
 71
     2
 72
     6
 73
     3
 74
     0
 42
0.0000000001
 43
0.0000000001
 40
0.0
 40
0.0
 40
0.0
 40
0.0287637614208012
 40
0.0287637614208012
 40
0.0287637614208012
 10
-9.797449851394617
 20
0.017355560770371
 30
0.0
 41
1.0
 10
-9.816772075912134
 20
0.015286083152476
 30
0.0
 41
0.9996656851759237
 10
-9.831141401960423
 20
0.0146127091278879
 30
0.0
 41
1.0
  0
SPLINE
  5
BE
330
1F
100
AcDbEntity
  8
DEFAULT
100
AcDbSpline
210
0.0
220
0.0
230
1.0
 70
    12
 71
     2
 72
     6
 73
     3
 74
     0
 42
0.0000000001
 43
0.0000000001
 40
-0.4678786518234926
 40
-0.4678786518234926
 40
-0.4678786518234926
 40
0.0
 40
0.0
 40
0.0
 10
-9.831141401960423
 20
0.0146127091278879
 30
0.0
 41
1.0
 10
-10.06502499463271
 20
0.0075600148960759
 30
0.0
 41
0.99967599695013
 10
-10.29896443884034
 20
0.0124177060636798
 30
0.0
 41
1.0
  0
SPLINE
  5
BF
330
1F
100
AcDbEntity
  8
DEFAULT
100
AcDbSpline
210
0.0
220
0.0
230
1.0
 70
    12
 71
     2
 72
     6
 73
     3
 74
     0
 42
0.0000000001
 43
0.0000000001
 40
-0.4681485405974239
 40
-0.4681485405974239
 40
-0.4681485405974239
 40
0.0
 40
0.0
 40
0.0
 10
-10.29896443884034
 20
0.0124177060636798
 30
0.0
 41
1.0
 10
-10.53308336678807
 20
0.0140692428463913
 30
0.0
 41
0.9996765963466816
 10
-10.76681567086501
 20
0.0276202818457507
 30
0.0
 41
1.0
  0
SPLINE
  5
C0
330
1F
100
AcDbEntity
  8
DEFAULT
100
AcDbSpline
210
0.0
220
0.0
230
1.0
 70
    12
 71
     2
 72
     6
 73
     3
 74
     0
 42
0.0000000001
 43
0.0000000001
 40
0.0
 40
0.0
 40
0.0
 40
0.0149504543859661
 40
0.0149504543859661
 40
0.0149504543859661
 10
-10.76681567086501
 20
0.0276202818457507
 30
0.0
 41
1.0
 10
-10.7742677329831
 20
0.0282111214671106
 30
0.0
 41
0.9999561228672283
 10
-10.78170867019165
 20
0.028955378737882
 30
0.0
 41
1.0
  0
SPLINE
  5
C1
330
1F
100
AcDbEntity
  8
DEFAULT
100
AcDbSpline
210
0.0
220
0.0
230
1.0
 70
    12
 71
     2
 72
     6
 73
     3
 74
     0
 42
0.0000000001
 43
0.0000000001
 40
-0.0147217657248775
 40
-0.0147217657248775
 40
-0.0147217657248775
 40
0.0
 40
0.0
 40
0.0
 10
-10.78170867019165
 20
0.028955378737882
 30
0.0
 41
1.0
 10
-10.7890388340968
 20
0.0296741409247309
 30
0.0
 41
0.9996253281867565
 10
-10.80091658103225
 20
0.0314136768626967
 30
0.0
 41
1.0
  0
SPLINE
  5
C2
330
1F
100
AcDbEntity
  8
DEFAULT
100
AcDbSpline
210
0.0
220
0.0
230
1.0
 70
    12
 71
     2
 72
     6
 73
     3
 74
     0
 42
0.0000000001
 43
0.0000000001
 40
0.0
 40
0.0
 40
0.0
 40
0.0905125898444878
 40
0.0905125898444878
 40
0.0905125898444878
 10
-10.80091658103225
 20
0.0314136768626967
 30
0.0
 41
1.0
 10
-10.85997008962594
 20
0.0392438997650774
 30
0.0
 41
0.7556419620120104
 10
-10.8605775009428
 20
0.0941719852639064
 30
0.0
 41
1.0
  0
SPLINE
  5
C3
330
1F
100
AcDbEntity
  8
DEFAULT
100
AcDbSpline
210
0.0
220
0.0
230
1.0
 70
    24
 71
     2
 72
     6
 73
     3
 74
     0
 42
0.0000000001
 43
0.0000000001
 40
0.0
 40
0.0
 40
0.0
 40
0.0838826131717245
 40
0.0838826131717245
 40
0.0838826131717245
 10
-10.8605775009428
 20
0.0941719852639064
 30
0.0
 10
-10.85999408371222
 20
0.1361107474666116
 30
0.0
 10
-10.85941066648165
 20
0.1780495096693168
 30
0.0
  0
SPLINE
  5
C4
330
1F
100
AcDbEntity
  8
DEFAULT
100
AcDbSpline
210
0.0
220
0.0
230
1.0
 70
     8
 71
     2
 72
    11
 73
     8
 74
     0
 42
0.0000000001
 43
0.0000000001
 40
0.0
 40
0.0
 40
0.0
 40
1.0
 40
2.0
 40
3.0
 40
4.0
 40
5.0
 40
6.0
 40
6.0
 40
6.0
 10
-9.734519379765274
 20
0.1624130624329476
 30
0.0
 10
-9.827929314652366
 20
0.1715073297669419
 30
0.0
 10
-10.01529441526152
 20
0.182861890789028
 30
0.0
 10
-10.20294926461912
 20
0.1868695121675202
 30
0.0
 10
-10.39063476903175
 20
0.1863420518246407
 30
0.0
 10
-10.57826779584448
 20
0.1907790531485547
 30
0.0
 10
-10.76596852542744
 20
0.1873453228210305
 30
0.0
 10
-10.85941062438013
 20
0.1780495090836354
 30
0.0
  0
SPLINE
  5
C5
330
1F
100
AcDbEntity
  8
DEFAULT
100
AcDbSpline
210
0.0
220
0.0
230
1.0
 70
    12
 71
     2
 72
     6
 73
     3
 74
     0
 42
0.0000000001
 43
0.0000000001
 40
0.0
 40
0.0
 40
0.0
 40
0.5069875979584633
 40
0.5069875979584633
 40
0.5069875979584633
 10
-9.792677585448033
 20
0.0194648352168203
 30
0.0
 41
1.0
 10
-10.04523416437036
 20
0.0440923159131805
 30
0.0
 41
0.9984597417000961
 10
-10.2989684691246
 20
0.0405872072049905
 30
0.0
 41
1.0
  0
SPLINE
  5
C6
330
1F
100
AcDbEntity
  8
DEFAULT
100
AcDbSpline
210
0.0
220
0.0
230
1.0
 70
    12
 71
     2
 72
     6
 73
     3
 74
     0
 42
0.0000000001
 43
0.0000000001
 40
0.0
 40
0.0
 40
0.0
 40
0.5065890987312437
 40
0.5065890987312437
 40
0.5065890987312437
 10
-10.2989684691246
 20
0.0405872072049905
 30
0.0
 41
1.0
 10
-10.55230812145842
 20
0.0511606312494932
 30
0.0
 41
0.9984529850107059
 10
-10.80525129223265
 20
0.0335400220301522
 30
0.0
 41
1.0
  0
SPLINE
  5
C7
330
1F
100
AcDbEntity
  8
DEFAULT
100
AcDbSpline
210
0.0
220
0.0
230
1.0
 70
     8
 71
     3
 72
    11
 73
     7
 74
     0
 42
0.0000000001
 43
0.0000000001
 40
0.0
 40
0.0
 40
0.0
 40
0.0
 40
0.13566170168807
 40
0.2744464145988897
 40
0.5613280325995922
 40
1.564089556579592
 40
1.564089556579592
 40
1.564089556579592
 40
1.564089556579592
 10
10.11870802928561
 20
24.33923106355051
 30
0.0
 10
10.0812735093196
 20
24.31261946531644
 30
0.0
 10
10.01537265682171
 20
24.25183171557425
 30
0.0
 10
9.89133621511968
 20
24.10653876775199
 30
0.0
 10
9.725075014480012
 20
23.65726871101041
 30
0.0
 10
9.686169526095426
 20
23.22359773697455
 30
0.0
 10
9.683477085294413
 20
22.89019874410215
 30
0.0
  0
SPLINE
  5
C8
330
1F
100
AcDbEntity
  8
DEFAULT
100
AcDbSpline
210
0.0
220
0.0
230
1.0
 70
    12
 71
     2
 72
     6
 73
     3
 74
     0
 42
0.0000000001
 43
0.0000000001
 40
0.0
 40
0.0
 40
0.0
 40
1.102793144367181
 40
1.102793144367181
 40
1.102793144367181
 10
9.683477085294413
 20
22.89019874410215
 30
0.0
 41
1.0
 10
9.684230532307652
 20
22.33870294159324
 30
0.0
 41
0.9997455309739954
 10
9.709858725376819
 20
21.78780860743762
 30
0.0
 41
1.0
  0
SPLINE
  5
C9
330
1F
100
AcDbEntity
  8
DEFAULT
100
AcDbSpline
210
0.0
220
0.0
230
1.0
 70
     8
 71
     3
 72
    12
 73
     8
 74
     0
 42
0.0000000001
 43
0.0000000001
 40
0.0
 40
0.0
 40
0.0
 40
0.0
 40
1.287016841321923
 40
1.769127044398118
 40
2.327701460882205
 40
2.420853988570939
 40
2.474227538685975
 40
2.474227538685975
 40
2.474227538685975
 40
2.474227538685975
 10
10.02915648678683
 20
23.84230333578919
 30
0.0
 10
10.10470801795242
 20
24.26461512505207
 30
0.0
 10
10.2093322296723
 20
24.8449457169238
 30
0.0
 10
10.35919090478856
 20
25.60631269779527
 30
0.0
 10
10.44653289280024
 20
25.97411525382275
 30
0.0
 10
10.49467543657698
 20
26.20413945237028
 30
0.0
 10
10.49944026656689
 20
26.25296582565955
 30
0.0
 10
10.49944569650904
 20
26.27069372529657
 30
0.0
  0
SPLINE
  5
CA
330
1F
100
AcDbEntity
  8
DEFAULT
100
AcDbSpline
210
0.0
220
0.0
230
1.0
 70
     8
 71
     3
 72
    12
 73
     8
 74
     0
 42
0.0000000001
 43
0.0000000001
 40
0.0
 40
0.0
 40
0.0
 40
0.0
 40
0.7878562625600279
 40
1.184000317423179
 40
2.191858947532162
 40
3.962869177404546
 40
5.720430333429824
 40
5.720430333429824
 40
5.720430333429824
 40
5.720430333429824
 10
9.484427598291376
 20
18.14038495636949
 30
0.0
 10
9.481057658041152
 20
18.40304122541963
 30
0.0
 10
9.467913641100239
 20
18.79733007922703
 30
0.0
 10
9.468396805501186
 20
19.52840397258525
 30
0.0
 10
9.54884974828866
 20
20.58427281879843
 30
0.0
 10
9.744669089600137
 20
22.0839399048547
 30
0.0
 10
9.921084926061098
 20
23.24684454644656
 30
0.0
 10
10.02578705925708
 20
23.82336143708664
 30
0.0
  0
SPLINE
  5
CB
330
1F
100
AcDbEntity
  8
DEFAULT
100
AcDbSpline
210
0.0
220
0.0
230
1.0
 70
    24
 71
     2
 72
     6
 73
     3
 74
     0
 42
0.0000000001
 43
0.0000000001
 40
0.0
 40
0.0
 40
0.0
 40
0.182246548959419
 40
0.182246548959419
 40
0.182246548959419
 10
9.4871680255971
 20
17.94317809118839
 30
0.0
 10
9.48590050622012
 20
18.03429406325542
 30
0.0
 10
9.484632986843138
 20
18.12541003532245
 30
0.0
  0
SPLINE
  5
CC
330
1F
100
AcDbEntity
  8
DEFAULT
100
AcDbSpline
210
0.0
220
0.0
230
1.0
 70
    12
 71
     2
 72
     8
 73
     5
 74
     0
 42
0.0000000001
 43
0.0000000001
 40
-1.126013572061999
 40
-1.126013572061999
 40
-1.126013572061999
 40
-0.562789910270183
 40
-0.562789910270183
 40
0.0
 40
0.0
 40
0.0
 10
9.484632986843138
 20
18.12541003532245
 30
0.0
 41
1.0
 10
9.765204324157615
 20
18.15276055248944
 30
0.0
 41
0.9984620498676386
 10
10.04707858809905
 20
18.14887832513757
 30
0.0
 41
1.0
 10
10.32851922176258
 20
18.16061293795858
 30
0.0
 41
0.9984553286292258
 10
10.60952423145797
 20
18.14104950879124
 30
0.0
 41
1.0
  0
POLYLINE
  5
CD
330
1F
100
AcDbEntity
  8
DEFAULT
100
AcDb2dPolyline
 66
     1
 10
0.0
 20
0.0
 30
0.0
  0
VERTEX
  5
CE
330
CD
100
AcDbEntity
  8
DEFAULT
100
AcDbVertex
100
AcDb2dVertex
 10
10.60952423145797
 20
18.14104950879124
 30
0.0
  0
VERTEX
  5
CF
330
CD
100
AcDbEntity
  8
DEFAULT
100
AcDbVertex
100
AcDb2dVertex
 10
10.85941062438013
 20
0.1780495090836354
 30
0.0
  0
SEQEND
  5
D0
330
CD
100
AcDbEntity
  8
DEFAULT
  0
SPLINE
  5
D1
330
1F
100
AcDbEntity
  8
DEFAULT
100
AcDbSpline
210
0.0
220
0.0
230
1.0
 70
    24
 71
     2
 72
     6
 73
     3
 74
     0
 42
0.0000000001
 43
0.0000000001
 40
0.0
 40
0.0
 40
0.0
 40
0.0884283344012462
 40
0.0884283344012462
 40
0.0884283344012462
 10
8.542435390055033
 20
16.83785239393251
 30
0.0
 10
8.545395548856703
 20
16.79373743001874
 30
0.0
 10
8.548355707658374
 20
16.74962246610496
 30
0.0
  0
SPLINE
  5
D2
330
1F
100
AcDbEntity
  8
DEFAULT
100
AcDbSpline
210
0.0
220
0.0
230
1.0
 70
    12
 71
     2
 72
     8
 73
     5
 74
     0
 42
0.0000000001
 43
0.0000000001
 40
0.0
 40
0.0
 40
0.0
 40
0.0471552986655018
 40
0.0471552986655018
 40
0.0943105973310035
 40
0.0943105973310035
 40
0.0943105973310035
 10
8.548355707658374
 20
16.74962246610496
 30
0.0
 41
1.0
 10
8.547180909631777
 20
16.72428511790164
 30
0.0
 41
0.8975997738324872
 10
8.566513239509618
 20
16.70786493562877
 30
0.0
 41
1.0
 10
8.585845569387455
 20
16.69144475335589
 30
0.0
 41
0.8975997738324872
 10
8.610658807822176
 20
16.69670446463693
 30
0.0
 41
1.0
  0
SPLINE
  5
D3
330
1F
100
AcDbEntity
  8
DEFAULT
100
AcDbSpline
210
0.0
220
0.0
230
1.0
 70
    24
 71
     2
 72
     6
 73
     3
 74
     0
 42
0.0000000001
 43
0.0000000001
 40
0.0
 40
0.0
 40
0.0
 40
0.3614629263831907
 40
0.3614629263831907
 40
0.3614629263831907
 10
8.610658807822176
 20
16.69670446463693
 30
0.0
 10
8.786101548786888
 20
16.74010615158766
 30
0.0
 10
8.9615442897516
 20
16.78350783853839
 30
0.0
  0
SPLINE
  5
D4
330
1F
100
AcDbEntity
  8
DEFAULT
100
AcDbSpline
210
0.0
220
0.0
230
1.0
 70
    12
 71
     2
 72
     8
 73
     5
 74
     0
 42
0.0000000001
 43
0.0000000001
 40
-0.1050980495387224
 40
-0.1050980495387224
 40
-0.1050980495387224
 40
-0.0544259658729994
 40
-0.0544259658729994
 40
0.0
 40
0.0
 40
0.0
 10
8.9615442897516
 20
16.78350783853839
 30
0.0
 41
1.0
 10
8.987123080137074
 20
16.79069992644949
 30
0.0
 41
0.9317365067511197
 10
9.001089038318213
 20
16.81330418839692
 30
0.0
 41
1.0
 10
9.016489703057525
 20
16.83689565095228
 30
0.0
 41
0.9496440122272175
 10
9.014826996882675
 20
16.86501989295255
 30
0.0
 41
1.0
  0
SPLINE
  5
D5
330
1F
100
AcDbEntity
  8
DEFAULT
100
AcDbSpline
210
0.0
220
0.0
230
1.0
 70
    24
 71
     2
 72
     6
 73
     3
 74
     0
 42
0.0000000001
 43
0.0000000001
 40
-0.0227731244339891
 40
-0.0227731244339891
 40
-0.0227731244339891
 40
0.0
 40
0.0
 40
0.0
 10
9.014826996882675
 20
16.86501989295255
 30
0.0
 10
9.01406466131239
 20
16.87638090715023
 30
0.0
 10
9.013302325742103
 20
16.8877419213479
 30
0.0
  0
SPLINE
  5
D6
330
1F
100
AcDbEntity
  8
DEFAULT
100
AcDbSpline
210
0.0
220
0.0
230
1.0
 70
    12
 71
     2
 72
     8
 73
     5
 74
     0
 42
0.0000000001
 43
0.0000000001
 40
0.0
 40
0.0
 40
0.0
 40
0.0165110924637132
 40
0.0165110924637132
 40
0.1543477838612571
 40
0.1543477838612571
 40
0.1543477838612571
 10
9.026837876693975
 20
16.88921605425202
 30
0.0
 41
1.0
 10
9.027415417966608
 20
16.88055801109368
 30
0.0
 41
1.0
 10
9.027992959239242
 20
16.87189996793534
 30
0.0
 41
1.0
 10
9.032872452580857
 20
16.79159003149826
 30
0.0
 41
0.8101392455592907
 10
8.952968464604027
 20
16.76052263476886
 30
0.0
 41
1.0
  0
SPLINE
  5
D7
330
1F
100
AcDbEntity
  8
DEFAULT
100
AcDbSpline
210
0.0
220
0.0
230
1.0
 70
    12
 71
     5
 72
    32
 73
    26
 74
     0
 42
0.0000000001
 43
0.0000000001
 40
-1.349413554296205
 40
-1.349413554296205
 40
-1.349413554296205
 40
-1.349413554296205
 40
-1.349413554296205
 40
-1.349413554296205
 40
-1.0
 40
-1.0
 40
-1.0
 40
-1.0
 40
-1.0
 40
0.0
 40
0.0
 40
0.0
 40
0.0
 40
0.0
 40
0.0500800887229542
 40
0.0500800887229542
 40
0.0500800887229542
 40
0.0500800887229542
 40
0.0500800887229542
 40
0.1338010880470246
 40
0.1338010880470246
 40
0.1338010880470246
 40
0.1338010880470246
 40
0.1338010880470246
 40
0.1964928401470981
 40
0.1964928401470981
 40
0.1964928401470981
 40
0.1964928401470981
 40
0.1964928401470981
 40
0.1964928401470981
 10
8.952968464604027
 20
16.76052263476886
 30
0.0
 41
1.0
 10
8.879200693422893
 20
16.7421067211354
 30
0.0
 41
1.0
 10
8.811362951600426
 20
16.72532476471
 30
0.0
 41
1.0
 10
8.74352520977796
 20
16.70854280828459
 30
0.0
 41
1.0
 10
8.675687467955493
 20
16.69176085185919
 30
0.0
 41
1.0
 10
8.607849726133026
 20
16.67497889543379
 30
0.0
 41
1.0
 10
8.59342930718981
 20
16.6714115178083
 30
0.0
 41
1.0
 10
8.579008888246594
 20
16.66784414018282
 30
0.0
 41
1.0
 10
8.562101280720167
 20
16.67320866920164
 30
0.0
 41
1.0
 10
8.548045336709242
 20
16.67801544604089
 30
0.0
 41
1.0
 10
8.533989392698317
 20
16.68282222288014
 30
0.0
 41
1.0
 10
8.524512199871486
 20
16.68606318278619
 30
0.0
 41
1.0
 10
8.515035007044656
 20
16.68930414269225
 30
0.0
 41
1.0
 10
8.505557814217827
 20
16.6925451025983
 30
0.0
 41
1.0
 10
8.496080621390997
 20
16.69578606250436
 30
0.0
 41
1.0
 10
8.486603428564166
 20
16.69902702241041
 30
0.0
 41
1.0
 10
8.470568130457064
 20
16.70487025691554
 30
0.0
 41
0.886189080138356
 10
8.456939738075782
 20
16.71661649989304
 30
0.0
 41
0.8292836202075341
 10
8.449019278927718
 20
16.73306286270907
 30
0.0
 41
0.8292836202075341
 10
8.448332558444639
 20
16.75104110104235
 30
0.0
 41
0.8861890801383561
 10
8.453761893384097
 20
16.76722051888701
 30
0.0
 41
1.0
 10
8.455789164598746
 20
16.77959490796492
 30
0.0
 41
0.9995210355482312
 10
8.457513429332066
 20
16.79201741904423
 30
0.0
 41
0.9992815533223467
 10
8.458933230050633
 20
16.80447915539436
 30
0.0
 41
0.9992815533223469
 10
8.460047546214543
 20
16.81697115963199
 30
0.0
 41
0.9995210355482312
 10
8.460855796721404
 20
16.8294844351723
 30
0.0
 41
1.0
  0
SPLINE
  5
D8
330
1F
100
AcDbEntity
  8
DEFAULT
100
AcDbSpline
210
0.0
220
0.0
230
1.0
 70
    12
 71
     3
 72
    13
 73
     9
 74
     0
 42
0.0000000001
 43
0.0000000001
 40
-0.316572622776446
 40
-0.316572622776446
 40
-0.316572622776446
 40
-0.316572622776446
 40
-0.3141558423604641
 40
-0.0573429062699113
 40
0.0
 40
0.0
 40
0.0
 40
0.1902251592942832
 40
0.1902251592942832
 40
0.1902251592942832
 40
0.1902251592942832
 10
8.959394407179758
 20
0.2501860175645376
 30
0.0
 41
1.0
 10
8.959393838972659
 20
0.2498544345145746
 30
0.0
 41
1.0
 10
8.959909362228416
 20
0.214296486031202
 30
0.0
 41
1.0
 10
9.036255434741975
 20
0.1721042356648113
 30
0.0
 41
1.0
 10
9.175932250783319
 20
0.1467166346114865
 30
0.0
 41
1.0
 10
9.246014971205781
 20
0.1374249029789318
 30
0.0
 41
1.0
 10
9.337792887069726
 20
0.1281058720048054
 30
0.0
 41
0.9993313691336558
 10
9.415474467343264
 20
0.1233673563041122
 30
0.0
 41
0.9993313691336558
 10
9.523898228511271
 20
0.123910767859428
 30
0.0
 41
1.0
  0
SPLINE
  5
D9
330
1F
100
AcDbEntity
  8
DEFAULT
100
AcDbSpline
210
0.0
220
0.0
230
1.0
 70
    12
 71
     2
 72
     6
 73
     3
 74
     0
 42
0.0000000001
 43
0.0000000001
 40
0.0
 40
0.0
 40
0.0
 40
0.1664592237014624
 40
0.1664592237014624
 40
0.1664592237014624
 10
9.523898228511271
 20
0.123910767859428
 30
0.0
 41
1.0
 10
9.652116431703186
 20
0.1273973942237912
 30
0.0
 41
0.999258636387584
 10
9.734878563802198
 20
0.136587159471155
 30
0.0
 41
1.0
  0
SPLINE
  5
DA
330
1F
100
AcDbEntity
  8
DEFAULT
100
AcDbSpline
210
0.0
220
0.0
230
1.0
 70
    12
 71
     2
 72
     6
 73
     3
 74
     0
 42
0.0000000001
 43
0.0000000001
 40
-0.2004902742673454
 40
-0.2004902742673454
 40
-0.2004902742673454
 40
0.0
 40
0.0
 40
0.0
 10
8.95939798461336
 20
0.2496621210540582
 30
0.0
 41
1.0
 10
8.960939963646075
 20
0.1494288398350443
 30
0.0
 41
0.9999999369853753
 10
8.962597969212297
 20
0.0491856068599787
 30
0.0
 41
1.0
  0
SPLINE
  5
DB
330
1F
100
AcDbEntity
  8
DEFAULT
100
AcDbSpline
210
0.0
220
0.0
230
1.0
 70
    12
 71
     2
 72
     6
 73
     3
 74
     0
 42
0.0000000001
 43
0.0000000001
 40
-0.0784805824544201
 40
-0.0784805824544201
 40
-0.0784805824544201
 40
0.0
 40
0.0
 40
0.0
 10
8.962597969212297
 20
0.0491856068599787
 30
0.0
 41
1.0
 10
8.96360272976867
 20
-0.0006797836398309
 30
0.0
 41
0.7090345959967733
 10
9.017234338080058
 20
0.0000693463675532
 30
0.0
 41
1.0
  0
SPLINE
  5
DC
330
1F
100
AcDbEntity
  8
DEFAULT
100
AcDbSpline
210
0.0
220
0.0
230
1.0
 70
     8
 71
     3
 72
    10
 73
     6
 74
     0
 42
0.0000000001
 43
0.0000000001
 40
0.0
 40
0.0
 40
0.0
 40
0.0
 40
0.0051614376977289
 40
0.0076964859399476
 40
0.5184066067045128
 40
0.5184066067045128
 40
0.5184066067045128
 40
0.5184066067045128
 10
9.017234338080058
 20
0.0000693463675532
 30
0.0
 10
9.02412576353754
 20
0.000181633121116
 30
0.0
 10
9.010661828058431
 20
-0.0000376096013426
 30
0.0
 10
9.181537450231417
 20
0.0027402190062418
 30
0.0
 10
9.35433213697695
 20
0.0055504775875264
 30
0.0
 10
9.52579306011799
 20
0.0083386225463222
 30
0.0
  0
SPLINE
  5
DD
330
1F
100
AcDbEntity
  8
DEFAULT
100
AcDbSpline
210
0.0
220
0.0
230
1.0
 70
    12
 71
     2
 72
     6
 73
     3
 74
     0
 42
0.0000000001
 43
0.0000000001
 40
0.0
 40
0.0
 40
0.0
 40
0.2651910966065845
 40
0.2651910966065845
 40
0.2651910966065845
 10
9.52579306011799
 20
0.0083386225463222
 30
0.0
 41
1.0
 10
9.660209857204935
 20
0.0105244918593709
 30
0.0
 41
0.9999999999998926
 10
9.792787874633035
 20
0.0126805820282385
 30
0.0
 41
1.0
  0
SPLINE
  5
DE
330
1F
100
AcDbEntity
  8
DEFAULT
100
AcDbSpline
210
0.0
220
0.0
230
1.0
 70
    12
 71
     2
 72
     6
 73
     3
 74
     0
 42
0.0000000001
 43
0.0000000001
 40
-0.3687350703256946
 40
-0.3687350703256946
 40
-0.3687350703256946
 40
0.0
 40
0.0
 40
0.0
 10
9.208758175659284
 20
16.90924475555264
 30
0.0
 41
1.0
 10
9.089615493493165
 20
16.76173510362477
 30
0.0
 41
0.958996314771429
 10
8.909427877367534
 20
16.70268851929861
 30
0.0
 41
1.0
  0
ARC
  5
DF
330
1F
100
AcDbEntity
  8
DEFAULT
100
AcDbCircle
 10
0.8340655899287375
 20
47.30381471572219
 30
0.0
 40
31.6487029838954
100
AcDbArc
 50
282.9925821655289
 51
284.7828399908281
  0
ARC
  5
E0
330
1F
100
AcDbEntity
  8
DEFAULT
100
AcDbCircle
 10
17.31739563334625
 20
-24.13552727969294
 30
0.0
 40
41.66759639119658
100
AcDbArc
 50
102.9925821655294
 51
107.6280013344518
  0
POLYLINE
  5
E1
330
1F
100
AcDbEntity
  8
DEFAULT
100
AcDb2dPolyline
 66
     1
 10
0.0
 20
0.0
 30
0.0
  0
VERTEX
  5
E2
330
E1
100
AcDbEntity
  8
DEFAULT
100
AcDbVertex
100
AcDb2dVertex
 10
9.734519379765274
 20
0.1624130624329476
 30
0.0
  0
VERTEX
  5
E3
330
E1
100
AcDbEntity
  8
DEFAULT
100
AcDbVertex
100
AcDb2dVertex
 10
9.501108632818244
 20
16.94227796715696
 30
0.0
  0
SEQEND
  5
E4
330
E1
100
AcDbEntity
  8
DEFAULT
  0
SPLINE
  5
E5
330
1F
100
AcDbEntity
  8
DEFAULT
100
AcDbSpline
210
0.0
220
0.0
230
1.0
 70
    12
 71
     2
 72
     6
 73
     3
 74
     0
 42
0.0000000001
 43
0.0000000001
 40
0.0
 40
0.0
 40
0.0
 40
0.5069875979584633
 40
0.5069875979584633
 40
0.5069875979584633
 10
9.792677585448033
 20
0.0194648352168203
 30
0.0
 41
1.0
 10
10.04523416437036
 20
0.0440923159131805
 30
0.0
 41
0.9984597417000961
 10
10.2989684691246
 20
0.0405872072049905
 30
0.0
 41
1.0
  0
SPLINE
  5
E6
330
1F
100
AcDbEntity
  8
DEFAULT
100
AcDbSpline
210
0.0
220
0.0
230
1.0
 70
    12
 71
     2
 72
     6
 73
     3
 74
     0
 42
0.0000000001
 43
0.0000000001
 40
0.0
 40
0.0
 40
0.0
 40
0.5065890987312437
 40
0.5065890987312437
 40
0.5065890987312437
 10
10.2989684691246
 20
0.0405872072049905
 30
0.0
 41
1.0
 10
10.55230812145842
 20
0.0511606312494932
 30
0.0
 41
0.9984529850107059
 10
10.80525129223265
 20
0.0335400220301522
 30
0.0
 41
1.0
  0
SPLINE
  5
E7
330
1F
100
AcDbEntity
  8
DEFAULT
100
AcDbSpline
210
0.0
220
0.0
230
1.0
 70
     8
 71
     2
 72
    11
 73
     8
 74
     0
 42
0.0000000001
 43
0.0000000001
 40
0.0
 40
0.0
 40
0.0
 40
1.0
 40
2.0
 40
3.0
 40
4.0
 40
5.0
 40
6.0
 40
6.0
 40
6.0
 10
9.734519379765274
 20
0.1624130624329476
 30
0.0
 10
9.827929314652366
 20
0.1715073297669419
 30
0.0
 10
10.01529441526152
 20
0.182861890789028
 30
0.0
 10
10.20294926461912
 20
0.1868695121675202
 30
0.0
 10
10.39063476903175
 20
0.1863420518246407
 30
0.0
 10
10.57826779584448
 20
0.1907790531485547
 30
0.0
 10
10.76596852542744
 20
0.1873453228210305
 30
0.0
 10
10.85941062438013
 20
0.1780495090836354
 30
0.0
  0
SPLINE
  5
E8
330
1F
100
AcDbEntity
  8
DEFAULT
100
AcDbSpline
210
0.0
220
0.0
230
1.0
 70
    24
 71
     2
 72
     6
 73
     3
 74
     0
 42
0.0000000001
 43
0.0000000001
 40
0.0
 40
0.0
 40
0.0
 40
0.0838826130654592
 40
0.0838826130654592
 40
0.0838826130654592
 10
9.734519421868299
 20
0.1624070089468379
 30
0.0
 10
9.73510283917686
 20
0.1204682467996241
 30
0.0
 10
9.735686256485423
 20
0.0785294846524102
 30
0.0
  0
SPLINE
  5
E9
330
1F
100
AcDbEntity
  8
DEFAULT
100
AcDbSpline
210
0.0
220
0.0
230
1.0
 70
    12
 71
     2
 72
     6
 73
     3
 74
     0
 42
0.0000000001
 43
0.0000000001
 40
0.0
 40
0.0
 40
0.0
 40
0.090509536218289
 40
0.090509536218289
 40
0.090509536218289
 10
9.735686256485423
 20
0.0785294846524102
 30
0.0
 41
1.0
 10
9.73772913902449
 20
0.0235689307472339
 30
0.0
 41
0.7543192092771731
 10
9.797449851394617
 20
0.017355560770371
 30
0.0
 41
1.0
  0
SPLINE
  5
EA
330
1F
100
AcDbEntity
  8
DEFAULT
100
AcDbSpline
210
0.0
220
0.0
230
1.0
 70
    12
 71
     2
 72
     6
 73
     3
 74
     0
 42
0.0000000001
 43
0.0000000001
 40
0.0
 40
0.0
 40
0.0
 40
0.0287637614208012
 40
0.0287637614208012
 40
0.0287637614208012
 10
9.797449851394617
 20
0.017355560770371
 30
0.0
 41
1.0
 10
9.816772075912134
 20
0.015286083152476
 30
0.0
 41
0.9996656851759237
 10
9.831141401960423
 20
0.0146127091278879
 30
0.0
 41
1.0
  0
SPLINE
  5
EB
330
1F
100
AcDbEntity
  8
DEFAULT
100
AcDbSpline
210
0.0
220
0.0
230
1.0
 70
    12
 71
     2
 72
     6
 73
     3
 74
     0
 42
0.0000000001
 43
0.0000000001
 40
-0.4678786518234926
 40
-0.4678786518234926
 40
-0.4678786518234926
 40
0.0
 40
0.0
 40
0.0
 10
9.831141401960423
 20
0.0146127091278879
 30
0.0
 41
1.0
 10
10.06502499463271
 20
0.0075600148960759
 30
0.0
 41
0.99967599695013
 10
10.29896443884034
 20
0.0124177060636798
 30
0.0
 41
1.0
  0
SPLINE
  5
EC
330
1F
100
AcDbEntity
  8
DEFAULT
100
AcDbSpline
210
0.0
220
0.0
230
1.0
 70
    12
 71
     2
 72
     6
 73
     3
 74
     0
 42
0.0000000001
 43
0.0000000001
 40
-0.4681485405974239
 40
-0.4681485405974239
 40
-0.4681485405974239
 40
0.0
 40
0.0
 40
0.0
 10
10.29896443884034
 20
0.0124177060636798
 30
0.0
 41
1.0
 10
10.53308336678807
 20
0.0140692428463913
 30
0.0
 41
0.9996765963466816
 10
10.76681567086501
 20
0.0276202818457507
 30
0.0
 41
1.0
  0
SPLINE
  5
ED
330
1F
100
AcDbEntity
  8
DEFAULT
100
AcDbSpline
210
0.0
220
0.0
230
1.0
 70
    12
 71
     2
 72
     6
 73
     3
 74
     0
 42
0.0000000001
 43
0.0000000001
 40
0.0
 40
0.0
 40
0.0
 40
0.0149504543859661
 40
0.0149504543859661
 40
0.0149504543859661
 10
10.76681567086501
 20
0.0276202818457507
 30
0.0
 41
1.0
 10
10.7742677329831
 20
0.0282111214671106
 30
0.0
 41
0.9999561228672283
 10
10.78170867019165
 20
0.028955378737882
 30
0.0
 41
1.0
  0
SPLINE
  5
EE
330
1F
100
AcDbEntity
  8
DEFAULT
100
AcDbSpline
210
0.0
220
0.0
230
1.0
 70
    12
 71
     2
 72
     6
 73
     3
 74
     0
 42
0.0000000001
 43
0.0000000001
 40
-0.0147217657248775
 40
-0.0147217657248775
 40
-0.0147217657248775
 40
0.0
 40
0.0
 40
0.0
 10
10.78170867019165
 20
0.028955378737882
 30
0.0
 41
1.0
 10
10.7890388340968
 20
0.0296741409247309
 30
0.0
 41
0.9996253281867565
 10
10.80091658103225
 20
0.0314136768626967
 30
0.0
 41
1.0
  0
SPLINE
  5
EF
330
1F
100
AcDbEntity
  8
DEFAULT
100
AcDbSpline
210
0.0
220
0.0
230
1.0
 70
    12
 71
     2
 72
     6
 73
     3
 74
     0
 42
0.0000000001
 43
0.0000000001
 40
0.0
 40
0.0
 40
0.0
 40
0.0905125898444878
 40
0.0905125898444878
 40
0.0905125898444878
 10
10.80091658103225
 20
0.0314136768626967
 30
0.0
 41
1.0
 10
10.85997008962594
 20
0.0392438997650774
 30
0.0
 41
0.7556419620120104
 10
10.8605775009428
 20
0.0941719852639064
 30
0.0
 41
1.0
  0
SPLINE
  5
F0
330
1F
100
AcDbEntity
  8
DEFAULT
100
AcDbSpline
210
0.0
220
0.0
230
1.0
 70
    24
 71
     2
 72
     6
 73
     3
 74
     0
 42
0.0000000001
 43
0.0000000001
 40
0.0
 40
0.0
 40
0.0
 40
0.0838826131717245
 40
0.0838826131717245
 40
0.0838826131717245
 10
10.8605775009428
 20
0.0941719852639064
 30
0.0
 10
10.85999408371222
 20
0.1361107474666116
 30
0.0
 10
10.85941066648165
 20
0.1780495096693168
 30
0.0
  0
SPLINE
  5
F1
330
1F
100
AcDbEntity
  8
DEFAULT
100
AcDbSpline
210
0.0
220
0.0
230
1.0
 70
     8
 71
     2
 72
     9
 73
     6
 74
     0
 42
0.0000000001
 43
0.0000000001
 40
2.020322663502027
 40
2.020322663502027
 40
2.020322663502027
 40
3.0
 40
4.0
 40
5.0
 40
6.0
 40
6.0
 40
6.0
 10
9.667933338300996
 20
61.02815934188911
 30
0.0
 10
9.660072531324204
 20
61.12170724979291
 30
0.0
 10
9.633003343408205
 20
61.30959612831992
 30
0.0
 10
9.583189056844475
 20
61.49495774354649
 30
0.0
 10
9.502300219732788
 20
61.66950774381552
 30
0.0
 10
9.444444315482215
 20
61.74613979210507
 30
0.0
  0
SPLINE
  5
F2
330
1F
100
AcDbEntity
  8
DEFAULT
100
AcDbSpline
210
0.0
220
0.0
230
1.0
 70
    12
 71
     2
 72
     8
 73
     5
 74
     0
 42
0.0000000001
 43
0.0000000001
 40
-3.0
 40
-3.0
 40
-3.0
 40
-2.0
 40
-1.0
 40
0.0
 40
0.0
 40
0.0
 10
9.808061667404175
 20
61.47615068487386
 30
0.0
 41
1.0
 10
9.805392058688057
 20
61.43608123939931
 30
0.0
 41
1.0
 10
9.800444412906472
 20
61.35591626016576
 30
0.0
 41
1.0
 10
9.786514540534313
 20
61.0680690609728
 30
0.0
 41
1.0
 10
9.783972834294474
 20
61.02799129905018
 30
0.0
 41
1.0
  0
SPLINE
  5
F3
330
1F
100
AcDbEntity
  8
DEFAULT
100
AcDbSpline
210
0.0
220
0.0
230
1.0
 70
     8
 71
     3
 72
     8
 73
     4
 74
     0
 42
0.0000000001
 43
0.0000000001
 40
0.0000000000000001
 40
0.0000000000000001
 40
0.0000000000000001
 40
0.0000000000000001
 40
0.0308111800759202
 40
0.0308111800759202
 40
0.0308111800759202
 40
0.0308111800759202
 10
9.783972834294474
 20
61.02799129905018
 30
0.0
 10
9.783323732361891
 20
61.01775622455189
 30
0.0
 10
9.782674585490128
 20
61.00751758143244
 30
0.0
 10
9.782024415277492
 20
60.99727600774082
 30
0.0
  0
SPLINE
  5
F4
330
1F
100
AcDbEntity
  8
DEFAULT
100
AcDbSpline
210
0.0
220
0.0
230
1.0
 70
    12
 71
     2
 72
     6
 73
     3
 74
     0
 42
0.0000000001
 43
0.0000000001
 40
0.0
 40
0.0
 40
0.0
 40
19.04348847755149
 40
19.04348847755149
 40
19.04348847755149
 10
9.501108632818244
 20
16.94227796715696
 30
0.0
 41
1.0
 10
0.0000785878812382
 20
15.85169226633135
 30
0.0
 41
0.9934764860842247
 10
-9.500951653360886
 20
16.9422762569727
 30
0.0
 41
1.0
  0
SPLINE
  5
F5
330
1F
100
AcDbEntity
  8
DEFAULT
100
AcDbSpline
210
0.0
220
0.0
230
1.0
 70
    24
 71
     2
 72
     6
 73
     3
 74
     0
 42
0.0000000001
 43
0.0000000001
 40
0.0
 40
0.0
 40
0.0
 40
16.40449565683652
 40
16.40449565683652
 40
16.40449565683652
 10
8.959389723938813
 20
0.2501859601332512
 30
0.0
 10
8.833274054489678
 20
8.451464170065616
 30
0.0
 10
8.707158385040543
 20
16.65274237999798
 30
0.0
  0
SPLINE
  5
F6
330
1F
100
AcDbEntity
  8
DEFAULT
100
AcDbSpline
210
0.0
220
0.0
230
1.0
 70
    12
 71
     2
 72
     6
 73
     3
 74
     0
 42
0.0000000001
 43
0.0000000001
 40
0.0
 40
0.0
 40
0.0
 40
0.6756478290434975
 40
0.6756478290434975
 40
0.6756478290434975
 10
8.81583010973091
 20
17.87220512915811
 30
0.0
 41
1.0
 10
9.151712884282391
 20
17.90838576697233
 30
0.0
 41
0.999991591086868
 10
9.48728761407898
 20
17.94732003870025
 30
0.0
 41
1.0
  0
SPLINE
  5
F7
330
1F
100
AcDbEntity
  8
DEFAULT
100
AcDbSpline
210
0.0
220
0.0
230
1.0
 70
    12
 71
     2
 72
     6
 73
     3
 74
     0
 42
0.0000000001
 43
0.0000000001
 40
0.0
 40
0.0
 40
0.0
 40
0.5806136477528836
 40
0.5806136477528836
 40
0.5806136477528836
 10
9.555838015382049
 20
46.59722469940958
 30
0.0
 41
1.0
 10
9.716810214766275
 20
46.8719994308032
 30
0.0
 41
0.8725415371224636
 10
10.03520074697334
 20
46.87837681176455
 30
0.0
 41
1.0
  0
SPLINE
  5
F8
330
1F
100
AcDbEntity
  8
DEFAULT
100
AcDbSpline
210
0.0
220
0.0
230
1.0
 70
    12
 71
     2
 72
     6
 73
     3
 74
     0
 42
0.0000000001
 43
0.0000000001
 40
0.0
 40
0.0
 40
0.0
 40
0.8667631261804846
 40
0.8667631261804846
 40
0.8667631261804846
 10
9.779416074620398
 20
45.79558988956663
 30
0.0
 41
1.0
 10
9.346036880513104
 20
45.79415597683605
 30
0.0
 41
0.9999999889617855
 10
8.912657279435278
 20
45.79285084833133
 30
0.0
 41
1.0
  0
SPLINE
  5
F9
330
1F
100
AcDbEntity
  8
DEFAULT
 62
    15
100
AcDbSpline
210
0.0
220
0.0
230
1.0
 70
    12
 71
     2
 72
     6
 73
     3
 74
     0
 42
0.0000000001
 43
0.0000000001
 40
0.0
 40
0.0
 40
0.0
 40
0.0039883534300923
 40
0.0039883534300923
 40
0.0039883534300923
 10
9.551486962441599
 20
46.5897083893566
 30
0.0
 41
1.0
 10
9.55247328633882
 20
46.59144157601914
 30
0.0
 41
0.9999943295923494
 10
9.553471261184738
 20
46.5931680803036
 30
0.0
 41
1.0
  0
SPLINE
  5
FA
330
1F
100
AcDbEntity
  8
DEFAULT
100
AcDbSpline
210
0.0
220
0.0
230
1.0
 70
    12
 71
     2
 72
     6
 73
     3
 74
     0
 42
0.0000000001
 43
0.0000000001
 40
0.0
 40
0.0
 40
0.0
 40
0.8053367947165757
 40
0.8053367947165757
 40
0.8053367947165757
 10
8.945419045396788
 20
46.79295427950913
 30
0.0
 41
1.0
 10
9.34808560454315
 20
46.79417183390316
 30
0.0
 41
0.9999999904602095
 10
9.750751811965328
 20
46.79550062799319
 30
0.0
 41
1.0
  0
SPLINE
  5
FB
330
1F
100
AcDbEntity
  8
DEFAULT
100
AcDbSpline
210
0.0
220
0.0
230
1.0
 70
     8
 71
     3
 72
    17
 73
    13
 74
     0
 42
0.0000000001
 43
0.0000000001
 40
0.0
 40
0.0
 40
0.0
 40
0.0
 40
0.0047195487793021
 40
0.0094332170594017
 40
0.0238655807282687
 40
0.0671615523774499
 40
0.1755398295510834
 40
0.3480399467799769
 40
0.4715619212285612
 40
0.5666415614261937
 40
0.7713350354149381
 40
1.204786480809649
 40
1.204786480809649
 40
1.204786480809649
 40
1.204786480809649
 10
9.489630343496543
 20
17.94321234491473
 30
0.0
 10
9.488661866399895
 20
17.94399136731202
 30
0.0
 10
9.485856025737093
 20
17.94866678844254
 30
0.0
 10
9.494224874253575
 20
17.9428057155701
 30
0.0
 10
9.509528264681308
 20
17.92986987020993
 30
0.0
 10
9.549626926241473
 20
17.89104666530367
 30
0.0
 10
9.625716506268219
 20
17.81489638776856
 30
0.0
 10
9.713454634722495
 20
17.71151313782854
 30
0.0
 10
9.782898677825045
 20
17.60149910190646
 30
0.0
 10
9.812613587711922
 20
17.45772820420689
 30
0.0
 10
9.71909580410042
 20
17.22540394127058
 30
0.0
 10
9.582616395393927
 20
17.06193564061262
 30
0.0
 10
9.501091075614681
 20
16.94243092575727
 30
0.0
  0
SPLINE
  5
FC
330
1F
100
AcDbEntity
  8
DEFAULT
100
AcDbSpline
210
0.0
220
0.0
230
1.0
 70
    24
 71
     2
 72
     6
 73
     3
 74
     0
 42
0.0000000001
 43
0.0000000001
 40
0.0
 40
0.0
 40
0.0
 40
0.0001477489785947
 40
0.0001477489785947
 40
0.0001477489785947
 10
8.944336426977955
 20
18.48382681667034
 30
0.0
 10
8.944322050958021
 20
18.4838992788689
 30
0.0
 10
8.944307674938088
 20
18.48397174106745
 30
0.0
  0
SPLINE
  5
FD
330
1F
100
AcDbEntity
  8
DEFAULT
100
AcDbSpline
210
0.0
220
0.0
230
1.0
 70
    12
 71
     2
 72
     6
 73
     3
 74
     0
 42
0.0000000001
 43
0.0000000001
 40
0.0
 40
0.0
 40
0.0
 40
2.423793056935102
 40
2.423793056935102
 40
2.423793056935102
 10
0.5820347176024825
 20
16.16298067941642
 30
0.0
 41
1.0
 10
1.794150894868708
 20
16.21129736156455
 30
0.0
 41
0.9985387582686867
 10
2.993973009372795
 20
16.39014652290243
 30
0.0
 41
1.0
  0
SPLINE
  5
FE
330
1F
100
AcDbEntity
  8
DEFAULT
100
AcDbSpline
210
0.0
220
0.0
230
1.0
 70
    12
 71
     2
 72
     8
 73
     5
 74
     0
 42
0.0000000001
 43
0.0000000001
 40
0.0
 40
0.0
 40
0.0
 40
1.570796326794897
 40
1.570796326794897
 40
3.141592653589793
 40
3.141592653589793
 40
3.141592653589793
 10
10.08007788435725
 20
65.84508627010612
 30
0.0
 41
1.0
 10
10.11708377637188
 20
66.43994101946241
 30
0.0
 41
0.7071067811865475
 10
9.55568465898645
 20
66.47486563784624
 30
0.0
 41
1.0
 10
8.994285541601034
 20
66.50979025623006
 30
0.0
 41
0.7071067811865475
 10
8.957279649586397
 20
65.91493550687377
 30
0.0
 41
1.0
  0
SPLINE
  5
FF
330
1F
100
AcDbEntity
  8
DEFAULT
100
AcDbSpline
210
0.0
220
0.0
230
1.0
 70
     8
 71
     2
 72
    11
 73
     8
 74
     0
 42
0.0000000001
 43
0.0000000001
 40
0.0
 40
0.0
 40
0.0
 40
1.0
 40
2.0
 40
3.0
 40
4.0
 40
5.0
 40
6.0
 40
6.0
 40
6.0
 10
9.356630980129523
 20
62.04605054382793
 30
0.0
 10
9.421919879349218
 20
62.03360923254479
 30
0.0
 10
9.5430780443685
 20
61.97892810859325
 30
0.0
 10
9.648088631134073
 20
61.89742554496718
 30
0.0
 10
9.73114170892758
 20
61.7936426389284
 30
0.0
 10
9.787576848395616
 20
61.67324875943548
 30
0.0
 10
9.812162408258388
 20
61.5425209613641
 30
0.0
 10
9.808078907190648
 20
61.47615743314853
 30
0.0
  0
SPLINE
  5
100
330
1F
100
AcDbEntity
  8
DEFAULT
100
AcDbSpline
210
0.0
220
0.0
230
1.0
 70
    12
 71
     2
 72
     6
 73
     3
 74
     0
 42
0.0000000001
 43
0.0000000001
 40
-1.159140194503718
 40
-1.159140194503718
 40
-1.159140194503718
 40
0.0
 40
0.0
 40
0.0
 10
-8.501339865335098
 20
18.49689527264023
 30
0.0
 41
1.0
 10
-8.200331524944122
 20
19.00738266576521
 30
0.0
 41
0.9672838163369827
 10
-7.68729246927316
 20
19.30456946681521
 30
0.0
 41
1.0
  0
SPLINE
  5
101
330
1F
100
AcDbEntity
  8
DEFAULT
100
AcDbSpline
210
0.0
220
0.0
230
1.0
 70
     8
 71
     3
 72
    12
 73
     8
 74
     0
 42
0.0000000001
 43
0.0000000001
 40
-7.894681883043148
 40
-7.894681883043148
 40
-7.894681883043148
 40
-7.894681883043148
 40
-4.89328680666405
 40
-3.607507320650333
 40
-2.584983022344898
 40
-1.409468345024047
 40
0.0
 40
0.0
 40
0.0
 40
0.0
 10
-7.68729246927316
 20
19.30456946681521
 30
0.0
 10
-6.830430157696895
 20
19.83044753251617
 30
0.0
 10
-5.44317163554598
 20
20.25225775873664
 30
0.0
 10
-3.689544780288173
 20
20.47202703704514
 30
0.0
 10
-2.532892209525698
 20
20.58802254629132
 30
0.0
 10
-1.33158175957179
 20
20.64098293152931
 30
0.0
 10
-0.4697858141703506
 20
20.65164279685978
 30
0.0
 10
0.0
 20
20.6509019585564
 30
0.0
  0
SPLINE
  5
102
330
1F
100
AcDbEntity
  8
DEFAULT
100
AcDbSpline
210
0.0
220
0.0
230
1.0
 70
     8
 71
     3
 72
    12
 73
     8
 74
     0
 42
0.0000000001
 43
0.0000000001
 40
0.0
 40
0.0
 40
0.0
 40
0.0
 40
1.409468345024047
 40
2.584983022344898
 40
3.607507320650333
 40
4.89328680666405
 40
7.894681883043148
 40
7.894681883043148
 40
7.894681883043148
 40
7.894681883043148
 10
0.0
 20
20.6509019585564
 30
0.0
 10
0.4697858141703506
 20
20.65164279685978
 30
0.0
 10
1.33158175957179
 20
20.64098293152931
 30
0.0
 10
2.532892209525698
 20
20.58802254629132
 30
0.0
 10
3.689544780288173
 20
20.47202703704514
 30
0.0
 10
5.44317163554598
 20
20.25225775873664
 30
0.0
 10
6.830430157696895
 20
19.83044753251617
 30
0.0
 10
7.68729246927316
 20
19.30456946681521
 30
0.0
  0
SPLINE
  5
103
330
1F
100
AcDbEntity
  8
DEFAULT
100
AcDbSpline
210
0.0
220
0.0
230
1.0
 70
    12
 71
     2
 72
     6
 73
     3
 74
     0
 42
0.0000000001
 43
0.0000000001
 40
0.0
 40
0.0
 40
0.0
 40
1.159140194503718
 40
1.159140194503718
 40
1.159140194503718
 10
7.68729246927316
 20
19.30456946681521
 30
0.0
 41
1.0
 10
8.200331524944126
 20
19.00738266576521
 30
0.0
 41
0.9672838163369827
 10
8.501339865335098
 20
18.49689527264023
 30
0.0
 41
1.0
  0
SPLINE
  5
104
330
1F
100
AcDbEntity
  8
DEFAULT
100
AcDbSpline
210
0.0
220
0.0
230
1.0
 70
    12
 71
     2
 72
     6
 73
     3
 74
     0
 42
0.0000000001
 43
0.0000000001
 40
0.0
 40
0.0
 40
0.0
 40
2.061631574185771
 40
2.061631574185771
 40
2.061631574185771
 10
27.54813593206745
 20
17.80991481515736
 30
0.0
 41
1.0
 10
27.79189045789716
 20
18.81160326069643
 30
0.0
 41
0.9998484010904932
 10
28.00061984023964
 20
19.82117151283983
 30
0.0
 41
1.0
  0
SPLINE
  5
105
330
1F
100
AcDbEntity
  8
DEFAULT
100
AcDbSpline
210
0.0
220
0.0
230
1.0
 70
    24
 71
     2
 72
     6
 73
     3
 74
     0
 42
0.0000000001
 43
0.0000000001
 40
-0.0539779438293136
 40
-0.0539779438293136
 40
-0.0539779438293136
 40
0.0
 40
0.0
 40
0.0
 10
39.94106098436089
 20
17.03391842538412
 30
0.0
 10
39.9679626426058
 20
17.03651152260289
 30
0.0
 10
39.99486430085071
 20
17.03910461982165
 30
0.0
  0
SPLINE
  5
106
330
1F
100
AcDbEntity
  8
DEFAULT
100
AcDbSpline
210
0.0
220
0.0
230
1.0
 70
    12
 71
     3
 72
    12
 73
     8
 74
     0
 42
0.0000000001
 43
0.0000000001
 40
2.243370895977966
 40
2.243370895977966
 40
2.243370895977966
 40
2.243370895977966
 40
2.411132418445384
 40
2.411132418445384
 40
2.598945533022796
 40
2.598945533022796
 40
2.956562920478512
 40
2.956562920478512
 40
2.956562920478512
 40
2.956562920478512
 10
39.99486430085071
 20
17.03910461982165
 30
0.0
 41
1.0
 10
40.04973278039949
 20
17.04970466605161
 30
0.0
 41
1.0
 10
40.0913152574652
 20
17.07511734943991
 30
0.0
 41
1.0
 10
40.18342308791381
 20
17.14029258834125
 30
0.0
 41
1.0
 10
40.22275016595432
 20
17.17603852822774
 30
0.0
 41
1.0
 10
40.32889791883784
 20
17.27637931113176
 30
0.0
 41
1.0
 10
40.37899859802485
 20
17.3310625480626
 30
0.0
 41
1.0
 10
40.37899859802485
 20
17.3310625480626
 30
0.0
 41
1.0
  0
SPLINE
  5
107
330
1F
100
AcDbEntity
  8
DEFAULT
100
AcDbSpline
210
0.0
220
0.0
230
1.0
 70
    24
 71
     2
 72
     6
 73
     3
 74
     0
 42
0.0000000001
 43
0.0000000001
 40
0.0
 40
0.0
 40
0.0
 40
0.1838299925808962
 40
0.1838299925808962
 40
0.1838299925808962
 10
40.37899859802485
 20
17.3310625480626
 30
0.0
 10
40.37178703053206
 20
17.42269420109457
 30
0.0
 10
40.36457546303927
 20
17.51432585412653
 30
0.0
  0
SPLINE
  5
108
330
1F
100
AcDbEntity
  8
DEFAULT
100
AcDbSpline
210
0.0
220
0.0
230
1.0
 70
    12
 71
     3
 72
    10
 73
     6
 74
     0
 42
0.0000000001
 43
0.0000000001
 40
-2.775250769275885
 40
-2.775250769275885
 40
-2.775250769275885
 40
-2.775250769275885
 40
-2.081012583142561
 40
-2.081012583142561
 40
-1.386692026910074
 40
-1.386692026910074
 40
-1.386692026910074
 40
-1.386692026910074
 10
40.36457546303927
 20
17.51432585412653
 30
0.0
 41
1.0
 10
40.36268912152499
 20
17.53829409560946
 30
0.0
 41
1.0
 10
40.16500541840878
 20
17.54337344627316
 30
0.0
 41
1.0
 10
39.67802009278648
 20
17.4928284416376
 30
0.0
 41
1.0
 10
39.48554758163158
 20
17.44640675676733
 30
0.0
 41
1.0
 10
39.48839069368543
 20
17.42108421729582
 30
0.0
 41
1.0
  0
SPLINE
  5
109
330
1F
100
AcDbEntity
  8
DEFAULT
100
AcDbSpline
210
0.0
220
0.0
230
1.0
 70
    24
 71
     2
 72
     6
 73
     3
 74
     0
 42
0.0000000001
 43
0.0000000001
 40
0.0
 40
0.0
 40
0.0
 40
0.1749908903973856
 40
0.1749908903973856
 40
0.1749908903973856
 10
39.48839069368543
 20
17.42108421729582
 30
0.0
 10
39.49829568576733
 20
17.33414920308495
 30
0.0
 10
39.50820067784923
 20
17.24721418887408
 30
0.0
  0
SPLINE
  5
10A
330
1F
100
AcDbEntity
  8
DEFAULT
100
AcDbSpline
210
0.0
220
0.0
230
1.0
 70
    12
 71
     3
 72
    12
 73
     8
 74
     0
 42
0.0000000001
 43
0.0000000001
 40
1.478228585923088
 40
1.478228585923088
 40
1.478228585923088
 40
1.478228585923088
 40
1.83510889902099
 40
1.83510889902099
 40
2.024274150332355
 40
2.024274150332355
 40
2.190798913240323
 40
2.190798913240323
 40
2.190798913240323
 40
2.190798913240323
 10
39.50820074833933
 20
17.24721412986332
 30
0.0
 41
1.0
 10
39.50827668290199
 20
17.24715517293359
 30
0.0
 41
1.0
 10
39.56775702733827
 20
17.20314516574151
 30
0.0
 41
1.0
 10
39.69125242677615
 20
17.1247854421884
 30
0.0
 41
1.0
 10
39.7370037217805
 20
17.09697704567795
 30
0.0
 41
1.0
 10
39.84009521753086
 20
17.05065595671047
 30
0.0
 41
1.0
 10
39.88554796938658
 20
17.03385690684976
 30
0.0
 41
1.0
 10
39.94106098436089
 20
17.03391842538412
 30
0.0
 41
1.0
  0
SPLINE
  5
10B
330
1F
100
AcDbEntity
  8
DEFAULT
100
AcDbSpline
210
0.0
220
0.0
230
1.0
 70
    12
 71
     2
 72
     6
 73
     3
 74
     0
 42
0.0000000001
 43
0.0000000001
 40
0.0
 40
0.0
 40
0.0
 40
7.680773469173904
 40
7.680773469173904
 40
7.680773469173904
 10
3.834115566132155
 20
16.15162114297163
 30
0.0
 41
1.0
 10
0.000078588098808
 20
15.76838105316487
 30
0.0
 41
0.9950413933731445
 10
-3.833958389934551
 20
16.15162114297163
 30
0.0
 41
1.0
  0
SPLINE
  5
10C
330
1F
100
AcDbEntity
  8
DEFAULT
100
AcDbSpline
210
0.0
220
0.0
230
1.0
 70
    12
 71
     2
 72
     6
 73
     3
 74
     0
 42
0.0000000001
 43
0.0000000001
 40
0.0
 40
0.0
 40
0.0
 40
0.1598633113070148
 40
0.1598633113070148
 40
0.1598633113070148
 10
26.60614084396708
 20
19.00782146182324
 30
0.0
 41
1.0
 10
26.59432972252991
 20
18.92871518479228
 30
0.0
 41
0.9990343967449803
 10
26.58950853454394
 20
18.84887743346455
 30
0.0
 41
1.0
  0
SPLINE
  5
10D
330
1F
100
AcDbEntity
  8
DEFAULT
100
AcDbSpline
210
0.0
220
0.0
230
1.0
 70
    12
 71
     2
 72
     6
 73
     3
 74
     0
 42
0.0000000001
 43
0.0000000001
 40
0.0
 40
0.0
 40
0.0
 40
0.7816405396757449
 40
0.7816405396757449
 40
0.7816405396757449
 10
26.58950853454394
 20
18.84887743346455
 30
0.0
 41
1.0
 10
26.55609852702656
 20
18.45850625773229
 30
0.0
 41
0.996260045340734
 10
26.4559792133214
 20
18.07971610043176
 30
0.0
 41
1.0
  0
LINE
  5
10E
330
1F
100
AcDbEntity
  8
DEFAULT
100
AcDbLine
 10
22.08719999549353
 20
0.3932221040366883
 30
0.0
 11
26.45600693215356
 21
18.07967766300033
 31
0.0
  0
SPLINE
  5
10F
330
1F
100
AcDbEntity
  8
DEFAULT
100
AcDbSpline
210
0.0
220
0.0
230
1.0
 70
     8
 71
     2
 72
    11
 73
     8
 74
     0
 42
0.0000000001
 43
0.0000000001
 40
0.0
 40
0.0
 40
0.0
 40
1.0
 40
2.0
 40
3.0
 40
4.0
 40
5.0
 40
6.0
 40
6.0
 40
6.0
 10
26.45600693215356
 20
18.07967766300033
 30
0.0
 10
26.54803224218392
 20
18.0631036346349
 30
0.0
 10
26.73040480289305
 20
18.01946650612292
 30
0.0
 10
26.91259140597298
 20
17.97567439570509
 30
0.0
 10
27.09452413146724
 20
17.93072544508391
 30
0.0
 10
27.27618154590616
 20
17.88473422393082
 30
0.0
 10
27.45779240961258
 20
17.83834209008075
 30
0.0
 10
27.54813593206913
 20
17.80991481515813
 30
0.0
  0
ARC
  5
110
330
1F
100
AcDbEntity
  8
DEFAULT
100
AcDbCircle
 10
-42652.81477724839
 20
10559.49356419321
 30
0.0
 40
43962.94431182191
100
AcDbArc
 50
346.1249999996745
 51
346.1261097646095
  0
LINE
  5
111
330
1F
100
AcDbEntity
  8
DEFAULT
100
AcDbLine
 10
27.34394550690206
 20
16.98323862227607
 30
0.0
 11
23.17937385497805
 21
0.123442081298764
 31
0.0
  0
SPLINE
  5
112
330
1F
100
AcDbEntity
  8
DEFAULT
100
AcDbSpline
210
0.0
220
0.0
230
1.0
 70
    12
 71
     2
 72
     6
 73
     3
 74
     0
 42
0.0000000001
 43
0.0000000001
 40
-0.3590936632311201
 40
-0.3590936632311201
 40
-0.3590936632311201
 40
0.0
 40
0.0
 40
0.0
 10
4.701935526524267
 20
15.74514780786723
 30
0.0
 41
1.0
 10
4.827484579064146
 20
15.88501835845917
 30
0.0
 41
0.9342250861939277
 10
4.825680976213241
 20
16.07297549746599
 30
0.0
 41
0.9999983047728426
  0
SPLINE
  5
113
330
1F
100
AcDbEntity
  8
DEFAULT
100
AcDbSpline
210
0.0
220
0.0
230
1.0
 70
    24
 71
     2
 72
     6
 73
     3
 74
     0
 42
0.0000000001
 43
0.0000000001
 40
0.0
 40
0.0
 40
0.0
 40
0.40304397363726
 40
0.40304397363726
 40
0.40304397363726
 10
4.825680976213235
 20
16.07297549746599
 30
0.0
 10
4.824585121443207
 20
16.27449748428462
 30
0.0
 10
4.823489266673178
 20
16.47601947110325
 30
0.0
  0
SPLINE
  5
114
330
1F
100
AcDbEntity
  8
DEFAULT
100
AcDbSpline
210
0.0
220
0.0
230
1.0
 70
    12
 71
     2
 72
     6
 73
     3
 74
     0
 42
0.0000000001
 43
0.0000000001
 40
0.0
 40
0.0
 40
0.0
 40
0.7473847420755672
 40
0.7473847420755672
 40
0.7473847420755672
 10
4.001363716688772
 20
16.43735793932769
 30
0.0
 41
1.0
 10
4.360082953370015
 20
16.18856768343522
 30
0.0
 41
0.7973745102127584
 10
4.696952909337938
 20
16.46622703400417
 30
0.0
 41
1.0
  0
SPLINE
  5
115
330
1F
100
AcDbEntity
  8
DEFAULT
100
AcDbSpline
210
0.0
220
0.0
230
1.0
 70
    24
 71
     2
 72
     6
 73
     3
 74
     0
 42
0.0000000001
 43
0.0000000001
 40
0.0
 40
0.0
 40
0.0
 40
0.5321440388778741
 40
0.5321440388778741
 40
0.5321440388778741
 10
4.699882203321962
 20
15.79542700207427
 30
0.0
 10
4.696685734997558
 20
15.52945819008728
 30
0.0
 10
4.693489266673154
 20
15.26348937810028
 30
0.0
  0
SPLINE
  5
116
330
1F
100
AcDbEntity
  8
DEFAULT
100
AcDbSpline
210
0.0
220
0.0
230
1.0
 70
    12
 71
     2
 72
     6
 73
     3
 74
     0
 42
0.0000000001
 43
0.0000000001
 40
0.0
 40
0.0
 40
0.0
 40
0.2236524678536994
 40
0.2236524678536994
 40
0.2236524678536994
 10
4.693489266673154
 20
15.26348937810028
 30
0.0
 41
1.0
 10
4.658692548517842
 20
15.14866119948251
 30
0.0
 41
0.9010587385208312
 10
4.547239266673174
 20
15.10422598636154
 30
0.0
 41
1.0
  0
SPLINE
  5
117
330
1F
100
AcDbEntity
  8
DEFAULT
100
AcDbSpline
210
0.0
220
0.0
230
1.0
 70
     8
 71
     3
 72
     8
 73
     4
 74
     0
 42
0.0000000001
 43
0.0000000001
 40
0.0
 40
0.0
 40
0.0
 40
0.0
 40
1.0
 40
1.0
 40
1.0
 40
1.0
 10
4.547239266673174
 20
15.10422598636154
 30
0.0
 10
4.41177526993728
 20
15.05021796196287
 30
0.0
 10
4.245203263409081
 20
15.05021796196287
 30
0.0
 10
4.109739266673188
 20
15.10422598636154
 30
0.0
  0
SPLINE
  5
118
330
1F
100
AcDbEntity
  8
DEFAULT
100
AcDbSpline
210
0.0
220
0.0
230
1.0
 70
    12
 71
     2
 72
     6
 73
     3
 74
     0
 42
0.0000000001
 43
0.0000000001
 40
0.0
 40
0.0
 40
0.0
 40
0.2236524678536981
 40
0.2236524678536981
 40
0.2236524678536981
 10
4.109739266673188
 20
15.10422598636154
 30
0.0
 41
1.0
 10
3.998285984828519
 20
15.14866119948251
 30
0.0
 41
0.9010587385208331
 10
3.963489266673207
 20
15.26348937810028
 30
0.0
 41
1.0
  0
SPLINE
  5
119
330
1F
100
AcDbEntity
  8
DEFAULT
100
AcDbSpline
210
0.0
220
0.0
230
1.0
 70
    24
 71
     2
 72
     6
 73
     3
 74
     0
 42
0.0000000001
 43
0.0000000001
 40
0.0
 40
0.0
 40
0.0
 40
0.5321440388778741
 40
0.5321440388778741
 40
0.5321440388778741
 10
3.963489266673207
 20
15.26348937810028
 30
0.0
 10
3.958824199159672
 20
15.52952049784647
 30
0.0
 10
3.954159131646136
 20
15.79555161759265
 30
0.0
  0
SPLINE
  5
11A
330
1F
100
AcDbEntity
  8
DEFAULT
100
AcDbSpline
210
0.0
220
0.0
230
1.0
 70
     8
 71
     3
 72
    14
 73
    10
 74
     0
 42
0.0000000001
 43
0.0000000001
 40
0.0
 40
0.0
 40
0.0
 40
0.0
 40
0.0011429773882848
 40
0.0041559612549722
 40
0.010740543323966
 40
0.120253821530844
 40
0.2135872029610184
 40
0.4059865476491976
 40
0.8047865810560537
 40
0.8047865810560537
 40
0.8047865810560537
 40
0.8047865810560537
 10
3.954159131646136
 20
15.79555161759265
 30
0.0
 10
3.954064698968025
 20
15.79604234793775
 30
0.0
 10
3.954729804750301
 20
15.79728640809484
 30
0.0
 10
3.958799138006867
 20
15.79657232931934
 30
0.0
 10
3.990713770963566
 20
15.77377427350036
 30
0.0
 10
4.048527104861989
 20
15.7326125322114
 30
0.0
 10
4.168668647219093
 20
15.68037079668747
 30
0.0
 10
4.398510030423765
 20
15.63876513456371
 30
0.0
 10
4.592563028077379
 20
15.71305959995781
 30
0.0
 10
4.699882203321962
 20
15.79542700207427
 30
0.0
  0
SPLINE
  5
11B
330
1F
100
AcDbEntity
  8
DEFAULT
100
AcDbSpline
210
0.0
220
0.0
230
1.0
 70
     8
 71
     3
 72
    12
 73
     8
 74
     0
 42
0.0000000001
 43
0.0000000001
 40
0.0
 40
0.0
 40
0.0
 40
0.0
 40
1.45186367659028
 40
2.488811453363902
 40
4.456822206700376
 40
6.316482208258889
 40
8.273460492208956
 40
8.273460492208956
 40
8.273460492208956
 40
8.273460492208956
 10
0.0
 20
16.67654286542395
 30
0.0
 10
0.4839459175036751
 20
16.67664223995691
 30
0.0
 10
1.313566582974559
 20
16.67705223052543
 30
0.0
 10
2.798964872517374
 20
16.70533044897741
 30
0.0
 10
4.41871445199321
 20
16.79016139572363
 30
0.0
 10
6.337074728512434
 20
16.99310696022101
 30
0.0
 10
7.591564885943427
 20
17.20846674370148
 30
0.0
 10
8.23314894657885
 20
17.32571886731488
 30
0.0
  0
SPLINE
  5
11C
330
1F
100
AcDbEntity
  8
DEFAULT
100
AcDbSpline
210
0.0
220
0.0
230
1.0
 70
     8
 71
     3
 72
    11
 73
     7
 74
     0
 42
0.0000000001
 43
0.0000000001
 40
-0.6678296448444616
 40
-0.6678296448444616
 40
-0.6678296448444616
 40
-0.6678296448444616
 40
-0.3055450446207338
 40
-0.1449430031713405
 40
-0.0723027297364637
 40
0.0
 40
0.0
 40
0.0
 40
0.0
 10
8.23314894657885
 20
17.32571886731488
 30
0.0
 10
8.351543239031741
 20
17.34791144208856
 30
0.0
 10
8.5191172676018
 20
17.40869838252431
 30
0.0
 10
8.672781955570713
 20
17.53730059164565
 30
0.0
 10
8.733903635365294
 20
17.61929520207179
 30
0.0
 10
8.75532944131561
 20
17.66283213050841
 30
0.0
 10
8.763609142001982
 20
17.68547857180186
 30
0.0
  0
SPLINE
  5
11D
330
1F
100
AcDbEntity
  8
DEFAULT
100
AcDbSpline
210
0.0
220
0.0
230
1.0
 70
    12
 71
     5
 72
    42
 73
    36
 74
     0
 42
0.0000000001
 43
0.0000000001
 40
0.0
 40
0.0
 40
0.0
 40
0.0
 40
0.0
 40
0.0
 40
0.2855995164709133
 40
0.2855995164709133
 40
0.2855995164709133
 40
0.2855995164709133
 40
0.2855995164709133
 40
0.6563088386039608
 40
0.6563088386039608
 40
0.6563088386039608
 40
0.6563088386039608
 40
0.6563088386039608
 40
1.656308838603961
 40
1.656308838603961
 40
1.656308838603961
 40
1.656308838603961
 40
1.656308838603961
 40
2.019952292718224
 40
2.019952292718224
 40
2.019952292718224
 40
2.790692718633749
 40
2.790692718633749
 40
2.790692718633749
 40
3.93495942312767
 40
3.93495942312767
 40
3.93495942312767
 40
5.747266165788471
 40
5.747266165788471
 40
5.747266165788471
 40
8.068508251492666
 40
8.068508251492666
 40
8.068508251492666
 40
10.53337729089963
 40
10.53337729089963
 40
10.53337729089963
 40
10.53337729089963
 40
10.53337729089963
 40
10.53337729089963
 10
8.763609142001982
 20
17.68547857180186
 30
0.0
 41
1.0
 10
8.78322286546555
 20
17.73912556385973
 30
0.0
 41
0.9999866190723671
 10
8.814582317511215
 20
17.88040435360112
 30
0.0
 41
0.9999799286085507
 10
8.82876919022291
 20
17.9357350796919
 30
0.0
 41
0.9999799286085507
 10
8.843177705574409
 20
17.99100841354165
 30
0.0
 41
0.9999866190723672
 10
8.857807569918094
 20
18.0462232468896
 30
0.0
 41
1.0
 10
8.87946732161631
 20
18.11713704913844
 30
0.0
 41
0.9994874743699717
 10
8.899334071700714
 20
18.18858907675794
 30
0.0
 41
0.9992312125689933
 10
8.917391155538006
 20
18.2605247698725
 30
0.0
 41
0.9992312145970651
 10
8.933624683888318
 20
18.33288879657202
 30
0.0
 41
0.9994874804541871
 10
8.948023578498407
 20
18.40562519470755
 30
0.0
 41
1.000000010140359
 10
8.956408182833856
 20
18.44798024595748
 30
0.0
 41
1.000000010140359
 10
8.964169939855802
 20
18.49045859603791
 30
0.0
 41
1.000000010140359
 10
8.88889090405955
 20
18.58965062365179
 30
0.0
 41
1.000000010140359
 10
8.847192429845416
 20
18.57843904835054
 30
0.0
 41
1.000000010140359
 10
8.805379615553715
 20
18.56767148050757
 30
0.0
 41
1.000000010140359
 10
8.73495396641462
 20
18.54953558203157
 30
0.0
 41
1.000000010140359
 10
8.664212857394464
 20
18.53266157975544
 30
0.0
 41
1.000000010140359
 10
8.593251289055372
 20
18.51668710229251
 30
0.0
 41
1.000000010140359
 10
8.371495674580698
 20
18.46853044956152
 30
0.0
 41
1.000000010140359
 10
8.149443663857799
 20
18.42207464422034
 30
0.0
 41
1.000000010140359
 10
7.998467356537439
 20
18.39108018727798
 30
0.0
 41
1.000000010140359
 10
7.623158175948245
 20
18.31494827049202
 30
0.0
 41
1.000000010140359
 10
7.247568960845041
 20
18.23966480088159
 30
0.0
 41
1.000000010140359
 10
7.022929151164303
 20
18.19574753102667
 30
0.0
 41
1.000000010140359
 10
6.441646375835041
 20
18.08700234496977
 30
0.0
 41
1.000000010140359
 10
5.857383330354804
 20
17.99557392838119
 30
0.0
 41
1.000000010140359
 10
5.498316336436149
 20
17.94562782129714
 30
0.0
 41
1.000000010140359
 10
4.677668764260289
 20
17.844682828188
 30
0.0
 41
1.000000010140359
 10
3.854187154057315
 20
17.77119799848617
 30
0.0
 41
1.000000010140359
 10
3.391090542119902
 20
17.73738011571381
 30
0.0
 41
1.000000010140359
 10
2.435360119608283
 20
17.68051207853056
 30
0.0
 41
1.000000010140359
 10
1.478798252914017
 20
17.64501086093511
 30
0.0
 41
1.000000010140359
 10
0.9859866139149565
 20
17.63270834581613
 30
0.0
 41
1.000000010140359
 10
0.4930396612702609
 20
17.62670026312193
 30
0.0
 41
1.000000010140359
 10
-0.0000000000000053
 20
17.62730027155802
 30
0.0
 41
1.000000010140359
  0
SPLINE
  5
11E
330
1F
100
AcDbEntity
  8
DEFAULT
100
AcDbSpline
210
0.0
220
0.0
230
1.0
 70
    12
 71
     5
 72
    42
 73
    36
 74
     0
 42
0.0000000001
 43
0.0000000001
 40
-10.53337729089963
 40
-10.53337729089963
 40
-10.53337729089963
 40
-10.53337729089963
 40
-10.53337729089963
 40
-10.53337729089963
 40
-8.068508251492666
 40
-8.068508251492666
 40
-8.068508251492666
 40
-5.747266165788471
 40
-5.747266165788471
 40
-5.747266165788471
 40
-3.93495942312767
 40
-3.93495942312767
 40
-3.93495942312767
 40
-2.790692718633749
 40
-2.790692718633749
 40
-2.790692718633749
 40
-2.019952292718224
 40
-2.019952292718224
 40
-2.019952292718224
 40
-1.656308838603961
 40
-1.656308838603961
 40
-1.656308838603961
 40
-1.656308838603961
 40
-1.656308838603961
 40
-0.6563088386039608
 40
-0.6563088386039608
 40
-0.6563088386039608
 40
-0.6563088386039608
 40
-0.6563088386039608
 40
-0.2855995164709133
 40
-0.2855995164709133
 40
-0.2855995164709133
 40
-0.2855995164709133
 40
-0.2855995164709133
 40
0.0
 40
0.0
 40
0.0
 40
0.0
 40
0.0
 40
0.0
 10
-0.0000000000000053
 20
17.62730027155802
 30
0.0
 41
1.000000010140359
 10
-0.4930396612702573
 20
17.62670026312193
 30
0.0
 41
1.000000010140359
 10
-0.9859866139149671
 20
17.63270834581613
 30
0.0
 41
1.000000010140359
 10
-1.478798252914013
 20
17.64501086093511
 30
0.0
 41
1.000000010140359
 10
-2.435360119608294
 20
17.68051207853056
 30
0.0
 41
1.000000010140359
 10
-3.391090542119899
 20
17.73738011571381
 30
0.0
 41
1.000000010140359
 10
-3.854187154057326
 20
17.77119799848617
 30
0.0
 41
1.000000010140359
 10
-4.677668764260286
 20
17.844682828188
 30
0.0
 41
1.000000010140359
 10
-5.498316336436146
 20
17.94562782129714
 30
0.0
 41
1.000000010140359
 10
-5.857383330354814
 20
17.99557392838119
 30
0.0
 41
1.000000010140359
 10
-6.441646375835052
 20
18.08700234496977
 30
0.0
 41
1.000000010140359
 10
-7.022929151164299
 20
18.19574753102667
 30
0.0
 41
1.000000010140359
 10
-7.247568960845038
 20
18.23966480088159
 30
0.0
 41
1.000000010140359
 10
-7.623158175948241
 20
18.31494827049202
 30
0.0
 41
1.000000010140359
 10
-7.99846735653745
 20
18.39108018727798
 30
0.0
 41
1.000000010140359
 10
-8.149443663857795
 20
18.42207464422034
 30
0.0
 41
1.000000010140359
 10
-8.371495674580695
 20
18.46853044956152
 30
0.0
 41
1.000000010140359
 10
-8.593251289055369
 20
18.51668710229251
 30
0.0
 41
1.000000010140359
 10
-8.66421285739446
 20
18.53266157975544
 30
0.0
 41
1.000000010140359
 10
-8.734953966414617
 20
18.54953558203157
 30
0.0
 41
1.000000010140359
 10
-8.805379615553711
 20
18.56767148050757
 30
0.0
 41
1.000000010140359
 10
-8.847192429845427
 20
18.57843904835054
 30
0.0
 41
1.000000010140359
 10
-8.888890904059547
 20
18.58965062365179
 30
0.0
 41
1.000000010140359
 10
-8.964169939855799
 20
18.49045859603791
 30
0.0
 41
1.000000010140359
 10
-8.956408182833867
 20
18.44798024595748
 30
0.0
 41
1.000000010140359
 10
-8.948023578498404
 20
18.40562519470755
 30
0.0
 41
1.000000010140359
 10
-8.933624683888318
 20
18.33288879657202
 30
0.0
 41
0.9994874804541871
 10
-8.917391155537995
 20
18.2605247698725
 30
0.0
 41
0.9992312145970651
 10
-8.899334071700729
 20
18.18858907675794
 30
0.0
 41
0.9992312125689933
 10
-8.879467321616307
 20
18.11713704913844
 30
0.0
 41
0.9994874743699717
 10
-8.857807569918094
 20
18.0462232468896
 30
0.0
 41
1.0
 10
-8.843177705574416
 20
17.99100841354165
 30
0.0
 41
0.9999866190723672
 10
-8.828769190222904
 20
17.9357350796919
 30
0.0
 41
0.9999799286085507
 10
-8.814582317511222
 20
17.88040435360112
 30
0.0
 41
0.9999799286085507
 10
-8.783222865465547
 20
17.73912556385973
 30
0.0
 41
0.9999866190723671
 10
-8.763609142001982
 20
17.68547857180186
 30
0.0
 41
1.0
  0
SPLINE
  5
11F
330
1F
100
AcDbEntity
  8
DEFAULT
100
AcDbSpline
210
0.0
220
0.0
230
1.0
 70
     8
 71
     3
 72
    11
 73
     7
 74
     0
 42
0.0000000001
 43
0.0000000001
 40
0.0
 40
0.0
 40
0.0
 40
0.0
 40
0.0723027297364637
 40
0.1449430031713405
 40
0.3055450446207338
 40
0.6678296448444616
 40
0.6678296448444616
 40
0.6678296448444616
 40
0.6678296448444616
 10
-8.763609142001982
 20
17.68547857180186
 30
0.0
 10
-8.75532944131561
 20
17.66283213050841
 30
0.0
 10
-8.733903635365294
 20
17.61929520207179
 30
0.0
 10
-8.672781955570713
 20
17.53730059164565
 30
0.0
 10
-8.5191172676018
 20
17.40869838252431
 30
0.0
 10
-8.351543239031741
 20
17.34791144208856
 30
0.0
 10
-8.23314894657885
 20
17.32571886731488
 30
0.0
  0
SPLINE
  5
120
330
1F
100
AcDbEntity
  8
DEFAULT
100
AcDbSpline
210
0.0
220
0.0
230
1.0
 70
     8
 71
     3
 72
    12
 73
     8
 74
     0
 42
0.0000000001
 43
0.0000000001
 40
-8.273460492208956
 40
-8.273460492208956
 40
-8.273460492208956
 40
-8.273460492208956
 40
-6.316482208258889
 40
-4.456822206700376
 40
-2.488811453363902
 40
-1.45186367659028
 40
0.0
 40
0.0
 40
0.0
 40
0.0
 10
-8.23314894657885
 20
17.32571886731488
 30
0.0
 10
-7.591564885943427
 20
17.20846674370148
 30
0.0
 10
-6.337074728512434
 20
16.99310696022101
 30
0.0
 10
-4.41871445199321
 20
16.79016139572363
 30
0.0
 10
-2.798964872517374
 20
16.70533044897741
 30
0.0
 10
-1.313566582974559
 20
16.67705223052543
 30
0.0
 10
-0.4839459175036751
 20
16.67664223995691
 30
0.0
 10
0.0
 20
16.67654286542395
 30
0.0
  0
SPLINE
  5
121
330
1F
100
AcDbEntity
  8
DEFAULT
100
AcDbSpline
210
0.0
220
0.0
230
1.0
 70
    24
 71
     2
 72
     6
 73
     3
 74
     0
 42
0.0000000001
 43
0.0000000001
 40
0.0
 40
0.0
 40
0.0
 40
0.5321440388778759
 40
0.5321440388778759
 40
0.5321440388778759
 10
4.702819401700225
 20
16.46647188523465
 30
0.0
 10
4.69815433418669
 20
16.20044076548847
 30
0.0
 10
4.693489266673154
 20
15.93440964574228
 30
0.0
  0
SPLINE
  5
122
330
1F
100
AcDbEntity
  8
DEFAULT
100
AcDbSpline
210
0.0
220
0.0
230
1.0
 70
    12
 71
     2
 72
     6
 73
     3
 74
     0
 42
0.0000000001
 43
0.0000000001
 40
0.0
 40
0.0
 40
0.0
 40
0.223652467853702
 40
0.223652467853702
 40
0.223652467853702
 10
4.693489266673154
 20
15.93440964574228
 30
0.0
 41
1.0
 10
4.658692548517845
 20
15.81958146712452
 30
0.0
 41
0.9010587385208453
 10
4.547239266673174
 20
15.77514625400353
 30
0.0
 41
1.0
  0
SPLINE
  5
123
330
1F
100
AcDbEntity
  8
DEFAULT
100
AcDbSpline
210
0.0
220
0.0
230
1.0
 70
     8
 71
     3
 72
     8
 73
     4
 74
     0
 42
0.0000000001
 43
0.0000000001
 40
0.0
 40
0.0
 40
0.0
 40
0.0
 40
1.0
 40
1.0
 40
1.0
 40
1.0
 10
4.547239266673174
 20
15.77514625400353
 30
0.0
 10
4.41177526993728
 20
15.72113822960486
 30
0.0
 10
4.245203263409081
 20
15.72113822960487
 30
0.0
 10
4.109739266673188
 20
15.77514625400354
 30
0.0
  0
SPLINE
  5
124
330
1F
100
AcDbEntity
  8
DEFAULT
100
AcDbSpline
210
0.0
220
0.0
230
1.0
 70
    12
 71
     2
 72
     6
 73
     3
 74
     0
 42
0.0000000001
 43
0.0000000001
 40
0.0
 40
0.0
 40
0.0
 40
0.2236524678537002
 40
0.2236524678537002
 40
0.2236524678537002
 10
4.109739266673188
 20
15.77514625400354
 30
0.0
 41
1.0
 10
3.99828598482852
 20
15.81958146712451
 30
0.0
 41
0.9010587385208325
 10
3.963489266673207
 20
15.93440964574228
 30
0.0
 41
1.0
  0
SPLINE
  5
125
330
1F
100
AcDbEntity
  8
DEFAULT
100
AcDbSpline
210
0.0
220
0.0
230
1.0
 70
    24
 71
     2
 72
     6
 73
     3
 74
     0
 42
0.0000000001
 43
0.0000000001
 40
0.0
 40
0.0
 40
0.0
 40
0.4919977399559122
 40
0.4919977399559122
 40
0.4919977399559122
 10
3.963489266673207
 20
15.93440964574228
 30
0.0
 10
3.959176143710785
 20
16.18037070160426
 30
0.0
 10
3.954863020748363
 20
16.42633175746625
 30
0.0
  0
SPLINE
  5
126
330
1F
100
AcDbEntity
  8
DEFAULT
100
AcDbSpline
210
0.0
220
0.0
230
1.0
 70
    12
 71
     2
 72
     6
 73
     3
 74
     0
 42
0.0000000001
 43
0.0000000001
 40
0.0
 40
0.0
 40
0.0
 40
0.3221738804473611
 40
0.3221738804473611
 40
0.3221738804473611
 10
44.49662522341742
 20
17.08077577996983
 30
0.0
 41
1.0
 10
44.62719241594412
 20
16.98535407386692
 30
0.0
 41
0.9941460496295335
 10
44.73421233088305
 20
16.86411121194771
 30
0.0
 41
1.0
  0
SPLINE
  5
127
330
1F
100
AcDbEntity
  8
DEFAULT
100
AcDbSpline
210
0.0
220
0.0
230
1.0
 70
    12
 71
     2
 72
     6
 73
     3
 74
     0
 42
0.0000000001
 43
0.0000000001
 40
0.0
 40
0.0
 40
0.0
 40
0.8188583327906658
 40
0.8188583327906658
 40
0.8188583327906658
 10
27.19945239726182
 20
16.39827463708892
 30
0.0
 41
1.0
 10
27.60655185341401
 20
16.35464738486291
 30
0.0
 41
0.999995248373231
 10
28.01391255294124
 20
16.31353090620892
 30
0.0
 41
1.0
  0
SPLINE
  5
128
330
1F
100
AcDbEntity
  8
DEFAULT
100
AcDbSpline
210
0.0
220
0.0
230
1.0
 70
    24
 71
     2
 72
     6
 73
     3
 74
     0
 42
0.0000000001
 43
0.0000000001
 40
-0.3592519704053348
 40
-0.3592519704053348
 40
-0.3592519704053348
 40
0.0
 40
0.0
 40
0.0
 10
27.65700802677364
 20
16.86501441753719
 30
0.0
 10
27.705919157579
 20
17.03785305859691
 30
0.0
 10
27.75483028838437
 20
17.21069169965662
 30
0.0
  0
SPLINE
  5
129
330
1F
100
AcDbEntity
  8
DEFAULT
100
AcDbSpline
210
0.0
220
0.0
230
1.0
 70
    12
 71
     2
 72
     8
 73
     5
 74
     0
 42
0.0000000001
 43
0.0000000001
 40
-0.0851434026212989
 40
-0.0851434026212989
 40
-0.0851434026212989
 40
-0.0349273505781476
 40
-0.0349273505781476
 40
0.0
 40
0.0
 40
0.0
 10
27.75483028838437
 20
17.21069169965662
 30
0.0
 41
1.0
 10
27.76120107450919
 20
17.23557491090508
 30
0.0
 41
0.9665972973670869
 10
27.77906394678782
 20
17.25403240022082
 30
0.0
 41
1.0
 10
27.79175337120548
 20
17.26909511267556
 30
0.0
 41
0.8383882943599786
 10
27.81066942414108
 20
17.26360970112464
 30
0.0
 41
1.0
  0
SPLINE
  5
12A
330
1F
100
AcDbEntity
  8
DEFAULT
100
AcDbSpline
210
0.0
220
0.0
230
1.0
 70
    24
 71
     2
 72
     6
 73
     3
 74
     0
 42
0.0000000001
 43
0.0000000001
 40
-0.2398007059438697
 40
-0.2398007059438697
 40
-0.2398007059438697
 40
0.0
 40
0.0
 40
0.0
 10
27.81066942414108
 20
17.26360970112464
 30
0.0
 10
27.92243877688425
 20
17.22020801417391
 30
0.0
 10
28.03420812962742
 20
17.17680632722319
 30
0.0
  0
SPLINE
  5
12B
330
1F
100
AcDbEntity
  8
DEFAULT
100
AcDbSpline
210
0.0
220
0.0
230
1.0
 70
    12
 71
     2
 72
     6
 73
     3
 74
     0
 42
0.0000000001
 43
0.0000000001
 40
0.0
 40
0.0
 40
0.0
 40
0.08967655564239
 40
0.08967655564239
 40
0.08967655564239
 10
28.03420812962742
 20
17.17680632722319
 30
0.0
 41
1.0
 10
28.07430228226214
 20
17.14286146750576
 30
0.0
 41
0.7940831638840014
 10
28.05180802355477
 20
17.09459724239993
 30
0.0
 41
1.0
  0
SPLINE
  5
12C
330
1F
100
AcDbEntity
  8
DEFAULT
100
AcDbSpline
210
0.0
220
0.0
230
1.0
 70
    24
 71
     2
 72
     6
 73
     3
 74
     0
 42
0.0000000001
 43
0.0000000001
 40
0.0
 40
0.0
 40
0.0
 40
0.3578031650550604
 40
0.3578031650550604
 40
0.3578031650550604
 10
28.05180802355477
 20
17.09459724239993
 30
0.0
 10
28.00299551810687
 20
16.92210711654477
 30
0.0
 10
27.95418301265897
 20
16.7496169906896
 30
0.0
  0
SPLINE
  5
12D
330
1F
100
AcDbEntity
  8
DEFAULT
100
AcDbSpline
210
0.0
220
0.0
230
1.0
 70
    12
 71
     2
 72
     6
 73
     3
 74
     0
 42
0.0000000001
 43
0.0000000001
 40
0.0
 40
0.0
 40
0.0
 40
0.0850192936796374
 40
0.0850192936796374
 40
0.0850192936796374
 10
27.95418301265897
 20
16.7496169906896
 30
0.0
 41
1.0
 10
27.95175252158793
 20
16.69626188691553
 30
0.0
 41
0.7201836708809143
 10
27.89834387690225
 20
16.69669898922158
 30
0.0
 41
1.0
  0
SPLINE
  5
12E
330
1F
100
AcDbEntity
  8
DEFAULT
100
AcDbSpline
210
0.0
220
0.0
230
1.0
 70
    24
 71
     2
 72
     6
 73
     3
 74
     0
 42
0.0000000001
 43
0.0000000001
 40
0.0
 40
0.0
 40
0.0
 40
0.2398007059438631
 40
0.2398007059438631
 40
0.2398007059438631
 10
27.89834387690225
 20
16.69669898922158
 30
0.0
 10
27.78657452415909
 20
16.74010067617231
 30
0.0
 10
27.67480517141593
 20
16.78350236312304
 30
0.0
  0
SPLINE
  5
12F
330
1F
100
AcDbEntity
  8
DEFAULT
100
AcDbSpline
210
0.0
220
0.0
230
1.0
 70
    12
 71
     2
 72
     8
 73
     5
 74
     0
 42
0.0000000001
 43
0.0000000001
 40
-0.0898917853188032
 40
-0.0898917853188032
 40
-0.0898917853188032
 40
-0.0522765087782868
 40
-0.0522765087782868
 40
0.0
 40
0.0
 40
0.0
 10
27.67480517141593
 20
16.78350236312304
 30
0.0
 41
1.0
 10
27.65668600288976
 20
16.79298360585488
 30
0.0
 41
0.8837810173697971
 10
27.65434193500434
 20
16.81329871298156
 30
0.0
 41
1.0
 10
27.64940192986791
 20
16.83947995889463
 30
0.0
 41
0.9718115344464822
 10
27.65700802677364
 20
16.86501441753719
 30
0.0
 41
1.0
  0
SPLINE
  5
130
330
1F
100
AcDbEntity
  8
DEFAULT
100
AcDbSpline
210
0.0
220
0.0
230
1.0
 70
    24
 71
     2
 72
     6
 73
     3
 74
     0
 42
0.0000000001
 43
0.0000000001
 40
0.0
 40
0.0
 40
0.0
 40
1.315706620815528
 40
1.315706620815528
 40
1.315706620815528
 10
27.25163601921702
 20
16.60953411884827
 30
0.0
 10
27.86442477898004
 20
16.37023832634972
 30
0.0
 10
28.47721353874306
 20
16.13094253385117
 30
0.0
  0
SPLINE
  5
131
330
1F
100
AcDbEntity
  8
DEFAULT
100
AcDbSpline
210
0.0
220
0.0
230
1.0
 70
    12
 71
     2
 72
     6
 73
     3
 74
     0
 42
0.0000000001
 43
0.0000000001
 40
0.0
 40
0.0
 40
0.0
 40
4.099774915109466
 40
4.099774915109466
 40
4.099774915109466
 10
28.47721353874306
 20
16.13094253385117
 30
0.0
 41
1.0
 10
30.42254083073786
 20
15.37264010391407
 30
0.0
 41
0.9729153703086446
 10
32.50057417415326
 20
15.57536615255055
 30
0.0
 41
1.0
  0
SPLINE
  5
132
330
1F
100
AcDbEntity
  8
DEFAULT
100
AcDbSpline
210
0.0
220
0.0
230
1.0
 70
    24
 71
     2
 72
     6
 73
     3
 74
     0
 42
0.0000000001
 43
0.0000000001
 40
0.0
 40
0.0
 40
0.0
 40
0.2016285515089675
 40
0.2016285515089675
 40
0.2016285515089675
 10
32.50057417415326
 20
15.57536615255055
 30
0.0
 10
32.60080451379022
 20
15.58627301792303
 30
0.0
 10
32.70103485342719
 20
15.59717988329552
 30
0.0
  0
SPLINE
  5
133
330
1F
100
AcDbEntity
  8
DEFAULT
100
AcDbSpline
210
0.0
220
0.0
230
1.0
 70
    24
 71
     2
 72
     6
 73
     3
 74
     0
 42
0.0000000001
 43
0.0000000001
 40
0.0
 40
0.0
 40
0.0
 40
0.1356043790062872
 40
0.1356043790062872
 40
0.1356043790062872
 10
32.54042734812265
 20
16.57629398318099
 30
0.0
 10
32.4728169555321
 20
16.57103962395857
 30
0.0
 10
32.40520656294154
 20
16.56578526473615
 30
0.0
  0
SPLINE
  5
134
330
1F
100
AcDbEntity
  8
DEFAULT
100
AcDbSpline
210
0.0
220
0.0
230
1.0
 70
    12
 71
     2
 72
     6
 73
     3
 74
     0
 42
0.0000000001
 43
0.0000000001
 40
0.0
 40
0.0
 40
0.0
 40
3.577868569146716
 40
3.577868569146716
 40
3.577868569146716
 10
32.40520656294154
 20
16.56578526473615
 30
0.0
 41
1.0
 10
30.59228121359507
 20
16.39349368637177
 30
0.0
 41
0.9737220710303375
 10
28.89011084498009
 20
17.04078782602451
 30
0.0
 41
1.0
  0
SPLINE
  5
135
330
1F
100
AcDbEntity
  8
DEFAULT
100
AcDbSpline
210
0.0
220
0.0
230
1.0
 70
     8
 71
     3
 72
     8
 73
     4
 74
     0
 42
0.0000000001
 43
0.0000000001
 40
0.0
 40
0.0
 40
0.0
 40
0.0
 40
1.443706964781046
 40
1.443706964781046
 40
1.443706964781046
 40
1.443706964781046
 10
28.89011084498009
 20
17.04078782602451
 30
0.0
 10
28.44030085777987
 20
17.21183966316163
 30
0.0
 10
27.93960849824063
 20
17.40440481547893
 30
0.0
 10
27.49100766984512
 20
17.57860312871959
 30
0.0
  0
LINE
  5
136
330
1F
100
AcDbEntity
  8
DEFAULT
100
AcDbLine
 10
7.924506129476441
 20
60.23509431705963
 30
0.0
 11
7.508651261700493
 21
59.97016554798754
 31
0.0
  0
SPLINE
  5
137
330
1F
100
AcDbEntity
  8
DEFAULT
100
AcDbSpline
210
0.0
220
0.0
230
1.0
 70
    24
 71
     2
 72
     6
 73
     3
 74
     0
 42
0.0000000001
 43
0.0000000001
 40
0.0
 40
0.0
 40
0.0
 40
2.34975482514205
 40
2.34975482514205
 40
2.34975482514205
 10
8.811279904834919
 20
63.56972084445781
 30
0.0
 10
8.884279777210658
 20
64.74232817566579
 30
0.0
 10
8.957279649586397
 20
65.91493550687377
 30
0.0
  0
SPLINE
  5
138
330
1F
100
AcDbEntity
  8
DEFAULT
100
AcDbSpline
210
0.0
220
0.0
230
1.0
 70
    12
 71
     2
 72
     8
 73
     5
 74
     0
 42
0.0000000001
 43
0.0000000001
 40
-3.141592653589793
 40
-3.141592653589793
 40
-3.141592653589793
 40
-1.570796326794897
 40
-1.570796326794897
 40
0.0
 40
0.0
 40
0.0
 10
8.957279649586397
 20
65.91493550687377
 30
0.0
 41
1.0
 10
8.99106639024709
 20
66.45765672688385
 30
0.0
 41
0.7071067811865475
 10
9.553639161221142
 20
66.42385621572359
 30
0.0
 41
1.0
 10
10.11494709068074
 20
66.38775710465293
 30
0.0
 41
0.7071067811865475
 10
10.08007788435725
 20
65.84508627010612
 30
0.0
 41
1.0
  0
SPLINE
  5
139
330
1F
100
AcDbEntity
  8
DEFAULT
100
AcDbSpline
210
0.0
220
0.0
230
1.0
 70
    24
 71
     2
 72
     6
 73
     3
 74
     0
 42
0.0000000001
 43
0.0000000001
 40
0.0
 40
0.0
 40
0.0
 40
4.328712305731482
 40
4.328712305731482
 40
4.328712305731482
 10
10.08007788435725
 20
65.84508627010612
 30
0.0
 10
9.945612716624808
 20
63.68490204714418
 30
0.0
 10
9.811147548892365
 20
61.52471782418223
 30
0.0
  0
SPLINE
  5
13A
330
1F
100
AcDbEntity
  8
DEFAULT
100
AcDbSpline
210
0.0
220
0.0
230
1.0
 70
    12
 71
     2
 72
     6
 73
     3
 74
     0
 42
0.0000000001
 43
0.0000000001
 40
0.0
 40
0.0
 40
0.0
 40
0.3527729993252487
 40
0.3527729993252487
 40
0.3527729993252487
 10
3.955001668014489
 20
15.74750534992011
 30
0.0
 41
1.0
 10
3.833305706047383
 20
15.88612317749874
 30
0.0
 41
0.935636063196829
 10
3.833489266673183
 20
16.07058123665371
 30
0.0
 41
1.0
  0
SPLINE
  5
13B
330
1F
100
AcDbEntity
  8
DEFAULT
100
AcDbSpline
210
0.0
220
0.0
230
1.0
 70
    24
 71
     2
 72
     6
 73
     3
 74
     0
 42
0.0000000001
 43
0.0000000001
 40
0.0
 40
0.0
 40
0.0
 40
0.35397136597323
 40
0.35397136597323
 40
0.35397136597323
 10
3.833489266673183
 20
16.07058123665371
 30
0.0
 10
3.833489266673183
 20
16.24756691964032
 30
0.0
 10
3.833489266673183
 20
16.42455260262694
 30
0.0
  0
SPLINE
  5
13C
330
1F
100
AcDbEntity
  8
DEFAULT
100
AcDbSpline
210
0.0
220
0.0
230
1.0
 70
     8
 71
     2
 72
    13
 73
    10
 74
     0
 42
0.0000000001
 43
0.0000000001
 40
0.0
 40
0.0
 40
0.0
 40
1.0
 40
2.0
 40
3.0
 40
4.0
 40
5.0
 40
6.0
 40
7.0
 40
8.0
 40
8.0
 40
8.0
 10
-7.43217764465102
 20
60.33606488373158
 30
0.0
 10
-7.635158840831451
 20
59.37706838872214
 30
0.0
 10
-7.985301972178689
 20
57.44807150949963
 30
0.0
 10
-8.274599640488645
 20
55.50902178145289
 30
0.0
 10
-8.50324275607008
 20
53.56190822836471
 30
0.0
 10
-8.68543010706324
 20
51.60997637996236
 30
0.0
 10
-8.831629822223519
 20
49.65496653651799
 30
0.0
 10
-8.938358194108318
 20
47.69772254893506
 30
0.0
 10
-8.949221069858226
 20
45.73427938338844
 30
0.0
 10
-8.778550737933557
 20
44.76620406729831
 30
0.0
  0
SPLINE
  5
13D
330
1F
100
AcDbEntity
  8
DEFAULT
100
AcDbSpline
210
0.0
220
0.0
230
1.0
 70
    12
 71
     3
 72
    11
 73
     7
 74
     0
 42
0.0000000001
 43
0.0000000001
 40
0.0285067606237307
 40
0.0285067606237307
 40
0.0285067606237307
 40
0.0285067606237307
 40
0.2036422705824251
 40
0.3529649579604772
 40
0.5498106380855059
 40
0.8536425016506567
 40
0.8536425016506567
 40
0.8536425016506567
 40
0.8536425016506567
 10
-8.778550737933557
 20
44.76620406729831
 30
0.0
 41
1.0
 10
-8.769860238955985
 20
44.71690986689556
 30
0.0
 41
1.0
 10
-8.729588937889474
 20
44.61019442651425
 30
0.0
 41
1.0
 10
-8.636625616563549
 20
44.48914325164289
 30
0.0
 41
1.0
 10
-8.477211326936455
 20
44.37251055549218
 30
0.0
 41
1.0
 10
-8.320805969638428
 20
44.32568907345325
 30
0.0
 41
1.0
 10
-8.221690428988197
 20
44.31215371992135
 30
0.0
 41
1.0
  0
SPLINE
  5
13E
330
1F
100
AcDbEntity
  8
DEFAULT
100
AcDbSpline
210
0.0
220
0.0
230
1.0
 70
    12
 71
     2
 72
     6
 73
     3
 74
     0
 42
0.0000000001
 43
0.0000000001
 40
0.0
 40
0.0
 40
0.0
 40
8.250474918043878
 40
8.250474918043878
 40
8.250474918043878
 10
-8.221690428988197
 20
44.31215371992135
 30
0.0
 41
1.0
 10
-4.130406130279523
 20
43.74447538522553
 30
0.0
 41
0.9976037974956197
 10
-0.0000000000000018
 20
43.74689456168725
 30
0.0
 41
0.9999983358919136
  0
SPLINE
  5
13F
330
1F
100
AcDbEntity
  8
DEFAULT
100
AcDbSpline
210
0.0
220
0.0
230
1.0
 70
    12
 71
     2
 72
     6
 73
     3
 74
     0
 42
0.0000000001
 43
0.0000000001
 40
-8.250474918043878
 40
-8.250474918043878
 40
-8.250474918043878
 40
0.0
 40
0.0
 40
0.0
 10
-0.0000000000000018
 20
43.74689456168725
 30
0.0
 41
0.9999983358919136
 10
4.130406130279516
 20
43.74447538522553
 30
0.0
 41
0.9976037974956197
 10
8.221690428988197
 20
44.31215371992135
 30
0.0
 41
1.0
  0
SPLINE
  5
140
330
1F
100
AcDbEntity
  8
DEFAULT
100
AcDbSpline
210
0.0
220
0.0
230
1.0
 70
    12
 71
     3
 72
    11
 73
     7
 74
     0
 42
0.0000000001
 43
0.0000000001
 40
-0.8536425016506567
 40
-0.8536425016506567
 40
-0.8536425016506567
 40
-0.8536425016506567
 40
-0.5498106380855059
 40
-0.3529649579604772
 40
-0.2036422705824251
 40
-0.0285067606237307
 40
-0.0285067606237307
 40
-0.0285067606237307
 40
-0.0285067606237307
 10
8.221690428988197
 20
44.31215371992135
 30
0.0
 41
1.0
 10
8.320805969638428
 20
44.32568907345325
 30
0.0
 41
1.0
 10
8.477211326936455
 20
44.37251055549218
 30
0.0
 41
1.0
 10
8.636625616563549
 20
44.48914325164289
 30
0.0
 41
1.0
 10
8.729588937889474
 20
44.61019442651425
 30
0.0
 41
1.0
 10
8.769860238955985
 20
44.71690986689556
 30
0.0
 41
1.0
 10
8.778550737933557
 20
44.76620406729831
 30
0.0
 41
1.0
  0
SPLINE
  5
141
330
1F
100
AcDbEntity
  8
DEFAULT
100
AcDbSpline
210
0.0
220
0.0
230
1.0
 70
     8
 71
     2
 72
    13
 73
    10
 74
     0
 42
0.0000000001
 43
0.0000000001
 40
-8.0
 40
-8.0
 40
-8.0
 40
-7.0
 40
-6.0
 40
-5.0
 40
-4.0
 40
-3.0
 40
-2.0
 40
-1.0
 40
0.0
 40
0.0
 40
0.0
 10
8.778550737933557
 20
44.76620406729831
 30
0.0
 10
8.949221069858226
 20
45.73427938338844
 30
0.0
 10
8.938358194108318
 20
47.69772254893506
 30
0.0
 10
8.831629822223519
 20
49.65496653651799
 30
0.0
 10
8.68543010706324
 20
51.60997637996236
 30
0.0
 10
8.50324275607008
 20
53.56190822836471
 30
0.0
 10
8.274599640488645
 20
55.50902178145289
 30
0.0
 10
7.985301972178689
 20
57.44807150949963
 30
0.0
 10
7.635158840831451
 20
59.37706838872214
 30
0.0
 10
7.43217764465102
 20
60.33606488373158
 30
0.0
  0
SPLINE
  5
142
330
1F
100
AcDbEntity
  8
DEFAULT
100
AcDbSpline
210
0.0
220
0.0
230
1.0
 70
    12
 71
     2
 72
     6
 73
     3
 74
     0
 42
0.0000000001
 43
0.0000000001
 40
0.0
 40
0.0
 40
0.0
 40
0.0742368075508645
 40
0.0742368075508645
 40
0.0742368075508645
 10
9.335955625871321
 20
62.11656697078459
 30
0.0
 41
1.0
 10
9.34690355956293
 20
62.08109977472404
 30
0.0
 41
0.9999981765885326
 10
9.357715952740222
 20
62.04559102365766
 30
0.0
 41
1.0
  0
SPLINE
  5
143
330
1F
100
AcDbEntity
  8
DEFAULT
100
AcDbSpline
210
0.0
220
0.0
230
1.0
 70
    12
 71
     2
 72
     6
 73
     3
 74
     0
 42
0.0000000001
 43
0.0000000001
 40
-4.878290109995292
 40
-4.878290109995292
 40
-4.878290109995292
 40
0.0
 40
0.0
 40
0.0
 10
4.830211976756473
 20
61.4247092328999
 30
0.0
 41
1.0
 10
2.44825080472971
 20
61.99068630766807
 30
0.0
 41
0.9934760685754098
 10
0.0000000000000071
 20
62.00239406379631
 30
0.0
 41
0.9999918043754388
  0
SPLINE
  5
144
330
1F
100
AcDbEntity
  8
DEFAULT
100
AcDbSpline
210
0.0
220
0.0
230
1.0
 70
    12
 71
     2
 72
     6
 73
     3
 74
     0
 42
0.0000000001
 43
0.0000000001
 40
0.0
 40
0.0
 40
0.0
 40
4.878290109995292
 40
4.878290109995292
 40
4.878290109995292
 10
0.0000000000000071
 20
62.00239406379631
 30
0.0
 41
0.9999918043754388
 10
-2.448250804729712
 20
61.99068630766807
 30
0.0
 41
0.9934760685754098
 10
-4.830211976756473
 20
61.4247092328999
 30
0.0
 41
1.0
  0
SPLINE
  5
145
330
1F
100
AcDbEntity
  8
DEFAULT
100
AcDbSpline
210
0.0
220
0.0
230
1.0
 70
    24
 71
     2
 72
     6
 73
     3
 74
     0
 42
0.0000000001
 43
0.0000000001
 40
0.0
 40
0.0
 40
0.0
 40
6.125174616136164
 40
6.125174616136164
 40
6.125174616136164
 10
39.50820073669232
 20
17.24721425082246
 30
0.0
 10
36.45971297307376
 20
16.9536782656218
 30
0.0
 10
33.41122520945521
 20
16.66014228042114
 30
0.0
  0
SPLINE
  5
146
330
1F
100
AcDbEntity
  8
DEFAULT
100
AcDbSpline
210
0.0
220
0.0
230
1.0
 70
    12
 71
     2
 72
     7
 73
     4
 74
     0
 42
0.0000000001
 43
0.0000000001
 40
-2.0
 40
-2.0
 40
-2.0
 40
-1.0
 40
0.0
 40
0.0
 40
0.0
 10
43.20949155116637
 20
0.0406879580384168
 30
0.0
 41
1.0
 10
42.97606810001727
 20
0.0247868753695916
 30
0.0
 41
1.0
 10
42.43115832798787
 20
0.0096232744259
 30
0.0
 41
1.0
 10
42.19721181792528
 20
0.0125185129188097
 30
0.0
 41
1.0
  0
SPLINE
  5
147
330
1F
100
AcDbEntity
  8
DEFAULT
100
AcDbSpline
210
0.0
220
0.0
230
1.0
 70
    12
 71
     2
 72
     6
 73
     3
 74
     0
 42
0.0000000001
 43
0.0000000001
 40
0.0
 40
0.0
 40
0.0
 40
0.0904048108433135
 40
0.0904048108433135
 40
0.0904048108433135
 10
42.19721181792528
 20
0.0125185129188097
 30
0.0
 41
1.0
 10
42.14097183216272
 20
0.0145496949188919
 30
0.0
 41
0.729356425966674
 10
42.13940391080584
 20
0.0708045020157896
 30
0.0
 41
1.0
  0
SPLINE
  5
148
330
1F
100
AcDbEntity
  8
DEFAULT
100
AcDbSpline
210
0.0
220
0.0
230
1.0
 70
    24
 71
     2
 72
     6
 73
     3
 74
     0
 42
0.0000000001
 43
0.0000000001
 40
0.0
 40
0.0
 40
0.0
 40
0.0839130223841461
 40
0.0839130223841461
 40
0.0839130223841461
 10
42.13940391080584
 20
0.0708045020157896
 30
0.0
 10
42.13823680822721
 20
0.112744777443849
 30
0.0
 10
42.13706970564857
 20
0.1546850528719084
 30
0.0
  0
SPLINE
  5
149
330
1F
100
AcDbEntity
  8
DEFAULT
100
AcDbSpline
210
0.0
220
0.0
230
1.0
 70
    12
 71
     2
 72
     6
 73
     3
 74
     0
 42
0.0000000001
 43
0.0000000001
 40
-0.8835729338221291
 40
-0.8835729338221291
 40
-0.8835729338221291
 40
0.0
 40
0.0
 40
0.0
 10
42.1370697036715
 20
0.1546850528959354
 30
0.0
 41
1.0
 10
42.13685214620813
 20
0.1625032762212801
 30
0.0
 41
0.7071067811865476
 10
42.69913447755781
 20
0.1781503159405826
 30
0.0
 41
1.0
  0
SPLINE
  5
14A
330
1F
100
AcDbEntity
  8
DEFAULT
100
AcDbSpline
210
0.0
220
0.0
230
1.0
 70
    12
 71
     2
 72
     6
 73
     3
 74
     0
 42
0.0000000001
 43
0.0000000001
 40
-0.5626268167511917
 40
-0.5626268167511917
 40
-0.5626268167511917
 40
0.0
 40
0.0
 40
0.0
 10
42.69913447755781
 20
0.1781503159405826
 30
0.0
 41
1.0
 10
42.98027558865089
 20
0.1898844606226482
 30
0.0
 41
0.9996137062916401
 10
43.26163436834341
 20
0.1859791324716351
 30
0.0
 41
1.0
  0
SPLINE
  5
14B
330
1F
100
AcDbEntity
  8
DEFAULT
100
AcDbSpline
210
0.0
220
0.0
230
1.0
 70
    24
 71
     2
 72
     6
 73
     3
 74
     0
 42
0.0000000001
 43
0.0000000001
 40
0.0
 40
0.0
 40
0.0
 40
0.0839130223841461
 40
0.0839130223841461
 40
0.0839130223841461
 10
43.26163436834341
 20
0.1859791324716351
 30
0.0
 10
43.26280147092206
 20
0.1440388570435758
 30
0.0
 10
43.2639685735007
 20
0.1020985816155164
 30
0.0
  0
SPLINE
  5
14C
330
1F
100
AcDbEntity
  8
DEFAULT
100
AcDbSpline
210
0.0
220
0.0
230
1.0
 70
    12
 71
     2
 72
     6
 73
     3
 74
     0
 42
0.0000000001
 43
0.0000000001
 40
0.0
 40
0.0
 40
0.0
 40
0.0904048108433086
 40
0.0904048108433086
 40
0.0904048108433086
 10
43.2639685735007
 20
0.1020985816155164
 30
0.0
 41
1.0
 10
43.26553154292445
 20
0.0458436367175797
 30
0.0
 41
0.7293564259667926
 10
43.20949155116637
 20
0.0406879580384168
 30
0.0
 41
1.0
  0
SPLINE
  5
14D
330
1F
100
AcDbEntity
  8
DEFAULT
100
AcDbSpline
210
0.0
220
0.0
230
1.0
 70
    24
 71
     2
 72
     6
 73
     3
 74
     0
 42
0.0000000001
 43
0.0000000001
 40
0.0
 40
0.0
 40
0.0
 40
1.281609588325501
 40
1.281609588325501
 40
1.281609588325501
 10
40.40756289131988
 20
16.33923413297182
 30
0.0
 10
41.04541754732496
 20
16.40065255068691
 30
0.0
 10
41.68327220333003
 20
16.46207096840201
 30
0.0
  0
SPLINE
  5
14E
330
1F
100
AcDbEntity
  8
DEFAULT
100
AcDbSpline
210
0.0
220
0.0
230
1.0
 70
     8
 71
     3
 72
    11
 73
     7
 74
     0
 42
0.0000000001
 43
0.0000000001
 40
0.0
 40
0.0
 40
0.0
 40
0.0
 40
0.0812142956748983
 40
0.1691805052559531
 40
0.2770251838984233
 40
0.414857363145586
 40
0.414857363145586
 40
0.414857363145586
 40
0.414857363145586
 10
40.02281393732355
 20
16.46646640981928
 30
0.0
 10
39.99585633750399
 20
16.46390179587649
 30
0.0
 10
39.94051838628485
 20
16.45113082243773
 30
0.0
 10
39.85678621628657
 20
16.41121082742138
 30
0.0
 10
39.76522928802257
 20
16.34769290223922
 30
0.0
 10
39.70315957515595
 20
16.29415613783051
 30
0.0
 10
39.66928783909322
 20
16.26311934466696
 30
0.0
  0
SPLINE
  5
14F
330
1F
100
AcDbEntity
  8
DEFAULT
100
AcDbSpline
210
0.0
220
0.0
230
1.0
 70
    24
 71
     2
 72
     6
 73
     3
 74
     0
 42
0.0000000001
 43
0.0000000001
 40
0.0
 40
0.0
 40
0.0
 40
0.3660519085076586
 40
0.3660519085076586
 40
0.3660519085076586
 10
39.66928783909322
 20
16.26311934466696
 30
0.0
 10
39.69015520448801
 20
16.08091058841038
 30
0.0
 10
39.7110225698828
 20
15.8987018321538
 30
0.0
  0
SPLINE
  5
150
330
1F
100
AcDbEntity
  8
DEFAULT
100
AcDbSpline
210
0.0
220
0.0
230
1.0
 70
    12
 71
     2
 72
     6
 73
     3
 74
     0
 42
0.0000000001
 43
0.0000000001
 40
0.0
 40
0.0
 40
0.0
 40
0.2226359711496808
 40
0.2226359711496808
 40
0.2226359711496808
 10
39.7110225698828
 20
15.8987018321538
 30
0.0
 41
1.0
 10
39.75720618464316
 20
15.78787172010467
 30
0.0
 41
0.9027033858667041
 10
39.87163810595652
 20
15.75417452022436
 30
0.0
 41
1.0
  0
SPLINE
  5
151
330
1F
100
AcDbEntity
  8
DEFAULT
100
AcDbSpline
210
0.0
220
0.0
230
1.0
 70
    24
 71
     2
 72
     6
 73
     3
 74
     0
 42
0.0000000001
 43
0.0000000001
 40
0.0
 40
0.0
 40
0.0
 40
0.2187499999999951
 40
0.2187499999999951
 40
0.2187499999999951
 10
39.87163810595652
 20
15.75417452022436
 30
0.0
 10
39.98050956515293
 20
15.76465764940626
 30
0.0
 10
40.08938102434934
 20
15.77514077858816
 30
0.0
  0
SPLINE
  5
152
330
1F
100
AcDbEntity
  8
DEFAULT
100
AcDbSpline
210
0.0
220
0.0
230
1.0
 70
    24
 71
     2
 72
     6
 73
     3
 74
     0
 42
0.0000000001
 43
0.0000000001
 40
0.0
 40
0.0
 40
0.0
 40
0.2187500000000019
 40
0.2187500000000019
 40
0.2187500000000019
 10
40.08938102434934
 20
15.77514077858816
 30
0.0
 10
40.19825248354574
 20
15.78562390777006
 30
0.0
 10
40.30712394274215
 20
15.79610703695196
 30
0.0
  0
SPLINE
  5
153
330
1F
100
AcDbEntity
  8
DEFAULT
100
AcDbSpline
210
0.0
220
0.0
230
1.0
 70
    12
 71
     2
 72
     6
 73
     3
 74
     0
 42
0.0000000001
 43
0.0000000001
 40
0.0
 40
0.0
 40
0.0
 40
0.2226303472499437
 40
0.2226303472499437
 40
0.2226303472499437
 10
40.30712394274215
 20
15.79610703695196
 30
0.0
 41
1.0
 10
40.41300607248141
 20
15.85103307459739
 30
0.0
 41
0.9027752838223648
 10
40.43721140191599
 20
15.96862584794003
 30
0.0
 41
1.0
  0
SPLINE
  5
154
330
1F
100
AcDbEntity
  8
DEFAULT
100
AcDbSpline
210
0.0
220
0.0
230
1.0
 70
    24
 71
     2
 72
     6
 73
     3
 74
     0
 42
0.0000000001
 43
0.0000000001
 40
0.0
 40
0.0
 40
0.0
 40
0.3660519085099956
 40
0.3660519085099956
 40
0.3660519085099956
 10
40.43721140191599
 20
15.96862584794003
 30
0.0
 10
40.42249370306931
 20
16.15173703841189
 30
0.0
 10
40.40777600422263
 20
16.33484822888374
 30
0.0
  0
SPLINE
  5
155
330
1F
100
AcDbEntity
  8
DEFAULT
100
AcDbSpline
210
0.0
220
0.0
230
1.0
 70
     8
 71
     3
 72
    11
 73
     7
 74
     0
 42
0.0000000001
 43
0.0000000001
 40
0.0
 40
0.0
 40
0.0
 40
0.0
 40
0.0017540549121738
 40
0.1396136358089379
 40
0.2474265428751539
 40
0.4169006501691559
 40
0.4169006501691559
 40
0.4169006501691559
 40
0.4169006501691559
 10
40.40777600422263
 20
16.33484822888374
 30
0.0
 10
40.40919255778951
 20
16.33397453722892
 30
0.0
 10
40.37048401769729
 20
16.35776163066377
 30
0.0
 10
40.29803253052617
 20
16.39910520261533
 30
0.0
 10
40.17193446509478
 20
16.45478077905962
 30
0.0
 10
40.07925040560414
 20
16.47213120689885
 30
0.0
 10
40.02281393732355
 20
16.46646640981928
 30
0.0
  0
SPLINE
  5
156
330
1F
100
AcDbEntity
  8
DEFAULT
100
AcDbSpline
210
0.0
220
0.0
230
1.0
 70
    24
 71
     2
 72
     6
 73
     3
 74
     0
 42
0.0000000001
 43
0.0000000001
 40
-0.0992958139205835
 40
-0.0992958139205835
 40
-0.0992958139205835
 40
0.0
 40
0.0
 40
0.0
 10
32.95043259129076
 20
16.3639368427628
 30
0.0
 10
32.99988575266516
 20
16.36870195426278
 30
0.0
 10
33.04933891403957
 20
16.37346706576277
 30
0.0
  0
SPLINE
  5
157
330
1F
100
AcDbEntity
  8
DEFAULT
100
AcDbSpline
210
0.0
220
0.0
230
1.0
 70
    12
 71
     3
 72
    12
 73
     8
 74
     0
 42
0.0000000001
 43
0.0000000001
 40
2.266806351395972
 40
2.266806351395972
 40
2.266806351395972
 40
2.266806351395972
 40
2.411132418285951
 40
2.411132418285951
 40
2.598945532857947
 40
2.598945532857947
 40
2.9565629204786
 40
2.9565629204786
 40
2.9565629204786
 40
2.9565629204786
 10
33.04933891403957
 20
16.37346706576277
 30
0.0
 41
1.0
 10
33.09361370253617
 20
16.38598860588929
 30
0.0
 41
1.0
 10
33.12961257457457
 20
16.4084926958738
 30
0.0
 41
1.0
 10
33.21564969934411
 20
16.46937232069973
 30
0.0
 41
1.0
 10
33.25497677738466
 20
16.50511826058619
 30
0.0
 41
1.0
 10
33.36112453030228
 20
16.60545904352252
 30
0.0
 41
1.0
 10
33.41122520945521
 20
16.66014228042114
 30
0.0
 41
1.0
 10
33.41122520945521
 20
16.66014228042114
 30
0.0
 41
1.0
  0
SPLINE
  5
158
330
1F
100
AcDbEntity
  8
DEFAULT
100
AcDbSpline
210
0.0
220
0.0
230
1.0
 70
    24
 71
     2
 72
     6
 73
     3
 74
     0
 42
0.0000000001
 43
0.0000000001
 40
0.0
 40
0.0
 40
0.0
 40
0.0795454859458744
 40
0.0795454859458744
 40
0.0795454859458744
 10
33.41122520945521
 20
16.66014228042114
 30
0.0
 10
33.40810467600694
 20
16.69979241730098
 30
0.0
 10
33.40498414255867
 20
16.73944255418081
 30
0.0
  0
SPLINE
  5
159
330
1F
100
AcDbEntity
  8
DEFAULT
100
AcDbSpline
210
0.0
220
0.0
230
1.0
 70
    12
 71
     3
 72
    10
 73
     6
 74
     0
 42
0.0000000001
 43
0.0000000001
 40
-2.791708356059433
 40
-2.791708356059433
 40
-2.791708356059433
 40
-2.791708356059433
 40
-2.093725516925132
 40
-2.093725516925132
 40
-1.39319396481126
 40
-1.39319396481126
 40
-1.39319396481126
 40
-1.39319396481126
 10
33.40498414255867
 20
16.73944255418081
 30
0.0
 41
1.0
 10
33.40100210527282
 20
16.79003913520206
 30
0.0
 41
1.0
 10
33.20453783498778
 20
16.82653964201936
 30
0.0
 41
1.0
 10
32.70932858932844
 20
16.79941817009654
 30
0.0
 41
1.0
 10
32.52178820124212
 20
16.74009742884956
 30
0.0
 41
1.0
 10
32.52770233407847
 20
16.68797942932343
 30
0.0
 41
1.0
  0
SPLINE
  5
15A
330
1F
100
AcDbEntity
  8
DEFAULT
100
AcDbSpline
210
0.0
220
0.0
230
1.0
 70
    24
 71
     2
 72
     6
 73
     3
 74
     0
 42
0.0000000001
 43
0.0000000001
 40
0.0
 40
0.0
 40
0.0
 40
0.1124025976139652
 40
0.1124025976139652
 40
0.1124025976139652
 10
32.52770233407847
 20
16.68797942932343
 30
0.0
 10
32.53406481168088
 20
16.63213667526192
 30
0.0
 10
32.54042728928329
 20
16.5762939212004
 30
0.0
  0
SPLINE
  5
15B
330
1F
100
AcDbEntity
  8
DEFAULT
100
AcDbSpline
210
0.0
220
0.0
230
1.0
 70
    12
 71
     3
 72
    12
 73
     8
 74
     0
 42
0.0000000001
 43
0.0000000001
 40
1.478228585790528
 40
1.478228585790528
 40
1.478228585790528
 40
1.478228585790528
 40
1.835108898878118
 40
1.835108898878118
 40
2.024274150184068
 40
2.024274150184068
 40
2.167373199071931
 40
2.167373199071931
 40
2.167373199071931
 40
2.167373199071931
 10
32.54042735976969
 20
16.57629386222185
 30
0.0
 41
1.0
 10
32.54050329433232
 20
16.57623490529217
 30
0.0
 41
1.0
 10
32.59998363876863
 20
16.53222489810002
 30
0.0
 41
1.0
 10
32.72347903820648
 20
16.45386517454697
 30
0.0
 41
1.0
 10
32.7692303332108
 20
16.42605677803648
 30
0.0
 41
1.0
 10
32.86553223183898
 20
16.38278639203984
 30
0.0
 41
1.0
 10
32.90493088777666
 20
16.36775973537757
 30
0.0
 41
1.0
 10
32.95043259129076
 20
16.3639368427628
 30
0.0
 41
1.0
  0
SPLINE
  5
15C
330
1F
100
AcDbEntity
  8
DEFAULT
100
AcDbSpline
210
0.0
220
0.0
230
1.0
 70
    24
 71
     2
 72
     6
 73
     3
 74
     0
 42
0.0000000001
 43
0.0000000001
 40
0.0
 40
0.0
 40
0.0
 40
1.29585246190359
 40
1.29585246190359
 40
1.29585246190359
 10
41.66888521224843
 20
17.45526450242895
 30
0.0
 10
41.02394190513662
 20
17.39316352524578
 30
0.0
 10
40.37899859802482
 20
17.33106254806262
 30
0.0
  0
SPLINE
  5
15D
330
1F
100
AcDbEntity
  8
DEFAULT
100
AcDbSpline
210
0.0
220
0.0
230
1.0
 70
    24
 71
     2
 72
     6
 73
     3
 74
     0
 42
0.0000000001
 43
0.0000000001
 40
0.0
 40
0.0
 40
0.0
 40
6.257223026633629
 40
6.257223026633629
 40
6.257223026633629
 10
33.44039222895154
 20
15.66837190126259
 30
0.0
 10
36.55460023547488
 20
15.96823602609986
 30
0.0
 10
39.66880824199822
 20
16.26810015093713
 30
0.0
  0
SPLINE
  5
15E
330
1F
100
AcDbEntity
  8
DEFAULT
100
AcDbSpline
210
0.0
220
0.0
230
1.0
 70
    24
 71
     2
 72
     6
 73
     3
 74
     0
 42
0.0000000001
 43
0.0000000001
 40
0.0
 40
0.0
 40
0.0
 40
0.3660519085076657
 40
0.3660519085076657
 40
0.3660519085076657
 10
32.70151445052221
 20
15.59219907702497
 30
0.0
 10
32.72238181591702
 20
15.40999032076839
 30
0.0
 10
32.74324918131182
 20
15.2277815645118
 30
0.0
  0
SPLINE
  5
15F
330
1F
100
AcDbEntity
  8
DEFAULT
100
AcDbSpline
210
0.0
220
0.0
230
1.0
 70
    12
 71
     2
 72
     6
 73
     3
 74
     0
 42
0.0000000001
 43
0.0000000001
 40
0.0
 40
0.0
 40
0.0
 40
0.2226359711497572
 40
0.2226359711497572
 40
0.2226359711497572
 10
32.74324918131182
 20
15.2277815645118
 30
0.0
 41
1.0
 10
32.78943279607196
 20
15.11695145246247
 30
0.0
 41
0.9027033858658244
 10
32.90386471738555
 20
15.08325425258236
 30
0.0
 41
1.0
  0
SPLINE
  5
160
330
1F
100
AcDbEntity
  8
DEFAULT
100
AcDbSpline
210
0.0
220
0.0
230
1.0
 70
    28
 71
     3
 72
     8
 73
     4
 74
     0
 42
0.0000000001
 43
0.0000000001
 40
-0.3436117278563864
 40
-0.3436117278563864
 40
-0.3436117278563864
 40
-0.3436117278563864
 40
0.0
 40
0.0
 40
0.0
 40
0.0
 10
32.90386471738554
 20
15.08325425258236
 30
0.0
 41
1.249004411490993
 10
32.90386470224215
 20
15.08325425112422
 30
0.0
 41
0.9343217557452168
 10
32.99336996949683
 20
15.09187262811684
 30
0.0
 41
0.8657533669198912
 10
33.12160763577833
 20
15.10422051094616
 30
0.0
 41
1.0
  0
SPLINE
  5
161
330
1F
100
AcDbEntity
  8
DEFAULT
100
AcDbSpline
210
0.0
220
0.0
230
1.0
 70
    24
 71
     2
 72
     6
 73
     3
 74
     0
 42
0.0000000001
 43
0.0000000001
 40
0.0
 40
0.0
 40
0.0
 40
0.2187499999999946
 40
0.2187499999999946
 40
0.2187499999999946
 10
33.12160763577833
 20
15.10422051094616
 30
0.0
 10
33.23047909497474
 20
15.11470364012806
 30
0.0
 10
33.33935055417115
 20
15.12518676930996
 30
0.0
  0
SPLINE
  5
162
330
1F
100
AcDbEntity
  8
DEFAULT
100
AcDbSpline
210
0.0
220
0.0
230
1.0
 70
    12
 71
     2
 72
     6
 73
     3
 74
     0
 42
0.0000000001
 43
0.0000000001
 40
0.0
 40
0.0
 40
0.0
 40
0.2226303472499221
 40
0.2226303472499221
 40
0.2226303472499221
 10
33.33935055417115
 20
15.12518676930996
 30
0.0
 41
1.0
 10
33.44523268391035
 20
15.18011280695543
 30
0.0
 41
0.9027752838226327
 10
33.46943801334498
 20
15.29770558029803
 30
0.0
 41
1.0
  0
SPLINE
  5
163
330
1F
100
AcDbEntity
  8
DEFAULT
100
AcDbSpline
210
0.0
220
0.0
230
1.0
 70
    24
 71
     2
 72
     6
 73
     3
 74
     0
 42
0.0000000001
 43
0.0000000001
 40
0.0
 40
0.0
 40
0.0
 40
0.3660519085099928
 40
0.3660519085099928
 40
0.3660519085099928
 10
33.46943801334498
 20
15.29770558029803
 30
0.0
 10
33.45515491969647
 20
15.48054833764625
 30
0.0
 10
33.44087182604795
 20
15.66339109499448
 30
0.0
  0
SPLINE
  5
164
330
1F
100
AcDbEntity
  8
DEFAULT
100
AcDbSpline
210
0.0
220
0.0
230
1.0
 70
     8
 71
     3
 72
    11
 73
     7
 74
     0
 42
0.0000000001
 43
0.0000000001
 40
0.0
 40
0.0
 40
0.0
 40
0.0
 40
0.1377635348129177
 40
0.2455013291633975
 40
0.3335348622749909
 40
0.414857364690363
 40
0.414857364690363
 40
0.414857364690363
 40
0.414857364690363
 10
33.44087182604625
 20
15.66339109499554
 30
0.0
 10
33.40171989228122
 20
15.68738266444795
 30
0.0
 10
33.33062649509196
 20
15.72806422983954
 30
0.0
 10
33.22867142164327
 20
15.77294277844398
 30
0.0
 10
33.13884558182698
 20
15.79618591109007
 30
0.0
 10
33.08202819119862
 20
15.79817617976863
 30
0.0
 10
33.05504054875254
 20
15.79554614217727
 30
0.0
  0
SPLINE
  5
165
330
1F
100
AcDbEntity
  8
DEFAULT
100
AcDbSpline
210
0.0
220
0.0
230
1.0
 70
     8
 71
     3
 72
    11
 73
     7
 74
     0
 42
0.0000000001
 43
0.0000000001
 40
0.0
 40
0.0
 40
0.0
 40
0.0
 40
0.081214295674898
 40
0.1691805052559474
 40
0.277025183898425
 40
0.4148573631455907
 40
0.4148573631455907
 40
0.4148573631455907
 40
0.4148573631455907
 10
33.05504054875254
 20
15.79554614217727
 30
0.0
 10
33.02808294893296
 20
15.79298152823451
 30
0.0
 10
32.97274499771382
 20
15.78021055479575
 30
0.0
 10
32.88901282771553
 20
15.74029055977939
 30
0.0
 10
32.79745589945151
 20
15.67677263459725
 30
0.0
 10
32.73538618658492
 20
15.62323587018852
 30
0.0
 10
32.70151445052221
 20
15.59219907702497
 30
0.0
  0
SPLINE
  5
166
330
1F
100
AcDbEntity
  8
DEFAULT
100
AcDbSpline
210
0.0
220
0.0
230
1.0
 70
    12
 71
     2
 72
     6
 73
     3
 74
     0
 42
0.0000000001
 43
0.0000000001
 40
0.0
 40
0.0
 40
0.0
 40
1.139711099716156
 40
1.139711099716156
 40
1.139711099716156
 10
42.78115848603878
 20
17.39742614039635
 30
0.0
 41
1.0
 10
43.35283796255469
 20
17.35766526923915
 30
0.0
 41
0.9916320061266115
 10
43.89532116684924
 20
17.17294095905397
 30
0.0
 41
1.0
  0
SPLINE
  5
167
330
1F
100
AcDbEntity
  8
DEFAULT
100
AcDbSpline
210
0.0
220
0.0
230
1.0
 70
    12
 71
     2
 72
     6
 73
     3
 74
     0
 42
0.0000000001
 43
0.0000000001
 40
0.0
 40
0.0
 40
0.0
 40
0.6200990255108542
 40
0.6200990255108542
 40
0.6200990255108542
 10
43.89532116684924
 20
17.17294095905397
 30
0.0
 41
1.0
 10
44.19319585976923
 20
17.07126172350432
 30
0.0
 41
0.9777967244108859
 10
44.42317199080401
 20
16.85638496173237
 30
0.0
 41
1.0
  0
SPLINE
  5
168
330
1F
100
AcDbEntity
  8
DEFAULT
100
AcDbSpline
210
0.0
220
0.0
230
1.0
 70
    12
 71
     2
 72
    12
 73
     9
 74
     0
 42
0.0000000001
 43
0.0000000001
 40
-0.4171709231871386
 40
-0.4171709231871386
 40
-0.4171709231871386
 40
-0.0801336414061238
 40
-0.0801336414061238
 40
-0.0400668207030619
 40
-0.0400668207030619
 40
0.0
 40
0.0
 40
0.9002440585113858
 40
0.9002440585113858
 40
0.9002440585113858
 10
22.08719946622776
 20
0.3931930026811459
 30
0.0
 41
1.0
 10
22.04666039886896
 20
0.2289542388617509
 30
0.0
 41
0.994502632275188
 10
22.04121108638006
 20
0.0599024973427458
 30
0.0
 41
1.0
 10
22.0405279678872
 20
0.0387337480959867
 30
0.0
 41
0.9207550203895514
 10
22.05526147180838
 20
0.0235184118278704
 30
0.0
 41
1.0
 10
22.06999497572956
 20
0.0083030755597541
 30
0.0
 41
0.9207550203895514
 10
22.09117474419691
 20
0.0083048693151531
 30
0.0
 41
1.0
 10
22.62899452853109
 20
-0.0047046777954313
 30
0.0
 41
0.9997936884095617
 10
23.11772666773444
 20
0.0083630491118285
 30
0.0
 41
1.0
  0
SPLINE
  5
169
330
1F
100
AcDbEntity
  8
DEFAULT
100
AcDbSpline
210
0.0
220
0.0
230
1.0
 70
    12
 71
     2
 72
     8
 73
     5
 74
     0
 42
0.0000000001
 43
0.0000000001
 40
0.0
 40
0.0
 40
0.0
 40
0.0400487643131459
 40
0.0400487643131459
 40
0.0737985633247636
 40
0.0737985633247636
 40
0.0737985633247636
 10
23.11772666773444
 20
0.0083630491118285
 30
0.0
 41
1.0
 10
23.13889353212216
 20
0.0083771491827248
 30
0.0
 41
0.9209692297744823
 10
23.15362335338257
 20
0.023578093642058
 30
0.0
 41
1.0
 10
23.16583392429818
 20
0.0361784597201908
 30
0.0
 41
0.9435914231870833
 10
23.16749349858824
 20
0.0536459461038596
 30
0.0
 41
1.0
  0
SPLINE
  5
16A
330
1F
100
AcDbEntity
  8
DEFAULT
100
AcDbSpline
210
0.0
220
0.0
230
1.0
 70
    12
 71
     2
 72
     6
 73
     3
 74
     0
 42
0.0000000001
 43
0.0000000001
 40
-0.0708654497355923
 40
-0.0708654497355923
 40
-0.0708654497355923
 40
0.0
 40
0.0
 40
0.0
 10
23.16749349858824
 20
0.0536459461038596
 30
0.0
 41
1.0
 10
23.17084615637851
 20
0.08898444707195
 30
0.0
 41
0.9972784465641281
 10
23.17845525855553
 20
0.1240308316735862
 30
0.0
 41
1.0
  0
SPLINE
  5
16B
330
1F
100
AcDbEntity
  8
DEFAULT
100
AcDbSpline
210
0.0
220
0.0
230
1.0
 70
     8
 71
     2
 72
    11
 73
     8
 74
     0
 42
0.0000000001
 43
0.0000000001
 40
0.0
 40
0.0
 40
0.0
 40
1.000004143264599
 40
2.000008286529197
 40
3.000012429793797
 40
4.000016573058396
 40
5.000020716322994
 40
6.0
 40
6.0
 40
6.0
 10
23.17845525855553
 20
0.1240308316735862
 30
0.0
 10
23.08803957626789
 20
0.1519624094332632
 30
0.0
 10
22.9066172515974
 20
0.1983654390863449
 30
0.0
 10
22.72512030104437
 20
0.2443067606907554
 30
0.0
 10
22.54338847259302
 20
0.2893592950152835
 30
0.0
 10
22.36132468942824
 20
0.332951489963928
 30
0.0
 10
22.17915928155465
 20
0.3766320443486372
 30
0.0
 10
22.08719946622776
 20
0.3931930026811459
 30
0.0
  0
SPLINE
  5
16C
330
1F
100
AcDbEntity
  8
DEFAULT
100
AcDbSpline
210
0.0
220
0.0
230
1.0
 70
    12
 71
     3
 72
    36
 73
    32
 74
     0
 42
0.0000000001
 43
0.0000000001
 40
-0.0889457941897172
 40
-0.0889457941897172
 40
-0.0889457941897172
 40
-0.0889457941897172
 40
0.0
 40
0.0
 40
0.0
 40
0.2215729701957649
 40
0.2215729701957649
 40
0.2215729701957649
 40
0.3158714000432518
 40
0.3158714000432518
 40
0.3158714000432518
 40
0.7215575836071267
 40
0.7215575836071267
 40
0.9710263337659925
 40
0.9710263337659925
 40
1.222332614297898
 40
1.222332614297898
 40
1.222332614297898
 40
1.587029359019114
 40
1.587029359019114
 40
1.587029359019114
 40
1.628812051493471
 40
1.664042597137328
 40
1.68787289307827
 40
1.707876599877494
 40
1.707876599877494
 40
1.707876599877494
 40
1.947677305818644
 40
1.947677305818644
 40
1.947677305818644
 40
2.062852807233988
 40
2.062852807233988
 40
2.062852807233988
 40
2.062852807233988
 10
28.06182677797318
 20
17.1205499286931
 30
0.0
 41
1.0
 10
28.0669669132753
 20
17.15097237652878
 30
0.0
 41
0.924278334233492
 10
28.05744107543353
 20
17.18031866652686
 30
0.0
 41
0.924278334233492
 10
28.03541320137552
 20
17.20192234879917
 30
0.0
 41
1.0
 10
27.94940423494357
 20
17.23824439023696
 30
0.0
 41
1.0
 10
27.84627367066236
 20
17.28624017264634
 30
0.0
 41
1.0
 10
27.77439577565571
 20
17.30322609821267
 30
0.0
 41
1.0
 10
27.74380552525703
 20
17.31045507613807
 30
0.0
 41
1.0
 10
27.71321527485834
 20
17.31768405406348
 30
0.0
 41
1.0
 10
27.67445219411542
 20
17.32651012480429
 30
0.0
 41
1.0
 10
27.66335990528734
 20
17.32724738570355
 30
0.0
 41
1.0
 10
27.65496195897792
 20
17.31956702419183
 30
0.0
 41
1.0
 10
27.64564843587038
 20
17.29879181958419
 30
0.0
 41
1.0
 10
27.64305411189569
 20
17.28894305121616
 30
0.0
 41
1.0
 10
27.6395581086405
 20
17.26667488656028
 30
0.0
 41
1.0
 10
27.63863436584091
 20
17.25413381344913
 30
0.0
 41
1.0
 10
27.63865941067345
 20
17.24054067899784
 30
0.0
 41
1.0
 10
27.64165757386683
 20
17.11715083761452
 30
0.0
 41
0.9702102744834417
 10
27.60804916753257
 20
16.99838839842263
 30
0.0
 41
0.9702102744834417
 10
27.5408377472699
 20
16.89486706281778
 30
0.0
 41
1.0
 10
27.53357554090037
 20
16.88301263027817
 30
0.0
 41
1.0
 10
27.52185256424346
 20
16.85998605896417
 30
0.0
 41
1.0
 10
27.51204768911214
 20
16.82777982670915
 30
0.0
 41
1.0
 10
27.51304254998482
 20
16.8005470267607
 30
0.0
 41
1.0
 10
27.52400552873846
 20
16.78901485932554
 30
0.0
 41
1.0
 10
27.53038734742184
 20
16.78689780951874
 30
0.0
 41
1.0
 10
27.60490024925109
 20
16.75796335155532
 30
0.0
 41
1.0
 10
27.67941315108034
 20
16.7290288935919
 30
0.0
 41
1.0
 10
27.75392605290959
 20
16.70009443562848
 30
0.0
 41
1.0
 10
27.79128878968965
 20
16.69126500737839
 30
0.0
 41
1.0
 10
27.82865152646971
 20
16.68243557912831
 30
0.0
 41
1.0
 10
27.88743932415935
 20
16.67119256041643
 30
0.0
 41
1.0
  0
SPLINE
  5
16D
330
1F
100
AcDbEntity
  8
DEFAULT
100
AcDbSpline
210
0.0
220
0.0
230
1.0
 70
    12
 71
     2
 72
     6
 73
     3
 74
     0
 42
0.0000000001
 43
0.0000000001
 40
0.0
 40
0.0
 40
0.0
 40
0.0849799967781024
 40
0.0849799967781024
 40
0.0849799967781024
 10
27.88743932415935
 20
16.67119256041643
 30
0.0
 41
1.0
 10
27.93322635013572
 20
16.67981936839157
 30
0.0
 41
0.8730054950337861
 10
27.94988530518842
 20
16.72333204217927
 30
0.0
 41
1.0
  0
SPLINE
  5
16E
330
1F
100
AcDbEntity
  8
DEFAULT
100
AcDbSpline
210
0.0
220
0.0
230
1.0
 70
    12
 71
     2
 72
     6
 73
     3
 74
     0
 42
0.0000000001
 43
0.0000000001
 40
0.0
 40
0.0
 40
0.0
 40
7.679978169176025
 40
7.679978169176025
 40
7.679978169176025
 10
3.833646442870815
 20
16.34049807507206
 30
0.0
 41
1.0
 10
0.0000785880988243
 20
15.95511869043655
 30
0.0
 41
0.9949850785804287
 10
-3.833489266673183
 20
16.34049807507206
 30
0.0
 41
1.0
  0
ENDSEC
  0
SECTION
  2
OBJECTS
  0
DICTIONARY
  5
C
330
0
100
AcDbDictionary
281
     1
  3
ACAD_GROUP
350
D
  3
ACAD_LAYOUT
350
1A
  3
ACAD_MLEADERSTYLE
350
170
  3
ACAD_MLINESTYLE
350
17
  3
ACAD_PLOTSETTINGS
350
19
  3
ACAD_PLOTSTYLENAME
350
E
  3
ACAD_TABLESTYLE
350
16F
  3
ACAD_VISUALSTYLE
350
2A
  0
DICTIONARY
  5
D
102
{ACAD_REACTORS
330
C
102
}
330
C
100
AcDbDictionary
281
     1
  0
DICTIONARY
  5
1A
102
{ACAD_REACTORS
330
C
102
}
330
C
100
AcDbDictionary
281
     1
  3
Layout1
350
1E
  3
Layout2
350
26
  3
Model
350
22
  0
DICTIONARY
  5
170
102
{ACAD_REACTORS
330
C
102
}
330
C
100
AcDbDictionary
281
     1
  0
DICTIONARY
  5
17
102
{ACAD_REACTORS
330
C
102
}
330
C
100
AcDbDictionary
281
     1
  3
Standard
350
18
  0
DICTIONARY
  5
19
102
{ACAD_REACTORS
330
C
102
}
330
C
100
AcDbDictionary
281
     1
  0
ACDBDICTIONARYWDFLT
  5
E
102
{ACAD_REACTORS
330
C
102
}
330
C
100
AcDbDictionary
281
     1
  3
Normal
350
F
100
AcDbDictionaryWithDefault
340
F
  0
DICTIONARY
  5
16F
102
{ACAD_REACTORS
330
C
102
}
330
C
100
AcDbDictionary
281
     1
  0
DICTIONARY
  5
2A
102
{ACAD_REACTORS
330
C
102
}
330
C
100
AcDbDictionary
281
     1
  3
2dWireframe
350
2F
  3
3D Hidden
350
31
  3
3dWireframe
350
30
  3
Basic
350
32
  3
Brighten
350
36
  3
ColorChange
350
3A
  3
Conceptual
350
34
  3
Dim
350
35
  3
Facepattern
350
39
  3
Flat
350
2B
  3
FlatWithEdges
350
2C
  3
Gouraud
350
2D
  3
GouraudWithEdges
350
2E
  3
Linepattern
350
38
  3
Realistic
350
33
  3
Thicken
350
37
  0
LAYOUT
  5
1E
102
{ACAD_REACTORS
330
1A
102
}
330
1A
100
AcDbPlotSettings
  1

  2
none_device
  4

  6

 40
0.0
 41
0.0
 42
0.0
 43
0.0
 44
0.0
 45
0.0
 46
0.0
 47
0.0
 48
0.0
 49
0.0
140
0.0
141
0.0
142
1.0
143
1.0
 70
   688
 72
     0
 73
     0
 74
     5
  7

 75
    16
 76
     0
 77
     2
 78
   300
147
1.0
148
0.0
149
0.0
100
AcDbLayout
  1
Layout1
 70
     1
 71
     1
 10
0.0
 20
0.0
 11
12.0
 21
9.0
 12
0.0
 22
0.0
 32
0.0
 14
1.000000000000000E+20
 24
1.000000000000000E+20
 34
1.000000000000000E+20
 15
-1.000000000000000E+20
 25
-1.000000000000000E+20
 35
-1.000000000000000E+20
146
0.0
 13
0.0
 23
0.0
 33
0.0
 16
1.0
 26
0.0
 36
0.0
 17
0.0
 27
1.0
 37
0.0
 76
     0
330
1B
  0
LAYOUT
  5
26
102
{ACAD_REACTORS
330
1A
102
}
330
1A
100
AcDbPlotSettings
  1

  2
none_device
  4

  6

 40
0.0
 41
0.0
 42
0.0
 43
0.0
 44
0.0
 45
0.0
 46
0.0
 47
0.0
 48
0.0
 49
0.0
140
0.0
141
0.0
142
1.0
143
1.0
 70
   688
 72
     0
 73
     0
 74
     5
  7

 75
    16
 76
     0
 77
     2
 78
   300
147
1.0
148
0.0
149
0.0
100
AcDbLayout
  1
Layout2
 70
     1
 71
     2
 10
0.0
 20
0.0
 11
0.0
 21
0.0
 12
0.0
 22
0.0
 32
0.0
 14
0.0
 24
0.0
 34
0.0
 15
0.0
 25
0.0
 35
0.0
146
0.0
 13
0.0
 23
0.0
 33
0.0
 16
1.0
 26
0.0
 36
0.0
 17
0.0
 27
1.0
 37
0.0
 76
     0
330
23
  0
LAYOUT
  5
22
102
{ACAD_REACTORS
330
1A
102
}
330
1A
100
AcDbPlotSettings
  1

  2
none_device
  4

  6

 40
0.0
 41
0.0
 42
0.0
 43
0.0
 44
0.0
 45
0.0
 46
0.0
 47
0.0
 48
0.0
 49
0.0
140
0.0
141
0.0
142
1.0
143
1.0
 70
  1712
 72
     0
 73
     0
 74
     0
  7

 75
     0
 76
     0
 77
     2
 78
   300
147
1.0
148
0.0
149
0.0
100
AcDbLayout
  1
Model
 70
     1
 71
     0
 10
0.0
 20
0.0
 11
12.0
 21
9.0
 12
0.0
 22
0.0
 32
0.0
 14
-12.34249379374232
 24
0.0000047233536771
 34
0.0
 15
44.76608216122909
 25
66.47486563784624
 35
0.0
146
0.0
 13
0.0
 23
0.0
 33
0.0
 16
1.0
 26
0.0
 36
0.0
 17
0.0
 27
1.0
 37
0.0
 76
     0
330
1F
331
29
  0
MLINESTYLE
  5
18
102
{ACAD_REACTORS
330
17
102
}
330
17
100
AcDbMlineStyle
  2
Standard
 70
     0
  3

 62
   256
 51
90.0
 52
90.0
 71
     2
 49
0.5
 62
   256
  6
BYLAYER
 49
-0.5
 62
   256
  6
BYLAYER
  0
ACDBPLACEHOLDER
  5
F
102
{ACAD_REACTORS
330
E
102
}
330
E
  0
VISUALSTYLE
  5
2F
102
{ACAD_REACTORS
330
2A
102
}
330
2A
100
AcDbVisualStyle
  2
2dWireframe
 70
     4
 71
     0
 72
     2
 73
     0
 90
        0
 40
-0.6
 41
-30.0
 62
     5
 63
     7
421
 16777215
 74
     1
 91
        4
 64
     7
 65
   257
 75
     1
175
     1
 42
1.0
 92
        0
 66
   257
 43
1.0
 76
     1
 77
     6
 78
     2
 67
     7
 79
     5
170
     0
171
     0
290
     0
174
     0
 93
        1
 44
0.0
173
     0
291
     0
 45
0.0
1001
ACAD
1000
AcDbSavedByObjectVersion
1070
     0
  0
VISUALSTYLE
  5
31
102
{ACAD_REACTORS
330
2A
102
}
330
2A
100
AcDbVisualStyle
  2
3D Hidden
 70
     6
 71
     1
 72
     2
 73
     2
 90
        0
 40
-0.6
 41
-30.0
 62
     5
 63
     7
421
 16777215
 74
     2
 91
        2
 64
     7
 65
   257
 75
     2
175
     1
 42
40.0
 92
        0
 66
   257
 43
1.0
 76
     1
 77
     6
 78
     2
 67
     7
 79
     3
170
     0
171
     0
290
     0
174
     0
 93
        1
 44
0.0
173
     0
291
     0
 45
0.0
1001
ACAD
1000
AcDbSavedByObjectVersion
1070
     0
  0
VISUALSTYLE
  5
30
102
{ACAD_REACTORS
330
2A
102
}
330
2A
100
AcDbVisualStyle
  2
3dWireframe
 70
     5
 71
     0
 72
     2
 73
     0
 90
        0
 40
-0.6
 41
-30.0
 62
     5
 63
     7
421
 16777215
 74
     1
 91
        4
 64
     7
 65
   257
 75
     1
175
     1
 42
1.0
 92
        0
 66
   257
 43
1.0
 76
     1
 77
     6
 78
     2
 67
     7
 79
     5
170
     0
171
     0
290
     0
174
     0
 93
        1
 44
0.0
173
     0
291
     0
 45
0.0
1001
ACAD
1000
AcDbSavedByObjectVersion
1070
     0
  0
VISUALSTYLE
  5
32
102
{ACAD_REACTORS
330
2A
102
}
330
2A
100
AcDbVisualStyle
  2
Basic
 70
     7
 71
     1
 72
     0
 73
     1
 90
        0
 40
-0.6
 41
-30.0
 62
     5
 63
     7
421
 16777215
 74
     0
 91
        4
 64
     7
 65
   257
 75
     1
175
     1
 42
1.0
 92
        8
 66
     7
 43
1.0
 76
     1
 77
     6
 78
     2
 67
     7
 79
     5
170
     0
171
     0
290
     0
174
     0
 93
        1
 44
0.0
173
     0
291
     1
 45
0.0
1001
ACAD
1000
AcDbSavedByObjectVersion
1070
     0
  0
VISUALSTYLE
  5
36
102
{ACAD_REACTORS
330
2A
102
}
330
2A
100
AcDbVisualStyle
  2
Brighten
 70
    12
 71
     2
 72
     2
 73
     0
 90
        0
 40
-0.6
 41
-30.0
 62
     5
 63
     7
421
 16777215
 74
     1
 91
        4
 64
     7
 65
   257
 75
     1
175
     1
 42
1.0
 92
        8
 66
     7
 43
1.0
 76
     1
 77
     6
 78
     2
 67
     7
 79
     5
170
     0
171
     0
290
     0
174
     0
 93
        1
 44
50.0
173
     0
291
     1
 45
0.0
1001
ACAD
1000
AcDbSavedByObjectVersion
1070
     0
  0
VISUALSTYLE
  5
3A
102
{ACAD_REACTORS
330
2A
102
}
330
2A
100
AcDbVisualStyle
  2
ColorChange
 70
    16
 71
     2
 72
     2
 73
     3
 90
        0
 40
-0.6
 41
-30.0
 62
     5
 63
     8
421
  8421504
 74
     1
 91
        4
 64
     7
 65
   257
 75
     1
175
     1
 42
1.0
 92
        8
 66
     8
424
  8421504
 43
1.0
 76
     1
 77
     6
 78
     2
 67
     7
 79
     5
170
     0
171
     0
290
     0
174
     0
 93
        1
 44
0.0
173
     0
291
     1
 45
0.0
1001
ACAD
1000
AcDbSavedByObjectVersion
1070
     0
  0
VISUALSTYLE
  5
34
102
{ACAD_REACTORS
330
2A
102
}
330
2A
100
AcDbVisualStyle
  2
Conceptual
 70
     9
 71
     3
 72
     2
 73
     0
 90
        0
 40
-0.6
 41
-30.0
 62
     5
 63
     7
421
 16777215
 74
     2
 91
        2
 64
     7
 65
   257
 75
     1
175
     1
 42
40.0
 92
        8
 66
     7
 43
1.0
 76
     1
 77
     6
 78
     2
 67
     7
 79
     3
170
     0
171
     0
290
     0
174
     0
 93
        1
 44
0.0
173
     0
291
     0
 45
0.0
1001
ACAD
1000
AcDbSavedByObjectVersion
1070
     0
  0
VISUALSTYLE
  5
35
102
{ACAD_REACTORS
330
2A
102
}
330
2A
100
AcDbVisualStyle
  2
Dim
 70
    11
 71
     2
 72
     2
 73
     0
 90
        0
 40
-0.6
 41
-30.0
 62
     5
 63
     7
421
 16777215
 74
     1
 91
        4
 64
     7
 65
   257
 75
     1
175
     1
 42
1.0
 92
        8
 66
     7
 43
1.0
 76
     1
 77
     6
 78
     2
 67
     7
 79
     5
170
     0
171
     0
290
     0
174
     0
 93
        1
 44
-50.0
173
     0
291
     1
 45
0.0
1001
ACAD
1000
AcDbSavedByObjectVersion
1070
     0
  0
VISUALSTYLE
  5
39
102
{ACAD_REACTORS
330
2A
102
}
330
2A
100
AcDbVisualStyle
  2
Facepattern
 70
    15
 71
     2
 72
     2
 73
     0
 90
        0
 40
-0.6
 41
-30.0
 62
     5
 63
     7
421
 16777215
 74
     1
 91
        4
 64
     7
 65
   257
 75
     1
175
     1
 42
1.0
 92
        8
 66
     7
 43
1.0
 76
     1
 77
     6
 78
     2
 67
     7
 79
     5
170
     0
171
     0
290
     0
174
     0
 93
        1
 44
0.0
173
     0
291
     1
 45
0.0
1001
ACAD
1000
AcDbSavedByObjectVersion
1070
     0
  0
VISUALSTYLE
  5
2B
102
{ACAD_REACTORS
330
2A
102
}
330
2A
100
AcDbVisualStyle
  2
Flat
 70
     0
 71
     2
 72
     1
 73
     1
 90
        2
 40
-0.6
 41
30.0
 62
     5
 63
     7
421
 16777215
 74
     0
 91
        4
 64
     7
 65
   257
 75
     1
175
     1
 42
1.0
 92
        8
 66
     7
 43
1.0
 76
     1
 77
     6
 78
     2
 67
     7
 79
     5
170
     0
171
     0
290
     0
174
     0
 93
       13
 44
0.0
173
     0
291
     1
 45
0.0
1001
ACAD
1000
AcDbSavedByObjectVersion
1070
     0
  0
VISUALSTYLE
  5
2C
102
{ACAD_REACTORS
330
2A
102
}
330
2A
100
AcDbVisualStyle
  2
FlatWithEdges
 70
     1
 71
     2
 72
     1
 73
     1
 90
        2
 40
-0.6
 41
30.0
 62
     5
 63
     7
421
 16777215
 74
     1
 91
        4
 64
     7
 65
   257
 75
     1
175
     1
 42
1.0
 92
        0
 66
   257
 43
1.0
 76
     1
 77
     6
 78
     2
 67
     7
 79
     5
170
     0
171
     0
290
     0
174
     0
 93
       13
 44
0.0
173
     0
291
     1
 45
0.0
1001
ACAD
1000
AcDbSavedByObjectVersion
1070
     0
  0
VISUALSTYLE
  5
2D
102
{ACAD_REACTORS
330
2A
102
}
330
2A
100
AcDbVisualStyle
  2
Gouraud
 70
     2
 71
     2
 72
     2
 73
     1
 90
        2
 40
-0.6
 41
30.0
 62
     5
 63
     7
421
 16777215
 74
     0
 91
        4
 64
     7
 65
   257
 75
     1
175
     1
 42
1.0
 92
        0
 66
     7
 43
1.0
 76
     1
 77
     6
 78
     2
 67
     7
 79
     5
170
     0
171
     0
290
     0
174
     0
 93
       13
 44
0.0
173
     0
291
     1
 45
0.0
1001
ACAD
1000
AcDbSavedByObjectVersion
1070
     0
  0
VISUALSTYLE
  5
2E
102
{ACAD_REACTORS
330
2A
102
}
330
2A
100
AcDbVisualStyle
  2
GouraudWithEdges
 70
     3
 71
     2
 72
     2
 73
     1
 90
        2
 40
-0.6
 41
30.0
 62
     5
 63
     7
421
 16777215
 74
     1
 91
        4
 64
     7
 65
   257
 75
     1
175
     1
 42
1.0
 92
        0
 66
   257
 43
1.0
 76
     1
 77
     6
 78
     2
 67
     7
 79
     5
170
     0
171
     0
290
     0
174
     0
 93
       13
 44
0.0
173
     0
291
     1
 45
0.0
1001
ACAD
1000
AcDbSavedByObjectVersion
1070
     0
  0
VISUALSTYLE
  5
38
102
{ACAD_REACTORS
330
2A
102
}
330
2A
100
AcDbVisualStyle
  2
Linepattern
 70
    14
 71
     2
 72
     2
 73
     0
 90
        0
 40
-0.6
 41
-30.0
 62
     5
 63
     7
421
 16777215
 74
     1
 91
        4
 64
     7
 65
   257
 75
     7
175
     7
 42
1.0
 92
        8
 66
     7
 43
1.0
 76
     1
 77
     6
 78
     2
 67
     7
 79
     5
170
     0
171
     0
290
     0
174
     0
 93
        1
 44
0.0
173
     0
291
     1
 45
0.0
1001
ACAD
1000
AcDbSavedByObjectVersion
1070
     0
  0
VISUALSTYLE
  5
33
102
{ACAD_REACTORS
330
2A
102
}
330
2A
100
AcDbVisualStyle
  2
Realistic
 70
     8
 71
     2
 72
     2
 73
     0
 90
        0
 40
-0.6
 41
-30.0
 62
     5
 63
     7
421
 16777215
 74
     1
 91
        0
 64
     7
 65
   257
 75
     1
175
     1
 42
1.0
 92
        8
 66
     8
424
  7895160
 43
1.0
 76
     1
 77
     6
 78
     2
 67
     7
 79
     5
170
     0
171
     0
290
     0
174
     0
 93
       13
 44
0.0
173
     0
291
     0
 45
0.0
1001
ACAD
1000
AcDbSavedByObjectVersion
1070
     0
  0
VISUALSTYLE
  5
37
102
{ACAD_REACTORS
330
2A
102
}
330
2A
100
AcDbVisualStyle
  2
Thicken
 70
    13
 71
     2
 72
     2
 73
     0
 90
        0
 40
-0.6
 41
-30.0
 62
     5
 63
     7
421
 16777215
 74
     1
 91
        4
 64
     7
 65
   257
 75
     1
175
     1
 42
1.0
 92
       12
 66
     7
 43
1.0
 76
     1
 77
     6
 78
     2
 67
     7
 79
     5
170
     0
171
     0
290
     0
174
     0
 93
        1
 44
0.0
173
     0
291
     1
 45
0.0
1001
ACAD
1000
AcDbSavedByObjectVersion
1070
     0
  0
ENDSEC
  0
EOF
