  0
SECTION
  2
HEADER
  9
$ACADVER
  1
AC1018
  9
$ACADMAINTVER
 70
     0
  9
$DWGCODEPAGE
  3
ANSI_1252
  9
$INSBASE
 10
0.0
 20
0.0
 30
0.0
  9
$EXTMIN
 10
-10.08750908809881
 20
-0.0113540416246758
 30
0.0
  9
$EXTMAX
 10
49.65849416984513
 20
66.47486563784624
 30
0.0
  9
$LIMMIN
 10
0.0
 20
0.0
  9
$LIMMAX
 10
12.0
 20
9.0
  9
$ORTHOMODE
 70
     0
  9
$REGENMODE
 70
     1
  9
$FILLMODE
 70
     1
  9
$QTEXTMODE
 70
     0
  9
$MIRRTEXT
 70
     1
  9
$LTSCALE
 40
0.0393700787401575
  9
$ATTMODE
 70
     1
  9
$TEXTSIZE
 40
0.2
  9
$TRACEWID
 40
0.05
  9
$TEXTSTYLE
  7
Standard
  9
$CLAYER
  8
DEFAULT
  9
$CELTYPE
  6
ByLayer
  9
$CECOLOR
 62
   256
  9
$CELTSCALE
 40
1.0
  9
$DISPSILH
 70
     0
  9
$DIMSCALE
 40
1.0
  9
$DIMASZ
 40
0.18
  9
$DIMEXO
 40
0.0625
  9
$DIMDLI
 40
0.38
  9
$DIMRND
 40
0.0
  9
$DIMDLE
 40
0.0
  9
$DIMEXE
 40
0.18
  9
$DIMTP
 40
0.0
  9
$DIMTM
 40
0.0
  9
$DIMTXT
 40
0.18
  9
$DIMCEN
 40
0.09
  9
$DIMTSZ
 40
0.0
  9
$DIMTOL
 70
     0
  9
$DIMLIM
 70
     0
  9
$DIMTIH
 70
     1
  9
$DIMTOH
 70
     1
  9
$DIMSE1
 70
     0
  9
$DIMSE2
 70
     0
  9
$DIMTAD
 70
     0
  9
$DIMZIN
 70
     0
  9
$DIMBLK
  1

  9
$DIMASO
 70
     1
  9
$DIMSHO
 70
     1
  9
$DIMPOST
  1

  9
$DIMAPOST
  1

  9
$DIMALT
 70
     0
  9
$DIMALTD
 70
     2
  9
$DIMALTF
 40
25.4
  9
$DIMLFAC
 40
1.0
  9
$DIMTOFL
 70
     0
  9
$DIMTVP
 40
0.0
  9
$DIMTIX
 70
     0
  9
$DIMSOXD
 70
     0
  9
$DIMSAH
 70
     0
  9
$DIMBLK1
  1

  9
$DIMBLK2
  1

  9
$DIMSTYLE
  2
Standard
  9
$DIMCLRD
 70
     0
  9
$DIMCLRE
 70
     0
  9
$DIMCLRT
 70
     0
  9
$DIMTFAC
 40
1.0
  9
$DIMGAP
 40
0.09
  9
$DIMJUST
 70
     0
  9
$DIMSD1
 70
     0
  9
$DIMSD2
 70
     0
  9
$DIMTOLJ
 70
     1
  9
$DIMTZIN
 70
     0
  9
$DIMALTZ
 70
     0
  9
$DIMALTTZ
 70
     0
  9
$DIMUPT
 70
     0
  9
$DIMDEC
 70
     4
  9
$DIMTDEC
 70
     4
  9
$DIMALTU
 70
     2
  9
$DIMALTTD
 70
     2
  9
$DIMTXSTY
  7
Standard
  9
$DIMAUNIT
 70
     0
  9
$DIMADEC
 70
     0
  9
$DIMALTRND
 40
0.0
  9
$DIMAZIN
 70
     0
  9
$DIMDSEP
 70
    46
  9
$DIMATFIT
 70
     3
  9
$DIMFRAC
 70
     0
  9
$DIMLDRBLK
  1

  9
$DIMLUNIT
 70
     2
  9
$DIMLWD
 70
    -2
  9
$DIMLWE
 70
    -2
  9
$DIMTMOVE
 70
     2
  9
$LUNITS
 70
     2
  9
$LUPREC
 70
     3
  9
$SKETCHINC
 40
0.1
  9
$FILLETRAD
 40
0.5
  9
$AUNITS
 70
     0
  9
$AUPREC
 70
     0
  9
$MENU
  1
.
  9
$ELEVATION
 40
0.0
  9
$PELEVATION
 40
0.0
  9
$THICKNESS
 40
0.0
  9
$LIMCHECK
 70
     0
  9
$CHAMFERA
 40
0.5
  9
$CHAMFERB
 40
0.5
  9
$CHAMFERC
 40
1.0
  9
$CHAMFERD
 40
0.0
  9
$SKPOLY
 70
     0
  9
$TDCREATE
 40
2456041.405391805
  9
$TDUCREATE
 40
2456041.572058472
  9
$TDUPDATE
 40
2456041.405391817
  9
$TDUUPDATE
 40
2456041.572058484
  9
$TDINDWG
 40
0.0000000116
  9
$TDUSRTIMER
 40
0.0000000116
  9
$USRTIMER
 70
     1
  9
$ANGBASE
 50
0.0
  9
$ANGDIR
 70
     0
  9
$PDMODE
 70
     0
  9
$PDSIZE
 40
0.0
  9
$PLINEWID
 40
0.0
  9
$SPLFRAME
 70
     0
  9
$SPLINETYPE
 70
     6
  9
$SPLINESEGS
 70
     8
  9
$HANDSEED
  5
174
  9
$SURFTAB1
 70
     6
  9
$SURFTAB2
 70
     6
  9
$SURFTYPE
 70
     6
  9
$SURFU
 70
     6
  9
$SURFV
 70
     6
  9
$UCSBASE
  2

  9
$UCSNAME
  2

  9
$UCSORG
 10
0.0
 20
0.0
 30
0.0
  9
$UCSXDIR
 10
1.0
 20
0.0
 30
0.0
  9
$UCSYDIR
 10
0.0
 20
1.0
 30
0.0
  9
$UCSORTHOREF
  2

  9
$UCSORTHOVIEW
 70
     0
  9
$UCSORGTOP
 10
0.0
 20
0.0
 30
0.0
  9
$UCSORGBOTTOM
 10
0.0
 20
0.0
 30
0.0
  9
$UCSORGLEFT
 10
0.0
 20
0.0
 30
0.0
  9
$UCSORGRIGHT
 10
0.0
 20
0.0
 30
0.0
  9
$UCSORGFRONT
 10
0.0
 20
0.0
 30
0.0
  9
$UCSORGBACK
 10
0.0
 20
0.0
 30
0.0
  9
$PUCSBASE
  2

  9
$PUCSNAME
  2

  9
$PUCSORG
 10
0.0
 20
0.0
 30
0.0
  9
$PUCSXDIR
 10
1.0
 20
0.0
 30
0.0
  9
$PUCSYDIR
 10
0.0
 20
1.0
 30
0.0
  9
$PUCSORTHOREF
  2

  9
$PUCSORTHOVIEW
 70
     0
  9
$PUCSORGTOP
 10
0.0
 20
0.0
 30
0.0
  9
$PUCSORGBOTTOM
 10
0.0
 20
0.0
 30
0.0
  9
$PUCSORGLEFT
 10
0.0
 20
0.0
 30
0.0
  9
$PUCSORGRIGHT
 10
0.0
 20
0.0
 30
0.0
  9
$PUCSORGFRONT
 10
0.0
 20
0.0
 30
0.0
  9
$PUCSORGBACK
 10
0.0
 20
0.0
 30
0.0
  9
$USERI1
 70
     0
  9
$USERI2
 70
     0
  9
$USERI3
 70
     0
  9
$USERI4
 70
     0
  9
$USERI5
 70
     0
  9
$USERR1
 40
0.0
  9
$USERR2
 40
0.0
  9
$USERR3
 40
0.0
  9
$USERR4
 40
0.0
  9
$USERR5
 40
0.0
  9
$WORLDVIEW
 70
     1
  9
$SHADEDGE
 70
     3
  9
$SHADEDIF
 70
    70
  9
$TILEMODE
 70
     1
  9
$MAXACTVP
 70
    64
  9
$PINSBASE
 10
0.0
 20
0.0
 30
0.0
  9
$PLIMCHECK
 70
     0
  9
$PEXTMIN
 10
1.000000000000000E+20
 20
1.000000000000000E+20
 30
1.000000000000000E+20
  9
$PEXTMAX
 10
-1.000000000000000E+20
 20
-1.000000000000000E+20
 30
-1.000000000000000E+20
  9
$PLIMMIN
 10
0.0
 20
0.0
  9
$PLIMMAX
 10
12.0
 20
9.0
  9
$UNITMODE
 70
     0
  9
$VISRETAIN
 70
     1
  9
$PLINEGEN
 70
     0
  9
$PSLTSCALE
 70
     1
  9
$TREEDEPTH
 70
  3020
  9
$CMLSTYLE
  2
Standard
  9
$CMLJUST
 70
     0
  9
$CMLSCALE
 40
1.0
  9
$PROXYGRAPHICS
 70
     1
  9
$MEASUREMENT
 70
     0
  9
$CELWEIGHT
370
    -1
  9
$ENDCAPS
280
     0
  9
$JOINSTYLE
280
     0
  9
$LWDISPLAY
290
     0
  9
$INSUNITS
 70
     1
  9
$HYPERLINKBASE
  1

  9
$STYLESHEET
  1

  9
$XEDIT
290
     1
  9
$CEPSNTYPE
380
     0
  9
$PSTYLEMODE
290
     1
  9
$FINGERPRINTGUID
  2
{C2C13128-323E-4CBB-8B0D-76173A6A0B3A}
  9
$VERSIONGUID
  2
{FAEB1C32-E019-11D5-929B-00C0DF256EC4}
  9
$EXTNAMES
290
     1
  9
$PSVPSCALE
 40
0.0
  9
$OLESTARTUP
290
     0
  9
$SORTENTS
280
   127
  9
$INDEXCTL
280
     0
  9
$HIDETEXT
280
     1
  9
$XCLIPFRAME
290
     0
  9
$HALOGAP
280
     0
  9
$OBSCOLOR
 70
   257
  9
$OBSLTYPE
280
     0
  9
$INTERSECTIONDISPLAY
280
     0
  9
$INTERSECTIONCOLOR
 70
   257
  9
$DIMASSOC
280
     2
  9
$PROJECTNAME
  1

  0
ENDSEC
  0
SECTION
  2
CLASSES
  0
CLASS
  1
ACDBDICTIONARYWDFLT
  2
AcDbDictionaryWithDefault
  3
ObjectDBX Classes
 90
        0
 91
        4
280
     0
281
     0
  0
CLASS
  1
VISUALSTYLE
  2
AcDbVisualStyle
  3
ObjectDBX Classes
 90
     4095
 91
        4
280
     0
281
     0
  0
ENDSEC
  0
SECTION
  2
TABLES
  0
TABLE
  2
VPORT
  5
8
330
0
100
AcDbSymbolTable
 70
     1
  0
VPORT
  5
29
330
8
100
AcDbSymbolTableRecord
100
AcDbViewportTableRecord
  2
*Active
 70
     0
 10
0.0
 20
0.0
 11
1.0
 21
1.0
 12
19.78549254087316
 22
33.23175579811078
 13
0.0
 23
0.0
 14
0.5
 24
0.5
 15
0.5
 25
0.5
 16
0.0
 26
0.0
 36
1.0
 17
0.0
 27
0.0
 37
0.0
 40
67.81594407306032
 41
0.8986223543161056
 42
50.0
 43
0.0
 44
0.0
 50
0.0
 51
0.0
 71
     0
 72
   100
 73
     1
 74
     3
 75
     0
 76
     0
 77
     0
 78
     0
281
     0
 65
     1
110
0.0
120
0.0
130
0.0
111
1.0
121
0.0
131
0.0
112
0.0
122
1.0
132
0.0
 79
     0
146
0.0
  0
ENDTAB
  0
TABLE
  2
LTYPE
  5
5
330
0
100
AcDbSymbolTable
 70
     1
  0
LTYPE
  5
14
330
5
100
AcDbSymbolTableRecord
100
AcDbLinetypeTableRecord
  2
ByBlock
 70
     0
  3

 72
    65
 73
     0
 40
0.0
  0
LTYPE
  5
15
330
5
100
AcDbSymbolTableRecord
100
AcDbLinetypeTableRecord
  2
ByLayer
 70
     0
  3

 72
    65
 73
     0
 40
0.0
  0
LTYPE
  5
16
330
5
100
AcDbSymbolTableRecord
100
AcDbLinetypeTableRecord
  2
Continuous
 70
     0
  3
Solid line
 72
    65
 73
     0
 40
0.0
  0
ENDTAB
  0
TABLE
  2
LAYER
  5
2
330
0
100
AcDbSymbolTable
 70
     2
  0
LAYER
  5
10
330
2
100
AcDbSymbolTableRecord
100
AcDbLayerTableRecord
  2
0
 70
     0
 62
     7
  6
Continuous
370
    -3
390
F
  0
LAYER
  5
3B
330
2
100
AcDbSymbolTableRecord
100
AcDbLayerTableRecord
  2
DEFAULT
 70
     0
 62
     7
  6
Continuous
370
    -3
390
F
  0
ENDTAB
  0
TABLE
  2
STYLE
  5
3
330
0
100
AcDbSymbolTable
 70
     1
  0
STYLE
  5
11
330
3
100
AcDbSymbolTableRecord
100
AcDbTextStyleTableRecord
  2
Standard
 70
     0
 40
0.0
 41
1.0
 50
0.0
 71
     0
 42
0.2
  3
txt
  4

  0
ENDTAB
  0
TABLE
  2
VIEW
  5
6
330
0
100
AcDbSymbolTable
 70
     0
  0
ENDTAB
  0
TABLE
  2
UCS
  5
7
330
0
100
AcDbSymbolTable
 70
     0
  0
ENDTAB
  0
TABLE
  2
APPID
  5
9
330
0
100
AcDbSymbolTable
 70
     1
  0
APPID
  5
12
330
9
100
AcDbSymbolTableRecord
100
AcDbRegAppTableRecord
  2
ACAD
 70
     0
  0
ENDTAB
  0
TABLE
  2
DIMSTYLE
  5
A
330
0
100
AcDbSymbolTable
 70
     1
100
AcDbDimStyleTable
  0
DIMSTYLE
105
27
330
A
100
AcDbSymbolTableRecord
100
AcDbDimStyleTableRecord
  2
Standard
 70
     0
340
11
  0
ENDTAB
  0
TABLE
  2
BLOCK_RECORD
  5
1
330
0
100
AcDbSymbolTable
 70
     1
  0
BLOCK_RECORD
  5
1F
330
1
100
AcDbSymbolTableRecord
100
AcDbBlockTableRecord
  2
*Model_Space
340
22
  0
BLOCK_RECORD
  5
1B
330
1
100
AcDbSymbolTableRecord
100
AcDbBlockTableRecord
  2
*Paper_Space
340
1E
  0
BLOCK_RECORD
  5
23
330
1
100
AcDbSymbolTableRecord
100
AcDbBlockTableRecord
  2
*Paper_Space0
340
26
  0
ENDTAB
  0
ENDSEC
  0
SECTION
  2
BLOCKS
  0
BLOCK
  5
20
330
1F
100
AcDbEntity
  8
0
100
AcDbBlockBegin
  2
*Model_Space
 70
     0
 10
0.0
 20
0.0
 30
0.0
  3
*Model_Space
  1

  0
ENDBLK
  5
21
330
1F
100
AcDbEntity
  8
0
100
AcDbBlockEnd
  0
BLOCK
  5
1C
330
1B
100
AcDbEntity
 67
     1
  8
0
100
AcDbBlockBegin
  2
*Paper_Space
 70
     0
 10
0.0
 20
0.0
 30
0.0
  3
*Paper_Space
  1

  0
ENDBLK
  5
1D
330
1B
100
AcDbEntity
 67
     1
  8
0
100
AcDbBlockEnd
  0
BLOCK
  5
24
330
23
100
AcDbEntity
  8
0
100
AcDbBlockBegin
  2
*Paper_Space0
 70
     0
 10
0.0
 20
0.0
 30
0.0
  3
*Paper_Space0
  1

  0
ENDBLK
  5
25
330
23
100
AcDbEntity
  8
0
100
AcDbBlockEnd
  0
ENDSEC
  0
SECTION
  2
ENTITIES
  0
SPLINE
  5
3C
330
1F
100
AcDbEntity
  8
DEFAULT
100
AcDbSpline
210
0.0
220
0.0
230
1.0
 70
     8
 71
     3
 72
    13
 73
     9
 74
     0
 42
0.0000000001
 43
0.0000000001
 40
-6.0
 40
-6.0
 40
-6.0
 40
-6.0
 40
-4.999947347228503
 40
-3.999894694457004
 40
-2.999842041685507
 40
-1.999789388914009
 40
-0.9997367361425108
 40
0.0
 40
0.0
 40
0.0
 40
0.0
 10
9.103522588098805
 20
0.1617965176717533
 30
0.0
 10
9.158749752877561
 20
0.1482094648563042
 30
0.0
 10
9.271311870382263
 20
0.1306052509965063
 30
0.0
 10
9.441849201123242
 20
0.1222285934748903
 30
0.0
 10
9.612143530271684
 20
0.1250995397616386
 30
0.0
 10
9.78337244020302
 20
0.1387515644163173
 30
0.0
 10
9.946923854881998
 20
0.1727626584081285
 30
0.0
 10
10.06424139804493
 20
0.2101418909984183
 30
0.0
 10
10.08446241633267
 20
0.2660734883656097
 30
0.0
  0
SPLINE
  5
3D
330
1F
100
AcDbEntity
  8
DEFAULT
100
AcDbSpline
210
0.0
220
0.0
230
1.0
 70
    24
 71
     2
 72
     6
 73
     3
 74
     0
 42
0.0000000001
 43
0.0000000001
 40
0.9888426942219548
 40
0.9888426942219548
 40
0.9888426942219548
 40
1.0
 40
1.0
 40
1.0
 10
10.08446241633267
 20
0.2660734883656097
 30
0.0
 10
10.08598575221574
 20
0.1663452530186813
 30
0.0
 10
10.08750908809881
 20
0.0666170176717529
 30
0.0
  0
SPLINE
  5
3E
330
1F
100
AcDbEntity
  8
DEFAULT
100
AcDbSpline
210
0.0
220
0.0
230
1.0
 70
     8
 71
     2
 72
    22
 73
    19
 74
     0
 42
0.0000000001
 43
0.0000000001
 40
0.0
 40
0.0
 40
0.0
 40
1.001177608470404
 40
1.001177608470404
 40
2.002355216940809
 40
2.002355216940809
 40
3.003532825411213
 40
3.003532825411213
 40
4.004710433881617
 40
4.004710433881617
 40
5.005888042352022
 40
5.005888042352022
 40
6.007065650822426
 40
6.007065650822426
 40
7.008243259292831
 40
7.008243259292831
 40
8.009420867763234
 40
8.009420867763234
 40
9.0
 40
9.0
 40
9.0
 10
10.08750908809881
 20
0.0666170176717529
 30
0.0
 10
10.0873658380988
 20
0.063741767671754
 30
0.0
 10
10.0872225880988
 20
0.0608665176717551
 30
0.0
 10
10.0863615880988
 20
0.0564060176717547
 30
0.0
 10
10.0855005880988
 20
0.0519455176717543
 30
0.0
 10
10.08384658809881
 20
0.047714017671753
 30
0.0
 10
10.08219258809881
 20
0.0434825176717517
 30
0.0
 10
10.07980058809881
 20
0.0396210176717524
 30
0.0
 10
10.07740858809881
 20
0.0357595176717531
 30
0.0
 10
10.07435758809881
 20
0.0323945176717526
 30
0.0
 10
10.07130658809881
 20
0.0290295176717521
 30
0.0
 10
10.06769758809881
 20
0.0262725176717531
 30
0.0
 10
10.06408858809881
 20
0.0235155176717541
 30
0.0
 10
10.06004108809881
 20
0.0214575176717542
 30
0.0
 10
10.05599358809881
 20
0.0193995176717543
 30
0.0
 10
10.05164058809881
 20
0.0181085176717541
 30
0.0
 10
10.0472875880988
 20
0.016817517671754
 30
0.0
 10
10.04282183809881
 20
0.016336267671754
 30
0.0
 10
10.03835608809881
 20
0.015855017671754
 30
0.0
  0
SPLINE
  5
3F
330
1F
100
AcDbEntity
  8
DEFAULT
100
AcDbSpline
210
0.0
220
0.0
230
1.0
 70
    24
 71
     2
 72
     6
 73
     3
 74
     0
 42
0.0000000001
 43
0.0000000001
 40
-1.0
 40
-1.0
 40
-1.0
 40
0.0
 40
0.0
 40
0.0
 10
10.03835608809881
 20
0.015855017671754
 30
0.0
 10
9.525891088098806
 20
0.0079745176717534
 30
0.0
 10
9.013426088098804
 20
0.0000940176717528
 30
0.0
  0
SPLINE
  5
40
330
1F
100
AcDbEntity
  8
DEFAULT
100
AcDbSpline
210
0.0
220
0.0
230
1.0
 70
     8
 71
     2
 72
    10
 73
     7
 74
     0
 42
0.0000000001
 43
0.0000000001
 40
0.0
 40
0.0
 40
0.0
 40
0.9917136824330205
 40
0.9917136824330205
 40
1.993370945946416
 40
1.993370945946416
 40
2.429715343783526
 40
2.429715343783526
 40
2.429715343783526
 10
9.013426088098804
 20
0.0000940176717528
 30
0.0
 10
9.008944838098806
 20
0.0004377676717535
 30
0.0
 10
9.004463588098808
 20
0.0007815176717543
 30
0.0
 10
9.000073088098809
 20
0.0019380176717547
 30
0.0
 10
8.99568258809881
 20
0.0030945176717552
 30
0.0
 10
8.9938926154245
 20
0.0039363580692001
 30
0.0
 10
8.99210264275019
 20
0.004778198466645
 30
0.0
  0
SPLINE
  5
41
330
1F
100
AcDbEntity
  8
DEFAULT
100
AcDbSpline
210
0.0
220
0.0
230
1.0
 70
     8
 71
     3
 72
    13
 73
     9
 74
     0
 42
0.0000000001
 43
0.0000000001
 40
-6.0
 40
-6.0
 40
-6.0
 40
-6.0
 40
-4.999947347228503
 40
-3.999894694457004
 40
-2.999842041685507
 40
-1.999789388914009
 40
-0.9997367361425108
 40
0.0
 40
0.0
 40
0.0
 40
0.0
 10
-9.103522588098805
 20
0.1617965176717533
 30
0.0
 10
-9.158749752877561
 20
0.1482094648563042
 30
0.0
 10
-9.271311870382263
 20
0.1306052509965063
 30
0.0
 10
-9.441849201123242
 20
0.1222285934748903
 30
0.0
 10
-9.612143530271684
 20
0.1250995397616386
 30
0.0
 10
-9.78337244020302
 20
0.1387515644163173
 30
0.0
 10
-9.946923854881998
 20
0.1727626584081285
 30
0.0
 10
-10.06424139804493
 20
0.2101418909984183
 30
0.0
 10
-10.08446241633267
 20
0.2660734883656097
 30
0.0
  0
SPLINE
  5
42
330
1F
100
AcDbEntity
  8
DEFAULT
100
AcDbSpline
210
0.0
220
0.0
230
1.0
 70
    24
 71
     2
 72
     6
 73
     3
 74
     0
 42
0.0000000001
 43
0.0000000001
 40
0.9888426942219548
 40
0.9888426942219548
 40
0.9888426942219548
 40
1.0
 40
1.0
 40
1.0
 10
-10.08446241633267
 20
0.2660734883656097
 30
0.0
 10
-10.08598575221574
 20
0.1663452530186813
 30
0.0
 10
-10.08750908809881
 20
0.0666170176717529
 30
0.0
  0
SPLINE
  5
43
330
1F
100
AcDbEntity
  8
DEFAULT
100
AcDbSpline
210
0.0
220
0.0
230
1.0
 70
     8
 71
     2
 72
    22
 73
    19
 74
     0
 42
0.0000000001
 43
0.0000000001
 40
0.0
 40
0.0
 40
0.0
 40
1.001177608470404
 40
1.001177608470404
 40
2.002355216940809
 40
2.002355216940809
 40
3.003532825411213
 40
3.003532825411213
 40
4.004710433881617
 40
4.004710433881617
 40
5.005888042352022
 40
5.005888042352022
 40
6.007065650822426
 40
6.007065650822426
 40
7.008243259292831
 40
7.008243259292831
 40
8.009420867763234
 40
8.009420867763234
 40
9.0
 40
9.0
 40
9.0
 10
-10.08750908809881
 20
0.0666170176717529
 30
0.0
 10
-10.0873658380988
 20
0.063741767671754
 30
0.0
 10
-10.0872225880988
 20
0.0608665176717551
 30
0.0
 10
-10.0863615880988
 20
0.0564060176717547
 30
0.0
 10
-10.0855005880988
 20
0.0519455176717543
 30
0.0
 10
-10.08384658809881
 20
0.047714017671753
 30
0.0
 10
-10.08219258809881
 20
0.0434825176717517
 30
0.0
 10
-10.07980058809881
 20
0.0396210176717524
 30
0.0
 10
-10.07740858809881
 20
0.0357595176717531
 30
0.0
 10
-10.07435758809881
 20
0.0323945176717526
 30
0.0
 10
-10.07130658809881
 20
0.0290295176717521
 30
0.0
 10
-10.06769758809881
 20
0.0262725176717531
 30
0.0
 10
-10.06408858809881
 20
0.0235155176717541
 30
0.0
 10
-10.06004108809881
 20
0.0214575176717542
 30
0.0
 10
-10.05599358809881
 20
0.0193995176717543
 30
0.0
 10
-10.05164058809881
 20
0.0181085176717541
 30
0.0
 10
-10.0472875880988
 20
0.016817517671754
 30
0.0
 10
-10.04282183809881
 20
0.016336267671754
 30
0.0
 10
-10.03835608809881
 20
0.015855017671754
 30
0.0
  0
SPLINE
  5
44
330
1F
100
AcDbEntity
  8
DEFAULT
100
AcDbSpline
210
0.0
220
0.0
230
1.0
 70
    24
 71
     2
 72
     6
 73
     3
 74
     0
 42
0.0000000001
 43
0.0000000001
 40
-1.0
 40
-1.0
 40
-1.0
 40
0.0
 40
0.0
 40
0.0
 10
-10.03835608809881
 20
0.015855017671754
 30
0.0
 10
-9.525891088098806
 20
0.0079745176717534
 30
0.0
 10
-9.013426088098804
 20
0.0000940176717528
 30
0.0
  0
SPLINE
  5
45
330
1F
100
AcDbEntity
  8
DEFAULT
100
AcDbSpline
210
0.0
220
0.0
230
1.0
 70
     8
 71
     2
 72
    10
 73
     7
 74
     0
 42
0.0000000001
 43
0.0000000001
 40
0.0
 40
0.0
 40
0.0
 40
0.9917136824330205
 40
0.9917136824330205
 40
1.993370945946416
 40
1.993370945946416
 40
2.429715343783526
 40
2.429715343783526
 40
2.429715343783526
 10
-9.013426088098804
 20
0.0000940176717528
 30
0.0
 10
-9.008944838098806
 20
0.0004377676717535
 30
0.0
 10
-9.004463588098808
 20
0.0007815176717543
 30
0.0
 10
-9.000073088098809
 20
0.0019380176717547
 30
0.0
 10
-8.99568258809881
 20
0.0030945176717552
 30
0.0
 10
-8.9938926154245
 20
0.0039363580692001
 30
0.0
 10
-8.99210264275019
 20
0.004778198466645
 30
0.0
  0
SPLINE
  5
46
330
1F
100
AcDbEntity
  8
DEFAULT
100
AcDbSpline
210
0.0
220
0.0
230
1.0
 70
     8
 71
     2
 72
    44
 73
    41
 74
     0
 42
0.0000000001
 43
0.0000000001
 40
0.0
 40
0.0
 40
0.0
 40
1.0
 40
1.0
 40
2.0
 40
2.0
 40
3.0
 40
3.0
 40
4.0
 40
4.0
 40
5.0
 40
5.0
 40
6.0
 40
6.0
 40
7.0
 40
7.0
 40
8.0
 40
8.0
 40
9.0
 40
9.0
 40
10.0
 40
10.0
 40
11.0
 40
11.0
 40
12.0
 40
12.0
 40
13.0
 40
13.0
 40
14.0
 40
14.0
 40
15.0
 40
15.0
 40
16.0
 40
16.0
 40
17.0
 40
17.0
 40
18.0
 40
18.0
 40
19.0
 40
19.0
 40
20.0
 40
20.0
 40
20.0
 10
-8.871024000000006
 20
45.35754156168725
 30
0.0
 10
-8.871592000000007
 20
45.35793906168725
 30
0.0
 10
-8.872160000000008
 20
45.35833656168726
 30
0.0
 10
-8.882237000000003
 20
45.36608656168725
 30
0.0
 10
-8.892313999999999
 20
45.37383656168725
 30
0.0
 10
-8.902030500000002
 20
45.38203356168725
 30
0.0
 10
-8.911747000000005
 20
45.39023056168725
 30
0.0
 10
-8.921083000000003
 20
45.39885806168726
 30
0.0
 10
-8.930419
 20
45.40748556168726
 30
0.0
 10
-8.939356000000004
 20
45.41652606168726
 30
0.0
 10
-8.948293000000007
 20
45.42556656168725
 30
0.0
 10
-8.956812000000006
 20
45.43500156168725
 30
0.0
 10
-8.965331000000006
 20
45.44443656168725
 30
0.0
 10
-8.973415500000002
 20
45.45424606168725
 30
0.0
 10
-8.981499999999997
 20
45.46405556168725
 30
0.0
 10
-8.989132499999997
 20
45.47422056168725
 30
0.0
 10
-8.996764999999996
 20
45.48438556168725
 30
0.0
 10
-9.003930500000003
 20
45.49488456168726
 30
0.0
 10
-9.011096000000009
 20
45.50538356168726
 30
0.0
 10
-9.017779500000003
 20
45.51619556168725
 30
0.0
 10
-9.024462999999997
 20
45.52700756168725
 30
0.0
 10
-9.030650999999999
 20
45.53811006168725
 30
0.0
 10
-9.036839
 20
45.54921256168725
 30
0.0
 10
-9.042519500000004
 20
45.56058306168725
 30
0.0
 10
-9.048200000000008
 20
45.57195356168726
 30
0.0
 10
-9.053360500000004
 20
45.58356856168726
 30
0.0
 10
-9.058520999999999
 20
45.59518356168726
 30
0.0
 10
-9.063151000000005
 20
45.60702006168726
 30
0.0
 10
-9.06778100000001
 20
45.61885656168726
 30
0.0
 10
-9.071871500000007
 20
45.63089006168725
 30
0.0
 10
-9.075962000000004
 20
45.64292356168725
 30
0.0
 10
-9.079505000000005
 20
45.65512906168725
 30
0.0
 10
-9.083048000000005
 20
45.66733456168725
 30
0.0
 10
-9.086035000000003
 20
45.67968756168725
 30
0.0
 10
-9.089022
 20
45.69204056168726
 30
0.0
 10
-9.091448
 20
45.70451556168725
 30
0.0
 10
-9.093874
 20
45.71699056168725
 30
0.0
 10
-9.095734
 20
45.72956206168725
 30
0.0
 10
-9.097594
 20
45.74213356168725
 30
0.0
 10
-9.0988835
 20
45.75477606168725
 30
0.0
 10
-9.100172999999998
 20
45.76741856168726
 30
0.0
  0
SPLINE
  5
47
330
1F
100
AcDbEntity
  8
DEFAULT
100
AcDbSpline
210
0.0
220
0.0
230
1.0
 70
     8
 71
     2
 72
    10
 73
     7
 74
     0
 42
0.0000000001
 43
0.0000000001
 40
0.0
 40
0.0
 40
0.0
 40
1.0
 40
1.0
 40
2.0
 40
2.0
 40
3.0
 40
3.0
 40
3.0
 10
-9.100172999999998
 20
45.76741856168726
 30
0.0
 10
-9.100889500000001
 20
45.78010656168725
 30
0.0
 10
-9.101606000000004
 20
45.79279456168725
 30
0.0
 10
-9.101749000000005
 20
45.80550106168725
 30
0.0
 10
-9.101892000000007
 20
45.81820756168725
 30
0.0
 10
-9.101460000000003
 20
45.83090806168725
 30
0.0
 10
-9.101028
 20
45.84360856168725
 30
0.0
  0
SPLINE
  5
48
330
1F
100
AcDbEntity
  8
DEFAULT
100
AcDbSpline
210
0.0
220
0.0
230
1.0
 70
     8
 71
     2
 72
    22
 73
    19
 74
     0
 42
0.0000000001
 43
0.0000000001
 40
0.0
 40
0.0
 40
0.0
 40
1.0
 40
1.0
 40
2.0
 40
2.0
 40
3.0
 40
3.0
 40
4.0
 40
4.0
 40
5.0
 40
5.0
 40
6.0
 40
6.0
 40
7.0
 40
7.0
 40
8.0
 40
8.0
 40
9.0
 40
9.0
 40
9.0
 10
-9.101028
 20
45.84360856168725
 30
0.0
 10
-9.100022500000001
 20
45.85627606168725
 30
0.0
 10
-9.099017000000003
 20
45.86894356168725
 30
0.0
 10
-9.097440500000005
 20
45.88155206168725
 30
0.0
 10
-9.095864000000006
 20
45.89416056168725
 30
0.0
 10
-9.093718500000001
 20
45.90668556168725
 30
0.0
 10
-9.091572999999997
 20
45.91921056168726
 30
0.0
 10
-9.088864000000001
 20
45.93162506168726
 30
0.0
 10
-9.086155000000005
 20
45.94403956168726
 30
0.0
 10
-9.082887000000007
 20
45.95631906168725
 30
0.0
 10
-9.079619000000008
 20
45.96859856168725
 30
0.0
 10
-9.075800000000008
 20
45.98071756168725
 30
0.0
 10
-9.071981000000008
 20
45.99283656168725
 30
0.0
 10
-9.067617500000004
 20
46.00477056168725
 30
0.0
 10
-9.063254
 20
46.01670456168726
 30
0.0
 10
-9.058356000000003
 20
46.02842906168726
 30
0.0
 10
-9.053458000000006
 20
46.04015356168726
 30
0.0
 10
-9.048035000000006
 20
46.05164456168725
 30
0.0
 10
-9.042612000000005
 20
46.06313556168725
 30
0.0
  0
POLYLINE
  5
49
330
1F
100
AcDbEntity
  8
DEFAULT
100
AcDb2dPolyline
 66
     1
 10
0.0
 20
0.0
 30
0.0
  0
VERTEX
  5
4A
330
49
100
AcDbEntity
  8
DEFAULT
100
AcDbVertex
100
AcDb2dVertex
 10
-9.042612000000005
 20
46.06313556168725
 30
0.0
  0
VERTEX
  5
4B
330
49
100
AcDbEntity
  8
DEFAULT
100
AcDbVertex
100
AcDb2dVertex
 10
-8.938738999999998
 20
46.27092056168726
 30
0.0
  0
SEQEND
  5
4C
330
49
100
AcDbEntity
  8
DEFAULT
  0
ARC
  5
4D
330
1F
100
AcDbEntity
  8
DEFAULT
100
AcDbCircle
 10
-8.784460212159274
 20
17.19293026322955
 30
0.0
 40
0.5005401107730305
100
AcDbArc
 50
235.1914438821115
 51
260.3343011109503
  0
SPLINE
  5
4E
330
1F
100
AcDbEntity
  8
DEFAULT
100
AcDbSpline
210
0.0
220
0.0
230
1.0
 70
     8
 71
     3
 72
    12
 73
     8
 74
     0
 42
0.0000000001
 43
0.0000000001
 40
0.0
 40
0.0
 40
0.0
 40
0.0
 40
0.1289980641857453
 40
0.2562220713897911
 40
0.4615769468258699
 40
0.6420974572341978
 40
0.9090739014683552
 40
0.9090739014683552
 40
0.9090739014683552
 40
0.9090739014683552
 10
-9.070186619695663
 20
16.78195481076429
 30
0.0
 10
-9.104922508876683
 20
16.80610457632508
 30
0.0
 10
-9.170603097129971
 20
16.864743447519
 30
0.0
 10
-9.26960651225711
 20
16.9762723768876
 30
0.0
 10
-9.344876642721175
 20
17.14766476304774
 30
0.0
 10
-9.246418185406176
 20
17.35523665985551
 30
0.0
 10
-9.128767910014666
 20
17.44789665741967
 30
0.0
 10
-9.06013281301944
 20
17.50466941119394
 30
0.0
  0
ARC
  5
4F
330
1F
100
AcDbEntity
  8
DEFAULT
100
AcDbCircle
 10
-12.60358467296645
 20
21.78850533488995
 30
0.0
 40
5.559433541729797
100
AcDbArc
 50
309.5964629372505
 51
312.4026717484545
  0
SPLINE
  5
50
330
1F
100
AcDbEntity
  8
DEFAULT
100
AcDbSpline
210
0.0
220
0.0
230
1.0
 70
    12
 71
     2
 72
     6
 73
     3
 74
     0
 42
0.0000000001
 43
0.0000000001
 40
-2.61767884764435
 40
-2.61767884764435
 40
-2.61767884764435
 40
-1.76714586765109
 40
-1.76714586765109
 40
-1.76714586765109
 10
-9.811555355401305
 20
17.93127031119547
 30
0.0
 41
0.978914442170177
 10
-9.783061513330017
 20
17.80367934268387
 30
0.0
 41
0.7180591067466878
 10
-9.249921411901177
 20
17.79544755671427
 30
0.0
 41
1.0
  0
ARC
  5
51
330
1F
100
AcDbEntity
  8
DEFAULT
100
AcDbCircle
 10
-9.215557185938449
 20
20.02108206457916
 30
0.0
 40
2.225899787192812
100
AcDbArc
 50
269.1154124068016
 51
279.3830439350859
  0
SPLINE
  5
52
330
1F
100
AcDbEntity
  8
DEFAULT
100
AcDbSpline
210
0.0
220
0.0
230
1.0
 70
    12
 71
     2
 72
     6
 73
     3
 74
     0
 42
0.0000000001
 43
0.0000000001
 40
0.1987934913537411
 40
0.1987934913537411
 40
0.1987934913537411
 40
15.71812401979336
 40
15.71812401979336
 40
15.71812401979336
 10
7.748753681560222
 20
16.69722190294551
 30
0.0
 41
0.9998877182525975
 10
-0.0000041682218254
 20
15.97395575082655
 30
0.0
 41
0.9955603671604966
 10
-7.74876118491261
 20
16.69723082826613
 30
0.0
 41
0.9998879199356859
  0
ARC
  5
53
330
1F
100
AcDbEntity
  8
DEFAULT
100
AcDbCircle
 10
-17.31739563334625
 20
-24.13552727969294
 30
0.0
 40
41.66759639119658
100
AcDbArc
 50
72.37199866554799
 51
76.72575160867488
  0
SPLINE
  5
54
330
1F
100
AcDbEntity
  8
DEFAULT
100
AcDbSpline
210
0.0
220
0.0
230
1.0
 70
    12
 71
     2
 72
     6
 73
     3
 74
     0
 42
0.0000000001
 43
0.0000000001
 40
-0.0147217657248775
 40
-0.0147217657248775
 40
-0.0147217657248775
 40
0.0
 40
0.0
 40
0.0
 10
-9.02364150682423
 20
0.0070632434137343
 30
0.0
 41
1.0
 10
-9.030971670729377
 20
0.0077820056005832
 30
0.0
 41
0.9996253281867565
 10
-9.042849417664835
 20
0.0095215415385489
 30
0.0
 41
1.0
  0
SPLINE
  5
55
330
1F
100
AcDbEntity
  8
DEFAULT
100
AcDbSpline
210
0.0
220
0.0
230
1.0
 70
    24
 71
     2
 72
     6
 73
     3
 74
     0
 42
0.0000000001
 43
0.0000000001
 40
0.0
 40
0.0
 40
0.0
 40
0.0838826131717245
 40
0.0838826131717245
 40
0.0838826131717245
 10
-9.102510337575374
 20
0.0722798499397587
 30
0.0
 10
-9.101926920344804
 20
0.114218612142464
 30
0.0
 10
-9.101343503114233
 20
0.1561573743451692
 30
0.0
  0
SPLINE
  5
56
330
1F
100
AcDbEntity
  8
DEFAULT
100
AcDbSpline
210
0.0
220
0.0
230
1.0
 70
    12
 71
     2
 72
     6
 73
     3
 74
     0
 42
0.0000000001
 43
0.0000000001
 40
-0.4681485405974239
 40
-0.4681485405974239
 40
-0.4681485405974239
 40
0.0
 40
0.0
 40
0.0
 10
-8.540897275472915
 20
-0.009474429260468
 30
0.0
 41
1.0
 10
-8.77501620342066
 20
-0.0078228924777565
 30
0.0
 41
0.9996765963466816
 10
-9.00874850749759
 20
0.0057281465216029
 30
0.0
 41
1.0
  0
SPLINE
  5
57
330
1F
100
AcDbEntity
  8
DEFAULT
100
AcDbSpline
210
0.0
220
0.0
230
1.0
 70
    12
 71
     2
 72
     6
 73
     3
 74
     0
 42
0.0000000001
 43
0.0000000001
 40
0.0
 40
0.0
 40
0.0
 40
0.090509536218289
 40
0.090509536218289
 40
0.090509536218289
 10
-7.977619093118001
 20
0.0566373493282625
 30
0.0
 41
1.0
 10
-7.979661975657059
 20
0.0016767954230861
 30
0.0
 41
0.7543192092771731
 10
-8.039382688027201
 20
-0.0045365745537768
 30
0.0
 41
1.0
  0
SPLINE
  5
58
330
1F
100
AcDbEntity
  8
DEFAULT
100
AcDbSpline
210
0.0
220
0.0
230
1.0
 70
    24
 71
     2
 72
     6
 73
     3
 74
     0
 42
0.0000000001
 43
0.0000000001
 40
0.0
 40
0.0
 40
0.0
 40
16.55517303774998
 40
16.55517303774998
 40
16.55517303774998
 10
-7.746172605459932
 20
16.69409231248151
 30
0.0
 10
-7.861312389878536
 20
8.41730661950232
 30
0.0
 10
-7.976452174297142
 20
0.1405209265231283
 30
0.0
  0
SPLINE
  5
59
330
1F
100
AcDbEntity
  8
DEFAULT
100
AcDbSpline
210
0.0
220
0.0
230
1.0
 70
    12
 71
     2
 72
     6
 73
     3
 74
     0
 42
0.0000000001
 43
0.0000000001
 40
0.0
 40
0.0
 40
0.0
 40
0.0149504543859661
 40
0.0149504543859661
 40
0.0149504543859661
 10
-9.00874850749759
 20
0.0057281465216029
 30
0.0
 41
1.0
 10
-9.016200569615673
 20
0.0063189861429629
 30
0.0
 41
0.9999561228672283
 10
-9.02364150682423
 20
0.0070632434137343
 30
0.0
 41
1.0
  0
SPLINE
  5
5A
330
1F
100
AcDbEntity
  8
DEFAULT
100
AcDbSpline
210
0.0
220
0.0
230
1.0
 70
    12
 71
     2
 72
     6
 73
     3
 74
     0
 42
0.0000000001
 43
0.0000000001
 40
0.0
 40
0.0
 40
0.0
 40
0.0287637614208012
 40
0.0287637614208012
 40
0.0287637614208012
 10
-8.039382688027201
 20
-0.0045365745537768
 30
0.0
 41
1.0
 10
-8.05870491254471
 20
-0.0066060521716718
 30
0.0
 41
0.9996656851759237
 10
-8.073074238592996
 20
-0.0072794261962599
 30
0.0
 41
1.0
  0
SPLINE
  5
5B
330
1F
100
AcDbEntity
  8
DEFAULT
100
AcDbSpline
210
0.0
220
0.0
230
1.0
 70
     8
 71
     2
 72
    11
 73
     8
 74
     0
 42
0.0000000001
 43
0.0000000001
 40
0.0
 40
0.0
 40
0.0
 40
1.0
 40
2.0
 40
3.0
 40
4.0
 40
5.0
 40
6.0
 40
6.0
 40
6.0
 10
-7.976452216397853
 20
0.1405209271088
 30
0.0
 10
-8.069862151284946
 20
0.1496151944427943
 30
0.0
 10
-8.257227251894102
 20
0.1609697554648802
 30
0.0
 10
-8.444882101251697
 20
0.1649773768433725
 30
0.0
 10
-8.632567605664331
 20
0.164449916500493
 30
0.0
 10
-8.82020063247706
 20
0.168886917824407
 30
0.0
 10
-9.007901362060016
 20
0.1654531874968828
 30
0.0
 10
-9.101343461012714
 20
0.1561573737594877
 30
0.0
  0
SPLINE
  5
5C
330
1F
100
AcDbEntity
  8
DEFAULT
100
AcDbSpline
210
0.0
220
0.0
230
1.0
 70
    12
 71
     2
 72
     6
 73
     3
 74
     0
 42
0.0000000001
 43
0.0000000001
 40
0.0
 40
0.0
 40
0.0
 40
0.5069875979584633
 40
0.5069875979584633
 40
0.5069875979584633
 10
-8.034610422080604
 20
-0.0024273001073274
 30
0.0
 41
1.0
 10
-8.287167001002933
 20
0.0222001805890327
 30
0.0
 41
0.9984597417000961
 10
-8.540901305757187
 20
0.0186950718808428
 30
0.0
 41
1.0
  0
SPLINE
  5
5D
330
1F
100
AcDbEntity
  8
DEFAULT
100
AcDbSpline
210
0.0
220
0.0
230
1.0
 70
    12
 71
     2
 72
     6
 73
     3
 74
     0
 42
0.0000000001
 43
0.0000000001
 40
0.0
 40
0.0
 40
0.0
 40
0.0905125898444878
 40
0.0905125898444878
 40
0.0905125898444878
 10
-9.042849417664835
 20
0.0095215415385489
 30
0.0
 41
1.0
 10
-9.101902926258509
 20
0.0173517644409298
 30
0.0
 41
0.7556419620120104
 10
-9.102510337575374
 20
0.0722798499397587
 30
0.0
 41
1.0
  0
SPLINE
  5
5E
330
1F
100
AcDbEntity
  8
DEFAULT
100
AcDbSpline
210
0.0
220
0.0
230
1.0
 70
    12
 71
     2
 72
     6
 73
     3
 74
     0
 42
0.0000000001
 43
0.0000000001
 40
0.0
 40
0.0
 40
0.0
 40
0.5065890987312437
 40
0.5065890987312437
 40
0.5065890987312437
 10
-8.540901305757187
 20
0.0186950718808428
 30
0.0
 41
1.0
 10
-8.794240958091004
 20
0.0292684959253454
 30
0.0
 41
0.9984529850107059
 10
-9.04718412886523
 20
0.0116478867060044
 30
0.0
 41
1.0
  0
SPLINE
  5
5F
330
1F
100
AcDbEntity
  8
DEFAULT
100
AcDbSpline
210
0.0
220
0.0
230
1.0
 70
    12
 71
     2
 72
     6
 73
     3
 74
     0
 42
0.0000000001
 43
0.0000000001
 40
-0.4678786518234926
 40
-0.4678786518234926
 40
-0.4678786518234926
 40
0.0
 40
0.0
 40
0.0
 10
-8.073074238592996
 20
-0.0072794261962599
 30
0.0
 41
1.0
 10
-8.306957831265287
 20
-0.0143321204280719
 30
0.0
 41
0.99967599695013
 10
-8.540897275472915
 20
-0.009474429260468
 30
0.0
 41
1.0
  0
SPLINE
  5
60
330
1F
100
AcDbEntity
  8
DEFAULT
100
AcDbSpline
210
0.0
220
0.0
230
1.0
 70
    24
 71
     2
 72
     6
 73
     3
 74
     0
 42
0.0000000001
 43
0.0000000001
 40
0.0
 40
0.0
 40
0.0
 40
0.0838826130654592
 40
0.0838826130654592
 40
0.0838826130654592
 10
-7.976452258500874
 20
0.1405148736226902
 30
0.0
 10
-7.977035675809438
 20
0.0985761114754763
 30
0.0
 10
-7.977619093118001
 20
0.0566373493282625
 30
0.0
  0
SPLINE
  5
61
330
1F
100
AcDbEntity
  8
DEFAULT
100
AcDbSpline
210
0.0
220
0.0
230
1.0
 70
    24
 71
     2
 72
     6
 73
     3
 74
     0
 42
0.0000000001
 43
0.0000000001
 40
0.0
 40
0.0
 40
0.0
 40
17.78454173258046
 40
17.78454173258046
 40
17.78454173258046
 10
-9.101343461012714
 20
0.1561573737594877
 30
0.0
 10
-8.976200806723995
 20
9.04746082737168
 30
0.0
 10
-8.851058152435273
 20
17.93876428098387
 30
0.0
  0
SPLINE
  5
62
330
1F
100
AcDbEntity
  8
DEFAULT
100
AcDbSpline
210
0.0
220
0.0
230
1.0
 70
     8
 71
     3
 72
     8
 73
     4
 74
     0
 42
0.0000000001
 43
0.0000000001
 40
0.0
 40
0.0
 40
0.0
 40
0.0
 40
0.5160797568490254
 40
0.5160797568490254
 40
0.5160797568490254
 40
0.5160797568490254
 10
-7.746175763228774
 20
16.69415488843361
 30
0.0
 10
-7.930629944916672
 20
16.91364410769315
 30
0.0
 10
-8.119227126670035
 20
17.12959439015741
 30
0.0
 10
-8.310438750036893
 20
17.34321295479798
 30
0.0
  0
SPLINE
  5
63
330
1F
100
AcDbEntity
  8
DEFAULT
100
AcDbSpline
210
0.0
220
0.0
230
1.0
 70
     8
 71
     3
 72
     8
 73
     4
 74
     0
 42
0.0000000001
 43
0.0000000001
 40
0.9710536948825299
 40
0.9710536948825299
 40
0.9710536948825299
 40
0.9710536948825299
 40
1.0
 40
1.0
 40
1.0
 40
1.0
 10
-8.82120163197051
 20
17.90357933610072
 30
0.0
 10
-8.832118388401366
 20
17.91538297958989
 30
0.0
 10
-8.843039130350352
 20
17.92718263577445
 30
0.0
 10
-8.853963588098814
 20
17.93897851767176
 30
0.0
  0
LINE
  5
64
330
1F
100
AcDbEntity
  8
DEFAULT
100
AcDbLine
 10
4.697558522019446
 20
15.60208025411855
 30
0.0
 11
7.751243588098816
 21
16.32957051767175
 31
0.0
  0
SPLINE
  5
65
330
1F
100
AcDbEntity
  8
DEFAULT
100
AcDbSpline
210
0.0
220
0.0
230
1.0
 70
     8
 71
     3
 72
     8
 73
     4
 74
     0
 42
0.0000000001
 43
0.0000000001
 40
0.9710536948825299
 40
0.9710536948825299
 40
0.9710536948825299
 40
0.9710536948825299
 40
1.0
 40
1.0
 40
1.0
 40
1.0
 10
8.82120163197051
 20
17.90357933610072
 30
0.0
 10
8.832118388401366
 20
17.91538297958989
 30
0.0
 10
8.843039130350352
 20
17.92718263577445
 30
0.0
 10
8.853963588098814
 20
17.93897851767176
 30
0.0
  0
SPLINE
  5
66
330
1F
100
AcDbEntity
  8
DEFAULT
100
AcDbSpline
210
0.0
220
0.0
230
1.0
 70
     8
 71
     3
 72
     8
 73
     4
 74
     0
 42
0.0000000001
 43
0.0000000001
 40
0.0
 40
0.0
 40
0.0
 40
0.0
 40
0.5160797568490254
 40
0.5160797568490254
 40
0.5160797568490254
 40
0.5160797568490254
 10
7.746175763228774
 20
16.69415488843361
 30
0.0
 10
7.930629944916672
 20
16.91364410769315
 30
0.0
 10
8.119227126670035
 20
17.12959439015741
 30
0.0
 10
8.310438750036893
 20
17.34321295479798
 30
0.0
  0
SPLINE
  5
67
330
1F
100
AcDbEntity
  8
DEFAULT
100
AcDbSpline
210
0.0
220
0.0
230
1.0
 70
    24
 71
     2
 72
     6
 73
     3
 74
     0
 42
0.0000000001
 43
0.0000000001
 40
0.0
 40
0.0
 40
0.0
 40
17.44366551506392
 40
17.44366551506392
 40
17.44366551506392
 10
10.08410720374532
 20
0.2669864245367606
 30
0.0
 10
9.950002529020852
 20
8.98778814149917
 30
0.0
 10
9.815897854296383
 20
17.70858985846158
 30
0.0
  0
SPLINE
  5
68
330
1F
100
AcDbEntity
  8
DEFAULT
100
AcDbSpline
210
0.0
220
0.0
230
1.0
 70
    12
 71
     3
 72
    16
 73
    12
 74
     0
 42
0.0000000001
 43
0.0000000001
 40
-9.298268072183765
 40
-9.298268072183765
 40
-9.298268072183765
 40
-9.298268072183765
 40
-8.673929290600562
 40
-8.673929290600562
 40
-8.673929290600562
 40
-6.586620086222773
 40
-5.772800495400565
 40
-4.920229152264927
 40
-4.920229152264927
 40
-4.920229152264927
 40
-3.896273645716633
 40
-3.896273645716633
 40
-3.896273645716633
 40
-3.896273645716633
 10
9.532095908276611
 20
27.26353951767176
 30
0.0
 41
1.0
 10
9.54695048976791
 20
27.05595090972321
 30
0.0
 41
1.0
 10
9.560402497108287
 20
26.84824691874349
 30
0.0
 41
1.0
 10
9.572498973225377
 20
26.64042143435345
 30
0.0
 41
1.0
 10
9.608675387058055
 20
25.94554014077119
 30
0.0
 41
1.0
 10
9.676628460264677
 20
24.98066585107565
 30
0.0
 41
1.0
 10
9.716479212786098
 20
23.72994020667396
 30
0.0
 41
1.0
 10
9.725643444996125
 20
23.17458115165922
 30
0.0
 41
1.0
 10
9.72908670557459
 20
22.89036704839491
 30
0.0
 41
1.0
 10
9.735664216114412
 20
22.54910532059633
 30
0.0
 41
0.9999999999532982
 10
9.742243115715233
 20
22.20765041986936
 30
0.0
 41
0.9999999999222762
 10
9.748823404376743
 20
21.86600234623006
 30
0.0
 41
0.9999999999069339
  0
LINE
  5
69
330
1F
100
AcDbEntity
  8
DEFAULT
100
AcDbLine
 10
10.56131693160401
 20
25.56143391212316
 30
0.0
 11
8.941112088098816
 21
18.19232151767176
 31
0.0
  0
SPLINE
  5
6A
330
1F
100
AcDbEntity
  8
DEFAULT
100
AcDbSpline
210
0.0
220
0.0
230
1.0
 70
     8
 71
     2
 72
     8
 73
     5
 74
     0
 42
0.0000000001
 43
0.0000000001
 40
0.0
 40
0.0
 40
0.0
 40
1.0
 40
1.0
 40
2.0
 40
2.0
 40
2.0
 10
8.941112088098816
 20
18.19232151767176
 30
0.0
 10
8.937701338098815
 20
18.17785601767176
 30
0.0
 10
8.934290588098815
 20
18.16339051767176
 30
0.0
 10
8.921941588098816
 20
18.12207801767176
 30
0.0
 10
8.909592588098818
 20
18.08076551767176
 30
0.0
  0
SPLINE
  5
6B
330
1F
100
AcDbEntity
  8
DEFAULT
100
AcDbSpline
210
0.0
220
0.0
230
1.0
 70
    24
 71
     2
 72
     6
 73
     3
 74
     0
 42
0.0000000001
 43
0.0000000001
 40
0.0
 40
0.0
 40
0.0
 40
1.0
 40
1.0
 40
1.0
 10
8.909592588098818
 20
18.08076551767176
 30
0.0
 10
8.893848588098816
 20
18.04105901767176
 30
0.0
 10
8.878104588098815
 20
18.00135251767176
 30
0.0
  0
SPLINE
  5
6C
330
1F
100
AcDbEntity
  8
DEFAULT
100
AcDbSpline
210
0.0
220
0.0
230
1.0
 70
    24
 71
     2
 72
     6
 73
     3
 74
     0
 42
0.0000000001
 43
0.0000000001
 40
0.0
 40
0.0
 40
0.0
 40
1.0
 40
1.0
 40
1.0
 10
8.878104588098815
 20
18.00135251767176
 30
0.0
 10
8.862370088098816
 20
17.96990551767176
 30
0.0
 10
8.846635588098817
 20
17.93845851767176
 30
0.0
  0
LINE
  5
6D
330
1F
100
AcDbEntity
  8
DEFAULT
100
AcDbLine
 10
32.81583066984513
 20
25.18750212871959
 30
0.0
 11
30.35303474119132
 21
18.11531418907091
 31
0.0
  0
SPLINE
  5
6E
330
1F
100
AcDbEntity
  8
DEFAULT
100
AcDbSpline
210
0.0
220
0.0
230
1.0
 70
    24
 71
     2
 72
     6
 73
     3
 74
     0
 42
0.0000000001
 43
0.0000000001
 40
0.0
 40
0.0
 40
0.0
 40
1.0
 40
1.0
 40
1.0
 10
37.63098266984512
 20
25.71149312871959
 30
0.0
 10
37.65613066984513
 20
25.71154462871959
 30
0.0
 10
37.68127866984513
 20
25.71159612871959
 30
0.0
  0
SPLINE
  5
6F
330
1F
100
AcDbEntity
  8
DEFAULT
100
AcDbSpline
210
0.0
220
0.0
230
1.0
 70
    24
 71
     2
 72
     6
 73
     3
 74
     0
 42
0.0000000001
 43
0.0000000001
 40
0.0
 40
0.0
 40
0.0
 40
1.0
 40
1.0
 40
1.0
 10
37.68127866984513
 20
25.71159612871959
 30
0.0
 10
37.68127866984513
 20
26.20114062871959
 30
0.0
 10
37.68127866984513
 20
26.69068512871959
 30
0.0
  0
SPLINE
  5
70
330
1F
100
AcDbEntity
  8
DEFAULT
100
AcDbSpline
210
0.0
220
0.0
230
1.0
 70
    24
 71
     2
 72
     6
 73
     3
 74
     0
 42
0.0000000001
 43
0.0000000001
 40
0.0
 40
0.0
 40
0.0
 40
1.0
 40
1.0
 40
1.0
 10
37.68127866984513
 20
26.69068512871959
 30
0.0
 10
37.66040366984512
 20
26.69073662871958
 30
0.0
 10
37.63952866984512
 20
26.69078812871959
 30
0.0
  0
SPLINE
  5
71
330
1F
100
AcDbEntity
  8
DEFAULT
100
AcDbSpline
210
0.0
220
0.0
230
1.0
 70
    24
 71
     2
 72
     6
 73
     3
 74
     0
 42
0.0000000001
 43
0.0000000001
 40
0.0
 40
0.0
 40
0.0
 40
1.0
 40
1.0
 40
1.0
 10
35.64398266984512
 20
27.20114012871959
 30
0.0
 10
35.65184062252813
 20
26.30070912830649
 30
0.0
 10
35.65969857521114
 20
25.4002781278934
 30
0.0
  0
ARC
  5
72
330
1F
100
AcDbEntity
  8
DEFAULT
100
AcDbCircle
 10
35.75969466984512
 20
25.40115112871959
 30
0.0
 40
0.0999999053624062
100
AcDbArc
 50
180.5001994556592
 51
270.0
  0
SPLINE
  5
73
330
1F
100
AcDbEntity
  8
DEFAULT
100
AcDbSpline
210
0.0
220
0.0
230
1.0
 70
    24
 71
     2
 72
     6
 73
     3
 74
     0
 42
0.0000000001
 43
0.0000000001
 40
0.0
 40
0.0
 40
0.0
 40
1.0
 40
1.0
 40
1.0
 10
35.75969466984512
 20
25.30115122335718
 30
0.0
 10
36.64398266984512
 20
25.30115122335718
 30
0.0
 10
37.52827066984513
 20
25.30115122335718
 30
0.0
  0
ARC
  5
74
330
1F
100
AcDbEntity
  8
DEFAULT
100
AcDbCircle
 10
37.52827066984513
 20
25.40115112871959
 30
0.0
 40
0.0999999053624062
100
AcDbArc
 50
270.0
 51
359.4998005443408
  0
SPLINE
  5
75
330
1F
100
AcDbEntity
  8
DEFAULT
100
AcDbSpline
210
0.0
220
0.0
230
1.0
 70
    24
 71
     2
 72
     6
 73
     3
 74
     0
 42
0.0000000001
 43
0.0000000001
 40
0.0
 40
0.0
 40
0.0
 40
1.0
 40
1.0
 40
1.0
 10
37.62826676447911
 20
25.4002781278934
 30
0.0
 10
37.63612471716211
 20
26.30070912830649
 30
0.0
 10
37.64398266984512
 20
27.20114012871959
 30
0.0
  0
SPLINE
  5
76
330
1F
100
AcDbEntity
  8
DEFAULT
100
AcDbSpline
210
0.0
220
0.0
230
1.0
 70
    24
 71
     2
 72
     6
 73
     3
 74
     0
 42
0.0000000001
 43
0.0000000001
 40
-1.0
 40
-1.0
 40
-1.0
 40
0.0
 40
0.0
 40
0.0
 10
37.89398266984512
 20
27.26364012871959
 30
0.0
 10
37.89398266984512
 20
27.23239012871959
 30
0.0
 10
37.89398266984512
 20
27.20114012871959
 30
0.0
  0
SPLINE
  5
77
330
1F
100
AcDbEntity
  8
DEFAULT
100
AcDbSpline
210
0.0
220
0.0
230
1.0
 70
    24
 71
     2
 72
     6
 73
     3
 74
     0
 42
0.0000000001
 43
0.0000000001
 40
0.0
 40
0.0
 40
0.0
 40
1.0
 40
1.0
 40
1.0
 10
37.89398266984512
 20
27.20114012871959
 30
0.0
 10
36.70398266984512
 20
27.20114012871959
 30
0.0
 10
35.51398266984512
 20
27.20114012871959
 30
0.0
  0
SPLINE
  5
78
330
1F
100
AcDbEntity
  8
DEFAULT
100
AcDbSpline
210
0.0
220
0.0
230
1.0
 70
    24
 71
     2
 72
     6
 73
     3
 74
     0
 42
0.0000000001
 43
0.0000000001
 40
0.0
 40
0.0
 40
0.0
 40
1.0
 40
1.0
 40
1.0
 10
35.51398266984512
 20
27.20114012871959
 30
0.0
 10
35.51398266984512
 20
27.23239012871959
 30
0.0
 10
35.51398266984512
 20
27.26364012871959
 30
0.0
  0
SPLINE
  5
79
330
1F
100
AcDbEntity
  8
DEFAULT
100
AcDbSpline
210
0.0
220
0.0
230
1.0
 70
    24
 71
     2
 72
     6
 73
     3
 74
     0
 42
0.0000000001
 43
0.0000000001
 40
-1.0
 40
-1.0
 40
-1.0
 40
0.0
 40
0.0
 40
0.0
 10
34.74398366984512
 20
27.26364012871959
 30
0.0
 10
42.20123891984512
 20
27.26364012871959
 30
0.0
 10
49.65849416984513
 20
27.26364012871959
 30
0.0
  0
SPLINE
  5
7A
330
1F
100
AcDbEntity
  8
DEFAULT
100
AcDbSpline
210
0.0
220
0.0
230
1.0
 70
    24
 71
     2
 72
     6
 73
     3
 74
     0
 42
0.0000000001
 43
0.0000000001
 40
0.0
 40
0.0
 40
0.0
 40
1.0
 40
1.0
 40
1.0
 10
49.65849416984513
 20
27.26364012871959
 30
0.0
 10
49.65849416984513
 20
27.63864012871959
 30
0.0
 10
49.65849416984513
 20
28.01364012871959
 30
0.0
  0
SPLINE
  5
7B
330
1F
100
AcDbEntity
  8
DEFAULT
100
AcDbSpline
210
0.0
220
0.0
230
1.0
 70
    24
 71
     2
 72
     6
 73
     3
 74
     0
 42
0.0000000001
 43
0.0000000001
 40
0.0
 40
0.0
 40
0.0
 40
1.0
 40
1.0
 40
1.0
 10
49.65849416984513
 20
28.01364012871959
 30
0.0
 10
42.20123891984512
 20
28.01364012871959
 30
0.0
 10
34.74398366984512
 20
28.01364012871959
 30
0.0
  0
SPLINE
  5
7C
330
1F
100
AcDbEntity
  8
DEFAULT
100
AcDbSpline
210
0.0
220
0.0
230
1.0
 70
    24
 71
     2
 72
     6
 73
     3
 74
     0
 42
0.0000000001
 43
0.0000000001
 40
0.0
 40
0.0
 40
0.0
 40
1.0
 40
1.0
 40
1.0
 10
34.74398366984512
 20
28.01364012871959
 30
0.0
 10
34.74398366984512
 20
27.63864012871959
 30
0.0
 10
34.74398366984512
 20
27.26364012871959
 30
0.0
  0
LINE
  5
7D
330
1F
100
AcDbEntity
  8
DEFAULT
100
AcDbLine
 10
9.898252588098817
 20
17.98188951767176
 30
0.0
 11
11.52143938765803
 21
25.36456344289007
 31
0.0
  0
SPLINE
  5
7E
330
1F
100
AcDbEntity
  8
DEFAULT
100
AcDbSpline
210
0.0
220
0.0
230
1.0
 70
    24
 71
     2
 72
     6
 73
     3
 74
     0
 42
0.0000000001
 43
0.0000000001
 40
0.0
 40
0.0
 40
0.0
 40
1.0
 40
1.0
 40
1.0
 10
12.25538358809882
 20
27.20103951767176
 30
0.0
 10
12.24344158809882
 20
26.85904151767176
 30
0.0
 10
12.23149958809882
 20
26.51704351767176
 30
0.0
  0
SPLINE
  5
7F
330
1F
100
AcDbEntity
  8
DEFAULT
100
AcDbSpline
210
0.0
220
0.0
230
1.0
 70
     8
 71
     3
 72
    14
 73
    10
 74
     0
 42
0.0000000001
 43
0.0000000001
 40
0.0
 40
0.0
 40
0.0
 40
0.0
 40
1.0
 40
2.0
 40
3.0
 40
4.0
 40
5.0
 40
6.0
 40
7.0
 40
7.0
 40
7.0
 40
7.0
 10
12.23149958809882
 20
26.51704351767176
 30
0.0
 10
12.22612149629611
 20
26.34867243319095
 30
0.0
 10
12.15230433791954
 20
26.01762066543865
 30
0.0
 10
11.89176519155777
 20
25.5740864245737
 30
0.0
 10
11.45668552754843
 20
25.28881478463375
 30
0.0
 10
10.92808754311553
 20
25.28881581421051
 30
0.0
 10
10.49300543239563
 20
25.5740820346862
 30
0.0
 10
10.23246706319111
 20
26.01761760524393
 30
0.0
 10
10.15864701387728
 20
26.3486681270482
 30
0.0
 10
10.15326958809882
 20
26.51703951767175
 30
0.0
  0
SPLINE
  5
80
330
1F
100
AcDbEntity
  8
DEFAULT
100
AcDbSpline
210
0.0
220
0.0
230
1.0
 70
    24
 71
     2
 72
     6
 73
     3
 74
     0
 42
0.0000000001
 43
0.0000000001
 40
0.0
 40
0.0
 40
0.0
 40
1.0
 40
1.0
 40
1.0
 10
10.15326958809882
 20
26.51703951767175
 30
0.0
 10
10.14132658809882
 20
26.85903951767176
 30
0.0
 10
10.12938358809881
 20
27.20103951767176
 30
0.0
  0
SPLINE
  5
81
330
1F
100
AcDbEntity
  8
DEFAULT
100
AcDbSpline
210
0.0
220
0.0
230
1.0
 70
    24
 71
     2
 72
     6
 73
     3
 74
     0
 42
0.0000000001
 43
0.0000000001
 40
-1.0
 40
-1.0
 40
-1.0
 40
0.0
 40
0.0
 40
0.0
 10
2.896494088098816
 20
27.26353951767176
 30
0.0
 10
7.806141588098816
 20
27.26353951767176
 30
0.0
 10
12.71578908809882
 20
27.26353951767176
 30
0.0
  0
SPLINE
  5
82
330
1F
100
AcDbEntity
  8
DEFAULT
100
AcDbSpline
210
0.0
220
0.0
230
1.0
 70
    24
 71
     2
 72
     6
 73
     3
 74
     0
 42
0.0000000001
 43
0.0000000001
 40
0.0
 40
0.0
 40
0.0
 40
1.0
 40
1.0
 40
1.0
 10
12.71578908809882
 20
27.26353951767176
 30
0.0
 10
12.71578908809882
 20
27.63853951767176
 30
0.0
 10
12.71578908809882
 20
28.01353951767176
 30
0.0
  0
SPLINE
  5
83
330
1F
100
AcDbEntity
  8
DEFAULT
100
AcDbSpline
210
0.0
220
0.0
230
1.0
 70
    24
 71
     2
 72
     6
 73
     3
 74
     0
 42
0.0000000001
 43
0.0000000001
 40
0.0
 40
0.0
 40
0.0
 40
1.0
 40
1.0
 40
1.0
 10
12.71578908809882
 20
28.01353951767176
 30
0.0
 10
7.806141588098816
 20
28.01353951767176
 30
0.0
 10
2.896494088098816
 20
28.01353951767176
 30
0.0
  0
SPLINE
  5
84
330
1F
100
AcDbEntity
  8
DEFAULT
100
AcDbSpline
210
0.0
220
0.0
230
1.0
 70
    24
 71
     2
 72
     6
 73
     3
 74
     0
 42
0.0000000001
 43
0.0000000001
 40
0.0
 40
0.0
 40
0.0
 40
1.0
 40
1.0
 40
1.0
 10
2.896494088098816
 20
28.01353951767176
 30
0.0
 10
2.896494088098816
 20
27.63853951767176
 30
0.0
 10
2.896494088098816
 20
27.26353951767176
 30
0.0
  0
SPLINE
  5
85
330
1F
100
AcDbEntity
  8
DEFAULT
100
AcDbSpline
210
0.0
220
0.0
230
1.0
 70
    24
 71
     2
 72
     6
 73
     3
 74
     0
 42
0.0000000001
 43
0.0000000001
 40
0.0
 40
0.0
 40
0.0
 40
1.0
 40
1.0
 40
1.0
 10
12.38238458809882
 20
27.26353951767176
 30
0.0
 10
12.38238458809882
 20
27.23228951767176
 30
0.0
 10
12.38238458809882
 20
27.20103951767176
 30
0.0
  0
SPLINE
  5
86
330
1F
100
AcDbEntity
  8
DEFAULT
100
AcDbSpline
210
0.0
220
0.0
230
1.0
 70
    24
 71
     2
 72
     6
 73
     3
 74
     0
 42
0.0000000001
 43
0.0000000001
 40
0.0
 40
0.0
 40
0.0
 40
1.0
 40
1.0
 40
1.0
 10
12.38238458809882
 20
27.20103951767176
 30
0.0
 10
10.99238458809882
 20
27.20103951767176
 30
0.0
 10
9.602384588098815
 20
27.20103951767176
 30
0.0
  0
SPLINE
  5
87
330
1F
100
AcDbEntity
  8
DEFAULT
100
AcDbSpline
210
0.0
220
0.0
230
1.0
 70
    24
 71
     2
 72
     6
 73
     3
 74
     0
 42
0.0000000001
 43
0.0000000001
 40
-1.0
 40
-1.0
 40
-1.0
 40
0.0
 40
0.0
 40
0.0
 10
9.602384588098815
 20
27.20103951767176
 30
0.0
 10
9.602384588098815
 20
27.23228951767176
 30
0.0
 10
9.602384588098815
 20
27.26353951767176
 30
0.0
  0
SPLINE
  5
88
330
1F
100
AcDbEntity
  8
DEFAULT
100
AcDbSpline
210
0.0
220
0.0
230
1.0
 70
    24
 71
     2
 72
     6
 73
     3
 74
     0
 42
0.0000000001
 43
0.0000000001
 40
0.0
 40
0.0
 40
0.0
 40
1.0
 40
1.0
 40
1.0
 10
35.64843566984513
 20
26.69078812871959
 30
0.0
 10
35.28985716984513
 20
26.69078812871959
 30
0.0
 10
34.93127866984513
 20
26.69078812871959
 30
0.0
  0
SPLINE
  5
89
330
1F
100
AcDbEntity
  8
DEFAULT
100
AcDbSpline
210
0.0
220
0.0
230
1.0
 70
    24
 71
     2
 72
     6
 73
     3
 74
     0
 42
0.0000000001
 43
0.0000000001
 40
0.0
 40
0.0
 40
0.0
 40
1.0
 40
1.0
 40
1.0
 10
34.93127866984513
 20
25.71149312871959
 30
0.0
 10
35.29413066984512
 20
25.71149312871959
 30
0.0
 10
35.65698266984512
 20
25.71149312871959
 30
0.0
  0
SPLINE
  5
8A
330
1F
100
AcDbEntity
  8
DEFAULT
100
AcDbSpline
210
0.0
220
0.0
230
1.0
 70
     8
 71
     2
 72
    40
 73
    37
 74
     0
 42
0.0000000001
 43
0.0000000001
 40
0.0
 40
0.0
 40
0.0
 40
1.0
 40
1.0
 40
2.0
 40
2.0
 40
3.0
 40
3.0
 40
4.0
 40
4.0
 40
5.0
 40
5.0
 40
6.0
 40
6.0
 40
7.0
 40
7.0
 40
8.0
 40
8.0
 40
9.0
 40
9.0
 40
10.0
 40
10.0
 40
11.0
 40
11.0
 40
12.0
 40
12.0
 40
13.0
 40
13.0
 40
14.0
 40
14.0
 40
15.0
 40
15.0
 40
16.0
 40
16.0
 40
17.0
 40
17.0
 40
18.0
 40
18.0
 40
18.0
 10
34.93127866984513
 20
26.69078812871959
 30
0.0
 10
34.88955416984513
 20
26.69000862871959
 30
0.0
 10
34.84782966984513
 20
26.68922912871959
 30
0.0
 10
34.76734766984512
 20
26.68331612871959
 30
0.0
 10
34.68686566984512
 20
26.67740312871959
 30
0.0
 10
34.60689416984512
 20
26.66569612871959
 30
0.0
 10
34.52692266984512
 20
26.65398912871959
 30
0.0
 10
34.44787266984512
 20
26.63650512871959
 30
0.0
 10
34.36882266984512
 20
26.61902112871959
 30
0.0
 10
34.29112166984512
 20
26.59583062871959
 30
0.0
 10
34.21342066984512
 20
26.57264012871959
 30
0.0
 10
34.13751666984512
 20
26.54386212871959
 30
0.0
 10
34.06161266984512
 20
26.51508412871959
 30
0.0
 10
33.98792166984512
 20
26.48083862871959
 30
0.0
 10
33.91423066984513
 20
26.44659312871959
 30
0.0
 10
33.84313766984512
 20
26.40705012871959
 30
0.0
 10
33.77204466984512
 20
26.36750712871959
 30
0.0
 10
33.70395216984512
 20
26.32287462871959
 30
0.0
 10
33.63585966984512
 20
26.27824212871959
 30
0.0
 10
33.57114516984512
 20
26.22873362871959
 30
0.0
 10
33.50643066984512
 20
26.17922512871959
 30
0.0
 10
33.44543216984512
 20
26.12509762871959
 30
0.0
 10
33.38443366984512
 20
26.07097012871959
 30
0.0
 10
33.32749716984512
 20
26.01251012871959
 30
0.0
 10
33.27056066984512
 20
25.95405012871959
 30
0.0
 10
33.21800816984512
 20
25.89155562871959
 30
0.0
 10
33.16545566984512
 20
25.82906112871959
 30
0.0
 10
33.11755766984512
 20
25.76285812871959
 30
0.0
 10
33.06965966984512
 20
25.69665512871959
 30
0.0
 10
33.02668566984512
 20
25.62708212871959
 30
0.0
 10
32.98371166984512
 20
25.55750912871959
 30
0.0
 10
32.94590716984512
 20
25.48492412871959
 30
0.0
 10
32.90810266984512
 20
25.41233912871959
 30
0.0
 10
32.87566816984512
 20
25.33712562871959
 30
0.0
 10
32.84323366984512
 20
25.26191212871959
 30
0.0
 10
32.82953316984512
 20
25.22470962871959
 30
0.0
 10
32.81583266984512
 20
25.18750712871959
 30
0.0
  0
SPLINE
  5
8B
330
1F
100
AcDbEntity
  8
DEFAULT
100
AcDbSpline
210
0.0
220
0.0
230
1.0
 70
    24
 71
     2
 72
     6
 73
     3
 74
     0
 42
0.0000000001
 43
0.0000000001
 40
0.0
 40
0.0
 40
0.0
 40
1.0
 40
1.0
 40
1.0
 10
33.74140766984512
 20
24.86580812871959
 30
0.0
 10
33.74944466984512
 20
24.88758412871959
 30
0.0
 10
33.75748166984512
 20
24.90936012871959
 30
0.0
  0
SPLINE
  5
8C
330
1F
100
AcDbEntity
  8
DEFAULT
100
AcDbSpline
210
0.0
220
0.0
230
1.0
 70
     8
 71
     2
 72
    38
 73
    35
 74
     0
 42
0.0000000001
 43
0.0000000001
 40
0.0
 40
0.0
 40
0.0
 40
1.0
 40
1.0
 40
2.0
 40
2.0
 40
3.0
 40
3.0
 40
4.0
 40
4.0
 40
5.0
 40
5.0
 40
6.0
 40
6.0
 40
7.0
 40
7.0
 40
8.0
 40
8.0
 40
9.0
 40
9.0
 40
10.0
 40
10.0
 40
11.0
 40
11.0
 40
12.0
 40
12.0
 40
13.0
 40
13.0
 40
14.0
 40
14.0
 40
15.0
 40
15.0
 40
16.0
 40
16.0
 40
17.0
 40
17.0
 40
17.0
 10
33.75748166984512
 20
24.90936012871959
 30
0.0
 10
33.77612466984512
 20
24.95235312871959
 30
0.0
 10
33.79476766984511
 20
24.99534612871959
 30
0.0
 10
33.81646116984512
 20
25.03668212871959
 30
0.0
 10
33.83815466984512
 20
25.07801812871959
 30
0.0
 10
33.86273866984512
 20
25.11746512871959
 30
0.0
 10
33.88732266984512
 20
25.15691212871959
 30
0.0
 10
33.91463466984512
 20
25.19429512871959
 30
0.0
 10
33.94194666984512
 20
25.23167812871959
 30
0.0
 10
33.97183966984512
 20
25.26686212871959
 30
0.0
 10
34.00173266984513
 20
25.30204612871959
 30
0.0
 10
34.03403766984513
 20
25.33486012871959
 30
0.0
 10
34.06634266984513
 20
25.36767412871959
 30
0.0
 10
34.10085416984512
 20
25.39795862871959
 30
0.0
 10
34.13536566984511
 20
25.42824312871959
 30
0.0
 10
34.17189616984512
 20
25.45586912871959
 30
0.0
 10
34.20842666984512
 20
25.48349512871959
 30
0.0
 10
34.24677566984512
 20
25.50833362871959
 30
0.0
 10
34.28512466984512
 20
25.53317212871959
 30
0.0
 10
34.32506766984512
 20
25.55511562871959
 30
0.0
 10
34.36501066984512
 20
25.57705912871959
 30
0.0
 10
34.40632666984512
 20
25.59601312871959
 30
0.0
 10
34.44764266984512
 20
25.61496712871959
 30
0.0
 10
34.49011466984512
 20
25.63085412871959
 30
0.0
 10
34.53258666984512
 20
25.64674112871959
 30
0.0
 10
34.57597616984512
 20
25.65950512871959
 30
0.0
 10
34.61936566984512
 20
25.67226912871959
 30
0.0
 10
34.66341416984512
 20
25.68186062871959
 30
0.0
 10
34.70746266984511
 20
25.69145212871959
 30
0.0
 10
34.75192916984512
 20
25.69784962871959
 30
0.0
 10
34.79639566984513
 20
25.70424712871959
 30
0.0
 10
34.84105716984512
 20
25.70745712871959
 30
0.0
 10
34.88571866984512
 20
25.71066712871959
 30
0.0
 10
34.90849866984512
 20
25.71108012871959
 30
0.0
 10
34.93127866984513
 20
25.71149312871959
 30
0.0
  0
SPLINE
  5
8D
330
1F
100
AcDbEntity
  8
DEFAULT
100
AcDbSpline
210
0.0
220
0.0
230
1.0
 70
    24
 71
     2
 72
     6
 73
     3
 74
     0
 42
0.0000000001
 43
0.0000000001
 40
0.0
 40
0.0
 40
0.0
 40
1.0
 40
1.0
 40
1.0
 10
31.41726866984512
 20
18.19178912871959
 30
0.0
 10
32.57933866984511
 20
21.52880062871959
 30
0.0
 10
33.74140866984511
 20
24.86581212871959
 30
0.0
  0
SPLINE
  5
8E
330
1F
100
AcDbEntity
  8
DEFAULT
100
AcDbSpline
210
0.0
220
0.0
230
1.0
 70
     8
 71
     2
 72
    32
 73
    29
 74
     0
 42
0.0000000001
 43
0.0000000001
 40
0.0
 40
0.0
 40
0.0
 40
1.0
 40
1.0
 40
2.0
 40
2.0
 40
3.0
 40
3.0
 40
4.0
 40
4.0
 40
5.0
 40
5.0
 40
6.0
 40
6.0
 40
7.0
 40
7.0
 40
8.0
 40
8.0
 40
9.0
 40
9.0
 40
10.0
 40
10.0
 40
11.0
 40
11.0
 40
12.0
 40
12.0
 40
13.0
 40
13.0
 40
14.0
 40
14.0
 40
14.0
 10
8.871837588098817
 20
16.65409551767176
 30
0.0
 10
8.917211088098817
 20
16.67839201767176
 30
0.0
 10
8.962584588098817
 20
16.70268851767176
 30
0.0
 10
9.017162088098816
 20
16.73667301767176
 30
0.0
 10
9.071739588098815
 20
16.77065751767176
 30
0.0
 10
9.124113588098815
 20
16.80823551767176
 30
0.0
 10
9.176487588098816
 20
16.84581351767176
 30
0.0
 10
9.226413588098817
 20
16.88686601767176
 30
0.0
 10
9.276339588098818
 20
16.92791851767176
 30
0.0
 10
9.323545588098817
 20
16.97225701767176
 30
0.0
 10
9.370751588098816
 20
17.01659551767176
 30
0.0
 10
9.415019588098817
 20
17.06403501767176
 30
0.0
 10
9.459287588098817
 20
17.11147451767176
 30
0.0
 10
9.500404088098817
 20
17.16183251767176
 30
0.0
 10
9.541520588098816
 20
17.21219051767176
 30
0.0
 10
9.579261588098817
 20
17.26523951767176
 30
0.0
 10
9.617002588098817
 20
17.31828851767176
 30
0.0
 10
9.651194088098817
 20
17.37379201767176
 30
0.0
 10
9.685385588098818
 20
17.42929551767176
 30
0.0
 10
9.715865588098817
 20
17.48702451767176
 30
0.0
 10
9.746345588098816
 20
17.54475351767176
 30
0.0
 10
9.772949088098816
 20
17.60446051767176
 30
0.0
 10
9.799552588098816
 20
17.66416751767176
 30
0.0
 10
9.822153088098815
 20
17.72559001767176
 30
0.0
 10
9.844753588098815
 20
17.78701251767176
 30
0.0
 10
9.863243088098816
 20
17.84988301767176
 30
0.0
 10
9.881732588098817
 20
17.91275351767176
 30
0.0
 10
9.889993588098816
 20
17.94732551767176
 30
0.0
 10
9.898254588098816
 20
17.98189751767176
 30
0.0
  0
SPLINE
  5
8F
330
1F
100
AcDbEntity
  8
DEFAULT
100
AcDbSpline
210
0.0
220
0.0
230
1.0
 70
    12
 71
     2
 72
     6
 73
     3
 74
     0
 42
0.0000000001
 43
0.0000000001
 40
0.0
 40
0.0
 40
0.0
 40
0.5065890987312437
 40
0.5065890987312437
 40
0.5065890987312437
 10
8.540901305757187
 20
0.0186950718808428
 30
0.0
 41
1.0
 10
8.794240958091004
 20
0.0292684959253454
 30
0.0
 41
0.9984529850107059
 10
9.04718412886523
 20
0.0116478867060044
 30
0.0
 41
1.0
  0
SPLINE
  5
90
330
1F
100
AcDbEntity
  8
DEFAULT
100
AcDbSpline
210
0.0
220
0.0
230
1.0
 70
    12
 71
     2
 72
     6
 73
     3
 74
     0
 42
0.0000000001
 43
0.0000000001
 40
0.0
 40
0.0
 40
0.0
 40
0.5069875979584633
 40
0.5069875979584633
 40
0.5069875979584633
 10
8.034610422080604
 20
-0.0024273001073274
 30
0.0
 41
1.0
 10
8.287167001002933
 20
0.0222001805890327
 30
0.0
 41
0.9984597417000961
 10
8.540901305757187
 20
0.0186950718808428
 30
0.0
 41
1.0
  0
SPLINE
  5
91
330
1F
100
AcDbEntity
  8
DEFAULT
100
AcDbSpline
210
0.0
220
0.0
230
1.0
 70
     8
 71
     2
 72
    11
 73
     8
 74
     0
 42
0.0000000001
 43
0.0000000001
 40
0.0
 40
0.0
 40
0.0
 40
1.0
 40
2.0
 40
3.0
 40
4.0
 40
5.0
 40
6.0
 40
6.0
 40
6.0
 10
7.976452216397853
 20
0.1405209271088
 30
0.0
 10
8.069862151284946
 20
0.1496151944427943
 30
0.0
 10
8.257227251894102
 20
0.1609697554648802
 30
0.0
 10
8.444882101251697
 20
0.1649773768433725
 30
0.0
 10
8.632567605664331
 20
0.164449916500493
 30
0.0
 10
8.82020063247706
 20
0.168886917824407
 30
0.0
 10
9.007901362060016
 20
0.1654531874968828
 30
0.0
 10
9.101343461012714
 20
0.1561573737594877
 30
0.0
  0
SPLINE
  5
92
330
1F
100
AcDbEntity
  8
DEFAULT
100
AcDbSpline
210
0.0
220
0.0
230
1.0
 70
    12
 71
     2
 72
     6
 73
     3
 74
     0
 42
0.0000000001
 43
0.0000000001
 40
0.0
 40
0.0
 40
0.0
 40
0.0287637614208012
 40
0.0287637614208012
 40
0.0287637614208012
 10
8.039382688027201
 20
-0.0045365745537768
 30
0.0
 41
1.0
 10
8.05870491254471
 20
-0.0066060521716718
 30
0.0
 41
0.9996656851759237
 10
8.073074238592996
 20
-0.0072794261962599
 30
0.0
 41
1.0
  0
SPLINE
  5
93
330
1F
100
AcDbEntity
  8
DEFAULT
100
AcDbSpline
210
0.0
220
0.0
230
1.0
 70
    12
 71
     2
 72
     6
 73
     3
 74
     0
 42
0.0000000001
 43
0.0000000001
 40
0.0
 40
0.0
 40
0.0
 40
0.0149504543859661
 40
0.0149504543859661
 40
0.0149504543859661
 10
9.00874850749759
 20
0.0057281465216029
 30
0.0
 41
1.0
 10
9.016200569615673
 20
0.0063189861429629
 30
0.0
 41
0.9999561228672283
 10
9.02364150682423
 20
0.0070632434137343
 30
0.0
 41
1.0
  0
SPLINE
  5
94
330
1F
100
AcDbEntity
  8
DEFAULT
100
AcDbSpline
210
0.0
220
0.0
230
1.0
 70
    24
 71
     2
 72
     6
 73
     3
 74
     0
 42
0.0000000001
 43
0.0000000001
 40
0.0
 40
0.0
 40
0.0
 40
16.55517303774998
 40
16.55517303774998
 40
16.55517303774998
 10
7.746172605459932
 20
16.69409231248151
 30
0.0
 10
7.861312389878536
 20
8.41730661950232
 30
0.0
 10
7.976452174297142
 20
0.1405209265231283
 30
0.0
  0
SPLINE
  5
95
330
1F
100
AcDbEntity
  8
DEFAULT
100
AcDbSpline
210
0.0
220
0.0
230
1.0
 70
    12
 71
     2
 72
     6
 73
     3
 74
     0
 42
0.0000000001
 43
0.0000000001
 40
0.0
 40
0.0
 40
0.0
 40
0.090509536218289
 40
0.090509536218289
 40
0.090509536218289
 10
7.977619093118001
 20
0.0566373493282625
 30
0.0
 41
1.0
 10
7.979661975657059
 20
0.0016767954230861
 30
0.0
 41
0.7543192092771731
 10
8.039382688027201
 20
-0.0045365745537768
 30
0.0
 41
1.0
  0
SPLINE
  5
96
330
1F
100
AcDbEntity
  8
DEFAULT
100
AcDbSpline
210
0.0
220
0.0
230
1.0
 70
    12
 71
     2
 72
     6
 73
     3
 74
     0
 42
0.0000000001
 43
0.0000000001
 40
-0.4681485405974239
 40
-0.4681485405974239
 40
-0.4681485405974239
 40
0.0
 40
0.0
 40
0.0
 10
8.540897275472915
 20
-0.009474429260468
 30
0.0
 41
1.0
 10
8.77501620342066
 20
-0.0078228924777565
 30
0.0
 41
0.9996765963466816
 10
9.00874850749759
 20
0.0057281465216029
 30
0.0
 41
1.0
  0
SPLINE
  5
97
330
1F
100
AcDbEntity
  8
DEFAULT
100
AcDbSpline
210
0.0
220
0.0
230
1.0
 70
    24
 71
     2
 72
     6
 73
     3
 74
     0
 42
0.0000000001
 43
0.0000000001
 40
0.0
 40
0.0
 40
0.0
 40
0.0838826130654592
 40
0.0838826130654592
 40
0.0838826130654592
 10
7.976452258500874
 20
0.1405148736226902
 30
0.0
 10
7.977035675809438
 20
0.0985761114754763
 30
0.0
 10
7.977619093118001
 20
0.0566373493282625
 30
0.0
  0
SPLINE
  5
98
330
1F
100
AcDbEntity
  8
DEFAULT
100
AcDbSpline
210
0.0
220
0.0
230
1.0
 70
    12
 71
     2
 72
     6
 73
     3
 74
     0
 42
0.0000000001
 43
0.0000000001
 40
-0.4678786518234926
 40
-0.4678786518234926
 40
-0.4678786518234926
 40
0.0
 40
0.0
 40
0.0
 10
8.073074238592996
 20
-0.0072794261962599
 30
0.0
 41
1.0
 10
8.306957831265287
 20
-0.0143321204280719
 30
0.0
 41
0.99967599695013
 10
8.540897275472915
 20
-0.009474429260468
 30
0.0
 41
1.0
  0
SPLINE
  5
99
330
1F
100
AcDbEntity
  8
DEFAULT
100
AcDbSpline
210
0.0
220
0.0
230
1.0
 70
    24
 71
     2
 72
     6
 73
     3
 74
     0
 42
0.0000000001
 43
0.0000000001
 40
0.0
 40
0.0
 40
0.0
 40
0.0838826131717245
 40
0.0838826131717245
 40
0.0838826131717245
 10
9.102510337575374
 20
0.0722798499397587
 30
0.0
 10
9.101926920344804
 20
0.114218612142464
 30
0.0
 10
9.101343503114233
 20
0.1561573743451692
 30
0.0
  0
SPLINE
  5
9A
330
1F
100
AcDbEntity
  8
DEFAULT
100
AcDbSpline
210
0.0
220
0.0
230
1.0
 70
    12
 71
     2
 72
     6
 73
     3
 74
     0
 42
0.0000000001
 43
0.0000000001
 40
0.0
 40
0.0
 40
0.0
 40
0.0905125898444878
 40
0.0905125898444878
 40
0.0905125898444878
 10
9.042849417664835
 20
0.0095215415385489
 30
0.0
 41
1.0
 10
9.101902926258509
 20
0.0173517644409298
 30
0.0
 41
0.7556419620120104
 10
9.102510337575374
 20
0.0722798499397587
 30
0.0
 41
1.0
  0
SPLINE
  5
9B
330
1F
100
AcDbEntity
  8
DEFAULT
100
AcDbSpline
210
0.0
220
0.0
230
1.0
 70
    24
 71
     2
 72
     6
 73
     3
 74
     0
 42
0.0000000001
 43
0.0000000001
 40
0.0
 40
0.0
 40
0.0
 40
17.78454173258046
 40
17.78454173258046
 40
17.78454173258046
 10
9.101343461012714
 20
0.1561573737594877
 30
0.0
 10
8.976200806723995
 20
9.04746082737168
 30
0.0
 10
8.851058152435273
 20
17.93876428098387
 30
0.0
  0
SPLINE
  5
9C
330
1F
100
AcDbEntity
  8
DEFAULT
100
AcDbSpline
210
0.0
220
0.0
230
1.0
 70
    12
 71
     2
 72
     6
 73
     3
 74
     0
 42
0.0000000001
 43
0.0000000001
 40
-0.0147217657248775
 40
-0.0147217657248775
 40
-0.0147217657248775
 40
0.0
 40
0.0
 40
0.0
 10
9.02364150682423
 20
0.0070632434137343
 30
0.0
 41
1.0
 10
9.030971670729377
 20
0.0077820056005832
 30
0.0
 41
0.9996253281867565
 10
9.042849417664835
 20
0.0095215415385489
 30
0.0
 41
1.0
  0
SPLINE
  5
9D
330
1F
100
AcDbEntity
  8
DEFAULT
100
AcDbSpline
210
0.0
220
0.0
230
1.0
 70
    12
 71
     3
 72
    12
 73
     8
 74
     0
 42
0.0000000001
 43
0.0000000001
 40
-14.5374141795705
 40
-14.5374141795705
 40
-14.5374141795705
 40
-14.5374141795705
 40
-14.41934725534845
 40
-14.37741709520271
 40
-11.72195382020863
 40
-10.18186587578625
 40
-10.05066365206097
 40
-10.05066365206097
 40
-10.05066365206097
 40
-10.05066365206097
 10
8.849998081824591
 20
32.47393965815978
 30
0.0
 41
1.0
 10
8.878777845047987
 20
32.44837552367935
 30
0.0
 41
1.0
 10
8.930197656893572
 20
32.37337679643962
 30
0.0
 41
1.0
 10
9.065159534871437
 20
31.4446557127379
 30
0.0
 41
1.0
 10
9.26597286477488
 20
30.04634182362106
 30
0.0
 41
1.0
 10
9.418983504583572
 20
28.61198991707733
 30
0.0
 41
1.0
 10
9.468471261065377
 20
28.05710509735981
 30
0.0
 41
1.0
 10
9.472296400555937
 20
28.01353951767176
 30
0.0
 41
1.0
  0
CIRCLE
  5
9E
330
1F
100
AcDbEntity
  8
DEFAULT
100
AcDbCircle
 10
11.20393314505571
 20
26.20104468294394
 30
0.0
 40
0.4894475779964266
  0
SPLINE
  5
9F
330
1F
100
AcDbEntity
  8
DEFAULT
100
AcDbSpline
210
0.0
220
0.0
230
1.0
 70
    12
 71
     2
 72
     6
 73
     3
 74
     0
 42
0.0000000001
 43
0.0000000001
 40
0.0
 40
0.0
 40
0.0
 40
0.2236524678536994
 40
0.2236524678536994
 40
0.2236524678536994
 10
-4.693489266673148
 20
15.26348937810028
 30
0.0
 41
1.0
 10
-4.658692548517843
 20
15.14866119948251
 30
0.0
 41
0.9010587385208312
 10
-4.547239266673174
 20
15.10422598636154
 30
0.0
 41
1.0
  0
SPLINE
  5
A0
330
1F
100
AcDbEntity
  8
DEFAULT
100
AcDbSpline
210
0.0
220
0.0
230
1.0
 70
    12
 71
     2
 72
     6
 73
     3
 74
     0
 42
0.0000000001
 43
0.0000000001
 40
0.0
 40
0.0
 40
0.0
 40
0.2236524678536981
 40
0.2236524678536981
 40
0.2236524678536981
 10
-4.109739266673182
 20
15.10422598636154
 30
0.0
 41
1.0
 10
-3.998285984828513
 20
15.14866119948251
 30
0.0
 41
0.9010587385208331
 10
-3.963489266673208
 20
15.26348937810028
 30
0.0
 41
1.0
  0
SPLINE
  5
A1
330
1F
100
AcDbEntity
  8
DEFAULT
100
AcDbSpline
210
0.0
220
0.0
230
1.0
 70
     8
 71
     3
 72
     8
 73
     4
 74
     0
 42
0.0000000001
 43
0.0000000001
 40
0.0
 40
0.0
 40
0.0
 40
0.0
 40
1.0
 40
1.0
 40
1.0
 40
1.0
 10
-4.547239266673174
 20
15.10422598636154
 30
0.0
 10
-4.411775269937276
 20
15.05021796196287
 30
0.0
 10
-4.245203263409078
 20
15.05021796196287
 30
0.0
 10
-4.109739266673182
 20
15.10422598636154
 30
0.0
  0
SPLINE
  5
A2
330
1F
100
AcDbEntity
  8
DEFAULT
100
AcDbSpline
210
0.0
220
0.0
230
1.0
 70
     8
 71
     3
 72
    14
 73
    10
 74
     0
 42
0.0000000001
 43
0.0000000001
 40
0.0
 40
0.0
 40
0.0
 40
0.0
 40
0.0011429773882848
 40
0.0041559612549722
 40
0.010740543323966
 40
0.120253821530844
 40
0.2135872029610184
 40
0.4059865476491976
 40
0.8047865810560537
 40
0.8047865810560537
 40
0.8047865810560537
 40
0.8047865810560537
 10
-3.954159131646138
 20
15.79555161759265
 30
0.0
 10
-3.954064698968024
 20
15.79604234793775
 30
0.0
 10
-3.954729804750294
 20
15.79728640809484
 30
0.0
 10
-3.958799138006872
 20
15.79657232931934
 30
0.0
 10
-3.990713770963564
 20
15.77377427350036
 30
0.0
 10
-4.048527104861989
 20
15.7326125322114
 30
0.0
 10
-4.168668647219088
 20
15.68037079668747
 30
0.0
 10
-4.398510030423761
 20
15.63876513456371
 30
0.0
 10
-4.592563028077378
 20
15.71305959995781
 30
0.0
 10
-4.699882203321968
 20
15.79542700207427
 30
0.0
  0
SPLINE
  5
A3
330
1F
100
AcDbEntity
  8
DEFAULT
100
AcDbSpline
210
0.0
220
0.0
230
1.0
 70
    12
 71
     2
 72
     6
 73
     3
 74
     0
 42
0.0000000001
 43
0.0000000001
 40
-8.250474918043878
 40
-8.250474918043878
 40
-8.250474918043878
 40
-5.298847865380169
 40
-5.298847865380169
 40
-5.298847865380169
 10
0.0
 20
43.74689456168726
 30
0.0
 41
0.9999983358919136
 10
1.475388201073322
 20
43.7460304276783
 30
0.0
 41
0.9991416840773998
 10
2.949019348800618
 20
43.81820980666701
 30
0.0
 41
0.9988981837006791
  0
SPLINE
  5
A4
330
1F
100
AcDbEntity
  8
DEFAULT
100
AcDbSpline
210
0.0
220
0.0
230
1.0
 70
     8
 71
     2
 72
     9
 73
     6
 74
     0
 42
0.0000000001
 43
0.0000000001
 40
-3.722282609473857
 40
-3.722282609473857
 40
-3.722282609473857
 40
-3.0
 40
-2.0
 40
-1.0
 40
0.0
 40
0.0
 40
0.0
 10
8.541948340168874
 20
53.12784191337822
 30
0.0
 10
8.471493671359557
 20
53.83228187587557
 30
0.0
 10
8.274599640488645
 20
55.50902178145289
 30
0.0
 10
7.985301972178683
 20
57.44807150949963
 30
0.0
 10
7.635158840831446
 20
59.37706838872214
 30
0.0
 10
7.43217764465102
 20
60.33606488373158
 30
0.0
  0
SPLINE
  5
A5
330
1F
100
AcDbEntity
  8
DEFAULT
100
AcDbSpline
210
0.0
220
0.0
230
1.0
 70
     8
 71
     2
 72
    64
 73
    61
 74
     0
 42
0.0000000001
 43
0.0000000001
 40
0.0
 40
0.0
 40
0.0
 40
1.0
 40
1.0
 40
2.0
 40
2.0
 40
3.0
 40
3.0
 40
4.0
 40
4.0
 40
5.0
 40
5.0
 40
6.0
 40
6.0
 40
7.0
 40
7.0
 40
8.0
 40
8.0
 40
9.0
 40
9.0
 40
10.0
 40
10.0
 40
11.0
 40
11.0
 40
12.0
 40
12.0
 40
13.0
 40
13.0
 40
14.0
 40
14.0
 40
15.0
 40
15.0
 40
16.0
 40
16.0
 40
17.0
 40
17.0
 40
18.0
 40
18.0
 40
19.0
 40
19.0
 40
20.0
 40
20.0
 40
21.0
 40
21.0
 40
22.0
 40
22.0
 40
23.0
 40
23.0
 40
24.0
 40
24.0
 40
25.0
 40
25.0
 40
26.0
 40
26.0
 40
27.0
 40
27.0
 40
28.0
 40
28.0
 40
29.0
 40
29.0
 40
30.0
 40
30.0
 40
30.0
 10
12.480971
 20
52.90341856168725
 30
0.0
 10
12.4959695
 20
52.78790556168725
 30
0.0
 10
12.510968
 20
52.67239256168725
 30
0.0
 10
12.525105
 20
52.55032606168725
 30
0.0
 10
12.539242
 20
52.42825956168725
 30
0.0
 10
12.552518
 20
52.29963956168725
 30
0.0
 10
12.565794
 20
52.17101956168725
 30
0.0
 10
12.5782565
 20
52.03646456168725
 30
0.0
 10
12.590719
 20
51.90190956168725
 30
0.0
 10
12.6023205
 20
51.76080106168725
 30
0.0
 10
12.613922
 20
51.61969256168725
 30
0.0
 10
12.624521
 20
51.47017206168725
 30
0.0
 10
12.63512
 20
51.32065156168725
 30
0.0
 10
12.6447785
 20
51.16275456168725
 30
0.0
 10
12.654437
 20
51.00485756168725
 30
0.0
 10
12.6630925
 20
50.83854906168725
 30
0.0
 10
12.671748
 20
50.67224056168725
 30
0.0
 10
12.679074
 20
50.49555656168725
 30
0.0
 10
12.6864
 20
50.31887256168725
 30
0.0
 10
12.692459
 20
50.13139206168725
 30
0.0
 10
12.698518
 20
49.94391156168725
 30
0.0
 10
12.7032475
 20
49.74605556168725
 30
0.0
 10
12.707977
 20
49.54819956168725
 30
0.0
 10
12.7108625
 20
49.33926406168725
 30
0.0
 10
12.713748
 20
49.13032856168726
 30
0.0
 10
12.7147755
 20
48.90897956168725
 30
0.0
 10
12.715803
 20
48.68763056168725
 30
0.0
 10
12.714986
 20
48.45520206168725
 30
0.0
 10
12.714169
 20
48.22277356168726
 30
0.0
 10
12.7110365
 20
47.98256156168726
 30
0.0
 10
12.707904
 20
47.74234956168726
 30
0.0
 10
12.702258
 20
47.49251306168726
 30
0.0
 10
12.696612
 20
47.24267656168725
 30
0.0
 10
12.6886495
 20
46.98505656168725
 30
0.0
 10
12.680687
 20
46.72743656168725
 30
0.0
 10
12.6705305
 20
46.47085156168725
 30
0.0
 10
12.660374
 20
46.21426656168725
 30
0.0
 10
12.6478025
 20
45.95896056168725
 30
0.0
 10
12.635231
 20
45.70365456168725
 30
0.0
 10
12.6204655
 20
45.44938406168725
 30
0.0
 10
12.6057
 20
45.19511356168726
 30
0.0
 10
12.5895195
 20
44.94996356168726
 30
0.0
 10
12.573339
 20
44.70481356168725
 30
0.0
 10
12.55577
 20
44.47084356168725
 30
0.0
 10
12.538201
 20
44.23687356168725
 30
0.0
 10
12.5192175
 20
44.01202506168725
 30
0.0
 10
12.500234
 20
43.78717656168725
 30
0.0
 10
12.480538
 20
43.57335806168725
 30
0.0
 10
12.460842
 20
43.35953956168725
 30
0.0
 10
12.44046
 20
43.15721606168725
 30
0.0
 10
12.420078
 20
42.95489256168725
 30
0.0
 10
12.3989835
 20
42.76359956168725
 30
0.0
 10
12.377889
 20
42.57230656168725
 30
0.0
 10
12.356704
 20
42.39255956168725
 30
0.0
 10
12.335519
 20
42.21281256168725
 30
0.0
 10
12.3144515
 20
42.04478406168725
 30
0.0
 10
12.293384
 20
41.87675556168725
 30
0.0
 10
12.272226
 20
41.72027306168725
 30
0.0
 10
12.251068
 20
41.56379056168725
 30
0.0
 10
12.2298195
 20
41.41885456168725
 30
0.0
 10
12.208571
 20
41.27391856168726
 30
0.0
  0
SPLINE
  5
A6
330
1F
100
AcDbEntity
  8
DEFAULT
100
AcDbSpline
210
0.0
220
0.0
230
1.0
 70
     8
 71
     2
 72
    34
 73
    31
 74
     0
 42
0.0000000001
 43
0.0000000001
 40
0.0
 40
0.0
 40
0.0
 40
1.0
 40
1.0
 40
2.0
 40
2.0
 40
3.0
 40
3.0
 40
4.0
 40
4.0
 40
5.0
 40
5.0
 40
6.0
 40
6.0
 40
7.0
 40
7.0
 40
8.0
 40
8.0
 40
9.0
 40
9.0
 40
10.0
 40
10.0
 40
11.0
 40
11.0
 40
12.0
 40
12.0
 40
13.0
 40
13.0
 40
14.0
 40
14.0
 40
15.0
 40
15.0
 40
15.0
 10
11.356571
 20
40.13421856168726
 30
0.0
 10
11.149689
 20
40.04242856168725
 30
0.0
 10
10.942807
 20
39.95063856168725
 30
0.0
 10
10.7318805
 20
39.86560106168725
 30
0.0
 10
10.520954
 20
39.78056356168725
 30
0.0
 10
10.305983
 20
39.70227806168725
 30
0.0
 10
10.091012
 20
39.62399256168725
 30
0.0
 10
9.871400999999999
 20
39.55225056168725
 30
0.0
 10
9.651789999999998
 20
39.48050856168725
 30
0.0
 10
9.428134499999999
 20
39.41551856168725
 30
0.0
 10
9.204479
 20
39.35052856168725
 30
0.0
 10
8.9785655
 20
39.29291706168725
 30
0.0
 10
8.752652000000001
 20
39.23530556168725
 30
0.0
 10
8.524434000000001
 20
39.18516656168725
 30
0.0
 10
8.296216000000001
 20
39.13502756168726
 30
0.0
 10
8.0657405
 20
39.09226656168725
 30
0.0
 10
7.835265
 20
39.04950556168725
 30
0.0
 10
7.604459499999999
 20
39.01447106168725
 30
0.0
 10
7.373653999999998
 20
38.97943656168726
 30
0.0
 10
7.142543999999999
 20
38.95223306168725
 30
0.0
 10
6.911434
 20
38.92502956168725
 30
0.0
 10
6.679994499999999
 20
38.90555156168725
 30
0.0
 10
6.448554999999999
 20
38.88607356168725
 30
0.0
 10
6.218636499999999
 20
38.87435606168725
 30
0.0
 10
5.988717999999999
 20
38.86263856168726
 30
0.0
 10
5.7609385
 20
38.85869156168725
 30
0.0
 10
5.533159000000001
 20
38.85474456168725
 30
0.0
 10
5.3069015
 20
38.85855806168725
 30
0.0
 10
5.080643999999999
 20
38.86237156168725
 30
0.0
 10
4.855907499999999
 20
38.87394506168725
 30
0.0
 10
4.631170999999998
 20
38.88551856168726
 30
0.0
  0
ARC
  5
A7
330
1F
100
AcDbEntity
  8
DEFAULT
100
AcDbCircle
 10
11.489971
 20
52.76928356168725
 30
0.0
 40
1.000036799185388
100
AcDbArc
 50
7.708320288557209
 51
90.11458739568954
  0
ARC
  5
A8
330
1F
100
AcDbEntity
  8
DEFAULT
100
AcDbCircle
 10
10.724938
 20
41.49471856168726
 30
0.0
 40
1.499973335659328
100
AcDbArc
 50
294.9038086244213
 51
351.535150347596
  0
ARC
  5
A9
330
1F
100
AcDbEntity
  8
DEFAULT
100
AcDbCircle
 10
4.751071
 20
40.63138956168725
 30
0.0
 40
1.749983667878319
100
AcDbArc
 50
187.9180229668754
 51
266.0713052946003
  0
SPLINE
  5
AA
330
1F
100
AcDbEntity
  8
DEFAULT
100
AcDbSpline
210
0.0
220
0.0
230
1.0
 70
     8
 71
     2
 72
    38
 73
    35
 74
     0
 42
0.0000000001
 43
0.0000000001
 40
0.0
 40
0.0
 40
0.0
 40
1.0
 40
1.0
 40
2.0
 40
2.0
 40
3.0
 40
3.0
 40
4.0
 40
4.0
 40
5.0
 40
5.0
 40
6.0
 40
6.0
 40
7.0
 40
7.0
 40
8.0
 40
8.0
 40
9.0
 40
9.0
 40
10.0
 40
10.0
 40
11.0
 40
11.0
 40
12.0
 40
12.0
 40
13.0
 40
13.0
 40
14.0
 40
14.0
 40
15.0
 40
15.0
 40
16.0
 40
16.0
 40
17.0
 40
17.0
 40
17.0
 10
11.691628
 20
53.74797156168726
 30
0.0
 10
11.6914395
 20
53.76049056168726
 30
0.0
 10
11.691251
 20
53.77300956168725
 30
0.0
 10
11.689232
 20
53.83876706168725
 30
0.0
 10
11.687213
 20
53.90452456168725
 30
0.0
 10
11.684058
 20
53.97142256168725
 30
0.0
 10
11.680903
 20
54.03832056168725
 30
0.0
 10
11.676551
 20
54.10571606168725
 30
0.0
 10
11.672199
 20
54.17311156168726
 30
0.0
 10
11.6666565
 20
54.23985356168726
 30
0.0
 10
11.661114
 20
54.30659556168725
 30
0.0
 10
11.6543525
 20
54.37232206168725
 30
0.0
 10
11.647591
 20
54.43804856168725
 30
0.0
 10
11.639589
 20
54.50239706168725
 30
0.0
 10
11.631587
 20
54.56674556168725
 30
0.0
 10
11.622415
 20
54.62876156168725
 30
0.0
 10
11.613243
 20
54.69077756168725
 30
0.0
 10
11.6029085
 20
54.75016556168725
 30
0.0
 10
11.592574
 20
54.80955356168726
 30
0.0
 10
11.5810655
 20
54.86613856168726
 30
0.0
 10
11.569557
 20
54.92272356168726
 30
0.0
 10
11.556906
 20
54.97610606168725
 30
0.0
 10
11.544255
 20
55.02948856168725
 30
0.0
 10
11.5304155
 20
55.07961856168725
 30
0.0
 10
11.516576
 20
55.12974856168726
 30
0.0
 10
11.5014625
 20
55.17664556168726
 30
0.0
 10
11.486349
 20
55.22354256168726
 30
0.0
 10
11.469745
 20
55.26743856168726
 30
0.0
 10
11.453141
 20
55.31133456168725
 30
0.0
 10
11.434691
 20
55.35255456168726
 30
0.0
 10
11.416241
 20
55.39377456168726
 30
0.0
 10
11.3955965
 20
55.43233806168725
 30
0.0
 10
11.374952
 20
55.47090156168725
 30
0.0
 10
11.36632
 20
55.48504856168725
 30
0.0
 10
11.357688
 20
55.49919556168725
 30
0.0
  0
SPLINE
  5
AB
330
1F
100
AcDbEntity
  8
DEFAULT
100
AcDbSpline
210
0.0
220
0.0
230
1.0
 70
    24
 71
     2
 72
     6
 73
     3
 74
     0
 42
0.0000000001
 43
0.0000000001
 40
0.0
 40
0.0
 40
0.0
 40
1.0
 40
1.0
 40
1.0
 10
8.361446999999998
 20
58.52894756168725
 30
0.0
 10
8.0858545
 20
58.55181106168725
 30
0.0
 10
7.810262000000002
 20
58.57467456168725
 30
0.0
  0
SPLINE
  5
AC
330
1F
100
AcDbEntity
  8
DEFAULT
100
AcDbSpline
210
0.0
220
0.0
230
1.0
 70
     8
 71
     2
 72
    32
 73
    29
 74
     0
 42
0.0000000001
 43
0.0000000001
 40
0.0
 40
0.0
 40
0.0
 40
1.0
 40
1.0
 40
2.0
 40
2.0
 40
3.0
 40
3.0
 40
4.0
 40
4.0
 40
5.0
 40
5.0
 40
6.0
 40
6.0
 40
7.0
 40
7.0
 40
8.0
 40
8.0
 40
9.0
 40
9.0
 40
10.0
 40
10.0
 40
11.0
 40
11.0
 40
12.0
 40
12.0
 40
13.0
 40
13.0
 40
14.0
 40
14.0
 40
14.0
 10
7.987382
 20
57.57662356168725
 30
0.0
 10
8.1399915
 20
57.56395206168725
 30
0.0
 10
8.292601000000001
 20
57.55128056168726
 30
0.0
 10
8.337076000000001
 20
57.54684056168725
 30
0.0
 10
8.381551000000002
 20
57.54240056168725
 30
0.0
 10
8.423957000000001
 20
57.53700456168725
 30
0.0
 10
8.466363000000001
 20
57.53160856168726
 30
0.0
 10
8.506484
 20
57.52536256168725
 30
0.0
 10
8.546605
 20
57.51911656168725
 30
0.0
 10
8.584203
 20
57.51214306168725
 30
0.0
 10
8.621801000000001
 20
57.50516956168725
 30
0.0
 10
8.656592
 20
57.49762206168725
 30
0.0
 10
8.691382999999998
 20
57.49007456168726
 30
0.0
 10
8.723229499999999
 20
57.48209556168725
 30
0.0
 10
8.755075999999999
 20
57.47411656168725
 30
0.0
 10
8.7838295
 20
57.46586506168725
 30
0.0
 10
8.812583
 20
57.45761356168725
 30
0.0
 10
8.8379685
 20
57.44931956168725
 30
0.0
 10
8.863354000000001
 20
57.44102556168725
 30
0.0
 10
8.885331
 20
57.43288156168725
 30
0.0
 10
8.907308
 20
57.42473756168726
 30
0.0
 10
8.9258385
 20
57.41695856168726
 30
0.0
 10
8.944368999999998
 20
57.40917956168726
 30
0.0
 10
8.9592405
 20
57.40210456168726
 30
0.0
 10
8.974112000000002
 20
57.39502956168726
 30
0.0
 10
8.985361500000002
 20
57.38896106168725
 30
0.0
 10
8.996611000000001
 20
57.38289256168725
 30
0.0
 10
8.997775500000001
 20
57.38221556168725
 30
0.0
 10
8.998940000000001
 20
57.38153856168726
 30
0.0
  0
SPLINE
  5
AD
330
1F
100
AcDbEntity
  8
DEFAULT
100
AcDbSpline
210
0.0
220
0.0
230
1.0
 70
    24
 71
     2
 72
     6
 73
     3
 74
     0
 42
0.0000000001
 43
0.0000000001
 40
0.0
 40
0.0
 40
0.0
 40
1.0
 40
1.0
 40
1.0
 10
8.280650999999999
 20
57.55229356168726
 30
0.0
 10
8.280647499999999
 20
57.55229356168726
 30
0.0
 10
8.280643999999999
 20
57.55229356168726
 30
0.0
  0
SPLINE
  5
AE
330
1F
100
AcDbEntity
  8
DEFAULT
100
AcDbSpline
210
0.0
220
0.0
230
1.0
 70
     8
 71
     2
 72
    64
 73
    61
 74
     0
 42
0.0000000001
 43
0.0000000001
 40
0.0
 40
0.0
 40
0.0
 40
1.0
 40
1.0
 40
2.0
 40
2.0
 40
3.0
 40
3.0
 40
4.0
 40
4.0
 40
5.0
 40
5.0
 40
6.0
 40
6.0
 40
7.0
 40
7.0
 40
8.0
 40
8.0
 40
9.0
 40
9.0
 40
10.0
 40
10.0
 40
11.0
 40
11.0
 40
12.0
 40
12.0
 40
13.0
 40
13.0
 40
14.0
 40
14.0
 40
15.0
 40
15.0
 40
16.0
 40
16.0
 40
17.0
 40
17.0
 40
18.0
 40
18.0
 40
19.0
 40
19.0
 40
20.0
 40
20.0
 40
21.0
 40
21.0
 40
22.0
 40
22.0
 40
23.0
 40
23.0
 40
24.0
 40
24.0
 40
25.0
 40
25.0
 40
26.0
 40
26.0
 40
27.0
 40
27.0
 40
28.0
 40
28.0
 40
29.0
 40
29.0
 40
30.0
 40
30.0
 40
30.0
 10
3.677671
 20
47.98061856168726
 30
0.0
 10
3.731175
 20
48.13593656168725
 30
0.0
 10
3.784679000000001
 20
48.29125456168725
 30
0.0
 10
3.844927
 20
48.44432206168725
 30
0.0
 10
3.905175
 20
48.59738956168726
 30
0.0
 10
3.972167499999999
 20
48.74820656168725
 30
0.0
 10
4.039159999999999
 20
48.89902356168725
 30
0.0
 10
4.112842499999999
 20
49.04766556168725
 30
0.0
 10
4.186525
 20
49.19630756168726
 30
0.0
 10
4.266952
 20
49.34269906168726
 30
0.0
 10
4.347379
 20
49.48909056168726
 30
0.0
 10
4.434711
 20
49.63300356168725
 30
0.0
 10
4.522043
 20
49.77691656168725
 30
0.0
 10
4.616327999999999
 20
49.91847906168725
 30
0.0
 10
4.710612999999999
 20
50.06004156168725
 30
0.0
 10
4.8118035
 20
50.19912606168725
 30
0.0
 10
4.912994000000001
 20
50.33821056168726
 30
0.0
 10
5.021107000000001
 20
50.47420506168726
 30
0.0
 10
5.12922
 20
50.61019956168726
 30
0.0
 10
5.2444325
 20
50.74326756168725
 30
0.0
 10
5.359645
 20
50.87633556168725
 30
0.0
 10
5.481780000000001
 20
51.00631406168725
 30
0.0
 10
5.603915000000001
 20
51.13629256168725
 30
0.0
 10
5.732459500000001
 20
51.26208306168725
 30
0.0
 10
5.861004000000001
 20
51.38787356168725
 30
0.0
 10
5.996233500000001
 20
51.50957806168725
 30
0.0
 10
6.131463
 20
51.63128256168725
 30
0.0
 10
6.273102
 20
51.74879906168725
 30
0.0
 10
6.414740999999999
 20
51.86631556168725
 30
0.0
 10
6.5614445
 20
51.97824056168725
 30
0.0
 10
6.708148000000001
 20
52.09016556168725
 30
0.0
 10
6.860052000000001
 20
52.19641356168725
 30
0.0
 10
7.011956000000001
 20
52.30266156168725
 30
0.0
 10
7.168924500000001
 20
52.40331756168725
 30
0.0
 10
7.325893000000001
 20
52.50397356168725
 30
0.0
 10
7.486177
 20
52.59789406168726
 30
0.0
 10
7.646460999999999
 20
52.69181456168726
 30
0.0
 10
7.810397499999999
 20
52.77896206168726
 30
0.0
 10
7.974333999999999
 20
52.86610956168726
 30
0.0
 10
8.141586499999999
 20
52.94652106168726
 30
0.0
 10
8.308838999999999
 20
53.02693256168725
 30
0.0
 10
8.476645999999999
 20
53.09957356168725
 30
0.0
 10
8.644452999999999
 20
53.17221456168725
 30
0.0
 10
8.8129405
 20
53.23684306168725
 30
0.0
 10
8.981428000000001
 20
53.30147156168726
 30
0.0
 10
9.1504705
 20
53.35832956168726
 30
0.0
 10
9.319513
 20
53.41518756168725
 30
0.0
 10
9.4859725
 20
53.46396456168726
 30
0.0
 10
9.652432000000001
 20
53.51274156168726
 30
0.0
 10
9.8160215
 20
53.55311256168726
 30
0.0
 10
9.979610999999998
 20
53.59348356168726
 30
0.0
 10
10.1406175
 20
53.62577356168725
 30
0.0
 10
10.301624
 20
53.65806356168725
 30
0.0
 10
10.457773
 20
53.68293406168725
 30
0.0
 10
10.613922
 20
53.70780456168725
 30
0.0
 10
10.7644545
 20
53.72547606168725
 30
0.0
 10
10.914987
 20
53.74314756168726
 30
0.0
 10
11.060662
 20
53.75340006168726
 30
0.0
 10
11.206337
 20
53.76365256168726
 30
0.0
 10
11.347154
 20
53.76648556168725
 30
0.0
 10
11.487971
 20
53.76931856168725
 30
0.0
  0
SPLINE
  5
AF
330
1F
100
AcDbEntity
  8
DEFAULT
100
AcDbSpline
210
0.0
220
0.0
230
1.0
 70
    24
 71
     2
 72
     6
 73
     3
 74
     0
 42
0.0000000001
 43
0.0000000001
 40
0.0
 40
0.0
 40
0.0
 40
1.0
 40
1.0
 40
1.0
 10
9.006810000000002
 20
57.38809156168725
 30
0.0
 10
9.769927500000001
 20
56.17941206168725
 30
0.0
 10
10.533045
 20
54.97073256168725
 30
0.0
  0
SPLINE
  5
B0
330
1F
100
AcDbEntity
  8
DEFAULT
100
AcDbSpline
210
0.0
220
0.0
230
1.0
 70
     8
 71
     2
 72
    52
 73
    49
 74
     0
 42
0.0000000001
 43
0.0000000001
 40
0.0
 40
0.0
 40
0.0
 40
1.0
 40
1.0
 40
2.0
 40
2.0
 40
3.0
 40
3.0
 40
4.0
 40
4.0
 40
5.0
 40
5.0
 40
6.0
 40
6.0
 40
7.0
 40
7.0
 40
8.0
 40
8.0
 40
9.0
 40
9.0
 40
10.0
 40
10.0
 40
11.0
 40
11.0
 40
12.0
 40
12.0
 40
13.0
 40
13.0
 40
14.0
 40
14.0
 40
15.0
 40
15.0
 40
16.0
 40
16.0
 40
17.0
 40
17.0
 40
18.0
 40
18.0
 40
19.0
 40
19.0
 40
20.0
 40
20.0
 40
21.0
 40
21.0
 40
22.0
 40
22.0
 40
23.0
 40
23.0
 40
24.0
 40
24.0
 40
24.0
 10
3.017771
 20
40.39031856168726
 30
0.0
 10
3.003512499999999
 20
40.49873156168726
 30
0.0
 10
2.989253999999999
 20
40.60714456168726
 30
0.0
 10
2.9768255
 20
40.72352256168725
 30
0.0
 10
2.964397000000002
 20
40.83990056168725
 30
0.0
 10
2.9537975
 20
40.96424356168725
 30
0.0
 10
2.943197999999999
 20
41.08858656168726
 30
0.0
 10
2.934199999999999
 20
41.22034956168726
 30
0.0
 10
2.925201999999999
 20
41.35211256168726
 30
0.0
 10
2.918033999999999
 20
41.49184006168726
 30
0.0
 10
2.910865999999999
 20
41.63156756168726
 30
0.0
 10
2.906212
 20
41.78089706168726
 30
0.0
 10
2.901558000000001
 20
41.93022656168726
 30
0.0
 10
2.8993325
 20
42.08992556168725
 30
0.0
 10
2.897106999999998
 20
42.24962456168725
 30
0.0
 10
2.8973955
 20
42.41892506168725
 30
0.0
 10
2.897684000000002
 20
42.58822556168726
 30
0.0
 10
2.901430000000001
 20
42.76646256168726
 30
0.0
 10
2.905176000000001
 20
42.94469956168725
 30
0.0
 10
2.912625500000001
 20
43.13414906168725
 30
0.0
 10
2.920075000000001
 20
43.32359856168726
 30
0.0
 10
2.9309815
 20
43.52198406168726
 30
0.0
 10
2.941887999999999
 20
43.72036956168726
 30
0.0
 10
2.956453
 20
43.92019756168725
 30
0.0
 10
2.971018000000001
 20
44.12002556168725
 30
0.0
 10
2.989732
 20
44.32186856168725
 30
0.0
 10
3.008445999999999
 20
44.52371156168726
 30
0.0
 10
3.030818999999999
 20
44.72699656168726
 30
0.0
 10
3.053191999999999
 20
44.93028156168726
 30
0.0
 10
3.077954
 20
45.12579206168726
 30
0.0
 10
3.102716000000001
 20
45.32130256168725
 30
0.0
 10
3.129860000000001
 20
45.50674206168726
 30
0.0
 10
3.157004000000001
 20
45.69218156168726
 30
0.0
 10
3.186538000000001
 20
45.86984656168725
 30
0.0
 10
3.216072
 20
46.04751156168725
 30
0.0
 10
3.2467495
 20
46.21507956168725
 30
0.0
 10
3.277426999999999
 20
46.38264756168726
 30
0.0
 10
3.309037500000001
 20
46.53896406168725
 30
0.0
 10
3.340648000000002
 20
46.69528056168725
 30
0.0
 10
3.373403000000001
 20
46.84149956168725
 30
0.0
 10
3.406158000000001
 20
46.98771856168725
 30
0.0
 10
3.4394475
 20
47.12498106168725
 30
0.0
 10
3.472736999999999
 20
47.26224356168725
 30
0.0
 10
3.506357999999999
 20
47.39092956168725
 30
0.0
 10
3.539978999999999
 20
47.51961556168725
 30
0.0
 10
3.5741345
 20
47.63934456168725
 30
0.0
 10
3.60829
 20
47.75907356168725
 30
0.0
 10
3.6429805
 20
47.86984606168726
 30
0.0
 10
3.677671
 20
47.98061856168726
 30
0.0
  0
SPLINE
  5
B1
330
1F
100
AcDbEntity
  8
DEFAULT
100
AcDbSpline
210
0.0
220
0.0
230
1.0
 70
     8
 71
     2
 72
    28
 73
    25
 74
     0
 42
0.0000000001
 43
0.0000000001
 40
0.0
 40
0.0
 40
0.0
 40
1.0
 40
1.0
 40
2.0
 40
2.0
 40
3.0
 40
3.0
 40
4.0
 40
4.0
 40
5.0
 40
5.0
 40
6.0
 40
6.0
 40
7.0
 40
7.0
 40
8.0
 40
8.0
 40
9.0
 40
9.0
 40
10.0
 40
10.0
 40
11.0
 40
11.0
 40
12.0
 40
12.0
 40
12.0
 10
9.544160000000002
 20
58.19524956168726
 30
0.0
 10
9.5062335
 20
58.21797356168725
 30
0.0
 10
9.468307
 20
58.24069756168725
 30
0.0
 10
9.426585
 20
58.26227406168725
 30
0.0
 10
9.384863
 20
58.28385056168725
 30
0.0
 10
9.339819
 20
58.30395506168725
 30
0.0
 10
9.294775000000001
 20
58.32405956168726
 30
0.0
 10
9.2459985
 20
58.34282156168725
 30
0.0
 10
9.197222
 20
58.36158356168725
 30
0.0
 10
9.144732
 20
58.37891856168725
 30
0.0
 10
9.092241999999999
 20
58.39625356168725
 30
0.0
 10
9.0376125
 20
58.41166106168725
 30
0.0
 10
8.982983
 20
58.42706856168726
 30
0.0
 10
8.926405
 20
58.44061456168725
 30
0.0
 10
8.869827
 20
58.45416056168725
 30
0.0
 10
8.811459000000001
 20
58.46590456168725
 30
0.0
 10
8.753091000000001
 20
58.47764856168725
 30
0.0
 10
8.695156500000001
 20
58.48730706168725
 30
0.0
 10
8.637222000000001
 20
58.49696556168725
 30
0.0
 10
8.5808885
 20
58.50462756168725
 30
0.0
 10
8.524555
 20
58.51228956168725
 30
0.0
 10
8.469514
 20
58.51825556168725
 30
0.0
 10
8.414473000000001
 20
58.52422156168725
 30
0.0
 10
8.3878625
 20
58.52659256168725
 30
0.0
 10
8.361252
 20
58.52896356168726
 30
0.0
  0
SPLINE
  5
B2
330
1F
100
AcDbEntity
  8
DEFAULT
100
AcDbSpline
210
0.0
220
0.0
230
1.0
 70
     8
 71
     2
 72
    14
 73
    11
 74
     0
 42
0.0000000001
 43
0.0000000001
 40
0.0
 40
0.0
 40
0.0
 40
1.0
 40
1.0
 40
2.0
 40
2.0
 40
3.0
 40
3.0
 40
4.0
 40
4.0
 40
5.0
 40
5.0
 40
5.0
 10
10.533045
 20
54.97073256168725
 30
0.0
 10
10.533014
 20
54.97077356168725
 30
0.0
 10
10.532983
 20
54.97081456168726
 30
0.0
 10
10.5337265
 20
54.96943856168726
 30
0.0
 10
10.53447
 20
54.96806256168725
 30
0.0
 10
10.536698
 20
54.96360856168725
 30
0.0
 10
10.538926
 20
54.95915456168725
 30
0.0
 10
10.5424665
 20
54.95123056168725
 30
0.0
 10
10.546007
 20
54.94330656168726
 30
0.0
 10
10.5505245
 20
54.93196156168725
 30
0.0
 10
10.555042
 20
54.92061656168725
 30
0.0
  0
SPLINE
  5
B3
330
1F
100
AcDbEntity
  8
DEFAULT
100
AcDbSpline
210
0.0
220
0.0
230
1.0
 70
     8
 71
     2
 72
    40
 73
    37
 74
     0
 42
0.0000000001
 43
0.0000000001
 40
0.0
 40
0.0
 40
0.0
 40
1.0
 40
1.0
 40
2.0
 40
2.0
 40
3.0
 40
3.0
 40
4.0
 40
4.0
 40
5.0
 40
5.0
 40
6.0
 40
6.0
 40
7.0
 40
7.0
 40
8.0
 40
8.0
 40
9.0
 40
9.0
 40
10.0
 40
10.0
 40
11.0
 40
11.0
 40
12.0
 40
12.0
 40
13.0
 40
13.0
 40
14.0
 40
14.0
 40
15.0
 40
15.0
 40
16.0
 40
16.0
 40
17.0
 40
17.0
 40
18.0
 40
18.0
 40
18.0
 10
10.555042
 20
54.92061656168725
 30
0.0
 10
10.560126
 20
54.90633756168725
 30
0.0
 10
10.56521
 20
54.89205856168726
 30
0.0
 10
10.570704
 20
54.87488106168725
 30
0.0
 10
10.576198
 20
54.85770356168725
 30
0.0
 10
10.5820065
 20
54.83753256168725
 30
0.0
 10
10.587815
 20
54.81736156168726
 30
0.0
 10
10.593742
 20
54.79452806168725
 30
0.0
 10
10.599669
 20
54.77169456168725
 30
0.0
 10
10.605613
 20
54.74629306168725
 30
0.0
 10
10.611557
 20
54.72089156168726
 30
0.0
 10
10.6174645
 20
54.69287606168726
 30
0.0
 10
10.623372
 20
54.66486056168726
 30
0.0
 10
10.6291635
 20
54.63431806168725
 30
0.0
 10
10.634955
 20
54.60377556168725
 30
0.0
 10
10.640567
 20
54.57075556168725
 30
0.0
 10
10.646179
 20
54.53773556168725
 30
0.0
 10
10.651551
 20
54.50227506168725
 30
0.0
 10
10.656923
 20
54.46681456168725
 30
0.0
 10
10.662001
 20
54.42895356168725
 30
0.0
 10
10.667079
 20
54.39109256168725
 30
0.0
 10
10.671806
 20
54.35091156168725
 30
0.0
 10
10.676533
 20
54.31073056168726
 30
0.0
 10
10.680852
 20
54.26831606168726
 30
0.0
 10
10.685171
 20
54.22590156168726
 30
0.0
 10
10.689031
 20
54.18129306168726
 30
0.0
 10
10.692891
 20
54.13668456168725
 30
0.0
 10
10.696238
 20
54.09001056168725
 30
0.0
 10
10.699585
 20
54.04333656168725
 30
0.0
 10
10.7023635
 20
53.99474656168725
 30
0.0
 10
10.705142
 20
53.94615656168725
 30
0.0
 10
10.7072995
 20
53.89574056168725
 30
0.0
 10
10.709457
 20
53.84532456168726
 30
0.0
 10
10.710941
 20
53.79325156168726
 30
0.0
 10
10.712425
 20
53.74117856168726
 30
0.0
 10
10.7125795
 20
53.73029156168725
 30
0.0
 10
10.712734
 20
53.71940456168725
 30
0.0
  0
SPLINE
  5
B4
330
1F
100
AcDbEntity
  8
DEFAULT
100
AcDbSpline
210
0.0
220
0.0
230
1.0
 70
     8
 71
     2
 72
    16
 73
    13
 74
     0
 42
0.0000000001
 43
0.0000000001
 40
0.0
 40
0.0
 40
0.0
 40
1.0
 40
1.0
 40
2.0
 40
2.0
 40
3.0
 40
3.0
 40
4.0
 40
4.0
 40
5.0
 40
5.0
 40
6.0
 40
6.0
 40
6.0
 10
9.832749
 20
57.91450856168725
 30
0.0
 10
9.827399
 20
57.92275256168725
 30
0.0
 10
9.822049
 20
57.93099656168726
 30
0.0
 10
9.800433
 20
57.96034206168726
 30
0.0
 10
9.778817
 20
57.98968756168725
 30
0.0
 10
9.754124000000001
 20
58.01752506168725
 30
0.0
 10
9.729431000000002
 20
58.04536256168725
 30
0.0
 10
9.701707500000001
 20
58.07167856168725
 30
0.0
 10
9.673984
 20
58.09799456168725
 30
0.0
 10
9.6431915
 20
58.12291056168725
 30
0.0
 10
9.612399
 20
58.14782656168725
 30
0.0
 10
9.5782795
 20
58.17153806168725
 30
0.0
 10
9.544160000000002
 20
58.19524956168726
 30
0.0
  0
SPLINE
  5
B5
330
1F
100
AcDbEntity
  8
DEFAULT
100
AcDbSpline
210
0.0
220
0.0
230
1.0
 70
    24
 71
     2
 72
     6
 73
     3
 74
     0
 42
0.0000000001
 43
0.0000000001
 40
0.0
 40
0.0
 40
0.0
 40
1.0
 40
1.0
 40
1.0
 10
11.358544
 20
55.49784456168725
 30
0.0
 10
10.5955885
 20
56.70626906168725
 30
0.0
 10
9.832633000000001
 20
57.91469356168725
 30
0.0
  0
SPLINE
  5
B6
330
1F
100
AcDbEntity
  8
DEFAULT
100
AcDbSpline
210
0.0
220
0.0
230
1.0
 70
    24
 71
     2
 72
     6
 73
     3
 74
     0
 42
0.0000000001
 43
0.0000000001
 40
0.0
 40
0.0
 40
0.0
 40
1.0
 40
1.0
 40
1.0
 10
9.832808
 20
57.91441556168726
 30
0.0
 10
9.832866
 20
57.91432356168725
 30
0.0
 10
9.832923999999998
 20
57.91423156168725
 30
0.0
  0
SPLINE
  5
B7
330
1F
100
AcDbEntity
  8
DEFAULT
100
AcDbSpline
210
0.0
220
0.0
230
1.0
 70
    24
 71
     2
 72
     6
 73
     3
 74
     0
 42
0.0000000001
 43
0.0000000001
 40
0.0
 40
0.0
 40
0.0
 40
0.0001477489785947
 40
0.0001477489785947
 40
0.0001477489785947
 10
-8.944336426977953
 20
18.48382681667034
 30
0.0
 10
-8.944322050958021
 20
18.4838992788689
 30
0.0
 10
-8.94430767493809
 20
18.48397174106745
 30
0.0
  0
SPLINE
  5
B8
330
1F
100
AcDbEntity
  8
DEFAULT
100
AcDbSpline
210
0.0
220
0.0
230
1.0
 70
    24
 71
     2
 72
     6
 73
     3
 74
     0
 42
0.0000000001
 43
0.0000000001
 40
0.0
 40
0.0
 40
0.0
 40
17.66778947039487
 40
17.66778947039487
 40
17.66778947039487
 10
-10.08410720374532
 20
0.2669864245367606
 30
0.0
 10
-9.94827949264976
 20
9.099836871897875
 30
0.0
 10
-9.8124517815542
 20
17.93268731925899
 30
0.0
  0
SPLINE
  5
B9
330
1F
100
AcDbEntity
  8
DEFAULT
100
AcDbSpline
210
0.0
220
0.0
230
1.0
 70
    24
 71
     2
 72
     6
 73
     3
 74
     0
 42
0.0000000001
 43
0.0000000001
 40
0.0
 40
0.0
 40
0.0
 40
0.4919977399559122
 40
0.4919977399559122
 40
0.4919977399559122
 10
-3.963489266673208
 20
15.93440964574228
 30
0.0
 10
-3.959176143710784
 20
16.18037070160426
 30
0.0
 10
-3.954863020748361
 20
16.42633175746625
 30
0.0
  0
SPLINE
  5
BA
330
1F
100
AcDbEntity
  8
DEFAULT
100
AcDbSpline
210
0.0
220
0.0
230
1.0
 70
    12
 71
     2
 72
     6
 73
     3
 74
     0
 42
0.0000000001
 43
0.0000000001
 40
0.0
 40
0.0
 40
0.0
 40
0.2236524678537002
 40
0.2236524678537002
 40
0.2236524678537002
 10
-4.109739266673182
 20
15.77514625400354
 30
0.0
 41
1.0
 10
-3.998285984828513
 20
15.81958146712451
 30
0.0
 41
0.9010587385208325
 10
-3.963489266673208
 20
15.93440964574228
 30
0.0
 41
1.0
  0
SPLINE
  5
BB
330
1F
100
AcDbEntity
  8
DEFAULT
100
AcDbSpline
210
0.0
220
0.0
230
1.0
 70
     8
 71
     3
 72
     8
 73
     4
 74
     0
 42
0.0000000001
 43
0.0000000001
 40
0.0
 40
0.0
 40
0.0
 40
0.0
 40
1.0
 40
1.0
 40
1.0
 40
1.0
 10
-4.547239266673174
 20
15.77514625400353
 30
0.0
 10
-4.411775269937279
 20
15.72113822960486
 30
0.0
 10
-4.245203263409079
 20
15.72113822960487
 30
0.0
 10
-4.109739266673182
 20
15.77514625400354
 30
0.0
  0
SPLINE
  5
BC
330
1F
100
AcDbEntity
  8
DEFAULT
100
AcDbSpline
210
0.0
220
0.0
230
1.0
 70
    12
 71
     2
 72
     6
 73
     3
 74
     0
 42
0.0000000001
 43
0.0000000001
 40
0.0
 40
0.0
 40
0.0
 40
0.223652467853702
 40
0.223652467853702
 40
0.223652467853702
 10
-4.693489266673148
 20
15.93440964574228
 30
0.0
 41
1.0
 10
-4.65869254851784
 20
15.81958146712452
 30
0.0
 41
0.9010587385208453
 10
-4.547239266673174
 20
15.77514625400353
 30
0.0
 41
1.0
  0
SPLINE
  5
BD
330
1F
100
AcDbEntity
  8
DEFAULT
100
AcDbSpline
210
0.0
220
0.0
230
1.0
 70
    24
 71
     2
 72
     6
 73
     3
 74
     0
 42
0.0000000001
 43
0.0000000001
 40
0.0
 40
0.0
 40
0.0
 40
0.5321440388778759
 40
0.5321440388778759
 40
0.5321440388778759
 10
-4.702819401700218
 20
16.46647188523465
 30
0.0
 10
-4.698154334186682
 20
16.20044076548847
 30
0.0
 10
-4.693489266673148
 20
15.93440964574228
 30
0.0
  0
SPLINE
  5
BE
330
1F
100
AcDbEntity
  8
DEFAULT
100
AcDbSpline
210
0.0
220
0.0
230
1.0
 70
    24
 71
     2
 72
     6
 73
     3
 74
     0
 42
0.0000000001
 43
0.0000000001
 40
0.0
 40
0.0
 40
0.0
 40
0.5321440388778741
 40
0.5321440388778741
 40
0.5321440388778741
 10
-3.963489266673208
 20
15.26348937810028
 30
0.0
 10
-3.958824199159674
 20
15.52952049784647
 30
0.0
 10
-3.954159131646138
 20
15.79555161759265
 30
0.0
  0
SPLINE
  5
BF
330
1F
100
AcDbEntity
  8
DEFAULT
100
AcDbSpline
210
0.0
220
0.0
230
1.0
 70
    24
 71
     2
 72
     6
 73
     3
 74
     0
 42
0.0000000001
 43
0.0000000001
 40
0.0
 40
0.0
 40
0.0
 40
0.5321440388778741
 40
0.5321440388778741
 40
0.5321440388778741
 10
-4.699882203321968
 20
15.79542700207427
 30
0.0
 10
-4.696685734997558
 20
15.52945819008728
 30
0.0
 10
-4.693489266673148
 20
15.26348937810028
 30
0.0
  0
SPLINE
  5
C0
330
1F
100
AcDbEntity
  8
DEFAULT
100
AcDbSpline
210
0.0
220
0.0
230
1.0
 70
    12
 71
     2
 72
     6
 73
     3
 74
     0
 42
0.0000000001
 43
0.0000000001
 40
0.0
 40
0.0
 40
0.0
 40
0.7473847420755672
 40
0.7473847420755672
 40
0.7473847420755672
 10
-4.001363716688768
 20
16.43735793932769
 30
0.0
 41
1.0
 10
-4.360082953370005
 20
16.18856768343522
 30
0.0
 41
0.7973745102127584
 10
-4.696952909337941
 20
16.46622703400417
 30
0.0
 41
1.0
  0
SPLINE
  5
C1
330
1F
100
AcDbEntity
  8
DEFAULT
100
AcDbSpline
210
0.0
220
0.0
230
1.0
 70
    12
 71
     2
 72
     6
 73
     3
 74
     0
 42
0.0000000001
 43
0.0000000001
 40
0.0
 40
0.0
 40
0.0
 40
2.423793056935102
 40
2.423793056935102
 40
2.423793056935102
 10
-0.5820347176024754
 20
16.16298067941642
 30
0.0
 41
1.0
 10
-1.794150894868707
 20
16.21129736156455
 30
0.0
 41
0.9985387582686867
 10
-2.993973009372791
 20
16.39014652290243
 30
0.0
 41
1.0
  0
SPLINE
  5
C2
330
1F
100
AcDbEntity
  8
DEFAULT
100
AcDbSpline
210
0.0
220
0.0
230
1.0
 70
    24
 71
     2
 72
     6
 73
     3
 74
     0
 42
0.0000000001
 43
0.0000000001
 40
0.0
 40
0.0
 40
0.0
 40
0.35397136597323
 40
0.35397136597323
 40
0.35397136597323
 10
-3.833489266673178
 20
16.07058123665371
 30
0.0
 10
-3.833489266673179
 20
16.24756691964032
 30
0.0
 10
-3.83348926667318
 20
16.42455260262694
 30
0.0
  0
SPLINE
  5
C3
330
1F
100
AcDbEntity
  8
DEFAULT
100
AcDbSpline
210
0.0
220
0.0
230
1.0
 70
    12
 71
     2
 72
     6
 73
     3
 74
     0
 42
0.0000000001
 43
0.0000000001
 40
0.0
 40
0.0
 40
0.0
 40
0.3527729993252487
 40
0.3527729993252487
 40
0.3527729993252487
 10
-3.955001668014495
 20
15.74750534992011
 30
0.0
 41
1.0
 10
-3.833305706047376
 20
15.88612317749874
 30
0.0
 41
0.935636063196829
 10
-3.833489266673178
 20
16.07058123665371
 30
0.0
 41
1.0
  0
SPLINE
  5
C4
330
1F
100
AcDbEntity
  8
DEFAULT
100
AcDbSpline
210
0.0
220
0.0
230
1.0
 70
    24
 71
     2
 72
     6
 73
     3
 74
     0
 42
0.0000000001
 43
0.0000000001
 40
0.0
 40
0.0
 40
0.0
 40
0.40304397363726
 40
0.40304397363726
 40
0.40304397363726
 10
-4.825680976213238
 20
16.07297549746599
 30
0.0
 10
-4.824585121443207
 20
16.27449748428462
 30
0.0
 10
-4.823489266673177
 20
16.47601947110325
 30
0.0
  0
SPLINE
  5
C5
330
1F
100
AcDbEntity
  8
DEFAULT
100
AcDbSpline
210
0.0
220
0.0
230
1.0
 70
    12
 71
     2
 72
     6
 73
     3
 74
     0
 42
0.0000000001
 43
0.0000000001
 40
-0.3590936632311201
 40
-0.3590936632311201
 40
-0.3590936632311201
 40
0.0
 40
0.0
 40
0.0
 10
-4.701935526524261
 20
15.74514780786723
 30
0.0
 41
1.0
 10
-4.827484579064138
 20
15.88501835845917
 30
0.0
 41
0.9342250861939277
 10
-4.825680976213238
 20
16.07297549746599
 30
0.0
 41
0.9999983047728426
  0
SPLINE
  5
C6
330
1F
100
AcDbEntity
  8
DEFAULT
100
AcDbSpline
210
0.0
220
0.0
230
1.0
 70
    24
 71
     2
 72
     6
 73
     3
 74
     0
 42
0.0000000001
 43
0.0000000001
 40
0.0
 40
0.0
 40
0.0
 40
0.0001477489785947
 40
0.0001477489785947
 40
0.0001477489785947
 10
8.944336426977953
 20
18.48382681667034
 30
0.0
 10
8.944322050958021
 20
18.4838992788689
 30
0.0
 10
8.94430767493809
 20
18.48397174106745
 30
0.0
  0
SPLINE
  5
C7
330
1F
100
AcDbEntity
  8
DEFAULT
100
AcDbSpline
210
0.0
220
0.0
230
1.0
 70
    12
 71
     2
 72
     6
 73
     3
 74
     0
 42
0.0000000001
 43
0.0000000001
 40
0.0
 40
0.0
 40
0.0
 40
2.423793056935102
 40
2.423793056935102
 40
2.423793056935102
 10
0.5820347176024754
 20
16.16298067941642
 30
0.0
 41
1.0
 10
1.794150894868707
 20
16.21129736156455
 30
0.0
 41
0.9985387582686867
 10
2.993973009372791
 20
16.39014652290243
 30
0.0
 41
1.0
  0
SPLINE
  5
C8
330
1F
100
AcDbEntity
  8
DEFAULT
100
AcDbSpline
210
0.0
220
0.0
230
1.0
 70
    24
 71
     2
 72
     6
 73
     3
 74
     0
 42
0.0000000001
 43
0.0000000001
 40
0.0
 40
0.0
 40
0.0
 40
0.35397136597323
 40
0.35397136597323
 40
0.35397136597323
 10
3.833489266673178
 20
16.07058123665371
 30
0.0
 10
3.833489266673179
 20
16.24756691964032
 30
0.0
 10
3.83348926667318
 20
16.42455260262694
 30
0.0
  0
SPLINE
  5
C9
330
1F
100
AcDbEntity
  8
DEFAULT
100
AcDbSpline
210
0.0
220
0.0
230
1.0
 70
    12
 71
     2
 72
     6
 73
     3
 74
     0
 42
0.0000000001
 43
0.0000000001
 40
0.0
 40
0.0
 40
0.0
 40
0.3527729993252487
 40
0.3527729993252487
 40
0.3527729993252487
 10
3.955001668014495
 20
15.74750534992011
 30
0.0
 41
1.0
 10
3.833305706047376
 20
15.88612317749874
 30
0.0
 41
0.935636063196829
 10
3.833489266673178
 20
16.07058123665371
 30
0.0
 41
1.0
  0
SPLINE
  5
CA
330
1F
100
AcDbEntity
  8
DEFAULT
100
AcDbSpline
210
0.0
220
0.0
230
1.0
 70
    24
 71
     2
 72
     6
 73
     3
 74
     0
 42
0.0000000001
 43
0.0000000001
 40
0.0
 40
0.0
 40
0.0
 40
0.40304397363726
 40
0.40304397363726
 40
0.40304397363726
 10
4.825680976213238
 20
16.07297549746599
 30
0.0
 10
4.824585121443207
 20
16.27449748428462
 30
0.0
 10
4.823489266673177
 20
16.47601947110325
 30
0.0
  0
SPLINE
  5
CB
330
1F
100
AcDbEntity
  8
DEFAULT
100
AcDbSpline
210
0.0
220
0.0
230
1.0
 70
    12
 71
     2
 72
     6
 73
     3
 74
     0
 42
0.0000000001
 43
0.0000000001
 40
-0.3590936632311201
 40
-0.3590936632311201
 40
-0.3590936632311201
 40
0.0
 40
0.0
 40
0.0
 10
4.701935526524261
 20
15.74514780786723
 30
0.0
 41
1.0
 10
4.827484579064138
 20
15.88501835845917
 30
0.0
 41
0.9342250861939277
 10
4.825680976213238
 20
16.07297549746599
 30
0.0
 41
0.9999983047728426
  0
SPLINE
  5
CC
330
1F
100
AcDbEntity
  8
DEFAULT
100
AcDbSpline
210
0.0
220
0.0
230
1.0
 70
    12
 71
     2
 72
     6
 73
     3
 74
     0
 42
0.0000000001
 43
0.0000000001
 40
0.0
 40
0.0
 40
0.0
 40
0.7473847420755672
 40
0.7473847420755672
 40
0.7473847420755672
 10
4.001363716688768
 20
16.43735793932769
 30
0.0
 41
1.0
 10
4.360082953370005
 20
16.18856768343522
 30
0.0
 41
0.7973745102127584
 10
4.696952909337941
 20
16.46622703400417
 30
0.0
 41
1.0
  0
SPLINE
  5
CD
330
1F
100
AcDbEntity
  8
DEFAULT
100
AcDbSpline
210
0.0
220
0.0
230
1.0
 70
     8
 71
     3
 72
    14
 73
    10
 74
     0
 42
0.0000000001
 43
0.0000000001
 40
0.0
 40
0.0
 40
0.0
 40
0.0
 40
0.0011429773882848
 40
0.0041559612549722
 40
0.010740543323966
 40
0.120253821530844
 40
0.2135872029610184
 40
0.4059865476491976
 40
0.8047865810560537
 40
0.8047865810560537
 40
0.8047865810560537
 40
0.8047865810560537
 10
3.954159131646138
 20
15.79555161759265
 30
0.0
 10
3.954064698968024
 20
15.79604234793775
 30
0.0
 10
3.954729804750294
 20
15.79728640809484
 30
0.0
 10
3.958799138006872
 20
15.79657232931934
 30
0.0
 10
3.990713770963564
 20
15.77377427350036
 30
0.0
 10
4.048527104861989
 20
15.7326125322114
 30
0.0
 10
4.168668647219088
 20
15.68037079668747
 30
0.0
 10
4.398510030423761
 20
15.63876513456371
 30
0.0
 10
4.592563028077378
 20
15.71305959995781
 30
0.0
 10
4.699882203321968
 20
15.79542700207427
 30
0.0
  0
SPLINE
  5
CE
330
1F
100
AcDbEntity
  8
DEFAULT
100
AcDbSpline
210
0.0
220
0.0
230
1.0
 70
    24
 71
     2
 72
     6
 73
     3
 74
     0
 42
0.0000000001
 43
0.0000000001
 40
0.0
 40
0.0
 40
0.0
 40
0.5321440388778741
 40
0.5321440388778741
 40
0.5321440388778741
 10
3.963489266673208
 20
15.26348937810028
 30
0.0
 10
3.958824199159674
 20
15.52952049784647
 30
0.0
 10
3.954159131646138
 20
15.79555161759265
 30
0.0
  0
SPLINE
  5
CF
330
1F
100
AcDbEntity
  8
DEFAULT
100
AcDbSpline
210
0.0
220
0.0
230
1.0
 70
    12
 71
     2
 72
     6
 73
     3
 74
     0
 42
0.0000000001
 43
0.0000000001
 40
0.0
 40
0.0
 40
0.0
 40
0.2236524678536981
 40
0.2236524678536981
 40
0.2236524678536981
 10
4.109739266673182
 20
15.10422598636154
 30
0.0
 41
1.0
 10
3.998285984828513
 20
15.14866119948251
 30
0.0
 41
0.9010587385208331
 10
3.963489266673208
 20
15.26348937810028
 30
0.0
 41
1.0
  0
SPLINE
  5
D0
330
1F
100
AcDbEntity
  8
DEFAULT
100
AcDbSpline
210
0.0
220
0.0
230
1.0
 70
     8
 71
     3
 72
     8
 73
     4
 74
     0
 42
0.0000000001
 43
0.0000000001
 40
0.0
 40
0.0
 40
0.0
 40
0.0
 40
1.0
 40
1.0
 40
1.0
 40
1.0
 10
4.547239266673174
 20
15.10422598636154
 30
0.0
 10
4.411775269937276
 20
15.05021796196287
 30
0.0
 10
4.245203263409078
 20
15.05021796196287
 30
0.0
 10
4.109739266673182
 20
15.10422598636154
 30
0.0
  0
SPLINE
  5
D1
330
1F
100
AcDbEntity
  8
DEFAULT
100
AcDbSpline
210
0.0
220
0.0
230
1.0
 70
    12
 71
     2
 72
     6
 73
     3
 74
     0
 42
0.0000000001
 43
0.0000000001
 40
0.0
 40
0.0
 40
0.0
 40
0.2236524678536994
 40
0.2236524678536994
 40
0.2236524678536994
 10
4.693489266673148
 20
15.26348937810028
 30
0.0
 41
1.0
 10
4.658692548517843
 20
15.14866119948251
 30
0.0
 41
0.9010587385208312
 10
4.547239266673174
 20
15.10422598636154
 30
0.0
 41
1.0
  0
SPLINE
  5
D2
330
1F
100
AcDbEntity
  8
DEFAULT
100
AcDbSpline
210
0.0
220
0.0
230
1.0
 70
    24
 71
     2
 72
     6
 73
     3
 74
     0
 42
0.0000000001
 43
0.0000000001
 40
0.0
 40
0.0
 40
0.0
 40
0.5321440388778741
 40
0.5321440388778741
 40
0.5321440388778741
 10
4.699882203321968
 20
15.79542700207427
 30
0.0
 10
4.696685734997558
 20
15.52945819008728
 30
0.0
 10
4.693489266673148
 20
15.26348937810028
 30
0.0
  0
SPLINE
  5
D3
330
1F
100
AcDbEntity
  8
DEFAULT
100
AcDbSpline
210
0.0
220
0.0
230
1.0
 70
    24
 71
     2
 72
     6
 73
     3
 74
     0
 42
0.0000000001
 43
0.0000000001
 40
0.0
 40
0.0
 40
0.0
 40
0.4919977399559122
 40
0.4919977399559122
 40
0.4919977399559122
 10
3.963489266673208
 20
15.93440964574228
 30
0.0
 10
3.959176143710784
 20
16.18037070160426
 30
0.0
 10
3.954863020748361
 20
16.42633175746625
 30
0.0
  0
SPLINE
  5
D4
330
1F
100
AcDbEntity
  8
DEFAULT
100
AcDbSpline
210
0.0
220
0.0
230
1.0
 70
    12
 71
     2
 72
     6
 73
     3
 74
     0
 42
0.0000000001
 43
0.0000000001
 40
0.0
 40
0.0
 40
0.0
 40
0.2236524678537002
 40
0.2236524678537002
 40
0.2236524678537002
 10
4.109739266673182
 20
15.77514625400354
 30
0.0
 41
1.0
 10
3.998285984828513
 20
15.81958146712451
 30
0.0
 41
0.9010587385208325
 10
3.963489266673208
 20
15.93440964574228
 30
0.0
 41
1.0
  0
SPLINE
  5
D5
330
1F
100
AcDbEntity
  8
DEFAULT
100
AcDbSpline
210
0.0
220
0.0
230
1.0
 70
     8
 71
     3
 72
     8
 73
     4
 74
     0
 42
0.0000000001
 43
0.0000000001
 40
0.0
 40
0.0
 40
0.0
 40
0.0
 40
1.0
 40
1.0
 40
1.0
 40
1.0
 10
4.547239266673174
 20
15.77514625400353
 30
0.0
 10
4.411775269937279
 20
15.72113822960486
 30
0.0
 10
4.245203263409079
 20
15.72113822960487
 30
0.0
 10
4.109739266673182
 20
15.77514625400354
 30
0.0
  0
SPLINE
  5
D6
330
1F
100
AcDbEntity
  8
DEFAULT
100
AcDbSpline
210
0.0
220
0.0
230
1.0
 70
    12
 71
     2
 72
     6
 73
     3
 74
     0
 42
0.0000000001
 43
0.0000000001
 40
0.0
 40
0.0
 40
0.0
 40
0.223652467853702
 40
0.223652467853702
 40
0.223652467853702
 10
4.693489266673148
 20
15.93440964574228
 30
0.0
 41
1.0
 10
4.65869254851784
 20
15.81958146712452
 30
0.0
 41
0.9010587385208453
 10
4.547239266673174
 20
15.77514625400353
 30
0.0
 41
1.0
  0
SPLINE
  5
D7
330
1F
100
AcDbEntity
  8
DEFAULT
100
AcDbSpline
210
0.0
220
0.0
230
1.0
 70
    24
 71
     2
 72
     6
 73
     3
 74
     0
 42
0.0000000001
 43
0.0000000001
 40
0.0
 40
0.0
 40
0.0
 40
0.5321440388778759
 40
0.5321440388778759
 40
0.5321440388778759
 10
4.702819401700218
 20
16.46647188523465
 30
0.0
 10
4.698154334186682
 20
16.20044076548847
 30
0.0
 10
4.693489266673148
 20
15.93440964574228
 30
0.0
  0
SPLINE
  5
D8
330
1F
100
AcDbEntity
  8
DEFAULT
100
AcDbSpline
210
0.0
220
0.0
230
1.0
 70
     8
 71
     3
 72
    10
 73
     6
 74
     0
 42
0.0000000001
 43
0.0000000001
 40
0.0
 40
0.0
 40
0.0
 40
0.0
 40
0.0051614376977276
 40
0.0076964859399531
 40
0.5184066067045295
 40
0.5184066067045295
 40
0.5184066067045295
 40
0.5184066067045295
 10
9.017077161882934
 20
0.0000693463675743
 30
0.0
 10
9.02396858734003
 20
0.0001816331211356
 30
0.0
 10
9.010504651860918
 20
-0.0000376096013241
 30
0.0
 10
9.18138027403392
 20
0.0027402190062556
 30
0.0
 10
9.35417496077946
 20
0.0055504775875407
 30
0.0
 10
9.525635883920387
 20
0.0083386225390382
 30
0.0
  0
SPLINE
  5
D9
330
1F
100
AcDbEntity
  8
DEFAULT
100
AcDbSpline
210
0.0
220
0.0
230
1.0
 70
    12
 71
     2
 72
     6
 73
     3
 74
     0
 42
0.0000000001
 43
0.0000000001
 40
0.0
 40
0.0
 40
0.0
 40
0.0437713866611207
 40
0.0437713866611207
 40
0.0437713866611207
 10
8.974646552743373
 20
0.0173695236833032
 30
0.0
 41
1.0
 10
8.98989690606149
 20
-0.0003926996203261
 30
0.0
 41
0.9050810086732575
 10
9.017077161882934
 20
0.0000693463675743
 30
0.0
 41
1.0
  0
SPLINE
  5
DA
330
1F
100
AcDbEntity
  8
DEFAULT
100
AcDbSpline
210
0.0
220
0.0
230
1.0
 70
     8
 71
     3
 72
    12
 73
     8
 74
     0
 42
0.0000000001
 43
0.0000000001
 40
-8.273460492208956
 40
-8.273460492208956
 40
-8.273460492208956
 40
-8.273460492208956
 40
-6.316482208258889
 40
-4.456822206700376
 40
-2.488811453363902
 40
-1.45186367659028
 40
0.0
 40
0.0
 40
0.0
 40
0.0
 10
-8.233148946578854
 20
17.32571886731488
 30
0.0
 10
-7.591564885943434
 20
17.20846674370148
 30
0.0
 10
-6.337074728512439
 20
16.99310696022101
 30
0.0
 10
-4.418714451993215
 20
16.79016139572363
 30
0.0
 10
-2.798964872517368
 20
16.70533044897741
 30
0.0
 10
-1.313566582974555
 20
16.67705223052543
 30
0.0
 10
-0.4839459175036736
 20
16.67664223995691
 30
0.0
 10
0.0
 20
16.67654286542395
 30
0.0
  0
SPLINE
  5
DB
330
1F
100
AcDbEntity
  8
DEFAULT
100
AcDbSpline
210
0.0
220
0.0
230
1.0
 70
     8
 71
     3
 72
    11
 73
     7
 74
     0
 42
0.0000000001
 43
0.0000000001
 40
0.0
 40
0.0
 40
0.0
 40
0.0
 40
0.0723027297364637
 40
0.1449430031713405
 40
0.3055450446207338
 40
0.6678296448444616
 40
0.6678296448444616
 40
0.6678296448444616
 40
0.6678296448444616
 10
-8.763609142001986
 20
17.68547857180186
 30
0.0
 10
-8.755329441315611
 20
17.66283213050841
 30
0.0
 10
-8.7339036353653
 20
17.61929520207179
 30
0.0
 10
-8.672781955570706
 20
17.53730059164565
 30
0.0
 10
-8.5191172676018
 20
17.40869838252431
 30
0.0
 10
-8.351543239031747
 20
17.34791144208856
 30
0.0
 10
-8.233148946578854
 20
17.32571886731488
 30
0.0
  0
SPLINE
  5
DC
330
1F
100
AcDbEntity
  8
DEFAULT
100
AcDbSpline
210
0.0
220
0.0
230
1.0
 70
    12
 71
     5
 72
    42
 73
    36
 74
     0
 42
0.0000000001
 43
0.0000000001
 40
-10.53337729089963
 40
-10.53337729089963
 40
-10.53337729089963
 40
-10.53337729089963
 40
-10.53337729089963
 40
-10.53337729089963
 40
-8.068508251492666
 40
-8.068508251492666
 40
-8.068508251492666
 40
-5.747266165788471
 40
-5.747266165788471
 40
-5.747266165788471
 40
-3.93495942312767
 40
-3.93495942312767
 40
-3.93495942312767
 40
-2.790692718633749
 40
-2.790692718633749
 40
-2.790692718633749
 40
-2.019952292718224
 40
-2.019952292718224
 40
-2.019952292718224
 40
-1.656308838603961
 40
-1.656308838603961
 40
-1.656308838603961
 40
-1.656308838603961
 40
-1.656308838603961
 40
-0.6563088386039608
 40
-0.6563088386039608
 40
-0.6563088386039608
 40
-0.6563088386039608
 40
-0.6563088386039608
 40
-0.2855995164709133
 40
-0.2855995164709133
 40
-0.2855995164709133
 40
-0.2855995164709133
 40
-0.2855995164709133
 40
0.0
 40
0.0
 40
0.0
 40
0.0
 40
0.0
 40
0.0
 10
0.0
 20
17.62730027155802
 30
0.0
 41
1.000000010140359
 10
-0.4930396612702577
 20
17.62670026312193
 30
0.0
 41
1.000000010140359
 10
-0.9859866139149623
 20
17.63270834581613
 30
0.0
 41
1.000000010140359
 10
-1.478798252914011
 20
17.64501086093511
 30
0.0
 41
1.000000010140359
 10
-2.435360119608289
 20
17.68051207853056
 30
0.0
 41
1.000000010140359
 10
-3.391090542119904
 20
17.73738011571381
 30
0.0
 41
1.000000010140359
 10
-3.85418715405732
 20
17.77119799848617
 30
0.0
 41
1.000000010140359
 10
-4.677668764260282
 20
17.844682828188
 30
0.0
 41
1.000000010140359
 10
-5.498316336436149
 20
17.94562782129714
 30
0.0
 41
1.000000010140359
 10
-5.857383330354809
 20
17.99557392838119
 30
0.0
 41
1.000000010140359
 10
-6.441646375835044
 20
18.08700234496977
 30
0.0
 41
1.000000010140359
 10
-7.022929151164304
 20
18.19574753102667
 30
0.0
 41
1.000000010140359
 10
-7.247568960845044
 20
18.23966480088159
 30
0.0
 41
1.000000010140359
 10
-7.623158175948246
 20
18.31494827049202
 30
0.0
 41
1.000000010140359
 10
-7.998467356537445
 20
18.39108018727798
 30
0.0
 41
1.000000010140359
 10
-8.149443663857799
 20
18.42207464422034
 30
0.0
 41
1.000000010140359
 10
-8.371495674580693
 20
18.46853044956152
 30
0.0
 41
1.000000010140359
 10
-8.593251289055369
 20
18.51668710229251
 30
0.0
 41
1.000000010140359
 10
-8.664212857394457
 20
18.53266157975544
 30
0.0
 41
1.000000010140359
 10
-8.734953966414617
 20
18.54953558203157
 30
0.0
 41
1.000000010140359
 10
-8.805379615553713
 20
18.56767148050757
 30
0.0
 41
1.000000010140359
 10
-8.847192429845421
 20
18.57843904835054
 30
0.0
 41
1.000000010140359
 10
-8.88889090405955
 20
18.58965062365179
 30
0.0
 41
1.000000010140359
 10
-8.964169939855804
 20
18.49045859603791
 30
0.0
 41
1.000000010140359
 10
-8.95640818283386
 20
18.44798024595748
 30
0.0
 41
1.000000010140359
 10
-8.948023578498404
 20
18.40562519470755
 30
0.0
 41
1.000000010140359
 10
-8.933624683888313
 20
18.33288879657202
 30
0.0
 41
0.9994874804541871
 10
-8.917391155538002
 20
18.2605247698725
 30
0.0
 41
0.9992312145970651
 10
-8.899334071700721
 20
18.18858907675794
 30
0.0
 41
0.9992312125689933
 10
-8.879467321616305
 20
18.11713704913844
 30
0.0
 41
0.9994874743699717
 10
-8.857807569918098
 20
18.0462232468896
 30
0.0
 41
1.0
 10
-8.843177705574414
 20
17.99100841354165
 30
0.0
 41
0.9999866190723672
 10
-8.828769190222912
 20
17.9357350796919
 30
0.0
 41
0.9999799286085507
 10
-8.814582317511219
 20
17.88040435360112
 30
0.0
 41
0.9999799286085507
 10
-8.783222865465548
 20
17.73912556385973
 30
0.0
 41
0.9999866190723671
 10
-8.763609142001986
 20
17.68547857180186
 30
0.0
 41
1.0
  0
SPLINE
  5
DD
330
1F
100
AcDbEntity
  8
DEFAULT
100
AcDbSpline
210
0.0
220
0.0
230
1.0
 70
    12
 71
     5
 72
    42
 73
    36
 74
     0
 42
0.0000000001
 43
0.0000000001
 40
0.0
 40
0.0
 40
0.0
 40
0.0
 40
0.0
 40
0.0
 40
0.2855995164709133
 40
0.2855995164709133
 40
0.2855995164709133
 40
0.2855995164709133
 40
0.2855995164709133
 40
0.6563088386039608
 40
0.6563088386039608
 40
0.6563088386039608
 40
0.6563088386039608
 40
0.6563088386039608
 40
1.656308838603961
 40
1.656308838603961
 40
1.656308838603961
 40
1.656308838603961
 40
1.656308838603961
 40
2.019952292718224
 40
2.019952292718224
 40
2.019952292718224
 40
2.790692718633749
 40
2.790692718633749
 40
2.790692718633749
 40
3.93495942312767
 40
3.93495942312767
 40
3.93495942312767
 40
5.747266165788471
 40
5.747266165788471
 40
5.747266165788471
 40
8.068508251492666
 40
8.068508251492666
 40
8.068508251492666
 40
10.53337729089963
 40
10.53337729089963
 40
10.53337729089963
 40
10.53337729089963
 40
10.53337729089963
 40
10.53337729089963
 10
8.763609142001986
 20
17.68547857180186
 30
0.0
 41
1.0
 10
8.783222865465548
 20
17.73912556385973
 30
0.0
 41
0.9999866190723671
 10
8.814582317511219
 20
17.88040435360112
 30
0.0
 41
0.9999799286085507
 10
8.828769190222912
 20
17.9357350796919
 30
0.0
 41
0.9999799286085507
 10
8.843177705574414
 20
17.99100841354165
 30
0.0
 41
0.9999866190723672
 10
8.857807569918098
 20
18.0462232468896
 30
0.0
 41
1.0
 10
8.879467321616305
 20
18.11713704913844
 30
0.0
 41
0.9994874743699717
 10
8.899334071700721
 20
18.18858907675794
 30
0.0
 41
0.9992312125689933
 10
8.917391155538002
 20
18.2605247698725
 30
0.0
 41
0.9992312145970651
 10
8.933624683888313
 20
18.33288879657202
 30
0.0
 41
0.9994874804541871
 10
8.948023578498404
 20
18.40562519470755
 30
0.0
 41
1.000000010140359
 10
8.95640818283386
 20
18.44798024595748
 30
0.0
 41
1.000000010140359
 10
8.964169939855804
 20
18.49045859603791
 30
0.0
 41
1.000000010140359
 10
8.88889090405955
 20
18.58965062365179
 30
0.0
 41
1.000000010140359
 10
8.847192429845421
 20
18.57843904835054
 30
0.0
 41
1.000000010140359
 10
8.805379615553713
 20
18.56767148050757
 30
0.0
 41
1.000000010140359
 10
8.734953966414617
 20
18.54953558203157
 30
0.0
 41
1.000000010140359
 10
8.664212857394457
 20
18.53266157975544
 30
0.0
 41
1.000000010140359
 10
8.593251289055369
 20
18.51668710229251
 30
0.0
 41
1.000000010140359
 10
8.371495674580693
 20
18.46853044956152
 30
0.0
 41
1.000000010140359
 10
8.149443663857799
 20
18.42207464422034
 30
0.0
 41
1.000000010140359
 10
7.998467356537445
 20
18.39108018727798
 30
0.0
 41
1.000000010140359
 10
7.623158175948246
 20
18.31494827049202
 30
0.0
 41
1.000000010140359
 10
7.247568960845044
 20
18.23966480088159
 30
0.0
 41
1.000000010140359
 10
7.022929151164304
 20
18.19574753102667
 30
0.0
 41
1.000000010140359
 10
6.441646375835044
 20
18.08700234496977
 30
0.0
 41
1.000000010140359
 10
5.857383330354809
 20
17.99557392838119
 30
0.0
 41
1.000000010140359
 10
5.498316336436149
 20
17.94562782129714
 30
0.0
 41
1.000000010140359
 10
4.677668764260282
 20
17.844682828188
 30
0.0
 41
1.000000010140359
 10
3.85418715405732
 20
17.77119799848617
 30
0.0
 41
1.000000010140359
 10
3.391090542119904
 20
17.73738011571381
 30
0.0
 41
1.000000010140359
 10
2.435360119608289
 20
17.68051207853056
 30
0.0
 41
1.000000010140359
 10
1.478798252914011
 20
17.64501086093511
 30
0.0
 41
1.000000010140359
 10
0.9859866139149623
 20
17.63270834581613
 30
0.0
 41
1.000000010140359
 10
0.4930396612702577
 20
17.62670026312193
 30
0.0
 41
1.000000010140359
 10
0.0
 20
17.62730027155802
 30
0.0
 41
1.000000010140359
  0
SPLINE
  5
DE
330
1F
100
AcDbEntity
  8
DEFAULT
100
AcDbSpline
210
0.0
220
0.0
230
1.0
 70
     8
 71
     3
 72
    11
 73
     7
 74
     0
 42
0.0000000001
 43
0.0000000001
 40
-0.6678296448444616
 40
-0.6678296448444616
 40
-0.6678296448444616
 40
-0.6678296448444616
 40
-0.3055450446207338
 40
-0.1449430031713405
 40
-0.0723027297364637
 40
0.0
 40
0.0
 40
0.0
 40
0.0
 10
8.233148946578854
 20
17.32571886731488
 30
0.0
 10
8.351543239031747
 20
17.34791144208856
 30
0.0
 10
8.5191172676018
 20
17.40869838252431
 30
0.0
 10
8.672781955570706
 20
17.53730059164565
 30
0.0
 10
8.7339036353653
 20
17.61929520207179
 30
0.0
 10
8.755329441315611
 20
17.66283213050841
 30
0.0
 10
8.763609142001986
 20
17.68547857180186
 30
0.0
  0
SPLINE
  5
DF
330
1F
100
AcDbEntity
  8
DEFAULT
100
AcDbSpline
210
0.0
220
0.0
230
1.0
 70
     8
 71
     3
 72
    12
 73
     8
 74
     0
 42
0.0000000001
 43
0.0000000001
 40
0.0
 40
0.0
 40
0.0
 40
0.0
 40
1.45186367659028
 40
2.488811453363902
 40
4.456822206700376
 40
6.316482208258889
 40
8.273460492208956
 40
8.273460492208956
 40
8.273460492208956
 40
8.273460492208956
 10
0.0
 20
16.67654286542395
 30
0.0
 10
0.4839459175036736
 20
16.67664223995691
 30
0.0
 10
1.313566582974555
 20
16.67705223052543
 30
0.0
 10
2.798964872517368
 20
16.70533044897741
 30
0.0
 10
4.418714451993215
 20
16.79016139572363
 30
0.0
 10
6.337074728512439
 20
16.99310696022101
 30
0.0
 10
7.591564885943434
 20
17.20846674370148
 30
0.0
 10
8.233148946578854
 20
17.32571886731488
 30
0.0
  0
SPLINE
  5
E0
330
1F
100
AcDbEntity
  8
DEFAULT
100
AcDbSpline
210
0.0
220
0.0
230
1.0
 70
     8
 71
     3
 72
    14
 73
    10
 74
     0
 42
0.0000000001
 43
0.0000000001
 40
-8.877532991886884
 40
-8.877532991886884
 40
-8.877532991886884
 40
-8.877532991886884
 40
-4.914447712395043
 40
-2.770559133715509
 40
-0.1666624510078076
 40
-0.1553079131419963
 40
-0.0815199279409795
 40
-0.0559075622214563
 40
0.0
 40
0.0
 40
0.0
 40
0.0
 10
0.0
 20
31.74689456168725
 30
0.0
 10
1.321165740089867
 20
31.74691235613956
 30
0.0
 10
3.356268677821296
 20
31.83771068081702
 30
0.0
 10
6.244612968252638
 20
32.14378194631692
 30
0.0
 10
7.810853097720901
 20
32.39923973820823
 30
0.0
 10
8.696315743605833
 20
32.53758438512236
 30
0.0
 10
8.7339813650184
 20
32.53229133362384
 30
0.0
 10
8.783619928427889
 20
32.52011930853569
 30
0.0
 10
8.836294188102382
 20
32.48611238450574
 30
0.0
 10
8.849998081824591
 20
32.47393965815978
 30
0.0
  0
SPLINE
  5
E1
330
1F
100
AcDbEntity
  8
DEFAULT
100
AcDbSpline
210
0.0
220
0.0
230
1.0
 70
     8
 71
     3
 72
    14
 73
    10
 74
     0
 42
0.0000000001
 43
0.0000000001
 40
0.0
 40
0.0
 40
0.0
 40
0.0
 40
0.0559075622214563
 40
0.0815199279409795
 40
0.1553079131419963
 40
0.1666624510078076
 40
2.770559133715509
 40
4.914447712395043
 40
8.877532991886884
 40
8.877532991886884
 40
8.877532991886884
 40
8.877532991886884
 10
-8.849998081824591
 20
32.47393965815978
 30
0.0
 10
-8.836294188102382
 20
32.48611238450574
 30
0.0
 10
-8.783619928427889
 20
32.52011930853569
 30
0.0
 10
-8.7339813650184
 20
32.53229133362384
 30
0.0
 10
-8.696315743605833
 20
32.53758438512236
 30
0.0
 10
-7.810853097720901
 20
32.39923973820823
 30
0.0
 10
-6.244612968252638
 20
32.14378194631692
 30
0.0
 10
-3.356268677821296
 20
31.83771068081702
 30
0.0
 10
-1.321165740089867
 20
31.74691235613956
 30
0.0
 10
0.0
 20
31.74689456168725
 30
0.0
  0
SPLINE
  5
E2
330
1F
100
AcDbEntity
  8
DEFAULT
100
AcDbSpline
210
0.0
220
0.0
230
1.0
 70
    12
 71
     3
 72
    27
 73
    23
 74
     0
 42
0.0000000001
 43
0.0000000001
 40
0.0
 40
0.0
 40
0.0
 40
0.0
 40
1.244728433228314
 40
1.244728433228314
 40
1.244728433228314
 40
1.870401398594343
 40
1.870401398594343
 40
1.870401398594343
 40
4.920229152264927
 40
4.920229152264927
 40
4.920229152264927
 40
5.772800495400565
 40
6.586620086222773
 40
8.673929290600562
 40
8.673929290600562
 40
8.673929290600562
 40
9.446987305907031
 40
10.18186587578625
 40
11.72195382020863
 40
14.37741709520271
 40
14.41934725534845
 40
14.5374141795705
 40
14.5374141795705
 40
14.5374141795705
 40
14.5374141795705
 10
-9.812024206979089
 20
17.95691271814449
 30
0.0
 41
1.0
 10
-9.80507823326031
 20
18.37176505723176
 30
0.0
 41
0.9999951491592268
 10
-9.79971595073371
 20
18.78723809191682
 30
0.0
 41
0.9999951491592268
 10
-9.79593743743402
 20
19.20332577601907
 30
0.0
 41
1.0
 10
-9.794564521912566
 20
19.41307461779935
 30
0.0
 41
0.9999875412613548
 10
-9.791884196796376
 20
19.62393715285677
 30
0.0
 41
0.9999875412613548
 10
-9.787896562265871
 20
19.83590549994768
 30
0.0
 41
1.0
 10
-9.768280953900668
 20
20.85577304864138
 30
0.0
 41
0.9999999998608998
 10
-9.74867766833418
 20
21.87392689826542
 30
0.0
 41
0.9999999998608998
 10
-9.72908670557459
 20
22.89036704839491
 30
0.0
 41
1.0
 10
-9.725643444996125
 20
23.17458115165922
 30
0.0
 41
1.0
 10
-9.716479212786098
 20
23.72994020667396
 30
0.0
 41
1.0
 10
-9.676628460264677
 20
24.98066585107565
 30
0.0
 41
1.0
 10
-9.608675387058055
 20
25.94554014077119
 30
0.0
 41
1.0
 10
-9.572498973225377
 20
26.64042143435345
 30
0.0
 41
1.0
 10
-9.557521082863406
 20
26.89775152697602
 30
0.0
 41
1.0
 10
-9.524251207213506
 20
27.39933947303594
 30
0.0
 41
1.0
 10
-9.440331821555226
 20
28.41186658455564
 30
0.0
 41
1.0
 10
-9.26597286477488
 20
30.04634182362106
 30
0.0
 41
1.0
 10
-9.065159534871437
 20
31.4446557127379
 30
0.0
 41
1.0
 10
-8.930197656893572
 20
32.37337679643962
 30
0.0
 41
1.0
 10
-8.878777845047987
 20
32.44837552367935
 30
0.0
 41
1.0
 10
-8.849998081824591
 20
32.47393965815978
 30
0.0
 41
1.0
  0
SPLINE
  5
E3
330
1F
100
AcDbEntity
  8
DEFAULT
100
AcDbSpline
210
0.0
220
0.0
230
1.0
 70
    12
 71
     2
 72
     6
 73
     3
 74
     0
 42
0.0000000001
 43
0.0000000001
 40
0.0
 40
0.0
 40
0.0
 40
1.159140194503718
 40
1.159140194503718
 40
1.159140194503718
 10
7.687292469273153
 20
19.30456946681521
 30
0.0
 41
1.0
 10
8.20033152494412
 20
19.00738266576521
 30
0.0
 41
0.9672838163369827
 10
8.501339865335092
 20
18.49689527264023
 30
0.0
 41
1.0
  0
SPLINE
  5
E4
330
1F
100
AcDbEntity
  8
DEFAULT
100
AcDbSpline
210
0.0
220
0.0
230
1.0
 70
     8
 71
     3
 72
    12
 73
     8
 74
     0
 42
0.0000000001
 43
0.0000000001
 40
0.0
 40
0.0
 40
0.0
 40
0.0
 40
1.409468345024047
 40
2.584983022344898
 40
3.607507320650333
 40
4.89328680666405
 40
7.894681883043148
 40
7.894681883043148
 40
7.894681883043148
 40
7.894681883043148
 10
0.0
 20
20.6509019585564
 30
0.0
 10
0.4697858141703474
 20
20.65164279685978
 30
0.0
 10
1.331581759571784
 20
20.64098293152931
 30
0.0
 10
2.532892209525697
 20
20.58802254629132
 30
0.0
 10
3.68954478028818
 20
20.47202703704514
 30
0.0
 10
5.443171635545982
 20
20.25225775873664
 30
0.0
 10
6.830430157696894
 20
19.83044753251617
 30
0.0
 10
7.687292469273153
 20
19.30456946681521
 30
0.0
  0
SPLINE
  5
E5
330
1F
100
AcDbEntity
  8
DEFAULT
100
AcDbSpline
210
0.0
220
0.0
230
1.0
 70
     8
 71
     3
 72
    12
 73
     8
 74
     0
 42
0.0000000001
 43
0.0000000001
 40
-7.894681883043148
 40
-7.894681883043148
 40
-7.894681883043148
 40
-7.894681883043148
 40
-4.89328680666405
 40
-3.607507320650333
 40
-2.584983022344898
 40
-1.409468345024047
 40
0.0
 40
0.0
 40
0.0
 40
0.0
 10
-7.687292469273153
 20
19.30456946681521
 30
0.0
 10
-6.830430157696894
 20
19.83044753251617
 30
0.0
 10
-5.443171635545982
 20
20.25225775873664
 30
0.0
 10
-3.68954478028818
 20
20.47202703704514
 30
0.0
 10
-2.532892209525697
 20
20.58802254629132
 30
0.0
 10
-1.331581759571784
 20
20.64098293152931
 30
0.0
 10
-0.4697858141703474
 20
20.65164279685978
 30
0.0
 10
0.0
 20
20.6509019585564
 30
0.0
  0
SPLINE
  5
E6
330
1F
100
AcDbEntity
  8
DEFAULT
100
AcDbSpline
210
0.0
220
0.0
230
1.0
 70
    12
 71
     2
 72
     6
 73
     3
 74
     0
 42
0.0000000001
 43
0.0000000001
 40
-1.159140194503718
 40
-1.159140194503718
 40
-1.159140194503718
 40
0.0
 40
0.0
 40
0.0
 10
-8.501339865335092
 20
18.49689527264023
 30
0.0
 41
1.0
 10
-8.20033152494412
 20
19.00738266576521
 30
0.0
 41
0.9672838163369827
 10
-7.687292469273153
 20
19.30456946681521
 30
0.0
 41
1.0
  0
SPLINE
  5
E7
330
1F
100
AcDbEntity
  8
DEFAULT
100
AcDbSpline
210
0.0
220
0.0
230
1.0
 70
    12
 71
     2
 72
     6
 73
     3
 74
     0
 42
0.0000000001
 43
0.0000000001
 40
0.0
 40
0.0
 40
0.0
 40
7.679978169176025
 40
7.679978169176025
 40
7.679978169176025
 10
3.833646442870821
 20
16.34049807507206
 30
0.0
 41
1.0
 10
0.0000785880988189
 20
15.95511869043655
 30
0.0
 41
0.9949850785804287
 10
-3.833489266673181
 20
16.34049807507206
 30
0.0
 41
1.0
  0
SPLINE
  5
E8
330
1F
100
AcDbEntity
  8
DEFAULT
100
AcDbSpline
210
0.0
220
0.0
230
1.0
 70
    12
 71
     2
 72
     6
 73
     3
 74
     0
 42
0.0000000001
 43
0.0000000001
 40
0.0
 40
0.0
 40
0.0
 40
7.680773469173904
 40
7.680773469173904
 40
7.680773469173904
 10
3.83411556613216
 20
16.15162114297163
 30
0.0
 41
1.0
 10
0.0000785880988056
 20
15.76838105316487
 30
0.0
 41
0.9950413933731445
 10
-3.83395838993455
 20
16.15162114297163
 30
0.0
 41
1.0
  0
SPLINE
  5
E9
330
1F
100
AcDbEntity
  8
DEFAULT
100
AcDbSpline
210
0.0
220
0.0
230
1.0
 70
    12
 71
     3
 72
    12
 73
     8
 74
     0
 42
0.0000000001
 43
0.0000000001
 40
1.478228585923088
 40
1.478228585923088
 40
1.478228585923088
 40
1.478228585923088
 40
1.83510889902099
 40
1.83510889902099
 40
2.024274150332355
 40
2.024274150332355
 40
2.190798913240323
 40
2.190798913240323
 40
2.190798913240323
 40
2.190798913240323
 10
39.50820074833934
 20
17.24721412986332
 30
0.0
 41
1.0
 10
39.50827668290199
 20
17.24715517293359
 30
0.0
 41
1.0
 10
39.56775702733828
 20
17.20314516574151
 30
0.0
 41
1.0
 10
39.69125242677615
 20
17.1247854421884
 30
0.0
 41
1.0
 10
39.7370037217805
 20
17.09697704567795
 30
0.0
 41
1.0
 10
39.84009521753084
 20
17.05065595671047
 30
0.0
 41
1.0
 10
39.88554796938658
 20
17.03385690684976
 30
0.0
 41
1.0
 10
39.9410609843609
 20
17.03391842538412
 30
0.0
 41
1.0
  0
SPLINE
  5
EA
330
1F
100
AcDbEntity
  8
DEFAULT
100
AcDbSpline
210
0.0
220
0.0
230
1.0
 70
    24
 71
     2
 72
     6
 73
     3
 74
     0
 42
0.0000000001
 43
0.0000000001
 40
0.0
 40
0.0
 40
0.0
 40
0.1749908903973856
 40
0.1749908903973856
 40
0.1749908903973856
 10
39.48839069368542
 20
17.42108421729582
 30
0.0
 10
39.49829568576733
 20
17.33414920308495
 30
0.0
 10
39.50820067784924
 20
17.24721418887408
 30
0.0
  0
SPLINE
  5
EB
330
1F
100
AcDbEntity
  8
DEFAULT
100
AcDbSpline
210
0.0
220
0.0
230
1.0
 70
    12
 71
     3
 72
    10
 73
     6
 74
     0
 42
0.0000000001
 43
0.0000000001
 40
-2.775250769275885
 40
-2.775250769275885
 40
-2.775250769275885
 40
-2.775250769275885
 40
-2.081012583142561
 40
-2.081012583142561
 40
-1.386692026910074
 40
-1.386692026910074
 40
-1.386692026910074
 40
-1.386692026910074
 10
40.36457546303929
 20
17.51432585412653
 30
0.0
 41
1.0
 10
40.36268912152499
 20
17.53829409560946
 30
0.0
 41
1.0
 10
40.16500541840877
 20
17.54337344627316
 30
0.0
 41
1.0
 10
39.67802009278649
 20
17.4928284416376
 30
0.0
 41
1.0
 10
39.48554758163159
 20
17.44640675676733
 30
0.0
 41
1.0
 10
39.48839069368542
 20
17.42108421729582
 30
0.0
 41
1.0
  0
SPLINE
  5
EC
330
1F
100
AcDbEntity
  8
DEFAULT
100
AcDbSpline
210
0.0
220
0.0
230
1.0
 70
    24
 71
     2
 72
     6
 73
     3
 74
     0
 42
0.0000000001
 43
0.0000000001
 40
0.0
 40
0.0
 40
0.0
 40
0.1838299925808962
 40
0.1838299925808962
 40
0.1838299925808962
 10
40.37899859802484
 20
17.3310625480626
 30
0.0
 10
40.37178703053206
 20
17.42269420109457
 30
0.0
 10
40.36457546303929
 20
17.51432585412653
 30
0.0
  0
SPLINE
  5
ED
330
1F
100
AcDbEntity
  8
DEFAULT
100
AcDbSpline
210
0.0
220
0.0
230
1.0
 70
    12
 71
     3
 72
    12
 73
     8
 74
     0
 42
0.0000000001
 43
0.0000000001
 40
2.243370895977966
 40
2.243370895977966
 40
2.243370895977966
 40
2.243370895977966
 40
2.411132418445384
 40
2.411132418445384
 40
2.598945533022796
 40
2.598945533022796
 40
2.956562920478512
 40
2.956562920478512
 40
2.956562920478512
 40
2.956562920478512
 10
39.99486430085071
 20
17.03910461982165
 30
0.0
 41
1.0
 10
40.04973278039951
 20
17.04970466605161
 30
0.0
 41
1.0
 10
40.0913152574652
 20
17.07511734943991
 30
0.0
 41
1.0
 10
40.18342308791379
 20
17.14029258834125
 30
0.0
 41
1.0
 10
40.22275016595432
 20
17.17603852822774
 30
0.0
 41
1.0
 10
40.32889791883785
 20
17.27637931113176
 30
0.0
 41
1.0
 10
40.37899859802484
 20
17.3310625480626
 30
0.0
 41
1.0
 10
40.37899859802484
 20
17.3310625480626
 30
0.0
 41
1.0
  0
SPLINE
  5
EE
330
1F
100
AcDbEntity
  8
DEFAULT
100
AcDbSpline
210
0.0
220
0.0
230
1.0
 70
    24
 71
     2
 72
     6
 73
     3
 74
     0
 42
0.0000000001
 43
0.0000000001
 40
-0.0539779438293136
 40
-0.0539779438293136
 40
-0.0539779438293136
 40
0.0
 40
0.0
 40
0.0
 10
39.9410609843609
 20
17.03391842538412
 30
0.0
 10
39.96796264260581
 20
17.03651152260289
 30
0.0
 10
39.99486430085071
 20
17.03910461982165
 30
0.0
  0
SPLINE
  5
EF
330
1F
100
AcDbEntity
  8
DEFAULT
100
AcDbSpline
210
0.0
220
0.0
230
1.0
 70
    24
 71
     2
 72
     6
 73
     3
 74
     0
 42
0.0000000001
 43
0.0000000001
 40
0.0
 40
0.0
 40
0.0
 40
1.281609588325501
 40
1.281609588325501
 40
1.281609588325501
 10
40.40756289131989
 20
16.33923413297182
 30
0.0
 10
41.04541754732496
 20
16.40065255068691
 30
0.0
 10
41.68327220333002
 20
16.46207096840201
 30
0.0
  0
SPLINE
  5
F0
330
1F
100
AcDbEntity
  8
DEFAULT
100
AcDbSpline
210
0.0
220
0.0
230
1.0
 70
    24
 71
     2
 72
     6
 73
     3
 74
     0
 42
0.0000000001
 43
0.0000000001
 40
0.0
 40
0.0
 40
0.0
 40
6.125174616136164
 40
6.125174616136164
 40
6.125174616136164
 10
39.50820073669231
 20
17.24721425082246
 30
0.0
 10
36.45971297307376
 20
16.9536782656218
 30
0.0
 10
33.41122520945522
 20
16.66014228042114
 30
0.0
  0
SPLINE
  5
F1
330
1F
100
AcDbEntity
  8
DEFAULT
100
AcDbSpline
210
0.0
220
0.0
230
1.0
 70
    24
 71
     2
 72
     6
 73
     3
 74
     0
 42
0.0000000001
 43
0.0000000001
 40
0.0
 40
0.0
 40
0.0
 40
1.29585246190359
 40
1.29585246190359
 40
1.29585246190359
 10
41.66888521224841
 20
17.45526450242895
 30
0.0
 10
41.02394190513662
 20
17.39316352524578
 30
0.0
 10
40.37899859802483
 20
17.33106254806262
 30
0.0
  0
SPLINE
  5
F2
330
1F
100
AcDbEntity
  8
DEFAULT
100
AcDbSpline
210
0.0
220
0.0
230
1.0
 70
    24
 71
     2
 72
     6
 73
     3
 74
     0
 42
0.0000000001
 43
0.0000000001
 40
0.0
 40
0.0
 40
0.0
 40
6.257223026633629
 40
6.257223026633629
 40
6.257223026633629
 10
33.44039222895154
 20
15.66837190126259
 30
0.0
 10
36.55460023547488
 20
15.96823602609986
 30
0.0
 10
39.66880824199823
 20
16.26810015093713
 30
0.0
  0
SPLINE
  5
F3
330
1F
100
AcDbEntity
  8
DEFAULT
100
AcDbSpline
210
0.0
220
0.0
230
1.0
 70
    12
 71
     2
 72
     6
 73
     3
 74
     0
 42
0.0000000001
 43
0.0000000001
 40
0.0
 40
0.0
 40
0.0
 40
0.0849799967781024
 40
0.0849799967781024
 40
0.0849799967781024
 10
27.88743932415934
 20
16.67119256041643
 30
0.0
 41
1.0
 10
27.93322635013573
 20
16.67981936839157
 30
0.0
 41
0.8730054950337861
 10
27.94988530518841
 20
16.72333204217927
 30
0.0
 41
1.0
  0
SPLINE
  5
F4
330
1F
100
AcDbEntity
  8
DEFAULT
100
AcDbSpline
210
0.0
220
0.0
230
1.0
 70
    12
 71
     3
 72
    36
 73
    32
 74
     0
 42
0.0000000001
 43
0.0000000001
 40
-0.0889457941897172
 40
-0.0889457941897172
 40
-0.0889457941897172
 40
-0.0889457941897172
 40
0.0
 40
0.0
 40
0.0
 40
0.2215729701957649
 40
0.2215729701957649
 40
0.2215729701957649
 40
0.3158714000432518
 40
0.3158714000432518
 40
0.3158714000432518
 40
0.7215575836071267
 40
0.7215575836071267
 40
0.9710263337659925
 40
0.9710263337659925
 40
1.222332614297898
 40
1.222332614297898
 40
1.222332614297898
 40
1.587029359019114
 40
1.587029359019114
 40
1.587029359019114
 40
1.628812051493471
 40
1.664042597137328
 40
1.68787289307827
 40
1.707876599877494
 40
1.707876599877494
 40
1.707876599877494
 40
1.947677305818644
 40
1.947677305818644
 40
1.947677305818644
 40
2.062852807233988
 40
2.062852807233988
 40
2.062852807233988
 40
2.062852807233988
 10
28.06182677797319
 20
17.1205499286931
 30
0.0
 41
1.0
 10
28.06696691327529
 20
17.15097237652878
 30
0.0
 41
0.924278334233492
 10
28.05744107543353
 20
17.18031866652686
 30
0.0
 41
0.924278334233492
 10
28.03541320137552
 20
17.20192234879917
 30
0.0
 41
1.0
 10
27.94940423494357
 20
17.23824439023696
 30
0.0
 41
1.0
 10
27.84627367066235
 20
17.28624017264634
 30
0.0
 41
1.0
 10
27.77439577565571
 20
17.30322609821267
 30
0.0
 41
1.0
 10
27.74380552525703
 20
17.31045507613807
 30
0.0
 41
1.0
 10
27.71321527485835
 20
17.31768405406348
 30
0.0
 41
1.0
 10
27.67445219411541
 20
17.32651012480429
 30
0.0
 41
1.0
 10
27.66335990528734
 20
17.32724738570355
 30
0.0
 41
1.0
 10
27.65496195897792
 20
17.31956702419183
 30
0.0
 41
1.0
 10
27.64564843587038
 20
17.29879181958419
 30
0.0
 41
1.0
 10
27.64305411189569
 20
17.28894305121616
 30
0.0
 41
1.0
 10
27.63955810864049
 20
17.26667488656028
 30
0.0
 41
1.0
 10
27.63863436584092
 20
17.25413381344913
 30
0.0
 41
1.0
 10
27.63865941067345
 20
17.24054067899784
 30
0.0
 41
1.0
 10
27.64165757386683
 20
17.11715083761452
 30
0.0
 41
0.9702102744834417
 10
27.60804916753257
 20
16.99838839842263
 30
0.0
 41
0.9702102744834417
 10
27.5408377472699
 20
16.89486706281778
 30
0.0
 41
1.0
 10
27.53357554090037
 20
16.88301263027817
 30
0.0
 41
1.0
 10
27.52185256424347
 20
16.85998605896417
 30
0.0
 41
1.0
 10
27.51204768911213
 20
16.82777982670915
 30
0.0
 41
1.0
 10
27.51304254998482
 20
16.8005470267607
 30
0.0
 41
1.0
 10
27.52400552873845
 20
16.78901485932554
 30
0.0
 41
1.0
 10
27.53038734742184
 20
16.78689780951874
 30
0.0
 41
1.0
 10
27.60490024925108
 20
16.75796335155532
 30
0.0
 41
1.0
 10
27.67941315108034
 20
16.7290288935919
 30
0.0
 41
1.0
 10
27.75392605290959
 20
16.70009443562848
 30
0.0
 41
1.0
 10
27.79128878968965
 20
16.69126500737839
 30
0.0
 41
1.0
 10
27.82865152646972
 20
16.68243557912831
 30
0.0
 41
1.0
 10
27.88743932415934
 20
16.67119256041643
 30
0.0
 41
1.0
  0
SPLINE
  5
F5
330
1F
100
AcDbEntity
  8
DEFAULT
100
AcDbSpline
210
0.0
220
0.0
230
1.0
 70
    12
 71
     2
 72
     6
 73
     3
 74
     0
 42
0.0000000001
 43
0.0000000001
 40
0.0
 40
0.0
 40
0.0
 40
0.0904048108433086
 40
0.0904048108433086
 40
0.0904048108433086
 10
43.2639685735007
 20
0.1020985816155164
 30
0.0
 41
1.0
 10
43.26553154292445
 20
0.0458436367175797
 30
0.0
 41
0.7293564259667926
 10
43.20949155116636
 20
0.0406879580384168
 30
0.0
 41
1.0
  0
SPLINE
  5
F6
330
1F
100
AcDbEntity
  8
DEFAULT
100
AcDbSpline
210
0.0
220
0.0
230
1.0
 70
    24
 71
     2
 72
     6
 73
     3
 74
     0
 42
0.0000000001
 43
0.0000000001
 40
0.0
 40
0.0
 40
0.0
 40
0.0839130223841461
 40
0.0839130223841461
 40
0.0839130223841461
 10
43.26163436834342
 20
0.1859791324716351
 30
0.0
 10
43.26280147092206
 20
0.1440388570435758
 30
0.0
 10
43.2639685735007
 20
0.1020985816155164
 30
0.0
  0
SPLINE
  5
F7
330
1F
100
AcDbEntity
  8
DEFAULT
100
AcDbSpline
210
0.0
220
0.0
230
1.0
 70
    12
 71
     2
 72
     6
 73
     3
 74
     0
 42
0.0000000001
 43
0.0000000001
 40
-0.5626268167511917
 40
-0.5626268167511917
 40
-0.5626268167511917
 40
0.0
 40
0.0
 40
0.0
 10
42.69913447755781
 20
0.1781503159405826
 30
0.0
 41
1.0
 10
42.98027558865088
 20
0.1898844606226482
 30
0.0
 41
0.9996137062916401
 10
43.26163436834342
 20
0.1859791324716351
 30
0.0
 41
1.0
  0
SPLINE
  5
F8
330
1F
100
AcDbEntity
  8
DEFAULT
100
AcDbSpline
210
0.0
220
0.0
230
1.0
 70
    12
 71
     2
 72
     6
 73
     3
 74
     0
 42
0.0000000001
 43
0.0000000001
 40
-0.8835729338221291
 40
-0.8835729338221291
 40
-0.8835729338221291
 40
0.0
 40
0.0
 40
0.0
 10
42.1370697036715
 20
0.1546850528959354
 30
0.0
 41
1.0
 10
42.13685214620813
 20
0.1625032762212801
 30
0.0
 41
0.7071067811865476
 10
42.69913447755781
 20
0.1781503159405826
 30
0.0
 41
1.0
  0
SPLINE
  5
F9
330
1F
100
AcDbEntity
  8
DEFAULT
100
AcDbSpline
210
0.0
220
0.0
230
1.0
 70
    24
 71
     2
 72
     6
 73
     3
 74
     0
 42
0.0000000001
 43
0.0000000001
 40
0.0
 40
0.0
 40
0.0
 40
0.0839130223841461
 40
0.0839130223841461
 40
0.0839130223841461
 10
42.13940391080583
 20
0.0708045020157896
 30
0.0
 10
42.13823680822719
 20
0.112744777443849
 30
0.0
 10
42.13706970564856
 20
0.1546850528719084
 30
0.0
  0
SPLINE
  5
FA
330
1F
100
AcDbEntity
  8
DEFAULT
100
AcDbSpline
210
0.0
220
0.0
230
1.0
 70
    12
 71
     2
 72
     6
 73
     3
 74
     0
 42
0.0000000001
 43
0.0000000001
 40
0.0
 40
0.0
 40
0.0
 40
0.0904048108433135
 40
0.0904048108433135
 40
0.0904048108433135
 10
42.19721181792529
 20
0.0125185129188097
 30
0.0
 41
1.0
 10
42.14097183216272
 20
0.0145496949188919
 30
0.0
 41
0.729356425966674
 10
42.13940391080583
 20
0.0708045020157896
 30
0.0
 41
1.0
  0
SPLINE
  5
FB
330
1F
100
AcDbEntity
  8
DEFAULT
100
AcDbSpline
210
0.0
220
0.0
230
1.0
 70
    12
 71
     2
 72
     7
 73
     4
 74
     0
 42
0.0000000001
 43
0.0000000001
 40
-2.0
 40
-2.0
 40
-2.0
 40
-1.0
 40
0.0
 40
0.0
 40
0.0
 10
43.20949155116636
 20
0.0406879580384168
 30
0.0
 41
1.0
 10
42.97606810001727
 20
0.0247868753695916
 30
0.0
 41
1.0
 10
42.43115832798786
 20
0.0096232744259
 30
0.0
 41
1.0
 10
42.19721181792529
 20
0.0125185129188097
 30
0.0
 41
1.0
  0
SPLINE
  5
FC
330
1F
100
AcDbEntity
  8
DEFAULT
100
AcDbSpline
210
0.0
220
0.0
230
1.0
 70
    12
 71
     3
 72
    12
 73
     8
 74
     0
 42
0.0000000001
 43
0.0000000001
 40
1.478228585790528
 40
1.478228585790528
 40
1.478228585790528
 40
1.478228585790528
 40
1.835108898878118
 40
1.835108898878118
 40
2.024274150184068
 40
2.024274150184068
 40
2.167373199071931
 40
2.167373199071931
 40
2.167373199071931
 40
2.167373199071931
 10
32.5404273597697
 20
16.57629386222185
 30
0.0
 41
1.0
 10
32.54050329433232
 20
16.57623490529217
 30
0.0
 41
1.0
 10
32.59998363876863
 20
16.53222489810002
 30
0.0
 41
1.0
 10
32.72347903820648
 20
16.45386517454697
 30
0.0
 41
1.0
 10
32.7692303332108
 20
16.42605677803648
 30
0.0
 41
1.0
 10
32.86553223183899
 20
16.38278639203984
 30
0.0
 41
1.0
 10
32.90493088777666
 20
16.36775973537757
 30
0.0
 41
1.0
 10
32.95043259129077
 20
16.3639368427628
 30
0.0
 41
1.0
  0
SPLINE
  5
FD
330
1F
100
AcDbEntity
  8
DEFAULT
100
AcDbSpline
210
0.0
220
0.0
230
1.0
 70
    24
 71
     2
 72
     6
 73
     3
 74
     0
 42
0.0000000001
 43
0.0000000001
 40
0.0
 40
0.0
 40
0.0
 40
0.1124025976139652
 40
0.1124025976139652
 40
0.1124025976139652
 10
32.52770233407846
 20
16.68797942932343
 30
0.0
 10
32.53406481168086
 20
16.63213667526192
 30
0.0
 10
32.54042728928327
 20
16.5762939212004
 30
0.0
  0
SPLINE
  5
FE
330
1F
100
AcDbEntity
  8
DEFAULT
100
AcDbSpline
210
0.0
220
0.0
230
1.0
 70
    12
 71
     3
 72
    10
 73
     6
 74
     0
 42
0.0000000001
 43
0.0000000001
 40
-2.791708356059433
 40
-2.791708356059433
 40
-2.791708356059433
 40
-2.791708356059433
 40
-2.093725516925132
 40
-2.093725516925132
 40
-1.39319396481126
 40
-1.39319396481126
 40
-1.39319396481126
 40
-1.39319396481126
 10
33.40498414255867
 20
16.73944255418081
 30
0.0
 41
1.0
 10
33.40100210527281
 20
16.79003913520206
 30
0.0
 41
1.0
 10
33.20453783498778
 20
16.82653964201936
 30
0.0
 41
1.0
 10
32.70932858932843
 20
16.79941817009654
 30
0.0
 41
1.0
 10
32.52178820124212
 20
16.74009742884956
 30
0.0
 41
1.0
 10
32.52770233407846
 20
16.68797942932343
 30
0.0
 41
1.0
  0
SPLINE
  5
FF
330
1F
100
AcDbEntity
  8
DEFAULT
100
AcDbSpline
210
0.0
220
0.0
230
1.0
 70
    24
 71
     2
 72
     6
 73
     3
 74
     0
 42
0.0000000001
 43
0.0000000001
 40
0.0
 40
0.0
 40
0.0
 40
0.0795454859458744
 40
0.0795454859458744
 40
0.0795454859458744
 10
33.41122520945522
 20
16.66014228042114
 30
0.0
 10
33.40810467600694
 20
16.69979241730098
 30
0.0
 10
33.40498414255867
 20
16.73944255418081
 30
0.0
  0
SPLINE
  5
100
330
1F
100
AcDbEntity
  8
DEFAULT
100
AcDbSpline
210
0.0
220
0.0
230
1.0
 70
    12
 71
     3
 72
    12
 73
     8
 74
     0
 42
0.0000000001
 43
0.0000000001
 40
2.266806351395972
 40
2.266806351395972
 40
2.266806351395972
 40
2.266806351395972
 40
2.411132418285951
 40
2.411132418285951
 40
2.598945532857947
 40
2.598945532857947
 40
2.9565629204786
 40
2.9565629204786
 40
2.9565629204786
 40
2.9565629204786
 10
33.04933891403957
 20
16.37346706576277
 30
0.0
 41
1.0
 10
33.09361370253616
 20
16.38598860588929
 30
0.0
 41
1.0
 10
33.12961257457456
 20
16.4084926958738
 30
0.0
 41
1.0
 10
33.21564969934411
 20
16.46937232069973
 30
0.0
 41
1.0
 10
33.25497677738466
 20
16.50511826058619
 30
0.0
 41
1.0
 10
33.36112453030227
 20
16.60545904352252
 30
0.0
 41
1.0
 10
33.41122520945522
 20
16.66014228042114
 30
0.0
 41
1.0
 10
33.41122520945522
 20
16.66014228042114
 30
0.0
 41
1.0
  0
SPLINE
  5
101
330
1F
100
AcDbEntity
  8
DEFAULT
100
AcDbSpline
210
0.0
220
0.0
230
1.0
 70
    24
 71
     2
 72
     6
 73
     3
 74
     0
 42
0.0000000001
 43
0.0000000001
 40
-0.0992958139205835
 40
-0.0992958139205835
 40
-0.0992958139205835
 40
0.0
 40
0.0
 40
0.0
 10
32.95043259129077
 20
16.3639368427628
 30
0.0
 10
32.99988575266516
 20
16.36870195426278
 30
0.0
 10
33.04933891403957
 20
16.37346706576277
 30
0.0
  0
SPLINE
  5
102
330
1F
100
AcDbEntity
  8
DEFAULT
100
AcDbSpline
210
0.0
220
0.0
230
1.0
 70
     8
 71
     3
 72
    11
 73
     7
 74
     0
 42
0.0000000001
 43
0.0000000001
 40
0.0
 40
0.0
 40
0.0
 40
0.0
 40
0.081214295674898
 40
0.1691805052559474
 40
0.277025183898425
 40
0.4148573631455907
 40
0.4148573631455907
 40
0.4148573631455907
 40
0.4148573631455907
 10
33.05504054875255
 20
15.79554614217727
 30
0.0
 10
33.02808294893297
 20
15.79298152823451
 30
0.0
 10
32.97274499771382
 20
15.78021055479575
 30
0.0
 10
32.88901282771553
 20
15.74029055977939
 30
0.0
 10
32.79745589945149
 20
15.67677263459725
 30
0.0
 10
32.73538618658491
 20
15.62323587018852
 30
0.0
 10
32.7015144505222
 20
15.59219907702497
 30
0.0
  0
SPLINE
  5
103
330
1F
100
AcDbEntity
  8
DEFAULT
100
AcDbSpline
210
0.0
220
0.0
230
1.0
 70
     8
 71
     3
 72
    11
 73
     7
 74
     0
 42
0.0000000001
 43
0.0000000001
 40
0.0
 40
0.0
 40
0.0
 40
0.0
 40
0.1377635348129177
 40
0.2455013291633975
 40
0.3335348622749909
 40
0.414857364690363
 40
0.414857364690363
 40
0.414857364690363
 40
0.414857364690363
 10
33.44087182604624
 20
15.66339109499554
 30
0.0
 10
33.40171989228124
 20
15.68738266444795
 30
0.0
 10
33.33062649509195
 20
15.72806422983954
 30
0.0
 10
33.22867142164327
 20
15.77294277844398
 30
0.0
 10
33.13884558182698
 20
15.79618591109007
 30
0.0
 10
33.08202819119863
 20
15.79817617976863
 30
0.0
 10
33.05504054875255
 20
15.79554614217727
 30
0.0
  0
SPLINE
  5
104
330
1F
100
AcDbEntity
  8
DEFAULT
100
AcDbSpline
210
0.0
220
0.0
230
1.0
 70
    24
 71
     2
 72
     6
 73
     3
 74
     0
 42
0.0000000001
 43
0.0000000001
 40
0.0
 40
0.0
 40
0.0
 40
0.3660519085099928
 40
0.3660519085099928
 40
0.3660519085099928
 10
33.46943801334498
 20
15.29770558029803
 30
0.0
 10
33.45515491969647
 20
15.48054833764625
 30
0.0
 10
33.44087182604795
 20
15.66339109499448
 30
0.0
  0
SPLINE
  5
105
330
1F
100
AcDbEntity
  8
DEFAULT
100
AcDbSpline
210
0.0
220
0.0
230
1.0
 70
    12
 71
     2
 72
     6
 73
     3
 74
     0
 42
0.0000000001
 43
0.0000000001
 40
0.0
 40
0.0
 40
0.0
 40
0.2226303472499221
 40
0.2226303472499221
 40
0.2226303472499221
 10
33.33935055417115
 20
15.12518676930996
 30
0.0
 41
1.0
 10
33.44523268391036
 20
15.18011280695543
 30
0.0
 41
0.9027752838226327
 10
33.46943801334498
 20
15.29770558029803
 30
0.0
 41
1.0
  0
SPLINE
  5
106
330
1F
100
AcDbEntity
  8
DEFAULT
100
AcDbSpline
210
0.0
220
0.0
230
1.0
 70
    24
 71
     2
 72
     6
 73
     3
 74
     0
 42
0.0000000001
 43
0.0000000001
 40
0.0
 40
0.0
 40
0.0
 40
0.2187499999999946
 40
0.2187499999999946
 40
0.2187499999999946
 10
33.12160763577835
 20
15.10422051094616
 30
0.0
 10
33.23047909497475
 20
15.11470364012806
 30
0.0
 10
33.33935055417115
 20
15.12518676930996
 30
0.0
  0
SPLINE
  5
107
330
1F
100
AcDbEntity
  8
DEFAULT
100
AcDbSpline
210
0.0
220
0.0
230
1.0
 70
    28
 71
     3
 72
     8
 73
     4
 74
     0
 42
0.0000000001
 43
0.0000000001
 40
-0.3436117278563864
 40
-0.3436117278563864
 40
-0.3436117278563864
 40
-0.3436117278563864
 40
0.0
 40
0.0
 40
0.0
 40
0.0
 10
32.90386471738554
 20
15.08325425258236
 30
0.0
 41
1.249004411490993
 10
32.90386470224215
 20
15.08325425112422
 30
0.0
 41
0.9343217557452168
 10
32.99336996949683
 20
15.09187262811684
 30
0.0
 41
0.8657533669198912
 10
33.12160763577835
 20
15.10422051094616
 30
0.0
 41
1.0
  0
SPLINE
  5
108
330
1F
100
AcDbEntity
  8
DEFAULT
100
AcDbSpline
210
0.0
220
0.0
230
1.0
 70
    12
 71
     2
 72
     6
 73
     3
 74
     0
 42
0.0000000001
 43
0.0000000001
 40
0.0
 40
0.0
 40
0.0
 40
0.2226359711497572
 40
0.2226359711497572
 40
0.2226359711497572
 10
32.74324918131182
 20
15.2277815645118
 30
0.0
 41
1.0
 10
32.78943279607196
 20
15.11695145246247
 30
0.0
 41
0.9027033858658244
 10
32.90386471738554
 20
15.08325425258236
 30
0.0
 41
1.0
  0
SPLINE
  5
109
330
1F
100
AcDbEntity
  8
DEFAULT
100
AcDbSpline
210
0.0
220
0.0
230
1.0
 70
    24
 71
     2
 72
     6
 73
     3
 74
     0
 42
0.0000000001
 43
0.0000000001
 40
0.0
 40
0.0
 40
0.0
 40
0.3660519085076657
 40
0.3660519085076657
 40
0.3660519085076657
 10
32.7015144505222
 20
15.59219907702497
 30
0.0
 10
32.72238181591701
 20
15.40999032076839
 30
0.0
 10
32.74324918131182
 20
15.2277815645118
 30
0.0
  0
SPLINE
  5
10A
330
1F
100
AcDbEntity
  8
DEFAULT
100
AcDbSpline
210
0.0
220
0.0
230
1.0
 70
    12
 71
     2
 72
     6
 73
     3
 74
     0
 42
0.0000000001
 43
0.0000000001
 40
0.0
 40
0.0
 40
0.0
 40
0.6200990255108542
 40
0.6200990255108542
 40
0.6200990255108542
 10
43.89532116684924
 20
17.17294095905397
 30
0.0
 41
1.0
 10
44.19319585976923
 20
17.07126172350432
 30
0.0
 41
0.9777967244108859
 10
44.42317199080402
 20
16.85638496173237
 30
0.0
 41
1.0
  0
SPLINE
  5
10B
330
1F
100
AcDbEntity
  8
DEFAULT
100
AcDbSpline
210
0.0
220
0.0
230
1.0
 70
    12
 71
     2
 72
     6
 73
     3
 74
     0
 42
0.0000000001
 43
0.0000000001
 40
0.0
 40
0.0
 40
0.0
 40
1.139711099716156
 40
1.139711099716156
 40
1.139711099716156
 10
42.78115848603877
 20
17.39742614039635
 30
0.0
 41
1.0
 10
43.35283796255469
 20
17.35766526923915
 30
0.0
 41
0.9916320061266115
 10
43.89532116684924
 20
17.17294095905397
 30
0.0
 41
1.0
  0
SPLINE
  5
10C
330
1F
100
AcDbEntity
  8
DEFAULT
100
AcDbSpline
210
0.0
220
0.0
230
1.0
 70
     8
 71
     3
 72
    11
 73
     7
 74
     0
 42
0.0000000001
 43
0.0000000001
 40
0.0
 40
0.0
 40
0.0
 40
0.0
 40
0.0017540549121738
 40
0.1396136358089379
 40
0.2474265428751539
 40
0.4169006501691559
 40
0.4169006501691559
 40
0.4169006501691559
 40
0.4169006501691559
 10
40.40777600422264
 20
16.33484822888374
 30
0.0
 10
40.4091925577895
 20
16.33397453722892
 30
0.0
 10
40.37048401769729
 20
16.35776163066377
 30
0.0
 10
40.29803253052618
 20
16.39910520261533
 30
0.0
 10
40.17193446509479
 20
16.45478077905962
 30
0.0
 10
40.07925040560415
 20
16.47213120689885
 30
0.0
 10
40.02281393732354
 20
16.46646640981928
 30
0.0
  0
SPLINE
  5
10D
330
1F
100
AcDbEntity
  8
DEFAULT
100
AcDbSpline
210
0.0
220
0.0
230
1.0
 70
    24
 71
     2
 72
     6
 73
     3
 74
     0
 42
0.0000000001
 43
0.0000000001
 40
0.0
 40
0.0
 40
0.0
 40
0.3660519085099956
 40
0.3660519085099956
 40
0.3660519085099956
 10
40.43721140191598
 20
15.96862584794003
 30
0.0
 10
40.42249370306931
 20
16.15173703841189
 30
0.0
 10
40.40777600422264
 20
16.33484822888374
 30
0.0
  0
SPLINE
  5
10E
330
1F
100
AcDbEntity
  8
DEFAULT
100
AcDbSpline
210
0.0
220
0.0
230
1.0
 70
    12
 71
     2
 72
     6
 73
     3
 74
     0
 42
0.0000000001
 43
0.0000000001
 40
0.0
 40
0.0
 40
0.0
 40
0.2226303472499437
 40
0.2226303472499437
 40
0.2226303472499437
 10
40.30712394274216
 20
15.79610703695196
 30
0.0
 41
1.0
 10
40.41300607248142
 20
15.85103307459739
 30
0.0
 41
0.9027752838223648
 10
40.43721140191598
 20
15.96862584794003
 30
0.0
 41
1.0
  0
SPLINE
  5
10F
330
1F
100
AcDbEntity
  8
DEFAULT
100
AcDbSpline
210
0.0
220
0.0
230
1.0
 70
    24
 71
     2
 72
     6
 73
     3
 74
     0
 42
0.0000000001
 43
0.0000000001
 40
0.0
 40
0.0
 40
0.0
 40
0.2187500000000019
 40
0.2187500000000019
 40
0.2187500000000019
 10
40.08938102434934
 20
15.77514077858816
 30
0.0
 10
40.19825248354575
 20
15.78562390777006
 30
0.0
 10
40.30712394274216
 20
15.79610703695196
 30
0.0
  0
SPLINE
  5
110
330
1F
100
AcDbEntity
  8
DEFAULT
100
AcDbSpline
210
0.0
220
0.0
230
1.0
 70
    24
 71
     2
 72
     6
 73
     3
 74
     0
 42
0.0000000001
 43
0.0000000001
 40
0.0
 40
0.0
 40
0.0
 40
0.2187499999999951
 40
0.2187499999999951
 40
0.2187499999999951
 10
39.87163810595653
 20
15.75417452022436
 30
0.0
 10
39.98050956515294
 20
15.76465764940626
 30
0.0
 10
40.08938102434934
 20
15.77514077858816
 30
0.0
  0
SPLINE
  5
111
330
1F
100
AcDbEntity
  8
DEFAULT
100
AcDbSpline
210
0.0
220
0.0
230
1.0
 70
    12
 71
     2
 72
     6
 73
     3
 74
     0
 42
0.0000000001
 43
0.0000000001
 40
0.0
 40
0.0
 40
0.0
 40
0.2226359711496808
 40
0.2226359711496808
 40
0.2226359711496808
 10
39.71102256988281
 20
15.8987018321538
 30
0.0
 41
1.0
 10
39.75720618464315
 20
15.78787172010467
 30
0.0
 41
0.9027033858667041
 10
39.87163810595653
 20
15.75417452022436
 30
0.0
 41
1.0
  0
SPLINE
  5
112
330
1F
100
AcDbEntity
  8
DEFAULT
100
AcDbSpline
210
0.0
220
0.0
230
1.0
 70
    24
 71
     2
 72
     6
 73
     3
 74
     0
 42
0.0000000001
 43
0.0000000001
 40
0.0
 40
0.0
 40
0.0
 40
0.3660519085076586
 40
0.3660519085076586
 40
0.3660519085076586
 10
39.66928783909321
 20
16.26311934466696
 30
0.0
 10
39.69015520448801
 20
16.08091058841038
 30
0.0
 10
39.71102256988281
 20
15.8987018321538
 30
0.0
  0
SPLINE
  5
113
330
1F
100
AcDbEntity
  8
DEFAULT
100
AcDbSpline
210
0.0
220
0.0
230
1.0
 70
     8
 71
     3
 72
    11
 73
     7
 74
     0
 42
0.0000000001
 43
0.0000000001
 40
0.0
 40
0.0
 40
0.0
 40
0.0
 40
0.0812142956748983
 40
0.1691805052559531
 40
0.2770251838984233
 40
0.414857363145586
 40
0.414857363145586
 40
0.414857363145586
 40
0.414857363145586
 10
40.02281393732354
 20
16.46646640981928
 30
0.0
 10
39.99585633750399
 20
16.46390179587649
 30
0.0
 10
39.94051838628486
 20
16.45113082243773
 30
0.0
 10
39.85678621628657
 20
16.41121082742138
 30
0.0
 10
39.76522928802256
 20
16.34769290223922
 30
0.0
 10
39.70315957515594
 20
16.29415613783051
 30
0.0
 10
39.66928783909321
 20
16.26311934466696
 30
0.0
  0
SPLINE
  5
114
330
1F
100
AcDbEntity
  8
DEFAULT
100
AcDbSpline
210
0.0
220
0.0
230
1.0
 70
     8
 71
     2
 72
    11
 73
     8
 74
     0
 42
0.0000000001
 43
0.0000000001
 40
0.0
 40
0.0
 40
0.0
 40
1.000004143264599
 40
2.000008286529197
 40
3.000012429793797
 40
4.000016573058396
 40
5.000020716322994
 40
6.0
 40
6.0
 40
6.0
 10
23.17845525855553
 20
0.1240308316735862
 30
0.0
 10
23.08803957626789
 20
0.1519624094332632
 30
0.0
 10
22.9066172515974
 20
0.1983654390863449
 30
0.0
 10
22.72512030104438
 20
0.2443067606907554
 30
0.0
 10
22.54338847259302
 20
0.2893592950152835
 30
0.0
 10
22.36132468942825
 20
0.332951489963928
 30
0.0
 10
22.17915928155465
 20
0.3766320443486372
 30
0.0
 10
22.08719946622776
 20
0.3931930026811459
 30
0.0
  0
SPLINE
  5
115
330
1F
100
AcDbEntity
  8
DEFAULT
100
AcDbSpline
210
0.0
220
0.0
230
1.0
 70
    12
 71
     2
 72
     6
 73
     3
 74
     0
 42
0.0000000001
 43
0.0000000001
 40
-0.0708654497355923
 40
-0.0708654497355923
 40
-0.0708654497355923
 40
0.0
 40
0.0
 40
0.0
 10
23.16749349858825
 20
0.0536459461038596
 30
0.0
 41
1.0
 10
23.17084615637852
 20
0.08898444707195
 30
0.0
 41
0.9972784465641281
 10
23.17845525855553
 20
0.1240308316735862
 30
0.0
 41
1.0
  0
SPLINE
  5
116
330
1F
100
AcDbEntity
  8
DEFAULT
100
AcDbSpline
210
0.0
220
0.0
230
1.0
 70
    12
 71
     2
 72
     8
 73
     5
 74
     0
 42
0.0000000001
 43
0.0000000001
 40
0.0
 40
0.0
 40
0.0
 40
0.0400487643131459
 40
0.0400487643131459
 40
0.0737985633247636
 40
0.0737985633247636
 40
0.0737985633247636
 10
23.11772666773445
 20
0.0083630491118285
 30
0.0
 41
1.0
 10
23.13889353212216
 20
0.0083771491827248
 30
0.0
 41
0.9209692297744823
 10
23.15362335338257
 20
0.023578093642058
 30
0.0
 41
1.0
 10
23.16583392429818
 20
0.0361784597201908
 30
0.0
 41
0.9435914231870833
 10
23.16749349858825
 20
0.0536459461038596
 30
0.0
 41
1.0
  0
SPLINE
  5
117
330
1F
100
AcDbEntity
  8
DEFAULT
100
AcDbSpline
210
0.0
220
0.0
230
1.0
 70
    12
 71
     2
 72
    12
 73
     9
 74
     0
 42
0.0000000001
 43
0.0000000001
 40
-0.4171709231871386
 40
-0.4171709231871386
 40
-0.4171709231871386
 40
-0.0801336414061238
 40
-0.0801336414061238
 40
-0.0400668207030619
 40
-0.0400668207030619
 40
0.0
 40
0.0
 40
0.9002440585113858
 40
0.9002440585113858
 40
0.9002440585113858
 10
22.08719946622776
 20
0.3931930026811459
 30
0.0
 41
1.0
 10
22.04666039886895
 20
0.2289542388617509
 30
0.0
 41
0.994502632275188
 10
22.04121108638005
 20
0.0599024973427458
 30
0.0
 41
1.0
 10
22.0405279678872
 20
0.0387337480959867
 30
0.0
 41
0.9207550203895514
 10
22.05526147180838
 20
0.0235184118278704
 30
0.0
 41
1.0
 10
22.06999497572957
 20
0.0083030755597541
 30
0.0
 41
0.9207550203895514
 10
22.0911747441969
 20
0.0083048693151531
 30
0.0
 41
1.0
 10
22.62899452853109
 20
-0.0047046777954313
 30
0.0
 41
0.9997936884095617
 10
23.11772666773445
 20
0.0083630491118285
 30
0.0
 41
1.0
  0
SPLINE
  5
118
330
1F
100
AcDbEntity
  8
DEFAULT
100
AcDbSpline
210
0.0
220
0.0
230
1.0
 70
     8
 71
     3
 72
     9
 73
     5
 74
     0
 42
0.0000000001
 43
0.0000000001
 40
0.0
 40
0.0
 40
0.0
 40
0.0
 40
0.3651881675984961
 40
0.369218707017257
 40
0.369218707017257
 40
0.369218707017257
 40
0.369218707017257
 10
26.79680479734902
 20
19.32011274460865
 30
0.0
 10
26.72840404833558
 20
19.21756374062421
 30
0.0
 10
26.66760464987304
 20
19.10835222149802
 30
0.0
 10
26.60572428114951
 20
19.00400218461689
 30
0.0
 10
26.60659611477836
 20
19.0101550886503
 30
0.0
  0
SPLINE
  5
119
330
1F
100
AcDbEntity
  8
DEFAULT
100
AcDbSpline
210
0.0
220
0.0
230
1.0
 70
    12
 71
     2
 72
     6
 73
     3
 74
     0
 42
0.0000000001
 43
0.0000000001
 40
0.0
 40
0.0
 40
0.0
 40
0.6504522985104759
 40
0.6504522985104759
 40
0.6504522985104759
 10
27.12661039438953
 20
19.88474050578927
 30
0.0
 41
1.0
 10
26.97366585214432
 20
19.59582046394283
 30
0.0
 41
0.9991283073103383
 10
26.79680479734902
 20
19.32011274460865
 30
0.0
 41
1.0
  0
SPLINE
  5
11A
330
1F
100
AcDbEntity
  8
DEFAULT
100
AcDbSpline
210
0.0
220
0.0
230
1.0
 70
     8
 71
     3
 72
    11
 73
     7
 74
     0
 42
0.0000000001
 43
0.0000000001
 40
0.0
 40
0.0
 40
0.0
 40
0.0
 40
0.2874736741838422
 40
0.6007707123945327
 40
1.295211947608686
 40
2.682234006193673
 40
2.682234006193673
 40
2.682234006193673
 40
2.682234006193673
 10
27.92562476356974
 20
22.42928947255131
 30
0.0
 10
27.91710247876553
 20
22.33383713763722
 30
0.0
 10
27.89408188253147
 20
22.13483493447577
 30
0.0
 10
27.81795655312009
 20
21.70965934465534
 30
0.0
 10
27.61482539442493
 20
20.93656069114137
 30
0.0
 10
27.34136027001636
 20
20.29565413480423
 30
0.0
 10
27.12661039438953
 20
19.88474050578927
 30
0.0
  0
SPLINE
  5
11B
330
1F
100
AcDbEntity
  8
DEFAULT
100
AcDbSpline
210
0.0
220
0.0
230
1.0
 70
    12
 71
     2
 72
     6
 73
     3
 74
     0
 42
0.0000000001
 43
0.0000000001
 40
0.0
 40
0.0
 40
0.0
 40
0.4616602041699219
 40
0.4616602041699219
 40
0.4616602041699219
 10
27.94581656907632
 20
22.89033205734224
 30
0.0
 41
1.0
 10
27.94674447037464
 20
22.65932796679603
 30
0.0
 41
0.9988585240063492
 10
27.92562476356974
 20
22.42928947255131
 30
0.0
 41
1.0
  0
SPLINE
  5
11C
330
1F
100
AcDbEntity
  8
DEFAULT
100
AcDbSpline
210
0.0
220
0.0
230
1.0
 70
    12
 71
     3
 72
    12
 73
     8
 74
     0
 42
0.0000000001
 43
0.0000000001
 40
-0.9785015012744535
 40
-0.9785015012744535
 40
-0.9785015012744535
 40
-0.9785015012744535
 40
-0.4942537595695717
 40
-0.4942537595695717
 40
-0.2506663683008745
 40
-0.2506663683008745
 40
0.0
 40
0.0
 40
0.0
 40
0.0
 10
27.29093509691328
 20
26.59907787656033
 30
0.0
 41
1.0
 10
27.51656981436677
 20
25.83926702383544
 30
0.0
 41
1.0
 10
27.67873182563537
 20
25.19923354229742
 30
0.0
 41
1.0
 10
27.82902700382876
 20
24.35835492229318
 30
0.0
 41
1.0
 10
27.8678346192513
 20
24.10022918194149
 30
0.0
 41
1.0
 10
27.93744928613626
 20
23.37454884832054
 30
0.0
 41
1.0
 10
27.94470386598007
 20
23.08915884939383
 30
0.0
 41
1.0
 10
27.94581656907632
 20
22.89033205734224
 30
0.0
 41
1.0
  0
SPLINE
  5
11D
330
1F
100
AcDbEntity
  8
DEFAULT
100
AcDbSpline
210
0.0
220
0.0
230
1.0
 70
    12
 71
     3
 72
    30
 73
    26
 74
     0
 42
0.0000000001
 43
0.0000000001
 40
0.0
 40
0.0
 40
0.0
 40
0.0
 40
0.998777893850345
 40
2.039580217844248
 40
4.189912437327197
 40
6.986695890956174
 40
11.26981331091288
 40
11.26981331091288
 40
11.26981331091288
 40
11.3042122140525
 40
11.3042122140525
 40
11.3042122140525
 40
11.8678701670312
 40
12.41264512907092
 40
13.13074674650946
 40
13.16058978273658
 40
13.19762092784838
 40
13.24788819881942
 40
13.30844704110376
 40
13.35134589188302
 40
13.42219038585663
 40
13.76419401457089
 40
14.4210863406999
 40
15.94007407868409
 40
19.48616492399376
 40
19.48616492399376
 40
19.48616492399376
 40
19.48616492399376
 10
25.22746289237034
 20
20.74036381024584
 30
0.0
 41
1.0
 10
25.30914644077633
 20
21.06425578641621
 30
0.0
 41
1.0
 10
25.4245474647595
 20
21.73293587939238
 30
0.0
 41
1.0
 10
25.53093478227166
 20
23.13002115251788
 30
0.0
 41
1.0
 10
25.32453793117371
 20
25.12493288897919
 30
0.0
 41
1.0
 10
24.48129143566226
 20
28.09049362236302
 30
0.0
 41
1.0
 10
23.71017574812575
 20
30.31852134949535
 30
0.0
 41
1.0
 10
23.21943844452582
 20
31.66015057302705
 30
0.0
 41
1.0
 10
23.21527880029312
 20
31.67155863810694
 30
0.0
 41
0.8934048983870025
 10
23.21797221724901
 20
31.68339891234833
 30
0.0
 41
0.8934048983870025
 10
23.2266573802312
 20
31.69188505004356
 30
0.0
 41
1.0
 10
23.39584257259012
 20
31.77354383341592
 30
0.0
 41
1.0
 10
23.73002980818789
 20
31.93134687155042
 30
0.0
 41
1.0
 10
24.28436501998786
 20
32.18280676767586
 30
0.0
 41
1.0
 10
24.67440728993386
 20
32.36660910113901
 30
0.0
 41
1.0
 10
24.91442724656473
 20
32.47013037589994
 30
0.0
 41
1.0
 10
24.95471521032108
 20
32.45172779306326
 30
0.0
 41
1.0
 10
24.99275958749715
 20
32.42475484938559
 30
0.0
 41
1.0
 10
25.02811915070166
 20
32.38527711904508
 30
0.0
 41
1.0
 10
25.06265395494376
 20
32.33916227944499
 30
0.0
 41
1.0
 10
25.13747645678369
 20
32.20670018983024
 30
0.0
 41
1.0
 10
25.30833210566177
 20
31.89371417256157
 30
0.0
 41
1.0
 10
25.67544022511115
 20
31.13869033358302
 30
0.0
 41
1.0
 10
26.40821034869509
 20
29.3766351684221
 30
0.0
 41
1.0
 10
26.94062688889844
 20
27.7729517103907
 30
0.0
 41
1.0
 10
27.29093509691328
 20
26.59907787656033
 30
0.0
 41
1.0
  0
SPLINE
  5
11E
330
1F
100
AcDbEntity
  8
DEFAULT
100
AcDbSpline
210
0.0
220
0.0
230
1.0
 70
    12
 71
     2
 72
     6
 73
     3
 74
     0
 42
0.0000000001
 43
0.0000000001
 40
0.0
 40
0.0
 40
0.0
 40
0.0168225849784347
 40
0.0168225849784347
 40
0.0168225849784347
 10
25.22814875014267
 20
20.7237749392443
 30
0.0
 41
1.0
 10
25.22541733975525
 20
20.73197062428751
 30
0.0
 41
0.9609513453654801
 10
25.22746289237034
 20
20.74036381024584
 30
0.0
 41
1.0
  0
SPLINE
  5
11F
330
1F
100
AcDbEntity
  8
DEFAULT
100
AcDbSpline
210
0.0
220
0.0
230
1.0
 70
    12
 71
     2
 72
     6
 73
     3
 74
     0
 42
0.0000000001
 43
0.0000000001
 40
-0.1016264246854027
 40
-0.1016264246854027
 40
-0.1016264246854027
 40
0.0
 40
0.0
 40
0.0
 10
25.29367992853978
 20
20.65245199748832
 30
0.0
 41
1.0
 10
25.23979336716233
 20
20.66870807868654
 30
0.0
 41
0.8603657572054948
 10
25.22814875014267
 20
20.7237749392443
 30
0.0
 41
1.0
  0
SPLINE
  5
120
330
1F
100
AcDbEntity
  8
DEFAULT
100
AcDbSpline
210
0.0
220
0.0
230
1.0
 70
     8
 71
     3
 72
    11
 73
     7
 74
     0
 42
0.0000000001
 43
0.0000000001
 40
-1.932317162159845
 40
-1.932317162159845
 40
-1.932317162159845
 40
-1.932317162159845
 40
-1.114321231087402
 40
-0.6074116793840068
 40
-0.2699890469078568
 40
0.0000000000000001
 40
0.0000000000000001
 40
0.0000000000000001
 40
0.0000000000000001
 10
26.66893131164601
 20
19.44944401492837
 30
0.0
 10
26.62891476116479
 20
19.7197616959766
 30
0.0
 10
26.39743497703234
 20
20.12768824549079
 30
0.0
 10
25.90504097534009
 20
20.401528207273
 30
0.0
 10
25.57205831559347
 20
20.55833654968955
 30
0.0
 10
25.37991937123735
 20
20.62844069545744
 30
0.0
 10
25.29367992853978
 20
20.65245199748832
 30
0.0
  0
ARC
  5
121
330
1F
100
AcDbEntity
  8
DEFAULT
100
AcDbCircle
 10
25.89611405242085
 20
19.33503980449489
 30
0.0
 40
0.7812392972202519
100
AcDbArc
 50
335.4266311420732
 51
8.420640287721612
  0
ARC
  5
122
330
1F
100
AcDbEntity
  8
DEFAULT
100
AcDbCircle
 10
23.34793096055348
 20
31.57421988320674
 30
0.0
 40
0.1689744737258318
100
AcDbArc
 50
116.5741649610433
 51
135.8652056261011
  0
ARC
  5
123
330
1F
100
AcDbEntity
  8
DEFAULT
100
AcDbCircle
 10
45.90625744466979
 20
-13.52449752909375
 30
0.0
 40
50.59488453986661
100
AcDbArc
 50
114.7800881090393
 51
116.5741649610439
  0
SPLINE
  5
124
330
1F
100
AcDbEntity
  8
DEFAULT
100
AcDbSpline
210
0.0
220
0.0
230
1.0
 70
     8
 71
     5
 72
    12
 73
     6
 74
     0
 42
0.0000000001
 43
0.0000000001
 40
0.0
 40
0.0
 40
0.0
 40
0.0
 40
0.0
 40
0.0
 40
1.0
 40
1.0
 40
1.0
 40
1.0
 40
1.0
 40
1.0
 10
25.01155440992538
 20
32.53442430416921
 30
0.0
 10
25.00468444837441
 20
32.54463944964004
 30
0.0
 10
24.97773889076692
 20
32.57870049113087
 30
0.0
 10
24.82170566979064
 20
32.46779249073703
 30
0.0
 10
24.76087494057156
 20
32.43983236368147
 30
0.0
 10
24.70009062479807
 20
32.41177169697863
 30
0.0
  0
SPLINE
  5
125
330
1F
100
AcDbEntity
  8
DEFAULT
100
AcDbSpline
210
0.0
220
0.0
230
1.0
 70
     8
 71
     2
 72
    11
 73
     8
 74
     0
 42
0.0000000001
 43
0.0000000001
 40
0.0
 40
0.0
 40
0.0
 40
1.0
 40
2.0
 40
3.0
 40
4.0
 40
5.0
 40
6.0
 40
6.0
 40
6.0
 10
28.00441343059479
 20
19.83987717688064
 30
0.0
 10
28.24417123541173
 20
20.93175422618518
 30
0.0
 10
28.3680188745184
 20
23.16403344032311
 30
0.0
 10
27.95409692458339
 20
25.36446535984945
 30
0.0
 10
27.31056338709945
 20
27.50147630239373
 30
0.0
 10
26.50392023742648
 20
29.57793763663282
 30
0.0
 10
25.65527106023861
 20
31.66257011733954
 30
0.0
 10
25.01155440992538
 20
32.53442430416921
 30
0.0
  0
SPLINE
  5
126
330
1F
100
AcDbEntity
  8
DEFAULT
100
AcDbSpline
210
0.0
220
0.0
230
1.0
 70
    12
 71
     2
 72
     6
 73
     3
 74
     0
 42
0.0000000001
 43
0.0000000001
 40
0.0
 40
0.0
 40
0.0
 40
0.7816405396757449
 40
0.7816405396757449
 40
0.7816405396757449
 10
26.58950853454393
 20
18.84887743346455
 30
0.0
 41
1.0
 10
26.55609852702656
 20
18.45850625773229
 30
0.0
 41
0.996260045340734
 10
26.4559792133214
 20
18.07971610043176
 30
0.0
 41
1.0
  0
SPLINE
  5
127
330
1F
100
AcDbEntity
  8
DEFAULT
100
AcDbSpline
210
0.0
220
0.0
230
1.0
 70
    12
 71
     2
 72
     6
 73
     3
 74
     0
 42
0.0000000001
 43
0.0000000001
 40
0.0
 40
0.0
 40
0.0
 40
0.1598633113070148
 40
0.1598633113070148
 40
0.1598633113070148
 10
26.60614084396708
 20
19.00782146182324
 30
0.0
 41
1.0
 10
26.59432972252992
 20
18.92871518479228
 30
0.0
 41
0.9990343967449803
 10
26.58950853454393
 20
18.84887743346455
 30
0.0
 41
1.0
  0
SPLINE
  5
128
330
1F
100
AcDbEntity
  8
DEFAULT
100
AcDbSpline
210
0.0
220
0.0
230
1.0
 70
    12
 71
     2
 72
     6
 73
     3
 74
     0
 42
0.0000000001
 43
0.0000000001
 40
0.0
 40
0.0
 40
0.0
 40
2.061631574185771
 40
2.061631574185771
 40
2.061631574185771
 10
27.54813593206745
 20
17.80991481515736
 30
0.0
 41
1.0
 10
27.79189045789716
 20
18.81160326069643
 30
0.0
 41
0.9998484010904932
 10
28.00061984023964
 20
19.82117151283983
 30
0.0
 41
1.0
  0
LINE
  5
129
330
1F
100
AcDbEntity
  8
DEFAULT
100
AcDbLine
 10
27.34394550690206
 20
16.98323862227607
 30
0.0
 11
23.17937385497806
 21
0.123442081298764
 31
0.0
  0
ARC
  5
12A
330
1F
100
AcDbEntity
  8
DEFAULT
100
AcDbCircle
 10
-42652.81477724839
 20
10559.49356419321
 30
0.0
 40
43962.94431182191
100
AcDbArc
 50
346.1249999996745
 51
346.1261097646095
  0
SPLINE
  5
12B
330
1F
100
AcDbEntity
  8
DEFAULT
100
AcDbSpline
210
0.0
220
0.0
230
1.0
 70
     8
 71
     2
 72
    11
 73
     8
 74
     0
 42
0.0000000001
 43
0.0000000001
 40
0.0
 40
0.0
 40
0.0
 40
1.0
 40
2.0
 40
3.0
 40
4.0
 40
5.0
 40
6.0
 40
6.0
 40
6.0
 10
26.45600693215356
 20
18.07967766300033
 30
0.0
 10
26.54803224218391
 20
18.0631036346349
 30
0.0
 10
26.73040480289305
 20
18.01946650612292
 30
0.0
 10
26.91259140597297
 20
17.97567439570509
 30
0.0
 10
27.09452413146725
 20
17.93072544508391
 30
0.0
 10
27.27618154590615
 20
17.88473422393082
 30
0.0
 10
27.45779240961258
 20
17.83834209008075
 30
0.0
 10
27.54813593206912
 20
17.80991481515813
 30
0.0
  0
LINE
  5
12C
330
1F
100
AcDbEntity
  8
DEFAULT
100
AcDbLine
 10
22.08719999549354
 20
0.3932221040366883
 30
0.0
 11
26.45600693215356
 21
18.07967766300033
 31
0.0
  0
SPLINE
  5
12D
330
1F
100
AcDbEntity
  8
DEFAULT
100
AcDbSpline
210
0.0
220
0.0
230
1.0
 70
    12
 71
     2
 72
     6
 73
     3
 74
     0
 42
0.0000000001
 43
0.0000000001
 40
0.0
 40
0.0
 40
0.0
 40
0.0239581891640136
 40
0.0239581891640136
 40
0.0239581891640136
 10
27.58055456287964
 20
17.56576335235204
 30
0.0
 41
0.9999999999995819
 10
27.57118855682507
 20
17.55829495603592
 30
0.0
 41
0.9999982245823352
 10
27.56185089650322
 20
17.55079114949406
 30
0.0
 41
1.0
  0
SPLINE
  5
12E
330
1F
100
AcDbEntity
  8
DEFAULT
100
AcDbSpline
210
0.0
220
0.0
230
1.0
 70
    12
 71
     2
 72
     6
 73
     3
 74
     0
 42
0.0000000001
 43
0.0000000001
 40
0.0
 40
0.0
 40
0.0
 40
0.1630509499976804
 40
0.1630509499976804
 40
0.1630509499976804
 10
27.70938469650369
 20
17.66569705551612
 30
0.0
 41
0.9999999999999778
 10
27.64428486153131
 20
17.61661297692072
 30
0.0
 41
0.9999060755755675
 10
27.58055456287964
 20
17.56576335235204
 30
0.0
 41
0.9999999999966795
  0
SPLINE
  5
12F
330
1F
100
AcDbEntity
  8
DEFAULT
100
AcDbSpline
210
0.0
220
0.0
230
1.0
 70
    12
 71
     2
 72
     6
 73
     3
 74
     0
 42
0.0000000001
 43
0.0000000001
 40
0.0
 40
0.0
 40
0.0
 40
0.2199143347734641
 40
0.2199143347734641
 40
0.2199143347734641
 10
27.88786326051271
 20
17.79414818618076
 30
0.0
 41
0.9999999999987874
 10
27.79719121155074
 20
17.73191340277237
 30
0.0
 41
0.9997513250470668
 10
27.70938469650369
 20
17.66569705551612
 30
0.0
 41
0.9999999999999885
  0
SPLINE
  5
130
330
1F
100
AcDbEntity
  8
DEFAULT
100
AcDbSpline
210
0.0
220
0.0
230
1.0
 70
    12
 71
     2
 72
     6
 73
     3
 74
     0
 42
0.0000000001
 43
0.0000000001
 40
0.0
 40
0.0
 40
0.0
 40
0.0149839129831681
 40
0.0149839129831681
 40
0.0149839129831681
 10
27.90024110628205
 20
17.80259249570758
 30
0.0
 41
0.9999999999998306
 10
27.89404503165811
 20
17.79838082412444
 30
0.0
 41
0.9999984935037622
 10
27.88786326051271
 20
17.79414818618076
 30
0.0
 41
0.9999999999999929
  0
SPLINE
  5
131
330
1F
100
AcDbEntity
  8
DEFAULT
100
AcDbSpline
210
0.0
220
0.0
230
1.0
 70
    12
 71
     2
 72
     6
 73
     3
 74
     0
 42
0.0000000001
 43
0.0000000001
 40
0.0
 40
0.0
 40
0.0
 40
0.1423721098865516
 40
0.1423721098865516
 40
0.1423721098865516
 10
28.02441807949511
 20
17.88353528508495
 30
0.0
 41
1.0
 10
27.95909155046909
 20
17.84265904412302
 30
0.0
 41
0.9998152309905386
 10
27.90024110628206
 20
17.80259249570758
 30
0.0
 41
0.9999999999981415
  0
SPLINE
  5
132
330
1F
100
AcDbEntity
  8
DEFAULT
100
AcDbSpline
210
0.0
220
0.0
230
1.0
 70
    12
 71
     2
 72
     6
 73
     3
 74
     0
 42
0.0000000001
 43
0.0000000001
 40
0.0
 40
0.0
 40
0.0
 40
0.1700326451009857
 40
0.1700326451009857
 40
0.1700326451009857
 10
28.19159119148962
 20
17.93289168105434
 30
0.0
 41
1.0
 10
28.10529933250416
 20
17.9279686347722
 30
0.0
 41
0.9757167984688314
 10
28.02441807949511
 20
17.88353528508495
 30
0.0
 41
1.0
  0
SPLINE
  5
133
330
1F
100
AcDbEntity
  8
DEFAULT
100
AcDbSpline
210
0.0
220
0.0
230
1.0
 70
     8
 71
     3
 72
    14
 73
    10
 74
     0
 42
0.0000000001
 43
0.0000000001
 40
0.0
 40
0.0
 40
0.0
 40
0.0
 40
0.652191737395391
 40
1.280718439150231
 40
1.951238196747561
 40
2.863422602058994
 40
4.698367840212491
 40
10.21696999528845
 40
15.7709804310952
 40
15.7709804310952
 40
15.7709804310952
 40
15.7709804310952
 10
43.79241290876472
 20
17.85786422887413
 30
0.0
 10
43.619455337589
 20
17.98979639729396
 30
0.0
 10
43.25723483725755
 20
18.21965793536656
 30
0.0
 10
42.64316480868114
 20
18.44572786115718
 30
0.0
 10
41.91225179041144
 20
18.55773159909647
 30
0.0
 10
40.77234096646362
 20
18.58532799600411
 30
0.0
 10
38.01882064508643
 20
18.49028406114235
 30
0.0
 10
33.71763496387841
 20
18.36439105974532
 30
0.0
 10
30.03495187718112
 20
18.10458404262015
 30
0.0
 10
28.19159119148962
 20
17.93289168105434
 30
0.0
  0
SPLINE
  5
134
330
1F
100
AcDbEntity
  8
DEFAULT
100
AcDbSpline
210
0.0
220
0.0
230
1.0
 70
    12
 71
     2
 72
     6
 73
     3
 74
     0
 42
0.0000000001
 43
0.0000000001
 40
0.0
 40
0.0
 40
0.0
 40
0.5322559643862634
 40
0.5322559643862634
 40
0.5322559643862634
 10
44.18932913604993
 20
17.48753617524844
 30
0.0
 41
1.0
 10
44.00886337307658
 20
17.70058457023029
 30
0.0
 41
0.9929971765553433
 10
43.79241290876472
 20
17.85786422887413
 30
0.0
 41
1.0
  0
SPLINE
  5
135
330
1F
100
AcDbEntity
  8
DEFAULT
100
AcDbSpline
210
0.0
220
0.0
230
1.0
 70
     8
 71
     3
 72
    10
 73
     6
 74
     0
 42
0.0000000001
 43
0.0000000001
 40
0.0
 40
0.0
 40
0.0
 40
0.0
 40
0.1152498341348094
 40
0.2403205425210536
 40
0.6787755723814768
 40
0.6787755723814768
 40
0.6787755723814768
 40
0.6787755723814768
 10
44.61942155728429
 20
16.94669276982202
 30
0.0
 10
44.59137541883306
 20
16.97453854071522
 30
0.0
 10
44.53609403540806
 20
17.03260616000355
 30
0.0
 10
44.3919482640648
 20
17.20712623734091
 30
0.0
 10
44.28373072029389
 20
17.36086354681698
 30
0.0
 10
44.18932913604993
 20
17.48753617524844
 30
0.0
  0
SPLINE
  5
136
330
1F
100
AcDbEntity
  8
DEFAULT
100
AcDbSpline
210
0.0
220
0.0
230
1.0
 70
    12
 71
     2
 72
     6
 73
     3
 74
     0
 42
0.0000000001
 43
0.0000000001
 40
0.0
 40
0.0
 40
0.0
 40
0.1536154254458133
 40
0.1536154254458133
 40
0.1536154254458133
 10
44.74235594876976
 20
16.85469663665091
 30
0.0
 41
1.0
 10
44.67136912938312
 20
16.88702047173661
 30
0.0
 41
0.9772332537707474
 10
44.61942155728429
 20
16.94669276982202
 30
0.0
 41
1.0
  0
SPLINE
  5
137
330
1F
100
AcDbEntity
  8
DEFAULT
100
AcDbSpline
210
0.0
220
0.0
230
1.0
 70
     8
 71
     2
 72
    11
 73
     8
 74
     0
 42
0.0000000001
 43
0.0000000001
 40
0.0
 40
0.0
 40
0.0
 40
1.0
 40
2.0
 40
3.0
 40
4.0
 40
5.0
 40
6.0
 40
6.0
 40
6.0
 10
44.49497006945079
 20
16.7884427552871
 30
0.0
 10
44.52089470305453
 20
16.7617933782896
 30
0.0
 10
44.57527775568449
 20
16.71258384671667
 30
0.0
 10
44.63850613747451
 20
16.66590249148475
 30
0.0
 10
44.71067949332729
 20
16.69462893701163
 30
0.0
 10
44.7648761823968
 20
16.74729002551288
 30
0.0
 10
44.7672881400614
 20
16.82513431779424
 30
0.0
 10
44.74235594876976
 20
16.85469663665091
 30
0.0
  0
SPLINE
  5
138
330
1F
100
AcDbEntity
  8
DEFAULT
100
AcDbSpline
210
0.0
220
0.0
230
1.0
 70
    12
 71
     2
 72
     6
 73
     3
 74
     0
 42
0.0000000001
 43
0.0000000001
 40
-0.6951027209318128
 40
-0.6951027209318128
 40
-0.6951027209318128
 40
0.0
 40
0.0
 40
0.0
 10
44.06424767408301
 20
17.33311646850026
 30
0.0
 41
1.0
 10
44.25836900574063
 20
17.04398334356225
 30
0.0
 41
0.9969743058485598
 10
44.49497006945081
 20
16.7884427552871
 30
0.0
 41
0.9999999969405681
  0
SPLINE
  5
139
330
1F
100
AcDbEntity
  8
DEFAULT
100
AcDbSpline
210
0.0
220
0.0
230
1.0
 70
    12
 71
     2
 72
     6
 73
     3
 74
     0
 42
0.0000000001
 43
0.0000000001
 40
-0.5311035778685866
 40
-0.5311035778685866
 40
-0.5311035778685866
 40
0.0
 40
0.0
 40
0.0
 10
43.67785206251097
 20
17.69522618400423
 30
0.0
 41
1.0
 10
43.89517471713465
 20
17.53991417523306
 30
0.0
 41
0.9912392283435499
 10
44.06424767408301
 20
17.33311646850026
 30
0.0
 41
1.0
  0
SPLINE
  5
13A
330
1F
100
AcDbEntity
  8
DEFAULT
100
AcDbSpline
210
0.0
220
0.0
230
1.0
 70
     8
 71
     3
 72
    15
 73
    11
 74
     0
 42
0.0000000001
 43
0.0000000001
 40
-15.65359896050636
 40
-15.65359896050636
 40
-15.65359896050636
 40
-15.65359896050636
 40
-10.58742135048161
 40
-6.912338381831451
 40
-4.741124145587254
 40
-4.078959884244495
 40
-2.884298681508266
 40
-1.256080944522508
 40
-0.6345414576259943
 40
0.0
 40
0.0
 40
0.0
 40
0.0
 10
28.19074771630321
 20
17.75714258473568
 30
0.0
 10
29.87059292094875
 20
17.93166415627961
 30
0.0
 10
32.77731976760499
 20
18.14228056003545
 30
0.0
 10
36.41341664388598
 20
18.26861102372317
 30
0.0
 10
38.58092883605433
 20
18.33574584439306
 30
0.0
 10
39.92476907091868
 20
18.37791425591161
 30
0.0
 10
41.08147527006894
 20
18.39358720507044
 30
0.0
 10
42.24026237285682
 20
18.3710975854105
 30
0.0
 10
43.15865857790504
 20
18.05608477253789
 30
0.0
 10
43.50874967204353
 20
17.82157103728986
 30
0.0
 10
43.67785206251097
 20
17.69522618400423
 30
0.0
  0
SPLINE
  5
13B
330
1F
100
AcDbEntity
  8
DEFAULT
100
AcDbSpline
210
0.0
220
0.0
230
1.0
 70
    12
 71
     2
 72
     6
 73
     3
 74
     0
 42
0.0000000001
 43
0.0000000001
 40
-0.1602767204255962
 40
-0.1602767204255962
 40
-0.1602767204255962
 40
0.0
 40
0.0
 40
0.0
 10
28.03705639350674
 20
17.71571403092057
 30
0.0
 41
1.0
 10
28.10963616162676
 20
17.75225388512835
 30
0.0
 41
0.9794459357424379
 10
28.19074771630321
 20
17.75714258473568
 30
0.0
 41
1.0
  0
SPLINE
  5
13C
330
1F
100
AcDbEntity
  8
DEFAULT
100
AcDbSpline
210
0.0
220
0.0
230
1.0
 70
    12
 71
     2
 72
     6
 73
     3
 74
     0
 42
0.0000000001
 43
0.0000000001
 40
-0.3996431962499557
 40
-0.3996431962499557
 40
-0.3996431962499557
 40
0.0
 40
0.0
 40
0.0
 10
27.70331235475205
 20
17.4961620905785
 30
0.0
 41
1.0
 10
27.86482722637337
 20
17.61408153753009
 30
0.0
 41
0.9988113668901045
 10
28.03705639350674
 20
17.71571403092057
 30
0.0
 41
1.0
  0
SPLINE
  5
13D
330
1F
100
AcDbEntity
  8
DEFAULT
100
AcDbSpline
210
0.0
220
0.0
230
1.0
 70
    12
 71
     2
 72
     6
 73
     3
 74
     0
 42
0.0000000001
 43
0.0000000001
 40
0.0
 40
0.0
 40
0.0
 40
0.3221738804473611
 40
0.3221738804473611
 40
0.3221738804473611
 10
44.49662522341743
 20
17.08077577996983
 30
0.0
 41
1.0
 10
44.62719241594412
 20
16.98535407386692
 30
0.0
 41
0.9941460496295335
 10
44.73421233088306
 20
16.86411121194771
 30
0.0
 41
1.0
  0
SPLINE
  5
13E
330
1F
100
AcDbEntity
  8
DEFAULT
100
AcDbSpline
210
0.0
220
0.0
230
1.0
 70
    12
 71
     2
 72
     6
 73
     3
 74
     0
 42
0.0000000001
 43
0.0000000001
 40
0.0
 40
0.0
 40
0.0
 40
0.8188583327906658
 40
0.8188583327906658
 40
0.8188583327906658
 10
27.19945239726182
 20
16.39827463708892
 30
0.0
 41
1.0
 10
27.60655185341401
 20
16.35464738486291
 30
0.0
 41
0.999995248373231
 10
28.01391255294123
 20
16.31353090620892
 30
0.0
 41
1.0
  0
SPLINE
  5
13F
330
1F
100
AcDbEntity
  8
DEFAULT
100
AcDbSpline
210
0.0
220
0.0
230
1.0
 70
    24
 71
     2
 72
     6
 73
     3
 74
     0
 42
0.0000000001
 43
0.0000000001
 40
-17.1725395786827
 40
-17.1725395786827
 40
-17.1725395786827
 40
0.0
 40
0.0
 40
0.0
 10
42.78394652624997
 20
17.3518735135982
 30
0.0
 10
43.02279044631046
 20
8.768926322964553
 30
0.0
 10
43.26163436637095
 20
0.1859791323309068
 30
0.0
  0
SPLINE
  5
140
330
1F
100
AcDbEntity
  8
DEFAULT
100
AcDbSpline
210
0.0
220
0.0
230
1.0
 70
    12
 71
     3
 72
    10
 73
     6
 74
     0
 42
0.0000000001
 43
0.0000000001
 40
0.0
 40
0.0
 40
0.0
 40
0.0
 40
0.5574927714314596
 40
0.5574927714314596
 40
1.13250510453735
 40
1.13250510453735
 40
1.13250510453735
 40
1.13250510453735
 10
42.20427896693592
 20
17.96097145985103
 30
0.0
 41
1.0
 10
42.40204896998509
 20
17.96647348757736
 30
0.0
 41
1.0
 10
42.55488507709315
 20
17.85909951196185
 30
0.0
 41
1.0
 10
42.73635645934131
 20
17.62832555478597
 30
0.0
 41
1.0
 10
42.78020035402166
 20
17.48649365743945
 30
0.0
 41
1.0
 10
42.78394652624997
 20
17.3518735135982
 30
0.0
 41
1.0
  0
SPLINE
  5
141
330
1F
100
AcDbEntity
  8
DEFAULT
100
AcDbSpline
210
0.0
220
0.0
230
1.0
 70
    12
 71
     3
 72
    10
 73
     6
 74
     0
 42
0.0000000001
 43
0.0000000001
 40
-1.13253298991588
 40
-1.13253298991588
 40
-1.13253298991588
 40
-1.13253298991588
 40
-0.5570862629503451
 40
-0.5570862629503451
 40
0.0
 40
0.0
 40
0.0
 40
0.0
 10
41.65938150251979
 20
17.32059241388642
 30
0.0
 41
1.0
 10
41.65563251577506
 20
17.45531370292463
 30
0.0
 41
1.0
 10
41.69158120659753
 20
17.59949775945306
 30
0.0
 41
1.0
 10
41.86012360126957
 20
17.83995798135899
 30
0.0
 41
1.0
 10
42.00667278047911
 20
17.95547248640129
 30
0.0
 41
1.0
 10
42.20427896693592
 20
17.96097145985103
 30
0.0
 41
1.0
  0
SPLINE
  5
142
330
1F
100
AcDbEntity
  8
DEFAULT
100
AcDbSpline
210
0.0
220
0.0
230
1.0
 70
    24
 71
     2
 72
     6
 73
     3
 74
     0
 42
0.0000000001
 43
0.0000000001
 40
-17.17255256346714
 40
-17.17255256346714
 40
-17.17255256346714
 40
0.0
 40
0.0
 40
0.0
 10
42.1370697036715
 20
0.1546850528959354
 30
0.0
 10
41.89822560309564
 20
8.737638733391178
 30
0.0
 10
41.65938150251979
 20
17.32059241388642
 30
0.0
  0
SPLINE
  5
143
330
1F
100
AcDbEntity
  8
DEFAULT
100
AcDbSpline
210
0.0
220
0.0
230
1.0
 70
    12
 71
     2
 72
     8
 73
     5
 74
     0
 42
0.0000000001
 43
0.0000000001
 40
-0.0898917853188032
 40
-0.0898917853188032
 40
-0.0898917853188032
 40
-0.0522765087782868
 40
-0.0522765087782868
 40
0.0
 40
0.0
 40
0.0
 10
27.67480517141593
 20
16.78350236312304
 30
0.0
 41
1.0
 10
27.65668600288976
 20
16.79298360585488
 30
0.0
 41
0.8837810173697971
 10
27.65434193500433
 20
16.81329871298156
 30
0.0
 41
1.0
 10
27.64940192986791
 20
16.83947995889463
 30
0.0
 41
0.9718115344464822
 10
27.65700802677364
 20
16.86501441753719
 30
0.0
 41
1.0
  0
SPLINE
  5
144
330
1F
100
AcDbEntity
  8
DEFAULT
100
AcDbSpline
210
0.0
220
0.0
230
1.0
 70
    24
 71
     2
 72
     6
 73
     3
 74
     0
 42
0.0000000001
 43
0.0000000001
 40
0.0
 40
0.0
 40
0.0
 40
0.2398007059438631
 40
0.2398007059438631
 40
0.2398007059438631
 10
27.89834387690225
 20
16.69669898922158
 30
0.0
 10
27.78657452415909
 20
16.74010067617231
 30
0.0
 10
27.67480517141593
 20
16.78350236312304
 30
0.0
  0
SPLINE
  5
145
330
1F
100
AcDbEntity
  8
DEFAULT
100
AcDbSpline
210
0.0
220
0.0
230
1.0
 70
    12
 71
     2
 72
     6
 73
     3
 74
     0
 42
0.0000000001
 43
0.0000000001
 40
0.0
 40
0.0
 40
0.0
 40
0.0850192936796374
 40
0.0850192936796374
 40
0.0850192936796374
 10
27.95418301265897
 20
16.7496169906896
 30
0.0
 41
1.0
 10
27.95175252158793
 20
16.69626188691553
 30
0.0
 41
0.7201836708809143
 10
27.89834387690225
 20
16.69669898922158
 30
0.0
 41
1.0
  0
SPLINE
  5
146
330
1F
100
AcDbEntity
  8
DEFAULT
100
AcDbSpline
210
0.0
220
0.0
230
1.0
 70
    24
 71
     2
 72
     6
 73
     3
 74
     0
 42
0.0000000001
 43
0.0000000001
 40
0.0
 40
0.0
 40
0.0
 40
0.3578031650550604
 40
0.3578031650550604
 40
0.3578031650550604
 10
28.05180802355478
 20
17.09459724239993
 30
0.0
 10
28.00299551810687
 20
16.92210711654477
 30
0.0
 10
27.95418301265897
 20
16.7496169906896
 30
0.0
  0
SPLINE
  5
147
330
1F
100
AcDbEntity
  8
DEFAULT
100
AcDbSpline
210
0.0
220
0.0
230
1.0
 70
    12
 71
     2
 72
     6
 73
     3
 74
     0
 42
0.0000000001
 43
0.0000000001
 40
0.0
 40
0.0
 40
0.0
 40
0.08967655564239
 40
0.08967655564239
 40
0.08967655564239
 10
28.03420812962742
 20
17.17680632722319
 30
0.0
 41
1.0
 10
28.07430228226213
 20
17.14286146750576
 30
0.0
 41
0.7940831638840014
 10
28.05180802355478
 20
17.09459724239993
 30
0.0
 41
1.0
  0
SPLINE
  5
148
330
1F
100
AcDbEntity
  8
DEFAULT
100
AcDbSpline
210
0.0
220
0.0
230
1.0
 70
    24
 71
     2
 72
     6
 73
     3
 74
     0
 42
0.0000000001
 43
0.0000000001
 40
-0.2398007059438697
 40
-0.2398007059438697
 40
-0.2398007059438697
 40
0.0
 40
0.0
 40
0.0
 10
27.81066942414109
 20
17.26360970112464
 30
0.0
 10
27.92243877688425
 20
17.22020801417391
 30
0.0
 10
28.03420812962742
 20
17.17680632722319
 30
0.0
  0
SPLINE
  5
149
330
1F
100
AcDbEntity
  8
DEFAULT
100
AcDbSpline
210
0.0
220
0.0
230
1.0
 70
    12
 71
     2
 72
     8
 73
     5
 74
     0
 42
0.0000000001
 43
0.0000000001
 40
-0.0851434026212989
 40
-0.0851434026212989
 40
-0.0851434026212989
 40
-0.0349273505781476
 40
-0.0349273505781476
 40
0.0
 40
0.0
 40
0.0
 10
27.75483028838437
 20
17.21069169965662
 30
0.0
 41
1.0
 10
27.76120107450918
 20
17.23557491090508
 30
0.0
 41
0.9665972973670869
 10
27.77906394678782
 20
17.25403240022082
 30
0.0
 41
1.0
 10
27.79175337120549
 20
17.26909511267556
 30
0.0
 41
0.8383882943599786
 10
27.81066942414109
 20
17.26360970112464
 30
0.0
 41
1.0
  0
SPLINE
  5
14A
330
1F
100
AcDbEntity
  8
DEFAULT
100
AcDbSpline
210
0.0
220
0.0
230
1.0
 70
    24
 71
     2
 72
     6
 73
     3
 74
     0
 42
0.0000000001
 43
0.0000000001
 40
-0.3592519704053348
 40
-0.3592519704053348
 40
-0.3592519704053348
 40
0.0
 40
0.0
 40
0.0
 10
27.65700802677364
 20
16.86501441753719
 30
0.0
 10
27.705919157579
 20
17.03785305859691
 30
0.0
 10
27.75483028838437
 20
17.21069169965662
 30
0.0
  0
SPLINE
  5
14B
330
1F
100
AcDbEntity
  8
DEFAULT
100
AcDbSpline
210
0.0
220
0.0
230
1.0
 70
     8
 71
     3
 72
     8
 73
     4
 74
     0
 42
0.0000000001
 43
0.0000000001
 40
0.0
 40
0.0
 40
0.0
 40
0.0
 40
1.443706964781046
 40
1.443706964781046
 40
1.443706964781046
 40
1.443706964781046
 10
28.89011084498009
 20
17.04078782602451
 30
0.0
 10
28.44030085777989
 20
17.21183966316163
 30
0.0
 10
27.93960849824064
 20
17.40440481547893
 30
0.0
 10
27.49100766984512
 20
17.57860312871959
 30
0.0
  0
SPLINE
  5
14C
330
1F
100
AcDbEntity
  8
DEFAULT
100
AcDbSpline
210
0.0
220
0.0
230
1.0
 70
    12
 71
     2
 72
     6
 73
     3
 74
     0
 42
0.0000000001
 43
0.0000000001
 40
0.0
 40
0.0
 40
0.0
 40
3.577868569146716
 40
3.577868569146716
 40
3.577868569146716
 10
32.40520656294155
 20
16.56578526473615
 30
0.0
 41
1.0
 10
30.59228121359508
 20
16.39349368637177
 30
0.0
 41
0.9737220710303375
 10
28.89011084498009
 20
17.04078782602451
 30
0.0
 41
1.0
  0
SPLINE
  5
14D
330
1F
100
AcDbEntity
  8
DEFAULT
100
AcDbSpline
210
0.0
220
0.0
230
1.0
 70
    24
 71
     2
 72
     6
 73
     3
 74
     0
 42
0.0000000001
 43
0.0000000001
 40
0.0
 40
0.0
 40
0.0
 40
0.1356043790062872
 40
0.1356043790062872
 40
0.1356043790062872
 10
32.54042734812266
 20
16.57629398318099
 30
0.0
 10
32.47281695553211
 20
16.57103962395857
 30
0.0
 10
32.40520656294155
 20
16.56578526473615
 30
0.0
  0
SPLINE
  5
14E
330
1F
100
AcDbEntity
  8
DEFAULT
100
AcDbSpline
210
0.0
220
0.0
230
1.0
 70
    24
 71
     2
 72
     6
 73
     3
 74
     0
 42
0.0000000001
 43
0.0000000001
 40
0.0
 40
0.0
 40
0.0
 40
0.2016285515089675
 40
0.2016285515089675
 40
0.2016285515089675
 10
32.50057417415325
 20
15.57536615255055
 30
0.0
 10
32.60080451379022
 20
15.58627301792303
 30
0.0
 10
32.70103485342719
 20
15.59717988329552
 30
0.0
  0
SPLINE
  5
14F
330
1F
100
AcDbEntity
  8
DEFAULT
100
AcDbSpline
210
0.0
220
0.0
230
1.0
 70
    12
 71
     2
 72
     6
 73
     3
 74
     0
 42
0.0000000001
 43
0.0000000001
 40
0.0
 40
0.0
 40
0.0
 40
4.099774915109466
 40
4.099774915109466
 40
4.099774915109466
 10
28.47721353874307
 20
16.13094253385117
 30
0.0
 41
1.0
 10
30.42254083073786
 20
15.37264010391407
 30
0.0
 41
0.9729153703086446
 10
32.50057417415325
 20
15.57536615255055
 30
0.0
 41
1.0
  0
SPLINE
  5
150
330
1F
100
AcDbEntity
  8
DEFAULT
100
AcDbSpline
210
0.0
220
0.0
230
1.0
 70
    24
 71
     2
 72
     6
 73
     3
 74
     0
 42
0.0000000001
 43
0.0000000001
 40
0.0
 40
0.0
 40
0.0
 40
1.315706620815528
 40
1.315706620815528
 40
1.315706620815528
 10
27.25163601921702
 20
16.60953411884827
 30
0.0
 10
27.86442477898004
 20
16.37023832634972
 30
0.0
 10
28.47721353874307
 20
16.13094253385117
 30
0.0
  0
LINE
  5
151
330
1F
100
AcDbEntity
  8
DEFAULT
100
AcDbLine
 10
7.924506129476445
 20
60.23509431705963
 30
0.0
 11
7.508651261700488
 21
59.97016554798754
 31
0.0
  0
SPLINE
  5
152
330
1F
100
AcDbEntity
  8
DEFAULT
100
AcDbSpline
210
0.0
220
0.0
230
1.0
 70
     8
 71
     2
 72
    11
 73
     8
 74
     0
 42
0.0000000001
 43
0.0000000001
 40
0.0
 40
0.0
 40
0.0
 40
1.0
 40
2.0
 40
3.0
 40
4.0
 40
5.0
 40
6.0
 40
6.0
 40
6.0
 10
9.356630980129527
 20
62.04605054382793
 30
0.0
 10
9.421919879349215
 20
62.03360923254479
 30
0.0
 10
9.543078044368498
 20
61.97892810859325
 30
0.0
 10
9.648088631134078
 20
61.89742554496718
 30
0.0
 10
9.73114170892758
 20
61.7936426389284
 30
0.0
 10
9.787576848395611
 20
61.67324875943548
 30
0.0
 10
9.812162408258384
 20
61.5425209613641
 30
0.0
 10
9.808078907190648
 20
61.47615743314853
 30
0.0
  0
SPLINE
  5
153
330
1F
100
AcDbEntity
  8
DEFAULT
100
AcDbSpline
210
0.0
220
0.0
230
1.0
 70
    12
 71
     2
 72
     8
 73
     5
 74
     0
 42
0.0000000001
 43
0.0000000001
 40
0.0
 40
0.0
 40
0.0
 40
1.570796326794897
 40
1.570796326794897
 40
3.141592653589793
 40
3.141592653589793
 40
3.141592653589793
 10
10.08007788435724
 20
65.84508627010612
 30
0.0
 41
1.0
 10
10.11708377637188
 20
66.43994101946241
 30
0.0
 41
0.7071067811865475
 10
9.555684658986452
 20
66.47486563784624
 30
0.0
 41
1.0
 10
8.994285541601029
 20
66.50979025623006
 30
0.0
 41
0.7071067811865475
 10
8.957279649586397
 20
65.91493550687377
 30
0.0
 41
1.0
  0
LINE
  5
154
330
1F
100
AcDbEntity
  8
DEFAULT
100
AcDbLine
 10
-7.924506129476445
 20
60.23509431705963
 30
0.0
 11
-7.508651261700488
 21
59.97016554798754
 31
0.0
  0
SPLINE
  5
155
330
1F
100
AcDbEntity
  8
DEFAULT
100
AcDbSpline
210
0.0
220
0.0
230
1.0
 70
    24
 71
     2
 72
     6
 73
     3
 74
     0
 42
0.0000000001
 43
0.0000000001
 40
0.0
 40
0.0
 40
0.0
 40
4.328712305731482
 40
4.328712305731482
 40
4.328712305731482
 10
-10.08007788435724
 20
65.84508627010612
 30
0.0
 10
-9.945612716624801
 20
63.68490204714418
 30
0.0
 10
-9.811147548892357
 20
61.52471782418223
 30
0.0
  0
SPLINE
  5
156
330
1F
100
AcDbEntity
  8
DEFAULT
100
AcDbSpline
210
0.0
220
0.0
230
1.0
 70
    12
 71
     2
 72
     8
 73
     5
 74
     0
 42
0.0000000001
 43
0.0000000001
 40
-3.141592653589793
 40
-3.141592653589793
 40
-3.141592653589793
 40
-1.570796326794897
 40
-1.570796326794897
 40
0.0
 40
0.0
 40
0.0
 10
-8.957279649586397
 20
65.91493550687377
 30
0.0
 41
1.0
 10
-8.99106639024708
 20
66.45765672688385
 30
0.0
 41
0.7071067811865475
 10
-9.553639161221142
 20
66.42385621572359
 30
0.0
 41
1.0
 10
-10.11494709068074
 20
66.38775710465293
 30
0.0
 41
0.7071067811865475
 10
-10.08007788435724
 20
65.84508627010612
 30
0.0
 41
1.0
  0
SPLINE
  5
157
330
1F
100
AcDbEntity
  8
DEFAULT
100
AcDbSpline
210
0.0
220
0.0
230
1.0
 70
    24
 71
     2
 72
     6
 73
     3
 74
     0
 42
0.0000000001
 43
0.0000000001
 40
0.0
 40
0.0
 40
0.0
 40
2.34975482514205
 40
2.34975482514205
 40
2.34975482514205
 10
-8.811279904834919
 20
63.56972084445781
 30
0.0
 10
-8.884279777210658
 20
64.74232817566579
 30
0.0
 10
-8.957279649586397
 20
65.91493550687377
 30
0.0
  0
SPLINE
  5
158
330
1F
100
AcDbEntity
  8
DEFAULT
100
AcDbSpline
210
0.0
220
0.0
230
1.0
 70
    12
 71
     2
 72
     6
 73
     3
 74
     0
 42
0.0000000001
 43
0.0000000001
 40
0.0
 40
0.0
 40
0.0
 40
0.0742368075508645
 40
0.0742368075508645
 40
0.0742368075508645
 10
-9.335955625871321
 20
62.11656697078459
 30
0.0
 41
1.0
 10
-9.346903559562929
 20
62.08109977472404
 30
0.0
 41
0.9999981765885326
 10
-9.357715952740225
 20
62.04559102365766
 30
0.0
 41
1.0
  0
ARC
  5
159
330
1F
100
AcDbEntity
  8
DEFAULT
100
AcDbCircle
 10
-9.528788439215226
 20
60.55436456053054
 30
0.0
 40
0.2482428125219768
100
AcDbArc
 50
235.9648877670555
 51
254.0561959307387
  0
SPLINE
  5
15A
330
1F
100
AcDbEntity
  8
DEFAULT
100
AcDbSpline
210
0.0
220
0.0
230
1.0
 70
     8
 71
     3
 72
    11
 73
     7
 74
     0
 42
0.0000000001
 43
0.0000000001
 40
0.0000000000000001
 40
0.0000000000000001
 40
0.0000000000000001
 40
0.0000000000000001
 40
0.3781335773925084
 40
0.5640830755754028
 40
0.63666157123833
 40
0.705388731348004
 40
0.705388731348004
 40
0.705388731348004
 40
0.705388731348004
 10
-9.783972834294474
 20
61.02799129905018
 30
0.0
 10
-9.776006659832628
 20
60.90238022782928
 30
0.0
 10
-9.764112973279246
 20
60.71419733332774
 30
0.0
 10
-9.746129529904515
 20
60.5034139113605
 30
0.0
 10
-9.723210800532229
 20
60.39547834103625
 30
0.0
 10
-9.68592717374109
 20
60.3609373272925
 30
0.0
 10
-9.667730153039852
 20
60.34864705002573
 30
0.0
  0
SPLINE
  5
15B
330
1F
100
AcDbEntity
  8
DEFAULT
100
AcDbSpline
210
0.0
220
0.0
230
1.0
 70
    12
 71
     2
 72
     8
 73
     5
 74
     0
 42
0.0000000001
 43
0.0000000001
 40
-3.0
 40
-3.0
 40
-3.0
 40
-2.0
 40
-1.0
 40
0.0
 40
0.0
 40
0.0
 10
-9.808061667404179
 20
61.47615068487386
 30
0.0
 41
1.0
 10
-9.805392058688057
 20
61.43608123939931
 30
0.0
 41
1.0
 10
-9.800444412906478
 20
61.35591626016576
 30
0.0
 41
1.0
 10
-9.78651454053432
 20
61.0680690609728
 30
0.0
 41
1.0
 10
-9.783972834294474
 20
61.02799129905018
 30
0.0
 41
1.0
  0
SPLINE
  5
15C
330
1F
100
AcDbEntity
  8
DEFAULT
100
AcDbSpline
210
0.0
220
0.0
230
1.0
 70
     8
 71
     2
 72
    11
 73
     8
 74
     0
 42
0.0000000001
 43
0.0000000001
 40
0.0
 40
0.0
 40
0.0
 40
1.0
 40
2.0
 40
3.0
 40
4.0
 40
5.0
 40
6.0
 40
6.0
 40
6.0
 10
-9.687953095134208
 20
60.6416039982254
 30
0.0
 10
-9.687672850839316
 20
60.73744527607585
 30
0.0
 10
-9.676163764993248
 20
60.92877742399269
 30
0.0
 10
-9.660350413980714
 20
61.11977844938504
 30
0.0
 10
-9.633003343408213
 20
61.30959612831992
 30
0.0
 10
-9.583189056844478
 20
61.49495774354649
 30
0.0
 10
-9.502300219732794
 20
61.66950774381552
 30
0.0
 10
-9.444444315482212
 20
61.74613979210507
 30
0.0
  0
SPLINE
  5
15D
330
1F
100
AcDbEntity
  8
DEFAULT
100
AcDbSpline
210
0.0
220
0.0
230
1.0
 70
     8
 71
     2
 72
    11
 73
     8
 74
     0
 42
0.0000000001
 43
0.0000000001
 40
0.0
 40
0.0
 40
0.0
 40
1.0
 40
2.0
 40
3.0
 40
4.0
 40
5.0
 40
6.0
 40
6.0
 40
6.0
 10
-9.356630980129527
 20
62.04605054382793
 30
0.0
 10
-9.421919879349215
 20
62.03360923254479
 30
0.0
 10
-9.543078044368498
 20
61.97892810859325
 30
0.0
 10
-9.648088631134078
 20
61.89742554496718
 30
0.0
 10
-9.73114170892758
 20
61.7936426389284
 30
0.0
 10
-9.787576848395611
 20
61.67324875943548
 30
0.0
 10
-9.812162408258384
 20
61.5425209613641
 30
0.0
 10
-9.808078907190648
 20
61.47615743314853
 30
0.0
  0
SPLINE
  5
15E
330
1F
100
AcDbEntity
  8
DEFAULT
100
AcDbSpline
210
0.0
220
0.0
230
1.0
 70
    12
 71
     2
 72
     6
 73
     3
 74
     0
 42
0.0000000001
 43
0.0000000001
 40
0.0
 40
0.0
 40
0.0
 40
8.250474918043878
 40
8.250474918043878
 40
8.250474918043878
 10
-8.221690428988202
 20
44.31215371992135
 30
0.0
 41
1.0
 10
-4.130406130279521
 20
43.74447538522553
 30
0.0
 41
0.9976037974956197
 10
0.0
 20
43.74689456168726
 30
0.0
 41
0.9999983358919136
  0
SPLINE
  5
15F
330
1F
100
AcDbEntity
  8
DEFAULT
100
AcDbSpline
210
0.0
220
0.0
230
1.0
 70
    12
 71
     3
 72
    11
 73
     7
 74
     0
 42
0.0000000001
 43
0.0000000001
 40
0.0285067606237307
 40
0.0285067606237307
 40
0.0285067606237307
 40
0.0285067606237307
 40
0.2036422705824251
 40
0.3529649579604772
 40
0.5498106380855059
 40
0.8536425016506567
 40
0.8536425016506567
 40
0.8536425016506567
 40
0.8536425016506567
 10
-8.77855073793356
 20
44.76620406729831
 30
0.0
 41
1.0
 10
-8.769860238955985
 20
44.71690986689556
 30
0.0
 41
1.0
 10
-8.729588937889474
 20
44.61019442651425
 30
0.0
 41
1.0
 10
-8.636625616563542
 20
44.48914325164289
 30
0.0
 41
1.0
 10
-8.477211326936459
 20
44.37251055549218
 30
0.0
 41
1.0
 10
-8.320805969638428
 20
44.32568907345325
 30
0.0
 41
1.0
 10
-8.221690428988202
 20
44.31215371992135
 30
0.0
 41
1.0
  0
SPLINE
  5
160
330
1F
100
AcDbEntity
  8
DEFAULT
100
AcDbSpline
210
0.0
220
0.0
230
1.0
 70
     8
 71
     2
 72
    13
 73
    10
 74
     0
 42
0.0000000001
 43
0.0000000001
 40
0.0
 40
0.0
 40
0.0
 40
1.0
 40
2.0
 40
3.0
 40
4.0
 40
5.0
 40
6.0
 40
7.0
 40
8.0
 40
8.0
 40
8.0
 10
-7.43217764465102
 20
60.33606488373158
 30
0.0
 10
-7.635158840831446
 20
59.37706838872214
 30
0.0
 10
-7.985301972178683
 20
57.44807150949963
 30
0.0
 10
-8.274599640488645
 20
55.50902178145289
 30
0.0
 10
-8.503242756070078
 20
53.56190822836471
 30
0.0
 10
-8.685430107063237
 20
51.60997637996236
 30
0.0
 10
-8.831629822223517
 20
49.65496653651799
 30
0.0
 10
-8.938358194108318
 20
47.69772254893506
 30
0.0
 10
-8.949221069858229
 20
45.73427938338844
 30
0.0
 10
-8.77855073793356
 20
44.76620406729831
 30
0.0
  0
SPLINE
  5
161
330
1F
100
AcDbEntity
  8
DEFAULT
100
AcDbSpline
210
0.0
220
0.0
230
1.0
 70
     8
 71
     3
 72
    19
 73
    15
 74
     0
 42
0.0000000001
 43
0.0000000001
 40
0.0
 40
0.0
 40
0.0
 40
0.0
 40
2.232247940101095
 40
4.462819732511551
 40
6.899475607671127
 40
8.91937015223986
 40
9.019515739888016
 40
9.090866166954358
 40
9.218595657282524
 40
9.238659435547545
 40
9.470060216773138
 40
9.710123961932329
 40
10.86335533494464
 40
11.51386883183247
 40
11.51386883183247
 40
11.51386883183247
 40
11.51386883183247
 10
0.0
 20
65.28664619258011
 30
0.0
 10
0.7439226005075675
 20
65.28655119892935
 30
0.0
 10
2.23105346267073
 20
65.21703928355045
 30
0.0
 10
4.509994723262233
 20
64.89156312196508
 30
0.0
 10
6.675243884416862
 20
64.35233226150076
 30
0.0
 10
8.112337509100534
 20
63.85907661894821
 30
0.0
 10
8.790985997864453
 20
63.58823356597388
 30
0.0
 10
8.870270733235689
 20
63.52697591417011
 30
0.0
 10
8.924905977011832
 20
63.47513272276396
 30
0.0
 10
8.958241891219327
 20
63.3515857565977
 30
0.0
 10
8.999653704232013
 20
63.19394001035906
 30
0.0
 10
9.15371112416673
 20
62.67440970557656
 30
0.0
 10
9.374104256080454
 20
62.03008686609212
 30
0.0
 10
9.53623790132954
 20
61.39805739397005
 30
0.0
 10
9.575795352076867
 20
61.1849549007774
 30
0.0
  0
SPLINE
  5
162
330
1F
100
AcDbEntity
  8
DEFAULT
100
AcDbSpline
210
0.0
220
0.0
230
1.0
 70
     8
 71
     3
 72
    19
 73
    15
 74
     0
 42
0.0000000001
 43
0.0000000001
 40
-11.51386883183247
 40
-11.51386883183247
 40
-11.51386883183247
 40
-11.51386883183247
 40
-10.86335533494464
 40
-9.710123961932329
 40
-9.470060216773138
 40
-9.238659435547545
 40
-9.218595657282524
 40
-9.090866166954358
 40
-9.019515739888016
 40
-8.91937015223986
 40
-6.899475607671127
 40
-4.462819732511551
 40
-2.232247940101095
 40
0.0
 40
0.0
 40
0.0
 40
0.0
 10
-9.575795352076867
 20
61.1849549007774
 30
0.0
 10
-9.53623790132954
 20
61.39805739397005
 30
0.0
 10
-9.374104256080454
 20
62.03008686609212
 30
0.0
 10
-9.15371112416673
 20
62.67440970557656
 30
0.0
 10
-8.999653704232013
 20
63.19394001035906
 30
0.0
 10
-8.958241891219327
 20
63.3515857565977
 30
0.0
 10
-8.924905977011832
 20
63.47513272276396
 30
0.0
 10
-8.870270733235689
 20
63.52697591417011
 30
0.0
 10
-8.790985997864453
 20
63.58823356597388
 30
0.0
 10
-8.112337509100534
 20
63.85907661894821
 30
0.0
 10
-6.675243884416862
 20
64.35233226150076
 30
0.0
 10
-4.509994723262233
 20
64.89156312196508
 30
0.0
 10
-2.23105346267073
 20
65.21703928355045
 30
0.0
 10
-0.7439226005075675
 20
65.28655119892935
 30
0.0
 10
0.0
 20
65.28664619258011
 30
0.0
  0
SPLINE
  5
163
330
1F
100
AcDbEntity
  8
DEFAULT
100
AcDbSpline
210
0.0
220
0.0
230
1.0
 70
    12
 71
     2
 72
    10
 73
     7
 74
     0
 42
0.0000000001
 43
0.0000000001
 40
-0.1282201628013348
 40
-0.1282201628013348
 40
-0.1282201628013348
 40
0.0
 40
0.0
 40
0.1060175460643373
 40
0.1060175460643373
 40
0.7644817079169229
 40
0.7644817079169229
 40
0.7644817079169229
 10
-9.596979353144686
 20
60.31567125684088
 30
0.0
 41
1.0
 10
-9.659749710334621
 20
60.3375745471722
 30
0.0
 41
0.9473303484341768
 10
-9.704428521016187
 20
60.39011357316044
 30
0.0
 41
1.0
 10
-9.736218074693422
 20
60.43669622710221
 30
0.0
 41
0.912286974915978
 10
-9.722534167137058
 20
60.49140701255917
 30
0.0
 41
0.9999992032399301
 10
-9.635907193177394
 20
60.86112252616997
 30
0.0
 41
0.9993961059510184
 10
-9.575795352076863
 20
61.1849549007774
 30
0.0
 41
0.9999992040962243
  0
SPLINE
  5
164
330
1F
100
AcDbEntity
  8
DEFAULT
100
AcDbSpline
210
0.0
220
0.0
230
1.0
 70
     8
 71
     3
 72
    14
 73
    10
 74
     0
 42
0.0000000001
 43
0.0000000001
 40
-10.1118640375627
 40
-10.1118640375627
 40
-10.1118640375627
 40
-10.1118640375627
 40
-7.352656220994111
 40
-6.166555932487759
 40
-3.620449295513177
 40
-2.259118278458852
 40
-1.094312261690871
 40
-0.4769411130260029
 40
0.0
 40
0.0
 40
0.0
 40
0.0
 10
0.0
 20
62.84081665923863
 30
0.0
 10
-0.9201669441223597
 20
62.84289420981223
 30
0.0
 10
-2.231367797824285
 20
62.60955688287368
 30
0.0
 10
-4.233223712573581
 20
61.78197268924964
 30
0.0
 10
-5.700003680299151
 20
60.91551477192756
 30
0.0
 10
-7.293753513649545
 20
60.33475560613686
 30
0.0
 10
-8.330944694905426
 20
60.15254815726722
 30
0.0
 10
-9.087548482867035
 20
60.20223571586292
 30
0.0
 10
-9.445378135990651
 20
60.26277104051972
 30
0.0
 10
-9.596979353144686
 20
60.31567125684088
 30
0.0
  0
SPLINE
  5
165
330
1F
100
AcDbEntity
  8
DEFAULT
100
AcDbSpline
210
0.0
220
0.0
230
1.0
 70
     8
 71
     3
 72
    14
 73
    10
 74
     0
 42
0.0000000001
 43
0.0000000001
 40
0.0
 40
0.0
 40
0.0
 40
0.0
 40
0.4769411130260029
 40
1.094312261690871
 40
2.259118278458852
 40
3.620449295513177
 40
6.166555932487759
 40
7.352656220994111
 40
10.1118640375627
 40
10.1118640375627
 40
10.1118640375627
 40
10.1118640375627
 10
9.596979353144686
 20
60.31567125684088
 30
0.0
 10
9.445378135990651
 20
60.26277104051972
 30
0.0
 10
9.087548482867035
 20
60.20223571586292
 30
0.0
 10
8.330944694905426
 20
60.15254815726722
 30
0.0
 10
7.293753513649545
 20
60.33475560613686
 30
0.0
 10
5.700003680299151
 20
60.91551477192756
 30
0.0
 10
4.233223712573581
 20
61.78197268924964
 30
0.0
 10
2.231367797824285
 20
62.60955688287368
 30
0.0
 10
0.9201669441223597
 20
62.84289420981223
 30
0.0
 10
0.0
 20
62.84081665923863
 30
0.0
  0
SPLINE
  5
166
330
1F
100
AcDbEntity
  8
DEFAULT
100
AcDbSpline
210
0.0
220
0.0
230
1.0
 70
    12
 71
     2
 72
    10
 73
     7
 74
     0
 42
0.0000000001
 43
0.0000000001
 40
-0.7644817079169229
 40
-0.7644817079169229
 40
-0.7644817079169229
 40
-0.1060175460643373
 40
-0.1060175460643373
 40
0.0
 40
0.0
 40
0.1282201628013348
 40
0.1282201628013348
 40
0.1282201628013348
 10
9.575795352076863
 20
61.1849549007774
 30
0.0
 41
0.9999992040962243
 10
9.635907193177394
 20
60.86112252616997
 30
0.0
 41
0.9993961059510184
 10
9.722534167137058
 20
60.49140701255917
 30
0.0
 41
0.9999992032399301
 10
9.736218074693422
 20
60.43669622710221
 30
0.0
 41
0.912286974915978
 10
9.704428521016187
 20
60.39011357316044
 30
0.0
 41
1.0
 10
9.659749710334621
 20
60.3375745471722
 30
0.0
 41
0.9473303484341768
 10
9.596979353144686
 20
60.31567125684088
 30
0.0
 41
1.0
  0
SPLINE
  5
167
330
1F
100
AcDbEntity
  8
DEFAULT
100
AcDbSpline
210
0.0
220
0.0
230
1.0
 70
    12
 71
     2
 72
     6
 73
     3
 74
     0
 42
0.0000000001
 43
0.0000000001
 40
0.0
 40
0.0
 40
0.0
 40
4.878290109995292
 40
4.878290109995292
 40
4.878290109995292
 10
0.0
 20
62.00239406379631
 30
0.0
 41
0.9999918043754388
 10
-2.448250804729704
 20
61.99068630766807
 30
0.0
 41
0.9934760685754098
 10
-4.830211976756479
 20
61.4247092328999
 30
0.0
 41
1.0
  0
SPLINE
  5
168
330
1F
100
AcDbEntity
  8
DEFAULT
100
AcDbSpline
210
0.0
220
0.0
230
1.0
 70
    12
 71
     2
 72
     6
 73
     3
 74
     0
 42
0.0000000001
 43
0.0000000001
 40
-4.878290109995292
 40
-4.878290109995292
 40
-4.878290109995292
 40
0.0
 40
0.0
 40
0.0
 10
4.830211976756479
 20
61.4247092328999
 30
0.0
 41
1.0
 10
2.448250804729704
 20
61.99068630766807
 30
0.0
 41
0.9934760685754098
 10
0.0
 20
62.00239406379631
 30
0.0
 41
0.9999918043754388
  0
SPLINE
  5
169
330
1F
100
AcDbEntity
  8
DEFAULT
100
AcDbSpline
210
0.0
220
0.0
230
1.0
 70
     8
 71
     2
 72
    11
 73
     8
 74
     0
 42
0.0000000001
 43
0.0000000001
 40
0.0
 40
0.0
 40
0.0
 40
1.0
 40
2.0
 40
3.0
 40
4.0
 40
5.0
 40
6.0
 40
6.0
 40
6.0
 10
9.687953095134208
 20
60.6416039982254
 30
0.0
 10
9.687672850839316
 20
60.73744527607585
 30
0.0
 10
9.676163764993248
 20
60.92877742399269
 30
0.0
 10
9.660350413980714
 20
61.11977844938504
 30
0.0
 10
9.633003343408213
 20
61.30959612831992
 30
0.0
 10
9.583189056844478
 20
61.49495774354649
 30
0.0
 10
9.502300219732794
 20
61.66950774381552
 30
0.0
 10
9.444444315482212
 20
61.74613979210507
 30
0.0
  0
ARC
  5
16A
330
1F
100
AcDbEntity
  8
DEFAULT
100
AcDbCircle
 10
9.528788439215226
 20
60.55436456053054
 30
0.0
 40
0.2482428125219768
100
AcDbArc
 50
285.9438040692613
 51
304.0351122329449
  0
SPLINE
  5
16B
330
1F
100
AcDbEntity
  8
DEFAULT
100
AcDbSpline
210
0.0
220
0.0
230
1.0
 70
     8
 71
     3
 72
    11
 73
     7
 74
     0
 42
0.0000000001
 43
0.0000000001
 40
0.0000000000000001
 40
0.0000000000000001
 40
0.0000000000000001
 40
0.0000000000000001
 40
0.3781335773925084
 40
0.5640830755754028
 40
0.63666157123833
 40
0.705388731348004
 40
0.705388731348004
 40
0.705388731348004
 40
0.705388731348004
 10
9.783972834294474
 20
61.02799129905018
 30
0.0
 10
9.776006659832628
 20
60.90238022782928
 30
0.0
 10
9.764112973279246
 20
60.71419733332774
 30
0.0
 10
9.746129529904515
 20
60.5034139113605
 30
0.0
 10
9.723210800532229
 20
60.39547834103625
 30
0.0
 10
9.68592717374109
 20
60.3609373272925
 30
0.0
 10
9.667730153039852
 20
60.34864705002573
 30
0.0
  0
SPLINE
  5
16C
330
1F
100
AcDbEntity
  8
DEFAULT
100
AcDbSpline
210
0.0
220
0.0
230
1.0
 70
    12
 71
     2
 72
     8
 73
     5
 74
     0
 42
0.0000000001
 43
0.0000000001
 40
-3.0
 40
-3.0
 40
-3.0
 40
-2.0
 40
-1.0
 40
0.0
 40
0.0
 40
0.0
 10
9.808061667404179
 20
61.47615068487386
 30
0.0
 41
1.0
 10
9.805392058688057
 20
61.43608123939931
 30
0.0
 41
1.0
 10
9.800444412906478
 20
61.35591626016576
 30
0.0
 41
1.0
 10
9.78651454053432
 20
61.0680690609728
 30
0.0
 41
1.0
 10
9.783972834294474
 20
61.02799129905018
 30
0.0
 41
1.0
  0
SPLINE
  5
16D
330
1F
100
AcDbEntity
  8
DEFAULT
100
AcDbSpline
210
0.0
220
0.0
230
1.0
 70
    12
 71
     2
 72
     6
 73
     3
 74
     0
 42
0.0000000001
 43
0.0000000001
 40
0.0
 40
0.0
 40
0.0
 40
0.0742368075508645
 40
0.0742368075508645
 40
0.0742368075508645
 10
9.335955625871321
 20
62.11656697078459
 30
0.0
 41
1.0
 10
9.346903559562929
 20
62.08109977472404
 30
0.0
 41
0.9999981765885326
 10
9.357715952740225
 20
62.04559102365766
 30
0.0
 41
1.0
  0
SPLINE
  5
16E
330
1F
100
AcDbEntity
  8
DEFAULT
100
AcDbSpline
210
0.0
220
0.0
230
1.0
 70
    24
 71
     2
 72
     6
 73
     3
 74
     0
 42
0.0000000001
 43
0.0000000001
 40
0.0
 40
0.0
 40
0.0
 40
4.328712305731482
 40
4.328712305731482
 40
4.328712305731482
 10
10.08007788435724
 20
65.84508627010612
 30
0.0
 10
9.945612716624801
 20
63.68490204714418
 30
0.0
 10
9.811147548892357
 20
61.52471782418223
 30
0.0
  0
SPLINE
  5
16F
330
1F
100
AcDbEntity
  8
DEFAULT
100
AcDbSpline
210
0.0
220
0.0
230
1.0
 70
    12
 71
     2
 72
     8
 73
     5
 74
     0
 42
0.0000000001
 43
0.0000000001
 40
-3.141592653589793
 40
-3.141592653589793
 40
-3.141592653589793
 40
-1.570796326794897
 40
-1.570796326794897
 40
0.0
 40
0.0
 40
0.0
 10
8.957279649586397
 20
65.91493550687377
 30
0.0
 41
1.0
 10
8.99106639024708
 20
66.45765672688385
 30
0.0
 41
0.7071067811865475
 10
9.553639161221142
 20
66.42385621572359
 30
0.0
 41
1.0
 10
10.11494709068074
 20
66.38775710465293
 30
0.0
 41
0.7071067811865475
 10
10.08007788435724
 20
65.84508627010612
 30
0.0
 41
1.0
  0
SPLINE
  5
170
330
1F
100
AcDbEntity
  8
DEFAULT
100
AcDbSpline
210
0.0
220
0.0
230
1.0
 70
    24
 71
     2
 72
     6
 73
     3
 74
     0
 42
0.0000000001
 43
0.0000000001
 40
0.0
 40
0.0
 40
0.0
 40
2.34975482514205
 40
2.34975482514205
 40
2.34975482514205
 10
8.811279904834919
 20
63.56972084445781
 30
0.0
 10
8.884279777210658
 20
64.74232817566579
 30
0.0
 10
8.957279649586397
 20
65.91493550687377
 30
0.0
  0
SPLINE
  5
171
330
1F
100
AcDbEntity
  8
DEFAULT
100
AcDbSpline
210
0.0
220
0.0
230
1.0
 70
    12
 71
     2
 72
     8
 73
     5
 74
     0
 42
0.0000000001
 43
0.0000000001
 40
0.0
 40
0.0
 40
0.0
 40
1.570796326794897
 40
1.570796326794897
 40
3.141592653589793
 40
3.141592653589793
 40
3.141592653589793
 10
-10.08007788435724
 20
65.84508627010612
 30
0.0
 41
1.0
 10
-10.11708377637188
 20
66.43994101946241
 30
0.0
 41
0.7071067811865475
 10
-9.555684658986452
 20
66.47486563784624
 30
0.0
 41
1.0
 10
-8.994285541601029
 20
66.50979025623006
 30
0.0
 41
0.7071067811865475
 10
-8.957279649586397
 20
65.91493550687377
 30
0.0
 41
1.0
  0
ENDSEC
  0
SECTION
  2
OBJECTS
  0
DICTIONARY
  5
C
330
0
100
AcDbDictionary
281
     1
  3
ACAD_GROUP
350
D
  3
ACAD_LAYOUT
350
1A
  3
ACAD_MLEADERSTYLE
350
173
  3
ACAD_MLINESTYLE
350
17
  3
ACAD_PLOTSETTINGS
350
19
  3
ACAD_PLOTSTYLENAME
350
E
  3
ACAD_TABLESTYLE
350
172
  3
ACAD_VISUALSTYLE
350
2A
  0
DICTIONARY
  5
D
102
{ACAD_REACTORS
330
C
102
}
330
C
100
AcDbDictionary
281
     1
  0
DICTIONARY
  5
1A
102
{ACAD_REACTORS
330
C
102
}
330
C
100
AcDbDictionary
281
     1
  3
Layout1
350
1E
  3
Layout2
350
26
  3
Model
350
22
  0
DICTIONARY
  5
173
102
{ACAD_REACTORS
330
C
102
}
330
C
100
AcDbDictionary
281
     1
  0
DICTIONARY
  5
17
102
{ACAD_REACTORS
330
C
102
}
330
C
100
AcDbDictionary
281
     1
  3
Standard
350
18
  0
DICTIONARY
  5
19
102
{ACAD_REACTORS
330
C
102
}
330
C
100
AcDbDictionary
281
     1
  0
ACDBDICTIONARYWDFLT
  5
E
102
{ACAD_REACTORS
330
C
102
}
330
C
100
AcDbDictionary
281
     1
  3
Normal
350
F
100
AcDbDictionaryWithDefault
340
F
  0
DICTIONARY
  5
172
102
{ACAD_REACTORS
330
C
102
}
330
C
100
AcDbDictionary
281
     1
  0
DICTIONARY
  5
2A
102
{ACAD_REACTORS
330
C
102
}
330
C
100
AcDbDictionary
281
     1
  3
2dWireframe
350
2F
  3
3D Hidden
350
31
  3
3dWireframe
350
30
  3
Basic
350
32
  3
Brighten
350
36
  3
ColorChange
350
3A
  3
Conceptual
350
34
  3
Dim
350
35
  3
Facepattern
350
39
  3
Flat
350
2B
  3
FlatWithEdges
350
2C
  3
Gouraud
350
2D
  3
GouraudWithEdges
350
2E
  3
Linepattern
350
38
  3
Realistic
350
33
  3
Thicken
350
37
  0
LAYOUT
  5
1E
102
{ACAD_REACTORS
330
1A
102
}
330
1A
100
AcDbPlotSettings
  1

  2
none_device
  4

  6

 40
0.0
 41
0.0
 42
0.0
 43
0.0
 44
0.0
 45
0.0
 46
0.0
 47
0.0
 48
0.0
 49
0.0
140
0.0
141
0.0
142
1.0
143
1.0
 70
   688
 72
     0
 73
     0
 74
     5
  7

 75
    16
 76
     0
 77
     2
 78
   300
147
1.0
148
0.0
149
0.0
100
AcDbLayout
  1
Layout1
 70
     1
 71
     1
 10
0.0
 20
0.0
 11
12.0
 21
9.0
 12
0.0
 22
0.0
 32
0.0
 14
1.000000000000000E+20
 24
1.000000000000000E+20
 34
1.000000000000000E+20
 15
-1.000000000000000E+20
 25
-1.000000000000000E+20
 35
-1.000000000000000E+20
146
0.0
 13
0.0
 23
0.0
 33
0.0
 16
1.0
 26
0.0
 36
0.0
 17
0.0
 27
1.0
 37
0.0
 76
     0
330
1B
  0
LAYOUT
  5
26
102
{ACAD_REACTORS
330
1A
102
}
330
1A
100
AcDbPlotSettings
  1

  2
none_device
  4

  6

 40
0.0
 41
0.0
 42
0.0
 43
0.0
 44
0.0
 45
0.0
 46
0.0
 47
0.0
 48
0.0
 49
0.0
140
0.0
141
0.0
142
1.0
143
1.0
 70
   688
 72
     0
 73
     0
 74
     5
  7

 75
    16
 76
     0
 77
     2
 78
   300
147
1.0
148
0.0
149
0.0
100
AcDbLayout
  1
Layout2
 70
     1
 71
     2
 10
0.0
 20
0.0
 11
0.0
 21
0.0
 12
0.0
 22
0.0
 32
0.0
 14
0.0
 24
0.0
 34
0.0
 15
0.0
 25
0.0
 35
0.0
146
0.0
 13
0.0
 23
0.0
 33
0.0
 16
1.0
 26
0.0
 36
0.0
 17
0.0
 27
1.0
 37
0.0
 76
     0
330
23
  0
LAYOUT
  5
22
102
{ACAD_REACTORS
330
1A
102
}
330
1A
100
AcDbPlotSettings
  1

  2
none_device
  4

  6

 40
0.0
 41
0.0
 42
0.0
 43
0.0
 44
0.0
 45
0.0
 46
0.0
 47
0.0
 48
0.0
 49
0.0
140
0.0
141
0.0
142
1.0
143
1.0
 70
  1712
 72
     0
 73
     0
 74
     0
  7

 75
     0
 76
     0
 77
     2
 78
   300
147
1.0
148
0.0
149
0.0
100
AcDbLayout
  1
Model
 70
     1
 71
     0
 10
0.0
 20
0.0
 11
12.0
 21
9.0
 12
0.0
 22
0.0
 32
0.0
 14
-10.08750908809881
 24
-0.0113540416246758
 34
0.0
 15
49.65849416984513
 25
66.47486563784624
 35
0.0
146
0.0
 13
0.0
 23
0.0
 33
0.0
 16
1.0
 26
0.0
 36
0.0
 17
0.0
 27
1.0
 37
0.0
 76
     0
330
1F
331
29
  0
MLINESTYLE
  5
18
102
{ACAD_REACTORS
330
17
102
}
330
17
100
AcDbMlineStyle
  2
Standard
 70
     0
  3

 62
   256
 51
90.0
 52
90.0
 71
     2
 49
0.5
 62
   256
  6
BYLAYER
 49
-0.5
 62
   256
  6
BYLAYER
  0
ACDBPLACEHOLDER
  5
F
102
{ACAD_REACTORS
330
E
102
}
330
E
  0
VISUALSTYLE
  5
2F
102
{ACAD_REACTORS
330
2A
102
}
330
2A
100
AcDbVisualStyle
  2
2dWireframe
 70
     4
 71
     0
 72
     2
 73
     0
 90
        0
 40
-0.6
 41
-30.0
 62
     5
 63
     7
421
 16777215
 74
     1
 91
        4
 64
     7
 65
   257
 75
     1
175
     1
 42
1.0
 92
        0
 66
   257
 43
1.0
 76
     1
 77
     6
 78
     2
 67
     7
 79
     5
170
     0
171
     0
290
     0
174
     0
 93
        1
 44
0.0
173
     0
291
     0
 45
0.0
1001
ACAD
1000
AcDbSavedByObjectVersion
1070
     0
  0
VISUALSTYLE
  5
31
102
{ACAD_REACTORS
330
2A
102
}
330
2A
100
AcDbVisualStyle
  2
3D Hidden
 70
     6
 71
     1
 72
     2
 73
     2
 90
        0
 40
-0.6
 41
-30.0
 62
     5
 63
     7
421
 16777215
 74
     2
 91
        2
 64
     7
 65
   257
 75
     2
175
     1
 42
40.0
 92
        0
 66
   257
 43
1.0
 76
     1
 77
     6
 78
     2
 67
     7
 79
     3
170
     0
171
     0
290
     0
174
     0
 93
        1
 44
0.0
173
     0
291
     0
 45
0.0
1001
ACAD
1000
AcDbSavedByObjectVersion
1070
     0
  0
VISUALSTYLE
  5
30
102
{ACAD_REACTORS
330
2A
102
}
330
2A
100
AcDbVisualStyle
  2
3dWireframe
 70
     5
 71
     0
 72
     2
 73
     0
 90
        0
 40
-0.6
 41
-30.0
 62
     5
 63
     7
421
 16777215
 74
     1
 91
        4
 64
     7
 65
   257
 75
     1
175
     1
 42
1.0
 92
        0
 66
   257
 43
1.0
 76
     1
 77
     6
 78
     2
 67
     7
 79
     5
170
     0
171
     0
290
     0
174
     0
 93
        1
 44
0.0
173
     0
291
     0
 45
0.0
1001
ACAD
1000
AcDbSavedByObjectVersion
1070
     0
  0
VISUALSTYLE
  5
32
102
{ACAD_REACTORS
330
2A
102
}
330
2A
100
AcDbVisualStyle
  2
Basic
 70
     7
 71
     1
 72
     0
 73
     1
 90
        0
 40
-0.6
 41
-30.0
 62
     5
 63
     7
421
 16777215
 74
     0
 91
        4
 64
     7
 65
   257
 75
     1
175
     1
 42
1.0
 92
        8
 66
     7
 43
1.0
 76
     1
 77
     6
 78
     2
 67
     7
 79
     5
170
     0
171
     0
290
     0
174
     0
 93
        1
 44
0.0
173
     0
291
     1
 45
0.0
1001
ACAD
1000
AcDbSavedByObjectVersion
1070
     0
  0
VISUALSTYLE
  5
36
102
{ACAD_REACTORS
330
2A
102
}
330
2A
100
AcDbVisualStyle
  2
Brighten
 70
    12
 71
     2
 72
     2
 73
     0
 90
        0
 40
-0.6
 41
-30.0
 62
     5
 63
     7
421
 16777215
 74
     1
 91
        4
 64
     7
 65
   257
 75
     1
175
     1
 42
1.0
 92
        8
 66
     7
 43
1.0
 76
     1
 77
     6
 78
     2
 67
     7
 79
     5
170
     0
171
     0
290
     0
174
     0
 93
        1
 44
50.0
173
     0
291
     1
 45
0.0
1001
ACAD
1000
AcDbSavedByObjectVersion
1070
     0
  0
VISUALSTYLE
  5
3A
102
{ACAD_REACTORS
330
2A
102
}
330
2A
100
AcDbVisualStyle
  2
ColorChange
 70
    16
 71
     2
 72
     2
 73
     3
 90
        0
 40
-0.6
 41
-30.0
 62
     5
 63
     8
421
  8421504
 74
     1
 91
        4
 64
     7
 65
   257
 75
     1
175
     1
 42
1.0
 92
        8
 66
     8
424
  8421504
 43
1.0
 76
     1
 77
     6
 78
     2
 67
     7
 79
     5
170
     0
171
     0
290
     0
174
     0
 93
        1
 44
0.0
173
     0
291
     1
 45
0.0
1001
ACAD
1000
AcDbSavedByObjectVersion
1070
     0
  0
VISUALSTYLE
  5
34
102
{ACAD_REACTORS
330
2A
102
}
330
2A
100
AcDbVisualStyle
  2
Conceptual
 70
     9
 71
     3
 72
     2
 73
     0
 90
        0
 40
-0.6
 41
-30.0
 62
     5
 63
     7
421
 16777215
 74
     2
 91
        2
 64
     7
 65
   257
 75
     1
175
     1
 42
40.0
 92
        8
 66
     7
 43
1.0
 76
     1
 77
     6
 78
     2
 67
     7
 79
     3
170
     0
171
     0
290
     0
174
     0
 93
        1
 44
0.0
173
     0
291
     0
 45
0.0
1001
ACAD
1000
AcDbSavedByObjectVersion
1070
     0
  0
VISUALSTYLE
  5
35
102
{ACAD_REACTORS
330
2A
102
}
330
2A
100
AcDbVisualStyle
  2
Dim
 70
    11
 71
     2
 72
     2
 73
     0
 90
        0
 40
-0.6
 41
-30.0
 62
     5
 63
     7
421
 16777215
 74
     1
 91
        4
 64
     7
 65
   257
 75
     1
175
     1
 42
1.0
 92
        8
 66
     7
 43
1.0
 76
     1
 77
     6
 78
     2
 67
     7
 79
     5
170
     0
171
     0
290
     0
174
     0
 93
        1
 44
-50.0
173
     0
291
     1
 45
0.0
1001
ACAD
1000
AcDbSavedByObjectVersion
1070
     0
  0
VISUALSTYLE
  5
39
102
{ACAD_REACTORS
330
2A
102
}
330
2A
100
AcDbVisualStyle
  2
Facepattern
 70
    15
 71
     2
 72
     2
 73
     0
 90
        0
 40
-0.6
 41
-30.0
 62
     5
 63
     7
421
 16777215
 74
     1
 91
        4
 64
     7
 65
   257
 75
     1
175
     1
 42
1.0
 92
        8
 66
     7
 43
1.0
 76
     1
 77
     6
 78
     2
 67
     7
 79
     5
170
     0
171
     0
290
     0
174
     0
 93
        1
 44
0.0
173
     0
291
     1
 45
0.0
1001
ACAD
1000
AcDbSavedByObjectVersion
1070
     0
  0
VISUALSTYLE
  5
2B
102
{ACAD_REACTORS
330
2A
102
}
330
2A
100
AcDbVisualStyle
  2
Flat
 70
     0
 71
     2
 72
     1
 73
     1
 90
        2
 40
-0.6
 41
30.0
 62
     5
 63
     7
421
 16777215
 74
     0
 91
        4
 64
     7
 65
   257
 75
     1
175
     1
 42
1.0
 92
        8
 66
     7
 43
1.0
 76
     1
 77
     6
 78
     2
 67
     7
 79
     5
170
     0
171
     0
290
     0
174
     0
 93
       13
 44
0.0
173
     0
291
     1
 45
0.0
1001
ACAD
1000
AcDbSavedByObjectVersion
1070
     0
  0
VISUALSTYLE
  5
2C
102
{ACAD_REACTORS
330
2A
102
}
330
2A
100
AcDbVisualStyle
  2
FlatWithEdges
 70
     1
 71
     2
 72
     1
 73
     1
 90
        2
 40
-0.6
 41
30.0
 62
     5
 63
     7
421
 16777215
 74
     1
 91
        4
 64
     7
 65
   257
 75
     1
175
     1
 42
1.0
 92
        0
 66
   257
 43
1.0
 76
     1
 77
     6
 78
     2
 67
     7
 79
     5
170
     0
171
     0
290
     0
174
     0
 93
       13
 44
0.0
173
     0
291
     1
 45
0.0
1001
ACAD
1000
AcDbSavedByObjectVersion
1070
     0
  0
VISUALSTYLE
  5
2D
102
{ACAD_REACTORS
330
2A
102
}
330
2A
100
AcDbVisualStyle
  2
Gouraud
 70
     2
 71
     2
 72
     2
 73
     1
 90
        2
 40
-0.6
 41
30.0
 62
     5
 63
     7
421
 16777215
 74
     0
 91
        4
 64
     7
 65
   257
 75
     1
175
     1
 42
1.0
 92
        0
 66
     7
 43
1.0
 76
     1
 77
     6
 78
     2
 67
     7
 79
     5
170
     0
171
     0
290
     0
174
     0
 93
       13
 44
0.0
173
     0
291
     1
 45
0.0
1001
ACAD
1000
AcDbSavedByObjectVersion
1070
     0
  0
VISUALSTYLE
  5
2E
102
{ACAD_REACTORS
330
2A
102
}
330
2A
100
AcDbVisualStyle
  2
GouraudWithEdges
 70
     3
 71
     2
 72
     2
 73
     1
 90
        2
 40
-0.6
 41
30.0
 62
     5
 63
     7
421
 16777215
 74
     1
 91
        4
 64
     7
 65
   257
 75
     1
175
     1
 42
1.0
 92
        0
 66
   257
 43
1.0
 76
     1
 77
     6
 78
     2
 67
     7
 79
     5
170
     0
171
     0
290
     0
174
     0
 93
       13
 44
0.0
173
     0
291
     1
 45
0.0
1001
ACAD
1000
AcDbSavedByObjectVersion
1070
     0
  0
VISUALSTYLE
  5
38
102
{ACAD_REACTORS
330
2A
102
}
330
2A
100
AcDbVisualStyle
  2
Linepattern
 70
    14
 71
     2
 72
     2
 73
     0
 90
        0
 40
-0.6
 41
-30.0
 62
     5
 63
     7
421
 16777215
 74
     1
 91
        4
 64
     7
 65
   257
 75
     7
175
     7
 42
1.0
 92
        8
 66
     7
 43
1.0
 76
     1
 77
     6
 78
     2
 67
     7
 79
     5
170
     0
171
     0
290
     0
174
     0
 93
        1
 44
0.0
173
     0
291
     1
 45
0.0
1001
ACAD
1000
AcDbSavedByObjectVersion
1070
     0
  0
VISUALSTYLE
  5
33
102
{ACAD_REACTORS
330
2A
102
}
330
2A
100
AcDbVisualStyle
  2
Realistic
 70
     8
 71
     2
 72
     2
 73
     0
 90
        0
 40
-0.6
 41
-30.0
 62
     5
 63
     7
421
 16777215
 74
     1
 91
        0
 64
     7
 65
   257
 75
     1
175
     1
 42
1.0
 92
        8
 66
     8
424
  7895160
 43
1.0
 76
     1
 77
     6
 78
     2
 67
     7
 79
     5
170
     0
171
     0
290
     0
174
     0
 93
       13
 44
0.0
173
     0
291
     0
 45
0.0
1001
ACAD
1000
AcDbSavedByObjectVersion
1070
     0
  0
VISUALSTYLE
  5
37
102
{ACAD_REACTORS
330
2A
102
}
330
2A
100
AcDbVisualStyle
  2
Thicken
 70
    13
 71
     2
 72
     2
 73
     0
 90
        0
 40
-0.6
 41
-30.0
 62
     5
 63
     7
421
 16777215
 74
     1
 91
        4
 64
     7
 65
   257
 75
     1
175
     1
 42
1.0
 92
       12
 66
     7
 43
1.0
 76
     1
 77
     6
 78
     2
 67
     7
 79
     5
170
     0
171
     0
290
     0
174
     0
 93
        1
 44
0.0
173
     0
291
     1
 45
0.0
1001
ACAD
1000
AcDbSavedByObjectVersion
1070
     0
  0
ENDSEC
  0
EOF
